  0
SECTION
  2
HEADER
  9
$ACADVER
  1
AC1024
  9
$ACADMAINTVER
 70
   226
  9
$DWGCODEPAGE
  3
ANSI_932
  9
$INSBASE
 10
0.0
 20
0.0
 30
0.0
  9
$EXTMIN
 10
1.000000000000000E+20
 20
1.000000000000000E+20
 30
1.000000000000000E+20
  9
$EXTMAX
 10
-1.000000000000000E+20
 20
-1.000000000000000E+20
 30
-1.000000000000000E+20
  9
$LIMMIN
 10
0.0
 20
0.0
  9
$LIMMAX
 10
12.0
 20
9.0
  9
$ORTHOMODE
 70
     0
  9
$REGENMODE
 70
     1
  9
$FILLMODE
 70
     1
  9
$QTEXTMODE
 70
     0
  9
$MIRRTEXT
 70
     0
  9
$LTSCALE
 40
1.0
  9
$ATTMODE
 70
     1
  9
$TEXTSIZE
 40
0.2
  9
$TRACEWID
 40
0.05
  9
$TEXTSTYLE
  7
Standard
  9
$CLAYER
  8
0
  9
$CELTYPE
  6
ByLayer
  9
$CECOLOR
 62
   256
  9
$CELTSCALE
 40
1.0
  9
$DISPSILH
 70
     0
  9
$DIMSCALE
 40
1.0
  9
$DIMASZ
 40
0.18
  9
$DIMEXO
 40
0.0625
  9
$DIMDLI
 40
0.38
  9
$DIMRND
 40
0.0
  9
$DIMDLE
 40
0.0
  9
$DIMEXE
 40
0.18
  9
$DIMTP
 40
0.0
  9
$DIMTM
 40
0.0
  9
$DIMTXT
 40
0.18
  9
$DIMCEN
 40
0.09
  9
$DIMTSZ
 40
0.0
  9
$DIMTOL
 70
     0
  9
$DIMLIM
 70
     0
  9
$DIMTIH
 70
     1
  9
$DIMTOH
 70
     1
  9
$DIMSE1
 70
     0
  9
$DIMSE2
 70
     0
  9
$DIMTAD
 70
     0
  9
$DIMZIN
 70
     0
  9
$DIMBLK
  1

  9
$DIMASO
 70
     1
  9
$DIMSHO
 70
     1
  9
$DIMPOST
  1

  9
$DIMAPOST
  1

  9
$DIMALT
 70
     0
  9
$DIMALTD
 70
     2
  9
$DIMALTF
 40
25.4
  9
$DIMLFAC
 40
1.0
  9
$DIMTOFL
 70
     0
  9
$DIMTVP
 40
0.0
  9
$DIMTIX
 70
     0
  9
$DIMSOXD
 70
     0
  9
$DIMSAH
 70
     0
  9
$DIMBLK1
  1

  9
$DIMBLK2
  1

  9
$DIMSTYLE
  2
Standard
  9
$DIMCLRD
 70
     0
  9
$DIMCLRE
 70
     0
  9
$DIMCLRT
 70
     0
  9
$DIMTFAC
 40
1.0
  9
$DIMGAP
 40
0.09
  9
$DIMJUST
 70
     0
  9
$DIMSD1
 70
     0
  9
$DIMSD2
 70
     0
  9
$DIMTOLJ
 70
     1
  9
$DIMTZIN
 70
     0
  9
$DIMALTZ
 70
     0
  9
$DIMALTTZ
 70
     0
  9
$DIMUPT
 70
     0
  9
$DIMDEC
 70
     4
  9
$DIMTDEC
 70
     4
  9
$DIMALTU
 70
     2
  9
$DIMALTTD
 70
     2
  9
$DIMTXSTY
  7
Standard
  9
$DIMAUNIT
 70
     0
  9
$DIMADEC
 70
     0
  9
$DIMALTRND
 40
0.0
  9
$DIMAZIN
 70
     0
  9
$DIMDSEP
 70
    46
  9
$DIMATFIT
 70
     3
  9
$DIMFRAC
 70
     0
  9
$DIMLDRBLK
  1

  9
$DIMLUNIT
 70
     2
  9
$DIMLWD
 70
    -2
  9
$DIMLWE
 70
    -2
  9
$DIMTMOVE
 70
     0
  9
$DIMFXL
 40
1.0
  9
$DIMFXLON
 70
     0
  9
$DIMJOGANG
 40
0.7853981633974483
  9
$DIMTFILL
 70
     0
  9
$DIMTFILLCLR
 70
     0
  9
$DIMARCSYM
 70
     0
  9
$DIMLTYPE
  6

  9
$DIMLTEX1
  6

  9
$DIMLTEX2
  6

  9
$DIMTXTDIRECTION
 70
     0
  9
$LUNITS
 70
     2
  9
$LUPREC
 70
     4
  9
$SKETCHINC
 40
0.1
  9
$FILLETRAD
 40
0.0
  9
$AUNITS
 70
     0
  9
$AUPREC
 70
     0
  9
$MENU
  1
.
  9
$ELEVATION
 40
0.0
  9
$PELEVATION
 40
0.0
  9
$THICKNESS
 40
0.0
  9
$LIMCHECK
 70
     0
  9
$CHAMFERA
 40
0.0
  9
$CHAMFERB
 40
0.0
  9
$CHAMFERC
 40
0.0
  9
$CHAMFERD
 40
0.0
  9
$SKPOLY
 70
     0
  9
$TDCREATE
 40
2459569.489363426
  9
$TDUCREATE
 40
2459569.114363426
  9
$TDUPDATE
 40
2459569.489363426
  9
$TDUUPDATE
 40
2459569.114363426
  9
$TDINDWG
 40
0.0000000000
  9
$TDUSRTIMER
 40
0.0000000000
  9
$USRTIMER
 70
     1
  9
$ANGBASE
 50
0.0
  9
$ANGDIR
 70
     0
  9
$PDMODE
 70
     0
  9
$PDSIZE
 40
0.0
  9
$PLINEWID
 40
0.0
  9
$SPLFRAME
 70
     0
  9
$SPLINETYPE
 70
     6
  9
$SPLINESEGS
 70
     8
  9
$HANDSEED
  5
149
  9
$SURFTAB1
 70
     6
  9
$SURFTAB2
 70
     6
  9
$SURFTYPE
 70
     6
  9
$SURFU
 70
     6
  9
$SURFV
 70
     6
  9
$UCSBASE
  2

  9
$UCSNAME
  2

  9
$UCSORG
 10
0.0
 20
0.0
 30
0.0
  9
$UCSXDIR
 10
1.0
 20
0.0
 30
0.0
  9
$UCSYDIR
 10
0.0
 20
1.0
 30
0.0
  9
$UCSORTHOREF
  2

  9
$UCSORTHOVIEW
 70
     0
  9
$UCSORGTOP
 10
0.0
 20
0.0
 30
0.0
  9
$UCSORGBOTTOM
 10
0.0
 20
0.0
 30
0.0
  9
$UCSORGLEFT
 10
0.0
 20
0.0
 30
0.0
  9
$UCSORGRIGHT
 10
0.0
 20
0.0
 30
0.0
  9
$UCSORGFRONT
 10
0.0
 20
0.0
 30
0.0
  9
$UCSORGBACK
 10
0.0
 20
0.0
 30
0.0
  9
$PUCSBASE
  2

  9
$PUCSNAME
  2

  9
$PUCSORG
 10
0.0
 20
0.0
 30
0.0
  9
$PUCSXDIR
 10
1.0
 20
0.0
 30
0.0
  9
$PUCSYDIR
 10
0.0
 20
1.0
 30
0.0
  9
$PUCSORTHOREF
  2

  9
$PUCSORTHOVIEW
 70
     0
  9
$PUCSORGTOP
 10
0.0
 20
0.0
 30
0.0
  9
$PUCSORGBOTTOM
 10
0.0
 20
0.0
 30
0.0
  9
$PUCSORGLEFT
 10
0.0
 20
0.0
 30
0.0
  9
$PUCSORGRIGHT
 10
0.0
 20
0.0
 30
0.0
  9
$PUCSORGFRONT
 10
0.0
 20
0.0
 30
0.0
  9
$PUCSORGBACK
 10
0.0
 20
0.0
 30
0.0
  9
$USERI1
 70
     0
  9
$USERI2
 70
     0
  9
$USERI3
 70
     0
  9
$USERI4
 70
     0
  9
$USERI5
 70
     0
  9
$USERR1
 40
0.0
  9
$USERR2
 40
0.0
  9
$USERR3
 40
0.0
  9
$USERR4
 40
0.0
  9
$USERR5
 40
0.0
  9
$WORLDVIEW
 70
     1
  9
$SHADEDGE
 70
     3
  9
$SHADEDIF
 70
    70
  9
$TILEMODE
 70
     1
  9
$MAXACTVP
 70
    64
  9
$PINSBASE
 10
0.0
 20
0.0
 30
0.0
  9
$PLIMCHECK
 70
     0
  9
$PEXTMIN
 10
1.000000000000000E+20
 20
1.000000000000000E+20
 30
1.000000000000000E+20
  9
$PEXTMAX
 10
-1.000000000000000E+20
 20
-1.000000000000000E+20
 30
-1.000000000000000E+20
  9
$PLIMMIN
 10
0.0
 20
0.0
  9
$PLIMMAX
 10
12.0
 20
9.0
  9
$UNITMODE
 70
     0
  9
$VISRETAIN
 70
     1
  9
$PLINEGEN
 70
     0
  9
$PSLTSCALE
 70
     1
  9
$TREEDEPTH
 70
  3020
  9
$CMLSTYLE
  2
Standard
  9
$CMLJUST
 70
     0
  9
$CMLSCALE
 40
1.0
  9
$PROXYGRAPHICS
 70
     1
  9
$MEASUREMENT
 70
     0
  9
$CELWEIGHT
370
    -1
  9
$ENDCAPS
280
     0
  9
$JOINSTYLE
280
     0
  9
$LWDISPLAY
290
     1
  9
$INSUNITS
 70
     4
  9
$HYPERLINKBASE
  1

  9
$STYLESHEET
  1

  9
$XEDIT
290
     1
  9
$CEPSNTYPE
380
     0
  9
$PSTYLEMODE
290
     1
  9
$FINGERPRINTGUID
  2
{984AB628-E20E-F34A-80A6-B97BC770D45A}
  9
$VERSIONGUID
  2
{E979A205-0EA2-7944-8B50-8D15E0E2CE1C}
  9
$EXTNAMES
290
     1
  9
$PSVPSCALE
 40
0.0
  9
$OLESTARTUP
290
     0
  9
$SORTENTS
280
   127
  9
$INDEXCTL
280
     0
  9
$HIDETEXT
280
     1
  9
$XCLIPFRAME
280
     2
  9
$HALOGAP
280
     0
  9
$OBSCOLOR
 70
   257
  9
$OBSLTYPE
280
     0
  9
$INTERSECTIONDISPLAY
280
     0
  9
$INTERSECTIONCOLOR
 70
   257
  9
$DIMASSOC
280
     2
  9
$PROJECTNAME
  1

  9
$CAMERADISPLAY
290
     0
  9
$LENSLENGTH
 40
50.0
  9
$CAMERAHEIGHT
 40
0.0
  9
$STEPSPERSEC
 40
2.0
  9
$STEPSIZE
 40
6.0
  9
$3DDWFPREC
 40
2.0
  9
$PSOLWIDTH
 40
0.25
  9
$PSOLHEIGHT
 40
4.0
  9
$LOFTANG1
 40
1.570796326794896
  9
$LOFTANG2
 40
1.570796326794896
  9
$LOFTMAG1
 40
0.0
  9
$LOFTMAG2
 40
0.0
  9
$LOFTPARAM
 70
     7
  9
$LOFTNORMALS
280
     1
  9
$LATITUDE
 40
37.795
  9
$LONGITUDE
 40
-122.394
  9
$NORTHDIRECTION
 40
0.0
  9
$TIMEZONE
 70
 -8000
  9
$LIGHTGLYPHDISPLAY
280
     1
  9
$TILEMODELIGHTSYNCH
280
     1
  9
$CMATERIAL
347
11
  9
$SOLIDHIST
280
     0
  9
$SHOWHIST
280
     1
  9
$DWFFRAME
280
     2
  9
$DGNFRAME
280
     0
  9
$REALWORLDSCALE
290
     1
  9
$INTERFERECOLOR
 62
     1
  9
$INTERFEREOBJVS
345
33
  9
$INTERFEREVPVS
346
30
  9
$CSHADOW
280
     0
  9
$SHADOWPLANELOCATION
 40
0.0
  0
ENDSEC
  0
SECTION
  2
CLASSES
  0
CLASS
  1
ACDBDICTIONARYWDFLT
  2
AcDbDictionaryWithDefault
  3
ObjectDBX Classes
 90
        0
 91
        1
280
     0
281
     0
  0
CLASS
  1
MATERIAL
  2
AcDbMaterial
  3
ObjectDBX Classes
 90
     1153
 91
        3
280
     0
281
     0
  0
CLASS
  1
VISUALSTYLE
  2
AcDbVisualStyle
  3
ObjectDBX Classes
 90
     4095
 91
       24
280
     0
281
     0
  0
CLASS
  1
SCALE
  2
AcDbScale
  3
ObjectDBX Classes
 90
     1153
 91
       17
280
     0
281
     0
  0
CLASS
  1
TABLESTYLE
  2
AcDbTableStyle
  3
ObjectDBX Classes
 90
     4095
 91
        1
280
     0
281
     0
  0
CLASS
  1
MLEADERSTYLE
  2
AcDbMLeaderStyle
  3
ACDB_MLEADERSTYLE_CLASS
 90
     4095
 91
        1
280
     0
281
     0
  0
CLASS
  1
ACDBSECTIONVIEWSTYLE
  2
AcDbSectionViewStyle
  3
ObjectDBX Classes
 90
     1025
 91
        1
280
     0
281
     0
  0
CLASS
  1
ACDBDETAILVIEWSTYLE
  2
AcDbDetailViewStyle
  3
ObjectDBX Classes
 90
     1025
 91
        1
280
     0
281
     0
  0
CLASS
  1
DICTIONARYVAR
  2
AcDbDictionaryVar
  3
ObjectDBX Classes
 90
        0
 91
        5
280
     0
281
     0
  0
CLASS
  1
CELLSTYLEMAP
  2
AcDbCellStyleMap
  3
ObjectDBX Classes
 90
     1152
 91
        1
280
     0
281
     0
  0
ENDSEC
  0
SECTION
  2
TABLES
  0
TABLE
  2
VPORT
  5
8
330
0
100
AcDbSymbolTable
 70
     1
  0
VPORT
  5
57
330
8
100
AcDbSymbolTableRecord
100
AcDbViewportTableRecord
  2
*Active
 70
     0
 10
0.0
 20
0.0
 11
1.0
 21
1.0
 12
0.0
 22
0.0
 13
0.0
 23
0.0
 14
1.0
 24
1.0
 15
0.0
 25
0.0
 16
0.0
 26
0.0
 36
1.0
 17
104.9999999737534
 27
-148.4999999628701
 37
0.0
 40
302.939999924255
 41
0.7070707070707534
 42
50.0
 43
0.0
 44
0.0
 50
0.0
 51
0.0
 71
     0
 72
   100
 73
     1
 74
     0
 75
     1
 76
     0
 77
     0
 78
     0
281
     0
 65
     1
110
0.0
120
0.0
130
0.0
111
1.0
121
0.0
131
0.0
112
0.0
122
1.0
132
0.0
 79
     0
146
0.0
 60
     3
 61
     5
292
     1
282
     1
141
0.0
142
0.0
 63
   250
421
  3355443
  0
ENDTAB
  0
TABLE
  2
LTYPE
  5
5
330
0
100
AcDbSymbolTable
 70
     2
  0
LTYPE
  5
5B
330
5
100
AcDbSymbolTableRecord
100
AcDbLinetypeTableRecord
  2
ByBlock
 70
     0
  3

 72
    65
 73
     0
 40
0.0
  0
LTYPE
  5
5C
330
5
100
AcDbSymbolTableRecord
100
AcDbLinetypeTableRecord
  2
ByLayer
 70
     0
  3

 72
    65
 73
     0
 40
0.0
  0
LTYPE
  5
5D
330
5
100
AcDbSymbolTableRecord
100
AcDbLinetypeTableRecord
  2
Continuous
 70
     0
  3
Solid line
 72
    65
 73
     0
 40
0.0
  0
LTYPE
  5
E7
330
5
100
AcDbSymbolTableRecord
100
AcDbLinetypeTableRecord
  2
AI-Linetype-0
 70
     0
  3
Adobe Illustrator Linetype No. 0
 72
    65
 73
     2
 40
1.411111110758333
 49
0.7055555553791667
 74
     0
 49
-0.7055555553791667
 74
     0
  0
ENDTAB
  0
TABLE
  2
LAYER
  5
2
330
0
100
AcDbSymbolTable
 70
     2
  0
LAYER
  5
54
330
2
100
AcDbSymbolTableRecord
100
AcDbLayerTableRecord
  2
0
 70
     0
 62
     7
  6
Continuous
370
    -3
390
F
347
21
  0
LAYER
  5
78
330
2
100
AcDbSymbolTableRecord
100
AcDbLayerTableRecord
  2
レイヤー 1
 70
     0
 62
     7
  6
Continuous
370
     0
390
F
347
21
  0
ENDTAB
  0
TABLE
  2
STYLE
  5
3
330
0
100
AcDbSymbolTable
 70
     2
  0
STYLE
  5
55
330
3
100
AcDbSymbolTableRecord
100
AcDbTextStyleTableRecord
  2
Standard
 70
     0
 40
0.0
 41
1.0
 50
0.0
 71
     0
 42
0.2
  3
txt
  4

  0
STYLE
  5
5A
330
3
100
AcDbSymbolTableRecord
100
AcDbTextStyleTableRecord
  2
Annotative
 70
     0
 40
0.0
 41
1.0
 50
0.0
 71
     0
 42
0.2
  3
txt
  4

1001
AcadAnnotative
1000
AnnotativeData
1002
{
1070
     1
1070
     1
1002
}
  0
ENDTAB
  0
TABLE
  2
VIEW
  5
6
330
0
100
AcDbSymbolTable
 70
     0
  0
ENDTAB
  0
TABLE
  2
UCS
  5
7
330
0
100
AcDbSymbolTable
 70
     0
  0
ENDTAB
  0
TABLE
  2
APPID
  5
9
330
0
100
AcDbSymbolTable
 70
     2
  0
APPID
  5
56
330
9
100
AcDbSymbolTableRecord
100
AcDbRegAppTableRecord
  2
ACAD
 70
     0
  0
APPID
  5
5E
330
9
100
AcDbSymbolTableRecord
100
AcDbRegAppTableRecord
  2
AcadAnnotative
 70
     0
  0
ENDTAB
  0
TABLE
  2
DIMSTYLE
  5
A
330
0
100
AcDbSymbolTable
 70
     2
100
AcDbDimStyleTable
 71
     0
  0
DIMSTYLE
105
58
330
A
100
AcDbSymbolTableRecord
100
AcDbDimStyleTableRecord
  2
Standard
 70
     0
340
55
  0
DIMSTYLE
105
59
330
A
100
AcDbSymbolTableRecord
100
AcDbDimStyleTableRecord
  2
Annotative
 70
     0
340
55
1001
AcadAnnotative
1000
AnnotativeData
1002
{
1070
     1
1070
     1
1002
}
  0
ENDTAB
  0
TABLE
  2
BLOCK_RECORD
  5
1
330
0
100
AcDbSymbolTable
 70
    16
  0
BLOCK_RECORD
  5
70
330
1
100
AcDbSymbolTableRecord
100
AcDbBlockTableRecord
  2
*Model_Space
340
73
 70
     0
280
     1
281
     0
  0
BLOCK_RECORD
  5
6C
330
1
100
AcDbSymbolTableRecord
100
AcDbBlockTableRecord
  2
*Paper_Space
340
6F
 70
     0
280
     1
281
     0
  0
BLOCK_RECORD
  5
74
330
1
100
AcDbSymbolTableRecord
100
AcDbBlockTableRecord
  2
*Paper_Space0
340
77
 70
     0
280
     1
281
     0
  0
BLOCK_RECORD
  5
79
330
1
100
AcDbSymbolTableRecord
100
AcDbBlockTableRecord
  2
Block_0
340
0
102
{BLKREFS
331
7A
102
}
 70
     0
280
     1
281
     0
  0
BLOCK_RECORD
  5
7D
330
1
100
AcDbSymbolTableRecord
100
AcDbBlockTableRecord
  2
Block_1
340
0
102
{BLKREFS
331
7E
102
}
 70
     0
280
     1
281
     0
  0
BLOCK_RECORD
  5
94
330
1
100
AcDbSymbolTableRecord
100
AcDbBlockTableRecord
  2
Block_2
340
0
102
{BLKREFS
331
95
102
}
 70
     0
280
     1
281
     0
  0
BLOCK_RECORD
  5
98
330
1
100
AcDbSymbolTableRecord
100
AcDbBlockTableRecord
  2
Block_3
340
0
102
{BLKREFS
331
99
102
}
 70
     0
280
     1
281
     0
  0
BLOCK_RECORD
  5
A4
330
1
100
AcDbSymbolTableRecord
100
AcDbBlockTableRecord
  2
Block_4
340
0
102
{BLKREFS
331
A5
102
}
 70
     0
280
     1
281
     0
  0
BLOCK_RECORD
  5
A8
330
1
100
AcDbSymbolTableRecord
100
AcDbBlockTableRecord
  2
Block_5
340
0
102
{BLKREFS
331
A9
102
}
 70
     0
280
     1
281
     0
  0
BLOCK_RECORD
  5
B2
330
1
100
AcDbSymbolTableRecord
100
AcDbBlockTableRecord
  2
Block_6
340
0
102
{BLKREFS
331
B3
102
}
 70
     0
280
     1
281
     0
  0
BLOCK_RECORD
  5
BE
330
1
100
AcDbSymbolTableRecord
100
AcDbBlockTableRecord
  2
Block_7
340
0
102
{BLKREFS
331
BF
102
}
 70
     0
280
     1
281
     0
  0
BLOCK_RECORD
  5
C2
330
1
100
AcDbSymbolTableRecord
100
AcDbBlockTableRecord
  2
Block_8
340
0
102
{BLKREFS
331
C3
102
}
 70
     0
280
     1
281
     0
  0
BLOCK_RECORD
  5
D2
330
1
100
AcDbSymbolTableRecord
100
AcDbBlockTableRecord
  2
Block_9
340
0
102
{BLKREFS
331
D3
102
}
 70
     0
280
     1
281
     0
  0
BLOCK_RECORD
  5
D6
330
1
100
AcDbSymbolTableRecord
100
AcDbBlockTableRecord
  2
Block_10
340
0
102
{BLKREFS
331
D7
102
}
 70
     0
280
     1
281
     0
  0
BLOCK_RECORD
  5
E1
330
1
100
AcDbSymbolTableRecord
100
AcDbBlockTableRecord
  2
Block_11
340
0
102
{BLKREFS
331
E2
102
}
 70
     0
280
     1
281
     0
  0
BLOCK_RECORD
  5
E8
330
1
100
AcDbSymbolTableRecord
100
AcDbBlockTableRecord
  2
Block_12
340
0
102
{BLKREFS
331
E9
102
}
 70
     0
280
     1
281
     0
  0
BLOCK_RECORD
  5
EF
330
1
100
AcDbSymbolTableRecord
100
AcDbBlockTableRecord
  2
Block_13
340
0
102
{BLKREFS
331
F0
102
}
 70
     0
280
     1
281
     0
  0
BLOCK_RECORD
  5
F3
330
1
100
AcDbSymbolTableRecord
100
AcDbBlockTableRecord
  2
Block_14
340
0
102
{BLKREFS
331
F4
102
}
 70
     0
280
     1
281
     0
  0
ENDTAB
  0
ENDSEC
  0
SECTION
  2
BLOCKS
  0
BLOCK
  5
71
330
70
100
AcDbEntity
  8
0
100
AcDbBlockBegin
  2
*Model_Space
 70
     0
 10
0.0
 20
0.0
 30
0.0
  3
*Model_Space
  1

  0
ENDBLK
  5
72
330
70
100
AcDbEntity
  8
0
100
AcDbBlockEnd
  0
BLOCK
  5
6D
330
6C
100
AcDbEntity
 67
     1
  8
0
100
AcDbBlockBegin
  2
*Paper_Space
 70
     0
 10
0.0
 20
0.0
 30
0.0
  3
*Paper_Space
  1

  0
ENDBLK
  5
6E
330
6C
100
AcDbEntity
 67
     1
  8
0
100
AcDbBlockEnd
  0
BLOCK
  5
75
330
74
100
AcDbEntity
 67
     1
  8
0
100
AcDbBlockBegin
  2
*Paper_Space0
 70
     0
 10
0.0
 20
0.0
 30
0.0
  3
*Paper_Space0
  1

  0
ENDBLK
  5
76
330
74
100
AcDbEntity
 67
     1
  8
0
100
AcDbBlockEnd
  0
BLOCK
  5
7B
330
79
100
AcDbEntity
  8
0
100
AcDbBlockBegin
  2
Block_0
 70
     0
 10
0.0
 20
0.0
 30
0.0
  3
Block_0
  1

  0
INSERT
  5
7E
330
79
100
AcDbEntity
  8
レイヤー 1
100
AcDbBlockReference
  2
Block_1
 10
0.0
 20
0.0
 30
0.0
  0
INSERT
  5
E2
330
79
100
AcDbEntity
  8
レイヤー 1
100
AcDbBlockReference
  2
Block_11
 10
0.0
 20
0.0
 30
0.0
  0
ENDBLK
  5
7C
330
79
100
AcDbEntity
  8
0
100
AcDbBlockEnd
  0
BLOCK
  5
7F
330
7D
100
AcDbEntity
  8
0
100
AcDbBlockBegin
  2
Block_1
 70
     0
 10
0.0
 20
0.0
 30
0.0
  3
Block_1
  1

  0
LINE
  5
81
330
7D
100
AcDbEntity
  8
レイヤー 1
 62
   250
420
  2299925
370
    25
100
AcDbLine
 10
93.97760003933219
 20
-144.0069840874149
 30
0.0
 11
96.47760753870723
 21
-144.0069840874149
 31
0.0
  0
LINE
  5
82
330
7D
100
AcDbEntity
  8
レイヤー 1
 62
   250
420
  2299925
370
    25
100
AcDbLine
 10
95.47761115006844
 20
-145.0067563397619
 30
0.0
 11
95.47761115006844
 21
-153.0068131281055
 31
0.0
  0
LINE
  5
83
330
7D
100
AcDbEntity
  8
レイヤー 1
 62
   250
420
  2299925
370
    25
100
AcDbLine
 10
93.97760003933219
 20
-145.0067562841305
 30
0.0
 11
95.47761115006844
 21
-145.0067562841305
 31
0.0
  0
LINE
  5
84
330
7D
100
AcDbEntity
  8
レイヤー 1
 62
   250
420
  2299925
370
    25
100
AcDbLine
 10
93.97760003933219
 20
-144.0069840874149
 30
0.0
 11
93.97760003933219
 21
-145.0067562841305
 31
0.0
  0
LINE
  5
85
330
7D
100
AcDbEntity
  8
レイヤー 1
 62
   250
420
  2299925
370
    25
100
AcDbLine
 10
96.47760753382295
 20
-144.006984143046
 30
0.0
 11
96.47760753382295
 21
-152.0071342672471
 31
0.0
  0
LINE
  5
86
330
7D
100
AcDbEntity
  8
レイヤー 1
 62
   250
420
  2299925
370
    25
100
AcDbLine
 10
112.4775832193618
 20
-152.0071342672471
 30
0.0
 11
112.4775832193618
 21
-152.4071137014872
 31
0.0
  0
LINE
  5
87
330
7D
100
AcDbEntity
  8
レイヤー 1
 62
   250
420
  2299925
370
    25
100
AcDbLine
 10
96.47760753870723
 20
-152.0071342672471
 30
0.0
 11
112.4775832193618
 21
-152.0071342672471
 31
0.0
  0
LINE
  5
88
330
7D
100
AcDbEntity
  8
レイヤー 1
 62
   250
420
  2299925
370
    25
100
AcDbLine
 10
112.4775832193618
 20
-152.4071137014872
 30
0.0
 11
95.47761115006844
 21
-153.0068131281055
 31
0.0
  0
SPLINE
  5
89
330
7D
100
AcDbEntity
  8
レイヤー 1
 62
   250
420
  2299925
370
     9
100
AcDbSpline
210
0.0
220
0.0
230
1.0
 70
    11
 71
     3
 72
    17
 73
    13
 74
     0
 42
0.0000000001
 43
0.0000000001
 40
0.0
 40
0.0
 40
0.0
 40
0.0
 40
1.0
 40
1.0
 40
1.0
 40
2.0
 40
2.0
 40
2.0
 40
3.0
 40
3.0
 40
3.0
 40
4.0
 40
4.0
 40
4.0
 40
4.0
 10
116.5779555892377
 20
-144.0069840874149
 30
0.0
 10
116.5779555892377
 20
-143.9517038110474
 30
0.0
 10
116.533152811471
 20
-143.9069010344127
 30
0.0
 10
116.4773422839861
 20
-143.9069010344127
 30
0.0
 10
116.422238396503
 20
-143.9069010344127
 30
0.0
 10
116.3774356198682
 20
-143.9517038110474
 30
0.0
 10
116.3774356198682
 20
-144.0069840874149
 30
0.0
 10
116.3774356198682
 20
-144.0622643637823
 30
0.0
 10
116.422238396503
 20
-144.1070671404168
 30
0.0
 10
116.4773422839861
 20
-144.1070671404168
 30
0.0
 10
116.533152811471
 20
-144.1070671404168
 30
0.0
 10
116.5779555892377
 20
-144.0622643637823
 30
0.0
 10
116.5779555892377
 20
-144.0069840874149
 30
0.0
  0
SPLINE
  5
8A
330
7D
100
AcDbEntity
  8
レイヤー 1
 62
   250
420
  2299925
370
     9
100
AcDbSpline
210
0.0
220
0.0
230
1.0
 70
     9
 71
     3
 72
    17
 73
    13
 74
     0
 42
0.0000000001
 43
0.0000000001
 40
0.0
 40
0.0
 40
0.0
 40
0.0
 40
1.0
 40
1.0
 40
1.0
 40
2.0
 40
2.0
 40
2.0
 40
3.0
 40
3.0
 40
3.0
 40
4.0
 40
4.0
 40
4.0
 40
4.0
 10
116.5779555892377
 20
-152.0071342672471
 30
0.0
 10
116.5779555892377
 20
-151.9516776019952
 30
0.0
 10
116.533152811471
 20
-151.9068748253605
 30
0.0
 10
116.4773422839861
 20
-151.9068748253605
 30
0.0
 10
116.422238396503
 20
-151.9068748253605
 30
0.0
 10
116.3774356198682
 20
-151.9516776019952
 30
0.0
 10
116.3774356198682
 20
-152.0071342672471
 30
0.0
 10
116.3774356198682
 20
-152.0622381547295
 30
0.0
 10
116.422238396503
 20
-152.1070409313649
 30
0.0
 10
116.4773422839861
 20
-152.1070409313649
 30
0.0
 10
116.533152811471
 20
-152.1070409313649
 30
0.0
 10
116.5779555892377
 20
-152.0622381547295
 30
0.0
 10
116.5779555892377
 20
-152.0071342672471
 30
0.0
  0
SPLINE
  5
8B
330
7D
100
AcDbEntity
  8
レイヤー 1
 62
   250
420
  2299925
370
     9
100
AcDbSpline
210
0.0
220
0.0
230
1.0
 70
     9
 71
     3
 72
    17
 73
    13
 74
     0
 42
0.0000000001
 43
0.0000000001
 40
0.0
 40
0.0
 40
0.0
 40
0.0
 40
1.0
 40
1.0
 40
1.0
 40
2.0
 40
2.0
 40
2.0
 40
3.0
 40
3.0
 40
3.0
 40
4.0
 40
4.0
 40
4.0
 40
4.0
 10
116.5779555892377
 20
-152.4071137014872
 30
0.0
 10
116.5779555892377
 20
-152.3516570362353
 30
0.0
 10
116.533152811471
 20
-152.3068542596006
 30
0.0
 10
116.4773422839861
 20
-152.3068542596006
 30
0.0
 10
116.422238396503
 20
-152.3068542596006
 30
0.0
 10
116.3774356198682
 20
-152.3516570362353
 30
0.0
 10
116.3774356198682
 20
-152.4071137014872
 30
0.0
 10
116.3774356198682
 20
-152.4622175889703
 30
0.0
 10
116.422238396503
 20
-152.507020365605
 30
0.0
 10
116.4773422839861
 20
-152.507020365605
 30
0.0
 10
116.533152811471
 20
-152.507020365605
 30
0.0
 10
116.5779555892377
 20
-152.4622175889703
 30
0.0
 10
116.5779555892377
 20
-152.4071137014872
 30
0.0
  0
CIRCLE
  5
8C
330
7D
100
AcDbEntity
  8
レイヤー 1
 62
   250
420
  2299925
370
     9
100
AcDbCircle
 10
112.4775832193618
 20
-157.1067485815894
 30
0.0
 40
0.099906664118076
  0
SPLINE
  5
8D
330
7D
100
AcDbEntity
  8
レイヤー 1
 62
   250
420
  2299925
370
     9
100
AcDbSpline
210
0.0
220
0.0
230
1.0
 70
     9
 71
     3
 72
    17
 73
    13
 74
     0
 42
0.0000000001
 43
0.0000000001
 40
0.0
 40
0.0
 40
0.0
 40
0.0
 40
1.0
 40
1.0
 40
1.0
 40
2.0
 40
2.0
 40
2.0
 40
3.0
 40
3.0
 40
3.0
 40
4.0
 40
4.0
 40
4.0
 40
4.0
 10
94.0776830948627
 20
-157.1067485815895
 30
0.0
 10
94.0776830948627
 20
-157.051603425659
 30
0.0
 10
94.03288031709598
 20
-157.006841917471
 30
0.0
 10
93.97760003933219
 20
-157.006841917471
 30
0.0
 10
93.92231976156839
 20
-157.006841917471
 30
0.0
 10
93.87769337269054
 20
-157.051603425659
 30
0.0
 10
93.87769337269054
 20
-157.1067485815895
 30
0.0
 10
93.87769337269054
 20
-157.1618524690726
 30
0.0
 10
93.92231976156839
 20
-157.2066552457074
 30
0.0
 10
93.97760003933219
 20
-157.2066552457074
 30
0.0
 10
94.03288031709598
 20
-157.2066552457074
 30
0.0
 10
94.0776830948627
 20
-157.1618524690726
 30
0.0
 10
94.0776830948627
 20
-157.1067485815895
 30
0.0
  0
SPLINE
  5
8E
330
7D
100
AcDbEntity
  8
レイヤー 1
 62
   250
420
  2299925
370
     9
100
AcDbSpline
210
0.0
220
0.0
230
1.0
 70
    11
 71
     3
 72
    17
 73
    13
 74
     0
 42
0.0000000001
 43
0.0000000001
 40
0.0
 40
0.0
 40
0.0
 40
0.0
 40
1.0
 40
1.0
 40
1.0
 40
2.0
 40
2.0
 40
2.0
 40
3.0
 40
3.0
 40
3.0
 40
4.0
 40
4.0
 40
4.0
 40
4.0
 10
92.02783253981968
 20
-144.0069840874149
 30
0.0
 10
92.02783253981968
 20
-143.9517038110474
 30
0.0
 10
91.98306503983081
 20
-143.9069010344127
 30
0.0
 10
91.92792587317804
 20
-143.9069010344127
 30
0.0
 10
91.87264559541359
 20
-143.9069010344127
 30
0.0
 10
91.82787809542473
 20
-143.9517038110474
 30
0.0
 10
91.82787809542473
 20
-144.0069840874149
 30
0.0
 10
91.82787809542473
 20
-144.0622643637823
 30
0.0
 10
91.87264559541359
 20
-144.1070671404168
 30
0.0
 10
91.92792587317804
 20
-144.1070671404168
 30
0.0
 10
91.98306503983081
 20
-144.1070671404168
 30
0.0
 10
92.02783253981968
 20
-144.0622643637823
 30
0.0
 10
92.02783253981968
 20
-144.0069840874149
 30
0.0
  0
SPLINE
  5
8F
330
7D
100
AcDbEntity
  8
レイヤー 1
 62
   250
420
  2299925
370
     9
100
AcDbSpline
210
0.0
220
0.0
230
1.0
 70
     9
 71
     3
 72
    17
 73
    13
 74
     0
 42
0.0000000001
 43
0.0000000001
 40
0.0
 40
0.0
 40
0.0
 40
0.0
 40
1.0
 40
1.0
 40
1.0
 40
2.0
 40
2.0
 40
2.0
 40
3.0
 40
3.0
 40
3.0
 40
4.0
 40
4.0
 40
4.0
 40
4.0
 10
92.02783253981968
 20
-145.0067562841305
 30
0.0
 10
92.02783253981968
 20
-144.9516171188709
 30
0.0
 10
91.98306503983081
 20
-144.906849620013
 30
0.0
 10
91.92792587317804
 20
-144.906849620013
 30
0.0
 10
91.87264559541359
 20
-144.906849620013
 30
0.0
 10
91.82787809542473
 20
-144.9516171188709
 30
0.0
 10
91.82787809542473
 20
-145.0067562841305
 30
0.0
 10
91.82787809542473
 20
-145.062212949383
 30
0.0
 10
91.87264559541359
 20
-145.1070157260174
 30
0.0
 10
91.92792587317804
 20
-145.1070157260174
 30
0.0
 10
91.98306503983081
 20
-145.1070157260174
 30
0.0
 10
92.02783253981968
 20
-145.062212949383
 30
0.0
 10
92.02783253981968
 20
-145.0067562841305
 30
0.0
  0
SPLINE
  5
90
330
7D
100
AcDbEntity
  8
レイヤー 1
 62
   250
420
  2299925
370
     9
100
AcDbSpline
210
0.0
220
0.0
230
1.0
 70
     9
 71
     3
 72
    17
 73
    13
 74
     0
 42
0.0000000001
 43
0.0000000001
 40
0.0
 40
0.0
 40
0.0
 40
0.0
 40
1.0
 40
1.0
 40
1.0
 40
2.0
 40
2.0
 40
2.0
 40
3.0
 40
3.0
 40
3.0
 40
4.0
 40
4.0
 40
4.0
 40
4.0
 10
95.57765892782112
 20
-157.1067485815895
 30
0.0
 10
95.57765892782112
 20
-157.051603425659
 30
0.0
 10
95.53289142783224
 20
-157.006841917471
 30
0.0
 10
95.47761115006844
 20
-157.006841917471
 30
0.0
 10
95.42247198341504
 20
-157.006841917471
 30
0.0
 10
95.37770448342616
 20
-157.051603425659
 30
0.0
 10
95.37770448342616
 20
-157.1067485815895
 30
0.0
 10
95.37770448342616
 20
-157.1618524690726
 30
0.0
 10
95.42247198341504
 20
-157.2066552457074
 30
0.0
 10
95.47761115006844
 20
-157.2066552457074
 30
0.0
 10
95.53289142783224
 20
-157.2066552457074
 30
0.0
 10
95.57765892782112
 20
-157.1618524690726
 30
0.0
 10
95.57765892782112
 20
-157.1067485815895
 30
0.0
  0
LINE
  5
91
330
7D
100
AcDbEntity
  8
レイヤー 1
 62
   250
420
  2299925
370
     9
100
AcDbLine
 10
93.97777642822106
 20
-157.1067485815895
 30
0.0
 11
95.47761115006844
 21
-157.1067485815895
 31
0.0
  0
LINE
  5
92
330
7D
100
AcDbEntity
  8
レイヤー 1
 62
   250
420
  2299925
370
     9
100
AcDbLine
 10
93.97760003933219
 20
-147.6469098835171
 30
0.0
 11
93.97760003933219
 21
-158.1071910560661
 31
0.0
  0
LINE
  5
93
330
7D
100
AcDbEntity
  8
レイヤー 1
 62
   250
420
  2299925
370
     9
100
AcDbLine
 10
95.47761115006844
 20
-155.6467072299494
 30
0.0
 11
95.47761115006844
 21
-158.1071910560661
 31
0.0
  0
INSERT
  5
95
330
7D
100
AcDbEntity
  8
レイヤー 1
100
AcDbBlockReference
  2
Block_2
 10
0.0
 20
0.0
 30
0.0
  0
LINE
  5
A2
330
7D
100
AcDbEntity
  8
レイヤー 1
 62
   250
420
  2299925
370
     9
100
AcDbLine
 10
95.47761115006844
 20
-157.1067485815895
 30
0.0
 11
112.4775832193618
 21
-157.1067485815895
 31
0.0
  0
LINE
  5
A3
330
7D
100
AcDbEntity
  8
レイヤー 1
 62
   250
420
  2299925
370
     9
100
AcDbLine
 10
112.4775832193618
 20
-154.946655025587
 30
0.0
 11
112.4775832193618
 21
-158.1071910560661
 31
0.0
  0
INSERT
  5
A5
330
7D
100
AcDbEntity
  8
レイヤー 1
100
AcDbBlockReference
  2
Block_4
 10
0.0
 20
0.0
 30
0.0
  0
LINE
  5
B0
330
7D
100
AcDbEntity
  8
レイヤー 1
 62
   250
420
  2299925
370
     9
100
AcDbLine
 10
116.4773422839861
 20
-152.0071342672471
 30
0.0
 11
116.4773422839861
 21
-144.006984143046
 31
0.0
  0
LINE
  5
B1
330
7D
100
AcDbEntity
  8
レイヤー 1
 62
   250
420
  2299925
370
     9
100
AcDbLine
 10
99.11767809360284
 20
-144.0069840874149
 30
0.0
 11
117.4777847584627
 21
-144.0069840874149
 31
0.0
  0
INSERT
  5
B3
330
7D
100
AcDbEntity
  8
レイヤー 1
100
AcDbBlockReference
  2
Block_6
 10
0.0
 20
0.0
 30
0.0
  0
LINE
  5
BA
330
7D
100
AcDbEntity
  8
レイヤー 1
 62
   250
420
  2299925
370
     9
100
AcDbLine
 10
116.4773422839861
 20
-152.4071137014872
 30
0.0
 11
116.4773422839861
 21
-153.4068858982031
 31
0.0
  0
LINE
  5
BB
330
7D
100
AcDbEntity
  8
レイヤー 1
 62
   250
420
  2299925
370
     9
100
AcDbLine
 10
116.4773422839861
 20
-152.0071342672471
 30
0.0
 11
116.4773422839861
 21
-152.4071137014872
 31
0.0
  0
LINE
  5
BC
330
7D
100
AcDbEntity
  8
レイヤー 1
 62
   250
420
  2299925
370
     9
100
AcDbLine
 10
115.0173009323459
 20
-152.0071342672471
 30
0.0
 11
117.4777847584627
 21
-152.0071342672471
 31
0.0
  0
LINE
  5
BD
330
7D
100
AcDbEntity
  8
レイヤー 1
 62
   250
420
  2299925
370
     9
100
AcDbLine
 10
115.0173009323459
 20
-152.4071137014872
 30
0.0
 11
117.4777847584627
 21
-152.4071137014872
 31
0.0
  0
INSERT
  5
BF
330
7D
100
AcDbEntity
  8
レイヤー 1
100
AcDbBlockReference
  2
Block_7
 10
0.0
 20
0.0
 30
0.0
  0
LINE
  5
CE
330
7D
100
AcDbEntity
  8
レイヤー 1
 62
   250
420
  2299925
370
     9
100
AcDbLine
 10
91.92792587317804
 20
-144.0069840874149
 30
0.0
 11
91.92792587317804
 21
-143.0070355018146
 31
0.0
  0
LINE
  5
CF
330
7D
100
AcDbEntity
  8
レイヤー 1
 62
   250
420
  2299925
370
     9
100
AcDbLine
 10
91.92792587317804
 20
-144.0069840874149
 30
0.0
 11
91.92792587317804
 21
-146.0068459808386
 31
0.0
  0
LINE
  5
D0
330
7D
100
AcDbEntity
  8
レイヤー 1
 62
   250
420
  2299925
370
     9
100
AcDbLine
 10
93.3877908728132
 20
-144.0069840874149
 30
0.0
 11
90.92783615120557
 21
-144.0069840874149
 31
0.0
  0
LINE
  5
D1
330
7D
100
AcDbEntity
  8
レイヤー 1
 62
   250
420
  2299925
370
     9
100
AcDbLine
 10
93.3877908728132
 20
-145.0067562841305
 30
0.0
 11
90.92783615120557
 21
-145.0067562841305
 31
0.0
  0
INSERT
  5
D3
330
7D
100
AcDbEntity
  8
レイヤー 1
100
AcDbBlockReference
  2
Block_9
 10
0.0
 20
0.0
 30
0.0
  0
ENDBLK
  5
80
330
7D
100
AcDbEntity
  8
0
100
AcDbBlockEnd
  0
BLOCK
  5
96
330
94
100
AcDbEntity
  8
0
100
AcDbBlockBegin
  2
Block_2
 70
     0
 10
0.0
 20
0.0
 30
0.0
  3
Block_2
  1

  0
INSERT
  5
99
330
94
100
AcDbEntity
  8
レイヤー 1
100
AcDbBlockReference
  2
Block_3
 10
0.0
 20
0.0
 30
0.0
  0
ENDBLK
  5
97
330
94
100
AcDbEntity
  8
0
100
AcDbBlockEnd
  0
BLOCK
  5
9A
330
98
100
AcDbEntity
  8
0
100
AcDbBlockBegin
  2
Block_3
 70
     0
 10
0.0
 20
0.0
 30
0.0
  3
Block_3
  1

  0
SPLINE
  5
9C
330
98
100
AcDbEntity
  8
レイヤー 1
100
AcDbSpline
210
0.0
220
0.0
230
1.0
 70
    11
 71
     3
 72
    26
 73
    22
 74
     0
 42
0.0000000001
 43
0.0000000001
 40
0.0
 40
0.0
 40
0.0
 40
0.0
 40
1.0
 40
1.0
 40
1.0
 40
2.0
 40
2.0
 40
2.0
 40
3.0
 40
3.0
 40
3.0
 40
4.0
 40
4.0
 40
4.0
 40
5.0
 40
5.0
 40
5.0
 40
6.0
 40
6.0
 40
6.0
 40
7.0
 40
7.0
 40
7.0
 40
7.0
 10
90.87972409837382
 20
-156.4610785199125
 30
0.0
 10
90.87972409837382
 20
-156.4610785199125
 30
0.0
 10
90.87972409837382
 20
-155.3569254168899
 30
0.0
 10
90.87972409837382
 20
-155.3569254168899
 30
0.0
 10
90.87972409837382
 20
-155.3569254168899
 30
0.0
 10
90.59825979722891
 20
-155.3569254168899
 30
0.0
 10
90.59825979722891
 20
-155.3569254168899
 30
0.0
 10
90.59825979722891
 20
-155.3569254168899
 30
0.0
 10
90.59825979722891
 20
-155.2087863110242
 30
0.0
 10
90.59825979722891
 20
-155.2087863110242
 30
0.0
 10
90.88144664611645
 20
-155.1939724004376
 30
0.0
 10
90.92106524419682
 20
-155.0310193839853
 30
0.0
 10
90.94638669601341
 20
-154.916642213875
 30
0.0
 10
90.94638669601341
 20
-154.916642213875
 30
0.0
 10
91.07075464303092
 20
-154.916642213875
 30
0.0
 10
91.07075464303092
 20
-154.916642213875
 30
0.0
 10
91.07075464303092
 20
-154.916642213875
 30
0.0
 10
91.07075464303092
 20
-156.4610785199125
 30
0.0
 10
91.07075464303092
 20
-156.4610785199125
 30
0.0
 10
91.07075464303092
 20
-156.4610785199125
 30
0.0
 10
90.87972409837382
 20
-156.4610785199125
 30
0.0
 10
90.87972409837382
 20
-156.4610785199125
 30
0.0
  0
HATCH
  5
9D
330
98
100
AcDbEntity
  8
レイヤー 1
 62
   250
420
  2299925
440
 33554687
100
AcDbHatch
 10
0.0
 20
0.0
 30
0.0
210
0.0
220
0.0
230
1.0
  2
SOLID
 70
     1
 71
     1
 91
        1
 92
        1
 93
        1
 72
     4
 94
        3
 73
     0
 74
     0
 95
       26
 96
       22
 40
0.0
 40
0.0
 40
0.0
 40
0.0
 40
1.0
 40
1.0
 40
1.0
 40
2.0
 40
2.0
 40
2.0
 40
3.0
 40
3.0
 40
3.0
 40
4.0
 40
4.0
 40
4.0
 40
5.0
 40
5.0
 40
5.0
 40
6.0
 40
6.0
 40
6.0
 40
7.0
 40
7.0
 40
7.0
 40
7.0
 10
90.87972409837382
 20
-156.4610785199125
 10
90.87972409837382
 20
-156.4610785199125
 10
90.87972409837382
 20
-155.3569254168899
 10
90.87972409837382
 20
-155.3569254168899
 10
90.87972409837382
 20
-155.3569254168899
 10
90.59825979722891
 20
-155.3569254168899
 10
90.59825979722891
 20
-155.3569254168899
 10
90.59825979722891
 20
-155.3569254168899
 10
90.59825979722891
 20
-155.2087863110242
 10
90.59825979722891
 20
-155.2087863110242
 10
90.88144664611645
 20
-155.1939724004376
 10
90.92106524419682
 20
-155.0310193839853
 10
90.94638669601341
 20
-154.916642213875
 10
90.94638669601341
 20
-154.916642213875
 10
91.07075464303092
 20
-154.916642213875
 10
91.07075464303092
 20
-154.916642213875
 10
91.07075464303092
 20
-154.916642213875
 10
91.07075464303092
 20
-156.4610785199125
 10
91.07075464303092
 20
-156.4610785199125
 10
91.07075464303092
 20
-156.4610785199125
 10
90.87972409837382
 20
-156.4610785199125
 10
90.87972409837382
 20
-156.4610785199125
 97
        0
 97
        1
330
9C
 75
     2
 76
     1
 98
        1
 10
0.0
 20
0.0
450
        0
451
        0
460
0.0
461
0.0
452
        0
462
0.0
453
        0
470

  0
SPLINE
  5
9E
330
98
100
AcDbEntity
  8
レイヤー 1
100
AcDbSpline
210
0.0
220
0.0
230
1.0
 70
    11
 71
     3
 72
    17
 73
    13
 74
     0
 42
0.0000000001
 43
0.0000000001
 40
0.0
 40
0.0
 40
0.0
 40
0.0
 40
1.0
 40
1.0
 40
1.0
 40
2.0
 40
2.0
 40
2.0
 40
3.0
 40
3.0
 40
3.0
 40
4.0
 40
4.0
 40
4.0
 40
4.0
 10
91.54790036773801
 20
-156.4610785199125
 30
0.0
 10
91.54790036773801
 20
-156.4610785199125
 30
0.0
 10
91.54790036773801
 20
-156.2092420399407
 30
0.0
 10
91.54790036773801
 20
-156.2092420399407
 30
0.0
 10
91.54790036773801
 20
-156.2092420399407
 30
0.0
 10
91.76252981646909
 20
-156.2092420399407
 30
0.0
 10
91.76252981646909
 20
-156.2092420399407
 30
0.0
 10
91.76252981646909
 20
-156.2092420399407
 30
0.0
 10
91.76252981646909
 20
-156.4610785199125
 30
0.0
 10
91.76252981646909
 20
-156.4610785199125
 30
0.0
 10
91.76252981646909
 20
-156.4610785199125
 30
0.0
 10
91.54790036773801
 20
-156.4610785199125
 30
0.0
 10
91.54790036773801
 20
-156.4610785199125
 30
0.0
  0
HATCH
  5
9F
330
98
100
AcDbEntity
  8
レイヤー 1
 62
   250
420
  2299925
440
 33554687
100
AcDbHatch
 10
0.0
 20
0.0
 30
0.0
210
0.0
220
0.0
230
1.0
  2
SOLID
 70
     1
 71
     1
 91
        1
 92
        1
 93
        1
 72
     4
 94
        3
 73
     0
 74
     0
 95
       17
 96
       13
 40
0.0
 40
0.0
 40
0.0
 40
0.0
 40
1.0
 40
1.0
 40
1.0
 40
2.0
 40
2.0
 40
2.0
 40
3.0
 40
3.0
 40
3.0
 40
4.0
 40
4.0
 40
4.0
 40
4.0
 10
91.54790036773801
 20
-156.4610785199125
 10
91.54790036773801
 20
-156.4610785199125
 10
91.54790036773801
 20
-156.2092420399407
 10
91.54790036773801
 20
-156.2092420399407
 10
91.54790036773801
 20
-156.2092420399407
 10
91.76252981646909
 20
-156.2092420399407
 10
91.76252981646909
 20
-156.2092420399407
 10
91.76252981646909
 20
-156.2092420399407
 10
91.76252981646909
 20
-156.4610785199125
 10
91.76252981646909
 20
-156.4610785199125
 10
91.76252981646909
 20
-156.4610785199125
 10
91.54790036773801
 20
-156.4610785199125
 10
91.54790036773801
 20
-156.4610785199125
 97
        0
 97
        1
330
9E
 75
     2
 76
     1
 98
        1
 10
0.0
 20
0.0
450
        0
451
        0
460
0.0
461
0.0
452
        0
462
0.0
453
        0
470

  0
SPLINE
  5
A0
330
98
100
AcDbEntity
  8
レイヤー 1
100
AcDbSpline
210
0.0
220
0.0
230
1.0
 70
     9
 71
     3
 72
    53
 73
    49
 74
     0
 42
0.0000000001
 43
0.0000000001
 40
0.0
 40
0.0
 40
0.0
 40
0.0
 40
1.0
 40
1.0
 40
1.0
 40
2.0
 40
2.0
 40
2.0
 40
3.0
 40
3.0
 40
3.0
 40
4.0
 40
4.0
 40
4.0
 40
5.0
 40
5.0
 40
5.0
 40
6.0
 40
6.0
 40
6.0
 40
7.0
 40
7.0
 40
7.0
 40
8.0
 40
8.0
 40
8.0
 40
9.0
 40
9.0
 40
9.0
 40
10.0
 40
10.0
 40
10.0
 40
11.0
 40
11.0
 40
11.0
 40
12.0
 40
12.0
 40
12.0
 40
13.0
 40
13.0
 40
13.0
 40
14.0
 40
14.0
 40
14.0
 40
15.0
 40
15.0
 40
15.0
 40
16.0
 40
16.0
 40
16.0
 40
16.0
 10
92.3733452460039
 20
-156.5117214235456
 30
0.0
 10
92.30668264836429
 20
-156.5117214235456
 30
0.0
 10
92.22003849691027
 20
-156.4948404556679
 30
0.0
 10
92.1335666002305
 20
-156.4314506987393
 30
0.0
 10
91.98559974913903
 20
-156.3215521527599
 30
0.0
 10
91.96768525261573
 20
-156.1902940147718
 30
0.0
 10
91.95132104906077
 20
-156.0824625260835
 30
0.0
 10
91.95132104906077
 20
-156.0824625260835
 30
0.0
 10
92.14080130074952
 20
-156.0824625260835
 30
0.0
 10
92.14080130074952
 20
-156.0824625260835
 30
0.0
 10
92.18765459934891
 20
-156.2812445355825
 30
0.0
 10
92.29583059758576
 20
-156.3108723567556
 30
0.0
 10
92.37524004852078
 20
-156.3108723567556
 30
0.0
 10
92.49426809753616
 20
-156.3108723567556
 30
0.0
 10
92.62397594255581
 20
-156.2113090972319
 30
0.0
 10
92.62397594255581
 20
-155.9787651519775
 30
0.0
 10
92.62397594255581
 20
-155.7227945574235
 30
0.0
 10
92.4706691934622
 20
-155.6528591190729
 30
0.0
 10
92.36800534800176
 20
-155.6528591190729
 30
0.0
 10
92.34096134844255
 20
-155.6528591190729
 30
0.0
 10
92.22003849691027
 20
-155.6528591190729
 30
0.0
 10
92.14441865100903
 20
-155.7820501997698
 30
0.0
 10
92.14441865100903
 20
-155.7820501997698
 30
0.0
 10
91.99472925217493
 20
-155.7631021746009
 30
0.0
 10
91.99472925217493
 20
-155.7631021746009
 30
0.0
 10
91.99472925217493
 20
-155.7631021746009
 30
0.0
 10
92.09739309763538
 20
-154.916642213875
 30
0.0
 10
92.09739309763538
 20
-154.916642213875
 30
0.0
 10
92.09739309763538
 20
-154.916642213875
 30
0.0
 10
92.76109074286877
 20
-154.916642213875
 30
0.0
 10
92.76109074286877
 20
-154.916642213875
 30
0.0
 10
92.76109074286877
 20
-154.916642213875
 30
0.0
 10
92.76109074286877
 20
-155.1112901087916
 30
0.0
 10
92.76109074286877
 20
-155.1112901087916
 30
0.0
 10
92.76109074286877
 20
-155.1112901087916
 30
0.0
 10
92.23623044569094
 20
-155.1112901087916
 30
0.0
 10
92.23623044569094
 20
-155.1112901087916
 30
0.0
 10
92.23623044569094
 20
-155.1112901087916
 30
0.0
 10
92.18041989882989
 20
-155.5343478343803
 30
0.0
 10
92.18041989882989
 20
-155.5343478343803
 30
0.0
 10
92.2327853502057
 20
-155.5005858986248
 30
0.0
 10
92.3030652981048
 20
-155.4602782814474
 30
0.0
 10
92.40400659582261
 20
-155.4602782814474
 30
0.0
 10
92.6203585922963
 20
-155.4602782814474
 30
0.0
 10
92.82241344250619
 20
-155.6466579471994
 30
0.0
 10
92.82241344250619
 20
-155.9598171268087
 30
0.0
 10
92.82241344250619
 20
-156.2771104210002
 30
0.0
 10
92.63121064307483
 20
-156.5117214235456
 30
0.0
 10
92.3733452460039
 20
-156.5117214235456
 30
0.0
  0
HATCH
  5
A1
330
98
100
AcDbEntity
  8
レイヤー 1
 62
   250
420
  2299925
440
 33554687
100
AcDbHatch
 10
0.0
 20
0.0
 30
0.0
210
0.0
220
0.0
230
1.0
  2
SOLID
 70
     1
 71
     1
 91
        1
 92
        1
 93
        1
 72
     4
 94
        3
 73
     0
 74
     0
 95
       53
 96
       49
 40
0.0
 40
0.0
 40
0.0
 40
0.0
 40
1.0
 40
1.0
 40
1.0
 40
2.0
 40
2.0
 40
2.0
 40
3.0
 40
3.0
 40
3.0
 40
4.0
 40
4.0
 40
4.0
 40
5.0
 40
5.0
 40
5.0
 40
6.0
 40
6.0
 40
6.0
 40
7.0
 40
7.0
 40
7.0
 40
8.0
 40
8.0
 40
8.0
 40
9.0
 40
9.0
 40
9.0
 40
10.0
 40
10.0
 40
10.0
 40
11.0
 40
11.0
 40
11.0
 40
12.0
 40
12.0
 40
12.0
 40
13.0
 40
13.0
 40
13.0
 40
14.0
 40
14.0
 40
14.0
 40
15.0
 40
15.0
 40
15.0
 40
16.0
 40
16.0
 40
16.0
 40
16.0
 10
92.3733452460039
 20
-156.5117214235456
 10
92.30668264836429
 20
-156.5117214235456
 10
92.22003849691027
 20
-156.4948404556679
 10
92.1335666002305
 20
-156.4314506987393
 10
91.98559974913903
 20
-156.3215521527599
 10
91.96768525261573
 20
-156.1902940147718
 10
91.95132104906077
 20
-156.0824625260835
 10
91.95132104906077
 20
-156.0824625260835
 10
92.14080130074952
 20
-156.0824625260835
 10
92.14080130074952
 20
-156.0824625260835
 10
92.18765459934891
 20
-156.2812445355825
 10
92.29583059758576
 20
-156.3108723567556
 10
92.37524004852078
 20
-156.3108723567556
 10
92.49426809753616
 20
-156.3108723567556
 10
92.62397594255581
 20
-156.2113090972319
 10
92.62397594255581
 20
-155.9787651519775
 10
92.62397594255581
 20
-155.7227945574235
 10
92.4706691934622
 20
-155.6528591190729
 10
92.36800534800176
 20
-155.6528591190729
 10
92.34096134844255
 20
-155.6528591190729
 10
92.22003849691027
 20
-155.6528591190729
 10
92.14441865100903
 20
-155.7820501997698
 10
92.14441865100903
 20
-155.7820501997698
 10
91.99472925217493
 20
-155.7631021746009
 10
91.99472925217493
 20
-155.7631021746009
 10
91.99472925217493
 20
-155.7631021746009
 10
92.09739309763538
 20
-154.916642213875
 10
92.09739309763538
 20
-154.916642213875
 10
92.09739309763538
 20
-154.916642213875
 10
92.76109074286877
 20
-154.916642213875
 10
92.76109074286877
 20
-154.916642213875
 10
92.76109074286877
 20
-154.916642213875
 10
92.76109074286877
 20
-155.1112901087916
 10
92.76109074286877
 20
-155.1112901087916
 10
92.76109074286877
 20
-155.1112901087916
 10
92.23623044569094
 20
-155.1112901087916
 10
92.23623044569094
 20
-155.1112901087916
 10
92.23623044569094
 20
-155.1112901087916
 10
92.18041989882989
 20
-155.5343478343803
 10
92.18041989882989
 20
-155.5343478343803
 10
92.2327853502057
 20
-155.5005858986248
 10
92.3030652981048
 20
-155.4602782814474
 10
92.40400659582261
 20
-155.4602782814474
 10
92.6203585922963
 20
-155.4602782814474
 10
92.82241344250619
 20
-155.6466579471994
 10
92.82241344250619
 20
-155.9598171268087
 10
92.82241344250619
 20
-156.2771104210002
 10
92.63121064307483
 20
-156.5117214235456
 10
92.3733452460039
 20
-156.5117214235456
 97
        0
 97
        1
330
A0
 75
     2
 76
     1
 98
        1
 10
0.0
 20
0.0
450
        0
451
        0
460
0.0
461
0.0
452
        0
462
0.0
453
        0
470

  0
ENDBLK
  5
9B
330
98
100
AcDbEntity
  8
0
100
AcDbBlockEnd
  0
BLOCK
  5
A6
330
A4
100
AcDbEntity
  8
0
100
AcDbBlockBegin
  2
Block_4
 70
     0
 10
0.0
 20
0.0
 30
0.0
  3
Block_4
  1

  0
INSERT
  5
A9
330
A4
100
AcDbEntity
  8
レイヤー 1
100
AcDbBlockReference
  2
Block_5
 10
0.0
 20
0.0
 30
0.0
  0
ENDBLK
  5
A7
330
A4
100
AcDbEntity
  8
0
100
AcDbBlockEnd
  0
BLOCK
  5
AA
330
A8
100
AcDbEntity
  8
0
100
AcDbBlockBegin
  2
Block_5
 70
     0
 10
0.0
 20
0.0
 30
0.0
  3
Block_5
  1

  0
SPLINE
  5
AC
330
A8
100
AcDbEntity
  8
レイヤー 1
100
AcDbSpline
210
0.0
220
0.0
230
1.0
 70
    11
 71
     3
 72
    26
 73
    22
 74
     0
 42
0.0000000001
 43
0.0000000001
 40
0.0
 40
0.0
 40
0.0
 40
0.0
 40
1.0
 40
1.0
 40
1.0
 40
2.0
 40
2.0
 40
2.0
 40
3.0
 40
3.0
 40
3.0
 40
4.0
 40
4.0
 40
4.0
 40
5.0
 40
5.0
 40
5.0
 40
6.0
 40
6.0
 40
6.0
 40
7.0
 40
7.0
 40
7.0
 40
7.0
 10
103.4357191039154
 20
-156.4610785199125
 30
0.0
 10
103.4357191039154
 20
-156.4610785199125
 30
0.0
 10
103.4357191039154
 20
-155.3569254168899
 30
0.0
 10
103.4357191039154
 20
-155.3569254168899
 30
0.0
 10
103.4357191039154
 20
-155.3569254168899
 30
0.0
 10
103.1542548027704
 20
-155.3569254168899
 30
0.0
 10
103.1542548027704
 20
-155.3569254168899
 30
0.0
 10
103.1542548027704
 20
-155.3569254168899
 30
0.0
 10
103.1542548027704
 20
-155.2087863110242
 30
0.0
 10
103.1542548027704
 20
-155.2087863110242
 30
0.0
 10
103.437441651658
 20
-155.1939724004376
 30
0.0
 10
103.4770602497383
 20
-155.0310193839853
 30
0.0
 10
103.5022094467807
 20
-154.916642213875
 30
0.0
 10
103.5022094467807
 20
-154.916642213875
 30
0.0
 10
103.6269219033467
 20
-154.916642213875
 30
0.0
 10
103.6269219033467
 20
-154.916642213875
 30
0.0
 10
103.6269219033467
 20
-154.916642213875
 30
0.0
 10
103.6269219033467
 20
-156.4610785199125
 30
0.0
 10
103.6269219033467
 20
-156.4610785199125
 30
0.0
 10
103.6269219033467
 20
-156.4610785199125
 30
0.0
 10
103.4357191039154
 20
-156.4610785199125
 30
0.0
 10
103.4357191039154
 20
-156.4610785199125
 30
0.0
  0
HATCH
  5
AD
330
A8
100
AcDbEntity
  8
レイヤー 1
 62
   250
420
  2299925
440
 33554687
100
AcDbHatch
 10
0.0
 20
0.0
 30
0.0
210
0.0
220
0.0
230
1.0
  2
SOLID
 70
     1
 71
     1
 91
        1
 92
        1
 93
        1
 72
     4
 94
        3
 73
     0
 74
     0
 95
       26
 96
       22
 40
0.0
 40
0.0
 40
0.0
 40
0.0
 40
1.0
 40
1.0
 40
1.0
 40
2.0
 40
2.0
 40
2.0
 40
3.0
 40
3.0
 40
3.0
 40
4.0
 40
4.0
 40
4.0
 40
5.0
 40
5.0
 40
5.0
 40
6.0
 40
6.0
 40
6.0
 40
7.0
 40
7.0
 40
7.0
 40
7.0
 10
103.4357191039154
 20
-156.4610785199125
 10
103.4357191039154
 20
-156.4610785199125
 10
103.4357191039154
 20
-155.3569254168899
 10
103.4357191039154
 20
-155.3569254168899
 10
103.4357191039154
 20
-155.3569254168899
 10
103.1542548027704
 20
-155.3569254168899
 10
103.1542548027704
 20
-155.3569254168899
 10
103.1542548027704
 20
-155.3569254168899
 10
103.1542548027704
 20
-155.2087863110242
 10
103.1542548027704
 20
-155.2087863110242
 10
103.437441651658
 20
-155.1939724004376
 10
103.4770602497383
 20
-155.0310193839853
 10
103.5022094467807
 20
-154.916642213875
 10
103.5022094467807
 20
-154.916642213875
 10
103.6269219033467
 20
-154.916642213875
 10
103.6269219033467
 20
-154.916642213875
 10
103.6269219033467
 20
-154.916642213875
 10
103.6269219033467
 20
-156.4610785199125
 10
103.6269219033467
 20
-156.4610785199125
 10
103.6269219033467
 20
-156.4610785199125
 10
103.4357191039154
 20
-156.4610785199125
 10
103.4357191039154
 20
-156.4610785199125
 97
        0
 97
        1
330
AC
 75
     2
 76
     1
 98
        1
 10
0.0
 20
0.0
450
        0
451
        0
460
0.0
461
0.0
452
        0
462
0.0
453
        0
470

  0
SPLINE
  5
AE
330
A8
100
AcDbEntity
  8
レイヤー 1
100
AcDbSpline
210
0.0
220
0.0
230
1.0
 70
     9
 71
     3
 72
    26
 73
    22
 74
     0
 42
0.0000000001
 43
0.0000000001
 40
0.0
 40
0.0
 40
0.0
 40
0.0
 40
1.0
 40
1.0
 40
1.0
 40
2.0
 40
2.0
 40
2.0
 40
3.0
 40
3.0
 40
3.0
 40
4.0
 40
4.0
 40
4.0
 40
5.0
 40
5.0
 40
5.0
 40
6.0
 40
6.0
 40
6.0
 40
7.0
 40
7.0
 40
7.0
 40
7.0
 10
104.4031019161735
 20
-156.4610785199125
 30
0.0
 10
104.4031019161735
 20
-156.4610785199125
 30
0.0
 10
104.2012193207379
 20
-156.4610785199125
 30
0.0
 10
104.2012193207379
 20
-156.4610785199125
 30
0.0
 10
104.2229234222949
 20
-156.1520534548856
 30
0.0
 10
104.3869099673928
 20
-155.633911093904
 30
0.0
 10
104.7331420636604
 20
-155.1281710766693
 30
0.0
 10
104.7331420636604
 20
-155.1281710766693
 30
0.0
 10
104.0189737695681
 20
-155.1281710766693
 30
0.0
 10
104.0189737695681
 20
-155.1281710766693
 30
0.0
 10
104.0189737695681
 20
-155.1281710766693
 30
0.0
 10
104.0189737695681
 20
-154.916642213875
 30
0.0
 10
104.0189737695681
 20
-154.916642213875
 30
0.0
 10
104.0189737695681
 20
-154.916642213875
 30
0.0
 10
104.9350246590961
 20
-154.916642213875
 30
0.0
 10
104.9350246590961
 20
-154.916642213875
 30
0.0
 10
104.9350246590961
 20
-154.916642213875
 30
0.0
 10
104.9350246590961
 20
-155.1281710766693
 30
0.0
 10
104.9350246590961
 20
-155.1281710766693
 30
0.0
 10
104.6594170202761
 20
-155.4182481165274
 30
0.0
 10
104.4320407182496
 20
-156.0104600304418
 30
0.0
 10
104.4031019161735
 20
-156.4610785199125
 30
0.0
  0
HATCH
  5
AF
330
A8
100
AcDbEntity
  8
レイヤー 1
 62
   250
420
  2299925
440
 33554687
100
AcDbHatch
 10
0.0
 20
0.0
 30
0.0
210
0.0
220
0.0
230
1.0
  2
SOLID
 70
     1
 71
     1
 91
        1
 92
        1
 93
        1
 72
     4
 94
        3
 73
     0
 74
     0
 95
       26
 96
       22
 40
0.0
 40
0.0
 40
0.0
 40
0.0
 40
1.0
 40
1.0
 40
1.0
 40
2.0
 40
2.0
 40
2.0
 40
3.0
 40
3.0
 40
3.0
 40
4.0
 40
4.0
 40
4.0
 40
5.0
 40
5.0
 40
5.0
 40
6.0
 40
6.0
 40
6.0
 40
7.0
 40
7.0
 40
7.0
 40
7.0
 10
104.4031019161735
 20
-156.4610785199125
 10
104.4031019161735
 20
-156.4610785199125
 10
104.2012193207379
 20
-156.4610785199125
 10
104.2012193207379
 20
-156.4610785199125
 10
104.2229234222949
 20
-156.1520534548856
 10
104.3869099673928
 20
-155.633911093904
 10
104.7331420636604
 20
-155.1281710766693
 10
104.7331420636604
 20
-155.1281710766693
 10
104.0189737695681
 20
-155.1281710766693
 10
104.0189737695681
 20
-155.1281710766693
 10
104.0189737695681
 20
-155.1281710766693
 10
104.0189737695681
 20
-154.916642213875
 10
104.0189737695681
 20
-154.916642213875
 10
104.0189737695681
 20
-154.916642213875
 10
104.9350246590961
 20
-154.916642213875
 10
104.9350246590961
 20
-154.916642213875
 10
104.9350246590961
 20
-154.916642213875
 10
104.9350246590961
 20
-155.1281710766693
 10
104.9350246590961
 20
-155.1281710766693
 10
104.6594170202761
 20
-155.4182481165274
 10
104.4320407182496
 20
-156.0104600304418
 10
104.4031019161735
 20
-156.4610785199125
 97
        0
 97
        1
330
AE
 75
     2
 76
     1
 98
        1
 10
0.0
 20
0.0
450
        0
451
        0
460
0.0
461
0.0
452
        0
462
0.0
453
        0
470

  0
ENDBLK
  5
AB
330
A8
100
AcDbEntity
  8
0
100
AcDbBlockEnd
  0
BLOCK
  5
B4
330
B2
100
AcDbEntity
  8
0
100
AcDbBlockBegin
  2
Block_6
 70
     0
 10
0.0
 20
0.0
 30
0.0
  3
Block_6
  1

  0
SPLINE
  5
B6
330
B2
100
AcDbEntity
  8
レイヤー 1
100
AcDbSpline
210
0.0
220
0.0
230
1.0
 70
     9
 71
     3
 72
    17
 73
    13
 74
     0
 42
0.0000000001
 43
0.0000000001
 40
0.0
 40
0.0
 40
0.0
 40
0.0
 40
1.0
 40
1.0
 40
1.0
 40
2.0
 40
2.0
 40
2.0
 40
3.0
 40
3.0
 40
3.0
 40
4.0
 40
4.0
 40
4.0
 40
4.0
 10
115.0913384043869
 20
-148.0068141991094
 30
0.0
 10
115.0913384043869
 20
-148.1294595983843
 30
0.0
 10
115.1781548106152
 20
-148.2593396981782
 30
0.0
 10
115.3810709346964
 20
-148.2593396981782
 30
0.0
 10
115.5863986256173
 20
-148.2593396981782
 30
0.0
 10
115.6876844328836
 20
-148.1511636999414
 30
0.0
 10
115.6876844328836
 20
-148.0068141991094
 30
0.0
 10
115.6876844328836
 20
-147.8479952972394
 30
0.0
 10
115.5650390336087
 20
-147.7542887000406
 30
0.0
 10
115.3872721065698
 20
-147.7542887000406
 30
0.0
 10
115.1654079573197
 20
-147.7542887000406
 30
0.0
 10
115.0913384043869
 20
-147.8931260480962
 30
0.0
 10
115.0913384043869
 20
-148.0068141991094
 30
0.0
  0
SPLINE
  5
B7
330
B2
100
AcDbEntity
  8
レイヤー 1
100
AcDbSpline
210
0.0
220
0.0
230
1.0
 70
     9
 71
     3
 72
    17
 73
    13
 74
     0
 42
0.0000000001
 43
0.0000000001
 40
0.0
 40
0.0
 40
0.0
 40
0.0
 40
1.0
 40
1.0
 40
1.0
 40
2.0
 40
2.0
 40
2.0
 40
3.0
 40
3.0
 40
3.0
 40
4.0
 40
4.0
 40
4.0
 40
4.0
 10
114.431258109413
 20
-148.0068141991094
 30
0.0
 10
114.431258109413
 20
-148.1473740949076
 30
0.0
 10
114.5263427448059
 20
-148.2197211000978
 30
0.0
 10
114.6617349973762
 20
-148.2197211000978
 30
0.0
 10
114.7843803966511
 20
-148.2197211000978
 30
0.0
 10
114.9028916813437
 20
-148.1583984004604
 30
0.0
 10
114.9028916813437
 20
-148.0068141991094
 30
0.0
 10
114.9028916813437
 20
-147.8552299977584
 30
0.0
 10
114.7843803966511
 20
-147.793907298121
 30
0.0
 10
114.6617349973762
 20
-147.793907298121
 30
0.0
 10
114.5263427448059
 20
-147.793907298121
 30
0.0
 10
114.431258109413
 20
-147.8679768510538
 30
0.0
 10
114.431258109413
 20
-148.0068141991094
 30
0.0
  0
SPLINE
  5
B8
330
B2
100
AcDbEntity
  8
レイヤー 1
100
AcDbSpline
210
0.0
220
0.0
230
1.0
 70
     9
 71
     3
 72
    29
 73
    25
 74
     0
 42
0.0000000001
 43
0.0000000001
 40
0.0
 40
0.0
 40
0.0
 40
0.0
 40
1.0
 40
1.0
 40
1.0
 40
2.0
 40
2.0
 40
2.0
 40
3.0
 40
3.0
 40
3.0
 40
4.0
 40
4.0
 40
4.0
 40
5.0
 40
5.0
 40
5.0
 40
6.0
 40
6.0
 40
6.0
 40
7.0
 40
7.0
 40
7.0
 40
8.0
 40
8.0
 40
8.0
 40
8.0
 10
115.8823323278002
 20
-148.0068141991094
 30
0.0
 10
115.8823323278002
 20
-148.2338459915873
 30
0.0
 10
115.7448730179388
 20
-148.4505424976096
 30
0.0
 10
115.395884845283
 20
-148.4505424976096
 30
0.0
 10
115.1399142507289
 20
-148.4505424976096
 30
0.0
 10
115.044829615336
 20
-148.3296196460773
 30
0.0
 10
114.9835069156985
 20
-148.2393581443638
 30
0.0
 10
114.9242512733522
 20
-148.345811594858
 30
0.0
 10
114.809874103242
 20
-148.4105793899806
 30
0.0
 10
114.6489881440808
 20
-148.4105793899806
 30
0.0
 10
114.3740695243579
 20
-148.4105793899806
 30
0.0
 10
114.2386772717875
 20
-148.2410806921064
 30
0.0
 10
114.2386772717875
 20
-148.0068141991094
 30
0.0
 10
114.2386772717875
 20
-147.7649684960448
 30
0.0
 10
114.382682263071
 20
-147.6027044986896
 30
0.0
 10
114.6489881440808
 20
-147.6027044986896
 30
0.0
 10
114.809874103242
 20
-147.6027044986896
 30
0.0
 10
114.9242512733522
 20
-147.6695393511034
 30
0.0
 10
114.9835069156985
 20
-147.7759928015976
 30
0.0
 10
115.0341498193317
 20
-147.7002007009222
 30
0.0
 10
115.1292344547246
 20
-147.5648084483518
 30
0.0
 10
115.3917507307006
 20
-147.5648084483518
 30
0.0
 10
115.7662326099473
 20
-147.5648084483518
 30
0.0
 10
115.8823323278002
 20
-147.8028645463826
 30
0.0
 10
115.8823323278002
 20
-148.0068141991094
 30
0.0
  0
HATCH
  5
B9
330
B2
100
AcDbEntity
  8
レイヤー 1
 62
   250
420
  2299925
440
 33554687
100
AcDbHatch
 10
0.0
 20
0.0
 30
0.0
210
0.0
220
0.0
230
1.0
  2
SOLID
 70
     1
 71
     1
 91
        3
 92
        1
 93
        1
 72
     4
 94
        3
 73
     0
 74
     0
 95
       17
 96
       13
 40
0.0
 40
0.0
 40
0.0
 40
0.0
 40
1.0
 40
1.0
 40
1.0
 40
2.0
 40
2.0
 40
2.0
 40
3.0
 40
3.0
 40
3.0
 40
4.0
 40
4.0
 40
4.0
 40
4.0
 10
115.0913384043869
 20
-148.0068141991094
 10
115.0913384043869
 20
-148.1294595983843
 10
115.1781548106152
 20
-148.2593396981782
 10
115.3810709346964
 20
-148.2593396981782
 10
115.5863986256173
 20
-148.2593396981782
 10
115.6876844328836
 20
-148.1511636999414
 10
115.6876844328836
 20
-148.0068141991094
 10
115.6876844328836
 20
-147.8479952972394
 10
115.5650390336087
 20
-147.7542887000406
 10
115.3872721065698
 20
-147.7542887000406
 10
115.1654079573197
 20
-147.7542887000406
 10
115.0913384043869
 20
-147.8931260480962
 10
115.0913384043869
 20
-148.0068141991094
 97
        0
 97
        1
330
B6
 92
        1
 93
        1
 72
     4
 94
        3
 73
     0
 74
     0
 95
       17
 96
       13
 40
0.0
 40
0.0
 40
0.0
 40
0.0
 40
1.0
 40
1.0
 40
1.0
 40
2.0
 40
2.0
 40
2.0
 40
3.0
 40
3.0
 40
3.0
 40
4.0
 40
4.0
 40
4.0
 40
4.0
 10
114.431258109413
 20
-148.0068141991094
 10
114.431258109413
 20
-148.1473740949076
 10
114.5263427448059
 20
-148.2197211000978
 10
114.6617349973762
 20
-148.2197211000978
 10
114.7843803966511
 20
-148.2197211000978
 10
114.9028916813437
 20
-148.1583984004604
 10
114.9028916813437
 20
-148.0068141991094
 10
114.9028916813437
 20
-147.8552299977584
 10
114.7843803966511
 20
-147.793907298121
 10
114.6617349973762
 20
-147.793907298121
 10
114.5263427448059
 20
-147.793907298121
 10
114.431258109413
 20
-147.8679768510538
 10
114.431258109413
 20
-148.0068141991094
 97
        0
 97
        1
330
B7
 92
        1
 93
        1
 72
     4
 94
        3
 73
     0
 74
     0
 95
       29
 96
       25
 40
0.0
 40
0.0
 40
0.0
 40
0.0
 40
1.0
 40
1.0
 40
1.0
 40
2.0
 40
2.0
 40
2.0
 40
3.0
 40
3.0
 40
3.0
 40
4.0
 40
4.0
 40
4.0
 40
5.0
 40
5.0
 40
5.0
 40
6.0
 40
6.0
 40
6.0
 40
7.0
 40
7.0
 40
7.0
 40
8.0
 40
8.0
 40
8.0
 40
8.0
 10
115.8823323278002
 20
-148.0068141991094
 10
115.8823323278002
 20
-148.2338459915873
 10
115.7448730179388
 20
-148.4505424976096
 10
115.395884845283
 20
-148.4505424976096
 10
115.1399142507289
 20
-148.4505424976096
 10
115.044829615336
 20
-148.3296196460773
 10
114.9835069156985
 20
-148.2393581443638
 10
114.9242512733522
 20
-148.345811594858
 10
114.809874103242
 20
-148.4105793899806
 10
114.6489881440808
 20
-148.4105793899806
 10
114.3740695243579
 20
-148.4105793899806
 10
114.2386772717875
 20
-148.2410806921064
 10
114.2386772717875
 20
-148.0068141991094
 10
114.2386772717875
 20
-147.7649684960448
 10
114.382682263071
 20
-147.6027044986896
 10
114.6489881440808
 20
-147.6027044986896
 10
114.809874103242
 20
-147.6027044986896
 10
114.9242512733522
 20
-147.6695393511034
 10
114.9835069156985
 20
-147.7759928015976
 10
115.0341498193317
 20
-147.7002007009222
 10
115.1292344547246
 20
-147.5648084483518
 10
115.3917507307006
 20
-147.5648084483518
 10
115.7662326099473
 20
-147.5648084483518
 10
115.8823323278002
 20
-147.8028645463826
 10
115.8823323278002
 20
-148.0068141991094
 97
        0
 97
        1
330
B8
 75
     2
 76
     1
 98
        1
 10
0.0
 20
0.0
450
        0
451
        0
460
0.0
461
0.0
452
        0
462
0.0
453
        0
470

  0
ENDBLK
  5
B5
330
B2
100
AcDbEntity
  8
0
100
AcDbBlockEnd
  0
BLOCK
  5
C0
330
BE
100
AcDbEntity
  8
0
100
AcDbBlockBegin
  2
Block_7
 70
     0
 10
0.0
 20
0.0
 30
0.0
  3
Block_7
  1

  0
INSERT
  5
C3
330
BE
100
AcDbEntity
  8
レイヤー 1
100
AcDbBlockReference
  2
Block_8
 10
0.0
 20
0.0
 30
0.0
  0
ENDBLK
  5
C1
330
BE
100
AcDbEntity
  8
0
100
AcDbBlockEnd
  0
BLOCK
  5
C4
330
C2
100
AcDbEntity
  8
0
100
AcDbBlockBegin
  2
Block_8
 70
     0
 10
0.0
 20
0.0
 30
0.0
  3
Block_8
  1

  0
SPLINE
  5
C6
330
C2
100
AcDbEntity
  8
レイヤー 1
100
AcDbSpline
210
0.0
220
0.0
230
1.0
 70
     9
 71
     3
 72
    17
 73
    13
 74
     0
 42
0.0000000001
 43
0.0000000001
 40
0.0
 40
0.0
 40
0.0
 40
0.0
 40
1.0
 40
1.0
 40
1.0
 40
2.0
 40
2.0
 40
2.0
 40
3.0
 40
3.0
 40
3.0
 40
4.0
 40
4.0
 40
4.0
 40
4.0
 10
118.664591441688
 20
-153.082473377528
 30
0.0
 10
118.664591441688
 20
-153.2950357689679
 30
0.0
 10
118.948122800124
 20
-153.3349988765968
 30
0.0
 10
119.2929768581976
 20
-153.3349988765968
 30
0.0
 10
119.6123372096802
 20
-153.3349988765968
 30
0.0
 10
119.9210177651586
 20
-153.3043375267781
 30
0.0
 10
119.9210177651586
 20
-153.082473377528
 30
0.0
 10
119.9210177651586
 20
-152.8712890242822
 30
0.0
 10
119.6398979735622
 20
-152.8299478784592
 30
0.0
 10
119.2929768581976
 20
-152.8299478784592
 30
0.0
 10
118.9732719971664
 20
-152.8299478784592
 30
0.0
 10
118.664591441688
 20
-152.8623317760205
 30
0.0
 10
118.664591441688
 20
-153.082473377528
 30
0.0
  0
SPLINE
  5
C7
330
C2
100
AcDbEntity
  8
レイヤー 1
100
AcDbSpline
210
0.0
220
0.0
230
1.0
 70
     9
 71
     3
 72
    29
 73
    25
 74
     0
 42
0.0000000001
 43
0.0000000001
 40
0.0
 40
0.0
 40
0.0
 40
0.0
 40
1.0
 40
1.0
 40
1.0
 40
2.0
 40
2.0
 40
2.0
 40
3.0
 40
3.0
 40
3.0
 40
4.0
 40
4.0
 40
4.0
 40
5.0
 40
5.0
 40
5.0
 40
6.0
 40
6.0
 40
6.0
 40
7.0
 40
7.0
 40
7.0
 40
8.0
 40
8.0
 40
8.0
 40
8.0
 10
119.8872558294032
 20
-152.7434759817794
 30
0.0
 10
120.0967176349064
 20
-152.8354600312356
 30
0.0
 10
120.1156656600752
 20
-152.9832546275528
 30
0.0
 10
120.1156656600752
 20
-153.082473377528
 30
0.0
 10
120.1156656600752
 20
-153.2195881778409
 30
0.0
 10
120.0691568710244
 20
-153.3401665198247
 30
0.0
 10
119.8872558294032
 20
-153.4214707732766
 30
0.0
 10
119.6926079344865
 20
-153.5096652176989
 30
0.0
 10
119.4555853651014
 20
-153.5258571664796
 30
0.0
 10
119.2929768581976
 20
-153.5258571664796
 30
0.0
 10
119.1489718669141
 20
-153.5258571664796
 30
0.0
 10
118.8971353869424
 20
-153.5117322749901
 30
0.0
 10
118.6983533774434
 20
-153.4214707732766
 30
0.0
 10
118.4954372533622
 20
-153.3294867238204
 30
0.0
 10
118.4720106040625
 20
-153.1923719235074
 30
0.0
 10
118.4720106040625
 20
-153.082473377528
 30
0.0
 10
118.4720106040625
 20
-152.9470811249577
 30
0.0
 10
118.5164523358223
 20
-152.8244357256828
 30
0.0
 10
118.6983533774434
 20
-152.7434759817794
 30
0.0
 10
118.8909342150689
 20
-152.6587266328423
 30
0.0
 10
119.119344045741
 20
-152.6387450790278
 30
0.0
 10
119.2929768581976
 20
-152.6387450790278
 30
0.0
 10
119.4641981038145
 20
-152.6387450790278
 30
0.0
 10
119.6946749917777
 20
-152.6570040850996
 30
0.0
 10
119.8872558294032
 20
-152.7434759817794
 30
0.0
  0
HATCH
  5
C8
330
C2
100
AcDbEntity
  8
レイヤー 1
 62
   250
420
  2299925
440
 33554687
100
AcDbHatch
 10
0.0
 20
0.0
 30
0.0
210
0.0
220
0.0
230
1.0
  2
SOLID
 70
     1
 71
     1
 91
        2
 92
        1
 93
        1
 72
     4
 94
        3
 73
     0
 74
     0
 95
       17
 96
       13
 40
0.0
 40
0.0
 40
0.0
 40
0.0
 40
1.0
 40
1.0
 40
1.0
 40
2.0
 40
2.0
 40
2.0
 40
3.0
 40
3.0
 40
3.0
 40
4.0
 40
4.0
 40
4.0
 40
4.0
 10
118.664591441688
 20
-153.082473377528
 10
118.664591441688
 20
-153.2950357689679
 10
118.948122800124
 20
-153.3349988765968
 10
119.2929768581976
 20
-153.3349988765968
 10
119.6123372096802
 20
-153.3349988765968
 10
119.9210177651586
 20
-153.3043375267781
 10
119.9210177651586
 20
-153.082473377528
 10
119.9210177651586
 20
-152.8712890242822
 10
119.6398979735622
 20
-152.8299478784592
 10
119.2929768581976
 20
-152.8299478784592
 10
118.9732719971664
 20
-152.8299478784592
 10
118.664591441688
 20
-152.8623317760205
 10
118.664591441688
 20
-153.082473377528
 97
        0
 97
        1
330
C6
 92
        1
 93
        1
 72
     4
 94
        3
 73
     0
 74
     0
 95
       29
 96
       25
 40
0.0
 40
0.0
 40
0.0
 40
0.0
 40
1.0
 40
1.0
 40
1.0
 40
2.0
 40
2.0
 40
2.0
 40
3.0
 40
3.0
 40
3.0
 40
4.0
 40
4.0
 40
4.0
 40
5.0
 40
5.0
 40
5.0
 40
6.0
 40
6.0
 40
6.0
 40
7.0
 40
7.0
 40
7.0
 40
8.0
 40
8.0
 40
8.0
 40
8.0
 10
119.8872558294032
 20
-152.7434759817794
 10
120.0967176349064
 20
-152.8354600312356
 10
120.1156656600752
 20
-152.9832546275528
 10
120.1156656600752
 20
-153.082473377528
 10
120.1156656600752
 20
-153.2195881778409
 10
120.0691568710244
 20
-153.3401665198247
 10
119.8872558294032
 20
-153.4214707732766
 10
119.6926079344865
 20
-153.5096652176989
 10
119.4555853651014
 20
-153.5258571664796
 10
119.2929768581976
 20
-153.5258571664796
 10
119.1489718669141
 20
-153.5258571664796
 10
118.8971353869424
 20
-153.5117322749901
 10
118.6983533774434
 20
-153.4214707732766
 10
118.4954372533622
 20
-153.3294867238204
 10
118.4720106040625
 20
-153.1923719235074
 10
118.4720106040625
 20
-153.082473377528
 10
118.4720106040625
 20
-152.9470811249577
 10
118.5164523358223
 20
-152.8244357256828
 10
118.6983533774434
 20
-152.7434759817794
 10
118.8909342150689
 20
-152.6587266328423
 10
119.119344045741
 20
-152.6387450790278
 10
119.2929768581976
 20
-152.6387450790278
 10
119.4641981038145
 20
-152.6387450790278
 10
119.6946749917777
 20
-152.6570040850996
 10
119.8872558294032
 20
-152.7434759817794
 97
        0
 97
        1
330
C7
 75
     2
 76
     1
 98
        1
 10
0.0
 20
0.0
450
        0
451
        0
460
0.0
461
0.0
452
        0
462
0.0
453
        0
470

  0
SPLINE
  5
C9
330
C2
100
AcDbEntity
  8
レイヤー 1
100
AcDbSpline
210
0.0
220
0.0
230
1.0
 70
    11
 71
     3
 72
    17
 73
    13
 74
     0
 42
0.0000000001
 43
0.0000000001
 40
0.0
 40
0.0
 40
0.0
 40
0.0
 40
1.0
 40
1.0
 40
1.0
 40
2.0
 40
2.0
 40
2.0
 40
3.0
 40
3.0
 40
3.0
 40
4.0
 40
4.0
 40
4.0
 40
4.0
 10
120.0650227564421
 20
-152.455810508761
 30
0.0
 10
120.0650227564421
 20
-152.455810508761
 30
0.0
 10
119.8131862764703
 20
-152.455810508761
 30
0.0
 10
119.8131862764703
 20
-152.455810508761
 30
0.0
 10
119.8131862764703
 20
-152.455810508761
 30
0.0
 10
119.8131862764703
 20
-152.24118106003
 30
0.0
 10
119.8131862764703
 20
-152.24118106003
 30
0.0
 10
119.8131862764703
 20
-152.24118106003
 30
0.0
 10
120.0650227564421
 20
-152.24118106003
 30
0.0
 10
120.0650227564421
 20
-152.24118106003
 30
0.0
 10
120.0650227564421
 20
-152.24118106003
 30
0.0
 10
120.0650227564421
 20
-152.455810508761
 30
0.0
 10
120.0650227564421
 20
-152.455810508761
 30
0.0
  0
HATCH
  5
CA
330
C2
100
AcDbEntity
  8
レイヤー 1
 62
   250
420
  2299925
440
 33554687
100
AcDbHatch
 10
0.0
 20
0.0
 30
0.0
210
0.0
220
0.0
230
1.0
  2
SOLID
 70
     1
 71
     1
 91
        1
 92
        1
 93
        1
 72
     4
 94
        3
 73
     0
 74
     0
 95
       17
 96
       13
 40
0.0
 40
0.0
 40
0.0
 40
0.0
 40
1.0
 40
1.0
 40
1.0
 40
2.0
 40
2.0
 40
2.0
 40
3.0
 40
3.0
 40
3.0
 40
4.0
 40
4.0
 40
4.0
 40
4.0
 10
120.0650227564421
 20
-152.455810508761
 10
120.0650227564421
 20
-152.455810508761
 10
119.8131862764703
 20
-152.455810508761
 10
119.8131862764703
 20
-152.455810508761
 10
119.8131862764703
 20
-152.455810508761
 10
119.8131862764703
 20
-152.24118106003
 10
119.8131862764703
 20
-152.24118106003
 10
119.8131862764703
 20
-152.24118106003
 10
120.0650227564421
 20
-152.24118106003
 10
120.0650227564421
 20
-152.24118106003
 10
120.0650227564421
 20
-152.24118106003
 10
120.0650227564421
 20
-152.455810508761
 10
120.0650227564421
 20
-152.455810508761
 97
        0
 97
        1
330
C9
 75
     2
 76
     1
 98
        1
 10
0.0
 20
0.0
450
        0
451
        0
460
0.0
461
0.0
452
        0
462
0.0
453
        0
470

  0
SPLINE
  5
CB
330
C2
100
AcDbEntity
  8
レイヤー 1
100
AcDbSpline
210
0.0
220
0.0
230
1.0
 70
    11
 71
     3
 72
    14
 73
    10
 74
     0
 42
0.0000000001
 43
0.0000000001
 40
0.0
 40
0.0
 40
0.0
 40
0.0
 40
1.0
 40
1.0
 40
1.0
 40
2.0
 40
2.0
 40
2.0
 40
3.0
 40
3.0
 40
3.0
 40
3.0
 10
118.8633734511869
 20
-151.5163329699334
 30
0.0
 10
118.8633734511869
 20
-151.5163329699334
 30
0.0
 10
119.5193196315785
 20
-151.9059732693152
 30
0.0
 10
119.5193196315785
 20
-151.9059732693152
 30
0.0
 10
119.5193196315785
 20
-151.9059732693152
 30
0.0
 10
119.5193196315785
 20
-151.5163329699334
 30
0.0
 10
119.5193196315785
 20
-151.5163329699334
 30
0.0
 10
119.5193196315785
 20
-151.5163329699334
 30
0.0
 10
118.8633734511869
 20
-151.5163329699334
 30
0.0
 10
118.8633734511869
 20
-151.5163329699334
 30
0.0
  0
SPLINE
  5
CC
330
C2
100
AcDbEntity
  8
レイヤー 1
100
AcDbSpline
210
0.0
220
0.0
230
1.0
 70
    11
 71
     3
 72
    38
 73
    34
 74
     0
 42
0.0000000001
 43
0.0000000001
 40
0.0
 40
0.0
 40
0.0
 40
0.0
 40
1.0
 40
1.0
 40
1.0
 40
2.0
 40
2.0
 40
2.0
 40
3.0
 40
3.0
 40
3.0
 40
4.0
 40
4.0
 40
4.0
 40
5.0
 40
5.0
 40
5.0
 40
6.0
 40
6.0
 40
6.0
 40
7.0
 40
7.0
 40
7.0
 40
8.0
 40
8.0
 40
8.0
 40
9.0
 40
9.0
 40
9.0
 40
10.0
 40
10.0
 40
10.0
 40
11.0
 40
11.0
 40
11.0
 40
11.0
 10
119.7181016410774
 20
-151.3306423232784
 30
0.0
 10
119.7181016410774
 20
-151.3306423232784
 30
0.0
 10
120.0650227564421
 20
-151.3306423232784
 30
0.0
 10
120.0650227564421
 20
-151.3306423232784
 30
0.0
 10
120.0650227564421
 20
-151.3306423232784
 30
0.0
 10
120.0650227564421
 20
-151.5163329699334
 30
0.0
 10
120.0650227564421
 20
-151.5163329699334
 30
0.0
 10
120.0650227564421
 20
-151.5163329699334
 30
0.0
 10
119.7181016410774
 20
-151.5163329699334
 30
0.0
 10
119.7181016410774
 20
-151.5163329699334
 30
0.0
 10
119.7181016410774
 20
-151.5163329699334
 30
0.0
 10
119.7181016410774
 20
-152.0754719671895
 30
0.0
 10
119.7181016410774
 20
-152.0754719671895
 30
0.0
 10
119.7181016410774
 20
-152.0754719671895
 30
0.0
 10
119.4938259249876
 20
-152.0754719671895
 30
0.0
 10
119.4938259249876
 20
-152.0754719671895
 30
0.0
 10
119.4938259249876
 20
-152.0754719671895
 30
0.0
 10
118.5205864504045
 20
-151.4966959256675
 30
0.0
 10
118.5205864504045
 20
-151.4966959256675
 30
0.0
 10
118.5205864504045
 20
-151.4966959256675
 30
0.0
 10
118.5205864504045
 20
-151.3306423232784
 30
0.0
 10
118.5205864504045
 20
-151.3306423232784
 30
0.0
 10
118.5205864504045
 20
-151.3306423232784
 30
0.0
 10
119.5193196315785
 20
-151.3306423232784
 30
0.0
 10
119.5193196315785
 20
-151.3306423232784
 30
0.0
 10
119.5193196315785
 20
-151.3306423232784
 30
0.0
 10
119.5193196315785
 20
-151.1539089248851
 30
0.0
 10
119.5193196315785
 20
-151.1539089248851
 30
0.0
 10
119.5193196315785
 20
-151.1539089248851
 30
0.0
 10
119.7181016410774
 20
-151.1539089248851
 30
0.0
 10
119.7181016410774
 20
-151.1539089248851
 30
0.0
 10
119.7181016410774
 20
-151.1539089248851
 30
0.0
 10
119.7181016410774
 20
-151.3306423232784
 30
0.0
 10
119.7181016410774
 20
-151.3306423232784
 30
0.0
  0
HATCH
  5
CD
330
C2
100
AcDbEntity
  8
レイヤー 1
 62
   250
420
  2299925
440
 33554687
100
AcDbHatch
 10
0.0
 20
0.0
 30
0.0
210
0.0
220
0.0
230
1.0
  2
SOLID
 70
     1
 71
     1
 91
        2
 92
        1
 93
        1
 72
     4
 94
        3
 73
     0
 74
     0
 95
       14
 96
       10
 40
0.0
 40
0.0
 40
0.0
 40
0.0
 40
1.0
 40
1.0
 40
1.0
 40
2.0
 40
2.0
 40
2.0
 40
3.0
 40
3.0
 40
3.0
 40
3.0
 10
118.8633734511869
 20
-151.5163329699334
 10
118.8633734511869
 20
-151.5163329699334
 10
119.5193196315785
 20
-151.9059732693152
 10
119.5193196315785
 20
-151.9059732693152
 10
119.5193196315785
 20
-151.9059732693152
 10
119.5193196315785
 20
-151.5163329699334
 10
119.5193196315785
 20
-151.5163329699334
 10
119.5193196315785
 20
-151.5163329699334
 10
118.8633734511869
 20
-151.5163329699334
 10
118.8633734511869
 20
-151.5163329699334
 97
        0
 97
        1
330
CB
 92
        1
 93
        1
 72
     4
 94
        3
 73
     0
 74
     0
 95
       38
 96
       34
 40
0.0
 40
0.0
 40
0.0
 40
0.0
 40
1.0
 40
1.0
 40
1.0
 40
2.0
 40
2.0
 40
2.0
 40
3.0
 40
3.0
 40
3.0
 40
4.0
 40
4.0
 40
4.0
 40
5.0
 40
5.0
 40
5.0
 40
6.0
 40
6.0
 40
6.0
 40
7.0
 40
7.0
 40
7.0
 40
8.0
 40
8.0
 40
8.0
 40
9.0
 40
9.0
 40
9.0
 40
10.0
 40
10.0
 40
10.0
 40
11.0
 40
11.0
 40
11.0
 40
11.0
 10
119.7181016410774
 20
-151.3306423232784
 10
119.7181016410774
 20
-151.3306423232784
 10
120.0650227564421
 20
-151.3306423232784
 10
120.0650227564421
 20
-151.3306423232784
 10
120.0650227564421
 20
-151.3306423232784
 10
120.0650227564421
 20
-151.5163329699334
 10
120.0650227564421
 20
-151.5163329699334
 10
120.0650227564421
 20
-151.5163329699334
 10
119.7181016410774
 20
-151.5163329699334
 10
119.7181016410774
 20
-151.5163329699334
 10
119.7181016410774
 20
-151.5163329699334
 10
119.7181016410774
 20
-152.0754719671895
 10
119.7181016410774
 20
-152.0754719671895
 10
119.7181016410774
 20
-152.0754719671895
 10
119.4938259249876
 20
-152.0754719671895
 10
119.4938259249876
 20
-152.0754719671895
 10
119.4938259249876
 20
-152.0754719671895
 10
118.5205864504045
 20
-151.4966959256675
 10
118.5205864504045
 20
-151.4966959256675
 10
118.5205864504045
 20
-151.4966959256675
 10
118.5205864504045
 20
-151.3306423232784
 10
118.5205864504045
 20
-151.3306423232784
 10
118.5205864504045
 20
-151.3306423232784
 10
119.5193196315785
 20
-151.3306423232784
 10
119.5193196315785
 20
-151.3306423232784
 10
119.5193196315785
 20
-151.3306423232784
 10
119.5193196315785
 20
-151.1539089248851
 10
119.5193196315785
 20
-151.1539089248851
 10
119.5193196315785
 20
-151.1539089248851
 10
119.7181016410774
 20
-151.1539089248851
 10
119.7181016410774
 20
-151.1539089248851
 10
119.7181016410774
 20
-151.1539089248851
 10
119.7181016410774
 20
-151.3306423232784
 10
119.7181016410774
 20
-151.3306423232784
 97
        0
 97
        1
330
CC
 75
     2
 76
     1
 98
        1
 10
0.0
 20
0.0
450
        0
451
        0
460
0.0
461
0.0
452
        0
462
0.0
453
        0
470

  0
ENDBLK
  5
C5
330
C2
100
AcDbEntity
  8
0
100
AcDbBlockEnd
  0
BLOCK
  5
D4
330
D2
100
AcDbEntity
  8
0
100
AcDbBlockBegin
  2
Block_9
 70
     0
 10
0.0
 20
0.0
 30
0.0
  3
Block_9
  1

  0
INSERT
  5
D7
330
D2
100
AcDbEntity
  8
レイヤー 1
100
AcDbBlockReference
  2
Block_10
 10
0.0
 20
0.0
 30
0.0
  0
ENDBLK
  5
D5
330
D2
100
AcDbEntity
  8
0
100
AcDbBlockEnd
  0
BLOCK
  5
D8
330
D6
100
AcDbEntity
  8
0
100
AcDbBlockBegin
  2
Block_10
 70
     0
 10
0.0
 20
0.0
 30
0.0
  3
Block_10
  1

  0
SPLINE
  5
DA
330
D6
100
AcDbEntity
  8
レイヤー 1
100
AcDbSpline
210
0.0
220
0.0
230
1.0
 70
    11
 71
     3
 72
    26
 73
    22
 74
     0
 42
0.0000000001
 43
0.0000000001
 40
0.0
 40
0.0
 40
0.0
 40
0.0
 40
1.0
 40
1.0
 40
1.0
 40
2.0
 40
2.0
 40
2.0
 40
3.0
 40
3.0
 40
3.0
 40
4.0
 40
4.0
 40
4.0
 40
5.0
 40
5.0
 40
5.0
 40
6.0
 40
6.0
 40
6.0
 40
7.0
 40
7.0
 40
7.0
 40
7.0
 10
91.28176674150248
 20
-143.5106200813098
 30
0.0
 10
91.28176674150248
 20
-143.5106200813098
 30
0.0
 10
90.17761363847991
 20
-143.5106200813098
 30
0.0
 10
90.17761363847991
 20
-143.5106200813098
 30
0.0
 10
90.17761363847991
 20
-143.5106200813098
 30
0.0
 10
90.17761363847991
 20
-143.7920843824547
 30
0.0
 10
90.17761363847991
 20
-143.7920843824547
 30
0.0
 10
90.17761363847991
 20
-143.7920843824547
 30
0.0
 10
90.02947453261416
 20
-143.7920843824547
 30
0.0
 10
90.02947453261416
 20
-143.7920843824547
 30
0.0
 10
90.01466062202759
 20
-143.5088975335672
 30
0.0
 10
89.85170760557528
 20
-143.4692789354868
 30
0.0
 10
89.73733043546499
 20
-143.4441297384445
 30
0.0
 10
89.73733043546499
 20
-143.4441297384445
 30
0.0
 10
89.73733043546499
 20
-143.3194172818785
 30
0.0
 10
89.73733043546499
 20
-143.3194172818785
 30
0.0
 10
89.73733043546499
 20
-143.3194172818785
 30
0.0
 10
91.28176674150248
 20
-143.3194172818785
 30
0.0
 10
91.28176674150248
 20
-143.3194172818785
 30
0.0
 10
91.28176674150248
 20
-143.3194172818785
 30
0.0
 10
91.28176674150248
 20
-143.5106200813098
 30
0.0
 10
91.28176674150248
 20
-143.5106200813098
 30
0.0
  0
HATCH
  5
DB
330
D6
100
AcDbEntity
  8
レイヤー 1
 62
   250
420
  2299925
440
 33554687
100
AcDbHatch
 10
0.0
 20
0.0
 30
0.0
210
0.0
220
0.0
230
1.0
  2
SOLID
 70
     1
 71
     1
 91
        1
 92
        1
 93
        1
 72
     4
 94
        3
 73
     0
 74
     0
 95
       26
 96
       22
 40
0.0
 40
0.0
 40
0.0
 40
0.0
 40
1.0
 40
1.0
 40
1.0
 40
2.0
 40
2.0
 40
2.0
 40
3.0
 40
3.0
 40
3.0
 40
4.0
 40
4.0
 40
4.0
 40
5.0
 40
5.0
 40
5.0
 40
6.0
 40
6.0
 40
6.0
 40
7.0
 40
7.0
 40
7.0
 40
7.0
 10
91.28176674150248
 20
-143.5106200813098
 10
91.28176674150248
 20
-143.5106200813098
 10
90.17761363847991
 20
-143.5106200813098
 10
90.17761363847991
 20
-143.5106200813098
 10
90.17761363847991
 20
-143.5106200813098
 10
90.17761363847991
 20
-143.7920843824547
 10
90.17761363847991
 20
-143.7920843824547
 10
90.17761363847991
 20
-143.7920843824547
 10
90.02947453261416
 20
-143.7920843824547
 10
90.02947453261416
 20
-143.7920843824547
 10
90.01466062202759
 20
-143.5088975335672
 10
89.85170760557528
 20
-143.4692789354868
 10
89.73733043546499
 20
-143.4441297384445
 10
89.73733043546499
 20
-143.4441297384445
 10
89.73733043546499
 20
-143.3194172818785
 10
89.73733043546499
 20
-143.3194172818785
 10
89.73733043546499
 20
-143.3194172818785
 10
91.28176674150248
 20
-143.3194172818785
 10
91.28176674150248
 20
-143.3194172818785
 10
91.28176674150248
 20
-143.3194172818785
 10
91.28176674150248
 20
-143.5106200813098
 10
91.28176674150248
 20
-143.5106200813098
 97
        0
 97
        1
330
DA
 75
     2
 76
     1
 98
        1
 10
0.0
 20
0.0
450
        0
451
        0
460
0.0
461
0.0
452
        0
462
0.0
453
        0
470

  0
SPLINE
  5
DC
330
D6
100
AcDbEntity
  8
レイヤー 1
100
AcDbSpline
210
0.0
220
0.0
230
1.0
 70
    11
 71
     3
 72
    17
 73
    13
 74
     0
 42
0.0000000001
 43
0.0000000001
 40
0.0
 40
0.0
 40
0.0
 40
0.0
 40
1.0
 40
1.0
 40
1.0
 40
2.0
 40
2.0
 40
2.0
 40
3.0
 40
3.0
 40
3.0
 40
4.0
 40
4.0
 40
4.0
 40
4.0
 10
91.28176674150248
 20
-142.8426160667199
 30
0.0
 10
91.28176674150248
 20
-142.8426160667199
 30
0.0
 10
91.02993026153072
 20
-142.8426160667199
 30
0.0
 10
91.02993026153072
 20
-142.8426160667199
 30
0.0
 10
91.02993026153072
 20
-142.8426160667199
 30
0.0
 10
91.02993026153072
 20
-142.6279866179888
 30
0.0
 10
91.02993026153072
 20
-142.6279866179888
 30
0.0
 10
91.02993026153072
 20
-142.6279866179888
 30
0.0
 10
91.28176674150248
 20
-142.6279866179888
 30
0.0
 10
91.28176674150248
 20
-142.6279866179888
 30
0.0
 10
91.28176674150248
 20
-142.6279866179888
 30
0.0
 10
91.28176674150248
 20
-142.8426160667199
 30
0.0
 10
91.28176674150248
 20
-142.8426160667199
 30
0.0
  0
HATCH
  5
DD
330
D6
100
AcDbEntity
  8
レイヤー 1
 62
   250
420
  2299925
440
 33554687
100
AcDbHatch
 10
0.0
 20
0.0
 30
0.0
210
0.0
220
0.0
230
1.0
  2
SOLID
 70
     1
 71
     1
 91
        1
 92
        1
 93
        1
 72
     4
 94
        3
 73
     0
 74
     0
 95
       17
 96
       13
 40
0.0
 40
0.0
 40
0.0
 40
0.0
 40
1.0
 40
1.0
 40
1.0
 40
2.0
 40
2.0
 40
2.0
 40
3.0
 40
3.0
 40
3.0
 40
4.0
 40
4.0
 40
4.0
 40
4.0
 10
91.28176674150248
 20
-142.8426160667199
 10
91.28176674150248
 20
-142.8426160667199
 10
91.02993026153072
 20
-142.8426160667199
 10
91.02993026153072
 20
-142.8426160667199
 10
91.02993026153072
 20
-142.8426160667199
 10
91.02993026153072
 20
-142.6279866179888
 10
91.02993026153072
 20
-142.6279866179888
 10
91.02993026153072
 20
-142.6279866179888
 10
91.28176674150248
 20
-142.6279866179888
 10
91.28176674150248
 20
-142.6279866179888
 10
91.28176674150248
 20
-142.6279866179888
 10
91.28176674150248
 20
-142.8426160667199
 10
91.28176674150248
 20
-142.8426160667199
 97
        0
 97
        1
330
DC
 75
     2
 76
     1
 98
        1
 10
0.0
 20
0.0
450
        0
451
        0
460
0.0
461
0.0
452
        0
462
0.0
453
        0
470

  0
SPLINE
  5
DE
330
D6
100
AcDbEntity
  8
レイヤー 1
100
AcDbSpline
210
0.0
220
0.0
230
1.0
 70
     9
 71
     3
 72
    17
 73
    13
 74
     0
 42
0.0000000001
 43
0.0000000001
 40
0.0
 40
0.0
 40
0.0
 40
0.0
 40
1.0
 40
1.0
 40
1.0
 40
2.0
 40
2.0
 40
2.0
 40
3.0
 40
3.0
 40
3.0
 40
4.0
 40
4.0
 40
4.0
 40
4.0
 10
89.88133542674843
 20
-142.0006347301248
 30
0.0
 10
89.88133542674843
 20
-142.2135416311133
 30
0.0
 10
90.16486678518448
 20
-142.2531602291936
 30
0.0
 10
90.50972084325799
 20
-142.2531602291936
 30
0.0
 10
90.82908119474065
 20
-142.2531602291936
 30
0.0
 10
91.13776175021904
 20
-142.2224988793749
 30
0.0
 10
91.13776175021904
 20
-142.0006347301248
 30
0.0
 10
91.13776175021904
 20
-141.789450376879
 30
0.0
 10
90.85664195862264
 20
-141.748109231056
 30
0.0
 10
90.50972084325799
 20
-141.748109231056
 30
0.0
 10
90.19001598222681
 20
-141.748109231056
 30
0.0
 10
89.88133542674843
 20
-141.7804931286174
 30
0.0
 10
89.88133542674843
 20
-142.0006347301248
 30
0.0
  0
SPLINE
  5
DF
330
D6
100
AcDbEntity
  8
レイヤー 1
100
AcDbSpline
210
0.0
220
0.0
230
1.0
 70
     9
 71
     3
 72
    29
 73
    25
 74
     0
 42
0.0000000001
 43
0.0000000001
 40
0.0
 40
0.0
 40
0.0
 40
0.0
 40
1.0
 40
1.0
 40
1.0
 40
2.0
 40
2.0
 40
2.0
 40
3.0
 40
3.0
 40
3.0
 40
4.0
 40
4.0
 40
4.0
 40
5.0
 40
5.0
 40
5.0
 40
6.0
 40
6.0
 40
6.0
 40
7.0
 40
7.0
 40
7.0
 40
8.0
 40
8.0
 40
8.0
 40
8.0
 10
91.10399981446359
 20
-141.6616373343762
 30
0.0
 10
91.31346161996678
 20
-141.7536213838324
 30
0.0
 10
91.33240964513566
 20
-141.9014159801496
 30
0.0
 10
91.33240964513566
 20
-142.0006347301248
 30
0.0
 10
91.33240964513566
 20
-142.1377495304378
 30
0.0
 10
91.28590085608477
 20
-142.2583278724215
 30
0.0
 10
91.10399981446359
 20
-142.3396321258734
 30
0.0
 10
90.90935191954697
 20
-142.4278265702958
 30
0.0
 10
90.67232935016178
 20
-142.444363028625
 30
0.0
 10
90.50972084325799
 20
-142.444363028625
 30
0.0
 10
90.36571585197455
 20
-142.444363028625
 30
0.0
 10
90.11387937200279
 20
-142.429893627587
 30
0.0
 10
89.91509736250387
 20
-142.3396321258734
 30
0.0
 10
89.71218123842266
 20
-142.2476480764172
 30
0.0
 10
89.68875458912295
 20
-142.1105332761043
 30
0.0
 10
89.68875458912295
 20
-142.0006347301248
 30
0.0
 10
89.68875458912295
 20
-141.8652424775545
 30
0.0
 10
89.73319632088267
 20
-141.7425970782796
 30
0.0
 10
89.91509736250387
 20
-141.6616373343762
 30
0.0
 10
90.10767820012933
 20
-141.5768879854391
 30
0.0
 10
90.3360880308014
 20
-141.5569064316246
 30
0.0
 10
90.50972084325799
 20
-141.5569064316246
 30
0.0
 10
90.68094208887492
 20
-141.5569064316246
 30
0.0
 10
90.91141897683812
 20
-141.5751654376965
 30
0.0
 10
91.10399981446359
 20
-141.6616373343762
 30
0.0
  0
HATCH
  5
E0
330
D6
100
AcDbEntity
  8
レイヤー 1
 62
   250
420
  2299925
440
 33554687
100
AcDbHatch
 10
0.0
 20
0.0
 30
0.0
210
0.0
220
0.0
230
1.0
  2
SOLID
 70
     1
 71
     1
 91
        2
 92
        1
 93
        1
 72
     4
 94
        3
 73
     0
 74
     0
 95
       17
 96
       13
 40
0.0
 40
0.0
 40
0.0
 40
0.0
 40
1.0
 40
1.0
 40
1.0
 40
2.0
 40
2.0
 40
2.0
 40
3.0
 40
3.0
 40
3.0
 40
4.0
 40
4.0
 40
4.0
 40
4.0
 10
89.88133542674843
 20
-142.0006347301248
 10
89.88133542674843
 20
-142.2135416311133
 10
90.16486678518448
 20
-142.2531602291936
 10
90.50972084325799
 20
-142.2531602291936
 10
90.82908119474065
 20
-142.2531602291936
 10
91.13776175021904
 20
-142.2224988793749
 10
91.13776175021904
 20
-142.0006347301248
 10
91.13776175021904
 20
-141.789450376879
 10
90.85664195862264
 20
-141.748109231056
 10
90.50972084325799
 20
-141.748109231056
 10
90.19001598222681
 20
-141.748109231056
 10
89.88133542674843
 20
-141.7804931286174
 10
89.88133542674843
 20
-142.0006347301248
 97
        0
 97
        1
330
DE
 92
        1
 93
        1
 72
     4
 94
        3
 73
     0
 74
     0
 95
       29
 96
       25
 40
0.0
 40
0.0
 40
0.0
 40
0.0
 40
1.0
 40
1.0
 40
1.0
 40
2.0
 40
2.0
 40
2.0
 40
3.0
 40
3.0
 40
3.0
 40
4.0
 40
4.0
 40
4.0
 40
5.0
 40
5.0
 40
5.0
 40
6.0
 40
6.0
 40
6.0
 40
7.0
 40
7.0
 40
7.0
 40
8.0
 40
8.0
 40
8.0
 40
8.0
 10
91.10399981446359
 20
-141.6616373343762
 10
91.31346161996678
 20
-141.7536213838324
 10
91.33240964513566
 20
-141.9014159801496
 10
91.33240964513566
 20
-142.0006347301248
 10
91.33240964513566
 20
-142.1377495304378
 10
91.28590085608477
 20
-142.2583278724215
 10
91.10399981446359
 20
-142.3396321258734
 10
90.90935191954697
 20
-142.4278265702958
 10
90.67232935016178
 20
-142.444363028625
 10
90.50972084325799
 20
-142.444363028625
 10
90.36571585197455
 20
-142.444363028625
 10
90.11387937200279
 20
-142.429893627587
 10
89.91509736250387
 20
-142.3396321258734
 10
89.71218123842266
 20
-142.2476480764172
 10
89.68875458912295
 20
-142.1105332761043
 10
89.68875458912295
 20
-142.0006347301248
 10
89.68875458912295
 20
-141.8652424775545
 10
89.73319632088267
 20
-141.7425970782796
 10
89.91509736250387
 20
-141.6616373343762
 10
90.10767820012933
 20
-141.5768879854391
 10
90.3360880308014
 20
-141.5569064316246
 10
90.50972084325799
 20
-141.5569064316246
 10
90.68094208887492
 20
-141.5569064316246
 10
90.91141897683812
 20
-141.5751654376965
 10
91.10399981446359
 20
-141.6616373343762
 97
        0
 97
        1
330
DF
 75
     2
 76
     1
 98
        1
 10
0.0
 20
0.0
450
        0
451
        0
460
0.0
461
0.0
452
        0
462
0.0
453
        0
470

  0
ENDBLK
  5
D9
330
D6
100
AcDbEntity
  8
0
100
AcDbBlockEnd
  0
BLOCK
  5
E3
330
E1
100
AcDbEntity
  8
0
100
AcDbBlockBegin
  2
Block_11
 70
     0
 10
0.0
 20
0.0
 30
0.0
  3
Block_11
  1

  0
LINE
  5
E5
330
E1
100
AcDbEntity
  8
レイヤー 1
 62
   250
420
  2299925
370
     9
100
AcDbLine
 10
90.02246726254346
 20
-157.1067485815895
 30
0.0
 11
94.02240281709891
 21
-157.1067485815895
 31
0.0
  0
ENDBLK
  5
E4
330
E1
100
AcDbEntity
  8
0
100
AcDbBlockEnd
  0
BLOCK
  5
EA
330
E8
100
AcDbEntity
  8
0
100
AcDbBlockBegin
  2
Block_12
 70
     0
 10
0.0
 20
0.0
 30
0.0
  3
Block_12
  1

  0
LINE
  5
EC
330
E8
100
AcDbEntity
  8
レイヤー 1
 62
    18
420
        0
370
     9
100
AcDbLine
 10
107.1730637616964
 20
-151.2136887041564
 30
0.0
 11
106.9062189038354
 21
-150.249916470886
 31
0.0
  0
LINE
  5
ED
330
E8
100
AcDbEntity
  8
レイヤー 1
 62
    18
420
        0
370
     9
100
AcDbLine
 10
107.1730637616964
 20
-151.2136887041564
 30
0.0
 11
107.1386295543193
 21
-149.5997281413529
 31
0.0
  0
LINE
  5
EE
330
E8
100
AcDbEntity
  8
レイヤー 1
 62
    18
420
        0
370
     9
100
AcDbLine
 10
107.1730637616964
 20
-151.2136887041564
 30
0.0
 11
107.4239118392017
 21
-150.2455082487702
 31
0.0
  0
ENDBLK
  5
EB
330
E8
100
AcDbEntity
  8
0
100
AcDbBlockEnd
  0
BLOCK
  5
F1
330
EF
100
AcDbEntity
  8
0
100
AcDbBlockBegin
  2
Block_13
 70
     0
 10
0.0
 20
0.0
 30
0.0
  3
Block_13
  1

  0
INSERT
  5
F4
330
EF
100
AcDbEntity
  8
レイヤー 1
100
AcDbBlockReference
  2
Block_14
 10
0.0
 20
0.0
 30
0.0
  0
ENDBLK
  5
F2
330
EF
100
AcDbEntity
  8
0
100
AcDbBlockEnd
  0
BLOCK
  5
F5
330
F3
100
AcDbEntity
  8
0
100
AcDbBlockBegin
  2
Block_14
 70
     0
 10
0.0
 20
0.0
 30
0.0
  3
Block_14
  1

  0
SPLINE
  5
F7
330
F3
100
AcDbEntity
  8
レイヤー 1
100
AcDbSpline
210
0.0
220
0.0
230
1.0
 70
     9
 71
     3
 72
    17
 73
    13
 74
     0
 42
0.0000000001
 43
0.0000000001
 40
0.0
 40
0.0
 40
0.0
 40
0.0
 40
1.0
 40
1.0
 40
1.0
 40
2.0
 40
2.0
 40
2.0
 40
3.0
 40
3.0
 40
3.0
 40
4.0
 40
4.0
 40
4.0
 40
4.0
 10
103.1869832098803
 20
-148.5333970440298
 30
0.0
 10
103.1699299872283
 20
-148.5628526104287
 30
0.0
 10
103.1192870835952
 20
-148.6560424433047
 30
0.0
 10
103.1086072875909
 20
-148.6749904684736
 30
0.0
 10
103.2989488131509
 20
-148.7342461108199
 30
0.0
 10
103.3201361503852
 20
-148.7406195374676
 30
0.0
 10
103.3921386460269
 20
-148.7681803013496
 30
0.0
 10
103.4470879190167
 20
-148.6813638951213
 30
0.0
 10
103.4703423135421
 20
-148.6072943421884
 30
0.0
 10
103.4851562241287
 20
-148.5333970440298
 30
0.0
 10
103.4851562241287
 20
-148.5333970440298
 30
0.0
 10
103.1869832098803
 20
-148.5333970440298
 30
0.0
 10
103.1869832098803
 20
-148.5333970440298
 30
0.0
  0
SPLINE
  5
F8
330
F3
100
AcDbEntity
  8
レイヤー 1
100
AcDbSpline
210
0.0
220
0.0
230
1.0
 70
    11
 71
     3
 72
    20
 73
    16
 74
     0
 42
0.0000000001
 43
0.0000000001
 40
0.0
 40
0.0
 40
0.0
 40
0.0
 40
1.0
 40
1.0
 40
1.0
 40
2.0
 40
2.0
 40
2.0
 40
3.0
 40
3.0
 40
3.0
 40
4.0
 40
4.0
 40
4.0
 40
5.0
 40
5.0
 40
5.0
 40
5.0
 10
103.1234211981775
 20
-147.6829752234959
 30
0.0
 10
103.1234211981775
 20
-147.6829752234959
 30
0.0
 10
103.0917263197132
 20
-147.6829752234959
 30
0.0
 10
103.0917263197132
 20
-147.6829752234959
 30
0.0
 10
103.138235108764
 20
-147.7823662282454
 30
0.0
 10
103.1699299872283
 20
-147.8626369530517
 30
0.0
 10
103.203864177758
 20
-147.9895887216831
 30
0.0
 10
103.203864177758
 20
-147.9895887216831
 30
0.0
 10
103.4110866711958
 20
-147.9895887216831
 30
0.0
 10
103.4110866711958
 20
-147.9895887216831
 30
0.0
 10
103.4429538044344
 20
-147.8965711435814
 30
0.0
 10
103.4662081989598
 20
-147.8119940494185
 30
0.0
 10
103.4894625934853
 20
-147.6829752234959
 30
0.0
 10
103.4894625934853
 20
-147.6829752234959
 30
0.0
 10
103.1234211981775
 20
-147.6829752234959
 30
0.0
 10
103.1234211981775
 20
-147.6829752234959
 30
0.0
  0
SPLINE
  5
F9
330
F3
100
AcDbEntity
  8
レイヤー 1
100
AcDbSpline
210
0.0
220
0.0
230
1.0
 70
     9
 71
     3
 72
   242
 73
   238
 74
     0
 42
0.0000000001
 43
0.0000000001
 40
0.0
 40
0.0
 40
0.0
 40
0.0
 40
1.0
 40
1.0
 40
1.0
 40
2.0
 40
2.0
 40
2.0
 40
3.0
 40
3.0
 40
3.0
 40
4.0
 40
4.0
 40
4.0
 40
5.0
 40
5.0
 40
5.0
 40
6.0
 40
6.0
 40
6.0
 40
7.0
 40
7.0
 40
7.0
 40
8.0
 40
8.0
 40
8.0
 40
9.0
 40
9.0
 40
9.0
 40
10.0
 40
10.0
 40
10.0
 40
11.0
 40
11.0
 40
11.0
 40
12.0
 40
12.0
 40
12.0
 40
13.0
 40
13.0
 40
13.0
 40
14.0
 40
14.0
 40
14.0
 40
15.0
 40
15.0
 40
15.0
 40
16.0
 40
16.0
 40
16.0
 40
17.0
 40
17.0
 40
17.0
 40
18.0
 40
18.0
 40
18.0
 40
19.0
 40
19.0
 40
19.0
 40
20.0
 40
20.0
 40
20.0
 40
21.0
 40
21.0
 40
21.0
 40
22.0
 40
22.0
 40
22.0
 40
23.0
 40
23.0
 40
23.0
 40
24.0
 40
24.0
 40
24.0
 40
25.0
 40
25.0
 40
25.0
 40
26.0
 40
26.0
 40
26.0
 40
27.0
 40
27.0
 40
27.0
 40
28.0
 40
28.0
 40
28.0
 40
29.0
 40
29.0
 40
29.0
 40
30.0
 40
30.0
 40
30.0
 40
31.0
 40
31.0
 40
31.0
 40
32.0
 40
32.0
 40
32.0
 40
33.0
 40
33.0
 40
33.0
 40
34.0
 40
34.0
 40
34.0
 40
35.0
 40
35.0
 40
35.0
 40
36.0
 40
36.0
 40
36.0
 40
37.0
 40
37.0
 40
37.0
 40
38.0
 40
38.0
 40
38.0
 40
39.0
 40
39.0
 40
39.0
 40
40.0
 40
40.0
 40
40.0
 40
41.0
 40
41.0
 40
41.0
 40
42.0
 40
42.0
 40
42.0
 40
43.0
 40
43.0
 40
43.0
 40
44.0
 40
44.0
 40
44.0
 40
45.0
 40
45.0
 40
45.0
 40
46.0
 40
46.0
 40
46.0
 40
47.0
 40
47.0
 40
47.0
 40
48.0
 40
48.0
 40
48.0
 40
49.0
 40
49.0
 40
49.0
 40
50.0
 40
50.0
 40
50.0
 40
51.0
 40
51.0
 40
51.0
 40
52.0
 40
52.0
 40
52.0
 40
53.0
 40
53.0
 40
53.0
 40
54.0
 40
54.0
 40
54.0
 40
55.0
 40
55.0
 40
55.0
 40
56.0
 40
56.0
 40
56.0
 40
57.0
 40
57.0
 40
57.0
 40
58.0
 40
58.0
 40
58.0
 40
59.0
 40
59.0
 40
59.0
 40
60.0
 40
60.0
 40
60.0
 40
61.0
 40
61.0
 40
61.0
 40
62.0
 40
62.0
 40
62.0
 40
63.0
 40
63.0
 40
63.0
 40
64.0
 40
64.0
 40
64.0
 40
65.0
 40
65.0
 40
65.0
 40
66.0
 40
66.0
 40
66.0
 40
67.0
 40
67.0
 40
67.0
 40
68.0
 40
68.0
 40
68.0
 40
69.0
 40
69.0
 40
69.0
 40
70.0
 40
70.0
 40
70.0
 40
71.0
 40
71.0
 40
71.0
 40
72.0
 40
72.0
 40
72.0
 40
73.0
 40
73.0
 40
73.0
 40
74.0
 40
74.0
 40
74.0
 40
75.0
 40
75.0
 40
75.0
 40
76.0
 40
76.0
 40
76.0
 40
77.0
 40
77.0
 40
77.0
 40
78.0
 40
78.0
 40
78.0
 40
79.0
 40
79.0
 40
79.0
 40
79.0
 10
103.751806614687
 20
-148.1482353687789
 30
0.0
 10
103.751806614687
 20
-148.1482353687789
 30
0.0
 10
103.4979030774241
 20
-148.1482353687789
 30
0.0
 10
103.4979030774241
 20
-148.1482353687789
 30
0.0
 10
103.4979030774241
 20
-148.1482353687789
 30
0.0
 10
103.2207451456358
 20
-148.1482353687789
 30
0.0
 10
103.2207451456358
 20
-148.1482353687789
 30
0.0
 10
103.2207451456358
 20
-148.1482353687789
 30
0.0
 10
103.3476969142672
 20
-148.1906100432475
 30
0.0
 10
103.3476969142672
 20
-148.1906100432475
 30
0.0
 10
103.3582044554972
 20
-148.194916412604
 30
0.0
 10
103.3709513087927
 20
-148.2011175844775
 30
0.0
 10
103.3709513087927
 20
-148.2138644377729
 30
0.0
 10
103.3709513087927
 20
-148.2350517750072
 30
0.0
 10
103.3392564303284
 20
-148.2414252016549
 30
0.0
 10
103.3180690930941
 20
-148.2455593162372
 30
0.0
 10
103.3075615518641
 20
-148.2688137107626
 30
0.0
 10
103.2779337306909
 20
-148.3344427797566
 30
0.0
 10
103.2588134507478
 20
-148.3788845115164
 30
0.0
 10
103.2588134507478
 20
-148.3788845115164
 30
0.0
 10
103.5295979558884
 20
-148.3788845115164
 30
0.0
 10
103.5295979558884
 20
-148.3788845115164
 30
0.0
 10
103.620548476699
 20
-148.3788845115164
 30
0.0
 10
103.8172634289068
 20
-148.3745781421598
 30
0.0
 10
103.9590291081248
 20
-148.3661376582209
 30
0.0
 10
103.9590291081248
 20
-148.3661376582209
 30
0.0
 10
103.9590291081248
 20
-148.5439045852599
 30
0.0
 10
103.9590291081248
 20
-148.5439045852599
 30
0.0
 10
103.8765190712531
 20
-148.5395982159033
 30
0.0
 10
103.8553317340188
 20
-148.5395982159033
 30
0.0
 10
103.6754977496888
 20
-148.535464101321
 30
0.0
 10
103.6438028712244
 20
-148.6898043790602
 30
0.0
 10
103.5993611394647
 20
-148.7702473586407
 30
0.0
 10
103.554919407705
 20
-148.8400105422171
 30
0.0
 10
103.6754977496888
 20
-148.8994384393376
 30
0.0
 10
103.7814344358602
 20
-148.9669623108485
 30
0.0
 10
103.8849595551919
 20
-149.0496446024945
 30
0.0
 10
103.8849595551919
 20
-149.0496446024945
 30
0.0
 10
103.7666205252736
 20
-149.2167317335291
 30
0.0
 10
103.7666205252736
 20
-149.2167317335291
 30
0.0
 10
103.7433661307482
 20
-149.1977837083602
 30
0.0
 10
103.7306192774527
 20
-149.1891709696471
 30
0.0
 10
103.6184814194079
 20
-149.10442162071
 30
0.0
 10
103.5697333182916
 20
-149.0665255703722
 30
0.0
 10
103.5106499307195
 20
-149.0306965773257
 30
0.0
 10
103.430206951139
 20
-148.9862548455659
 30
0.0
 10
103.2186780883446
 20
-149.1722900017694
 30
0.0
 10
103.0133503974237
 20
-149.1957166510691
 30
0.0
 10
102.7236178671142
 20
-149.2253444722423
 30
0.0
 10
102.7236178671142
 20
-149.2253444722423
 30
0.0
 10
102.6199204930082
 20
-149.0455104879122
 30
0.0
 10
102.6199204930082
 20
-149.0455104879122
 30
0.0
 10
102.9372137871997
 20
-149.0410318637814
 30
0.0
 10
103.1129136569475
 20
-149.0158826667391
 30
0.0
 10
103.2651868773955
 20
-148.9056396112111
 30
0.0
 10
103.1466755927029
 20
-148.8548244528036
 30
0.0
 10
103.0577921291834
 20
-148.8274359436959
 30
0.0
 10
103.0219631361368
 20
-148.8146890904005
 30
0.0
 10
103.0028428561937
 20
-148.8422498542825
 30
0.0
 10
102.9880289456071
 20
-148.8611978794514
 30
0.0
 10
102.9604681817251
 20
-148.8953043247553
 30
0.0
 10
102.9604681817251
 20
-148.8953043247553
 30
0.0
 10
102.7637532295174
 20
-148.8126220331093
 30
0.0
 10
102.7637532295174
 20
-148.8126220331093
 30
0.0
 10
102.8462632663891
 20
-148.7321790535288
 30
0.0
 10
102.9075859660266
 20
-148.6369221633616
 30
0.0
 10
102.9647745510817
 20
-148.535464101321
 30
0.0
 10
102.7744330255216
 20
-148.5395982159033
 30
0.0
 10
102.7532456882874
 20
-148.5395982159033
 30
0.0
 10
102.6707356514156
 20
-148.5439045852599
 30
0.0
 10
102.6707356514156
 20
-148.5439045852599
 30
0.0
 10
102.6707356514156
 20
-148.3661376582209
 30
0.0
 10
102.6707356514156
 20
-148.3661376582209
 30
0.0
 10
102.8102620185682
 20
-148.3725110848687
 30
0.0
 10
103.0197238240714
 20
-148.3768174542252
 30
0.0
 10
103.0452175306623
 20
-148.3768174542252
 30
0.0
 10
103.06209849854
 20
-148.3428832636955
 30
0.0
 10
103.1170477715297
 20
-148.2223049217117
 30
0.0
 10
103.1361680514729
 20
-148.1482353687789
 30
0.0
 10
103.1170477715297
 20
-148.1482353687789
 30
0.0
 10
102.9394530992651
 20
-148.1546087954266
 30
0.0
 10
102.7448052043485
 20
-148.167355648722
 30
0.0
 10
102.7448052043485
 20
-148.167355648722
 30
0.0
 10
102.7448052043485
 20
-148.3006808440012
 30
0.0
 10
102.7448052043485
 20
-148.3006808440012
 30
0.0
 10
102.6960571032322
 20
-148.3260022958178
 30
0.0
 10
102.6368014608859
 20
-148.3576971742821
 30
0.0
 10
102.503648520381
 20
-148.4233262432761
 30
0.0
 10
102.503648520381
 20
-148.4233262432761
 30
0.0
 10
102.503648520381
 20
-148.5692260370764
 30
0.0
 10
102.503648520381
 20
-148.5692260370764
 30
0.0
 10
102.503648520381
 20
-148.5692260370764
 30
0.0
 10
102.503648520381
 20
-149.0368977491991
 30
0.0
 10
102.503648520381
 20
-149.0368977491991
 30
0.0
 10
102.503648520381
 20
-149.1636772630563
 30
0.0
 10
102.4676472725601
 20
-149.2229329054026
 30
0.0
 10
102.1841159141241
 20
-149.214664676238
 30
0.0
 10
102.1841159141241
 20
-149.214664676238
 30
0.0
 10
102.0804185400181
 20
-149.0072699280259
 30
0.0
 10
102.0804185400181
 20
-149.0072699280259
 30
0.0
 10
102.1439805517209
 20
-149.0200167813214
 30
0.0
 10
102.1925563980629
 20
-149.0241508959037
 30
0.0
 10
102.2328640152404
 20
-149.0241508959037
 30
0.0
 10
102.3090006254644
 20
-149.0241508959037
 30
0.0
 10
102.3195081666944
 20
-149.0010687561525
 30
0.0
 10
102.3195081666944
 20
-148.9352674323842
 30
0.0
 10
102.3195081666944
 20
-148.9352674323842
 30
0.0
 10
102.3195081666944
 20
-148.5058362801478
 30
0.0
 10
102.3195081666944
 20
-148.5058362801478
 30
0.0
 10
102.2221842192361
 20
-148.545971642551
 30
0.0
 10
102.2053032513584
 20
-148.5523450691987
 30
0.0
 10
102.1587944623075
 20
-148.5714653491418
 30
0.0
 10
102.154488092951
 20
-148.5924804316019
 30
0.0
 10
102.1503539783686
 20
-148.622108252775
 30
0.0
 10
102.1312336984255
 20
-148.622108252775
 30
0.0
 10
102.1227932144866
 20
-148.622108252775
 30
0.0
 10
102.1122856732566
 20
-148.6179741381927
 30
0.0
 10
102.1059122466089
 20
-148.5947197436673
 30
0.0
 10
102.1059122466089
 20
-148.5947197436673
 30
0.0
 10
102.0530300309103
 20
-148.4021389060418
 30
0.0
 10
102.0530300309103
 20
-148.4021389060418
 30
0.0
 10
102.1989298247107
 20
-148.3556301169909
 30
0.0
 10
102.2645588937047
 20
-148.3323757224655
 30
0.0
 10
102.3195081666944
 20
-148.3111883852312
 30
0.0
 10
102.3195081666944
 20
-148.3111883852312
 30
0.0
 10
102.3195081666944
 20
-147.8986382008725
 30
0.0
 10
102.3195081666944
 20
-147.8986382008725
 30
0.0
 10
102.3195081666944
 20
-147.8986382008725
 30
0.0
 10
102.2666259509958
 20
-147.8986382008725
 30
0.0
 10
102.2666259509958
 20
-147.8986382008725
 30
0.0
 10
102.2666259509958
 20
-147.8986382008725
 30
0.0
 10
102.1884222834807
 20
-147.8986382008725
 30
0.0
 10
102.1884222834807
 20
-147.8986382008725
 30
0.0
 10
102.1207261571955
 20
-147.8986382008725
 30
0.0
 10
102.1122856732566
 20
-147.8986382008725
 30
0.0
 10
102.0762844254358
 20
-147.9050116275202
 30
0.0
 10
102.0762844254358
 20
-147.9050116275202
 30
0.0
 10
102.0762844254358
 20
-147.7103637326036
 30
0.0
 10
102.0762844254358
 20
-147.7103637326036
 30
0.0
 10
102.1038451893178
 20
-147.7167371592513
 30
0.0
 10
102.1122856732566
 20
-147.7167371592513
 30
0.0
 10
102.1820488568329
 20
-147.7167371592513
 30
0.0
 10
102.1820488568329
 20
-147.7167371592513
 30
0.0
 10
102.3153740521121
 20
-147.7167371592513
 30
0.0
 10
102.3153740521121
 20
-147.7167371592513
 30
0.0
 10
102.3153740521121
 20
-147.646973975675
 30
0.0
 10
102.3153740521121
 20
-147.5644639388033
 30
0.0
 10
102.3131347400467
 20
-147.5601575694468
 30
0.0
 10
102.3046942561078
 20
-147.3803235851167
 30
0.0
 10
102.3046942561078
 20
-147.3613755599478
 30
0.0
 10
102.3026271988167
 20
-147.314866770897
 30
0.0
 10
102.3026271988167
 20
-147.314866770897
 30
0.0
 10
102.5184624309676
 20
-147.3233072548358
 30
0.0
 10
102.5184624309676
 20
-147.3233072548358
 30
0.0
 10
102.5289699721976
 20
-147.3233072548358
 30
0.0
 10
102.5501573094319
 20
-147.325374312127
 30
0.0
 10
102.5501573094319
 20
-147.3422552800047
 30
0.0
 10
102.5501573094319
 20
-147.3613755599478
 30
0.0
 10
102.5353433988453
 20
-147.3718831011779
 30
0.0
 10
102.5100219470287
 20
-147.391003381121
 30
0.0
 10
102.5100219470287
 20
-147.4416462847542
 30
0.0
 10
102.503648520381
 20
-147.6702283702005
 30
0.0
 10
102.5057155776722
 20
-147.7167371592513
 30
0.0
 10
102.6347344035948
 20
-147.7167371592513
 30
0.0
 10
102.6474812568902
 20
-147.7167371592513
 30
0.0
 10
102.7448052043485
 20
-147.7082966753125
 30
0.0
 10
102.7448052043485
 20
-147.7082966753125
 30
0.0
 10
102.7448052043485
 20
-147.9029445702291
 30
0.0
 10
102.7448052043485
 20
-147.9029445702291
 30
0.0
 10
102.7067368992365
 20
-147.9007052581637
 30
0.0
 10
102.6390407729513
 20
-147.8965711435814
 30
0.0
 10
102.503648520381
 20
-147.8986382008725
 30
0.0
 10
102.503648520381
 20
-147.8986382008725
 30
0.0
 10
102.503648520381
 20
-148.2371188322983
 30
0.0
 10
102.503648520381
 20
-148.2371188322983
 30
0.0
 10
102.5585977933707
 20
-148.2138644377729
 30
0.0
 10
102.6242268623648
 20
-148.1863036738909
 30
0.0
 10
102.6728027087068
 20
-148.1630492793654
 30
0.0
 10
102.6728027087068
 20
-148.1630492793654
 30
0.0
 10
102.6728027087068
 20
-147.9854546071009
 30
0.0
 10
102.6728027087068
 20
-147.9854546071009
 30
0.0
 10
102.7870076240428
 20
-147.998029205622
 30
0.0
 10
102.9055189087354
 20
-147.998029205622
 30
0.0
 10
103.0219631361368
 20
-147.998029205622
 30
0.0
 10
102.9985364868372
 20
-147.9029445702291
 30
0.0
 10
102.9711479777294
 20
-147.8204345333574
 30
0.0
 10
102.9075859660266
 20
-147.6871093380782
 30
0.0
 10
102.8631442342668
 20
-147.6891763953694
 30
0.0
 10
102.7808064521694
 20
-147.6934827647259
 30
0.0
 10
102.7425658922831
 20
-147.6955498220171
 30
0.0
 10
102.7425658922831
 20
-147.6955498220171
 30
0.0
 10
102.7425658922831
 20
-147.515715837687
 30
0.0
 10
102.7425658922831
 20
-147.515715837687
 30
0.0
 10
102.8674506036234
 20
-147.5241563216259
 30
0.0
 10
103.0409111613057
 20
-147.5284626909824
 30
0.0
 10
103.1234211981775
 20
-147.5284626909824
 30
0.0
 10
103.1234211981775
 20
-147.5284626909824
 30
0.0
 10
103.2059312350492
 20
-147.5284626909824
 30
0.0
 10
103.2059312350492
 20
-147.5284626909824
 30
0.0
 10
103.2059312350492
 20
-147.3655096745301
 30
0.0
 10
103.2059312350492
 20
-147.3550021333001
 30
0.0
 10
103.203864177758
 20
-147.3000528603104
 30
0.0
 10
103.203864177758
 20
-147.3000528603104
 30
0.0
 10
103.4281398938478
 20
-147.325374312127
 30
0.0
 10
103.4281398938478
 20
-147.325374312127
 30
0.0
 10
103.4322740084301
 20
-147.325374312127
 30
0.0
 10
103.4534613456644
 20
-147.3274413694181
 30
0.0
 10
103.4534613456644
 20
-147.3443223372958
 30
0.0
 10
103.4534613456644
 20
-147.3591362478824
 30
0.0
 10
103.4429538044344
 20
-147.3677489865955
 30
0.0
 10
103.4153930405524
 20
-147.3825628971821
 30
0.0
 10
103.4090196139047
 20
-147.4480197114019
 30
0.0
 10
103.4069525566135
 20
-147.4692070486361
 30
0.0
 10
103.4069525566135
 20
-147.5284626909824
 30
0.0
 10
103.4069525566135
 20
-147.5284626909824
 30
0.0
 10
103.5020371920064
 20
-147.5284626909824
 30
0.0
 10
103.5020371920064
 20
-147.5284626909824
 30
0.0
 10
103.5845472288781
 20
-147.5284626909824
 30
0.0
 10
103.7580077865605
 20
-147.5241563216259
 30
0.0
 10
103.8828924979008
 20
-147.515715837687
 30
0.0
 10
103.8828924979008
 20
-147.515715837687
 30
0.0
 10
103.8828924979008
 20
-147.6955498220171
 30
0.0
 10
103.8828924979008
 20
-147.6955498220171
 30
0.0
 10
103.8532646767276
 20
-147.6934827647259
 30
0.0
 10
103.734753392035
 20
-147.6891763953694
 30
0.0
 10
103.6946180296319
 20
-147.6871093380782
 30
0.0
 10
103.6798041190453
 20
-147.7379244964857
 30
0.0
 10
103.6460421832898
 20
-147.8500623545305
 30
0.0
 10
103.5804131142959
 20
-147.9895887216831
 30
0.0
 10
103.6226155339902
 20
-147.9895887216831
 30
0.0
 10
103.8997734657785
 20
-147.9706406965143
 30
0.0
 10
103.961096165416
 20
-147.9684013844488
 30
0.0
 10
103.961096165416
 20
-147.9684013844488
 30
0.0
 10
103.961096165416
 20
-148.1525417381354
 30
0.0
 10
103.961096165416
 20
-148.1525417381354
 30
0.0
 10
103.9316405990171
 20
-148.1525417381354
 30
0.0
 10
103.9145873763651
 20
-148.1482353687789
 30
0.0
 10
103.751806614687
 20
-148.1482353687789
 30
0.0
  0
HATCH
  5
FA
330
F3
100
AcDbEntity
  8
レイヤー 1
 62
    18
420
        0
440
 33554687
100
AcDbHatch
 10
0.0
 20
0.0
 30
0.0
210
0.0
220
0.0
230
1.0
  2
SOLID
 70
     1
 71
     1
 91
        3
 92
        1
 93
        1
 72
     4
 94
        3
 73
     0
 74
     0
 95
       17
 96
       13
 40
0.0
 40
0.0
 40
0.0
 40
0.0
 40
1.0
 40
1.0
 40
1.0
 40
2.0
 40
2.0
 40
2.0
 40
3.0
 40
3.0
 40
3.0
 40
4.0
 40
4.0
 40
4.0
 40
4.0
 10
103.1869832098803
 20
-148.5333970440298
 10
103.1699299872283
 20
-148.5628526104287
 10
103.1192870835952
 20
-148.6560424433047
 10
103.1086072875909
 20
-148.6749904684736
 10
103.2989488131509
 20
-148.7342461108199
 10
103.3201361503852
 20
-148.7406195374676
 10
103.3921386460269
 20
-148.7681803013496
 10
103.4470879190167
 20
-148.6813638951213
 10
103.4703423135421
 20
-148.6072943421884
 10
103.4851562241287
 20
-148.5333970440298
 10
103.4851562241287
 20
-148.5333970440298
 10
103.1869832098803
 20
-148.5333970440298
 10
103.1869832098803
 20
-148.5333970440298
 97
        0
 97
        1
330
F7
 92
        1
 93
        1
 72
     4
 94
        3
 73
     0
 74
     0
 95
       20
 96
       16
 40
0.0
 40
0.0
 40
0.0
 40
0.0
 40
1.0
 40
1.0
 40
1.0
 40
2.0
 40
2.0
 40
2.0
 40
3.0
 40
3.0
 40
3.0
 40
4.0
 40
4.0
 40
4.0
 40
5.0
 40
5.0
 40
5.0
 40
5.0
 10
103.1234211981775
 20
-147.6829752234959
 10
103.1234211981775
 20
-147.6829752234959
 10
103.0917263197132
 20
-147.6829752234959
 10
103.0917263197132
 20
-147.6829752234959
 10
103.138235108764
 20
-147.7823662282454
 10
103.1699299872283
 20
-147.8626369530517
 10
103.203864177758
 20
-147.9895887216831
 10
103.203864177758
 20
-147.9895887216831
 10
103.4110866711958
 20
-147.9895887216831
 10
103.4110866711958
 20
-147.9895887216831
 10
103.4429538044344
 20
-147.8965711435814
 10
103.4662081989598
 20
-147.8119940494185
 10
103.4894625934853
 20
-147.6829752234959
 10
103.4894625934853
 20
-147.6829752234959
 10
103.1234211981775
 20
-147.6829752234959
 10
103.1234211981775
 20
-147.6829752234959
 97
        0
 97
        1
330
F8
 92
        1
 93
        1
 72
     4
 94
        3
 73
     0
 74
     0
 95
      242
 96
      238
 40
0.0
 40
0.0
 40
0.0
 40
0.0
 40
1.0
 40
1.0
 40
1.0
 40
2.0
 40
2.0
 40
2.0
 40
3.0
 40
3.0
 40
3.0
 40
4.0
 40
4.0
 40
4.0
 40
5.0
 40
5.0
 40
5.0
 40
6.0
 40
6.0
 40
6.0
 40
7.0
 40
7.0
 40
7.0
 40
8.0
 40
8.0
 40
8.0
 40
9.0
 40
9.0
 40
9.0
 40
10.0
 40
10.0
 40
10.0
 40
11.0
 40
11.0
 40
11.0
 40
12.0
 40
12.0
 40
12.0
 40
13.0
 40
13.0
 40
13.0
 40
14.0
 40
14.0
 40
14.0
 40
15.0
 40
15.0
 40
15.0
 40
16.0
 40
16.0
 40
16.0
 40
17.0
 40
17.0
 40
17.0
 40
18.0
 40
18.0
 40
18.0
 40
19.0
 40
19.0
 40
19.0
 40
20.0
 40
20.0
 40
20.0
 40
21.0
 40
21.0
 40
21.0
 40
22.0
 40
22.0
 40
22.0
 40
23.0
 40
23.0
 40
23.0
 40
24.0
 40
24.0
 40
24.0
 40
25.0
 40
25.0
 40
25.0
 40
26.0
 40
26.0
 40
26.0
 40
27.0
 40
27.0
 40
27.0
 40
28.0
 40
28.0
 40
28.0
 40
29.0
 40
29.0
 40
29.0
 40
30.0
 40
30.0
 40
30.0
 40
31.0
 40
31.0
 40
31.0
 40
32.0
 40
32.0
 40
32.0
 40
33.0
 40
33.0
 40
33.0
 40
34.0
 40
34.0
 40
34.0
 40
35.0
 40
35.0
 40
35.0
 40
36.0
 40
36.0
 40
36.0
 40
37.0
 40
37.0
 40
37.0
 40
38.0
 40
38.0
 40
38.0
 40
39.0
 40
39.0
 40
39.0
 40
40.0
 40
40.0
 40
40.0
 40
41.0
 40
41.0
 40
41.0
 40
42.0
 40
42.0
 40
42.0
 40
43.0
 40
43.0
 40
43.0
 40
44.0
 40
44.0
 40
44.0
 40
45.0
 40
45.0
 40
45.0
 40
46.0
 40
46.0
 40
46.0
 40
47.0
 40
47.0
 40
47.0
 40
48.0
 40
48.0
 40
48.0
 40
49.0
 40
49.0
 40
49.0
 40
50.0
 40
50.0
 40
50.0
 40
51.0
 40
51.0
 40
51.0
 40
52.0
 40
52.0
 40
52.0
 40
53.0
 40
53.0
 40
53.0
 40
54.0
 40
54.0
 40
54.0
 40
55.0
 40
55.0
 40
55.0
 40
56.0
 40
56.0
 40
56.0
 40
57.0
 40
57.0
 40
57.0
 40
58.0
 40
58.0
 40
58.0
 40
59.0
 40
59.0
 40
59.0
 40
60.0
 40
60.0
 40
60.0
 40
61.0
 40
61.0
 40
61.0
 40
62.0
 40
62.0
 40
62.0
 40
63.0
 40
63.0
 40
63.0
 40
64.0
 40
64.0
 40
64.0
 40
65.0
 40
65.0
 40
65.0
 40
66.0
 40
66.0
 40
66.0
 40
67.0
 40
67.0
 40
67.0
 40
68.0
 40
68.0
 40
68.0
 40
69.0
 40
69.0
 40
69.0
 40
70.0
 40
70.0
 40
70.0
 40
71.0
 40
71.0
 40
71.0
 40
72.0
 40
72.0
 40
72.0
 40
73.0
 40
73.0
 40
73.0
 40
74.0
 40
74.0
 40
74.0
 40
75.0
 40
75.0
 40
75.0
 40
76.0
 40
76.0
 40
76.0
 40
77.0
 40
77.0
 40
77.0
 40
78.0
 40
78.0
 40
78.0
 40
79.0
 40
79.0
 40
79.0
 40
79.0
 10
103.751806614687
 20
-148.1482353687789
 10
103.751806614687
 20
-148.1482353687789
 10
103.4979030774241
 20
-148.1482353687789
 10
103.4979030774241
 20
-148.1482353687789
 10
103.4979030774241
 20
-148.1482353687789
 10
103.2207451456358
 20
-148.1482353687789
 10
103.2207451456358
 20
-148.1482353687789
 10
103.2207451456358
 20
-148.1482353687789
 10
103.3476969142672
 20
-148.1906100432475
 10
103.3476969142672
 20
-148.1906100432475
 10
103.3582044554972
 20
-148.194916412604
 10
103.3709513087927
 20
-148.2011175844775
 10
103.3709513087927
 20
-148.2138644377729
 10
103.3709513087927
 20
-148.2350517750072
 10
103.3392564303284
 20
-148.2414252016549
 10
103.3180690930941
 20
-148.2455593162372
 10
103.3075615518641
 20
-148.2688137107626
 10
103.2779337306909
 20
-148.3344427797566
 10
103.2588134507478
 20
-148.3788845115164
 10
103.2588134507478
 20
-148.3788845115164
 10
103.5295979558884
 20
-148.3788845115164
 10
103.5295979558884
 20
-148.3788845115164
 10
103.620548476699
 20
-148.3788845115164
 10
103.8172634289068
 20
-148.3745781421598
 10
103.9590291081248
 20
-148.3661376582209
 10
103.9590291081248
 20
-148.3661376582209
 10
103.9590291081248
 20
-148.5439045852599
 10
103.9590291081248
 20
-148.5439045852599
 10
103.8765190712531
 20
-148.5395982159033
 10
103.8553317340188
 20
-148.5395982159033
 10
103.6754977496888
 20
-148.535464101321
 10
103.6438028712244
 20
-148.6898043790602
 10
103.5993611394647
 20
-148.7702473586407
 10
103.554919407705
 20
-148.8400105422171
 10
103.6754977496888
 20
-148.8994384393376
 10
103.7814344358602
 20
-148.9669623108485
 10
103.8849595551919
 20
-149.0496446024945
 10
103.8849595551919
 20
-149.0496446024945
 10
103.7666205252736
 20
-149.2167317335291
 10
103.7666205252736
 20
-149.2167317335291
 10
103.7433661307482
 20
-149.1977837083602
 10
103.7306192774527
 20
-149.1891709696471
 10
103.6184814194079
 20
-149.10442162071
 10
103.5697333182916
 20
-149.0665255703722
 10
103.5106499307195
 20
-149.0306965773257
 10
103.430206951139
 20
-148.9862548455659
 10
103.2186780883446
 20
-149.1722900017694
 10
103.0133503974237
 20
-149.1957166510691
 10
102.7236178671142
 20
-149.2253444722423
 10
102.7236178671142
 20
-149.2253444722423
 10
102.6199204930082
 20
-149.0455104879122
 10
102.6199204930082
 20
-149.0455104879122
 10
102.9372137871997
 20
-149.0410318637814
 10
103.1129136569475
 20
-149.0158826667391
 10
103.2651868773955
 20
-148.9056396112111
 10
103.1466755927029
 20
-148.8548244528036
 10
103.0577921291834
 20
-148.8274359436959
 10
103.0219631361368
 20
-148.8146890904005
 10
103.0028428561937
 20
-148.8422498542825
 10
102.9880289456071
 20
-148.8611978794514
 10
102.9604681817251
 20
-148.8953043247553
 10
102.9604681817251
 20
-148.8953043247553
 10
102.7637532295174
 20
-148.8126220331093
 10
102.7637532295174
 20
-148.8126220331093
 10
102.8462632663891
 20
-148.7321790535288
 10
102.9075859660266
 20
-148.6369221633616
 10
102.9647745510817
 20
-148.535464101321
 10
102.7744330255216
 20
-148.5395982159033
 10
102.7532456882874
 20
-148.5395982159033
 10
102.6707356514156
 20
-148.5439045852599
 10
102.6707356514156
 20
-148.5439045852599
 10
102.6707356514156
 20
-148.3661376582209
 10
102.6707356514156
 20
-148.3661376582209
 10
102.8102620185682
 20
-148.3725110848687
 10
103.0197238240714
 20
-148.3768174542252
 10
103.0452175306623
 20
-148.3768174542252
 10
103.06209849854
 20
-148.3428832636955
 10
103.1170477715297
 20
-148.2223049217117
 10
103.1361680514729
 20
-148.1482353687789
 10
103.1170477715297
 20
-148.1482353687789
 10
102.9394530992651
 20
-148.1546087954266
 10
102.7448052043485
 20
-148.167355648722
 10
102.7448052043485
 20
-148.167355648722
 10
102.7448052043485
 20
-148.3006808440012
 10
102.7448052043485
 20
-148.3006808440012
 10
102.6960571032322
 20
-148.3260022958178
 10
102.6368014608859
 20
-148.3576971742821
 10
102.503648520381
 20
-148.4233262432761
 10
102.503648520381
 20
-148.4233262432761
 10
102.503648520381
 20
-148.5692260370764
 10
102.503648520381
 20
-148.5692260370764
 10
102.503648520381
 20
-148.5692260370764
 10
102.503648520381
 20
-149.0368977491991
 10
102.503648520381
 20
-149.0368977491991
 10
102.503648520381
 20
-149.1636772630563
 10
102.4676472725601
 20
-149.2229329054026
 10
102.1841159141241
 20
-149.214664676238
 10
102.1841159141241
 20
-149.214664676238
 10
102.0804185400181
 20
-149.0072699280259
 10
102.0804185400181
 20
-149.0072699280259
 10
102.1439805517209
 20
-149.0200167813214
 10
102.1925563980629
 20
-149.0241508959037
 10
102.2328640152404
 20
-149.0241508959037
 10
102.3090006254644
 20
-149.0241508959037
 10
102.3195081666944
 20
-149.0010687561525
 10
102.3195081666944
 20
-148.9352674323842
 10
102.3195081666944
 20
-148.9352674323842
 10
102.3195081666944
 20
-148.5058362801478
 10
102.3195081666944
 20
-148.5058362801478
 10
102.2221842192361
 20
-148.545971642551
 10
102.2053032513584
 20
-148.5523450691987
 10
102.1587944623075
 20
-148.5714653491418
 10
102.154488092951
 20
-148.5924804316019
 10
102.1503539783686
 20
-148.622108252775
 10
102.1312336984255
 20
-148.622108252775
 10
102.1227932144866
 20
-148.622108252775
 10
102.1122856732566
 20
-148.6179741381927
 10
102.1059122466089
 20
-148.5947197436673
 10
102.1059122466089
 20
-148.5947197436673
 10
102.0530300309103
 20
-148.4021389060418
 10
102.0530300309103
 20
-148.4021389060418
 10
102.1989298247107
 20
-148.3556301169909
 10
102.2645588937047
 20
-148.3323757224655
 10
102.3195081666944
 20
-148.3111883852312
 10
102.3195081666944
 20
-148.3111883852312
 10
102.3195081666944
 20
-147.8986382008725
 10
102.3195081666944
 20
-147.8986382008725
 10
102.3195081666944
 20
-147.8986382008725
 10
102.2666259509958
 20
-147.8986382008725
 10
102.2666259509958
 20
-147.8986382008725
 10
102.2666259509958
 20
-147.8986382008725
 10
102.1884222834807
 20
-147.8986382008725
 10
102.1884222834807
 20
-147.8986382008725
 10
102.1207261571955
 20
-147.8986382008725
 10
102.1122856732566
 20
-147.8986382008725
 10
102.0762844254358
 20
-147.9050116275202
 10
102.0762844254358
 20
-147.9050116275202
 10
102.0762844254358
 20
-147.7103637326036
 10
102.0762844254358
 20
-147.7103637326036
 10
102.1038451893178
 20
-147.7167371592513
 10
102.1122856732566
 20
-147.7167371592513
 10
102.1820488568329
 20
-147.7167371592513
 10
102.1820488568329
 20
-147.7167371592513
 10
102.3153740521121
 20
-147.7167371592513
 10
102.3153740521121
 20
-147.7167371592513
 10
102.3153740521121
 20
-147.646973975675
 10
102.3153740521121
 20
-147.5644639388033
 10
102.3131347400467
 20
-147.5601575694468
 10
102.3046942561078
 20
-147.3803235851167
 10
102.3046942561078
 20
-147.3613755599478
 10
102.3026271988167
 20
-147.314866770897
 10
102.3026271988167
 20
-147.314866770897
 10
102.5184624309676
 20
-147.3233072548358
 10
102.5184624309676
 20
-147.3233072548358
 10
102.5289699721976
 20
-147.3233072548358
 10
102.5501573094319
 20
-147.325374312127
 10
102.5501573094319
 20
-147.3422552800047
 10
102.5501573094319
 20
-147.3613755599478
 10
102.5353433988453
 20
-147.3718831011779
 10
102.5100219470287
 20
-147.391003381121
 10
102.5100219470287
 20
-147.4416462847542
 10
102.503648520381
 20
-147.6702283702005
 10
102.5057155776722
 20
-147.7167371592513
 10
102.6347344035948
 20
-147.7167371592513
 10
102.6474812568902
 20
-147.7167371592513
 10
102.7448052043485
 20
-147.7082966753125
 10
102.7448052043485
 20
-147.7082966753125
 10
102.7448052043485
 20
-147.9029445702291
 10
102.7448052043485
 20
-147.9029445702291
 10
102.7067368992365
 20
-147.9007052581637
 10
102.6390407729513
 20
-147.8965711435814
 10
102.503648520381
 20
-147.8986382008725
 10
102.503648520381
 20
-147.8986382008725
 10
102.503648520381
 20
-148.2371188322983
 10
102.503648520381
 20
-148.2371188322983
 10
102.5585977933707
 20
-148.2138644377729
 10
102.6242268623648
 20
-148.1863036738909
 10
102.6728027087068
 20
-148.1630492793654
 10
102.6728027087068
 20
-148.1630492793654
 10
102.6728027087068
 20
-147.9854546071009
 10
102.6728027087068
 20
-147.9854546071009
 10
102.7870076240428
 20
-147.998029205622
 10
102.9055189087354
 20
-147.998029205622
 10
103.0219631361368
 20
-147.998029205622
 10
102.9985364868372
 20
-147.9029445702291
 10
102.9711479777294
 20
-147.8204345333574
 10
102.9075859660266
 20
-147.6871093380782
 10
102.8631442342668
 20
-147.6891763953694
 10
102.7808064521694
 20
-147.6934827647259
 10
102.7425658922831
 20
-147.6955498220171
 10
102.7425658922831
 20
-147.6955498220171
 10
102.7425658922831
 20
-147.515715837687
 10
102.7425658922831
 20
-147.515715837687
 10
102.8674506036234
 20
-147.5241563216259
 10
103.0409111613057
 20
-147.5284626909824
 10
103.1234211981775
 20
-147.5284626909824
 10
103.1234211981775
 20
-147.5284626909824
 10
103.2059312350492
 20
-147.5284626909824
 10
103.2059312350492
 20
-147.5284626909824
 10
103.2059312350492
 20
-147.3655096745301
 10
103.2059312350492
 20
-147.3550021333001
 10
103.203864177758
 20
-147.3000528603104
 10
103.203864177758
 20
-147.3000528603104
 10
103.4281398938478
 20
-147.325374312127
 10
103.4281398938478
 20
-147.325374312127
 10
103.4322740084301
 20
-147.325374312127
 10
103.4534613456644
 20
-147.3274413694181
 10
103.4534613456644
 20
-147.3443223372958
 10
103.4534613456644
 20
-147.3591362478824
 10
103.4429538044344
 20
-147.3677489865955
 10
103.4153930405524
 20
-147.3825628971821
 10
103.4090196139047
 20
-147.4480197114019
 10
103.4069525566135
 20
-147.4692070486361
 10
103.4069525566135
 20
-147.5284626909824
 10
103.4069525566135
 20
-147.5284626909824
 10
103.5020371920064
 20
-147.5284626909824
 10
103.5020371920064
 20
-147.5284626909824
 10
103.5845472288781
 20
-147.5284626909824
 10
103.7580077865605
 20
-147.5241563216259
 10
103.8828924979008
 20
-147.515715837687
 10
103.8828924979008
 20
-147.515715837687
 10
103.8828924979008
 20
-147.6955498220171
 10
103.8828924979008
 20
-147.6955498220171
 10
103.8532646767276
 20
-147.6934827647259
 10
103.734753392035
 20
-147.6891763953694
 10
103.6946180296319
 20
-147.6871093380782
 10
103.6798041190453
 20
-147.7379244964857
 10
103.6460421832898
 20
-147.8500623545305
 10
103.5804131142959
 20
-147.9895887216831
 10
103.6226155339902
 20
-147.9895887216831
 10
103.8997734657785
 20
-147.9706406965143
 10
103.961096165416
 20
-147.9684013844488
 10
103.961096165416
 20
-147.9684013844488
 10
103.961096165416
 20
-148.1525417381354
 10
103.961096165416
 20
-148.1525417381354
 10
103.9316405990171
 20
-148.1525417381354
 10
103.9145873763651
 20
-148.1482353687789
 10
103.751806614687
 20
-148.1482353687789
 97
        0
 97
        1
330
F9
 75
     2
 76
     1
 98
        1
 10
0.0
 20
0.0
450
        0
451
        0
460
0.0
461
0.0
452
        0
462
0.0
453
        0
470

  0
SPLINE
  5
FB
330
F3
100
AcDbEntity
  8
レイヤー 1
100
AcDbSpline
210
0.0
220
0.0
230
1.0
 70
    11
 71
     3
 72
    17
 73
    13
 74
     0
 42
0.0000000001
 43
0.0000000001
 40
0.0
 40
0.0
 40
0.0
 40
0.0
 40
1.0
 40
1.0
 40
1.0
 40
2.0
 40
2.0
 40
2.0
 40
3.0
 40
3.0
 40
3.0
 40
4.0
 40
4.0
 40
4.0
 40
4.0
 10
105.6083685716882
 20
-148.9480142856796
 30
0.0
 10
105.6083685716882
 20
-148.9480142856796
 30
0.0
 10
104.9016072328892
 20
-148.9480142856796
 30
0.0
 10
104.9016072328892
 20
-148.9480142856796
 30
0.0
 10
104.9016072328892
 20
-148.9480142856796
 30
0.0
 10
104.9016072328892
 20
-149.0623914557899
 30
0.0
 10
104.9016072328892
 20
-149.0623914557899
 30
0.0
 10
104.9016072328892
 20
-149.0623914557899
 30
0.0
 10
105.6083685716882
 20
-149.0623914557899
 30
0.0
 10
105.6083685716882
 20
-149.0623914557899
 30
0.0
 10
105.6083685716882
 20
-149.0623914557899
 30
0.0
 10
105.6083685716882
 20
-148.9480142856796
 30
0.0
 10
105.6083685716882
 20
-148.9480142856796
 30
0.0
  0
SPLINE
  5
FC
330
F3
100
AcDbEntity
  8
レイヤー 1
100
AcDbSpline
210
0.0
220
0.0
230
1.0
 70
    11
 71
     3
 72
    17
 73
    13
 74
     0
 42
0.0000000001
 43
0.0000000001
 40
0.0
 40
0.0
 40
0.0
 40
0.0
 40
1.0
 40
1.0
 40
1.0
 40
2.0
 40
2.0
 40
2.0
 40
3.0
 40
3.0
 40
3.0
 40
4.0
 40
4.0
 40
4.0
 40
4.0
 10
105.6083685716882
 20
-148.7046182896467
 30
0.0
 10
105.6083685716882
 20
-148.7046182896467
 30
0.0
 10
104.9016072328892
 20
-148.7046182896467
 30
0.0
 10
104.9016072328892
 20
-148.7046182896467
 30
0.0
 10
104.9016072328892
 20
-148.7046182896467
 30
0.0
 10
104.9016072328892
 20
-148.818995459757
 30
0.0
 10
104.9016072328892
 20
-148.818995459757
 30
0.0
 10
104.9016072328892
 20
-148.818995459757
 30
0.0
 10
105.6083685716882
 20
-148.818995459757
 30
0.0
 10
105.6083685716882
 20
-148.818995459757
 30
0.0
 10
105.6083685716882
 20
-148.818995459757
 30
0.0
 10
105.6083685716882
 20
-148.7046182896467
 30
0.0
 10
105.6083685716882
 20
-148.7046182896467
 30
0.0
  0
SPLINE
  5
FD
330
F3
100
AcDbEntity
  8
レイヤー 1
100
AcDbSpline
210
0.0
220
0.0
230
1.0
 70
    11
 71
     3
 72
    17
 73
    13
 74
     0
 42
0.0000000001
 43
0.0000000001
 40
0.0
 40
0.0
 40
0.0
 40
0.0
 40
1.0
 40
1.0
 40
1.0
 40
2.0
 40
2.0
 40
2.0
 40
3.0
 40
3.0
 40
3.0
 40
4.0
 40
4.0
 40
4.0
 40
4.0
 10
105.6083685716882
 20
-148.4719020896181
 30
0.0
 10
105.6083685716882
 20
-148.4719020896181
 30
0.0
 10
104.9016072328892
 20
-148.4719020896181
 30
0.0
 10
104.9016072328892
 20
-148.4719020896181
 30
0.0
 10
104.9016072328892
 20
-148.4719020896181
 30
0.0
 10
104.9016072328892
 20
-148.5799058330807
 30
0.0
 10
104.9016072328892
 20
-148.5799058330807
 30
0.0
 10
104.9016072328892
 20
-148.5799058330807
 30
0.0
 10
105.6083685716882
 20
-148.5799058330807
 30
0.0
 10
105.6083685716882
 20
-148.5799058330807
 30
0.0
 10
105.6083685716882
 20
-148.5799058330807
 30
0.0
 10
105.6083685716882
 20
-148.4719020896181
 30
0.0
 10
105.6083685716882
 20
-148.4719020896181
 30
0.0
  0
SPLINE
  5
FE
330
F3
100
AcDbEntity
  8
レイヤー 1
100
AcDbSpline
210
0.0
220
0.0
230
1.0
 70
     9
 71
     3
 72
   203
 73
   199
 74
     0
 42
0.0000000001
 43
0.0000000001
 40
0.0
 40
0.0
 40
0.0
 40
0.0
 40
1.0
 40
1.0
 40
1.0
 40
2.0
 40
2.0
 40
2.0
 40
3.0
 40
3.0
 40
3.0
 40
4.0
 40
4.0
 40
4.0
 40
5.0
 40
5.0
 40
5.0
 40
6.0
 40
6.0
 40
6.0
 40
7.0
 40
7.0
 40
7.0
 40
8.0
 40
8.0
 40
8.0
 40
9.0
 40
9.0
 40
9.0
 40
10.0
 40
10.0
 40
10.0
 40
11.0
 40
11.0
 40
11.0
 40
12.0
 40
12.0
 40
12.0
 40
13.0
 40
13.0
 40
13.0
 40
14.0
 40
14.0
 40
14.0
 40
15.0
 40
15.0
 40
15.0
 40
16.0
 40
16.0
 40
16.0
 40
17.0
 40
17.0
 40
17.0
 40
18.0
 40
18.0
 40
18.0
 40
19.0
 40
19.0
 40
19.0
 40
20.0
 40
20.0
 40
20.0
 40
21.0
 40
21.0
 40
21.0
 40
22.0
 40
22.0
 40
22.0
 40
23.0
 40
23.0
 40
23.0
 40
24.0
 40
24.0
 40
24.0
 40
25.0
 40
25.0
 40
25.0
 40
26.0
 40
26.0
 40
26.0
 40
27.0
 40
27.0
 40
27.0
 40
28.0
 40
28.0
 40
28.0
 40
29.0
 40
29.0
 40
29.0
 40
30.0
 40
30.0
 40
30.0
 40
31.0
 40
31.0
 40
31.0
 40
32.0
 40
32.0
 40
32.0
 40
33.0
 40
33.0
 40
33.0
 40
34.0
 40
34.0
 40
34.0
 40
35.0
 40
35.0
 40
35.0
 40
36.0
 40
36.0
 40
36.0
 40
37.0
 40
37.0
 40
37.0
 40
38.0
 40
38.0
 40
38.0
 40
39.0
 40
39.0
 40
39.0
 40
40.0
 40
40.0
 40
40.0
 40
41.0
 40
41.0
 40
41.0
 40
42.0
 40
42.0
 40
42.0
 40
43.0
 40
43.0
 40
43.0
 40
44.0
 40
44.0
 40
44.0
 40
45.0
 40
45.0
 40
45.0
 40
46.0
 40
46.0
 40
46.0
 40
47.0
 40
47.0
 40
47.0
 40
48.0
 40
48.0
 40
48.0
 40
49.0
 40
49.0
 40
49.0
 40
50.0
 40
50.0
 40
50.0
 40
51.0
 40
51.0
 40
51.0
 40
52.0
 40
52.0
 40
52.0
 40
53.0
 40
53.0
 40
53.0
 40
54.0
 40
54.0
 40
54.0
 40
55.0
 40
55.0
 40
55.0
 40
56.0
 40
56.0
 40
56.0
 40
57.0
 40
57.0
 40
57.0
 40
58.0
 40
58.0
 40
58.0
 40
59.0
 40
59.0
 40
59.0
 40
60.0
 40
60.0
 40
60.0
 40
61.0
 40
61.0
 40
61.0
 40
62.0
 40
62.0
 40
62.0
 40
63.0
 40
63.0
 40
63.0
 40
64.0
 40
64.0
 40
64.0
 40
65.0
 40
65.0
 40
65.0
 40
66.0
 40
66.0
 40
66.0
 40
66.0
 10
105.4431762431704
 20
-148.215931495064
 30
0.0
 10
105.4431762431704
 20
-148.215931495064
 30
0.0
 10
104.8847262650114
 20
-148.215931495064
 30
0.0
 10
104.8847262650114
 20
-148.215931495064
 30
0.0
 10
104.8740464690071
 20
-148.2603732268238
 30
0.0
 10
104.8656059850683
 20
-148.2920681052881
 30
0.0
 10
104.8530313865471
 20
-148.3303086651743
 30
0.0
 10
104.8783528383637
 20
-148.3303086651743
 30
0.0
 10
104.8931667489503
 20
-148.3323757224655
 30
0.0
 10
104.899540175598
 20
-148.3323757224655
 30
0.0
 10
104.899540175598
 20
-148.3323757224655
 30
0.0
 10
105.0878146438669
 20
-148.3323757224655
 30
0.0
 10
105.0878146438669
 20
-148.3323757224655
 30
0.0
 10
105.0878146438669
 20
-148.3323757224655
 30
0.0
 10
105.4622965231136
 20
-148.3323757224655
 30
0.0
 10
105.4622965231136
 20
-148.3323757224655
 30
0.0
 10
105.5129394267467
 20
-148.3323757224655
 30
0.0
 10
105.7964707851828
 20
-148.3196288691701
 30
0.0
 10
105.8281656636471
 20
-148.3196288691701
 30
0.0
 10
105.826098606356
 20
-148.3471896330521
 30
0.0
 10
105.8240315490648
 20
-148.3661376582209
 30
0.0
 10
105.8240315490648
 20
-148.3957654793941
 30
0.0
 10
105.8219644917737
 20
-148.4274603578584
 30
0.0
 10
105.8219644917737
 20
-148.5628526104287
 30
0.0
 10
105.8219644917737
 20
-148.5904133743107
 30
0.0
 10
105.8219644917737
 20
-148.5904133743107
 30
0.0
 10
105.8219644917737
 20
-148.8358764276348
 30
0.0
 10
105.8219644917737
 20
-148.8358764276348
 30
0.0
 10
105.8219644917737
 20
-148.8804904141687
 30
0.0
 10
105.826098606356
 20
-149.0772053663765
 30
0.0
 10
105.8305772304868
 20
-149.2294785868246
 30
0.0
 10
105.8305772304868
 20
-149.2294785868246
 30
0.0
 10
105.6038899475573
 20
-149.2294785868246
 30
0.0
 10
105.6038899475573
 20
-149.2294785868246
 30
0.0
 10
105.6038899475573
 20
-149.2294785868246
 30
0.0
 10
105.606301514397
 20
-149.1957166510691
 30
0.0
 10
105.606301514397
 20
-149.1957166510691
 30
0.0
 10
105.606301514397
 20
-149.1957166510691
 30
0.0
 10
104.9036742901803
 20
-149.1957166510691
 30
0.0
 10
104.9036742901803
 20
-149.1957166510691
 30
0.0
 10
104.9036742901803
 20
-149.1957166510691
 30
0.0
 10
104.9059136022457
 20
-149.2294785868246
 30
0.0
 10
104.9059136022457
 20
-149.2294785868246
 30
0.0
 10
104.9059136022457
 20
-149.2294785868246
 30
0.0
 10
104.6880113128037
 20
-149.2294785868246
 30
0.0
 10
104.6880113128037
 20
-149.2294785868246
 30
0.0
 10
104.692145427386
 20
-149.1743570590606
 30
0.0
 10
104.692145427386
 20
-149.1616102057651
 30
0.0
 10
104.6985188540337
 20
-149.0475775452034
 30
0.0
 10
104.7005859113248
 20
-149.0200167813214
 30
0.0
 10
104.7028252233902
 20
-148.8866915860422
 30
0.0
 10
104.7028252233902
 20
-148.8675713060991
 30
0.0
 10
104.7028252233902
 20
-148.8675713060991
 30
0.0
 10
104.7028252233902
 20
-148.6644829272436
 30
0.0
 10
104.7028252233902
 20
-148.6644829272436
 30
0.0
 10
104.5631266014634
 20
-148.9142523499242
 30
0.0
 10
104.3939724131376
 20
-149.0455104879122
 30
0.0
 10
104.2882079817404
 20
-149.110967302132
 30
0.0
 10
104.2882079817404
 20
-149.110967302132
 30
0.0
 10
104.1145751692838
 20
-148.9714409349794
 30
0.0
 10
104.1145751692838
 20
-148.9714409349794
 30
0.0
 10
104.2034586328033
 20
-148.9204535217977
 30
0.0
 10
104.3472913693125
 20
-148.8336371155694
 30
0.0
 10
104.4849229339482
 20
-148.639161475427
 30
0.0
 10
104.5758734547588
 20
-148.5122097067955
 30
0.0
 10
104.6415025237528
 20
-148.3683769702864
 30
0.0
 10
104.6752644595082
 20
-148.215931495064
 30
0.0
 10
104.4468546288362
 20
-148.2181708071295
 30
0.0
 10
104.2670206445061
 20
-148.2245442337772
 30
0.0
 10
104.171763754339
 20
-148.2266112910683
 30
0.0
 10
104.171763754339
 20
-148.2266112910683
 30
0.0
 10
104.171763754339
 20
-148.0488443640294
 30
0.0
 10
104.171763754339
 20
-148.0488443640294
 30
0.0
 10
104.3684787065467
 20
-148.0552177906772
 30
0.0
 10
104.6520100649828
 20
-148.0595241600337
 30
0.0
 10
104.8022162281397
 20
-148.0595241600337
 30
0.0
 10
104.8022162281397
 20
-148.0595241600337
 30
0.0
 10
105.0158121482252
 20
-148.0595241600337
 30
0.0
 10
105.0158121482252
 20
-148.0595241600337
 30
0.0
 10
105.0158121482252
 20
-148.0595241600337
 30
0.0
 10
105.0158121482252
 20
-147.9515204165711
 30
0.0
 10
105.0158121482252
 20
-147.9515204165711
 30
0.0
 10
105.0158121482252
 20
-147.9515204165711
 30
0.0
 10
104.8699123544249
 20
-147.9515204165711
 30
0.0
 10
104.8699123544249
 20
-147.9515204165711
 30
0.0
 10
104.7005859113248
 20
-147.9515204165711
 30
0.0
 10
104.5314317229991
 20
-147.9558267859277
 30
0.0
 10
104.3643445919644
 20
-147.9622002125754
 30
0.0
 10
104.3643445919644
 20
-147.9622002125754
 30
0.0
 10
104.3643445919644
 20
-147.7908067121842
 30
0.0
 10
104.3643445919644
 20
-147.7908067121842
 30
0.0
 10
104.5186848697036
 20
-147.8013142534142
 30
0.0
 10
104.7048922806814
 20
-147.8013142534142
 30
0.0
 10
104.8699123544249
 20
-147.8013142534142
 30
0.0
 10
104.8699123544249
 20
-147.8013142534142
 30
0.0
 10
105.0158121482252
 20
-147.8013142534142
 30
0.0
 10
105.0158121482252
 20
-147.8013142534142
 30
0.0
 10
105.0158121482252
 20
-147.8013142534142
 30
0.0
 10
105.0158121482252
 20
-147.6829752234959
 30
0.0
 10
105.0158121482252
 20
-147.6829752234959
 30
0.0
 10
105.0158121482252
 20
-147.6829752234959
 30
0.0
 10
104.8847262650114
 20
-147.6829752234959
 30
0.0
 10
104.8847262650114
 20
-147.6829752234959
 30
0.0
 10
104.8382174759606
 20
-147.6829752234959
 30
0.0
 10
104.6351290971051
 20
-147.6914157074348
 30
0.0
 10
104.5927544226365
 20
-147.6914157074348
 30
0.0
 10
104.389666043781
 20
-147.6955498220171
 30
0.0
 10
104.313529433557
 20
-147.6976168793082
 30
0.0
 10
104.2353257660418
 20
-147.6998561913736
 30
0.0
 10
104.2353257660418
 20
-147.6998561913736
 30
0.0
 10
104.2353257660418
 20
-147.515715837687
 30
0.0
 10
104.2353257660418
 20
-147.515715837687
 30
0.0
 10
104.3495306813779
 20
-147.5241563216259
 30
0.0
 10
104.3939724131376
 20
-147.5241563216259
 30
0.0
 10
104.7768947763231
 20
-147.532769060339
 30
0.0
 10
104.7133327646202
 20
-147.4375121701719
 30
0.0
 10
104.6857720007382
 20
-147.4099514062898
 30
0.0
 10
104.6499430076917
 20
-147.373950158469
 30
0.0
 10
104.6499430076917
 20
-147.373950158469
 30
0.0
 10
104.8254706226651
 20
-147.2914401215972
 30
0.0
 10
104.8254706226651
 20
-147.2914401215972
 30
0.0
 10
104.8656059850683
 20
-147.3274413694181
 30
0.0
 10
104.910047716828
 20
-147.3698160438867
 30
0.0
 10
104.9841172697609
 20
-147.4797145898661
 30
0.0
 10
104.9841172697609
 20
-147.4797145898661
 30
0.0
 10
104.8699123544249
 20
-147.5348361176302
 30
0.0
 10
104.8699123544249
 20
-147.5348361176302
 30
0.0
 10
104.8699123544249
 20
-147.5348361176302
 30
0.0
 10
104.8804198956549
 20
-147.5348361176302
 30
0.0
 10
104.8804198956549
 20
-147.5348361176302
 30
0.0
 10
104.8804198956549
 20
-147.5348361176302
 30
0.0
 10
105.4030408807673
 20
-147.5348361176302
 30
0.0
 10
105.4030408807673
 20
-147.5348361176302
 30
0.0
 10
105.4030408807673
 20
-147.5348361176302
 30
0.0
 10
105.3077839906001
 20
-147.4903943858705
 30
0.0
 10
105.3077839906001
 20
-147.4903943858705
 30
0.0
 10
105.3353447544821
 20
-147.4523260807584
 30
0.0
 10
105.392361084763
 20
-147.3718831011779
 30
0.0
 10
105.4071749953496
 20
-147.297813548245
 30
0.0
 10
105.4071749953496
 20
-147.297813548245
 30
0.0
 10
105.6211154249836
 20
-147.3613755599478
 30
0.0
 10
105.6211154249836
 20
-147.3613755599478
 30
0.0
 10
105.6293836541482
 20
-147.363442617239
 30
0.0
 10
105.6507432461567
 20
-147.373950158469
 30
0.0
 10
105.6507432461567
 20
-147.3951374957033
 30
0.0
 10
105.6507432461567
 20
-147.4332058008153
 30
0.0
 10
105.5849419223885
 20
-147.4332058008153
 30
0.0
 10
105.5659938972196
 20
-147.4332058008153
 30
0.0
 10
105.5553141012153
 20
-147.4523260807584
 30
0.0
 10
105.5322319614641
 20
-147.4924614431616
 30
0.0
 10
105.502604140291
 20
-147.532769060339
 30
0.0
 10
105.90223521658
 20
-147.5263956336913
 30
0.0
 10
105.9318630377531
 20
-147.5241563216259
 30
0.0
 10
106.0079996479772
 20
-147.5179551497524
 30
0.0
 10
106.0079996479772
 20
-147.5179551497524
 30
0.0
 10
106.0079996479772
 20
-147.6998561913736
 30
0.0
 10
106.0079996479772
 20
-147.6998561913736
 30
0.0
 10
105.9890516228083
 20
-147.6998561913736
 30
0.0
 10
105.9635579162174
 20
-147.6976168793082
 30
0.0
 10
105.7437608242585
 20
-147.6891763953694
 30
0.0
 10
105.6927734110768
 20
-147.6871093380782
 30
0.0
 10
105.4728040643436
 20
-147.6829752234959
 30
0.0
 10
105.4283623325839
 20
-147.6829752234959
 30
0.0
 10
105.4283623325839
 20
-147.6829752234959
 30
0.0
 10
105.212527100433
 20
-147.6829752234959
 30
0.0
 10
105.212527100433
 20
-147.6829752234959
 30
0.0
 10
105.212527100433
 20
-147.6829752234959
 30
0.0
 10
105.212527100433
 20
-147.8013142534142
 30
0.0
 10
105.212527100433
 20
-147.8013142534142
 30
0.0
 10
105.212527100433
 20
-147.8013142534142
 30
0.0
 10
105.3859876581153
 20
-147.8013142534142
 30
0.0
 10
105.3859876581153
 20
-147.8013142534142
 30
0.0
 10
105.5491129293419
 20
-147.8013142534142
 30
0.0
 10
105.7392822001277
 20
-147.8013142534142
 30
0.0
 10
105.8960340447065
 20
-147.7908067121842
 30
0.0
 10
105.8960340447065
 20
-147.7908067121842
 30
0.0
 10
105.8960340447065
 20
-147.9622002125754
 30
0.0
 10
105.8960340447065
 20
-147.9622002125754
 30
0.0
 10
105.6865722392033
 20
-147.9537597286365
 30
0.0
 10
105.4898572869956
 20
-147.9515204165711
 30
0.0
 10
105.3859876581153
 20
-147.9515204165711
 30
0.0
 10
105.3859876581153
 20
-147.9515204165711
 30
0.0
 10
105.212527100433
 20
-147.9515204165711
 30
0.0
 10
105.212527100433
 20
-147.9515204165711
 30
0.0
 10
105.212527100433
 20
-147.9515204165711
 30
0.0
 10
105.212527100433
 20
-148.0595241600337
 30
0.0
 10
105.212527100433
 20
-148.0595241600337
 30
0.0
 10
105.212527100433
 20
-148.0595241600337
 30
0.0
 10
105.4431762431704
 20
-148.0595241600337
 30
0.0
 10
105.4431762431704
 20
-148.0595241600337
 30
0.0
 10
105.5766736932239
 20
-148.0595241600337
 30
0.0
 10
105.8643391662422
 20
-148.0552177906772
 30
0.0
 10
106.0738009717454
 20
-148.0488443640294
 30
0.0
 10
106.0738009717454
 20
-148.0488443640294
 30
0.0
 10
106.0738009717454
 20
-148.2266112910683
 30
0.0
 10
106.0738009717454
 20
-148.2266112910683
 30
0.0
 10
105.88122013412
 20
-148.2202378644206
 30
0.0
 10
105.5680609545107
 20
-148.215931495064
 30
0.0
 10
105.4431762431704
 20
-148.215931495064
 30
0.0
  0
HATCH
  5
FF
330
F3
100
AcDbEntity
  8
レイヤー 1
 62
    18
420
        0
440
 33554687
100
AcDbHatch
 10
0.0
 20
0.0
 30
0.0
210
0.0
220
0.0
230
1.0
  2
SOLID
 70
     1
 71
     1
 91
        4
 92
        1
 93
        1
 72
     4
 94
        3
 73
     0
 74
     0
 95
       17
 96
       13
 40
0.0
 40
0.0
 40
0.0
 40
0.0
 40
1.0
 40
1.0
 40
1.0
 40
2.0
 40
2.0
 40
2.0
 40
3.0
 40
3.0
 40
3.0
 40
4.0
 40
4.0
 40
4.0
 40
4.0
 10
105.6083685716882
 20
-148.9480142856796
 10
105.6083685716882
 20
-148.9480142856796
 10
104.9016072328892
 20
-148.9480142856796
 10
104.9016072328892
 20
-148.9480142856796
 10
104.9016072328892
 20
-148.9480142856796
 10
104.9016072328892
 20
-149.0623914557899
 10
104.9016072328892
 20
-149.0623914557899
 10
104.9016072328892
 20
-149.0623914557899
 10
105.6083685716882
 20
-149.0623914557899
 10
105.6083685716882
 20
-149.0623914557899
 10
105.6083685716882
 20
-149.0623914557899
 10
105.6083685716882
 20
-148.9480142856796
 10
105.6083685716882
 20
-148.9480142856796
 97
        0
 97
        1
330
FB
 92
        1
 93
        1
 72
     4
 94
        3
 73
     0
 74
     0
 95
       17
 96
       13
 40
0.0
 40
0.0
 40
0.0
 40
0.0
 40
1.0
 40
1.0
 40
1.0
 40
2.0
 40
2.0
 40
2.0
 40
3.0
 40
3.0
 40
3.0
 40
4.0
 40
4.0
 40
4.0
 40
4.0
 10
105.6083685716882
 20
-148.7046182896467
 10
105.6083685716882
 20
-148.7046182896467
 10
104.9016072328892
 20
-148.7046182896467
 10
104.9016072328892
 20
-148.7046182896467
 10
104.9016072328892
 20
-148.7046182896467
 10
104.9016072328892
 20
-148.818995459757
 10
104.9016072328892
 20
-148.818995459757
 10
104.9016072328892
 20
-148.818995459757
 10
105.6083685716882
 20
-148.818995459757
 10
105.6083685716882
 20
-148.818995459757
 10
105.6083685716882
 20
-148.818995459757
 10
105.6083685716882
 20
-148.7046182896467
 10
105.6083685716882
 20
-148.7046182896467
 97
        0
 97
        1
330
FC
 92
        1
 93
        1
 72
     4
 94
        3
 73
     0
 74
     0
 95
       17
 96
       13
 40
0.0
 40
0.0
 40
0.0
 40
0.0
 40
1.0
 40
1.0
 40
1.0
 40
2.0
 40
2.0
 40
2.0
 40
3.0
 40
3.0
 40
3.0
 40
4.0
 40
4.0
 40
4.0
 40
4.0
 10
105.6083685716882
 20
-148.4719020896181
 10
105.6083685716882
 20
-148.4719020896181
 10
104.9016072328892
 20
-148.4719020896181
 10
104.9016072328892
 20
-148.4719020896181
 10
104.9016072328892
 20
-148.4719020896181
 10
104.9016072328892
 20
-148.5799058330807
 10
104.9016072328892
 20
-148.5799058330807
 10
104.9016072328892
 20
-148.5799058330807
 10
105.6083685716882
 20
-148.5799058330807
 10
105.6083685716882
 20
-148.5799058330807
 10
105.6083685716882
 20
-148.5799058330807
 10
105.6083685716882
 20
-148.4719020896181
 10
105.6083685716882
 20
-148.4719020896181
 97
        0
 97
        1
330
FD
 92
        1
 93
        1
 72
     4
 94
        3
 73
     0
 74
     0
 95
      203
 96
      199
 40
0.0
 40
0.0
 40
0.0
 40
0.0
 40
1.0
 40
1.0
 40
1.0
 40
2.0
 40
2.0
 40
2.0
 40
3.0
 40
3.0
 40
3.0
 40
4.0
 40
4.0
 40
4.0
 40
5.0
 40
5.0
 40
5.0
 40
6.0
 40
6.0
 40
6.0
 40
7.0
 40
7.0
 40
7.0
 40
8.0
 40
8.0
 40
8.0
 40
9.0
 40
9.0
 40
9.0
 40
10.0
 40
10.0
 40
10.0
 40
11.0
 40
11.0
 40
11.0
 40
12.0
 40
12.0
 40
12.0
 40
13.0
 40
13.0
 40
13.0
 40
14.0
 40
14.0
 40
14.0
 40
15.0
 40
15.0
 40
15.0
 40
16.0
 40
16.0
 40
16.0
 40
17.0
 40
17.0
 40
17.0
 40
18.0
 40
18.0
 40
18.0
 40
19.0
 40
19.0
 40
19.0
 40
20.0
 40
20.0
 40
20.0
 40
21.0
 40
21.0
 40
21.0
 40
22.0
 40
22.0
 40
22.0
 40
23.0
 40
23.0
 40
23.0
 40
24.0
 40
24.0
 40
24.0
 40
25.0
 40
25.0
 40
25.0
 40
26.0
 40
26.0
 40
26.0
 40
27.0
 40
27.0
 40
27.0
 40
28.0
 40
28.0
 40
28.0
 40
29.0
 40
29.0
 40
29.0
 40
30.0
 40
30.0
 40
30.0
 40
31.0
 40
31.0
 40
31.0
 40
32.0
 40
32.0
 40
32.0
 40
33.0
 40
33.0
 40
33.0
 40
34.0
 40
34.0
 40
34.0
 40
35.0
 40
35.0
 40
35.0
 40
36.0
 40
36.0
 40
36.0
 40
37.0
 40
37.0
 40
37.0
 40
38.0
 40
38.0
 40
38.0
 40
39.0
 40
39.0
 40
39.0
 40
40.0
 40
40.0
 40
40.0
 40
41.0
 40
41.0
 40
41.0
 40
42.0
 40
42.0
 40
42.0
 40
43.0
 40
43.0
 40
43.0
 40
44.0
 40
44.0
 40
44.0
 40
45.0
 40
45.0
 40
45.0
 40
46.0
 40
46.0
 40
46.0
 40
47.0
 40
47.0
 40
47.0
 40
48.0
 40
48.0
 40
48.0
 40
49.0
 40
49.0
 40
49.0
 40
50.0
 40
50.0
 40
50.0
 40
51.0
 40
51.0
 40
51.0
 40
52.0
 40
52.0
 40
52.0
 40
53.0
 40
53.0
 40
53.0
 40
54.0
 40
54.0
 40
54.0
 40
55.0
 40
55.0
 40
55.0
 40
56.0
 40
56.0
 40
56.0
 40
57.0
 40
57.0
 40
57.0
 40
58.0
 40
58.0
 40
58.0
 40
59.0
 40
59.0
 40
59.0
 40
60.0
 40
60.0
 40
60.0
 40
61.0
 40
61.0
 40
61.0
 40
62.0
 40
62.0
 40
62.0
 40
63.0
 40
63.0
 40
63.0
 40
64.0
 40
64.0
 40
64.0
 40
65.0
 40
65.0
 40
65.0
 40
66.0
 40
66.0
 40
66.0
 40
66.0
 10
105.4431762431704
 20
-148.215931495064
 10
105.4431762431704
 20
-148.215931495064
 10
104.8847262650114
 20
-148.215931495064
 10
104.8847262650114
 20
-148.215931495064
 10
104.8740464690071
 20
-148.2603732268238
 10
104.8656059850683
 20
-148.2920681052881
 10
104.8530313865471
 20
-148.3303086651743
 10
104.8783528383637
 20
-148.3303086651743
 10
104.8931667489503
 20
-148.3323757224655
 10
104.899540175598
 20
-148.3323757224655
 10
104.899540175598
 20
-148.3323757224655
 10
105.0878146438669
 20
-148.3323757224655
 10
105.0878146438669
 20
-148.3323757224655
 10
105.0878146438669
 20
-148.3323757224655
 10
105.4622965231136
 20
-148.3323757224655
 10
105.4622965231136
 20
-148.3323757224655
 10
105.5129394267467
 20
-148.3323757224655
 10
105.7964707851828
 20
-148.3196288691701
 10
105.8281656636471
 20
-148.3196288691701
 10
105.826098606356
 20
-148.3471896330521
 10
105.8240315490648
 20
-148.3661376582209
 10
105.8240315490648
 20
-148.3957654793941
 10
105.8219644917737
 20
-148.4274603578584
 10
105.8219644917737
 20
-148.5628526104287
 10
105.8219644917737
 20
-148.5904133743107
 10
105.8219644917737
 20
-148.5904133743107
 10
105.8219644917737
 20
-148.8358764276348
 10
105.8219644917737
 20
-148.8358764276348
 10
105.8219644917737
 20
-148.8804904141687
 10
105.826098606356
 20
-149.0772053663765
 10
105.8305772304868
 20
-149.2294785868246
 10
105.8305772304868
 20
-149.2294785868246
 10
105.6038899475573
 20
-149.2294785868246
 10
105.6038899475573
 20
-149.2294785868246
 10
105.6038899475573
 20
-149.2294785868246
 10
105.606301514397
 20
-149.1957166510691
 10
105.606301514397
 20
-149.1957166510691
 10
105.606301514397
 20
-149.1957166510691
 10
104.9036742901803
 20
-149.1957166510691
 10
104.9036742901803
 20
-149.1957166510691
 10
104.9036742901803
 20
-149.1957166510691
 10
104.9059136022457
 20
-149.2294785868246
 10
104.9059136022457
 20
-149.2294785868246
 10
104.9059136022457
 20
-149.2294785868246
 10
104.6880113128037
 20
-149.2294785868246
 10
104.6880113128037
 20
-149.2294785868246
 10
104.692145427386
 20
-149.1743570590606
 10
104.692145427386
 20
-149.1616102057651
 10
104.6985188540337
 20
-149.0475775452034
 10
104.7005859113248
 20
-149.0200167813214
 10
104.7028252233902
 20
-148.8866915860422
 10
104.7028252233902
 20
-148.8675713060991
 10
104.7028252233902
 20
-148.8675713060991
 10
104.7028252233902
 20
-148.6644829272436
 10
104.7028252233902
 20
-148.6644829272436
 10
104.5631266014634
 20
-148.9142523499242
 10
104.3939724131376
 20
-149.0455104879122
 10
104.2882079817404
 20
-149.110967302132
 10
104.2882079817404
 20
-149.110967302132
 10
104.1145751692838
 20
-148.9714409349794
 10
104.1145751692838
 20
-148.9714409349794
 10
104.2034586328033
 20
-148.9204535217977
 10
104.3472913693125
 20
-148.8336371155694
 10
104.4849229339482
 20
-148.639161475427
 10
104.5758734547588
 20
-148.5122097067955
 10
104.6415025237528
 20
-148.3683769702864
 10
104.6752644595082
 20
-148.215931495064
 10
104.4468546288362
 20
-148.2181708071295
 10
104.2670206445061
 20
-148.2245442337772
 10
104.171763754339
 20
-148.2266112910683
 10
104.171763754339
 20
-148.2266112910683
 10
104.171763754339
 20
-148.0488443640294
 10
104.171763754339
 20
-148.0488443640294
 10
104.3684787065467
 20
-148.0552177906772
 10
104.6520100649828
 20
-148.0595241600337
 10
104.8022162281397
 20
-148.0595241600337
 10
104.8022162281397
 20
-148.0595241600337
 10
105.0158121482252
 20
-148.0595241600337
 10
105.0158121482252
 20
-148.0595241600337
 10
105.0158121482252
 20
-148.0595241600337
 10
105.0158121482252
 20
-147.9515204165711
 10
105.0158121482252
 20
-147.9515204165711
 10
105.0158121482252
 20
-147.9515204165711
 10
104.8699123544249
 20
-147.9515204165711
 10
104.8699123544249
 20
-147.9515204165711
 10
104.7005859113248
 20
-147.9515204165711
 10
104.5314317229991
 20
-147.9558267859277
 10
104.3643445919644
 20
-147.9622002125754
 10
104.3643445919644
 20
-147.9622002125754
 10
104.3643445919644
 20
-147.7908067121842
 10
104.3643445919644
 20
-147.7908067121842
 10
104.5186848697036
 20
-147.8013142534142
 10
104.7048922806814
 20
-147.8013142534142
 10
104.8699123544249
 20
-147.8013142534142
 10
104.8699123544249
 20
-147.8013142534142
 10
105.0158121482252
 20
-147.8013142534142
 10
105.0158121482252
 20
-147.8013142534142
 10
105.0158121482252
 20
-147.8013142534142
 10
105.0158121482252
 20
-147.6829752234959
 10
105.0158121482252
 20
-147.6829752234959
 10
105.0158121482252
 20
-147.6829752234959
 10
104.8847262650114
 20
-147.6829752234959
 10
104.8847262650114
 20
-147.6829752234959
 10
104.8382174759606
 20
-147.6829752234959
 10
104.6351290971051
 20
-147.6914157074348
 10
104.5927544226365
 20
-147.6914157074348
 10
104.389666043781
 20
-147.6955498220171
 10
104.313529433557
 20
-147.6976168793082
 10
104.2353257660418
 20
-147.6998561913736
 10
104.2353257660418
 20
-147.6998561913736
 10
104.2353257660418
 20
-147.515715837687
 10
104.2353257660418
 20
-147.515715837687
 10
104.3495306813779
 20
-147.5241563216259
 10
104.3939724131376
 20
-147.5241563216259
 10
104.7768947763231
 20
-147.532769060339
 10
104.7133327646202
 20
-147.4375121701719
 10
104.6857720007382
 20
-147.4099514062898
 10
104.6499430076917
 20
-147.373950158469
 10
104.6499430076917
 20
-147.373950158469
 10
104.8254706226651
 20
-147.2914401215972
 10
104.8254706226651
 20
-147.2914401215972
 10
104.8656059850683
 20
-147.3274413694181
 10
104.910047716828
 20
-147.3698160438867
 10
104.9841172697609
 20
-147.4797145898661
 10
104.9841172697609
 20
-147.4797145898661
 10
104.8699123544249
 20
-147.5348361176302
 10
104.8699123544249
 20
-147.5348361176302
 10
104.8699123544249
 20
-147.5348361176302
 10
104.8804198956549
 20
-147.5348361176302
 10
104.8804198956549
 20
-147.5348361176302
 10
104.8804198956549
 20
-147.5348361176302
 10
105.4030408807673
 20
-147.5348361176302
 10
105.4030408807673
 20
-147.5348361176302
 10
105.4030408807673
 20
-147.5348361176302
 10
105.3077839906001
 20
-147.4903943858705
 10
105.3077839906001
 20
-147.4903943858705
 10
105.3353447544821
 20
-147.4523260807584
 10
105.392361084763
 20
-147.3718831011779
 10
105.4071749953496
 20
-147.297813548245
 10
105.4071749953496
 20
-147.297813548245
 10
105.6211154249836
 20
-147.3613755599478
 10
105.6211154249836
 20
-147.3613755599478
 10
105.6293836541482
 20
-147.363442617239
 10
105.6507432461567
 20
-147.373950158469
 10
105.6507432461567
 20
-147.3951374957033
 10
105.6507432461567
 20
-147.4332058008153
 10
105.5849419223885
 20
-147.4332058008153
 10
105.5659938972196
 20
-147.4332058008153
 10
105.5553141012153
 20
-147.4523260807584
 10
105.5322319614641
 20
-147.4924614431616
 10
105.502604140291
 20
-147.532769060339
 10
105.90223521658
 20
-147.5263956336913
 10
105.9318630377531
 20
-147.5241563216259
 10
106.0079996479772
 20
-147.5179551497524
 10
106.0079996479772
 20
-147.5179551497524
 10
106.0079996479772
 20
-147.6998561913736
 10
106.0079996479772
 20
-147.6998561913736
 10
105.9890516228083
 20
-147.6998561913736
 10
105.9635579162174
 20
-147.6976168793082
 10
105.7437608242585
 20
-147.6891763953694
 10
105.6927734110768
 20
-147.6871093380782
 10
105.4728040643436
 20
-147.6829752234959
 10
105.4283623325839
 20
-147.6829752234959
 10
105.4283623325839
 20
-147.6829752234959
 10
105.212527100433
 20
-147.6829752234959
 10
105.212527100433
 20
-147.6829752234959
 10
105.212527100433
 20
-147.6829752234959
 10
105.212527100433
 20
-147.8013142534142
 10
105.212527100433
 20
-147.8013142534142
 10
105.212527100433
 20
-147.8013142534142
 10
105.3859876581153
 20
-147.8013142534142
 10
105.3859876581153
 20
-147.8013142534142
 10
105.5491129293419
 20
-147.8013142534142
 10
105.7392822001277
 20
-147.8013142534142
 10
105.8960340447065
 20
-147.7908067121842
 10
105.8960340447065
 20
-147.7908067121842
 10
105.8960340447065
 20
-147.9622002125754
 10
105.8960340447065
 20
-147.9622002125754
 10
105.6865722392033
 20
-147.9537597286365
 10
105.4898572869956
 20
-147.9515204165711
 10
105.3859876581153
 20
-147.9515204165711
 10
105.3859876581153
 20
-147.9515204165711
 10
105.212527100433
 20
-147.9515204165711
 10
105.212527100433
 20
-147.9515204165711
 10
105.212527100433
 20
-147.9515204165711
 10
105.212527100433
 20
-148.0595241600337
 10
105.212527100433
 20
-148.0595241600337
 10
105.212527100433
 20
-148.0595241600337
 10
105.4431762431704
 20
-148.0595241600337
 10
105.4431762431704
 20
-148.0595241600337
 10
105.5766736932239
 20
-148.0595241600337
 10
105.8643391662422
 20
-148.0552177906772
 10
106.0738009717454
 20
-148.0488443640294
 10
106.0738009717454
 20
-148.0488443640294
 10
106.0738009717454
 20
-148.2266112910683
 10
106.0738009717454
 20
-148.2266112910683
 10
105.88122013412
 20
-148.2202378644206
 10
105.5680609545107
 20
-148.215931495064
 10
105.4431762431704
 20
-148.215931495064
 97
        0
 97
        1
330
FE
 75
     2
 76
     1
 98
        1
 10
0.0
 20
0.0
450
        0
451
        0
460
0.0
461
0.0
452
        0
462
0.0
453
        0
470

  0
SPLINE
  5
100
330
F3
100
AcDbEntity
  8
レイヤー 1
100
AcDbSpline
210
0.0
220
0.0
230
1.0
 70
     9
 71
     3
 72
    29
 73
    25
 74
     0
 42
0.0000000001
 43
0.0000000001
 40
0.0
 40
0.0
 40
0.0
 40
0.0
 40
1.0
 40
1.0
 40
1.0
 40
2.0
 40
2.0
 40
2.0
 40
3.0
 40
3.0
 40
3.0
 40
4.0
 40
4.0
 40
4.0
 40
5.0
 40
5.0
 40
5.0
 40
6.0
 40
6.0
 40
6.0
 40
7.0
 40
7.0
 40
7.0
 40
8.0
 40
8.0
 40
8.0
 40
8.0
 10
107.3188584801147
 20
-147.6638549435528
 30
0.0
 10
107.3188584801147
 20
-147.6638549435528
 30
0.0
 10
106.9653916833281
 20
-147.6638549435528
 30
0.0
 10
106.9653916833281
 20
-147.6638549435528
 30
0.0
 10
106.8534260800575
 20
-147.6638549435528
 30
0.0
 10
106.7138997129048
 20
-147.6702283702005
 30
0.0
 10
106.605723714668
 20
-147.6829752234959
 30
0.0
 10
106.605723714668
 20
-147.6829752234959
 30
0.0
 10
106.605723714668
 20
-147.4480197114019
 30
0.0
 10
106.605723714668
 20
-147.4480197114019
 30
0.0
 10
106.7242349993606
 20
-147.4628336219884
 30
0.0
 10
106.9082030982729
 20
-147.467139991345
 30
0.0
 10
106.9653916833281
 20
-147.467139991345
 30
0.0
 10
106.9653916833281
 20
-147.467139991345
 30
0.0
 10
107.3188584801147
 20
-147.467139991345
 30
0.0
 10
107.3188584801147
 20
-147.467139991345
 30
0.0
 10
107.3378065052836
 20
-147.467139991345
 30
0.0
 10
107.5410671389133
 20
-147.467139991345
 30
0.0
 10
107.6826605633571
 20
-147.4480197114019
 30
0.0
 10
107.6826605633571
 20
-147.4480197114019
 30
0.0
 10
107.6826605633571
 20
-147.6829752234959
 30
0.0
 10
107.6826605633571
 20
-147.6829752234959
 30
0.0
 10
107.5262532283268
 20
-147.6638549435528
 30
0.0
 10
107.3357394479924
 20
-147.6638549435528
 30
0.0
 10
107.3188584801147
 20
-147.6638549435528
 30
0.0
  0
SPLINE
  5
101
330
F3
100
AcDbEntity
  8
レイヤー 1
100
AcDbSpline
210
0.0
220
0.0
230
1.0
 70
     9
 71
     3
 72
    47
 73
    43
 74
     0
 42
0.0000000001
 43
0.0000000001
 40
0.0
 40
0.0
 40
0.0
 40
0.0
 40
1.0
 40
1.0
 40
1.0
 40
2.0
 40
2.0
 40
2.0
 40
3.0
 40
3.0
 40
3.0
 40
4.0
 40
4.0
 40
4.0
 40
5.0
 40
5.0
 40
5.0
 40
6.0
 40
6.0
 40
6.0
 40
7.0
 40
7.0
 40
7.0
 40
8.0
 40
8.0
 40
8.0
 40
9.0
 40
9.0
 40
9.0
 40
10.0
 40
10.0
 40
10.0
 40
11.0
 40
11.0
 40
11.0
 40
12.0
 40
12.0
 40
12.0
 40
13.0
 40
13.0
 40
13.0
 40
14.0
 40
14.0
 40
14.0
 40
14.0
 10
107.420144287381
 20
-148.1926771005386
 30
0.0
 10
107.420144287381
 20
-148.1926771005386
 30
0.0
 10
107.3188584801147
 20
-148.1926771005386
 30
0.0
 10
107.3188584801147
 20
-148.1926771005386
 30
0.0
 10
107.3188584801147
 20
-148.2794935067669
 30
0.0
 10
107.2974988881062
 20
-148.6687892966002
 30
0.0
 10
107.1007839358984
 20
-148.8887586433333
 30
0.0
 10
106.9485107154504
 20
-149.0579128316591
 30
0.0
 10
106.7411159672383
 20
-149.1278482700097
 30
0.0
 10
106.6567111278497
 20
-149.1554090338917
 30
0.0
 10
106.6567111278497
 20
-149.1554090338917
 30
0.0
 10
106.4620632329331
 20
-148.9883219028571
 30
0.0
 10
106.4620632329331
 20
-148.9883219028571
 30
0.0
 10
106.5592149256171
 20
-148.9755750495616
 30
0.0
 10
106.7349147953649
 20
-148.9521484002619
 30
0.0
 10
106.9230170088595
 20
-148.763873931993
 30
0.0
 10
106.9970865617924
 20
-148.6920436911256
 30
0.0
 10
107.1007839358984
 20
-148.5523450691987
 30
0.0
 10
107.1007839358984
 20
-148.1926771005386
 30
0.0
 10
107.1007839358984
 20
-148.1926771005386
 30
0.0
 10
106.8703070479352
 20
-148.1926771005386
 30
0.0
 10
106.8703070479352
 20
-148.1926771005386
 30
0.0
 10
106.6842718917317
 20
-148.1926771005386
 30
0.0
 10
106.4978922259797
 20
-148.1969834698952
 30
0.0
 10
106.3118570697762
 20
-148.2117973804817
 30
0.0
 10
106.3118570697762
 20
-148.2117973804817
 30
0.0
 10
106.3118570697762
 20
-147.9918280337486
 30
0.0
 10
106.3118570697762
 20
-147.9918280337486
 30
0.0
 10
106.4999592832708
 20
-148.0066419443351
 30
0.0
 10
106.785557698998
 20
-148.0107760589174
 30
0.0
 10
106.8703070479352
 20
-148.0107760589174
 30
0.0
 10
106.8703070479352
 20
-148.0107760589174
 30
0.0
 10
107.420144287381
 20
-148.0107760589174
 30
0.0
 10
107.420144287381
 20
-148.0107760589174
 30
0.0
 10
107.4394368220985
 20
-148.0107760589174
 30
0.0
 10
107.75673011629
 20
-148.0107760589174
 30
0.0
 10
107.985139946962
 20
-147.9918280337486
 30
0.0
 10
107.985139946962
 20
-147.9918280337486
 30
0.0
 10
107.985139946962
 20
-148.2117973804817
 30
0.0
 10
107.985139946962
 20
-148.2117973804817
 30
0.0
 10
107.7970377334674
 20
-148.1969834698952
 30
0.0
 10
107.6085910104242
 20
-148.1926771005386
 30
0.0
 10
107.420144287381
 20
-148.1926771005386
 30
0.0
  0
HATCH
  5
102
330
F3
100
AcDbEntity
  8
レイヤー 1
 62
    18
420
        0
440
 33554687
100
AcDbHatch
 10
0.0
 20
0.0
 30
0.0
210
0.0
220
0.0
230
1.0
  2
SOLID
 70
     1
 71
     1
 91
        2
 92
        1
 93
        1
 72
     4
 94
        3
 73
     0
 74
     0
 95
       29
 96
       25
 40
0.0
 40
0.0
 40
0.0
 40
0.0
 40
1.0
 40
1.0
 40
1.0
 40
2.0
 40
2.0
 40
2.0
 40
3.0
 40
3.0
 40
3.0
 40
4.0
 40
4.0
 40
4.0
 40
5.0
 40
5.0
 40
5.0
 40
6.0
 40
6.0
 40
6.0
 40
7.0
 40
7.0
 40
7.0
 40
8.0
 40
8.0
 40
8.0
 40
8.0
 10
107.3188584801147
 20
-147.6638549435528
 10
107.3188584801147
 20
-147.6638549435528
 10
106.9653916833281
 20
-147.6638549435528
 10
106.9653916833281
 20
-147.6638549435528
 10
106.8534260800575
 20
-147.6638549435528
 10
106.7138997129048
 20
-147.6702283702005
 10
106.605723714668
 20
-147.6829752234959
 10
106.605723714668
 20
-147.6829752234959
 10
106.605723714668
 20
-147.4480197114019
 10
106.605723714668
 20
-147.4480197114019
 10
106.7242349993606
 20
-147.4628336219884
 10
106.9082030982729
 20
-147.467139991345
 10
106.9653916833281
 20
-147.467139991345
 10
106.9653916833281
 20
-147.467139991345
 10
107.3188584801147
 20
-147.467139991345
 10
107.3188584801147
 20
-147.467139991345
 10
107.3378065052836
 20
-147.467139991345
 10
107.5410671389133
 20
-147.467139991345
 10
107.6826605633571
 20
-147.4480197114019
 10
107.6826605633571
 20
-147.4480197114019
 10
107.6826605633571
 20
-147.6829752234959
 10
107.6826605633571
 20
-147.6829752234959
 10
107.5262532283268
 20
-147.6638549435528
 10
107.3357394479924
 20
-147.6638549435528
 10
107.3188584801147
 20
-147.6638549435528
 97
        0
 97
        1
330
100
 92
        1
 93
        1
 72
     4
 94
        3
 73
     0
 74
     0
 95
       47
 96
       43
 40
0.0
 40
0.0
 40
0.0
 40
0.0
 40
1.0
 40
1.0
 40
1.0
 40
2.0
 40
2.0
 40
2.0
 40
3.0
 40
3.0
 40
3.0
 40
4.0
 40
4.0
 40
4.0
 40
5.0
 40
5.0
 40
5.0
 40
6.0
 40
6.0
 40
6.0
 40
7.0
 40
7.0
 40
7.0
 40
8.0
 40
8.0
 40
8.0
 40
9.0
 40
9.0
 40
9.0
 40
10.0
 40
10.0
 40
10.0
 40
11.0
 40
11.0
 40
11.0
 40
12.0
 40
12.0
 40
12.0
 40
13.0
 40
13.0
 40
13.0
 40
14.0
 40
14.0
 40
14.0
 40
14.0
 10
107.420144287381
 20
-148.1926771005386
 10
107.420144287381
 20
-148.1926771005386
 10
107.3188584801147
 20
-148.1926771005386
 10
107.3188584801147
 20
-148.1926771005386
 10
107.3188584801147
 20
-148.2794935067669
 10
107.2974988881062
 20
-148.6687892966002
 10
107.1007839358984
 20
-148.8887586433333
 10
106.9485107154504
 20
-149.0579128316591
 10
106.7411159672383
 20
-149.1278482700097
 10
106.6567111278497
 20
-149.1554090338917
 10
106.6567111278497
 20
-149.1554090338917
 10
106.4620632329331
 20
-148.9883219028571
 10
106.4620632329331
 20
-148.9883219028571
 10
106.5592149256171
 20
-148.9755750495616
 10
106.7349147953649
 20
-148.9521484002619
 10
106.9230170088595
 20
-148.763873931993
 10
106.9970865617924
 20
-148.6920436911256
 10
107.1007839358984
 20
-148.5523450691987
 10
107.1007839358984
 20
-148.1926771005386
 10
107.1007839358984
 20
-148.1926771005386
 10
106.8703070479352
 20
-148.1926771005386
 10
106.8703070479352
 20
-148.1926771005386
 10
106.6842718917317
 20
-148.1926771005386
 10
106.4978922259797
 20
-148.1969834698952
 10
106.3118570697762
 20
-148.2117973804817
 10
106.3118570697762
 20
-148.2117973804817
 10
106.3118570697762
 20
-147.9918280337486
 10
106.3118570697762
 20
-147.9918280337486
 10
106.4999592832708
 20
-148.0066419443351
 10
106.785557698998
 20
-148.0107760589174
 10
106.8703070479352
 20
-148.0107760589174
 10
106.8703070479352
 20
-148.0107760589174
 10
107.420144287381
 20
-148.0107760589174
 10
107.420144287381
 20
-148.0107760589174
 10
107.4394368220985
 20
-148.0107760589174
 10
107.75673011629
 20
-148.0107760589174
 10
107.985139946962
 20
-147.9918280337486
 10
107.985139946962
 20
-147.9918280337486
 10
107.985139946962
 20
-148.2117973804817
 10
107.985139946962
 20
-148.2117973804817
 10
107.7970377334674
 20
-148.1969834698952
 10
107.6085910104242
 20
-148.1926771005386
 10
107.420144287381
 20
-148.1926771005386
 97
        0
 97
        1
330
101
 75
     2
 76
     1
 98
        1
 10
0.0
 20
0.0
450
        0
451
        0
460
0.0
461
0.0
452
        0
462
0.0
453
        0
470

  0
SPLINE
  5
103
330
F3
100
AcDbEntity
  8
レイヤー 1
100
AcDbSpline
210
0.0
220
0.0
230
1.0
 70
     9
 71
     3
 72
    29
 73
    25
 74
     0
 42
0.0000000001
 43
0.0000000001
 40
0.0
 40
0.0
 40
0.0
 40
0.0
 40
1.0
 40
1.0
 40
1.0
 40
2.0
 40
2.0
 40
2.0
 40
3.0
 40
3.0
 40
3.0
 40
4.0
 40
4.0
 40
4.0
 40
5.0
 40
5.0
 40
5.0
 40
6.0
 40
6.0
 40
6.0
 40
7.0
 40
7.0
 40
7.0
 40
8.0
 40
8.0
 40
8.0
 40
8.0
 10
109.2660264483779
 20
-148.3556301169909
 30
0.0
 10
109.2660264483779
 20
-148.3556301169909
 30
0.0
 10
108.7816460231518
 20
-148.3556301169909
 30
0.0
 10
108.7816460231518
 20
-148.3556301169909
 30
0.0
 10
108.7540852592698
 20
-148.3556301169909
 30
0.0
 10
108.4367919650783
 20
-148.3556301169909
 30
0.0
 10
108.2252631022839
 20
-148.3809515688075
 30
0.0
 10
108.2252631022839
 20
-148.3809515688075
 30
0.0
 10
108.2252631022839
 20
-148.1504746808443
 30
0.0
 10
108.2252631022839
 20
-148.1504746808443
 30
0.0
 10
108.384082004154
 20
-148.1737290753698
 30
0.0
 10
108.5742512749398
 20
-148.1757961326609
 30
0.0
 10
108.7816460231518
 20
-148.1757961326609
 30
0.0
 10
108.7816460231518
 20
-148.1757961326609
 30
0.0
 10
109.2660264483779
 20
-148.1757961326609
 30
0.0
 10
109.2660264483779
 20
-148.1757961326609
 30
0.0
 10
109.4524061141299
 20
-148.1757961326609
 30
0.0
 10
109.6384412703334
 20
-148.1737290753698
 30
0.0
 10
109.8224093692458
 20
-148.1504746808443
 30
0.0
 10
109.8224093692458
 20
-148.1504746808443
 30
0.0
 10
109.8224093692458
 20
-148.3809515688075
 30
0.0
 10
109.8224093692458
 20
-148.3809515688075
 30
0.0
 10
109.6384412703334
 20
-148.3576971742821
 30
0.0
 10
109.3910834144925
 20
-148.3556301169909
 30
0.0
 10
109.2660264483779
 20
-148.3556301169909
 30
0.0
  0
HATCH
  5
104
330
F3
100
AcDbEntity
  8
レイヤー 1
 62
    18
420
        0
440
 33554687
100
AcDbHatch
 10
0.0
 20
0.0
 30
0.0
210
0.0
220
0.0
230
1.0
  2
SOLID
 70
     1
 71
     1
 91
        1
 92
        1
 93
        1
 72
     4
 94
        3
 73
     0
 74
     0
 95
       29
 96
       25
 40
0.0
 40
0.0
 40
0.0
 40
0.0
 40
1.0
 40
1.0
 40
1.0
 40
2.0
 40
2.0
 40
2.0
 40
3.0
 40
3.0
 40
3.0
 40
4.0
 40
4.0
 40
4.0
 40
5.0
 40
5.0
 40
5.0
 40
6.0
 40
6.0
 40
6.0
 40
7.0
 40
7.0
 40
7.0
 40
8.0
 40
8.0
 40
8.0
 40
8.0
 10
109.2660264483779
 20
-148.3556301169909
 10
109.2660264483779
 20
-148.3556301169909
 10
108.7816460231518
 20
-148.3556301169909
 10
108.7816460231518
 20
-148.3556301169909
 10
108.7540852592698
 20
-148.3556301169909
 10
108.4367919650783
 20
-148.3556301169909
 10
108.2252631022839
 20
-148.3809515688075
 10
108.2252631022839
 20
-148.3809515688075
 10
108.2252631022839
 20
-148.1504746808443
 10
108.2252631022839
 20
-148.1504746808443
 10
108.384082004154
 20
-148.1737290753698
 10
108.5742512749398
 20
-148.1757961326609
 10
108.7816460231518
 20
-148.1757961326609
 10
108.7816460231518
 20
-148.1757961326609
 10
109.2660264483779
 20
-148.1757961326609
 10
109.2660264483779
 20
-148.1757961326609
 10
109.4524061141299
 20
-148.1757961326609
 10
109.6384412703334
 20
-148.1737290753698
 10
109.8224093692458
 20
-148.1504746808443
 10
109.8224093692458
 20
-148.1504746808443
 10
109.8224093692458
 20
-148.3809515688075
 10
109.8224093692458
 20
-148.3809515688075
 10
109.6384412703334
 20
-148.3576971742821
 10
109.3910834144925
 20
-148.3556301169909
 10
109.2660264483779
 20
-148.3556301169909
 97
        0
 97
        1
330
103
 75
     2
 76
     1
 98
        1
 10
0.0
 20
0.0
450
        0
451
        0
460
0.0
461
0.0
452
        0
462
0.0
453
        0
470

  0
SPLINE
  5
105
330
F3
100
AcDbEntity
  8
レイヤー 1
100
AcDbSpline
210
0.0
220
0.0
230
1.0
 70
     9
 71
     3
 72
    47
 73
    43
 74
     0
 42
0.0000000001
 43
0.0000000001
 40
0.0
 40
0.0
 40
0.0
 40
0.0
 40
1.0
 40
1.0
 40
1.0
 40
2.0
 40
2.0
 40
2.0
 40
3.0
 40
3.0
 40
3.0
 40
4.0
 40
4.0
 40
4.0
 40
5.0
 40
5.0
 40
5.0
 40
6.0
 40
6.0
 40
6.0
 40
7.0
 40
7.0
 40
7.0
 40
8.0
 40
8.0
 40
8.0
 40
9.0
 40
9.0
 40
9.0
 40
10.0
 40
10.0
 40
10.0
 40
11.0
 40
11.0
 40
11.0
 40
12.0
 40
12.0
 40
12.0
 40
13.0
 40
13.0
 40
13.0
 40
14.0
 40
14.0
 40
14.0
 40
14.0
 10
111.4863904886215
 20
-147.7611788910111
 30
0.0
 10
111.4164550502709
 20
-148.0404038800906
 30
0.0
 10
111.3403184400469
 20
-148.3451225757609
 30
0.0
 10
111.0271592604376
 20
-148.677229780539
 30
0.0
 10
110.7901366910524
 20
-148.9269992032196
 30
0.0
 10
110.5448458925027
 20
-149.0262179531948
 30
0.0
 10
110.4390814611055
 20
-149.0685926276634
 30
0.0
 10
110.4390814611055
 20
-149.0685926276634
 30
0.0
 10
110.2444335661889
 20
-148.8866915860422
 30
0.0
 10
110.2444335661889
 20
-148.8866915860422
 30
0.0
 10
110.4304687223924
 20
-148.8400105422171
 30
0.0
 10
110.7925482578921
 20
-148.7469929641153
 30
0.0
 10
111.0884819600751
 20
-148.2519327428849
 30
0.0
 10
111.2493679192362
 20
-147.9854546071009
 30
0.0
 10
111.2621147725317
 20
-147.8119940494185
 30
0.0
 10
111.2703830016963
 20
-147.7210435286079
 30
0.0
 10
111.2703830016963
 20
-147.7210435286079
 30
0.0
 10
110.7649874940101
 20
-147.7210435286079
 30
0.0
 10
110.7649874940101
 20
-147.7210435286079
 30
0.0
 10
110.6464762093175
 20
-147.7210435286079
 30
0.0
 10
110.22548554102
 20
-147.7399915537768
 30
0.0
 10
110.073212320572
 20
-147.7504990950068
 30
0.0
 10
110.073212320572
 20
-147.7504990950068
 30
0.0
 10
110.073212320572
 20
-147.5412095442779
 30
0.0
 10
110.073212320572
 20
-147.5412095442779
 30
0.0
 10
110.2148057450157
 20
-147.553784142799
 30
0.0
 10
110.4921359315783
 20
-147.5580905121556
 30
0.0
 10
110.6082356494312
 20
-147.5580905121556
 30
0.0
 10
110.6082356494312
 20
-147.5580905121556
 30
0.0
 10
110.963769503509
 20
-147.5580905121556
 30
0.0
 10
110.963769503509
 20
-147.5580905121556
 30
0.0
 10
110.991330267391
 20
-147.5580905121556
 30
0.0
 10
111.1518717170037
 20
-147.5560234548645
 30
0.0
 10
111.2621147725317
 20
-147.5412095442779
 30
0.0
 10
111.3193033575868
 20
-147.5348361176302
 30
0.0
 10
111.3361843254645
 20
-147.515715837687
 30
0.0
 10
111.3592664652157
 20
-147.4924614431616
 30
0.0
 10
111.3592664652157
 20
-147.4924614431616
 30
0.0
 10
111.5477131882589
 20
-147.6426676063185
 30
0.0
 10
111.5477131882589
 20
-147.6426676063185
 30
0.0
 10
111.5328992776723
 20
-147.6722954274916
 30
0.0
 10
111.522219481668
 20
-147.6914157074348
 30
0.0
 10
111.4863904886215
 20
-147.7611788910111
 30
0.0
  0
HATCH
  5
106
330
F3
100
AcDbEntity
  8
レイヤー 1
 62
    18
420
        0
440
 33554687
100
AcDbHatch
 10
0.0
 20
0.0
 30
0.0
210
0.0
220
0.0
230
1.0
  2
SOLID
 70
     1
 71
     1
 91
        1
 92
        1
 93
        1
 72
     4
 94
        3
 73
     0
 74
     0
 95
       47
 96
       43
 40
0.0
 40
0.0
 40
0.0
 40
0.0
 40
1.0
 40
1.0
 40
1.0
 40
2.0
 40
2.0
 40
2.0
 40
3.0
 40
3.0
 40
3.0
 40
4.0
 40
4.0
 40
4.0
 40
5.0
 40
5.0
 40
5.0
 40
6.0
 40
6.0
 40
6.0
 40
7.0
 40
7.0
 40
7.0
 40
8.0
 40
8.0
 40
8.0
 40
9.0
 40
9.0
 40
9.0
 40
10.0
 40
10.0
 40
10.0
 40
11.0
 40
11.0
 40
11.0
 40
12.0
 40
12.0
 40
12.0
 40
13.0
 40
13.0
 40
13.0
 40
14.0
 40
14.0
 40
14.0
 40
14.0
 10
111.4863904886215
 20
-147.7611788910111
 10
111.4164550502709
 20
-148.0404038800906
 10
111.3403184400469
 20
-148.3451225757609
 10
111.0271592604376
 20
-148.677229780539
 10
110.7901366910524
 20
-148.9269992032196
 10
110.5448458925027
 20
-149.0262179531948
 10
110.4390814611055
 20
-149.0685926276634
 10
110.4390814611055
 20
-149.0685926276634
 10
110.2444335661889
 20
-148.8866915860422
 10
110.2444335661889
 20
-148.8866915860422
 10
110.4304687223924
 20
-148.8400105422171
 10
110.7925482578921
 20
-148.7469929641153
 10
111.0884819600751
 20
-148.2519327428849
 10
111.2493679192362
 20
-147.9854546071009
 10
111.2621147725317
 20
-147.8119940494185
 10
111.2703830016963
 20
-147.7210435286079
 10
111.2703830016963
 20
-147.7210435286079
 10
110.7649874940101
 20
-147.7210435286079
 10
110.7649874940101
 20
-147.7210435286079
 10
110.6464762093175
 20
-147.7210435286079
 10
110.22548554102
 20
-147.7399915537768
 10
110.073212320572
 20
-147.7504990950068
 10
110.073212320572
 20
-147.7504990950068
 10
110.073212320572
 20
-147.5412095442779
 10
110.073212320572
 20
-147.5412095442779
 10
110.2148057450157
 20
-147.553784142799
 10
110.4921359315783
 20
-147.5580905121556
 10
110.6082356494312
 20
-147.5580905121556
 10
110.6082356494312
 20
-147.5580905121556
 10
110.963769503509
 20
-147.5580905121556
 10
110.963769503509
 20
-147.5580905121556
 10
110.991330267391
 20
-147.5580905121556
 10
111.1518717170037
 20
-147.5560234548645
 10
111.2621147725317
 20
-147.5412095442779
 10
111.3193033575868
 20
-147.5348361176302
 10
111.3361843254645
 20
-147.515715837687
 10
111.3592664652157
 20
-147.4924614431616
 10
111.3592664652157
 20
-147.4924614431616
 10
111.5477131882589
 20
-147.6426676063185
 10
111.5477131882589
 20
-147.6426676063185
 10
111.5328992776723
 20
-147.6722954274916
 10
111.522219481668
 20
-147.6914157074348
 10
111.4863904886215
 20
-147.7611788910111
 97
        0
 97
        1
330
105
 75
     2
 76
     1
 98
        1
 10
0.0
 20
0.0
450
        0
451
        0
460
0.0
461
0.0
452
        0
462
0.0
453
        0
470

  0
SPLINE
  5
107
330
F3
100
AcDbEntity
  8
レイヤー 1
100
AcDbSpline
210
0.0
220
0.0
230
1.0
 70
    11
 71
     3
 72
    17
 73
    13
 74
     0
 42
0.0000000001
 43
0.0000000001
 40
0.0
 40
0.0
 40
0.0
 40
0.0
 40
1.0
 40
1.0
 40
1.0
 40
2.0
 40
2.0
 40
2.0
 40
3.0
 40
3.0
 40
3.0
 40
4.0
 40
4.0
 40
4.0
 40
4.0
 10
111.8767198071002
 20
-147.543276601569
 30
0.0
 10
111.8767198071002
 20
-147.6025322439153
 30
0.0
 10
111.9232285961511
 20
-147.6490410329662
 30
0.0
 10
111.9824842384974
 20
-147.6490410329662
 30
0.0
 10
112.0417398808437
 20
-147.6490410329662
 30
0.0
 10
112.0903157271857
 20
-147.6025322439153
 30
0.0
 10
112.0903157271857
 20
-147.543276601569
 30
0.0
 10
112.0903157271857
 20
-147.4840209592227
 30
0.0
 10
112.0417398808437
 20
-147.4354451128807
 30
0.0
 10
111.9824842384974
 20
-147.4354451128807
 30
0.0
 10
111.9232285961511
 20
-147.4354451128807
 30
0.0
 10
111.8767198071002
 20
-147.4840209592227
 30
0.0
 10
111.8767198071002
 20
-147.543276601569
 30
0.0
  0
SPLINE
  5
108
330
F3
100
AcDbEntity
  8
レイヤー 1
100
AcDbSpline
210
0.0
220
0.0
230
1.0
 70
     9
 71
     3
 72
    17
 73
    13
 74
     0
 42
0.0000000001
 43
0.0000000001
 40
0.0
 40
0.0
 40
0.0
 40
0.0
 40
1.0
 40
1.0
 40
1.0
 40
2.0
 40
2.0
 40
2.0
 40
3.0
 40
3.0
 40
3.0
 40
4.0
 40
4.0
 40
4.0
 40
4.0
 10
112.1916015344521
 20
-147.543276601569
 30
0.0
 10
112.1916015344521
 20
-147.657481516905
 30
0.0
 10
112.0985839563503
 20
-147.7527384070722
 30
0.0
 10
111.9824842384974
 20
-147.7527384070722
 30
0.0
 10
111.8681070683871
 20
-147.7527384070722
 30
0.0
 10
111.7730224329942
 20
-147.657481516905
 30
0.0
 10
111.7730224329942
 20
-147.543276601569
 30
0.0
 10
111.7730224329942
 20
-147.4268323741676
 30
0.0
 10
111.8681070683871
 20
-147.3338147960658
 30
0.0
 10
111.9824842384974
 20
-147.3338147960658
 30
0.0
 10
112.0965168990592
 20
-147.3338147960658
 30
0.0
 10
112.1916015344521
 20
-147.4268323741676
 30
0.0
 10
112.1916015344521
 20
-147.543276601569
 30
0.0
  0
HATCH
  5
109
330
F3
100
AcDbEntity
  8
レイヤー 1
 62
    18
420
        0
440
 33554687
100
AcDbHatch
 10
0.0
 20
0.0
 30
0.0
210
0.0
220
0.0
230
1.0
  2
SOLID
 70
     1
 71
     1
 91
        2
 92
        1
 93
        1
 72
     4
 94
        3
 73
     0
 74
     0
 95
       17
 96
       13
 40
0.0
 40
0.0
 40
0.0
 40
0.0
 40
1.0
 40
1.0
 40
1.0
 40
2.0
 40
2.0
 40
2.0
 40
3.0
 40
3.0
 40
3.0
 40
4.0
 40
4.0
 40
4.0
 40
4.0
 10
111.8767198071002
 20
-147.543276601569
 10
111.8767198071002
 20
-147.6025322439153
 10
111.9232285961511
 20
-147.6490410329662
 10
111.9824842384974
 20
-147.6490410329662
 10
112.0417398808437
 20
-147.6490410329662
 10
112.0903157271857
 20
-147.6025322439153
 10
112.0903157271857
 20
-147.543276601569
 10
112.0903157271857
 20
-147.4840209592227
 10
112.0417398808437
 20
-147.4354451128807
 10
111.9824842384974
 20
-147.4354451128807
 10
111.9232285961511
 20
-147.4354451128807
 10
111.8767198071002
 20
-147.4840209592227
 10
111.8767198071002
 20
-147.543276601569
 97
        0
 97
        1
330
107
 92
        1
 93
        1
 72
     4
 94
        3
 73
     0
 74
     0
 95
       17
 96
       13
 40
0.0
 40
0.0
 40
0.0
 40
0.0
 40
1.0
 40
1.0
 40
1.0
 40
2.0
 40
2.0
 40
2.0
 40
3.0
 40
3.0
 40
3.0
 40
4.0
 40
4.0
 40
4.0
 40
4.0
 10
112.1916015344521
 20
-147.543276601569
 10
112.1916015344521
 20
-147.657481516905
 10
112.0985839563503
 20
-147.7527384070722
 10
111.9824842384974
 20
-147.7527384070722
 10
111.8681070683871
 20
-147.7527384070722
 10
111.7730224329942
 20
-147.657481516905
 10
111.7730224329942
 20
-147.543276601569
 10
111.7730224329942
 20
-147.4268323741676
 10
111.8681070683871
 20
-147.3338147960658
 10
111.9824842384974
 20
-147.3338147960658
 10
112.0965168990592
 20
-147.3338147960658
 10
112.1916015344521
 20
-147.4268323741676
 10
112.1916015344521
 20
-147.543276601569
 97
        0
 97
        1
330
108
 75
     2
 76
     1
 98
        1
 10
0.0
 20
0.0
450
        0
451
        0
460
0.0
461
0.0
452
        0
462
0.0
453
        0
470

  0
ENDBLK
  5
F6
330
F3
100
AcDbEntity
  8
0
100
AcDbBlockEnd
  0
ENDSEC
  0
SECTION
  2
ENTITIES
  0
INSERT
  5
7A
330
70
100
AcDbEntity
  8
レイヤー 1
100
AcDbBlockReference
  2
Block_0
 10
0.0
 20
0.0
 30
0.0
  0
LINE
  5
E6
330
70
100
AcDbEntity
  8
レイヤー 1
  6
AI-Linetype-0
 62
   154
420
    23468
370
    25
100
AcDbLine
 10
102.3660862113811
 20
-151.4197663676851
 30
0.0
 11
112.411940587191
 21
-151.4197663676851
 31
0.0
  0
INSERT
  5
E9
330
70
100
AcDbEntity
  8
レイヤー 1
100
AcDbBlockReference
  2
Block_12
 10
0.0
 20
0.0
 30
0.0
  0
INSERT
  5
F0
330
70
100
AcDbEntity
  8
レイヤー 1
100
AcDbBlockReference
  2
Block_13
 10
0.0
 20
0.0
 30
0.0
  0
ENDSEC
  0
SECTION
  2
OBJECTS
  0
DICTIONARY
  5
C
330
0
100
AcDbDictionary
281
     1
  3
ACAD_COLOR
350
63
  3
ACAD_DETAILVIEWSTYLE
350
6A
  3
ACAD_GROUP
350
D
  3
ACAD_LAYOUT
350
62
  3
ACAD_MATERIAL
350
10
  3
ACAD_MLEADERSTYLE
350
66
  3
ACAD_MLINESTYLE
350
5F
  3
ACAD_PLOTSETTINGS
350
61
  3
ACAD_PLOTSTYLENAME
350
E
  3
ACAD_SCALELIST
350
42
  3
ACAD_SECTIONVIEWSTYLE
350
68
  3
ACAD_TABLESTYLE
350
64
  3
ACAD_VISUALSTYLE
350
29
  3
ACDB_RECOMPOSE_DATA
350
112
  3
AcDbVariableDictionary
350
10A
  0
DICTIONARY
  5
63
102
{ACAD_REACTORS
330
C
102
}
330
C
100
AcDbDictionary
281
     1
  0
DICTIONARY
  5
6A
102
{ACAD_REACTORS
330
C
102
}
330
C
100
AcDbDictionary
281
     1
  3
Imperial24
350
6B
  0
DICTIONARY
  5
D
102
{ACAD_REACTORS
330
C
102
}
330
C
100
AcDbDictionary
281
     1
  0
DICTIONARY
  5
62
102
{ACAD_REACTORS
330
C
102
}
330
C
100
AcDbDictionary
281
     1
  3
Layout1
350
6F
  3
Layout2
350
77
  3
Model
350
73
  0
DICTIONARY
  5
10
102
{ACAD_REACTORS
330
C
102
}
330
C
100
AcDbDictionary
281
     1
  3
ByBlock
350
19
  3
ByLayer
350
11
  3
Global
350
21
  0
DICTIONARY
  5
66
102
{ACAD_REACTORS
330
C
102
}
330
C
100
AcDbDictionary
281
     1
  3
Standard
350
67
  0
DICTIONARY
  5
5F
102
{ACAD_REACTORS
330
C
102
}
330
C
100
AcDbDictionary
281
     1
  3
Standard
350
60
  0
DICTIONARY
  5
61
102
{ACAD_REACTORS
330
C
102
}
330
C
100
AcDbDictionary
281
     1
  0
ACDBDICTIONARYWDFLT
  5
E
102
{ACAD_REACTORS
330
C
102
}
330
C
100
AcDbDictionary
281
     1
  3
Normal
350
F
100
AcDbDictionaryWithDefault
340
F
  0
DICTIONARY
  5
42
102
{ACAD_REACTORS
330
C
102
}
330
C
100
AcDbDictionary
281
     1
  3
A0
350
43
  3
A1
350
44
  3
A2
350
45
  3
A3
350
46
  3
A4
350
47
  3
A5
350
48
  3
A6
350
49
  3
A7
350
4A
  3
A8
350
4B
  3
A9
350
4C
  3
B0
350
4D
  3
B1
350
4E
  3
B2
350
4F
  3
B3
350
50
  3
B4
350
51
  3
B5
350
52
  3
B6
350
53
  0
DICTIONARY
  5
68
102
{ACAD_REACTORS
330
C
102
}
330
C
100
AcDbDictionary
281
     1
  3
Imperial24
350
69
  0
DICTIONARY
  5
64
102
{ACAD_REACTORS
330
C
102
}
330
C
100
AcDbDictionary
281
     1
  3
Standard
350
65
  0
DICTIONARY
  5
29
102
{ACAD_REACTORS
330
C
102
}
330
C
100
AcDbDictionary
281
     1
  3
2dWireframe
350
2F
  3
Basic
350
2E
  3
Brighten
350
35
  3
ColorChange
350
39
  3
Conceptual
350
32
  3
Dim
350
34
  3
EdgeColorOff
350
41
  3
Facepattern
350
38
  3
Flat
350
2A
  3
FlatWithEdges
350
2B
  3
Gouraud
350
2C
  3
GouraudWithEdges
350
2D
  3
Hidden
350
31
  3
JitterOff
350
3F
  3
Linepattern
350
37
  3
OverhangOff
350
40
  3
Realistic
350
33
  3
Shaded
350
3E
  3
Shaded with edges
350
3D
  3
Shades of Gray
350
3A
  3
Sketchy
350
3B
  3
Thicken
350
36
  3
Wireframe
350
30
  3
X-Ray
350
3C
  0
XRECORD
  5
112
102
{ACAD_REACTORS
330
C
102
}
330
C
100
AcDbXrecord
280
     1
 90
        1
330
65
  0
DICTIONARY
  5
10A
102
{ACAD_REACTORS
330
C
102
}
330
C
100
AcDbDictionary
281
     1
  3
CANNOSCALE
350
10F
  3
CMLEADERSTYLE
350
10C
  3
CTABLESTYLE
350
10B
  3
CVIEWDETAILSTYLE
350
10D
  3
CVIEWSECTIONSTYLE
350
10E
  0
ACDBDETAILVIEWSTYLE
  5
6B
102
{ACAD_XDICTIONARY
360
147
102
}
102
{ACAD_REACTORS
330
6A
102
}
330
6A
100
AcDbModelDocViewStyle
 70
     0
  3
Imperial24
290
     0
100
AcDbDetailViewStyle
 70
     0
 71
     0
 90
        3
 71
     1
340
55
 62
   256
 40
0.24
340
0
 62
   256
 40
0.24
300

 40
0.36
280
     3
 71
     2
340
5D
 90
       25
 62
   256
 71
     3
340
55
 62
   256
 40
0.24
 90
        1
 40
0.75
 90
        1
300
%<\AcVar ViewType \f "%tc1">% %<\AcVar ViewDetailId>%\PSCALE %<\AcVar ViewScale \f "%sn">%
 71
     4
340
5D
 90
       25
 62
   256
340
5D
 90
       25
 62
   256
280
     0
  0
LAYOUT
  5
6F
102
{ACAD_REACTORS
330
62
102
}
330
62
100
AcDbPlotSettings
  1

  2

  4

  6

 40
0.0
 41
0.0
 42
0.0
 43
0.0
 44
0.0
 45
0.0
 46
0.0
 47
0.0
 48
0.0
 49
0.0
140
0.0
141
0.0
142
1.0
143
1.0
 70
   688
 72
     0
 73
     0
 74
     5
  7

 75
    16
147
1.0
 76
     0
 77
     2
 78
   300
148
0.0
149
0.0
100
AcDbLayout
  1
Layout1
 70
     1
 71
     1
 10
0.0
 20
0.0
 11
12.0
 21
9.0
 12
0.0
 22
0.0
 32
0.0
 14
0.0
 24
0.0
 34
0.0
 15
0.0
 25
0.0
 35
0.0
146
0.0
 13
0.0
 23
0.0
 33
0.0
 16
1.0
 26
0.0
 36
0.0
 17
0.0
 27
1.0
 37
0.0
 76
     0
330
6C
  0
LAYOUT
  5
77
102
{ACAD_REACTORS
330
62
102
}
330
62
100
AcDbPlotSettings
  1

  2

  4

  6

 40
0.0
 41
0.0
 42
0.0
 43
0.0
 44
0.0
 45
0.0
 46
0.0
 47
0.0
 48
0.0
 49
0.0
140
0.0
141
0.0
142
1.0
143
1.0
 70
   688
 72
     0
 73
     0
 74
     5
  7

 75
    16
147
1.0
 76
     0
 77
     2
 78
   300
148
0.0
149
0.0
100
AcDbLayout
  1
Layout2
 70
     1
 71
     2
 10
0.0
 20
0.0
 11
12.0
 21
9.0
 12
0.0
 22
0.0
 32
0.0
 14
0.0
 24
0.0
 34
0.0
 15
0.0
 25
0.0
 35
0.0
146
0.0
 13
0.0
 23
0.0
 33
0.0
 16
1.0
 26
0.0
 36
0.0
 17
0.0
 27
1.0
 37
0.0
 76
     0
330
74
  0
LAYOUT
  5
73
102
{ACAD_REACTORS
330
62
102
}
330
62
100
AcDbPlotSettings
  1

  2

  4

  6

 40
0.0
 41
0.0
 42
0.0
 43
0.0
 44
0.0
 45
0.0
 46
0.0
 47
0.0
 48
0.0
 49
0.0
140
0.0
141
0.0
142
1.0
143
1.0
 70
  1712
 72
     0
 73
     0
 74
     0
  7

 75
     0
147
1.0
 76
     0
 77
     2
 78
   300
148
0.0
149
0.0
100
AcDbLayout
  1
Model
 70
     1
 71
     0
 10
0.0
 20
0.0
 11
12.0
 21
9.0
 12
0.0
 22
0.0
 32
0.0
 14
0.0
 24
0.0
 34
0.0
 15
0.0
 25
0.0
 35
0.0
146
0.0
 13
0.0
 23
0.0
 33
0.0
 16
1.0
 26
0.0
 36
0.0
 17
0.0
 27
1.0
 37
0.0
 76
     0
330
70
  0
MATERIAL
  5
19
102
{ACAD_XDICTIONARY
360
1A
102
}
102
{ACAD_REACTORS
330
10
102
}
330
10
100
AcDbMaterial
  1
ByBlock
 72
     0
 43
0.0208333333333333
 43
0.0
 43
0.0
 43
0.0
 43
0.0
 43
0.0208333333333333
 43
0.0
 43
0.0
 43
0.0
 43
0.0
 43
1.0
 43
0.0
 43
0.0
 43
0.0
 43
0.0
 43
1.0
 77
     0
 47
0.0208333333333333
 47
0.0
 47
0.0
 47
0.0
 47
0.0
 47
0.0208333333333333
 47
0.0
 47
0.0
 47
0.0
 47
0.0
 47
1.0
 47
0.0
 47
0.0
 47
0.0
 47
0.0
 47
1.0
171
     0
 49
0.0208333333333333
 49
0.0
 49
0.0
 49
0.0
 49
0.0
 49
0.0208333333333333
 49
0.0
 49
0.0
 49
0.0
 49
0.0
 49
1.0
 49
0.0
 49
0.0
 49
0.0
 49
0.0
 49
1.0
175
     0
142
0.0208333333333333
142
0.0
142
0.0
142
0.0
142
0.0
142
0.0208333333333333
142
0.0
142
0.0
142
0.0
142
0.0
142
1.0
142
0.0
142
0.0
142
0.0
142
0.0
142
1.0
179
     0
144
0.0208333333333333
144
0.0
144
0.0
144
0.0
144
0.0
144
0.0208333333333333
144
0.0
144
0.0
144
0.0
144
0.0
144
1.0
144
0.0
144
0.0
144
0.0
144
0.0
144
1.0
147
0.0208333333333333
147
0.0
147
0.0
147
0.0
147
0.0
147
0.0208333333333333
147
0.0
147
0.0
147
0.0
147
0.0
147
1.0
147
0.0
147
0.0
147
0.0
147
0.0
147
1.0
  0
MATERIAL
  5
11
102
{ACAD_XDICTIONARY
360
12
102
}
102
{ACAD_REACTORS
330
10
102
}
330
10
100
AcDbMaterial
  1
ByLayer
 72
     0
 43
0.0208333333333333
 43
0.0
 43
0.0
 43
0.0
 43
0.0
 43
0.0208333333333333
 43
0.0
 43
0.0
 43
0.0
 43
0.0
 43
1.0
 43
0.0
 43
0.0
 43
0.0
 43
0.0
 43
1.0
 77
     0
 47
0.0208333333333333
 47
0.0
 47
0.0
 47
0.0
 47
0.0
 47
0.0208333333333333
 47
0.0
 47
0.0
 47
0.0
 47
0.0
 47
1.0
 47
0.0
 47
0.0
 47
0.0
 47
0.0
 47
1.0
171
     0
 49
0.0208333333333333
 49
0.0
 49
0.0
 49
0.0
 49
0.0
 49
0.0208333333333333
 49
0.0
 49
0.0
 49
0.0
 49
0.0
 49
1.0
 49
0.0
 49
0.0
 49
0.0
 49
0.0
 49
1.0
175
     0
142
0.0208333333333333
142
0.0
142
0.0
142
0.0
142
0.0
142
0.0208333333333333
142
0.0
142
0.0
142
0.0
142
0.0
142
1.0
142
0.0
142
0.0
142
0.0
142
0.0
142
1.0
179
     0
144
0.0208333333333333
144
0.0
144
0.0
144
0.0
144
0.0
144
0.0208333333333333
144
0.0
144
0.0
144
0.0
144
0.0
144
1.0
144
0.0
144
0.0
144
0.0
144
0.0
144
1.0
147
0.0208333333333333
147
0.0
147
0.0
147
0.0
147
0.0
147
0.0208333333333333
147
0.0
147
0.0
147
0.0
147
0.0
147
1.0
147
0.0
147
0.0
147
0.0
147
0.0
147
1.0
  0
MATERIAL
  5
21
102
{ACAD_XDICTIONARY
360
22
102
}
102
{ACAD_REACTORS
330
10
102
}
330
10
100
AcDbMaterial
  1
Global
 72
     0
 43
0.0208333333333333
 43
0.0
 43
0.0
 43
0.0
 43
0.0
 43
0.0208333333333333
 43
0.0
 43
0.0
 43
0.0
 43
0.0
 43
1.0
 43
0.0
 43
0.0
 43
0.0
 43
0.0
 43
1.0
 77
     0
 47
0.0208333333333333
 47
0.0
 47
0.0
 47
0.0
 47
0.0
 47
0.0208333333333333
 47
0.0
 47
0.0
 47
0.0
 47
0.0
 47
1.0
 47
0.0
 47
0.0
 47
0.0
 47
0.0
 47
1.0
171
     0
 49
0.0208333333333333
 49
0.0
 49
0.0
 49
0.0
 49
0.0
 49
0.0208333333333333
 49
0.0
 49
0.0
 49
0.0
 49
0.0
 49
1.0
 49
0.0
 49
0.0
 49
0.0
 49
0.0
 49
1.0
175
     0
142
0.0208333333333333
142
0.0
142
0.0
142
0.0
142
0.0
142
0.0208333333333333
142
0.0
142
0.0
142
0.0
142
0.0
142
1.0
142
0.0
142
0.0
142
0.0
142
0.0
142
1.0
179
     0
144
0.0208333333333333
144
0.0
144
0.0
144
0.0
144
0.0
144
0.0208333333333333
144
0.0
144
0.0
144
0.0
144
0.0
144
1.0
144
0.0
144
0.0
144
0.0
144
0.0
144
1.0
147
0.0208333333333333
147
0.0
147
0.0
147
0.0
147
0.0
147
0.0208333333333333
147
0.0
147
0.0
147
0.0
147
0.0
147
1.0
147
0.0
147
0.0
147
0.0
147
0.0
147
1.0
  0
MLEADERSTYLE
  5
67
102
{ACAD_XDICTIONARY
360
143
102
}
102
{ACAD_REACTORS
330
66
102
}
330
66
100
AcDbMLeaderStyle
179
     2
170
     2
171
     1
172
     0
 90
        2
 40
0.0
 41
0.0
173
     1
 91
-1056964608
340
5B
 92
       -2
290
     1
 42
0.09
291
     1
 43
0.36
  3
Standard
 44
0.18
300

342
55
174
     1
178
     6
175
     1
176
     0
 93
-1056964608
 45
0.18
292
     0
297
     0
 46
0.18
 94
-1056964608
 47
1.0
 49
1.0
140
1.0
293
     1
141
0.0
294
     1
177
     0
142
1.0
295
     0
296
     0
143
0.125
271
     0
272
     9
273
     9
  0
MLINESTYLE
  5
60
102
{ACAD_REACTORS
330
5F
102
}
330
5F
100
AcDbMlineStyle
  2
STANDARD
 70
     0
  3

 62
   256
 51
90.0
 52
90.0
 71
     2
 49
0.5
 62
   256
  6
BYLAYER
 49
-0.5
 62
   256
  6
BYLAYER
  0
ACDBPLACEHOLDER
  5
F
102
{ACAD_REACTORS
330
E
102
}
330
E
  0
SCALE
  5
43
102
{ACAD_REACTORS
330
42
102
}
330
42
100
AcDbScale
 70
     0
300
1:1
140
1.0
141
1.0
290
     1
  0
SCALE
  5
44
102
{ACAD_REACTORS
330
42
102
}
330
42
100
AcDbScale
 70
     0
300
1/128" = 1'-0"
140
0.0078125
141
12.0
290
     0
  0
SCALE
  5
45
102
{ACAD_REACTORS
330
42
102
}
330
42
100
AcDbScale
 70
     0
300
1/64" = 1'-0"
140
0.015625
141
12.0
290
     0
  0
SCALE
  5
46
102
{ACAD_REACTORS
330
42
102
}
330
42
100
AcDbScale
 70
     0
300
1/32" = 1'-0"
140
0.03125
141
12.0
290
     0
  0
SCALE
  5
47
102
{ACAD_REACTORS
330
42
102
}
330
42
100
AcDbScale
 70
     0
300
1/16" = 1'-0"
140
0.0625
141
12.0
290
     0
  0
SCALE
  5
48
102
{ACAD_REACTORS
330
42
102
}
330
42
100
AcDbScale
 70
     0
300
3/32" = 1'-0"
140
0.09375
141
12.0
290
     0
  0
SCALE
  5
49
102
{ACAD_REACTORS
330
42
102
}
330
42
100
AcDbScale
 70
     0
300
1/8" = 1'-0"
140
0.125
141
12.0
290
     0
  0
SCALE
  5
4A
102
{ACAD_REACTORS
330
42
102
}
330
42
100
AcDbScale
 70
     0
300
3/16" = 1'-0"
140
0.1875
141
12.0
290
     0
  0
SCALE
  5
4B
102
{ACAD_REACTORS
330
42
102
}
330
42
100
AcDbScale
 70
     0
300
1/4" = 1'-0"
140
0.25
141
12.0
290
     0
  0
SCALE
  5
4C
102
{ACAD_REACTORS
330
42
102
}
330
42
100
AcDbScale
 70
     0
300
3/8" = 1'-0"
140
0.375
141
12.0
290
     0
  0
SCALE
  5
4D
102
{ACAD_REACTORS
330
42
102
}
330
42
100
AcDbScale
 70
     0
300
1/2" = 1'-0"
140
0.5
141
12.0
290
     0
  0
SCALE
  5
4E
102
{ACAD_REACTORS
330
42
102
}
330
42
100
AcDbScale
 70
     0
300
3/4" = 1'-0"
140
0.75
141
12.0
290
     0
  0
SCALE
  5
4F
102
{ACAD_REACTORS
330
42
102
}
330
42
100
AcDbScale
 70
     0
300
1" = 1'-0"
140
1.0
141
12.0
290
     0
  0
SCALE
  5
50
102
{ACAD_REACTORS
330
42
102
}
330
42
100
AcDbScale
 70
     0
300
1-1/2" = 1'-0"
140
1.5
141
12.0
290
     0
  0
SCALE
  5
51
102
{ACAD_REACTORS
330
42
102
}
330
42
100
AcDbScale
 70
     0
300
3" = 1'-0"
140
3.0
141
12.0
290
     0
  0
SCALE
  5
52
102
{ACAD_REACTORS
330
42
102
}
330
42
100
AcDbScale
 70
     0
300
6" = 1'-0"
140
6.0
141
12.0
290
     0
  0
SCALE
  5
53
102
{ACAD_REACTORS
330
42
102
}
330
42
100
AcDbScale
 70
     0
300
1'-0" = 1'-0"
140
12.0
141
12.0
290
     0
  0
ACDBSECTIONVIEWSTYLE
  5
69
102
{ACAD_XDICTIONARY
360
145
102
}
102
{ACAD_REACTORS
330
68
102
}
330
68
100
AcDbModelDocViewStyle
 70
     0
  3
Imperial24
290
     0
100
AcDbSectionViewStyle
 70
     0
 71
     0
 90
       78
 71
     1
340
55
 62
   256
 40
0.24
340
0
340
0
 62
   256
 40
0.24
300
I, O, Q, S, X, Z
 40
0.48
 90
        3
 40
0.18
 90
        1
 71
     2
340
5D
 90
       25
 62
   256
340
5D
 90
       50
 62
   256
 40
0.24
 40
0.0
 40
0.24
 71
     3
340
55
 62
   256
 40
0.24
 90
        1
 40
0.75
 90
        1
300
%<\AcVar ViewType \f "%tc1">% %<\AcVar ViewSectionStartId>%-%<\AcVar ViewSectionEndId>%\PSCALE %<\AcVar ViewScale \f "%sn">%
 71
     4
 62
   256
 62
   257
300
ANSI31
 40
1.0
 90
        0
290
     0
290
     0
 90
        6
 40
0.0
 40
1.570796326794896
 40
0.2617993877991494
 40
1.308996938995747
 40
-0.2617993877991494
 40
1.832595714594046
  0
TABLESTYLE
  5
65
102
{ACAD_XDICTIONARY
360
110
102
}
102
{ACAD_REACTORS
330
64
102
}
330
64
100
AcDbTableStyle
280
     0
  3
Standard
 70
     0
 71
     0
 40
0.06
 41
0.06
280
     0
281
     0
  7
Standard
140
0.18
170
     2
 62
     0
 63
     7
283
     0
 90
      512
 91
        0
  1

274
    -2
284
     1
 64
     0
275
    -2
285
     1
 65
     0
276
    -2
286
     1
 66
     0
277
    -2
287
     1
 67
     0
278
    -2
288
     1
 68
     0
279
    -2
289
     1
 69
     0
  7
Standard
140
0.25
170
     5
 62
     0
 63
     7
283
     0
 90
      512
 91
        0
  1

274
    -2
284
     1
 64
     0
275
    -2
285
     1
 65
     0
276
    -2
286
     1
 66
     0
277
    -2
287
     1
 67
     0
278
    -2
288
     1
 68
     0
279
    -2
289
     1
 69
     0
  7
Standard
140
0.18
170
     5
 62
     0
 63
     7
283
     0
 90
      512
 91
        0
  1

274
    -2
284
     1
 64
     0
275
    -2
285
     1
 65
     0
276
    -2
286
     1
 66
     0
277
    -2
287
     1
 67
     0
278
    -2
288
     1
 68
     0
279
    -2
289
     1
 69
     0
  0
VISUALSTYLE
  5
2F
102
{ACAD_XDICTIONARY
360
11D
102
}
102
{ACAD_REACTORS
330
29
102
}
330
29
100
AcDbVisualStyle
  2
2dWireframe
 70
     4
177
     2
291
     0
 71
     0
176
     1
 72
     2
176
     1
 73
     0
176
     1
 90
        0
176
     1
 40
0.6
176
     1
 41
30.0
176
     1
 63
     7
421
 16777215
176
     1
 74
     1
176
     1
 91
        4
176
     1
 64
     7
176
     1
 65
   257
176
     1
 75
     1
176
     1
175
     1
176
     1
 42
1.0
176
     1
 92
        0
176
     1
 66
   257
176
     1
 43
1.0
176
     1
 76
     1
176
     1
 77
     6
176
     1
 78
     2
176
     1
 67
     7
176
     1
 79
     5
176
     1
170
     0
176
     1
171
     0
176
     1
290
     0
176
     1
 93
        1
176
     1
 44
0.0
176
     1
173
     0
176
     1
1001
ACAD
1000
AcDbSavedByObjectVersion
1070
     0
  0
VISUALSTYLE
  5
2E
102
{ACAD_XDICTIONARY
360
11B
102
}
102
{ACAD_REACTORS
330
29
102
}
330
29
100
AcDbVisualStyle
  2
Basic
 70
     7
177
     2
291
     1
 71
     1
176
     1
 72
     0
176
     1
 73
     1
176
     1
 90
        0
176
     1
 40
0.6
176
     1
 41
30.0
176
     1
 63
     7
421
 16777215
176
     1
 74
     0
176
     1
 91
        4
176
     1
 64
     7
176
     1
 65
   257
176
     1
 75
     1
176
     1
175
     1
176
     1
 42
1.0
176
     1
 92
        8
176
     1
 66
     7
176
     1
 43
1.0
176
     1
 76
     1
176
     1
 77
     6
176
     1
 78
     2
176
     1
 67
     7
176
     1
 79
     5
176
     1
170
     0
176
     1
171
     0
176
     1
290
     0
176
     1
 93
        1
176
     1
 44
0.0
176
     1
173
     0
176
     1
1001
ACAD
1000
AcDbSavedByObjectVersion
1070
     0
  0
VISUALSTYLE
  5
35
102
{ACAD_XDICTIONARY
360
129
102
}
102
{ACAD_REACTORS
330
29
102
}
330
29
100
AcDbVisualStyle
  2
Brighten
 70
    12
177
     2
291
     1
 71
     2
176
     1
 72
     2
176
     1
 73
     0
176
     1
 90
        0
176
     1
 40
0.6
176
     1
 41
30.0
176
     1
 63
     7
421
 16777215
176
     1
 74
     1
176
     1
 91
        4
176
     1
 64
     7
176
     1
 65
   257
176
     1
 75
     1
176
     1
175
     1
176
     1
 42
1.0
176
     1
 92
        8
176
     1
 66
     7
176
     1
 43
1.0
176
     1
 76
     1
176
     1
 77
     6
176
     1
 78
     2
176
     1
 67
     7
176
     1
 79
     5
176
     1
170
     0
176
     1
171
     0
176
     1
290
     0
176
     1
 93
        1
176
     1
 44
50.0
176
     1
173
     0
176
     1
1001
ACAD
1000
AcDbSavedByObjectVersion
1070
     0
  0
VISUALSTYLE
  5
39
102
{ACAD_XDICTIONARY
360
131
102
}
102
{ACAD_REACTORS
330
29
102
}
330
29
100
AcDbVisualStyle
  2
ColorChange
 70
    16
177
     2
291
     1
 71
     2
176
     1
 72
     2
176
     1
 73
     3
176
     1
 90
        0
176
     1
 40
0.6
176
     1
 41
30.0
176
     1
 63
     8
421
  8421504
176
     1
 74
     1
176
     1
 91
        4
176
     1
 64
     7
176
     1
 65
   257
176
     1
 75
     1
176
     1
175
     1
176
     1
 42
1.0
176
     1
 92
        8
176
     1
 66
     8
424
  8421504
176
     1
 43
1.0
176
     1
 76
     1
176
     1
 77
     6
176
     1
 78
     2
176
     1
 67
     7
176
     1
 79
     5
176
     1
170
     0
176
     1
171
     0
176
     1
290
     0
176
     1
 93
        1
176
     1
 44
0.0
176
     1
173
     0
176
     1
1001
ACAD
1000
AcDbSavedByObjectVersion
1070
     0
  0
VISUALSTYLE
  5
32
102
{ACAD_XDICTIONARY
360
123
102
}
102
{ACAD_REACTORS
330
29
102
}
330
29
100
AcDbVisualStyle
  2
Conceptual
 70
     9
177
     2
291
     0
 71
     3
176
     1
 72
     2
176
     1
 73
     0
176
     1
 90
        0
176
     1
 40
0.6
176
     1
 41
30.0
176
     1
 63
     7
421
 16777215
176
     1
 74
     2
176
     1
 91
        2
176
     1
 64
     7
176
     1
 65
   257
176
     1
 75
     1
176
     1
175
     1
176
     1
 42
179.0
176
     1
 92
        8
176
     1
 66
     7
176
     1
 43
1.0
176
     1
 76
     1
176
     1
 77
     6
176
     1
 78
     2
176
     1
 67
     7
176
     1
 79
     3
176
     1
170
     0
176
     1
171
     0
176
     1
290
     0
176
     1
 93
        1
176
     1
 44
0.0
176
     1
173
     0
176
     1
1001
ACAD
1000
AcDbSavedByObjectVersion
1070
     0
  0
VISUALSTYLE
  5
34
102
{ACAD_XDICTIONARY
360
127
102
}
102
{ACAD_REACTORS
330
29
102
}
330
29
100
AcDbVisualStyle
  2
Dim
 70
    11
177
     2
291
     1
 71
     2
176
     1
 72
     2
176
     1
 73
     0
176
     1
 90
        0
176
     1
 40
0.6
176
     1
 41
30.0
176
     1
 63
     7
421
 16777215
176
     1
 74
     1
176
     1
 91
        4
176
     1
 64
     7
176
     1
 65
   257
176
     1
 75
     1
176
     1
175
     1
176
     1
 42
1.0
176
     1
 92
        8
176
     1
 66
     7
176
     1
 43
1.0
176
     1
 76
     1
176
     1
 77
     6
176
     1
 78
     2
176
     1
 67
     7
176
     1
 79
     5
176
     1
170
     0
176
     1
171
     0
176
     1
290
     0
176
     1
 93
        1
176
     1
 44
-50.0
176
     1
173
     0
176
     1
1001
ACAD
1000
AcDbSavedByObjectVersion
1070
     0
  0
VISUALSTYLE
  5
41
102
{ACAD_XDICTIONARY
360
141
102
}
102
{ACAD_REACTORS
330
29
102
}
330
29
100
AcDbVisualStyle
  2
EdgeColorOff
 70
    22
177
     2
291
     1
 71
     2
176
     0
 72
     2
176
     0
 73
     0
176
     0
 90
        0
176
     0
 40
0.6
176
     0
 41
30.0
176
     0
 63
     7
421
 16777215
176
     0
 74
     1
176
     0
 91
        4
176
     0
 64
     7
176
     0
 65
   257
176
     0
 75
     1
176
     0
175
     1
176
     0
 42
1.0
176
     0
 92
        8
176
     2
 66
     7
176
     0
 43
1.0
176
     0
 76
     1
176
     0
 77
     6
176
     0
 78
     2
176
     0
 67
     7
176
     0
 79
     5
176
     0
170
     0
176
     0
171
     0
176
     0
290
     0
176
     0
 93
        1
176
     0
 44
0.0
176
     0
173
     0
176
     0
1001
ACAD
1000
AcDbSavedByObjectVersion
1070
     0
  0
VISUALSTYLE
  5
38
102
{ACAD_XDICTIONARY
360
12F
102
}
102
{ACAD_REACTORS
330
29
102
}
330
29
100
AcDbVisualStyle
  2
Facepattern
 70
    15
177
     2
291
     1
 71
     2
176
     1
 72
     2
176
     1
 73
     0
176
     1
 90
        0
176
     1
 40
0.6
176
     1
 41
30.0
176
     1
 63
     7
421
 16777215
176
     1
 74
     1
176
     1
 91
        4
176
     1
 64
     7
176
     1
 65
   257
176
     1
 75
     1
176
     1
175
     1
176
     1
 42
1.0
176
     1
 92
        8
176
     1
 66
     7
176
     1
 43
1.0
176
     1
 76
     1
176
     1
 77
     6
176
     1
 78
     2
176
     1
 67
     7
176
     1
 79
     5
176
     1
170
     0
176
     1
171
     0
176
     1
290
     0
176
     1
 93
        1
176
     1
 44
0.0
176
     1
173
     0
176
     1
1001
ACAD
1000
AcDbSavedByObjectVersion
1070
     0
  0
VISUALSTYLE
  5
2A
102
{ACAD_XDICTIONARY
360
113
102
}
102
{ACAD_REACTORS
330
29
102
}
330
29
100
AcDbVisualStyle
  2
Flat
 70
     0
177
     2
291
     1
 71
     2
176
     1
 72
     1
176
     1
 73
     1
176
     1
 90
        2
176
     1
 40
0.6
176
     1
 41
30.0
176
     1
 63
     7
421
 16777215
176
     1
 74
     0
176
     1
 91
        0
176
     1
 64
     7
176
     1
 65
   257
176
     1
 75
     1
176
     1
175
     1
176
     1
 42
1.0
176
     1
 92
        8
176
     1
 66
     7
176
     1
 43
1.0
176
     1
 76
     1
176
     1
 77
     6
176
     1
 78
     2
176
     1
 67
     7
176
     1
 79
     5
176
     1
170
     0
176
     1
171
     0
176
     1
290
     0
176
     1
 93
       13
176
     1
 44
0.0
176
     1
173
     0
176
     1
1001
ACAD
1000
AcDbSavedByObjectVersion
1070
     0
  0
VISUALSTYLE
  5
2B
102
{ACAD_XDICTIONARY
360
115
102
}
102
{ACAD_REACTORS
330
29
102
}
330
29
100
AcDbVisualStyle
  2
FlatWithEdges
 70
     1
177
     2
291
     1
 71
     2
176
     1
 72
     1
176
     1
 73
     1
176
     1
 90
        2
176
     1
 40
0.6
176
     1
 41
30.0
176
     1
 63
     7
421
 16777215
176
     1
 74
     1
176
     1
 91
        0
176
     1
 64
     7
176
     1
 65
   257
176
     1
 75
     1
176
     1
175
     1
176
     1
 42
1.0
176
     1
 92
        0
176
     1
 66
   257
176
     1
 43
1.0
176
     1
 76
     1
176
     1
 77
     6
176
     1
 78
     2
176
     1
 67
     7
176
     1
 79
     5
176
     1
170
     0
176
     1
171
     0
176
     1
290
     0
176
     1
 93
       13
176
     1
 44
0.0
176
     1
173
     0
176
     1
1001
ACAD
1000
AcDbSavedByObjectVersion
1070
     0
  0
VISUALSTYLE
  5
2C
102
{ACAD_XDICTIONARY
360
117
102
}
102
{ACAD_REACTORS
330
29
102
}
330
29
100
AcDbVisualStyle
  2
Gouraud
 70
     2
177
     2
291
     1
 71
     2
176
     1
 72
     2
176
     1
 73
     1
176
     1
 90
        2
176
     1
 40
0.6
176
     1
 41
30.0
176
     1
 63
     7
421
 16777215
176
     1
 74
     0
176
     1
 91
        0
176
     1
 64
     7
176
     1
 65
   257
176
     1
 75
     1
176
     1
175
     1
176
     1
 42
1.0
176
     1
 92
        0
176
     1
 66
     7
176
     1
 43
1.0
176
     1
 76
     1
176
     1
 77
     6
176
     1
 78
     2
176
     1
 67
     7
176
     1
 79
     5
176
     1
170
     0
176
     1
171
     0
176
     1
290
     0
176
     1
 93
       13
176
     1
 44
0.0
176
     1
173
     0
176
     1
1001
ACAD
1000
AcDbSavedByObjectVersion
1070
     0
  0
VISUALSTYLE
  5
2D
102
{ACAD_XDICTIONARY
360
119
102
}
102
{ACAD_REACTORS
330
29
102
}
330
29
100
AcDbVisualStyle
  2
GouraudWithEdges
 70
     3
177
     2
291
     1
 71
     2
176
     1
 72
     2
176
     1
 73
     1
176
     1
 90
        2
176
     1
 40
0.6
176
     1
 41
30.0
176
     1
 63
     7
421
 16777215
176
     1
 74
     1
176
     1
 91
        0
176
     1
 64
     7
176
     1
 65
   257
176
     1
 75
     1
176
     1
175
     1
176
     1
 42
1.0
176
     1
 92
        0
176
     1
 66
   257
176
     1
 43
1.0
176
     1
 76
     1
176
     1
 77
     6
176
     1
 78
     2
176
     1
 67
     7
176
     1
 79
     5
176
     1
170
     0
176
     1
171
     0
176
     1
290
     0
176
     1
 93
       13
176
     1
 44
0.0
176
     1
173
     0
176
     1
1001
ACAD
1000
AcDbSavedByObjectVersion
1070
     0
  0
VISUALSTYLE
  5
31
102
{ACAD_XDICTIONARY
360
121
102
}
102
{ACAD_REACTORS
330
29
102
}
330
29
100
AcDbVisualStyle
  2
Hidden
 70
     6
177
     2
291
     0
 71
     1
176
     1
 72
     2
176
     1
 73
     2
176
     1
 90
        0
176
     1
 40
0.6
176
     1
 41
30.0
176
     1
 63
     7
421
 16777215
176
     1
 74
     2
176
     1
 91
        2
176
     1
 64
     7
176
     1
 65
   257
176
     1
 75
     2
176
     1
175
     1
176
     1
 42
40.0
176
     1
 92
        0
176
     1
 66
   257
176
     1
 43
1.0
176
     1
 76
     1
176
     1
 77
     6
176
     1
 78
     2
176
     1
 67
     7
176
     1
 79
     3
176
     1
170
     0
176
     1
171
     0
176
     1
290
     0
176
     1
 93
        1
176
     1
 44
0.0
176
     1
173
     0
176
     1
1001
ACAD
1000
AcDbSavedByObjectVersion
1070
     0
  0
VISUALSTYLE
  5
3F
102
{ACAD_XDICTIONARY
360
13D
102
}
102
{ACAD_REACTORS
330
29
102
}
330
29
100
AcDbVisualStyle
  2
JitterOff
 70
    20
177
     2
291
     1
 71
     2
176
     0
 72
     2
176
     0
 73
     0
176
     0
 90
        0
176
     0
 40
0.6
176
     0
 41
30.0
176
     0
 63
     7
421
 16777215
176
     0
 74
     1
176
     0
 91
        4
176
     0
 64
     7
176
     0
 65
   257
176
     0
 75
     1
176
     0
175
     1
176
     0
 42
1.0
176
     0
 92
       10
176
     2
 66
     7
176
     0
 43
1.0
176
     0
 76
     1
176
     0
 77
     6
176
     0
 78
     2
176
     0
 67
     7
176
     0
 79
     5
176
     0
170
     0
176
     0
171
     0
176
     0
290
     0
176
     0
 93
        1
176
     0
 44
0.0
176
     0
173
     0
176
     0
1001
ACAD
1000
AcDbSavedByObjectVersion
1070
     0
  0
VISUALSTYLE
  5
37
102
{ACAD_XDICTIONARY
360
12D
102
}
102
{ACAD_REACTORS
330
29
102
}
330
29
100
AcDbVisualStyle
  2
Linepattern
 70
    14
177
     2
291
     1
 71
     2
176
     1
 72
     2
176
     1
 73
     0
176
     1
 90
        0
176
     1
 40
0.6
176
     1
 41
30.0
176
     1
 63
     7
421
 16777215
176
     1
 74
     1
176
     1
 91
        4
176
     1
 64
     7
176
     1
 65
   257
176
     1
 75
     7
176
     1
175
     7
176
     1
 42
1.0
176
     1
 92
        8
176
     1
 66
     7
176
     1
 43
1.0
176
     1
 76
     1
176
     1
 77
     6
176
     1
 78
     2
176
     1
 67
     7
176
     1
 79
     5
176
     1
170
     0
176
     1
171
     0
176
     1
290
     0
176
     1
 93
        1
176
     1
 44
0.0
176
     1
173
     0
176
     1
1001
ACAD
1000
AcDbSavedByObjectVersion
1070
     0
  0
VISUALSTYLE
  5
40
102
{ACAD_XDICTIONARY
360
13F
102
}
102
{ACAD_REACTORS
330
29
102
}
330
29
100
AcDbVisualStyle
  2
OverhangOff
 70
    21
177
     2
291
     1
 71
     2
176
     0
 72
     2
176
     0
 73
     0
176
     0
 90
        0
176
     0
 40
0.6
176
     0
 41
30.0
176
     0
 63
     7
421
 16777215
176
     0
 74
     1
176
     0
 91
        4
176
     0
 64
     7
176
     0
 65
   257
176
     0
 75
     1
176
     0
175
     1
176
     0
 42
1.0
176
     0
 92
        9
176
     2
 66
     7
176
     0
 43
1.0
176
     0
 76
     1
176
     0
 77
     6
176
     0
 78
     2
176
     0
 67
     7
176
     0
 79
     5
176
     0
170
     0
176
     0
171
     0
176
     0
290
     0
176
     0
 93
        1
176
     0
 44
0.0
176
     0
173
     0
176
     0
1001
ACAD
1000
AcDbSavedByObjectVersion
1070
     0
  0
VISUALSTYLE
  5
33
102
{ACAD_XDICTIONARY
360
125
102
}
102
{ACAD_REACTORS
330
29
102
}
330
29
100
AcDbVisualStyle
  2
Realistic
 70
     8
177
     2
291
     0
 71
     2
176
     1
 72
     3
176
     1
 73
     0
176
     1
 90
        2
176
     1
 40
0.6
176
     1
 41
30.0
176
     1
 63
     7
421
 16777215
176
     1
 74
     0
176
     1
 91
        0
176
     1
 64
     7
176
     1
 65
   257
176
     1
 75
     1
176
     1
175
     1
176
     1
 42
1.0
176
     1
 92
        8
176
     1
 66
   257
176
     1
 43
1.0
176
     1
 76
     1
176
     1
 77
     6
176
     1
 78
     2
176
     1
 67
     7
176
     1
 79
     3
176
     1
170
     0
176
     1
171
     0
176
     1
290
     0
176
     1
 93
       13
176
     1
 44
0.0
176
     1
173
     0
176
     1
1001
ACAD
1000
AcDbSavedByObjectVersion
1070
     0
  0
VISUALSTYLE
  5
3E
102
{ACAD_XDICTIONARY
360
13B
102
}
102
{ACAD_REACTORS
330
29
102
}
330
29
100
AcDbVisualStyle
  2
Shaded
 70
    27
177
     2
291
     0
 71
     2
176
     1
 72
     2
176
     1
 73
     1
176
     1
 90
        2
176
     1
 40
0.6
176
     1
 41
30.0
176
     1
 63
     7
421
 16777215
176
     1
 74
     0
176
     1
 91
        4
176
     1
 64
     7
176
     1
 65
   257
176
     1
 75
     1
176
     1
175
     1
176
     1
 42
1.0
176
     1
 92
        8
176
     1
 66
   257
176
     1
 43
1.0
176
     1
 76
     1
176
     1
 77
     6
176
     1
 78
     2
176
     1
 67
     8
425
  7895160
176
     1
 79
     3
176
     1
170
     0
176
     1
171
     0
176
     1
290
     0
176
     1
 93
        5
176
     1
 44
0.0
176
     1
173
     0
176
     1
1001
ACAD
1000
AcDbSavedByObjectVersion
1070
     0
  0
VISUALSTYLE
  5
3D
102
{ACAD_XDICTIONARY
360
139
102
}
102
{ACAD_REACTORS
330
29
102
}
330
29
100
AcDbVisualStyle
  2
Shaded with edges
 70
    26
177
     2
291
     0
 71
     2
176
     1
 72
     2
176
     1
 73
     1
176
     1
 90
        2
176
     1
 40
0.6
176
     1
 41
30.0
176
     1
 63
     7
421
 16777215
176
     1
 74
     1
176
     1
 91
        2
176
     1
 64
     7
176
     1
 65
   257
176
     1
 75
     2
176
     1
175
     1
176
     1
 42
1.0
176
     1
 92
        8
176
     1
 66
   257
176
     1
 43
1.0
176
     1
 76
     1
176
     1
 77
     6
176
     1
 78
     2
176
     1
 67
     7
176
     1
 79
     3
176
     1
170
     0
176
     1
171
     0
176
     1
290
     0
176
     1
 93
        5
176
     1
 44
0.0
176
     1
173
     0
176
     1
1001
ACAD
1000
AcDbSavedByObjectVersion
1070
     0
  0
VISUALSTYLE
  5
3A
102
{ACAD_XDICTIONARY
360
133
102
}
102
{ACAD_REACTORS
330
29
102
}
330
29
100
AcDbVisualStyle
  2
Shades of Gray
 70
    23
177
     2
291
     0
 71
     2
176
     1
 72
     2
176
     1
 73
     3
176
     1
 90
        0
176
     1
 40
0.6
176
     1
 41
30.0
176
     1
 63
     7
421
 16777215
176
     1
 74
     2
176
     1
 91
        2
176
     1
 64
     7
176
     1
 65
     7
176
     1
 75
     1
176
     1
175
     1
176
     1
 42
40.0
176
     1
 92
        8
176
     1
 66
     7
176
     1
 43
1.0
176
     1
 76
     1
176
     1
 77
     6
176
     1
 78
     2
176
     1
 67
     7
176
     1
 79
     3
176
     1
170
     0
176
     1
171
     0
176
     1
290
     0
176
     1
 93
        1
176
     1
 44
0.0
176
     1
173
     0
176
     1
1001
ACAD
1000
AcDbSavedByObjectVersion
1070
     0
  0
VISUALSTYLE
  5
3B
102
{ACAD_XDICTIONARY
360
135
102
}
102
{ACAD_REACTORS
330
29
102
}
330
29
100
AcDbVisualStyle
  2
Sketchy
 70
    24
177
     2
291
     0
 71
     1
176
     1
 72
     2
176
     1
 73
     2
176
     1
 90
        0
176
     1
 40
0.6
176
     1
 41
30.0
176
     1
 63
     7
421
 16777215
176
     1
 74
     2
176
     1
 91
        2
176
     1
 64
     7
176
     1
 65
     7
176
     1
 75
     1
176
     1
175
     1
176
     1
 42
40.0
176
     1
 92
       11
176
     1
 66
     7
176
     1
 43
1.0
176
     1
 76
     1
176
     1
 77
     6
176
     1
 78
     2
176
     1
 67
     7
176
     1
 79
     6
176
     1
170
     0
176
     1
171
     0
176
     1
290
     0
176
     1
 93
        1
176
     1
 44
0.0
176
     1
173
     0
176
     1
1001
ACAD
1000
AcDbSavedByObjectVersion
1070
     0
  0
VISUALSTYLE
  5
36
102
{ACAD_XDICTIONARY
360
12B
102
}
102
{ACAD_REACTORS
330
29
102
}
330
29
100
AcDbVisualStyle
  2
Thicken
 70
    13
177
     2
291
     1
 71
     2
176
     1
 72
     2
176
     1
 73
     0
176
     1
 90
        0
176
     1
 40
0.6
176
     1
 41
30.0
176
     1
 63
     7
421
 16777215
176
     1
 74
     1
176
     1
 91
        4
176
     1
 64
     7
176
     1
 65
   257
176
     1
 75
     1
176
     1
175
     1
176
     1
 42
1.0
176
     1
 92
       12
176
     1
 66
     7
176
     1
 43
1.0
176
     1
 76
     1
176
     1
 77
     6
176
     1
 78
     2
176
     1
 67
     7
176
     1
 79
     5
176
     1
170
     0
176
     1
171
     0
176
     1
290
     0
176
     1
 93
        1
176
     1
 44
0.0
176
     1
173
     0
176
     1
1001
ACAD
1000
AcDbSavedByObjectVersion
1070
     0
  0
VISUALSTYLE
  5
30
102
{ACAD_XDICTIONARY
360
11F
102
}
102
{ACAD_REACTORS
330
29
102
}
330
29
100
AcDbVisualStyle
  2
Wireframe
 70
     5
177
     2
291
     0
 71
     0
176
     1
 72
     2
176
     1
 73
     0
176
     1
 90
        0
176
     1
 40
0.6
176
     1
 41
30.0
176
     1
 63
     7
421
 16777215
176
     1
 74
     1
176
     1
 91
        4
176
     1
 64
     7
176
     1
 65
   257
176
     1
 75
     1
176
     1
175
     1
176
     1
 42
1.0
176
     1
 92
        0
176
     1
 66
   257
176
     1
 43
1.0
176
     1
 76
     1
176
     1
 77
     6
176
     1
 78
     2
176
     1
 67
     7
176
     1
 79
     3
176
     1
170
     0
176
     1
171
     0
176
     1
290
     0
176
     1
 93
        1
176
     1
 44
0.0
176
     1
173
     0
176
     1
1001
ACAD
1000
AcDbSavedByObjectVersion
1070
     0
  0
VISUALSTYLE
  5
3C
102
{ACAD_XDICTIONARY
360
137
102
}
102
{ACAD_REACTORS
330
29
102
}
330
29
100
AcDbVisualStyle
  2
X-Ray
 70
    25
177
     2
291
     0
 71
     2
176
     1
 72
     2
176
     1
 73
     1
176
     1
 90
        1
176
     1
 40
0.5
176
     1
 41
30.0
176
     1
 63
     7
421
 16777215
176
     1
 74
     1
176
     1
 91
        0
176
     1
 64
     7
176
     1
 65
   257
176
     1
 75
     1
176
     1
175
     1
176
     1
 42
1.0
176
     1
 92
        8
176
     1
 66
     7
176
     1
 43
1.0
176
     1
 76
     1
176
     1
 77
     6
176
     1
 78
     2
176
     1
 67
     7
176
     1
 79
     3
176
     1
170
     0
176
     1
171
     0
176
     1
290
     0
176
     1
 93
       13
176
     1
 44
0.0
176
     1
173
     0
176
     1
1001
ACAD
1000
AcDbSavedByObjectVersion
1070
     0
  0
DICTIONARYVAR
  5
10F
102
{ACAD_REACTORS
330
10A
102
}
330
10A
100
DictionaryVariables
280
     0
  1
1:1
  0
DICTIONARYVAR
  5
10C
102
{ACAD_REACTORS
330
10A
102
}
330
10A
100
DictionaryVariables
280
     0
  1
STANDARD
  0
DICTIONARYVAR
  5
10B
102
{ACAD_REACTORS
330
10A
102
}
330
10A
100
DictionaryVariables
280
     0
  1
STANDARD
  0
DICTIONARYVAR
  5
10D
102
{ACAD_REACTORS
330
10A
102
}
330
10A
100
DictionaryVariables
280
     0
  1
Imperial24
  0
DICTIONARYVAR
  5
10E
102
{ACAD_REACTORS
330
10A
102
}
330
10A
100
DictionaryVariables
280
     0
  1
Imperial24
  0
DICTIONARY
  5
147
330
6B
100
AcDbDictionary
280
     1
281
     1
  3
ACAD_XREC_ROUNDTRIP
360
148
  0
DICTIONARY
  5
1A
330
19
100
AcDbDictionary
280
     1
281
     1
  3
BUMPTILE
360
1C
  3
DIFFUSETILE
360
1B
  3
OPACITYTILE
360
1F
  3
REFLECTIONTILE
360
1E
  3
REFRACTIONTILE
360
20
  3
SPECULARTILE
360
1D
  0
DICTIONARY
  5
12
330
11
100
AcDbDictionary
280
     1
281
     1
  3
BUMPTILE
360
14
  3
DIFFUSETILE
360
13
  3
OPACITYTILE
360
17
  3
REFLECTIONTILE
360
16
  3
REFRACTIONTILE
360
18
  3
SPECULARTILE
360
15
  0
DICTIONARY
  5
22
330
21
100
AcDbDictionary
280
     1
281
     1
  3
BUMPTILE
360
24
  3
DIFFUSETILE
360
23
  3
OPACITYTILE
360
27
  3
REFLECTIONTILE
360
26
  3
REFRACTIONTILE
360
28
  3
SPECULARTILE
360
25
  0
DICTIONARY
  5
143
330
67
100
AcDbDictionary
280
     1
281
     1
  3
ACAD_XREC_ROUNDTRIP
360
144
  0
DICTIONARY
  5
145
330
69
100
AcDbDictionary
280
     1
281
     1
  3
ACAD_XREC_ROUNDTRIP
360
146
  0
DICTIONARY
  5
110
330
65
100
AcDbDictionary
280
     1
281
     1
  3
ACAD_ROUNDTRIP_2008_TABLESTYLE_CELLSTYLEMAP
360
111
  0
DICTIONARY
  5
11D
330
2F
100
AcDbDictionary
280
     1
281
     1
  3
ACAD_XREC_ROUNDTRIP
360
11E
  0
DICTIONARY
  5
11B
330
2E
100
AcDbDictionary
280
     1
281
     1
  3
ACAD_XREC_ROUNDTRIP
360
11C
  0
DICTIONARY
  5
129
330
35
100
AcDbDictionary
280
     1
281
     1
  3
ACAD_XREC_ROUNDTRIP
360
12A
  0
DICTIONARY
  5
131
330
39
100
AcDbDictionary
280
     1
281
     1
  3
ACAD_XREC_ROUNDTRIP
360
132
  0
DICTIONARY
  5
123
330
32
100
AcDbDictionary
280
     1
281
     1
  3
ACAD_XREC_ROUNDTRIP
360
124
  0
DICTIONARY
  5
127
330
34
100
AcDbDictionary
280
     1
281
     1
  3
ACAD_XREC_ROUNDTRIP
360
128
  0
DICTIONARY
  5
141
330
41
100
AcDbDictionary
280
     1
281
     1
  3
ACAD_XREC_ROUNDTRIP
360
142
  0
DICTIONARY
  5
12F
330
38
100
AcDbDictionary
280
     1
281
     1
  3
ACAD_XREC_ROUNDTRIP
360
130
  0
DICTIONARY
  5
113
330
2A
100
AcDbDictionary
280
     1
281
     1
  3
ACAD_XREC_ROUNDTRIP
360
114
  0
DICTIONARY
  5
115
330
2B
100
AcDbDictionary
280
     1
281
     1
  3
ACAD_XREC_ROUNDTRIP
360
116
  0
DICTIONARY
  5
117
330
2C
100
AcDbDictionary
280
     1
281
     1
  3
ACAD_XREC_ROUNDTRIP
360
118
  0
DICTIONARY
  5
119
330
2D
100
AcDbDictionary
280
     1
281
     1
  3
ACAD_XREC_ROUNDTRIP
360
11A
  0
DICTIONARY
  5
121
330
31
100
AcDbDictionary
280
     1
281
     1
  3
ACAD_XREC_ROUNDTRIP
360
122
  0
DICTIONARY
  5
13D
330
3F
100
AcDbDictionary
280
     1
281
     1
  3
ACAD_XREC_ROUNDTRIP
360
13E
  0
DICTIONARY
  5
12D
330
37
100
AcDbDictionary
280
     1
281
     1
  3
ACAD_XREC_ROUNDTRIP
360
12E
  0
DICTIONARY
  5
13F
330
40
100
AcDbDictionary
280
     1
281
     1
  3
ACAD_XREC_ROUNDTRIP
360
140
  0
DICTIONARY
  5
125
330
33
100
AcDbDictionary
280
     1
281
     1
  3
ACAD_XREC_ROUNDTRIP
360
126
  0
DICTIONARY
  5
13B
330
3E
100
AcDbDictionary
280
     1
281
     1
  3
ACAD_XREC_ROUNDTRIP
360
13C
  0
DICTIONARY
  5
139
330
3D
100
AcDbDictionary
280
     1
281
     1
  3
ACAD_XREC_ROUNDTRIP
360
13A
  0
DICTIONARY
  5
133
330
3A
100
AcDbDictionary
280
     1
281
     1
  3
ACAD_XREC_ROUNDTRIP
360
134
  0
DICTIONARY
  5
135
330
3B
100
AcDbDictionary
280
     1
281
     1
  3
ACAD_XREC_ROUNDTRIP
360
136
  0
DICTIONARY
  5
12B
330
36
100
AcDbDictionary
280
     1
281
     1
  3
ACAD_XREC_ROUNDTRIP
360
12C
  0
DICTIONARY
  5
11F
330
30
100
AcDbDictionary
280
     1
281
     1
  3
ACAD_XREC_ROUNDTRIP
360
120
  0
DICTIONARY
  5
137
330
3C
100
AcDbDictionary
280
     1
281
     1
  3
ACAD_XREC_ROUNDTRIP
360
138
  0
XRECORD
  5
148
102
{ACAD_REACTORS
330
147
102
}
330
147
100
AcDbXrecord
280
     1
102
DISPLAYNAME
  1
Imperial24
102
FLAGS
 90
        0
  0
XRECORD
  5
1C
102
{ACAD_REACTORS
330
1A
102
}
330
1A
100
AcDbXrecord
280
     1
270
     1
271
     1
  0
XRECORD
  5
1B
102
{ACAD_REACTORS
330
1A
102
}
330
1A
100
AcDbXrecord
280
     1
270
     1
271
     1
  0
XRECORD
  5
1F
102
{ACAD_REACTORS
330
1A
102
}
330
1A
100
AcDbXrecord
280
     1
270
     1
271
     1
  0
XRECORD
  5
1E
102
{ACAD_REACTORS
330
1A
102
}
330
1A
100
AcDbXrecord
280
     1
270
     1
271
     1
  0
XRECORD
  5
20
102
{ACAD_REACTORS
330
1A
102
}
330
1A
100
AcDbXrecord
280
     1
270
     1
271
     1
  0
XRECORD
  5
1D
102
{ACAD_REACTORS
330
1A
102
}
330
1A
100
AcDbXrecord
280
     1
270
     1
271
     1
  0
XRECORD
  5
14
102
{ACAD_REACTORS
330
12
102
}
330
12
100
AcDbXrecord
280
     1
270
     1
271
     1
  0
XRECORD
  5
13
102
{ACAD_REACTORS
330
12
102
}
330
12
100
AcDbXrecord
280
     1
270
     1
271
     1
  0
XRECORD
  5
17
102
{ACAD_REACTORS
330
12
102
}
330
12
100
AcDbXrecord
280
     1
270
     1
271
     1
  0
XRECORD
  5
16
102
{ACAD_REACTORS
330
12
102
}
330
12
100
AcDbXrecord
280
     1
270
     1
271
     1
  0
XRECORD
  5
18
102
{ACAD_REACTORS
330
12
102
}
330
12
100
AcDbXrecord
280
     1
270
     1
271
     1
  0
XRECORD
  5
15
102
{ACAD_REACTORS
330
12
102
}
330
12
100
AcDbXrecord
280
     1
270
     1
271
     1
  0
XRECORD
  5
24
102
{ACAD_REACTORS
330
22
102
}
330
22
100
AcDbXrecord
280
     1
270
     1
271
     1
  0
XRECORD
  5
23
102
{ACAD_REACTORS
330
22
102
}
330
22
100
AcDbXrecord
280
     1
270
     1
271
     1
  0
XRECORD
  5
27
102
{ACAD_REACTORS
330
22
102
}
330
22
100
AcDbXrecord
280
     1
270
     1
271
     1
  0
XRECORD
  5
26
102
{ACAD_REACTORS
330
22
102
}
330
22
100
AcDbXrecord
280
     1
270
     1
271
     1
  0
XRECORD
  5
28
102
{ACAD_REACTORS
330
22
102
}
330
22
100
AcDbXrecord
280
     1
270
     1
271
     1
  0
XRECORD
  5
25
102
{ACAD_REACTORS
330
22
102
}
330
22
100
AcDbXrecord
280
     1
270
     1
271
     1
  0
XRECORD
  5
144
102
{ACAD_REACTORS
330
143
102
}
330
143
100
AcDbXrecord
280
     1
102
ACAD_ROUNDTRIP_2012_MLEADER_STYLE
298
     1
  0
XRECORD
  5
146
102
{ACAD_REACTORS
330
145
102
}
330
145
100
AcDbXrecord
280
     1
102
DISPLAYNAME
  1
Imperial24
102
FLAGS
 90
        0
  0
CELLSTYLEMAP
  5
111
102
{ACAD_REACTORS
330
110
102
}
330
110
100
AcDbCellStyleMap
 90
        3
300
CELLSTYLE
  1
TABLEFORMAT_BEGIN
 90
        5
170
     1
 91
        0
 92
    32768
 62
   257
 93
        1
300
CONTENTFORMAT
  1
CONTENTFORMAT_BEGIN
 90
        0
 91
        0
 92
      512
 93
        0
300

 40
0.0
140
1.0
 94
        5
 62
     0
340
55
144
0.25
309
CONTENTFORMAT_END
171
     0
 94
        0
309
TABLEFORMAT_END
  1
CELLSTYLE_BEGIN
 90
        1
 91
        1
300
_TITLE
309
CELLSTYLE_END
300
CELLSTYLE
  1
TABLEFORMAT_BEGIN
 90
        5
170
     1
 91
        0
 92
        0
 62
   257
 93
        1
300
CONTENTFORMAT
  1
CONTENTFORMAT_BEGIN
 90
        0
 91
        0
 92
      512
 93
        0
300

 40
0.0
140
1.0
 94
        5
 62
     0
340
55
144
0.18
309
CONTENTFORMAT_END
171
     0
 94
        0
309
TABLEFORMAT_END
  1
CELLSTYLE_BEGIN
 90
        2
 91
        1
300
_HEADER
309
CELLSTYLE_END
300
CELLSTYLE
  1
TABLEFORMAT_BEGIN
 90
        5
170
     1
 91
        0
 92
        0
 62
   257
 93
        1
300
CONTENTFORMAT
  1
CONTENTFORMAT_BEGIN
 90
        0
 91
        0
 92
      512
 93
        0
300

 40
0.0
140
1.0
 94
        2
 62
     0
340
55
144
0.18
309
CONTENTFORMAT_END
171
     0
 94
        0
309
TABLEFORMAT_END
  1
CELLSTYLE_BEGIN
 90
        3
 91
        2
300
_DATA
309
CELLSTYLE_END
  0
XRECORD
  5
11E
102
{ACAD_REACTORS
330
11D
102
}
330
11D
100
AcDbXrecord
280
     1
102
RTVSPost2010Prop28
280
     1
102
RTVSPost2010PropOp28
 70
     1
102
RTVSPost2010Prop29
280
     1
102
RTVSPost2010PropOp29
 70
     1
102
RTVSPost2010Prop30
280
     0
102
RTVSPost2010PropOp30
 70
     1
102
RTVSPost2010Prop31
280
     0
102
RTVSPost2010PropOp31
 70
     1
102
RTVSPost2010Prop32
280
     0
102
RTVSPost2010PropOp32
 70
     1
102
RTVSPost2010Prop33
280
     0
102
RTVSPost2010PropOp33
 70
     1
102
RTVSPost2010Prop34
280
     0
102
RTVSPost2010PropOp34
 70
     1
102
RTVSPost2010Prop35
280
     0
102
RTVSPost2010PropOp35
 70
     1
102
RTVSPost2010Prop36
280
     0
102
RTVSPost2010PropOp36
 70
     1
102
RTVSPost2010Prop37
 90
       50
102
RTVSPost2010PropOp37
 70
     1
102
RTVSPost2010Prop38
140
0.0
102
RTVSPost2010PropOp38
 70
     1
102
RTVSPost2010Prop39
140
1.0
102
RTVSPost2010PropOp39
 70
     1
102
RTVSPost2010Prop40
 90
        0
102
RTVSPost2010PropOp40
 70
     1
102
RTVSPost2010Prop41ColorIndex
 90
       18
102
RTVSPost2010Prop41ColorRGB
 90
        0
102
RTVSPost2010PropOp41
 70
     1
102
RTVSPost2010Prop42
 90
       50
102
RTVSPost2010PropOp42
 70
     1
102
RTVSPost2010Prop43
 90
        3
102
RTVSPost2010PropOp43
 70
     1
102
RTVSPost2010Prop44ColorIndex
 90
        5
102
RTVSPost2010Prop44ColorRGB
 90
      255
102
RTVSPost2010PropOp44
 70
     1
102
RTVSPost2010Prop45
280
     0
102
RTVSPost2010PropOp45
 70
     1
102
RTVSPost2010Prop46
 90
       50
102
RTVSPost2010PropOp46
 70
     1
102
RTVSPost2010Prop47
 90
       50
102
RTVSPost2010PropOp47
 70
     1
102
RTVSPost2010Prop48
 90
       50
102
RTVSPost2010PropOp48
 70
     1
102
RTVSPost2010Prop49
280
     0
102
RTVSPost2010PropOp49
 70
     1
102
RTVSPost2010Prop50
 90
       50
102
RTVSPost2010PropOp50
 70
     1
102
RTVSPost2010Prop51ColorIndex
 90
      256
102
RTVSPost2010Prop51ColorRGB
 90
-16777216
102
RTVSPost2010PropOp51
 70
     0
102
RTVSPost2010Prop52
140
1.0
102
RTVSPost2010PropOp52
 70
     0
102
RTVSPost2010Prop53
 90
        2
102
RTVSPost2010PropOp53
 70
     1
102
RTVSPost2010Prop54
  1
strokes_ogs.tif
102
RTVSPost2010PropOp54
 70
     1
102
RTVSPost2010Prop55
280
     0
102
RTVSPost2010PropOp55
 70
     1
102
RTVSPost2010Prop56
140
1.0
102
RTVSPost2010PropOp56
 70
     1
102
RTVSPost2010Prop57
140
1.0
102
RTVSPost2010PropOp57
 70
     1
  0
XRECORD
  5
11C
102
{ACAD_REACTORS
330
11B
102
}
330
11B
100
AcDbXrecord
280
     1
102
RTVSPost2010Prop28
280
     0
102
RTVSPost2010PropOp28
 70
     1
102
RTVSPost2010Prop29
280
     1
102
RTVSPost2010PropOp29
 70
     1
102
RTVSPost2010Prop30
280
     1
102
RTVSPost2010PropOp30
 70
     1
102
RTVSPost2010Prop31
280
     0
102
RTVSPost2010PropOp31
 70
     1
102
RTVSPost2010Prop32
280
     0
102
RTVSPost2010PropOp32
 70
     1
102
RTVSPost2010Prop33
280
     0
102
RTVSPost2010PropOp33
 70
     1
102
RTVSPost2010Prop34
280
     0
102
RTVSPost2010PropOp34
 70
     1
102
RTVSPost2010Prop35
280
     0
102
RTVSPost2010PropOp35
 70
     1
102
RTVSPost2010Prop36
280
     0
102
RTVSPost2010PropOp36
 70
     1
102
RTVSPost2010Prop37
 90
       50
102
RTVSPost2010PropOp37
 70
     1
102
RTVSPost2010Prop38
140
0.0
102
RTVSPost2010PropOp38
 70
     1
102
RTVSPost2010Prop39
140
1.0
102
RTVSPost2010PropOp39
 70
     1
102
RTVSPost2010Prop40
 90
        0
102
RTVSPost2010PropOp40
 70
     1
102
RTVSPost2010Prop41ColorIndex
 90
       18
102
RTVSPost2010Prop41ColorRGB
 90
        0
102
RTVSPost2010PropOp41
 70
     1
102
RTVSPost2010Prop42
 90
       50
102
RTVSPost2010PropOp42
 70
     1
102
RTVSPost2010Prop43
 90
        3
102
RTVSPost2010PropOp43
 70
     1
102
RTVSPost2010Prop44ColorIndex
 90
        5
102
RTVSPost2010Prop44ColorRGB
 90
      255
102
RTVSPost2010PropOp44
 70
     1
102
RTVSPost2010Prop45
280
     0
102
RTVSPost2010PropOp45
 70
     1
102
RTVSPost2010Prop46
 90
       50
102
RTVSPost2010PropOp46
 70
     1
102
RTVSPost2010Prop47
 90
       50
102
RTVSPost2010PropOp47
 70
     1
102
RTVSPost2010Prop48
 90
       50
102
RTVSPost2010PropOp48
 70
     1
102
RTVSPost2010Prop49
280
     0
102
RTVSPost2010PropOp49
 70
     1
102
RTVSPost2010Prop50
 90
       50
102
RTVSPost2010PropOp50
 70
     1
102
RTVSPost2010Prop51ColorIndex
 90
      256
102
RTVSPost2010Prop51ColorRGB
 90
-16777216
102
RTVSPost2010PropOp51
 70
     0
102
RTVSPost2010Prop52
140
1.0
102
RTVSPost2010PropOp52
 70
     0
102
RTVSPost2010Prop53
 90
        2
102
RTVSPost2010PropOp53
 70
     1
102
RTVSPost2010Prop54
  1
strokes_ogs.tif
102
RTVSPost2010PropOp54
 70
     1
102
RTVSPost2010Prop55
280
     0
102
RTVSPost2010PropOp55
 70
     1
102
RTVSPost2010Prop56
140
1.0
102
RTVSPost2010PropOp56
 70
     1
102
RTVSPost2010Prop57
140
1.0
102
RTVSPost2010PropOp57
 70
     1
  0
XRECORD
  5
12A
102
{ACAD_REACTORS
330
129
102
}
330
129
100
AcDbXrecord
280
     1
102
RTVSPost2010Prop28
280
     0
102
RTVSPost2010PropOp28
 70
     1
102
RTVSPost2010Prop29
280
     1
102
RTVSPost2010PropOp29
 70
     1
102
RTVSPost2010Prop30
280
     1
102
RTVSPost2010PropOp30
 70
     1
102
RTVSPost2010Prop31
280
     0
102
RTVSPost2010PropOp31
 70
     1
102
RTVSPost2010Prop32
280
     0
102
RTVSPost2010PropOp32
 70
     1
102
RTVSPost2010Prop33
280
     0
102
RTVSPost2010PropOp33
 70
     1
102
RTVSPost2010Prop34
280
     0
102
RTVSPost2010PropOp34
 70
     1
102
RTVSPost2010Prop35
280
     0
102
RTVSPost2010PropOp35
 70
     1
102
RTVSPost2010Prop36
280
     0
102
RTVSPost2010PropOp36
 70
     1
102
RTVSPost2010Prop37
 90
       50
102
RTVSPost2010PropOp37
 70
     1
102
RTVSPost2010Prop38
140
0.0
102
RTVSPost2010PropOp38
 70
     1
102
RTVSPost2010Prop39
140
1.0
102
RTVSPost2010PropOp39
 70
     1
102
RTVSPost2010Prop40
 90
        0
102
RTVSPost2010PropOp40
 70
     1
102
RTVSPost2010Prop41ColorIndex
 90
       18
102
RTVSPost2010Prop41ColorRGB
 90
        0
102
RTVSPost2010PropOp41
 70
     1
102
RTVSPost2010Prop42
 90
       50
102
RTVSPost2010PropOp42
 70
     1
102
RTVSPost2010Prop43
 90
        3
102
RTVSPost2010PropOp43
 70
     1
102
RTVSPost2010Prop44ColorIndex
 90
        5
102
RTVSPost2010Prop44ColorRGB
 90
      255
102
RTVSPost2010PropOp44
 70
     1
102
RTVSPost2010Prop45
280
     0
102
RTVSPost2010PropOp45
 70
     1
102
RTVSPost2010Prop46
 90
       50
102
RTVSPost2010PropOp46
 70
     1
102
RTVSPost2010Prop47
 90
       50
102
RTVSPost2010PropOp47
 70
     1
102
RTVSPost2010Prop48
 90
       50
102
RTVSPost2010PropOp48
 70
     1
102
RTVSPost2010Prop49
280
     0
102
RTVSPost2010PropOp49
 70
     1
102
RTVSPost2010Prop50
 90
       50
102
RTVSPost2010PropOp50
 70
     1
102
RTVSPost2010Prop51ColorIndex
 90
      256
102
RTVSPost2010Prop51ColorRGB
 90
-16777216
102
RTVSPost2010PropOp51
 70
     0
102
RTVSPost2010Prop52
140
1.0
102
RTVSPost2010PropOp52
 70
     0
102
RTVSPost2010Prop53
 90
        2
102
RTVSPost2010PropOp53
 70
     1
102
RTVSPost2010Prop54
  1
strokes_ogs.tif
102
RTVSPost2010PropOp54
 70
     1
102
RTVSPost2010Prop55
280
     0
102
RTVSPost2010PropOp55
 70
     1
102
RTVSPost2010Prop56
140
1.0
102
RTVSPost2010PropOp56
 70
     1
102
RTVSPost2010Prop57
140
1.0
102
RTVSPost2010PropOp57
 70
     1
  0
XRECORD
  5
132
102
{ACAD_REACTORS
330
131
102
}
330
131
100
AcDbXrecord
280
     1
102
RTVSPost2010Prop28
280
     0
102
RTVSPost2010PropOp28
 70
     1
102
RTVSPost2010Prop29
280
     1
102
RTVSPost2010PropOp29
 70
     1
102
RTVSPost2010Prop30
280
     1
102
RTVSPost2010PropOp30
 70
     1
102
RTVSPost2010Prop31
280
     0
102
RTVSPost2010PropOp31
 70
     1
102
RTVSPost2010Prop32
280
     0
102
RTVSPost2010PropOp32
 70
     1
102
RTVSPost2010Prop33
280
     0
102
RTVSPost2010PropOp33
 70
     1
102
RTVSPost2010Prop34
280
     0
102
RTVSPost2010PropOp34
 70
     1
102
RTVSPost2010Prop35
280
     0
102
RTVSPost2010PropOp35
 70
     1
102
RTVSPost2010Prop36
280
     0
102
RTVSPost2010PropOp36
 70
     1
102
RTVSPost2010Prop37
 90
       50
102
RTVSPost2010PropOp37
 70
     1
102
RTVSPost2010Prop38
140
0.0
102
RTVSPost2010PropOp38
 70
     1
102
RTVSPost2010Prop39
140
1.0
102
RTVSPost2010PropOp39
 70
     1
102
RTVSPost2010Prop40
 90
        0
102
RTVSPost2010PropOp40
 70
     1
102
RTVSPost2010Prop41ColorIndex
 90
       18
102
RTVSPost2010Prop41ColorRGB
 90
        0
102
RTVSPost2010PropOp41
 70
     1
102
RTVSPost2010Prop42
 90
       50
102
RTVSPost2010PropOp42
 70
     1
102
RTVSPost2010Prop43
 90
        3
102
RTVSPost2010PropOp43
 70
     1
102
RTVSPost2010Prop44ColorIndex
 90
        5
102
RTVSPost2010Prop44ColorRGB
 90
      255
102
RTVSPost2010PropOp44
 70
     1
102
RTVSPost2010Prop45
280
     0
102
RTVSPost2010PropOp45
 70
     1
102
RTVSPost2010Prop46
 90
       50
102
RTVSPost2010PropOp46
 70
     1
102
RTVSPost2010Prop47
 90
       50
102
RTVSPost2010PropOp47
 70
     1
102
RTVSPost2010Prop48
 90
       50
102
RTVSPost2010PropOp48
 70
     1
102
RTVSPost2010Prop49
280
     0
102
RTVSPost2010PropOp49
 70
     1
102
RTVSPost2010Prop50
 90
       50
102
RTVSPost2010PropOp50
 70
     1
102
RTVSPost2010Prop51ColorIndex
 90
      256
102
RTVSPost2010Prop51ColorRGB
 90
-16777216
102
RTVSPost2010PropOp51
 70
     0
102
RTVSPost2010Prop52
140
1.0
102
RTVSPost2010PropOp52
 70
     0
102
RTVSPost2010Prop53
 90
        2
102
RTVSPost2010PropOp53
 70
     1
102
RTVSPost2010Prop54
  1
strokes_ogs.tif
102
RTVSPost2010PropOp54
 70
     1
102
RTVSPost2010Prop55
280
     0
102
RTVSPost2010PropOp55
 70
     1
102
RTVSPost2010Prop56
140
1.0
102
RTVSPost2010PropOp56
 70
     1
102
RTVSPost2010Prop57
140
1.0
102
RTVSPost2010PropOp57
 70
     1
  0
XRECORD
  5
124
102
{ACAD_REACTORS
330
123
102
}
330
123
100
AcDbXrecord
280
     1
102
RTVSPost2010Prop28
280
     0
102
RTVSPost2010PropOp28
 70
     1
102
RTVSPost2010Prop29
280
     1
102
RTVSPost2010PropOp29
 70
     1
102
RTVSPost2010Prop30
280
     1
102
RTVSPost2010PropOp30
 70
     1
102
RTVSPost2010Prop31
280
     0
102
RTVSPost2010PropOp31
 70
     1
102
RTVSPost2010Prop32
280
     0
102
RTVSPost2010PropOp32
 70
     1
102
RTVSPost2010Prop33
280
     0
102
RTVSPost2010PropOp33
 70
     1
102
RTVSPost2010Prop34
280
     0
102
RTVSPost2010PropOp34
 70
     1
102
RTVSPost2010Prop35
280
     0
102
RTVSPost2010PropOp35
 70
     1
102
RTVSPost2010Prop36
280
     0
102
RTVSPost2010PropOp36
 70
     1
102
RTVSPost2010Prop37
 90
       50
102
RTVSPost2010PropOp37
 70
     1
102
RTVSPost2010Prop38
140
0.0
102
RTVSPost2010PropOp38
 70
     1
102
RTVSPost2010Prop39
140
1.0
102
RTVSPost2010PropOp39
 70
     1
102
RTVSPost2010Prop40
 90
        0
102
RTVSPost2010PropOp40
 70
     1
102
RTVSPost2010Prop41ColorIndex
 90
       18
102
RTVSPost2010Prop41ColorRGB
 90
        0
102
RTVSPost2010PropOp41
 70
     1
102
RTVSPost2010Prop42
 90
       50
102
RTVSPost2010PropOp42
 70
     1
102
RTVSPost2010Prop43
 90
        3
102
RTVSPost2010PropOp43
 70
     1
102
RTVSPost2010Prop44ColorIndex
 90
        5
102
RTVSPost2010Prop44ColorRGB
 90
      255
102
RTVSPost2010PropOp44
 70
     1
102
RTVSPost2010Prop45
280
     0
102
RTVSPost2010PropOp45
 70
     1
102
RTVSPost2010Prop46
 90
       50
102
RTVSPost2010PropOp46
 70
     1
102
RTVSPost2010Prop47
 90
       50
102
RTVSPost2010PropOp47
 70
     1
102
RTVSPost2010Prop48
 90
       50
102
RTVSPost2010PropOp48
 70
     1
102
RTVSPost2010Prop49
280
     0
102
RTVSPost2010PropOp49
 70
     1
102
RTVSPost2010Prop50
 90
       50
102
RTVSPost2010PropOp50
 70
     1
102
RTVSPost2010Prop51ColorIndex
 90
      256
102
RTVSPost2010Prop51ColorRGB
 90
-16777216
102
RTVSPost2010PropOp51
 70
     0
102
RTVSPost2010Prop52
140
1.0
102
RTVSPost2010PropOp52
 70
     0
102
RTVSPost2010Prop53
 90
        2
102
RTVSPost2010PropOp53
 70
     1
102
RTVSPost2010Prop54
  1
strokes_ogs.tif
102
RTVSPost2010PropOp54
 70
     1
102
RTVSPost2010Prop55
280
     0
102
RTVSPost2010PropOp55
 70
     1
102
RTVSPost2010Prop56
140
1.0
102
RTVSPost2010PropOp56
 70
     1
102
RTVSPost2010Prop57
140
1.0
102
RTVSPost2010PropOp57
 70
     1
  0
XRECORD
  5
128
102
{ACAD_REACTORS
330
127
102
}
330
127
100
AcDbXrecord
280
     1
102
RTVSPost2010Prop28
280
     0
102
RTVSPost2010PropOp28
 70
     1
102
RTVSPost2010Prop29
280
     1
102
RTVSPost2010PropOp29
 70
     1
102
RTVSPost2010Prop30
280
     1
102
RTVSPost2010PropOp30
 70
     1
102
RTVSPost2010Prop31
280
     0
102
RTVSPost2010PropOp31
 70
     1
102
RTVSPost2010Prop32
280
     0
102
RTVSPost2010PropOp32
 70
     1
102
RTVSPost2010Prop33
280
     0
102
RTVSPost2010PropOp33
 70
     1
102
RTVSPost2010Prop34
280
     0
102
RTVSPost2010PropOp34
 70
     1
102
RTVSPost2010Prop35
280
     0
102
RTVSPost2010PropOp35
 70
     1
102
RTVSPost2010Prop36
280
     0
102
RTVSPost2010PropOp36
 70
     1
102
RTVSPost2010Prop37
 90
       50
102
RTVSPost2010PropOp37
 70
     1
102
RTVSPost2010Prop38
140
0.0
102
RTVSPost2010PropOp38
 70
     1
102
RTVSPost2010Prop39
140
1.0
102
RTVSPost2010PropOp39
 70
     1
102
RTVSPost2010Prop40
 90
        0
102
RTVSPost2010PropOp40
 70
     1
102
RTVSPost2010Prop41ColorIndex
 90
       18
102
RTVSPost2010Prop41ColorRGB
 90
        0
102
RTVSPost2010PropOp41
 70
     1
102
RTVSPost2010Prop42
 90
       50
102
RTVSPost2010PropOp42
 70
     1
102
RTVSPost2010Prop43
 90
        3
102
RTVSPost2010PropOp43
 70
     1
102
RTVSPost2010Prop44ColorIndex
 90
        5
102
RTVSPost2010Prop44ColorRGB
 90
      255
102
RTVSPost2010PropOp44
 70
     1
102
RTVSPost2010Prop45
280
     0
102
RTVSPost2010PropOp45
 70
     1
102
RTVSPost2010Prop46
 90
       50
102
RTVSPost2010PropOp46
 70
     1
102
RTVSPost2010Prop47
 90
       50
102
RTVSPost2010PropOp47
 70
     1
102
RTVSPost2010Prop48
 90
       50
102
RTVSPost2010PropOp48
 70
     1
102
RTVSPost2010Prop49
280
     0
102
RTVSPost2010PropOp49
 70
     1
102
RTVSPost2010Prop50
 90
       50
102
RTVSPost2010PropOp50
 70
     1
102
RTVSPost2010Prop51ColorIndex
 90
      256
102
RTVSPost2010Prop51ColorRGB
 90
-16777216
102
RTVSPost2010PropOp51
 70
     0
102
RTVSPost2010Prop52
140
1.0
102
RTVSPost2010PropOp52
 70
     0
102
RTVSPost2010Prop53
 90
        2
102
RTVSPost2010PropOp53
 70
     1
102
RTVSPost2010Prop54
  1
strokes_ogs.tif
102
RTVSPost2010PropOp54
 70
     1
102
RTVSPost2010Prop55
280
     0
102
RTVSPost2010PropOp55
 70
     1
102
RTVSPost2010Prop56
140
1.0
102
RTVSPost2010PropOp56
 70
     1
102
RTVSPost2010Prop57
140
1.0
102
RTVSPost2010PropOp57
 70
     1
  0
XRECORD
  5
142
102
{ACAD_REACTORS
330
141
102
}
330
141
100
AcDbXrecord
280
     1
102
RTVSPost2010Prop28
280
     0
102
RTVSPost2010PropOp28
 70
     0
102
RTVSPost2010Prop29
280
     1
102
RTVSPost2010PropOp29
 70
     0
102
RTVSPost2010Prop30
280
     1
102
RTVSPost2010PropOp30
 70
     0
102
RTVSPost2010Prop31
280
     0
102
RTVSPost2010PropOp31
 70
     0
102
RTVSPost2010Prop32
280
     0
102
RTVSPost2010PropOp32
 70
     0
102
RTVSPost2010Prop33
280
     0
102
RTVSPost2010PropOp33
 70
     0
102
RTVSPost2010Prop34
280
     0
102
RTVSPost2010PropOp34
 70
     0
102
RTVSPost2010Prop35
280
     0
102
RTVSPost2010PropOp35
 70
     0
102
RTVSPost2010Prop36
280
     0
102
RTVSPost2010PropOp36
 70
     0
102
RTVSPost2010Prop37
 90
       50
102
RTVSPost2010PropOp37
 70
     0
102
RTVSPost2010Prop38
140
0.0
102
RTVSPost2010PropOp38
 70
     0
102
RTVSPost2010Prop39
140
1.0
102
RTVSPost2010PropOp39
 70
     0
102
RTVSPost2010Prop40
 90
        0
102
RTVSPost2010PropOp40
 70
     0
102
RTVSPost2010Prop41ColorIndex
 90
       18
102
RTVSPost2010Prop41ColorRGB
 90
        0
102
RTVSPost2010PropOp41
 70
     0
102
RTVSPost2010Prop42
 90
       50
102
RTVSPost2010PropOp42
 70
     0
102
RTVSPost2010Prop43
 90
        3
102
RTVSPost2010PropOp43
 70
     0
102
RTVSPost2010Prop44ColorIndex
 90
        5
102
RTVSPost2010Prop44ColorRGB
 90
      255
102
RTVSPost2010PropOp44
 70
     0
102
RTVSPost2010Prop45
280
     0
102
RTVSPost2010PropOp45
 70
     0
102
RTVSPost2010Prop46
 90
       50
102
RTVSPost2010PropOp46
 70
     0
102
RTVSPost2010Prop47
 90
       50
102
RTVSPost2010PropOp47
 70
     0
102
RTVSPost2010Prop48
 90
       50
102
RTVSPost2010PropOp48
 70
     0
102
RTVSPost2010Prop49
280
     0
102
RTVSPost2010PropOp49
 70
     0
102
RTVSPost2010Prop50
 90
       50
102
RTVSPost2010PropOp50
 70
     0
102
RTVSPost2010Prop51ColorIndex
 90
      256
102
RTVSPost2010Prop51ColorRGB
 90
-16777216
102
RTVSPost2010PropOp51
 70
     0
102
RTVSPost2010Prop52
140
1.0
102
RTVSPost2010PropOp52
 70
     0
102
RTVSPost2010Prop53
 90
        2
102
RTVSPost2010PropOp53
 70
     0
102
RTVSPost2010Prop54
  1
strokes_ogs.tif
102
RTVSPost2010PropOp54
 70
     0
102
RTVSPost2010Prop55
280
     0
102
RTVSPost2010PropOp55
 70
     0
102
RTVSPost2010Prop56
140
1.0
102
RTVSPost2010PropOp56
 70
     0
102
RTVSPost2010Prop57
140
1.0
102
RTVSPost2010PropOp57
 70
     0
  0
XRECORD
  5
130
102
{ACAD_REACTORS
330
12F
102
}
330
12F
100
AcDbXrecord
280
     1
102
RTVSPost2010Prop28
280
     0
102
RTVSPost2010PropOp28
 70
     1
102
RTVSPost2010Prop29
280
     1
102
RTVSPost2010PropOp29
 70
     1
102
RTVSPost2010Prop30
280
     1
102
RTVSPost2010PropOp30
 70
     1
102
RTVSPost2010Prop31
280
     0
102
RTVSPost2010PropOp31
 70
     1
102
RTVSPost2010Prop32
280
     0
102
RTVSPost2010PropOp32
 70
     1
102
RTVSPost2010Prop33
280
     0
102
RTVSPost2010PropOp33
 70
     1
102
RTVSPost2010Prop34
280
     0
102
RTVSPost2010PropOp34
 70
     1
102
RTVSPost2010Prop35
280
     0
102
RTVSPost2010PropOp35
 70
     1
102
RTVSPost2010Prop36
280
     0
102
RTVSPost2010PropOp36
 70
     1
102
RTVSPost2010Prop37
 90
       50
102
RTVSPost2010PropOp37
 70
     1
102
RTVSPost2010Prop38
140
0.0
102
RTVSPost2010PropOp38
 70
     1
102
RTVSPost2010Prop39
140
1.0
102
RTVSPost2010PropOp39
 70
     1
102
RTVSPost2010Prop40
 90
        0
102
RTVSPost2010PropOp40
 70
     1
102
RTVSPost2010Prop41ColorIndex
 90
       18
102
RTVSPost2010Prop41ColorRGB
 90
        0
102
RTVSPost2010PropOp41
 70
     1
102
RTVSPost2010Prop42
 90
       50
102
RTVSPost2010PropOp42
 70
     1
102
RTVSPost2010Prop43
 90
        3
102
RTVSPost2010PropOp43
 70
     1
102
RTVSPost2010Prop44ColorIndex
 90
        5
102
RTVSPost2010Prop44ColorRGB
 90
      255
102
RTVSPost2010PropOp44
 70
     1
102
RTVSPost2010Prop45
280
     0
102
RTVSPost2010PropOp45
 70
     1
102
RTVSPost2010Prop46
 90
       50
102
RTVSPost2010PropOp46
 70
     1
102
RTVSPost2010Prop47
 90
       50
102
RTVSPost2010PropOp47
 70
     1
102
RTVSPost2010Prop48
 90
       50
102
RTVSPost2010PropOp48
 70
     1
102
RTVSPost2010Prop49
280
     0
102
RTVSPost2010PropOp49
 70
     1
102
RTVSPost2010Prop50
 90
       50
102
RTVSPost2010PropOp50
 70
     1
102
RTVSPost2010Prop51ColorIndex
 90
      256
102
RTVSPost2010Prop51ColorRGB
 90
-16777216
102
RTVSPost2010PropOp51
 70
     0
102
RTVSPost2010Prop52
140
1.0
102
RTVSPost2010PropOp52
 70
     0
102
RTVSPost2010Prop53
 90
        2
102
RTVSPost2010PropOp53
 70
     1
102
RTVSPost2010Prop54
  1
strokes_ogs.tif
102
RTVSPost2010PropOp54
 70
     1
102
RTVSPost2010Prop55
280
     0
102
RTVSPost2010PropOp55
 70
     1
102
RTVSPost2010Prop56
140
1.0
102
RTVSPost2010PropOp56
 70
     1
102
RTVSPost2010Prop57
140
1.0
102
RTVSPost2010PropOp57
 70
     1
  0
XRECORD
  5
114
102
{ACAD_REACTORS
330
113
102
}
330
113
100
AcDbXrecord
280
     1
102
RTVSPost2010Prop28
280
     0
102
RTVSPost2010PropOp28
 70
     1
102
RTVSPost2010Prop29
280
     1
102
RTVSPost2010PropOp29
 70
     1
102
RTVSPost2010Prop30
280
     1
102
RTVSPost2010PropOp30
 70
     1
102
RTVSPost2010Prop31
280
     0
102
RTVSPost2010PropOp31
 70
     1
102
RTVSPost2010Prop32
280
     0
102
RTVSPost2010PropOp32
 70
     1
102
RTVSPost2010Prop33
280
     0
102
RTVSPost2010PropOp33
 70
     1
102
RTVSPost2010Prop34
280
     0
102
RTVSPost2010PropOp34
 70
     1
102
RTVSPost2010Prop35
280
     0
102
RTVSPost2010PropOp35
 70
     1
102
RTVSPost2010Prop36
280
     0
102
RTVSPost2010PropOp36
 70
     1
102
RTVSPost2010Prop37
 90
       50
102
RTVSPost2010PropOp37
 70
     1
102
RTVSPost2010Prop38
140
0.0
102
RTVSPost2010PropOp38
 70
     1
102
RTVSPost2010Prop39
140
1.0
102
RTVSPost2010PropOp39
 70
     1
102
RTVSPost2010Prop40
 90
        0
102
RTVSPost2010PropOp40
 70
     1
102
RTVSPost2010Prop41ColorIndex
 90
       18
102
RTVSPost2010Prop41ColorRGB
 90
        0
102
RTVSPost2010PropOp41
 70
     1
102
RTVSPost2010Prop42
 90
       50
102
RTVSPost2010PropOp42
 70
     1
102
RTVSPost2010Prop43
 90
        3
102
RTVSPost2010PropOp43
 70
     1
102
RTVSPost2010Prop44ColorIndex
 90
        5
102
RTVSPost2010Prop44ColorRGB
 90
      255
102
RTVSPost2010PropOp44
 70
     1
102
RTVSPost2010Prop45
280
     0
102
RTVSPost2010PropOp45
 70
     1
102
RTVSPost2010Prop46
 90
       50
102
RTVSPost2010PropOp46
 70
     1
102
RTVSPost2010Prop47
 90
       50
102
RTVSPost2010PropOp47
 70
     1
102
RTVSPost2010Prop48
 90
       50
102
RTVSPost2010PropOp48
 70
     1
102
RTVSPost2010Prop49
280
     0
102
RTVSPost2010PropOp49
 70
     1
102
RTVSPost2010Prop50
 90
       50
102
RTVSPost2010PropOp50
 70
     1
102
RTVSPost2010Prop51ColorIndex
 90
      256
102
RTVSPost2010Prop51ColorRGB
 90
-16777216
102
RTVSPost2010PropOp51
 70
     0
102
RTVSPost2010Prop52
140
1.0
102
RTVSPost2010PropOp52
 70
     0
102
RTVSPost2010Prop53
 90
        2
102
RTVSPost2010PropOp53
 70
     1
102
RTVSPost2010Prop54
  1
strokes_ogs.tif
102
RTVSPost2010PropOp54
 70
     1
102
RTVSPost2010Prop55
280
     0
102
RTVSPost2010PropOp55
 70
     1
102
RTVSPost2010Prop56
140
1.0
102
RTVSPost2010PropOp56
 70
     1
102
RTVSPost2010Prop57
140
1.0
102
RTVSPost2010PropOp57
 70
     1
  0
XRECORD
  5
116
102
{ACAD_REACTORS
330
115
102
}
330
115
100
AcDbXrecord
280
     1
102
RTVSPost2010Prop28
280
     0
102
RTVSPost2010PropOp28
 70
     1
102
RTVSPost2010Prop29
280
     1
102
RTVSPost2010PropOp29
 70
     1
102
RTVSPost2010Prop30
280
     1
102
RTVSPost2010PropOp30
 70
     1
102
RTVSPost2010Prop31
280
     0
102
RTVSPost2010PropOp31
 70
     1
102
RTVSPost2010Prop32
280
     0
102
RTVSPost2010PropOp32
 70
     1
102
RTVSPost2010Prop33
280
     0
102
RTVSPost2010PropOp33
 70
     1
102
RTVSPost2010Prop34
280
     0
102
RTVSPost2010PropOp34
 70
     1
102
RTVSPost2010Prop35
280
     0
102
RTVSPost2010PropOp35
 70
     1
102
RTVSPost2010Prop36
280
     0
102
RTVSPost2010PropOp36
 70
     1
102
RTVSPost2010Prop37
 90
       50
102
RTVSPost2010PropOp37
 70
     1
102
RTVSPost2010Prop38
140
0.0
102
RTVSPost2010PropOp38
 70
     1
102
RTVSPost2010Prop39
140
1.0
102
RTVSPost2010PropOp39
 70
     1
102
RTVSPost2010Prop40
 90
        0
102
RTVSPost2010PropOp40
 70
     1
102
RTVSPost2010Prop41ColorIndex
 90
       18
102
RTVSPost2010Prop41ColorRGB
 90
        0
102
RTVSPost2010PropOp41
 70
     1
102
RTVSPost2010Prop42
 90
       50
102
RTVSPost2010PropOp42
 70
     1
102
RTVSPost2010Prop43
 90
        3
102
RTVSPost2010PropOp43
 70
     1
102
RTVSPost2010Prop44ColorIndex
 90
        5
102
RTVSPost2010Prop44ColorRGB
 90
      255
102
RTVSPost2010PropOp44
 70
     1
102
RTVSPost2010Prop45
280
     0
102
RTVSPost2010PropOp45
 70
     1
102
RTVSPost2010Prop46
 90
       50
102
RTVSPost2010PropOp46
 70
     1
102
RTVSPost2010Prop47
 90
       50
102
RTVSPost2010PropOp47
 70
     1
102
RTVSPost2010Prop48
 90
       50
102
RTVSPost2010PropOp48
 70
     1
102
RTVSPost2010Prop49
280
     0
102
RTVSPost2010PropOp49
 70
     1
102
RTVSPost2010Prop50
 90
       50
102
RTVSPost2010PropOp50
 70
     1
102
RTVSPost2010Prop51ColorIndex
 90
      256
102
RTVSPost2010Prop51ColorRGB
 90
-16777216
102
RTVSPost2010PropOp51
 70
     0
102
RTVSPost2010Prop52
140
1.0
102
RTVSPost2010PropOp52
 70
     0
102
RTVSPost2010Prop53
 90
        2
102
RTVSPost2010PropOp53
 70
     1
102
RTVSPost2010Prop54
  1
strokes_ogs.tif
102
RTVSPost2010PropOp54
 70
     1
102
RTVSPost2010Prop55
280
     0
102
RTVSPost2010PropOp55
 70
     1
102
RTVSPost2010Prop56
140
1.0
102
RTVSPost2010PropOp56
 70
     1
102
RTVSPost2010Prop57
140
1.0
102
RTVSPost2010PropOp57
 70
     1
  0
XRECORD
  5
118
102
{ACAD_REACTORS
330
117
102
}
330
117
100
AcDbXrecord
280
     1
102
RTVSPost2010Prop28
280
     0
102
RTVSPost2010PropOp28
 70
     1
102
RTVSPost2010Prop29
280
     1
102
RTVSPost2010PropOp29
 70
     1
102
RTVSPost2010Prop30
280
     1
102
RTVSPost2010PropOp30
 70
     1
102
RTVSPost2010Prop31
280
     0
102
RTVSPost2010PropOp31
 70
     1
102
RTVSPost2010Prop32
280
     0
102
RTVSPost2010PropOp32
 70
     1
102
RTVSPost2010Prop33
280
     0
102
RTVSPost2010PropOp33
 70
     1
102
RTVSPost2010Prop34
280
     0
102
RTVSPost2010PropOp34
 70
     1
102
RTVSPost2010Prop35
280
     0
102
RTVSPost2010PropOp35
 70
     1
102
RTVSPost2010Prop36
280
     0
102
RTVSPost2010PropOp36
 70
     1
102
RTVSPost2010Prop37
 90
       50
102
RTVSPost2010PropOp37
 70
     1
102
RTVSPost2010Prop38
140
0.0
102
RTVSPost2010PropOp38
 70
     1
102
RTVSPost2010Prop39
140
1.0
102
RTVSPost2010PropOp39
 70
     1
102
RTVSPost2010Prop40
 90
        0
102
RTVSPost2010PropOp40
 70
     1
102
RTVSPost2010Prop41ColorIndex
 90
       18
102
RTVSPost2010Prop41ColorRGB
 90
        0
102
RTVSPost2010PropOp41
 70
     1
102
RTVSPost2010Prop42
 90
       50
102
RTVSPost2010PropOp42
 70
     1
102
RTVSPost2010Prop43
 90
        3
102
RTVSPost2010PropOp43
 70
     1
102
RTVSPost2010Prop44ColorIndex
 90
        5
102
RTVSPost2010Prop44ColorRGB
 90
      255
102
RTVSPost2010PropOp44
 70
     1
102
RTVSPost2010Prop45
280
     0
102
RTVSPost2010PropOp45
 70
     1
102
RTVSPost2010Prop46
 90
       50
102
RTVSPost2010PropOp46
 70
     1
102
RTVSPost2010Prop47
 90
       50
102
RTVSPost2010PropOp47
 70
     1
102
RTVSPost2010Prop48
 90
       50
102
RTVSPost2010PropOp48
 70
     1
102
RTVSPost2010Prop49
280
     0
102
RTVSPost2010PropOp49
 70
     1
102
RTVSPost2010Prop50
 90
       50
102
RTVSPost2010PropOp50
 70
     1
102
RTVSPost2010Prop51ColorIndex
 90
      256
102
RTVSPost2010Prop51ColorRGB
 90
-16777216
102
RTVSPost2010PropOp51
 70
     0
102
RTVSPost2010Prop52
140
1.0
102
RTVSPost2010PropOp52
 70
     0
102
RTVSPost2010Prop53
 90
        2
102
RTVSPost2010PropOp53
 70
     1
102
RTVSPost2010Prop54
  1
strokes_ogs.tif
102
RTVSPost2010PropOp54
 70
     1
102
RTVSPost2010Prop55
280
     0
102
RTVSPost2010PropOp55
 70
     1
102
RTVSPost2010Prop56
140
1.0
102
RTVSPost2010PropOp56
 70
     1
102
RTVSPost2010Prop57
140
1.0
102
RTVSPost2010PropOp57
 70
     1
  0
XRECORD
  5
11A
102
{ACAD_REACTORS
330
119
102
}
330
119
100
AcDbXrecord
280
     1
102
RTVSPost2010Prop28
280
     0
102
RTVSPost2010PropOp28
 70
     1
102
RTVSPost2010Prop29
280
     1
102
RTVSPost2010PropOp29
 70
     1
102
RTVSPost2010Prop30
280
     1
102
RTVSPost2010PropOp30
 70
     1
102
RTVSPost2010Prop31
280
     0
102
RTVSPost2010PropOp31
 70
     1
102
RTVSPost2010Prop32
280
     0
102
RTVSPost2010PropOp32
 70
     1
102
RTVSPost2010Prop33
280
     0
102
RTVSPost2010PropOp33
 70
     1
102
RTVSPost2010Prop34
280
     0
102
RTVSPost2010PropOp34
 70
     1
102
RTVSPost2010Prop35
280
     0
102
RTVSPost2010PropOp35
 70
     1
102
RTVSPost2010Prop36
280
     0
102
RTVSPost2010PropOp36
 70
     1
102
RTVSPost2010Prop37
 90
       50
102
RTVSPost2010PropOp37
 70
     1
102
RTVSPost2010Prop38
140
0.0
102
RTVSPost2010PropOp38
 70
     1
102
RTVSPost2010Prop39
140
1.0
102
RTVSPost2010PropOp39
 70
     1
102
RTVSPost2010Prop40
 90
        0
102
RTVSPost2010PropOp40
 70
     1
102
RTVSPost2010Prop41ColorIndex
 90
       18
102
RTVSPost2010Prop41ColorRGB
 90
        0
102
RTVSPost2010PropOp41
 70
     1
102
RTVSPost2010Prop42
 90
       50
102
RTVSPost2010PropOp42
 70
     1
102
RTVSPost2010Prop43
 90
        3
102
RTVSPost2010PropOp43
 70
     1
102
RTVSPost2010Prop44ColorIndex
 90
        5
102
RTVSPost2010Prop44ColorRGB
 90
      255
102
RTVSPost2010PropOp44
 70
     1
102
RTVSPost2010Prop45
280
     0
102
RTVSPost2010PropOp45
 70
     1
102
RTVSPost2010Prop46
 90
       50
102
RTVSPost2010PropOp46
 70
     1
102
RTVSPost2010Prop47
 90
       50
102
RTVSPost2010PropOp47
 70
     1
102
RTVSPost2010Prop48
 90
       50
102
RTVSPost2010PropOp48
 70
     1
102
RTVSPost2010Prop49
280
     0
102
RTVSPost2010PropOp49
 70
     1
102
RTVSPost2010Prop50
 90
       50
102
RTVSPost2010PropOp50
 70
     1
102
RTVSPost2010Prop51ColorIndex
 90
      256
102
RTVSPost2010Prop51ColorRGB
 90
-16777216
102
RTVSPost2010PropOp51
 70
     0
102
RTVSPost2010Prop52
140
1.0
102
RTVSPost2010PropOp52
 70
     0
102
RTVSPost2010Prop53
 90
        2
102
RTVSPost2010PropOp53
 70
     1
102
RTVSPost2010Prop54
  1
strokes_ogs.tif
102
RTVSPost2010PropOp54
 70
     1
102
RTVSPost2010Prop55
280
     0
102
RTVSPost2010PropOp55
 70
     1
102
RTVSPost2010Prop56
140
1.0
102
RTVSPost2010PropOp56
 70
     1
102
RTVSPost2010Prop57
140
1.0
102
RTVSPost2010PropOp57
 70
     1
  0
XRECORD
  5
122
102
{ACAD_REACTORS
330
121
102
}
330
121
100
AcDbXrecord
280
     1
102
RTVSPost2010Prop28
280
     0
102
RTVSPost2010PropOp28
 70
     1
102
RTVSPost2010Prop29
280
     1
102
RTVSPost2010PropOp29
 70
     1
102
RTVSPost2010Prop30
280
     1
102
RTVSPost2010PropOp30
 70
     1
102
RTVSPost2010Prop31
280
     0
102
RTVSPost2010PropOp31
 70
     1
102
RTVSPost2010Prop32
280
     0
102
RTVSPost2010PropOp32
 70
     1
102
RTVSPost2010Prop33
280
     0
102
RTVSPost2010PropOp33
 70
     1
102
RTVSPost2010Prop34
280
     0
102
RTVSPost2010PropOp34
 70
     1
102
RTVSPost2010Prop35
280
     0
102
RTVSPost2010PropOp35
 70
     1
102
RTVSPost2010Prop36
280
     0
102
RTVSPost2010PropOp36
 70
     1
102
RTVSPost2010Prop37
 90
       50
102
RTVSPost2010PropOp37
 70
     1
102
RTVSPost2010Prop38
140
0.0
102
RTVSPost2010PropOp38
 70
     1
102
RTVSPost2010Prop39
140
1.0
102
RTVSPost2010PropOp39
 70
     1
102
RTVSPost2010Prop40
 90
        0
102
RTVSPost2010PropOp40
 70
     1
102
RTVSPost2010Prop41ColorIndex
 90
       18
102
RTVSPost2010Prop41ColorRGB
 90
        0
102
RTVSPost2010PropOp41
 70
     1
102
RTVSPost2010Prop42
 90
       50
102
RTVSPost2010PropOp42
 70
     1
102
RTVSPost2010Prop43
 90
        3
102
RTVSPost2010PropOp43
 70
     1
102
RTVSPost2010Prop44ColorIndex
 90
        5
102
RTVSPost2010Prop44ColorRGB
 90
      255
102
RTVSPost2010PropOp44
 70
     1
102
RTVSPost2010Prop45
280
     0
102
RTVSPost2010PropOp45
 70
     1
102
RTVSPost2010Prop46
 90
       50
102
RTVSPost2010PropOp46
 70
     1
102
RTVSPost2010Prop47
 90
       50
102
RTVSPost2010PropOp47
 70
     1
102
RTVSPost2010Prop48
 90
       50
102
RTVSPost2010PropOp48
 70
     1
102
RTVSPost2010Prop49
280
     0
102
RTVSPost2010PropOp49
 70
     1
102
RTVSPost2010Prop50
 90
       50
102
RTVSPost2010PropOp50
 70
     1
102
RTVSPost2010Prop51ColorIndex
 90
      256
102
RTVSPost2010Prop51ColorRGB
 90
-16777216
102
RTVSPost2010PropOp51
 70
     0
102
RTVSPost2010Prop52
140
1.0
102
RTVSPost2010PropOp52
 70
     0
102
RTVSPost2010Prop53
 90
        2
102
RTVSPost2010PropOp53
 70
     1
102
RTVSPost2010Prop54
  1
strokes_ogs.tif
102
RTVSPost2010PropOp54
 70
     1
102
RTVSPost2010Prop55
280
     0
102
RTVSPost2010PropOp55
 70
     1
102
RTVSPost2010Prop56
140
1.0
102
RTVSPost2010PropOp56
 70
     1
102
RTVSPost2010Prop57
140
1.0
102
RTVSPost2010PropOp57
 70
     1
  0
XRECORD
  5
13E
102
{ACAD_REACTORS
330
13D
102
}
330
13D
100
AcDbXrecord
280
     1
102
RTVSPost2010Prop28
280
     0
102
RTVSPost2010PropOp28
 70
     0
102
RTVSPost2010Prop29
280
     1
102
RTVSPost2010PropOp29
 70
     0
102
RTVSPost2010Prop30
280
     1
102
RTVSPost2010PropOp30
 70
     0
102
RTVSPost2010Prop31
280
     0
102
RTVSPost2010PropOp31
 70
     0
102
RTVSPost2010Prop32
280
     0
102
RTVSPost2010PropOp32
 70
     0
102
RTVSPost2010Prop33
280
     0
102
RTVSPost2010PropOp33
 70
     0
102
RTVSPost2010Prop34
280
     0
102
RTVSPost2010PropOp34
 70
     0
102
RTVSPost2010Prop35
280
     0
102
RTVSPost2010PropOp35
 70
     0
102
RTVSPost2010Prop36
280
     0
102
RTVSPost2010PropOp36
 70
     0
102
RTVSPost2010Prop37
 90
       50
102
RTVSPost2010PropOp37
 70
     0
102
RTVSPost2010Prop38
140
0.0
102
RTVSPost2010PropOp38
 70
     0
102
RTVSPost2010Prop39
140
1.0
102
RTVSPost2010PropOp39
 70
     0
102
RTVSPost2010Prop40
 90
        0
102
RTVSPost2010PropOp40
 70
     0
102
RTVSPost2010Prop41ColorIndex
 90
       18
102
RTVSPost2010Prop41ColorRGB
 90
        0
102
RTVSPost2010PropOp41
 70
     0
102
RTVSPost2010Prop42
 90
       50
102
RTVSPost2010PropOp42
 70
     0
102
RTVSPost2010Prop43
 90
        3
102
RTVSPost2010PropOp43
 70
     0
102
RTVSPost2010Prop44ColorIndex
 90
        5
102
RTVSPost2010Prop44ColorRGB
 90
      255
102
RTVSPost2010PropOp44
 70
     0
102
RTVSPost2010Prop45
280
     0
102
RTVSPost2010PropOp45
 70
     0
102
RTVSPost2010Prop46
 90
       50
102
RTVSPost2010PropOp46
 70
     0
102
RTVSPost2010Prop47
 90
       50
102
RTVSPost2010PropOp47
 70
     0
102
RTVSPost2010Prop48
 90
       50
102
RTVSPost2010PropOp48
 70
     0
102
RTVSPost2010Prop49
280
     0
102
RTVSPost2010PropOp49
 70
     0
102
RTVSPost2010Prop50
 90
       50
102
RTVSPost2010PropOp50
 70
     0
102
RTVSPost2010Prop51ColorIndex
 90
      256
102
RTVSPost2010Prop51ColorRGB
 90
-16777216
102
RTVSPost2010PropOp51
 70
     0
102
RTVSPost2010Prop52
140
1.0
102
RTVSPost2010PropOp52
 70
     0
102
RTVSPost2010Prop53
 90
        2
102
RTVSPost2010PropOp53
 70
     0
102
RTVSPost2010Prop54
  1
strokes_ogs.tif
102
RTVSPost2010PropOp54
 70
     0
102
RTVSPost2010Prop55
280
     0
102
RTVSPost2010PropOp55
 70
     0
102
RTVSPost2010Prop56
140
1.0
102
RTVSPost2010PropOp56
 70
     0
102
RTVSPost2010Prop57
140
1.0
102
RTVSPost2010PropOp57
 70
     0
  0
XRECORD
  5
12E
102
{ACAD_REACTORS
330
12D
102
}
330
12D
100
AcDbXrecord
280
     1
102
RTVSPost2010Prop28
280
     0
102
RTVSPost2010PropOp28
 70
     1
102
RTVSPost2010Prop29
280
     1
102
RTVSPost2010PropOp29
 70
     1
102
RTVSPost2010Prop30
280
     1
102
RTVSPost2010PropOp30
 70
     1
102
RTVSPost2010Prop31
280
     0
102
RTVSPost2010PropOp31
 70
     1
102
RTVSPost2010Prop32
280
     0
102
RTVSPost2010PropOp32
 70
     1
102
RTVSPost2010Prop33
280
     0
102
RTVSPost2010PropOp33
 70
     1
102
RTVSPost2010Prop34
280
     0
102
RTVSPost2010PropOp34
 70
     1
102
RTVSPost2010Prop35
280
     0
102
RTVSPost2010PropOp35
 70
     1
102
RTVSPost2010Prop36
280
     0
102
RTVSPost2010PropOp36
 70
     1
102
RTVSPost2010Prop37
 90
       50
102
RTVSPost2010PropOp37
 70
     1
102
RTVSPost2010Prop38
140
0.0
102
RTVSPost2010PropOp38
 70
     1
102
RTVSPost2010Prop39
140
1.0
102
RTVSPost2010PropOp39
 70
     1
102
RTVSPost2010Prop40
 90
        0
102
RTVSPost2010PropOp40
 70
     1
102
RTVSPost2010Prop41ColorIndex
 90
       18
102
RTVSPost2010Prop41ColorRGB
 90
        0
102
RTVSPost2010PropOp41
 70
     1
102
RTVSPost2010Prop42
 90
       50
102
RTVSPost2010PropOp42
 70
     1
102
RTVSPost2010Prop43
 90
        3
102
RTVSPost2010PropOp43
 70
     1
102
RTVSPost2010Prop44ColorIndex
 90
        5
102
RTVSPost2010Prop44ColorRGB
 90
      255
102
RTVSPost2010PropOp44
 70
     1
102
RTVSPost2010Prop45
280
     0
102
RTVSPost2010PropOp45
 70
     1
102
RTVSPost2010Prop46
 90
       50
102
RTVSPost2010PropOp46
 70
     1
102
RTVSPost2010Prop47
 90
       50
102
RTVSPost2010PropOp47
 70
     1
102
RTVSPost2010Prop48
 90
       50
102
RTVSPost2010PropOp48
 70
     1
102
RTVSPost2010Prop49
280
     0
102
RTVSPost2010PropOp49
 70
     1
102
RTVSPost2010Prop50
 90
       50
102
RTVSPost2010PropOp50
 70
     1
102
RTVSPost2010Prop51ColorIndex
 90
      256
102
RTVSPost2010Prop51ColorRGB
 90
-16777216
102
RTVSPost2010PropOp51
 70
     0
102
RTVSPost2010Prop52
140
1.0
102
RTVSPost2010PropOp52
 70
     0
102
RTVSPost2010Prop53
 90
        2
102
RTVSPost2010PropOp53
 70
     1
102
RTVSPost2010Prop54
  1
strokes_ogs.tif
102
RTVSPost2010PropOp54
 70
     1
102
RTVSPost2010Prop55
280
     0
102
RTVSPost2010PropOp55
 70
     1
102
RTVSPost2010Prop56
140
1.0
102
RTVSPost2010PropOp56
 70
     1
102
RTVSPost2010Prop57
140
1.0
102
RTVSPost2010PropOp57
 70
     1
  0
XRECORD
  5
140
102
{ACAD_REACTORS
330
13F
102
}
330
13F
100
AcDbXrecord
280
     1
102
RTVSPost2010Prop28
280
     0
102
RTVSPost2010PropOp28
 70
     0
102
RTVSPost2010Prop29
280
     1
102
RTVSPost2010PropOp29
 70
     0
102
RTVSPost2010Prop30
280
     1
102
RTVSPost2010PropOp30
 70
     0
102
RTVSPost2010Prop31
280
     0
102
RTVSPost2010PropOp31
 70
     0
102
RTVSPost2010Prop32
280
     0
102
RTVSPost2010PropOp32
 70
     0
102
RTVSPost2010Prop33
280
     0
102
RTVSPost2010PropOp33
 70
     0
102
RTVSPost2010Prop34
280
     0
102
RTVSPost2010PropOp34
 70
     0
102
RTVSPost2010Prop35
280
     0
102
RTVSPost2010PropOp35
 70
     0
102
RTVSPost2010Prop36
280
     0
102
RTVSPost2010PropOp36
 70
     0
102
RTVSPost2010Prop37
 90
       50
102
RTVSPost2010PropOp37
 70
     0
102
RTVSPost2010Prop38
140
0.0
102
RTVSPost2010PropOp38
 70
     0
102
RTVSPost2010Prop39
140
1.0
102
RTVSPost2010PropOp39
 70
     0
102
RTVSPost2010Prop40
 90
        0
102
RTVSPost2010PropOp40
 70
     0
102
RTVSPost2010Prop41ColorIndex
 90
       18
102
RTVSPost2010Prop41ColorRGB
 90
        0
102
RTVSPost2010PropOp41
 70
     0
102
RTVSPost2010Prop42
 90
       50
102
RTVSPost2010PropOp42
 70
     0
102
RTVSPost2010Prop43
 90
        3
102
RTVSPost2010PropOp43
 70
     0
102
RTVSPost2010Prop44ColorIndex
 90
        5
102
RTVSPost2010Prop44ColorRGB
 90
      255
102
RTVSPost2010PropOp44
 70
     0
102
RTVSPost2010Prop45
280
     0
102
RTVSPost2010PropOp45
 70
     0
102
RTVSPost2010Prop46
 90
       50
102
RTVSPost2010PropOp46
 70
     0
102
RTVSPost2010Prop47
 90
       50
102
RTVSPost2010PropOp47
 70
     0
102
RTVSPost2010Prop48
 90
       50
102
RTVSPost2010PropOp48
 70
     0
102
RTVSPost2010Prop49
280
     0
102
RTVSPost2010PropOp49
 70
     0
102
RTVSPost2010Prop50
 90
       50
102
RTVSPost2010PropOp50
 70
     0
102
RTVSPost2010Prop51ColorIndex
 90
      256
102
RTVSPost2010Prop51ColorRGB
 90
-16777216
102
RTVSPost2010PropOp51
 70
     0
102
RTVSPost2010Prop52
140
1.0
102
RTVSPost2010PropOp52
 70
     0
102
RTVSPost2010Prop53
 90
        2
102
RTVSPost2010PropOp53
 70
     0
102
RTVSPost2010Prop54
  1
strokes_ogs.tif
102
RTVSPost2010PropOp54
 70
     0
102
RTVSPost2010Prop55
280
     0
102
RTVSPost2010PropOp55
 70
     0
102
RTVSPost2010Prop56
140
1.0
102
RTVSPost2010PropOp56
 70
     0
102
RTVSPost2010Prop57
140
1.0
102
RTVSPost2010PropOp57
 70
     0
  0
XRECORD
  5
126
102
{ACAD_REACTORS
330
125
102
}
330
125
100
AcDbXrecord
280
     1
102
RTVSPost2010Prop28
280
     0
102
RTVSPost2010PropOp28
 70
     1
102
RTVSPost2010Prop29
280
     1
102
RTVSPost2010PropOp29
 70
     1
102
RTVSPost2010Prop30
280
     1
102
RTVSPost2010PropOp30
 70
     1
102
RTVSPost2010Prop31
280
     0
102
RTVSPost2010PropOp31
 70
     1
102
RTVSPost2010Prop32
280
     0
102
RTVSPost2010PropOp32
 70
     1
102
RTVSPost2010Prop33
280
     0
102
RTVSPost2010PropOp33
 70
     1
102
RTVSPost2010Prop34
280
     0
102
RTVSPost2010PropOp34
 70
     1
102
RTVSPost2010Prop35
280
     0
102
RTVSPost2010PropOp35
 70
     1
102
RTVSPost2010Prop36
280
     0
102
RTVSPost2010PropOp36
 70
     1
102
RTVSPost2010Prop37
 90
       50
102
RTVSPost2010PropOp37
 70
     1
102
RTVSPost2010Prop38
140
0.0
102
RTVSPost2010PropOp38
 70
     1
102
RTVSPost2010Prop39
140
1.0
102
RTVSPost2010PropOp39
 70
     1
102
RTVSPost2010Prop40
 90
        0
102
RTVSPost2010PropOp40
 70
     1
102
RTVSPost2010Prop41ColorIndex
 90
       18
102
RTVSPost2010Prop41ColorRGB
 90
        0
102
RTVSPost2010PropOp41
 70
     1
102
RTVSPost2010Prop42
 90
       50
102
RTVSPost2010PropOp42
 70
     1
102
RTVSPost2010Prop43
 90
        3
102
RTVSPost2010PropOp43
 70
     1
102
RTVSPost2010Prop44ColorIndex
 90
        5
102
RTVSPost2010Prop44ColorRGB
 90
      255
102
RTVSPost2010PropOp44
 70
     1
102
RTVSPost2010Prop45
280
     0
102
RTVSPost2010PropOp45
 70
     1
102
RTVSPost2010Prop46
 90
       50
102
RTVSPost2010PropOp46
 70
     1
102
RTVSPost2010Prop47
 90
       50
102
RTVSPost2010PropOp47
 70
     1
102
RTVSPost2010Prop48
 90
       50
102
RTVSPost2010PropOp48
 70
     1
102
RTVSPost2010Prop49
280
     0
102
RTVSPost2010PropOp49
 70
     1
102
RTVSPost2010Prop50
 90
       50
102
RTVSPost2010PropOp50
 70
     1
102
RTVSPost2010Prop51ColorIndex
 90
      256
102
RTVSPost2010Prop51ColorRGB
 90
-16777216
102
RTVSPost2010PropOp51
 70
     0
102
RTVSPost2010Prop52
140
1.0
102
RTVSPost2010PropOp52
 70
     0
102
RTVSPost2010Prop53
 90
        2
102
RTVSPost2010PropOp53
 70
     1
102
RTVSPost2010Prop54
  1
strokes_ogs.tif
102
RTVSPost2010PropOp54
 70
     1
102
RTVSPost2010Prop55
280
     0
102
RTVSPost2010PropOp55
 70
     1
102
RTVSPost2010Prop56
140
1.0
102
RTVSPost2010PropOp56
 70
     1
102
RTVSPost2010Prop57
140
1.0
102
RTVSPost2010PropOp57
 70
     1
  0
XRECORD
  5
13C
102
{ACAD_REACTORS
330
13B
102
}
330
13B
100
AcDbXrecord
280
     1
102
RTVSPost2010Prop28
280
     0
102
RTVSPost2010PropOp28
 70
     1
102
RTVSPost2010Prop29
280
     1
102
RTVSPost2010PropOp29
 70
     1
102
RTVSPost2010Prop30
280
     1
102
RTVSPost2010PropOp30
 70
     1
102
RTVSPost2010Prop31
280
     0
102
RTVSPost2010PropOp31
 70
     1
102
RTVSPost2010Prop32
280
     0
102
RTVSPost2010PropOp32
 70
     1
102
RTVSPost2010Prop33
280
     0
102
RTVSPost2010PropOp33
 70
     1
102
RTVSPost2010Prop34
280
     0
102
RTVSPost2010PropOp34
 70
     1
102
RTVSPost2010Prop35
280
     0
102
RTVSPost2010PropOp35
 70
     1
102
RTVSPost2010Prop36
280
     0
102
RTVSPost2010PropOp36
 70
     1
102
RTVSPost2010Prop37
 90
       50
102
RTVSPost2010PropOp37
 70
     1
102
RTVSPost2010Prop38
140
0.0
102
RTVSPost2010PropOp38
 70
     1
102
RTVSPost2010Prop39
140
1.0
102
RTVSPost2010PropOp39
 70
     1
102
RTVSPost2010Prop40
 90
        0
102
RTVSPost2010PropOp40
 70
     1
102
RTVSPost2010Prop41ColorIndex
 90
       18
102
RTVSPost2010Prop41ColorRGB
 90
        0
102
RTVSPost2010PropOp41
 70
     1
102
RTVSPost2010Prop42
 90
       50
102
RTVSPost2010PropOp42
 70
     1
102
RTVSPost2010Prop43
 90
        3
102
RTVSPost2010PropOp43
 70
     1
102
RTVSPost2010Prop44ColorIndex
 90
        5
102
RTVSPost2010Prop44ColorRGB
 90
      255
102
RTVSPost2010PropOp44
 70
     1
102
RTVSPost2010Prop45
280
     0
102
RTVSPost2010PropOp45
 70
     1
102
RTVSPost2010Prop46
 90
       50
102
RTVSPost2010PropOp46
 70
     1
102
RTVSPost2010Prop47
 90
       50
102
RTVSPost2010PropOp47
 70
     1
102
RTVSPost2010Prop48
 90
       50
102
RTVSPost2010PropOp48
 70
     1
102
RTVSPost2010Prop49
280
     0
102
RTVSPost2010PropOp49
 70
     1
102
RTVSPost2010Prop50
 90
       50
102
RTVSPost2010PropOp50
 70
     1
102
RTVSPost2010Prop51ColorIndex
 90
      256
102
RTVSPost2010Prop51ColorRGB
 90
-16777216
102
RTVSPost2010PropOp51
 70
     0
102
RTVSPost2010Prop52
140
1.0
102
RTVSPost2010PropOp52
 70
     0
102
RTVSPost2010Prop53
 90
        2
102
RTVSPost2010PropOp53
 70
     1
102
RTVSPost2010Prop54
  1
strokes_ogs.tif
102
RTVSPost2010PropOp54
 70
     1
102
RTVSPost2010Prop55
280
     0
102
RTVSPost2010PropOp55
 70
     1
102
RTVSPost2010Prop56
140
1.0
102
RTVSPost2010PropOp56
 70
     1
102
RTVSPost2010Prop57
140
1.0
102
RTVSPost2010PropOp57
 70
     1
  0
XRECORD
  5
13A
102
{ACAD_REACTORS
330
139
102
}
330
139
100
AcDbXrecord
280
     1
102
RTVSPost2010Prop28
280
     0
102
RTVSPost2010PropOp28
 70
     1
102
RTVSPost2010Prop29
280
     1
102
RTVSPost2010PropOp29
 70
     1
102
RTVSPost2010Prop30
280
     1
102
RTVSPost2010PropOp30
 70
     1
102
RTVSPost2010Prop31
280
     0
102
RTVSPost2010PropOp31
 70
     1
102
RTVSPost2010Prop32
280
     0
102
RTVSPost2010PropOp32
 70
     1
102
RTVSPost2010Prop33
280
     0
102
RTVSPost2010PropOp33
 70
     1
102
RTVSPost2010Prop34
280
     0
102
RTVSPost2010PropOp34
 70
     1
102
RTVSPost2010Prop35
280
     0
102
RTVSPost2010PropOp35
 70
     1
102
RTVSPost2010Prop36
280
     0
102
RTVSPost2010PropOp36
 70
     1
102
RTVSPost2010Prop37
 90
       50
102
RTVSPost2010PropOp37
 70
     1
102
RTVSPost2010Prop38
140
0.0
102
RTVSPost2010PropOp38
 70
     1
102
RTVSPost2010Prop39
140
1.0
102
RTVSPost2010PropOp39
 70
     1
102
RTVSPost2010Prop40
 90
        0
102
RTVSPost2010PropOp40
 70
     1
102
RTVSPost2010Prop41ColorIndex
 90
       18
102
RTVSPost2010Prop41ColorRGB
 90
        0
102
RTVSPost2010PropOp41
 70
     1
102
RTVSPost2010Prop42
 90
       50
102
RTVSPost2010PropOp42
 70
     1
102
RTVSPost2010Prop43
 90
        3
102
RTVSPost2010PropOp43
 70
     1
102
RTVSPost2010Prop44ColorIndex
 90
        5
102
RTVSPost2010Prop44ColorRGB
 90
      255
102
RTVSPost2010PropOp44
 70
     1
102
RTVSPost2010Prop45
280
     0
102
RTVSPost2010PropOp45
 70
     1
102
RTVSPost2010Prop46
 90
       50
102
RTVSPost2010PropOp46
 70
     1
102
RTVSPost2010Prop47
 90
       50
102
RTVSPost2010PropOp47
 70
     1
102
RTVSPost2010Prop48
 90
       50
102
RTVSPost2010PropOp48
 70
     1
102
RTVSPost2010Prop49
280
     0
102
RTVSPost2010PropOp49
 70
     1
102
RTVSPost2010Prop50
 90
       50
102
RTVSPost2010PropOp50
 70
     1
102
RTVSPost2010Prop51ColorIndex
 90
      256
102
RTVSPost2010Prop51ColorRGB
 90
-16777216
102
RTVSPost2010PropOp51
 70
     0
102
RTVSPost2010Prop52
140
1.0
102
RTVSPost2010PropOp52
 70
     0
102
RTVSPost2010Prop53
 90
        2
102
RTVSPost2010PropOp53
 70
     1
102
RTVSPost2010Prop54
  1
strokes_ogs.tif
102
RTVSPost2010PropOp54
 70
     1
102
RTVSPost2010Prop55
280
     0
102
RTVSPost2010PropOp55
 70
     1
102
RTVSPost2010Prop56
140
1.0
102
RTVSPost2010PropOp56
 70
     1
102
RTVSPost2010Prop57
140
1.0
102
RTVSPost2010PropOp57
 70
     1
  0
XRECORD
  5
134
102
{ACAD_REACTORS
330
133
102
}
330
133
100
AcDbXrecord
280
     1
102
RTVSPost2010Prop28
280
     0
102
RTVSPost2010PropOp28
 70
     1
102
RTVSPost2010Prop29
280
     1
102
RTVSPost2010PropOp29
 70
     1
102
RTVSPost2010Prop30
280
     1
102
RTVSPost2010PropOp30
 70
     1
102
RTVSPost2010Prop31
280
     0
102
RTVSPost2010PropOp31
 70
     1
102
RTVSPost2010Prop32
280
     0
102
RTVSPost2010PropOp32
 70
     1
102
RTVSPost2010Prop33
280
     0
102
RTVSPost2010PropOp33
 70
     1
102
RTVSPost2010Prop34
280
     0
102
RTVSPost2010PropOp34
 70
     1
102
RTVSPost2010Prop35
280
     0
102
RTVSPost2010PropOp35
 70
     1
102
RTVSPost2010Prop36
280
     0
102
RTVSPost2010PropOp36
 70
     1
102
RTVSPost2010Prop37
 90
       50
102
RTVSPost2010PropOp37
 70
     1
102
RTVSPost2010Prop38
140
0.0
102
RTVSPost2010PropOp38
 70
     1
102
RTVSPost2010Prop39
140
1.0
102
RTVSPost2010PropOp39
 70
     1
102
RTVSPost2010Prop40
 90
        0
102
RTVSPost2010PropOp40
 70
     1
102
RTVSPost2010Prop41ColorIndex
 90
       18
102
RTVSPost2010Prop41ColorRGB
 90
        0
102
RTVSPost2010PropOp41
 70
     1
102
RTVSPost2010Prop42
 90
       50
102
RTVSPost2010PropOp42
 70
     1
102
RTVSPost2010Prop43
 90
        3
102
RTVSPost2010PropOp43
 70
     1
102
RTVSPost2010Prop44ColorIndex
 90
        5
102
RTVSPost2010Prop44ColorRGB
 90
      255
102
RTVSPost2010PropOp44
 70
     1
102
RTVSPost2010Prop45
280
     0
102
RTVSPost2010PropOp45
 70
     1
102
RTVSPost2010Prop46
 90
       50
102
RTVSPost2010PropOp46
 70
     1
102
RTVSPost2010Prop47
 90
       50
102
RTVSPost2010PropOp47
 70
     1
102
RTVSPost2010Prop48
 90
       50
102
RTVSPost2010PropOp48
 70
     1
102
RTVSPost2010Prop49
280
     0
102
RTVSPost2010PropOp49
 70
     1
102
RTVSPost2010Prop50
 90
       50
102
RTVSPost2010PropOp50
 70
     1
102
RTVSPost2010Prop51ColorIndex
 90
      256
102
RTVSPost2010Prop51ColorRGB
 90
-16777216
102
RTVSPost2010PropOp51
 70
     0
102
RTVSPost2010Prop52
140
1.0
102
RTVSPost2010PropOp52
 70
     0
102
RTVSPost2010Prop53
 90
        2
102
RTVSPost2010PropOp53
 70
     1
102
RTVSPost2010Prop54
  1
strokes_ogs.tif
102
RTVSPost2010PropOp54
 70
     1
102
RTVSPost2010Prop55
280
     0
102
RTVSPost2010PropOp55
 70
     1
102
RTVSPost2010Prop56
140
1.0
102
RTVSPost2010PropOp56
 70
     1
102
RTVSPost2010Prop57
140
1.0
102
RTVSPost2010PropOp57
 70
     1
  0
XRECORD
  5
136
102
{ACAD_REACTORS
330
135
102
}
330
135
100
AcDbXrecord
280
     1
102
RTVSPost2010Prop28
280
     0
102
RTVSPost2010PropOp28
 70
     1
102
RTVSPost2010Prop29
280
     1
102
RTVSPost2010PropOp29
 70
     1
102
RTVSPost2010Prop30
280
     1
102
RTVSPost2010PropOp30
 70
     1
102
RTVSPost2010Prop31
280
     0
102
RTVSPost2010PropOp31
 70
     1
102
RTVSPost2010Prop32
280
     0
102
RTVSPost2010PropOp32
 70
     1
102
RTVSPost2010Prop33
280
     0
102
RTVSPost2010PropOp33
 70
     1
102
RTVSPost2010Prop34
280
     0
102
RTVSPost2010PropOp34
 70
     1
102
RTVSPost2010Prop35
280
     0
102
RTVSPost2010PropOp35
 70
     1
102
RTVSPost2010Prop36
280
     0
102
RTVSPost2010PropOp36
 70
     1
102
RTVSPost2010Prop37
 90
       50
102
RTVSPost2010PropOp37
 70
     1
102
RTVSPost2010Prop38
140
0.0
102
RTVSPost2010PropOp38
 70
     1
102
RTVSPost2010Prop39
140
1.0
102
RTVSPost2010PropOp39
 70
     1
102
RTVSPost2010Prop40
 90
        0
102
RTVSPost2010PropOp40
 70
     1
102
RTVSPost2010Prop41ColorIndex
 90
       18
102
RTVSPost2010Prop41ColorRGB
 90
        0
102
RTVSPost2010PropOp41
 70
     1
102
RTVSPost2010Prop42
 90
       50
102
RTVSPost2010PropOp42
 70
     1
102
RTVSPost2010Prop43
 90
        3
102
RTVSPost2010PropOp43
 70
     1
102
RTVSPost2010Prop44ColorIndex
 90
        5
102
RTVSPost2010Prop44ColorRGB
 90
      255
102
RTVSPost2010PropOp44
 70
     1
102
RTVSPost2010Prop45
280
     0
102
RTVSPost2010PropOp45
 70
     1
102
RTVSPost2010Prop46
 90
       50
102
RTVSPost2010PropOp46
 70
     1
102
RTVSPost2010Prop47
 90
       50
102
RTVSPost2010PropOp47
 70
     1
102
RTVSPost2010Prop48
 90
       50
102
RTVSPost2010PropOp48
 70
     1
102
RTVSPost2010Prop49
280
     0
102
RTVSPost2010PropOp49
 70
     1
102
RTVSPost2010Prop50
 90
       50
102
RTVSPost2010PropOp50
 70
     1
102
RTVSPost2010Prop51ColorIndex
 90
      256
102
RTVSPost2010Prop51ColorRGB
 90
-16777216
102
RTVSPost2010PropOp51
 70
     0
102
RTVSPost2010Prop52
140
1.0
102
RTVSPost2010PropOp52
 70
     0
102
RTVSPost2010Prop53
 90
        2
102
RTVSPost2010PropOp53
 70
     1
102
RTVSPost2010Prop54
  1
strokes_ogs.tif
102
RTVSPost2010PropOp54
 70
     1
102
RTVSPost2010Prop55
280
     0
102
RTVSPost2010PropOp55
 70
     1
102
RTVSPost2010Prop56
140
1.0
102
RTVSPost2010PropOp56
 70
     1
102
RTVSPost2010Prop57
140
1.0
102
RTVSPost2010PropOp57
 70
     1
  0
XRECORD
  5
12C
102
{ACAD_REACTORS
330
12B
102
}
330
12B
100
AcDbXrecord
280
     1
102
RTVSPost2010Prop28
280
     0
102
RTVSPost2010PropOp28
 70
     1
102
RTVSPost2010Prop29
280
     1
102
RTVSPost2010PropOp29
 70
     1
102
RTVSPost2010Prop30
280
     1
102
RTVSPost2010PropOp30
 70
     1
102
RTVSPost2010Prop31
280
     0
102
RTVSPost2010PropOp31
 70
     1
102
RTVSPost2010Prop32
280
     0
102
RTVSPost2010PropOp32
 70
     1
102
RTVSPost2010Prop33
280
     0
102
RTVSPost2010PropOp33
 70
     1
102
RTVSPost2010Prop34
280
     0
102
RTVSPost2010PropOp34
 70
     1
102
RTVSPost2010Prop35
280
     0
102
RTVSPost2010PropOp35
 70
     1
102
RTVSPost2010Prop36
280
     0
102
RTVSPost2010PropOp36
 70
     1
102
RTVSPost2010Prop37
 90
       50
102
RTVSPost2010PropOp37
 70
     1
102
RTVSPost2010Prop38
140
0.0
102
RTVSPost2010PropOp38
 70
     1
102
RTVSPost2010Prop39
140
1.0
102
RTVSPost2010PropOp39
 70
     1
102
RTVSPost2010Prop40
 90
        0
102
RTVSPost2010PropOp40
 70
     1
102
RTVSPost2010Prop41ColorIndex
 90
       18
102
RTVSPost2010Prop41ColorRGB
 90
        0
102
RTVSPost2010PropOp41
 70
     1
102
RTVSPost2010Prop42
 90
       50
102
RTVSPost2010PropOp42
 70
     1
102
RTVSPost2010Prop43
 90
        3
102
RTVSPost2010PropOp43
 70
     1
102
RTVSPost2010Prop44ColorIndex
 90
        5
102
RTVSPost2010Prop44ColorRGB
 90
      255
102
RTVSPost2010PropOp44
 70
     1
102
RTVSPost2010Prop45
280
     0
102
RTVSPost2010PropOp45
 70
     1
102
RTVSPost2010Prop46
 90
       50
102
RTVSPost2010PropOp46
 70
     1
102
RTVSPost2010Prop47
 90
       50
102
RTVSPost2010PropOp47
 70
     1
102
RTVSPost2010Prop48
 90
       50
102
RTVSPost2010PropOp48
 70
     1
102
RTVSPost2010Prop49
280
     0
102
RTVSPost2010PropOp49
 70
     1
102
RTVSPost2010Prop50
 90
       50
102
RTVSPost2010PropOp50
 70
     1
102
RTVSPost2010Prop51ColorIndex
 90
      256
102
RTVSPost2010Prop51ColorRGB
 90
-16777216
102
RTVSPost2010PropOp51
 70
     0
102
RTVSPost2010Prop52
140
1.0
102
RTVSPost2010PropOp52
 70
     0
102
RTVSPost2010Prop53
 90
        2
102
RTVSPost2010PropOp53
 70
     1
102
RTVSPost2010Prop54
  1
strokes_ogs.tif
102
RTVSPost2010PropOp54
 70
     1
102
RTVSPost2010Prop55
280
     0
102
RTVSPost2010PropOp55
 70
     1
102
RTVSPost2010Prop56
140
1.0
102
RTVSPost2010PropOp56
 70
     1
102
RTVSPost2010Prop57
140
1.0
102
RTVSPost2010PropOp57
 70
     1
  0
XRECORD
  5
120
102
{ACAD_REACTORS
330
11F
102
}
330
11F
100
AcDbXrecord
280
     1
102
RTVSPost2010Prop28
280
     0
102
RTVSPost2010PropOp28
 70
     1
102
RTVSPost2010Prop29
280
     1
102
RTVSPost2010PropOp29
 70
     1
102
RTVSPost2010Prop30
280
     1
102
RTVSPost2010PropOp30
 70
     1
102
RTVSPost2010Prop31
280
     0
102
RTVSPost2010PropOp31
 70
     1
102
RTVSPost2010Prop32
280
     0
102
RTVSPost2010PropOp32
 70
     1
102
RTVSPost2010Prop33
280
     0
102
RTVSPost2010PropOp33
 70
     1
102
RTVSPost2010Prop34
280
     0
102
RTVSPost2010PropOp34
 70
     1
102
RTVSPost2010Prop35
280
     0
102
RTVSPost2010PropOp35
 70
     1
102
RTVSPost2010Prop36
280
     0
102
RTVSPost2010PropOp36
 70
     1
102
RTVSPost2010Prop37
 90
       50
102
RTVSPost2010PropOp37
 70
     1
102
RTVSPost2010Prop38
140
0.0
102
RTVSPost2010PropOp38
 70
     1
102
RTVSPost2010Prop39
140
1.0
102
RTVSPost2010PropOp39
 70
     1
102
RTVSPost2010Prop40
 90
        0
102
RTVSPost2010PropOp40
 70
     1
102
RTVSPost2010Prop41ColorIndex
 90
       18
102
RTVSPost2010Prop41ColorRGB
 90
        0
102
RTVSPost2010PropOp41
 70
     1
102
RTVSPost2010Prop42
 90
       50
102
RTVSPost2010PropOp42
 70
     1
102
RTVSPost2010Prop43
 90
        3
102
RTVSPost2010PropOp43
 70
     1
102
RTVSPost2010Prop44ColorIndex
 90
        5
102
RTVSPost2010Prop44ColorRGB
 90
      255
102
RTVSPost2010PropOp44
 70
     1
102
RTVSPost2010Prop45
280
     0
102
RTVSPost2010PropOp45
 70
     1
102
RTVSPost2010Prop46
 90
       50
102
RTVSPost2010PropOp46
 70
     1
102
RTVSPost2010Prop47
 90
       50
102
RTVSPost2010PropOp47
 70
     1
102
RTVSPost2010Prop48
 90
       50
102
RTVSPost2010PropOp48
 70
     1
102
RTVSPost2010Prop49
280
     0
102
RTVSPost2010PropOp49
 70
     1
102
RTVSPost2010Prop50
 90
       50
102
RTVSPost2010PropOp50
 70
     1
102
RTVSPost2010Prop51ColorIndex
 90
      256
102
RTVSPost2010Prop51ColorRGB
 90
-16777216
102
RTVSPost2010PropOp51
 70
     0
102
RTVSPost2010Prop52
140
1.0
102
RTVSPost2010PropOp52
 70
     0
102
RTVSPost2010Prop53
 90
        2
102
RTVSPost2010PropOp53
 70
     1
102
RTVSPost2010Prop54
  1
strokes_ogs.tif
102
RTVSPost2010PropOp54
 70
     1
102
RTVSPost2010Prop55
280
     0
102
RTVSPost2010PropOp55
 70
     1
102
RTVSPost2010Prop56
140
1.0
102
RTVSPost2010PropOp56
 70
     1
102
RTVSPost2010Prop57
140
1.0
102
RTVSPost2010PropOp57
 70
     1
  0
XRECORD
  5
138
102
{ACAD_REACTORS
330
137
102
}
330
137
100
AcDbXrecord
280
     1
102
RTVSPost2010Prop28
280
     0
102
RTVSPost2010PropOp28
 70
     1
102
RTVSPost2010Prop29
280
     1
102
RTVSPost2010PropOp29
 70
     1
102
RTVSPost2010Prop30
280
     1
102
RTVSPost2010PropOp30
 70
     1
102
RTVSPost2010Prop31
280
     0
102
RTVSPost2010PropOp31
 70
     1
102
RTVSPost2010Prop32
280
     0
102
RTVSPost2010PropOp32
 70
     1
102
RTVSPost2010Prop33
280
     0
102
RTVSPost2010PropOp33
 70
     1
102
RTVSPost2010Prop34
280
     0
102
RTVSPost2010PropOp34
 70
     1
102
RTVSPost2010Prop35
280
     0
102
RTVSPost2010PropOp35
 70
     1
102
RTVSPost2010Prop36
280
     0
102
RTVSPost2010PropOp36
 70
     1
102
RTVSPost2010Prop37
 90
       50
102
RTVSPost2010PropOp37
 70
     1
102
RTVSPost2010Prop38
140
0.0
102
RTVSPost2010PropOp38
 70
     1
102
RTVSPost2010Prop39
140
1.0
102
RTVSPost2010PropOp39
 70
     1
102
RTVSPost2010Prop40
 90
        0
102
RTVSPost2010PropOp40
 70
     1
102
RTVSPost2010Prop41ColorIndex
 90
       18
102
RTVSPost2010Prop41ColorRGB
 90
        0
102
RTVSPost2010PropOp41
 70
     1
102
RTVSPost2010Prop42
 90
       50
102
RTVSPost2010PropOp42
 70
     1
102
RTVSPost2010Prop43
 90
        3
102
RTVSPost2010PropOp43
 70
     1
102
RTVSPost2010Prop44ColorIndex
 90
        5
102
RTVSPost2010Prop44ColorRGB
 90
      255
102
RTVSPost2010PropOp44
 70
     1
102
RTVSPost2010Prop45
280
     0
102
RTVSPost2010PropOp45
 70
     1
102
RTVSPost2010Prop46
 90
       50
102
RTVSPost2010PropOp46
 70
     1
102
RTVSPost2010Prop47
 90
       50
102
RTVSPost2010PropOp47
 70
     1
102
RTVSPost2010Prop48
 90
       50
102
RTVSPost2010PropOp48
 70
     1
102
RTVSPost2010Prop49
280
     0
102
RTVSPost2010PropOp49
 70
     1
102
RTVSPost2010Prop50
 90
       50
102
RTVSPost2010PropOp50
 70
     1
102
RTVSPost2010Prop51ColorIndex
 90
      256
102
RTVSPost2010Prop51ColorRGB
 90
-16777216
102
RTVSPost2010PropOp51
 70
     0
102
RTVSPost2010Prop52
140
1.0
102
RTVSPost2010PropOp52
 70
     0
102
RTVSPost2010Prop53
 90
        2
102
RTVSPost2010PropOp53
 70
     1
102
RTVSPost2010Prop54
  1
strokes_ogs.tif
102
RTVSPost2010PropOp54
 70
     1
102
RTVSPost2010Prop55
280
     0
102
RTVSPost2010PropOp55
 70
     1
102
RTVSPost2010Prop56
140
1.0
102
RTVSPost2010PropOp56
 70
     1
102
RTVSPost2010Prop57
140
1.0
102
RTVSPost2010PropOp57
 70
     1
  0
ENDSEC
  0
EOF
