  0
SECTION
  2
HEADER
  9
$ACADVER
  1
AC1024
  9
$ACADMAINTVER
 70
   226
  9
$DWGCODEPAGE
  3
ANSI_932
  9
$INSBASE
 10
0.0
 20
0.0
 30
0.0
  9
$EXTMIN
 10
1.000000000000000E+20
 20
1.000000000000000E+20
 30
1.000000000000000E+20
  9
$EXTMAX
 10
-1.000000000000000E+20
 20
-1.000000000000000E+20
 30
-1.000000000000000E+20
  9
$LIMMIN
 10
0.0
 20
0.0
  9
$LIMMAX
 10
12.0
 20
9.0
  9
$ORTHOMODE
 70
     0
  9
$REGENMODE
 70
     1
  9
$FILLMODE
 70
     1
  9
$QTEXTMODE
 70
     0
  9
$MIRRTEXT
 70
     0
  9
$LTSCALE
 40
1.0
  9
$ATTMODE
 70
     1
  9
$TEXTSIZE
 40
0.2
  9
$TRACEWID
 40
0.05
  9
$TEXTSTYLE
  7
Standard
  9
$CLAYER
  8
0
  9
$CELTYPE
  6
ByLayer
  9
$CECOLOR
 62
   256
  9
$CELTSCALE
 40
1.0
  9
$DISPSILH
 70
     0
  9
$DIMSCALE
 40
1.0
  9
$DIMASZ
 40
0.18
  9
$DIMEXO
 40
0.0625
  9
$DIMDLI
 40
0.38
  9
$DIMRND
 40
0.0
  9
$DIMDLE
 40
0.0
  9
$DIMEXE
 40
0.18
  9
$DIMTP
 40
0.0
  9
$DIMTM
 40
0.0
  9
$DIMTXT
 40
0.18
  9
$DIMCEN
 40
0.09
  9
$DIMTSZ
 40
0.0
  9
$DIMTOL
 70
     0
  9
$DIMLIM
 70
     0
  9
$DIMTIH
 70
     1
  9
$DIMTOH
 70
     1
  9
$DIMSE1
 70
     0
  9
$DIMSE2
 70
     0
  9
$DIMTAD
 70
     0
  9
$DIMZIN
 70
     0
  9
$DIMBLK
  1

  9
$DIMASO
 70
     1
  9
$DIMSHO
 70
     1
  9
$DIMPOST
  1

  9
$DIMAPOST
  1

  9
$DIMALT
 70
     0
  9
$DIMALTD
 70
     2
  9
$DIMALTF
 40
25.4
  9
$DIMLFAC
 40
1.0
  9
$DIMTOFL
 70
     0
  9
$DIMTVP
 40
0.0
  9
$DIMTIX
 70
     0
  9
$DIMSOXD
 70
     0
  9
$DIMSAH
 70
     0
  9
$DIMBLK1
  1

  9
$DIMBLK2
  1

  9
$DIMSTYLE
  2
Standard
  9
$DIMCLRD
 70
     0
  9
$DIMCLRE
 70
     0
  9
$DIMCLRT
 70
     0
  9
$DIMTFAC
 40
1.0
  9
$DIMGAP
 40
0.09
  9
$DIMJUST
 70
     0
  9
$DIMSD1
 70
     0
  9
$DIMSD2
 70
     0
  9
$DIMTOLJ
 70
     1
  9
$DIMTZIN
 70
     0
  9
$DIMALTZ
 70
     0
  9
$DIMALTTZ
 70
     0
  9
$DIMUPT
 70
     0
  9
$DIMDEC
 70
     4
  9
$DIMTDEC
 70
     4
  9
$DIMALTU
 70
     2
  9
$DIMALTTD
 70
     2
  9
$DIMTXSTY
  7
Standard
  9
$DIMAUNIT
 70
     0
  9
$DIMADEC
 70
     0
  9
$DIMALTRND
 40
0.0
  9
$DIMAZIN
 70
     0
  9
$DIMDSEP
 70
    46
  9
$DIMATFIT
 70
     3
  9
$DIMFRAC
 70
     0
  9
$DIMLDRBLK
  1

  9
$DIMLUNIT
 70
     2
  9
$DIMLWD
 70
    -2
  9
$DIMLWE
 70
    -2
  9
$DIMTMOVE
 70
     0
  9
$DIMFXL
 40
1.0
  9
$DIMFXLON
 70
     0
  9
$DIMJOGANG
 40
0.7853981633974483
  9
$DIMTFILL
 70
     0
  9
$DIMTFILLCLR
 70
     0
  9
$DIMARCSYM
 70
     0
  9
$DIMLTYPE
  6

  9
$DIMLTEX1
  6

  9
$DIMLTEX2
  6

  9
$DIMTXTDIRECTION
 70
     0
  9
$LUNITS
 70
     2
  9
$LUPREC
 70
     4
  9
$SKETCHINC
 40
0.1
  9
$FILLETRAD
 40
0.0
  9
$AUNITS
 70
     0
  9
$AUPREC
 70
     0
  9
$MENU
  1
.
  9
$ELEVATION
 40
0.0
  9
$PELEVATION
 40
0.0
  9
$THICKNESS
 40
0.0
  9
$LIMCHECK
 70
     0
  9
$CHAMFERA
 40
0.0
  9
$CHAMFERB
 40
0.0
  9
$CHAMFERC
 40
0.0
  9
$CHAMFERD
 40
0.0
  9
$SKPOLY
 70
     0
  9
$TDCREATE
 40
2459569.489363426
  9
$TDUCREATE
 40
2459569.114363426
  9
$TDUPDATE
 40
2459569.489363426
  9
$TDUUPDATE
 40
2459569.114363426
  9
$TDINDWG
 40
0.0000000000
  9
$TDUSRTIMER
 40
0.0000000000
  9
$USRTIMER
 70
     1
  9
$ANGBASE
 50
0.0
  9
$ANGDIR
 70
     0
  9
$PDMODE
 70
     0
  9
$PDSIZE
 40
0.0
  9
$PLINEWID
 40
0.0
  9
$SPLFRAME
 70
     0
  9
$SPLINETYPE
 70
     6
  9
$SPLINESEGS
 70
     8
  9
$HANDSEED
  5
15F
  9
$SURFTAB1
 70
     6
  9
$SURFTAB2
 70
     6
  9
$SURFTYPE
 70
     6
  9
$SURFU
 70
     6
  9
$SURFV
 70
     6
  9
$UCSBASE
  2

  9
$UCSNAME
  2

  9
$UCSORG
 10
0.0
 20
0.0
 30
0.0
  9
$UCSXDIR
 10
1.0
 20
0.0
 30
0.0
  9
$UCSYDIR
 10
0.0
 20
1.0
 30
0.0
  9
$UCSORTHOREF
  2

  9
$UCSORTHOVIEW
 70
     0
  9
$UCSORGTOP
 10
0.0
 20
0.0
 30
0.0
  9
$UCSORGBOTTOM
 10
0.0
 20
0.0
 30
0.0
  9
$UCSORGLEFT
 10
0.0
 20
0.0
 30
0.0
  9
$UCSORGRIGHT
 10
0.0
 20
0.0
 30
0.0
  9
$UCSORGFRONT
 10
0.0
 20
0.0
 30
0.0
  9
$UCSORGBACK
 10
0.0
 20
0.0
 30
0.0
  9
$PUCSBASE
  2

  9
$PUCSNAME
  2

  9
$PUCSORG
 10
0.0
 20
0.0
 30
0.0
  9
$PUCSXDIR
 10
1.0
 20
0.0
 30
0.0
  9
$PUCSYDIR
 10
0.0
 20
1.0
 30
0.0
  9
$PUCSORTHOREF
  2

  9
$PUCSORTHOVIEW
 70
     0
  9
$PUCSORGTOP
 10
0.0
 20
0.0
 30
0.0
  9
$PUCSORGBOTTOM
 10
0.0
 20
0.0
 30
0.0
  9
$PUCSORGLEFT
 10
0.0
 20
0.0
 30
0.0
  9
$PUCSORGRIGHT
 10
0.0
 20
0.0
 30
0.0
  9
$PUCSORGFRONT
 10
0.0
 20
0.0
 30
0.0
  9
$PUCSORGBACK
 10
0.0
 20
0.0
 30
0.0
  9
$USERI1
 70
     0
  9
$USERI2
 70
     0
  9
$USERI3
 70
     0
  9
$USERI4
 70
     0
  9
$USERI5
 70
     0
  9
$USERR1
 40
0.0
  9
$USERR2
 40
0.0
  9
$USERR3
 40
0.0
  9
$USERR4
 40
0.0
  9
$USERR5
 40
0.0
  9
$WORLDVIEW
 70
     1
  9
$SHADEDGE
 70
     3
  9
$SHADEDIF
 70
    70
  9
$TILEMODE
 70
     1
  9
$MAXACTVP
 70
    64
  9
$PINSBASE
 10
0.0
 20
0.0
 30
0.0
  9
$PLIMCHECK
 70
     0
  9
$PEXTMIN
 10
1.000000000000000E+20
 20
1.000000000000000E+20
 30
1.000000000000000E+20
  9
$PEXTMAX
 10
-1.000000000000000E+20
 20
-1.000000000000000E+20
 30
-1.000000000000000E+20
  9
$PLIMMIN
 10
0.0
 20
0.0
  9
$PLIMMAX
 10
12.0
 20
9.0
  9
$UNITMODE
 70
     0
  9
$VISRETAIN
 70
     1
  9
$PLINEGEN
 70
     0
  9
$PSLTSCALE
 70
     1
  9
$TREEDEPTH
 70
  3020
  9
$CMLSTYLE
  2
Standard
  9
$CMLJUST
 70
     0
  9
$CMLSCALE
 40
1.0
  9
$PROXYGRAPHICS
 70
     1
  9
$MEASUREMENT
 70
     0
  9
$CELWEIGHT
370
    -1
  9
$ENDCAPS
280
     0
  9
$JOINSTYLE
280
     0
  9
$LWDISPLAY
290
     1
  9
$INSUNITS
 70
     4
  9
$HYPERLINKBASE
  1

  9
$STYLESHEET
  1

  9
$XEDIT
290
     1
  9
$CEPSNTYPE
380
     0
  9
$PSTYLEMODE
290
     1
  9
$FINGERPRINTGUID
  2
{227A5336-C412-5943-8BA5-82B6E1048A96}
  9
$VERSIONGUID
  2
{24C9A4FC-6DB3-F048-9C7A-7CD648EC5C1C}
  9
$EXTNAMES
290
     1
  9
$PSVPSCALE
 40
0.0
  9
$OLESTARTUP
290
     0
  9
$SORTENTS
280
   127
  9
$INDEXCTL
280
     0
  9
$HIDETEXT
280
     1
  9
$XCLIPFRAME
280
     2
  9
$HALOGAP
280
     0
  9
$OBSCOLOR
 70
   257
  9
$OBSLTYPE
280
     0
  9
$INTERSECTIONDISPLAY
280
     0
  9
$INTERSECTIONCOLOR
 70
   257
  9
$DIMASSOC
280
     2
  9
$PROJECTNAME
  1

  9
$CAMERADISPLAY
290
     0
  9
$LENSLENGTH
 40
50.0
  9
$CAMERAHEIGHT
 40
0.0
  9
$STEPSPERSEC
 40
2.0
  9
$STEPSIZE
 40
6.0
  9
$3DDWFPREC
 40
2.0
  9
$PSOLWIDTH
 40
0.25
  9
$PSOLHEIGHT
 40
4.0
  9
$LOFTANG1
 40
1.570796326794896
  9
$LOFTANG2
 40
1.570796326794896
  9
$LOFTMAG1
 40
0.0
  9
$LOFTMAG2
 40
0.0
  9
$LOFTPARAM
 70
     7
  9
$LOFTNORMALS
280
     1
  9
$LATITUDE
 40
37.795
  9
$LONGITUDE
 40
-122.394
  9
$NORTHDIRECTION
 40
0.0
  9
$TIMEZONE
 70
 -8000
  9
$LIGHTGLYPHDISPLAY
280
     1
  9
$TILEMODELIGHTSYNCH
280
     1
  9
$CMATERIAL
347
11
  9
$SOLIDHIST
280
     0
  9
$SHOWHIST
280
     1
  9
$DWFFRAME
280
     2
  9
$DGNFRAME
280
     0
  9
$REALWORLDSCALE
290
     1
  9
$INTERFERECOLOR
 62
     1
  9
$INTERFEREOBJVS
345
33
  9
$INTERFEREVPVS
346
30
  9
$CSHADOW
280
     0
  9
$SHADOWPLANELOCATION
 40
0.0
  0
ENDSEC
  0
SECTION
  2
CLASSES
  0
CLASS
  1
ACDBDICTIONARYWDFLT
  2
AcDbDictionaryWithDefault
  3
ObjectDBX Classes
 90
        0
 91
        1
280
     0
281
     0
  0
CLASS
  1
MATERIAL
  2
AcDbMaterial
  3
ObjectDBX Classes
 90
     1153
 91
        3
280
     0
281
     0
  0
CLASS
  1
VISUALSTYLE
  2
AcDbVisualStyle
  3
ObjectDBX Classes
 90
     4095
 91
       24
280
     0
281
     0
  0
CLASS
  1
SCALE
  2
AcDbScale
  3
ObjectDBX Classes
 90
     1153
 91
       17
280
     0
281
     0
  0
CLASS
  1
TABLESTYLE
  2
AcDbTableStyle
  3
ObjectDBX Classes
 90
     4095
 91
        1
280
     0
281
     0
  0
CLASS
  1
MLEADERSTYLE
  2
AcDbMLeaderStyle
  3
ACDB_MLEADERSTYLE_CLASS
 90
     4095
 91
        1
280
     0
281
     0
  0
CLASS
  1
ACDBSECTIONVIEWSTYLE
  2
AcDbSectionViewStyle
  3
ObjectDBX Classes
 90
     1025
 91
        1
280
     0
281
     0
  0
CLASS
  1
ACDBDETAILVIEWSTYLE
  2
AcDbDetailViewStyle
  3
ObjectDBX Classes
 90
     1025
 91
        1
280
     0
281
     0
  0
CLASS
  1
DICTIONARYVAR
  2
AcDbDictionaryVar
  3
ObjectDBX Classes
 90
        0
 91
        5
280
     0
281
     0
  0
CLASS
  1
CELLSTYLEMAP
  2
AcDbCellStyleMap
  3
ObjectDBX Classes
 90
     1152
 91
        1
280
     0
281
     0
  0
ENDSEC
  0
SECTION
  2
TABLES
  0
TABLE
  2
VPORT
  5
8
330
0
100
AcDbSymbolTable
 70
     1
  0
VPORT
  5
57
330
8
100
AcDbSymbolTableRecord
100
AcDbViewportTableRecord
  2
*Active
 70
     0
 10
0.0
 20
0.0
 11
1.0
 21
1.0
 12
0.0
 22
0.0
 13
0.0
 23
0.0
 14
1.0
 24
1.0
 15
0.0
 25
0.0
 16
0.0
 26
0.0
 36
1.0
 17
104.9999999737534
 27
-148.4999999628701
 37
0.0
 40
302.939999924255
 41
0.7070707070707534
 42
50.0
 43
0.0
 44
0.0
 50
0.0
 51
0.0
 71
     0
 72
   100
 73
     1
 74
     0
 75
     1
 76
     0
 77
     0
 78
     0
281
     0
 65
     1
110
0.0
120
0.0
130
0.0
111
1.0
121
0.0
131
0.0
112
0.0
122
1.0
132
0.0
 79
     0
146
0.0
 60
     3
 61
     5
292
     1
282
     1
141
0.0
142
0.0
 63
   250
421
  3355443
  0
ENDTAB
  0
TABLE
  2
LTYPE
  5
5
330
0
100
AcDbSymbolTable
 70
     2
  0
LTYPE
  5
5B
330
5
100
AcDbSymbolTableRecord
100
AcDbLinetypeTableRecord
  2
ByBlock
 70
     0
  3

 72
    65
 73
     0
 40
0.0
  0
LTYPE
  5
5C
330
5
100
AcDbSymbolTableRecord
100
AcDbLinetypeTableRecord
  2
ByLayer
 70
     0
  3

 72
    65
 73
     0
 40
0.0
  0
LTYPE
  5
5D
330
5
100
AcDbSymbolTableRecord
100
AcDbLinetypeTableRecord
  2
Continuous
 70
     0
  3
Solid line
 72
    65
 73
     0
 40
0.0
  0
LTYPE
  5
DE
330
5
100
AcDbSymbolTableRecord
100
AcDbLinetypeTableRecord
  2
AI-Linetype-0
 70
     0
  3
Adobe Illustrator Linetype No. 0
 72
    65
 73
     2
 40
1.411111110758333
 49
0.7055555553791667
 74
     0
 49
-0.7055555553791667
 74
     0
  0
ENDTAB
  0
TABLE
  2
LAYER
  5
2
330
0
100
AcDbSymbolTable
 70
     2
  0
LAYER
  5
54
330
2
100
AcDbSymbolTableRecord
100
AcDbLayerTableRecord
  2
0
 70
     0
 62
     7
  6
Continuous
370
    -3
390
F
347
21
  0
LAYER
  5
78
330
2
100
AcDbSymbolTableRecord
100
AcDbLayerTableRecord
  2
レイヤー 1
 70
     0
 62
     7
  6
Continuous
370
     0
390
F
347
21
  0
ENDTAB
  0
TABLE
  2
STYLE
  5
3
330
0
100
AcDbSymbolTable
 70
     2
  0
STYLE
  5
55
330
3
100
AcDbSymbolTableRecord
100
AcDbTextStyleTableRecord
  2
Standard
 70
     0
 40
0.0
 41
1.0
 50
0.0
 71
     0
 42
0.2
  3
txt
  4

  0
STYLE
  5
5A
330
3
100
AcDbSymbolTableRecord
100
AcDbTextStyleTableRecord
  2
Annotative
 70
     0
 40
0.0
 41
1.0
 50
0.0
 71
     0
 42
0.2
  3
txt
  4

1001
AcadAnnotative
1000
AnnotativeData
1002
{
1070
     1
1070
     1
1002
}
  0
ENDTAB
  0
TABLE
  2
VIEW
  5
6
330
0
100
AcDbSymbolTable
 70
     0
  0
ENDTAB
  0
TABLE
  2
UCS
  5
7
330
0
100
AcDbSymbolTable
 70
     0
  0
ENDTAB
  0
TABLE
  2
APPID
  5
9
330
0
100
AcDbSymbolTable
 70
     2
  0
APPID
  5
56
330
9
100
AcDbSymbolTableRecord
100
AcDbRegAppTableRecord
  2
ACAD
 70
     0
  0
APPID
  5
5E
330
9
100
AcDbSymbolTableRecord
100
AcDbRegAppTableRecord
  2
AcadAnnotative
 70
     0
  0
ENDTAB
  0
TABLE
  2
DIMSTYLE
  5
A
330
0
100
AcDbSymbolTable
 70
     2
100
AcDbDimStyleTable
 71
     0
  0
DIMSTYLE
105
58
330
A
100
AcDbSymbolTableRecord
100
AcDbDimStyleTableRecord
  2
Standard
 70
     0
340
55
  0
DIMSTYLE
105
59
330
A
100
AcDbSymbolTableRecord
100
AcDbDimStyleTableRecord
  2
Annotative
 70
     0
340
55
1001
AcadAnnotative
1000
AnnotativeData
1002
{
1070
     1
1070
     1
1002
}
  0
ENDTAB
  0
TABLE
  2
BLOCK_RECORD
  5
1
330
0
100
AcDbSymbolTable
 70
    14
  0
BLOCK_RECORD
  5
70
330
1
100
AcDbSymbolTableRecord
100
AcDbBlockTableRecord
  2
*Model_Space
340
73
 70
     0
280
     1
281
     0
  0
BLOCK_RECORD
  5
6C
330
1
100
AcDbSymbolTableRecord
100
AcDbBlockTableRecord
  2
*Paper_Space
340
6F
 70
     0
280
     1
281
     0
  0
BLOCK_RECORD
  5
74
330
1
100
AcDbSymbolTableRecord
100
AcDbBlockTableRecord
  2
*Paper_Space0
340
77
 70
     0
280
     1
281
     0
  0
BLOCK_RECORD
  5
8C
330
1
100
AcDbSymbolTableRecord
100
AcDbBlockTableRecord
  2
Block_0
340
0
102
{BLKREFS
331
8D
102
}
 70
     0
280
     1
281
     0
  0
BLOCK_RECORD
  5
90
330
1
100
AcDbSymbolTableRecord
100
AcDbBlockTableRecord
  2
Block_1
340
0
102
{BLKREFS
331
91
102
}
 70
     0
280
     1
281
     0
  0
BLOCK_RECORD
  5
9C
330
1
100
AcDbSymbolTableRecord
100
AcDbBlockTableRecord
  2
Block_2
340
0
102
{BLKREFS
331
9D
102
}
 70
     0
280
     1
281
     0
  0
BLOCK_RECORD
  5
A0
330
1
100
AcDbSymbolTableRecord
100
AcDbBlockTableRecord
  2
Block_3
340
0
102
{BLKREFS
331
A1
102
}
 70
     0
280
     1
281
     0
  0
BLOCK_RECORD
  5
AA
330
1
100
AcDbSymbolTableRecord
100
AcDbBlockTableRecord
  2
Block_4
340
0
102
{BLKREFS
331
AB
102
}
 70
     0
280
     1
281
     0
  0
BLOCK_RECORD
  5
B5
330
1
100
AcDbSymbolTableRecord
100
AcDbBlockTableRecord
  2
Block_5
340
0
102
{BLKREFS
331
B6
102
}
 70
     0
280
     1
281
     0
  0
BLOCK_RECORD
  5
B9
330
1
100
AcDbSymbolTableRecord
100
AcDbBlockTableRecord
  2
Block_6
340
0
102
{BLKREFS
331
BA
102
}
 70
     0
280
     1
281
     0
  0
BLOCK_RECORD
  5
C9
330
1
100
AcDbSymbolTableRecord
100
AcDbBlockTableRecord
  2
Block_7
340
0
102
{BLKREFS
331
CA
102
}
 70
     0
280
     1
281
     0
  0
BLOCK_RECORD
  5
CD
330
1
100
AcDbSymbolTableRecord
100
AcDbBlockTableRecord
  2
Block_8
340
0
102
{BLKREFS
331
CE
102
}
 70
     0
280
     1
281
     0
  0
BLOCK_RECORD
  5
D8
330
1
100
AcDbSymbolTableRecord
100
AcDbBlockTableRecord
  2
Block_9
340
0
102
{BLKREFS
331
D9
102
}
 70
     0
280
     1
281
     0
  0
BLOCK_RECORD
  5
DF
330
1
100
AcDbSymbolTableRecord
100
AcDbBlockTableRecord
  2
Block_10
340
0
102
{BLKREFS
331
E0
102
}
 70
     0
280
     1
281
     0
  0
BLOCK_RECORD
  5
E6
330
1
100
AcDbSymbolTableRecord
100
AcDbBlockTableRecord
  2
Block_11
340
0
102
{BLKREFS
331
E7
102
}
 70
     0
280
     1
281
     0
  0
BLOCK_RECORD
  5
EA
330
1
100
AcDbSymbolTableRecord
100
AcDbBlockTableRecord
  2
Block_12
340
0
102
{BLKREFS
331
EB
102
}
 70
     0
280
     1
281
     0
  0
ENDTAB
  0
ENDSEC
  0
SECTION
  2
BLOCKS
  0
BLOCK
  5
71
330
70
100
AcDbEntity
  8
0
100
AcDbBlockBegin
  2
*Model_Space
 70
     0
 10
0.0
 20
0.0
 30
0.0
  3
*Model_Space
  1

  0
ENDBLK
  5
72
330
70
100
AcDbEntity
  8
0
100
AcDbBlockEnd
  0
BLOCK
  5
6D
330
6C
100
AcDbEntity
 67
     1
  8
0
100
AcDbBlockBegin
  2
*Paper_Space
 70
     0
 10
0.0
 20
0.0
 30
0.0
  3
*Paper_Space
  1

  0
ENDBLK
  5
6E
330
6C
100
AcDbEntity
 67
     1
  8
0
100
AcDbBlockEnd
  0
BLOCK
  5
75
330
74
100
AcDbEntity
 67
     1
  8
0
100
AcDbBlockBegin
  2
*Paper_Space0
 70
     0
 10
0.0
 20
0.0
 30
0.0
  3
*Paper_Space0
  1

  0
ENDBLK
  5
76
330
74
100
AcDbEntity
 67
     1
  8
0
100
AcDbBlockEnd
  0
BLOCK
  5
8E
330
8C
100
AcDbEntity
  8
0
100
AcDbBlockBegin
  2
Block_0
 70
     0
 10
0.0
 20
0.0
 30
0.0
  3
Block_0
  1

  0
INSERT
  5
91
330
8C
100
AcDbEntity
  8
レイヤー 1
100
AcDbBlockReference
  2
Block_1
 10
0.0
 20
0.0
 30
0.0
  0
ENDBLK
  5
8F
330
8C
100
AcDbEntity
  8
0
100
AcDbBlockEnd
  0
BLOCK
  5
92
330
90
100
AcDbEntity
  8
0
100
AcDbBlockBegin
  2
Block_1
 70
     0
 10
0.0
 20
0.0
 30
0.0
  3
Block_1
  1

  0
SPLINE
  5
94
330
90
100
AcDbEntity
  8
レイヤー 1
100
AcDbSpline
210
0.0
220
0.0
230
1.0
 70
    11
 71
     3
 72
    26
 73
    22
 74
     0
 42
0.0000000001
 43
0.0000000001
 40
0.0
 40
0.0
 40
0.0
 40
0.0
 40
1.0
 40
1.0
 40
1.0
 40
2.0
 40
2.0
 40
2.0
 40
3.0
 40
3.0
 40
3.0
 40
4.0
 40
4.0
 40
4.0
 40
5.0
 40
5.0
 40
5.0
 40
6.0
 40
6.0
 40
6.0
 40
7.0
 40
7.0
 40
7.0
 40
7.0
 10
79.38085664248117
 20
-155.461311810093
 30
0.0
 10
79.38085664248117
 20
-155.461311810093
 30
0.0
 10
79.38085664248117
 20
-154.3571587070704
 30
0.0
 10
79.38085664248117
 20
-154.3571587070704
 30
0.0
 10
79.38085664248117
 20
-154.3571587070704
 30
0.0
 10
79.09939234133627
 20
-154.3571587070704
 30
0.0
 10
79.09939234133627
 20
-154.3571587070704
 30
0.0
 10
79.09939234133627
 20
-154.3571587070704
 30
0.0
 10
79.09939234133627
 20
-154.2090196012047
 30
0.0
 10
79.09939234133627
 20
-154.2090196012047
 30
0.0
 10
79.3825791902238
 20
-154.1942056906181
 30
0.0
 10
79.42219778830417
 20
-154.0312526741658
 30
0.0
 10
79.44751924012077
 20
-153.9168755040555
 30
0.0
 10
79.44751924012077
 20
-153.9168755040555
 30
0.0
 10
79.57188718713829
 20
-153.9168755040555
 30
0.0
 10
79.57188718713829
 20
-153.9168755040555
 30
0.0
 10
79.57188718713829
 20
-153.9168755040555
 30
0.0
 10
79.57188718713829
 20
-155.461311810093
 30
0.0
 10
79.57188718713829
 20
-155.461311810093
 30
0.0
 10
79.57188718713829
 20
-155.461311810093
 30
0.0
 10
79.38085664248117
 20
-155.461311810093
 30
0.0
 10
79.38085664248117
 20
-155.461311810093
 30
0.0
  0
HATCH
  5
95
330
90
100
AcDbEntity
  8
レイヤー 1
 62
   250
420
  2299925
440
 33554687
100
AcDbHatch
 10
0.0
 20
0.0
 30
0.0
210
0.0
220
0.0
230
1.0
  2
SOLID
 70
     1
 71
     1
 91
        1
 92
        1
 93
        1
 72
     4
 94
        3
 73
     0
 74
     0
 95
       26
 96
       22
 40
0.0
 40
0.0
 40
0.0
 40
0.0
 40
1.0
 40
1.0
 40
1.0
 40
2.0
 40
2.0
 40
2.0
 40
3.0
 40
3.0
 40
3.0
 40
4.0
 40
4.0
 40
4.0
 40
5.0
 40
5.0
 40
5.0
 40
6.0
 40
6.0
 40
6.0
 40
7.0
 40
7.0
 40
7.0
 40
7.0
 10
79.38085664248117
 20
-155.461311810093
 10
79.38085664248117
 20
-155.461311810093
 10
79.38085664248117
 20
-154.3571587070704
 10
79.38085664248117
 20
-154.3571587070704
 10
79.38085664248117
 20
-154.3571587070704
 10
79.09939234133627
 20
-154.3571587070704
 10
79.09939234133627
 20
-154.3571587070704
 10
79.09939234133627
 20
-154.3571587070704
 10
79.09939234133627
 20
-154.2090196012047
 10
79.09939234133627
 20
-154.2090196012047
 10
79.3825791902238
 20
-154.1942056906181
 10
79.42219778830417
 20
-154.0312526741658
 10
79.44751924012077
 20
-153.9168755040555
 10
79.44751924012077
 20
-153.9168755040555
 10
79.57188718713829
 20
-153.9168755040555
 10
79.57188718713829
 20
-153.9168755040555
 10
79.57188718713829
 20
-153.9168755040555
 10
79.57188718713829
 20
-155.461311810093
 10
79.57188718713829
 20
-155.461311810093
 10
79.57188718713829
 20
-155.461311810093
 10
79.38085664248117
 20
-155.461311810093
 10
79.38085664248117
 20
-155.461311810093
 97
        0
 97
        1
330
94
 75
     2
 76
     1
 98
        1
 10
0.0
 20
0.0
450
        0
451
        0
460
0.0
461
0.0
452
        0
462
0.0
453
        0
470

  0
SPLINE
  5
96
330
90
100
AcDbEntity
  8
レイヤー 1
100
AcDbSpline
210
0.0
220
0.0
230
1.0
 70
    11
 71
     3
 72
    17
 73
    13
 74
     0
 42
0.0000000001
 43
0.0000000001
 40
0.0
 40
0.0
 40
0.0
 40
0.0
 40
1.0
 40
1.0
 40
1.0
 40
2.0
 40
2.0
 40
2.0
 40
3.0
 40
3.0
 40
3.0
 40
4.0
 40
4.0
 40
4.0
 40
4.0
 10
80.04903291184538
 20
-155.461311810093
 30
0.0
 10
80.04903291184538
 20
-155.461311810093
 30
0.0
 10
80.04903291184538
 20
-155.2094753301212
 30
0.0
 10
80.04903291184538
 20
-155.2094753301212
 30
0.0
 10
80.04903291184538
 20
-155.2094753301212
 30
0.0
 10
80.26366236057645
 20
-155.2094753301212
 30
0.0
 10
80.26366236057645
 20
-155.2094753301212
 30
0.0
 10
80.26366236057645
 20
-155.2094753301212
 30
0.0
 10
80.26366236057645
 20
-155.461311810093
 30
0.0
 10
80.26366236057645
 20
-155.461311810093
 30
0.0
 10
80.26366236057645
 20
-155.461311810093
 30
0.0
 10
80.04903291184538
 20
-155.461311810093
 30
0.0
 10
80.04903291184538
 20
-155.461311810093
 30
0.0
  0
HATCH
  5
97
330
90
100
AcDbEntity
  8
レイヤー 1
 62
   250
420
  2299925
440
 33554687
100
AcDbHatch
 10
0.0
 20
0.0
 30
0.0
210
0.0
220
0.0
230
1.0
  2
SOLID
 70
     1
 71
     1
 91
        1
 92
        1
 93
        1
 72
     4
 94
        3
 73
     0
 74
     0
 95
       17
 96
       13
 40
0.0
 40
0.0
 40
0.0
 40
0.0
 40
1.0
 40
1.0
 40
1.0
 40
2.0
 40
2.0
 40
2.0
 40
3.0
 40
3.0
 40
3.0
 40
4.0
 40
4.0
 40
4.0
 40
4.0
 10
80.04903291184538
 20
-155.461311810093
 10
80.04903291184538
 20
-155.461311810093
 10
80.04903291184538
 20
-155.2094753301212
 10
80.04903291184538
 20
-155.2094753301212
 10
80.04903291184538
 20
-155.2094753301212
 10
80.26366236057645
 20
-155.2094753301212
 10
80.26366236057645
 20
-155.2094753301212
 10
80.26366236057645
 20
-155.2094753301212
 10
80.26366236057645
 20
-155.461311810093
 10
80.26366236057645
 20
-155.461311810093
 10
80.26366236057645
 20
-155.461311810093
 10
80.04903291184538
 20
-155.461311810093
 10
80.04903291184538
 20
-155.461311810093
 97
        0
 97
        1
330
96
 75
     2
 76
     1
 98
        1
 10
0.0
 20
0.0
450
        0
451
        0
460
0.0
461
0.0
452
        0
462
0.0
453
        0
470

  0
SPLINE
  5
98
330
90
100
AcDbEntity
  8
レイヤー 1
100
AcDbSpline
210
0.0
220
0.0
230
1.0
 70
     9
 71
     3
 72
    53
 73
    49
 74
     0
 42
0.0000000001
 43
0.0000000001
 40
0.0
 40
0.0
 40
0.0
 40
0.0
 40
1.0
 40
1.0
 40
1.0
 40
2.0
 40
2.0
 40
2.0
 40
3.0
 40
3.0
 40
3.0
 40
4.0
 40
4.0
 40
4.0
 40
5.0
 40
5.0
 40
5.0
 40
6.0
 40
6.0
 40
6.0
 40
7.0
 40
7.0
 40
7.0
 40
8.0
 40
8.0
 40
8.0
 40
9.0
 40
9.0
 40
9.0
 40
10.0
 40
10.0
 40
10.0
 40
11.0
 40
11.0
 40
11.0
 40
12.0
 40
12.0
 40
12.0
 40
13.0
 40
13.0
 40
13.0
 40
14.0
 40
14.0
 40
14.0
 40
15.0
 40
15.0
 40
15.0
 40
16.0
 40
16.0
 40
16.0
 40
16.0
 10
80.87447779011124
 20
-155.5119547137262
 30
0.0
 10
80.80781519247166
 20
-155.5119547137262
 30
0.0
 10
80.72117104101762
 20
-155.4950737458484
 30
0.0
 10
80.63469914433786
 20
-155.4316839889198
 30
0.0
 10
80.48673229324638
 20
-155.3217854429403
 30
0.0
 10
80.46881779672307
 20
-155.1905273049524
 30
0.0
 10
80.45245359316814
 20
-155.082695816264
 30
0.0
 10
80.45245359316814
 20
-155.082695816264
 30
0.0
 10
80.64193384485689
 20
-155.082695816264
 30
0.0
 10
80.64193384485689
 20
-155.082695816264
 30
0.0
 10
80.68878714345627
 20
-155.281477825763
 30
0.0
 10
80.79696314169312
 20
-155.3111056469361
 30
0.0
 10
80.87637259262812
 20
-155.3111056469361
 30
0.0
 10
80.99540064164351
 20
-155.3111056469361
 30
0.0
 10
81.12510848666316
 20
-155.2115423874124
 30
0.0
 10
81.12510848666316
 20
-154.978998442158
 30
0.0
 10
81.12510848666316
 20
-154.7230278476039
 30
0.0
 10
80.97180173756955
 20
-154.6530924092534
 30
0.0
 10
80.8691378921091
 20
-154.6530924092534
 30
0.0
 10
80.8420938925499
 20
-154.6530924092534
 30
0.0
 10
80.72117104101762
 20
-154.6530924092534
 30
0.0
 10
80.6455511951164
 20
-154.7822834899502
 30
0.0
 10
80.6455511951164
 20
-154.7822834899502
 30
0.0
 10
80.49586179628228
 20
-154.7633354647814
 30
0.0
 10
80.49586179628228
 20
-154.7633354647814
 30
0.0
 10
80.49586179628228
 20
-154.7633354647814
 30
0.0
 10
80.59852564174274
 20
-153.9168755040555
 30
0.0
 10
80.59852564174274
 20
-153.9168755040555
 30
0.0
 10
80.59852564174274
 20
-153.9168755040555
 30
0.0
 10
81.26222328697611
 20
-153.9168755040555
 30
0.0
 10
81.26222328697611
 20
-153.9168755040555
 30
0.0
 10
81.26222328697611
 20
-153.9168755040555
 30
0.0
 10
81.26222328697611
 20
-154.1115233989721
 30
0.0
 10
81.26222328697611
 20
-154.1115233989721
 30
0.0
 10
81.26222328697611
 20
-154.1115233989721
 30
0.0
 10
80.73736298979829
 20
-154.1115233989721
 30
0.0
 10
80.73736298979829
 20
-154.1115233989721
 30
0.0
 10
80.73736298979829
 20
-154.1115233989721
 30
0.0
 10
80.68155244293725
 20
-154.5345811245608
 30
0.0
 10
80.68155244293725
 20
-154.5345811245608
 30
0.0
 10
80.73391789431305
 20
-154.5008191888053
 30
0.0
 10
80.80419784221215
 20
-154.4605115716279
 30
0.0
 10
80.90513913992998
 20
-154.4605115716279
 30
0.0
 10
81.12149113640366
 20
-154.4605115716279
 30
0.0
 10
81.32354598661356
 20
-154.6468912373799
 30
0.0
 10
81.32354598661356
 20
-154.9600504169891
 30
0.0
 10
81.32354598661356
 20
-155.2773437111806
 30
0.0
 10
81.1323431871822
 20
-155.5119547137262
 30
0.0
 10
80.87447779011124
 20
-155.5119547137262
 30
0.0
  0
HATCH
  5
99
330
90
100
AcDbEntity
  8
レイヤー 1
 62
   250
420
  2299925
440
 33554687
100
AcDbHatch
 10
0.0
 20
0.0
 30
0.0
210
0.0
220
0.0
230
1.0
  2
SOLID
 70
     1
 71
     1
 91
        1
 92
        1
 93
        1
 72
     4
 94
        3
 73
     0
 74
     0
 95
       53
 96
       49
 40
0.0
 40
0.0
 40
0.0
 40
0.0
 40
1.0
 40
1.0
 40
1.0
 40
2.0
 40
2.0
 40
2.0
 40
3.0
 40
3.0
 40
3.0
 40
4.0
 40
4.0
 40
4.0
 40
5.0
 40
5.0
 40
5.0
 40
6.0
 40
6.0
 40
6.0
 40
7.0
 40
7.0
 40
7.0
 40
8.0
 40
8.0
 40
8.0
 40
9.0
 40
9.0
 40
9.0
 40
10.0
 40
10.0
 40
10.0
 40
11.0
 40
11.0
 40
11.0
 40
12.0
 40
12.0
 40
12.0
 40
13.0
 40
13.0
 40
13.0
 40
14.0
 40
14.0
 40
14.0
 40
15.0
 40
15.0
 40
15.0
 40
16.0
 40
16.0
 40
16.0
 40
16.0
 10
80.87447779011124
 20
-155.5119547137262
 10
80.80781519247166
 20
-155.5119547137262
 10
80.72117104101762
 20
-155.4950737458484
 10
80.63469914433786
 20
-155.4316839889198
 10
80.48673229324638
 20
-155.3217854429403
 10
80.46881779672307
 20
-155.1905273049524
 10
80.45245359316814
 20
-155.082695816264
 10
80.45245359316814
 20
-155.082695816264
 10
80.64193384485689
 20
-155.082695816264
 10
80.64193384485689
 20
-155.082695816264
 10
80.68878714345627
 20
-155.281477825763
 10
80.79696314169312
 20
-155.3111056469361
 10
80.87637259262812
 20
-155.3111056469361
 10
80.99540064164351
 20
-155.3111056469361
 10
81.12510848666316
 20
-155.2115423874124
 10
81.12510848666316
 20
-154.978998442158
 10
81.12510848666316
 20
-154.7230278476039
 10
80.97180173756955
 20
-154.6530924092534
 10
80.8691378921091
 20
-154.6530924092534
 10
80.8420938925499
 20
-154.6530924092534
 10
80.72117104101762
 20
-154.6530924092534
 10
80.6455511951164
 20
-154.7822834899502
 10
80.6455511951164
 20
-154.7822834899502
 10
80.49586179628228
 20
-154.7633354647814
 10
80.49586179628228
 20
-154.7633354647814
 10
80.49586179628228
 20
-154.7633354647814
 10
80.59852564174274
 20
-153.9168755040555
 10
80.59852564174274
 20
-153.9168755040555
 10
80.59852564174274
 20
-153.9168755040555
 10
81.26222328697611
 20
-153.9168755040555
 10
81.26222328697611
 20
-153.9168755040555
 10
81.26222328697611
 20
-153.9168755040555
 10
81.26222328697611
 20
-154.1115233989721
 10
81.26222328697611
 20
-154.1115233989721
 10
81.26222328697611
 20
-154.1115233989721
 10
80.73736298979829
 20
-154.1115233989721
 10
80.73736298979829
 20
-154.1115233989721
 10
80.73736298979829
 20
-154.1115233989721
 10
80.68155244293725
 20
-154.5345811245608
 10
80.68155244293725
 20
-154.5345811245608
 10
80.73391789431305
 20
-154.5008191888053
 10
80.80419784221215
 20
-154.4605115716279
 10
80.90513913992998
 20
-154.4605115716279
 10
81.12149113640366
 20
-154.4605115716279
 10
81.32354598661356
 20
-154.6468912373799
 10
81.32354598661356
 20
-154.9600504169891
 10
81.32354598661356
 20
-155.2773437111806
 10
81.1323431871822
 20
-155.5119547137262
 10
80.87447779011124
 20
-155.5119547137262
 97
        0
 97
        1
330
98
 75
     2
 76
     1
 98
        1
 10
0.0
 20
0.0
450
        0
451
        0
460
0.0
461
0.0
452
        0
462
0.0
453
        0
470

  0
ENDBLK
  5
93
330
90
100
AcDbEntity
  8
0
100
AcDbBlockEnd
  0
BLOCK
  5
9E
330
9C
100
AcDbEntity
  8
0
100
AcDbBlockBegin
  2
Block_2
 70
     0
 10
0.0
 20
0.0
 30
0.0
  3
Block_2
  1

  0
INSERT
  5
A1
330
9C
100
AcDbEntity
  8
レイヤー 1
100
AcDbBlockReference
  2
Block_3
 10
0.0
 20
0.0
 30
0.0
  0
ENDBLK
  5
9F
330
9C
100
AcDbEntity
  8
0
100
AcDbBlockEnd
  0
BLOCK
  5
A2
330
A0
100
AcDbEntity
  8
0
100
AcDbBlockBegin
  2
Block_3
 70
     0
 10
0.0
 20
0.0
 30
0.0
  3
Block_3
  1

  0
SPLINE
  5
A4
330
A0
100
AcDbEntity
  8
レイヤー 1
100
AcDbSpline
210
0.0
220
0.0
230
1.0
 70
    11
 71
     3
 72
    26
 73
    22
 74
     0
 42
0.0000000001
 43
0.0000000001
 40
0.0
 40
0.0
 40
0.0
 40
0.0
 40
1.0
 40
1.0
 40
1.0
 40
2.0
 40
2.0
 40
2.0
 40
3.0
 40
3.0
 40
3.0
 40
4.0
 40
4.0
 40
4.0
 40
5.0
 40
5.0
 40
5.0
 40
6.0
 40
6.0
 40
6.0
 40
7.0
 40
7.0
 40
7.0
 40
7.0
 10
91.93685164802273
 20
-155.461311810093
 30
0.0
 10
91.93685164802273
 20
-155.461311810093
 30
0.0
 10
91.93685164802273
 20
-154.3571587070704
 30
0.0
 10
91.93685164802273
 20
-154.3571587070704
 30
0.0
 10
91.93685164802273
 20
-154.3571587070704
 30
0.0
 10
91.65538734687784
 20
-154.3571587070704
 30
0.0
 10
91.65538734687784
 20
-154.3571587070704
 30
0.0
 10
91.65538734687784
 20
-154.3571587070704
 30
0.0
 10
91.65538734687784
 20
-154.2090196012047
 30
0.0
 10
91.65538734687784
 20
-154.2090196012047
 30
0.0
 10
91.93857419576536
 20
-154.1942056906181
 30
0.0
 10
91.97819279384573
 20
-154.0312526741658
 30
0.0
 10
92.00334199088805
 20
-153.9168755040555
 30
0.0
 10
92.00334199088805
 20
-153.9168755040555
 30
0.0
 10
92.12805444745411
 20
-153.9168755040555
 30
0.0
 10
92.12805444745411
 20
-153.9168755040555
 30
0.0
 10
92.12805444745411
 20
-153.9168755040555
 30
0.0
 10
92.12805444745411
 20
-155.461311810093
 30
0.0
 10
92.12805444745411
 20
-155.461311810093
 30
0.0
 10
92.12805444745411
 20
-155.461311810093
 30
0.0
 10
91.93685164802273
 20
-155.461311810093
 30
0.0
 10
91.93685164802273
 20
-155.461311810093
 30
0.0
  0
HATCH
  5
A5
330
A0
100
AcDbEntity
  8
レイヤー 1
 62
   250
420
  2299925
440
 33554687
100
AcDbHatch
 10
0.0
 20
0.0
 30
0.0
210
0.0
220
0.0
230
1.0
  2
SOLID
 70
     1
 71
     1
 91
        1
 92
        1
 93
        1
 72
     4
 94
        3
 73
     0
 74
     0
 95
       26
 96
       22
 40
0.0
 40
0.0
 40
0.0
 40
0.0
 40
1.0
 40
1.0
 40
1.0
 40
2.0
 40
2.0
 40
2.0
 40
3.0
 40
3.0
 40
3.0
 40
4.0
 40
4.0
 40
4.0
 40
5.0
 40
5.0
 40
5.0
 40
6.0
 40
6.0
 40
6.0
 40
7.0
 40
7.0
 40
7.0
 40
7.0
 10
91.93685164802273
 20
-155.461311810093
 10
91.93685164802273
 20
-155.461311810093
 10
91.93685164802273
 20
-154.3571587070704
 10
91.93685164802273
 20
-154.3571587070704
 10
91.93685164802273
 20
-154.3571587070704
 10
91.65538734687784
 20
-154.3571587070704
 10
91.65538734687784
 20
-154.3571587070704
 10
91.65538734687784
 20
-154.3571587070704
 10
91.65538734687784
 20
-154.2090196012047
 10
91.65538734687784
 20
-154.2090196012047
 10
91.93857419576536
 20
-154.1942056906181
 10
91.97819279384573
 20
-154.0312526741658
 10
92.00334199088805
 20
-153.9168755040555
 10
92.00334199088805
 20
-153.9168755040555
 10
92.12805444745411
 20
-153.9168755040555
 10
92.12805444745411
 20
-153.9168755040555
 10
92.12805444745411
 20
-153.9168755040555
 10
92.12805444745411
 20
-155.461311810093
 10
92.12805444745411
 20
-155.461311810093
 10
92.12805444745411
 20
-155.461311810093
 10
91.93685164802273
 20
-155.461311810093
 10
91.93685164802273
 20
-155.461311810093
 97
        0
 97
        1
330
A4
 75
     2
 76
     1
 98
        1
 10
0.0
 20
0.0
450
        0
451
        0
460
0.0
461
0.0
452
        0
462
0.0
453
        0
470

  0
SPLINE
  5
A6
330
A0
100
AcDbEntity
  8
レイヤー 1
100
AcDbSpline
210
0.0
220
0.0
230
1.0
 70
     9
 71
     3
 72
    26
 73
    22
 74
     0
 42
0.0000000001
 43
0.0000000001
 40
0.0
 40
0.0
 40
0.0
 40
0.0
 40
1.0
 40
1.0
 40
1.0
 40
2.0
 40
2.0
 40
2.0
 40
3.0
 40
3.0
 40
3.0
 40
4.0
 40
4.0
 40
4.0
 40
5.0
 40
5.0
 40
5.0
 40
6.0
 40
6.0
 40
6.0
 40
7.0
 40
7.0
 40
7.0
 40
7.0
 10
92.90423446028089
 20
-155.461311810093
 30
0.0
 10
92.90423446028089
 20
-155.461311810093
 30
0.0
 10
92.70235186484525
 20
-155.461311810093
 30
0.0
 10
92.70235186484525
 20
-155.461311810093
 30
0.0
 10
92.72405596640231
 20
-155.1522867450661
 30
0.0
 10
92.88804251150022
 20
-154.6341443840845
 30
0.0
 10
93.23427460776782
 20
-154.1284043668498
 30
0.0
 10
93.23427460776782
 20
-154.1284043668498
 30
0.0
 10
92.52010631367552
 20
-154.1284043668498
 30
0.0
 10
92.52010631367552
 20
-154.1284043668498
 30
0.0
 10
92.52010631367552
 20
-154.1284043668498
 30
0.0
 10
92.52010631367552
 20
-153.9168755040555
 30
0.0
 10
92.52010631367552
 20
-153.9168755040555
 30
0.0
 10
92.52010631367552
 20
-153.9168755040555
 30
0.0
 10
93.43615720320347
 20
-153.9168755040555
 30
0.0
 10
93.43615720320347
 20
-153.9168755040555
 30
0.0
 10
93.43615720320347
 20
-153.9168755040555
 30
0.0
 10
93.43615720320347
 20
-154.1284043668498
 30
0.0
 10
93.43615720320347
 20
-154.1284043668498
 30
0.0
 10
93.16054956438348
 20
-154.4184814067079
 30
0.0
 10
92.93317326235699
 20
-155.0106933206223
 30
0.0
 10
92.90423446028089
 20
-155.461311810093
 30
0.0
  0
HATCH
  5
A7
330
A0
100
AcDbEntity
  8
レイヤー 1
 62
   250
420
  2299925
440
 33554687
100
AcDbHatch
 10
0.0
 20
0.0
 30
0.0
210
0.0
220
0.0
230
1.0
  2
SOLID
 70
     1
 71
     1
 91
        1
 92
        1
 93
        1
 72
     4
 94
        3
 73
     0
 74
     0
 95
       26
 96
       22
 40
0.0
 40
0.0
 40
0.0
 40
0.0
 40
1.0
 40
1.0
 40
1.0
 40
2.0
 40
2.0
 40
2.0
 40
3.0
 40
3.0
 40
3.0
 40
4.0
 40
4.0
 40
4.0
 40
5.0
 40
5.0
 40
5.0
 40
6.0
 40
6.0
 40
6.0
 40
7.0
 40
7.0
 40
7.0
 40
7.0
 10
92.90423446028089
 20
-155.461311810093
 10
92.90423446028089
 20
-155.461311810093
 10
92.70235186484525
 20
-155.461311810093
 10
92.70235186484525
 20
-155.461311810093
 10
92.72405596640231
 20
-155.1522867450661
 10
92.88804251150022
 20
-154.6341443840845
 10
93.23427460776782
 20
-154.1284043668498
 10
93.23427460776782
 20
-154.1284043668498
 10
92.52010631367552
 20
-154.1284043668498
 10
92.52010631367552
 20
-154.1284043668498
 10
92.52010631367552
 20
-154.1284043668498
 10
92.52010631367552
 20
-153.9168755040555
 10
92.52010631367552
 20
-153.9168755040555
 10
92.52010631367552
 20
-153.9168755040555
 10
93.43615720320347
 20
-153.9168755040555
 10
93.43615720320347
 20
-153.9168755040555
 10
93.43615720320347
 20
-153.9168755040555
 10
93.43615720320347
 20
-154.1284043668498
 10
93.43615720320347
 20
-154.1284043668498
 10
93.16054956438348
 20
-154.4184814067079
 10
92.93317326235699
 20
-155.0106933206223
 10
92.90423446028089
 20
-155.461311810093
 97
        0
 97
        1
330
A6
 75
     2
 76
     1
 98
        1
 10
0.0
 20
0.0
450
        0
451
        0
460
0.0
461
0.0
452
        0
462
0.0
453
        0
470

  0
ENDBLK
  5
A3
330
A0
100
AcDbEntity
  8
0
100
AcDbBlockEnd
  0
BLOCK
  5
AC
330
AA
100
AcDbEntity
  8
0
100
AcDbBlockBegin
  2
Block_4
 70
     0
 10
0.0
 20
0.0
 30
0.0
  3
Block_4
  1

  0
SPLINE
  5
AE
330
AA
100
AcDbEntity
  8
レイヤー 1
100
AcDbSpline
210
0.0
220
0.0
230
1.0
 70
     9
 71
     3
 72
    17
 73
    13
 74
     0
 42
0.0000000001
 43
0.0000000001
 40
0.0
 40
0.0
 40
0.0
 40
0.0
 40
1.0
 40
1.0
 40
1.0
 40
2.0
 40
2.0
 40
2.0
 40
3.0
 40
3.0
 40
3.0
 40
4.0
 40
4.0
 40
4.0
 40
4.0
 10
103.5244303126605
 20
-147.988210683489
 30
0.0
 10
103.5244303126605
 20
-148.2117973804817
 30
0.0
 10
103.7359591754549
 20
-148.2441812780431
 30
0.0
 10
103.8524034028563
 20
-148.2441812780431
 30
0.0
 10
104.028103272604
 20
-148.2441812780431
 30
0.0
 10
104.1910562890564
 20
-148.1628770245912
 30
0.0
 10
104.1910562890564
 20
-148.0061251800123
 30
0.0
 10
104.1910562890564
 20
-147.9031168250034
 30
0.0
 10
104.1318006467101
 20
-147.7535996809435
 30
0.0
 10
103.8462022309829
 20
-147.7535996809435
 30
0.0
 10
103.6219265148931
 20
-147.7535996809435
 30
0.0
 10
103.5244303126605
 20
-147.8724554751846
 30
0.0
 10
103.5244303126605
 20
-147.988210683489
 30
0.0
  0
SPLINE
  5
AF
330
AA
100
AcDbEntity
  8
レイヤー 1
100
AcDbSpline
210
0.0
220
0.0
230
1.0
 70
     9
 71
     3
 72
    32
 73
    28
 74
     0
 42
0.0000000001
 43
0.0000000001
 40
0.0
 40
0.0
 40
0.0
 40
0.0
 40
1.0
 40
1.0
 40
1.0
 40
2.0
 40
2.0
 40
2.0
 40
3.0
 40
3.0
 40
3.0
 40
4.0
 40
4.0
 40
4.0
 40
5.0
 40
5.0
 40
5.0
 40
6.0
 40
6.0
 40
6.0
 40
7.0
 40
7.0
 40
7.0
 40
8.0
 40
8.0
 40
8.0
 40
9.0
 40
9.0
 40
9.0
 40
9.0
 10
104.3832926171333
 20
-148.0023355749786
 30
0.0
 10
104.3832926171333
 20
-148.4426187779935
 30
0.0
 10
103.8293212631052
 20
-148.4498534785125
 30
0.0
 10
103.6153808334711
 20
-148.4498534785125
 30
0.0
 10
103.3849039455079
 20
-148.4498534785125
 30
0.0
 10
102.7375705038295
 20
-148.4333170201833
 30
0.0
 10
102.7375705038295
 20
-147.9699516774172
 30
0.0
 10
102.7375705038295
 20
-147.8221570811
 30
0.0
 10
102.80750594218
 20
-147.6130397851453
 30
0.0
 10
103.1396131469581
 20
-147.580655887584
 30
0.0
 10
103.1396131469581
 20
-147.580655887584
 30
0.0
 10
103.1396131469581
 20
-147.7625569292052
 30
0.0
 10
103.1396131469581
 20
-147.7625569292052
 30
0.0
 10
103.082424561903
 20
-147.7715141774668
 30
0.0
 10
102.9342854560372
 20
-147.7987304318003
 30
0.0
 10
102.9342854560372
 20
-147.9716742251598
 30
0.0
 10
102.9342854560372
 20
-148.2207546287434
 30
0.0
 10
103.262258546233
 20
-148.2548610740474
 30
0.0
 10
103.4672417276054
 20
-148.2658853796002
 30
0.0
 10
103.3890380600902
 20
-148.1863036738909
 30
0.0
 10
103.3297824177439
 20
-148.1287705792872
 30
0.0
 10
103.3297824177439
 20
-147.973741282451
 30
0.0
 10
103.3297824177439
 20
-147.8204345333574
 30
0.0
 10
103.4379584159808
 20
-147.5623968815122
 30
0.0
 10
103.8441351736917
 20
-147.5623968815122
 30
0.0
 10
104.1634955251744
 20
-147.5623968815122
 30
0.0
 10
104.3832926171333
 20
-147.7318955793865
 30
0.0
 10
104.3832926171333
 20
-148.0023355749786
 30
0.0
  0
HATCH
  5
B0
330
AA
100
AcDbEntity
  8
レイヤー 1
 62
   250
420
  2299925
440
 33554687
100
AcDbHatch
 10
0.0
 20
0.0
 30
0.0
210
0.0
220
0.0
230
1.0
  2
SOLID
 70
     1
 71
     1
 91
        2
 92
        1
 93
        1
 72
     4
 94
        3
 73
     0
 74
     0
 95
       17
 96
       13
 40
0.0
 40
0.0
 40
0.0
 40
0.0
 40
1.0
 40
1.0
 40
1.0
 40
2.0
 40
2.0
 40
2.0
 40
3.0
 40
3.0
 40
3.0
 40
4.0
 40
4.0
 40
4.0
 40
4.0
 10
103.5244303126605
 20
-147.988210683489
 10
103.5244303126605
 20
-148.2117973804817
 10
103.7359591754549
 20
-148.2441812780431
 10
103.8524034028563
 20
-148.2441812780431
 10
104.028103272604
 20
-148.2441812780431
 10
104.1910562890564
 20
-148.1628770245912
 10
104.1910562890564
 20
-148.0061251800123
 10
104.1910562890564
 20
-147.9031168250034
 10
104.1318006467101
 20
-147.7535996809435
 10
103.8462022309829
 20
-147.7535996809435
 10
103.6219265148931
 20
-147.7535996809435
 10
103.5244303126605
 20
-147.8724554751846
 10
103.5244303126605
 20
-147.988210683489
 97
        0
 97
        1
330
AE
 92
        1
 93
        1
 72
     4
 94
        3
 73
     0
 74
     0
 95
       32
 96
       28
 40
0.0
 40
0.0
 40
0.0
 40
0.0
 40
1.0
 40
1.0
 40
1.0
 40
2.0
 40
2.0
 40
2.0
 40
3.0
 40
3.0
 40
3.0
 40
4.0
 40
4.0
 40
4.0
 40
5.0
 40
5.0
 40
5.0
 40
6.0
 40
6.0
 40
6.0
 40
7.0
 40
7.0
 40
7.0
 40
8.0
 40
8.0
 40
8.0
 40
9.0
 40
9.0
 40
9.0
 40
9.0
 10
104.3832926171333
 20
-148.0023355749786
 10
104.3832926171333
 20
-148.4426187779935
 10
103.8293212631052
 20
-148.4498534785125
 10
103.6153808334711
 20
-148.4498534785125
 10
103.3849039455079
 20
-148.4498534785125
 10
102.7375705038295
 20
-148.4333170201833
 10
102.7375705038295
 20
-147.9699516774172
 10
102.7375705038295
 20
-147.8221570811
 10
102.80750594218
 20
-147.6130397851453
 10
103.1396131469581
 20
-147.580655887584
 10
103.1396131469581
 20
-147.580655887584
 10
103.1396131469581
 20
-147.7625569292052
 10
103.1396131469581
 20
-147.7625569292052
 10
103.082424561903
 20
-147.7715141774668
 10
102.9342854560372
 20
-147.7987304318003
 10
102.9342854560372
 20
-147.9716742251598
 10
102.9342854560372
 20
-148.2207546287434
 10
103.262258546233
 20
-148.2548610740474
 10
103.4672417276054
 20
-148.2658853796002
 10
103.3890380600902
 20
-148.1863036738909
 10
103.3297824177439
 20
-148.1287705792872
 10
103.3297824177439
 20
-147.973741282451
 10
103.3297824177439
 20
-147.8204345333574
 10
103.4379584159808
 20
-147.5623968815122
 10
103.8441351736917
 20
-147.5623968815122
 10
104.1634955251744
 20
-147.5623968815122
 10
104.3832926171333
 20
-147.7318955793865
 10
104.3832926171333
 20
-148.0023355749786
 97
        0
 97
        1
330
AF
 75
     2
 76
     1
 98
        1
 10
0.0
 20
0.0
450
        0
451
        0
460
0.0
461
0.0
452
        0
462
0.0
453
        0
470

  0
ENDBLK
  5
AD
330
AA
100
AcDbEntity
  8
0
100
AcDbBlockEnd
  0
BLOCK
  5
B7
330
B5
100
AcDbEntity
  8
0
100
AcDbBlockBegin
  2
Block_5
 70
     0
 10
0.0
 20
0.0
 30
0.0
  3
Block_5
  1

  0
INSERT
  5
BA
330
B5
100
AcDbEntity
  8
レイヤー 1
100
AcDbBlockReference
  2
Block_6
 10
0.0
 20
0.0
 30
0.0
  0
ENDBLK
  5
B8
330
B5
100
AcDbEntity
  8
0
100
AcDbBlockEnd
  0
BLOCK
  5
BB
330
B9
100
AcDbEntity
  8
0
100
AcDbBlockBegin
  2
Block_6
 70
     0
 10
0.0
 20
0.0
 30
0.0
  3
Block_6
  1

  0
SPLINE
  5
BD
330
B9
100
AcDbEntity
  8
レイヤー 1
100
AcDbSpline
210
0.0
220
0.0
230
1.0
 70
     9
 71
     3
 72
    17
 73
    13
 74
     0
 42
0.0000000001
 43
0.0000000001
 40
0.0
 40
0.0
 40
0.0
 40
0.0
 40
1.0
 40
1.0
 40
1.0
 40
2.0
 40
2.0
 40
2.0
 40
3.0
 40
3.0
 40
3.0
 40
4.0
 40
4.0
 40
4.0
 40
4.0
 10
107.1655517310211
 20
-152.0827066677085
 30
0.0
 10
107.1655517310211
 20
-152.2952690591484
 30
0.0
 10
107.4490830894571
 20
-152.3352321667773
 30
0.0
 10
107.7939371475307
 20
-152.3352321667773
 30
0.0
 10
108.1132974990133
 20
-152.3352321667773
 30
0.0
 10
108.4219780544917
 20
-152.3045708169586
 30
0.0
 10
108.4219780544917
 20
-152.0827066677085
 30
0.0
 10
108.4219780544917
 20
-151.8715223144627
 30
0.0
 10
108.1408582628953
 20
-151.8301811686397
 30
0.0
 10
107.7939371475307
 20
-151.8301811686397
 30
0.0
 10
107.4742322864995
 20
-151.8301811686397
 30
0.0
 10
107.1655517310211
 20
-151.862565066201
 30
0.0
 10
107.1655517310211
 20
-152.0827066677085
 30
0.0
  0
SPLINE
  5
BE
330
B9
100
AcDbEntity
  8
レイヤー 1
100
AcDbSpline
210
0.0
220
0.0
230
1.0
 70
     9
 71
     3
 72
    29
 73
    25
 74
     0
 42
0.0000000001
 43
0.0000000001
 40
0.0
 40
0.0
 40
0.0
 40
0.0
 40
1.0
 40
1.0
 40
1.0
 40
2.0
 40
2.0
 40
2.0
 40
3.0
 40
3.0
 40
3.0
 40
4.0
 40
4.0
 40
4.0
 40
5.0
 40
5.0
 40
5.0
 40
6.0
 40
6.0
 40
6.0
 40
7.0
 40
7.0
 40
7.0
 40
8.0
 40
8.0
 40
8.0
 40
8.0
 10
108.3882161187363
 20
-151.7437092719599
 30
0.0
 10
108.5976779242395
 20
-151.8356933214161
 30
0.0
 10
108.6166259494083
 20
-151.9834879177333
 30
0.0
 10
108.6166259494083
 20
-152.0827066677085
 30
0.0
 10
108.6166259494083
 20
-152.2198214680214
 30
0.0
 10
108.5701171603574
 20
-152.3403998100052
 30
0.0
 10
108.3882161187363
 20
-152.421704063457
 30
0.0
 10
108.1935682238196
 20
-152.5098985078795
 30
0.0
 10
107.9565456544345
 20
-152.5260904566601
 30
0.0
 10
107.7939371475307
 20
-152.5260904566601
 30
0.0
 10
107.6499321562472
 20
-152.5260904566601
 30
0.0
 10
107.3980956762754
 20
-152.5119655651706
 30
0.0
 10
107.1993136667765
 20
-152.421704063457
 30
0.0
 10
106.9963975426953
 20
-152.3297200140009
 30
0.0
 10
106.9729708933956
 20
-152.1926052136879
 30
0.0
 10
106.9729708933956
 20
-152.0827066677085
 30
0.0
 10
106.9729708933956
 20
-151.9473144151382
 30
0.0
 10
107.0174126251554
 20
-151.8246690158633
 30
0.0
 10
107.1993136667765
 20
-151.7437092719599
 30
0.0
 10
107.391894504402
 20
-151.6589599230227
 30
0.0
 10
107.6203043350741
 20
-151.6389783692083
 30
0.0
 10
107.7939371475307
 20
-151.6389783692083
 30
0.0
 10
107.9651583931476
 20
-151.6389783692083
 30
0.0
 10
108.1956352811108
 20
-151.6572373752801
 30
0.0
 10
108.3882161187363
 20
-151.7437092719599
 30
0.0
  0
HATCH
  5
BF
330
B9
100
AcDbEntity
  8
レイヤー 1
 62
   250
420
  2299925
440
 33554687
100
AcDbHatch
 10
0.0
 20
0.0
 30
0.0
210
0.0
220
0.0
230
1.0
  2
SOLID
 70
     1
 71
     1
 91
        2
 92
        1
 93
        1
 72
     4
 94
        3
 73
     0
 74
     0
 95
       17
 96
       13
 40
0.0
 40
0.0
 40
0.0
 40
0.0
 40
1.0
 40
1.0
 40
1.0
 40
2.0
 40
2.0
 40
2.0
 40
3.0
 40
3.0
 40
3.0
 40
4.0
 40
4.0
 40
4.0
 40
4.0
 10
107.1655517310211
 20
-152.0827066677085
 10
107.1655517310211
 20
-152.2952690591484
 10
107.4490830894571
 20
-152.3352321667773
 10
107.7939371475307
 20
-152.3352321667773
 10
108.1132974990133
 20
-152.3352321667773
 10
108.4219780544917
 20
-152.3045708169586
 10
108.4219780544917
 20
-152.0827066677085
 10
108.4219780544917
 20
-151.8715223144627
 10
108.1408582628953
 20
-151.8301811686397
 10
107.7939371475307
 20
-151.8301811686397
 10
107.4742322864995
 20
-151.8301811686397
 10
107.1655517310211
 20
-151.862565066201
 10
107.1655517310211
 20
-152.0827066677085
 97
        0
 97
        1
330
BD
 92
        1
 93
        1
 72
     4
 94
        3
 73
     0
 74
     0
 95
       29
 96
       25
 40
0.0
 40
0.0
 40
0.0
 40
0.0
 40
1.0
 40
1.0
 40
1.0
 40
2.0
 40
2.0
 40
2.0
 40
3.0
 40
3.0
 40
3.0
 40
4.0
 40
4.0
 40
4.0
 40
5.0
 40
5.0
 40
5.0
 40
6.0
 40
6.0
 40
6.0
 40
7.0
 40
7.0
 40
7.0
 40
8.0
 40
8.0
 40
8.0
 40
8.0
 10
108.3882161187363
 20
-151.7437092719599
 10
108.5976779242395
 20
-151.8356933214161
 10
108.6166259494083
 20
-151.9834879177333
 10
108.6166259494083
 20
-152.0827066677085
 10
108.6166259494083
 20
-152.2198214680214
 10
108.5701171603574
 20
-152.3403998100052
 10
108.3882161187363
 20
-152.421704063457
 10
108.1935682238196
 20
-152.5098985078795
 10
107.9565456544345
 20
-152.5260904566601
 10
107.7939371475307
 20
-152.5260904566601
 10
107.6499321562472
 20
-152.5260904566601
 10
107.3980956762754
 20
-152.5119655651706
 10
107.1993136667765
 20
-152.421704063457
 10
106.9963975426953
 20
-152.3297200140009
 10
106.9729708933956
 20
-152.1926052136879
 10
106.9729708933956
 20
-152.0827066677085
 10
106.9729708933956
 20
-151.9473144151382
 10
107.0174126251554
 20
-151.8246690158633
 10
107.1993136667765
 20
-151.7437092719599
 10
107.391894504402
 20
-151.6589599230227
 10
107.6203043350741
 20
-151.6389783692083
 10
107.7939371475307
 20
-151.6389783692083
 10
107.9651583931476
 20
-151.6389783692083
 10
108.1956352811108
 20
-151.6572373752801
 10
108.3882161187363
 20
-151.7437092719599
 97
        0
 97
        1
330
BE
 75
     2
 76
     1
 98
        1
 10
0.0
 20
0.0
450
        0
451
        0
460
0.0
461
0.0
452
        0
462
0.0
453
        0
470

  0
SPLINE
  5
C0
330
B9
100
AcDbEntity
  8
レイヤー 1
100
AcDbSpline
210
0.0
220
0.0
230
1.0
 70
    11
 71
     3
 72
    17
 73
    13
 74
     0
 42
0.0000000001
 43
0.0000000001
 40
0.0
 40
0.0
 40
0.0
 40
0.0
 40
1.0
 40
1.0
 40
1.0
 40
2.0
 40
2.0
 40
2.0
 40
3.0
 40
3.0
 40
3.0
 40
4.0
 40
4.0
 40
4.0
 40
4.0
 10
108.5659830457752
 20
-151.4560437989415
 30
0.0
 10
108.5659830457752
 20
-151.4560437989415
 30
0.0
 10
108.3141465658034
 20
-151.4560437989415
 30
0.0
 10
108.3141465658034
 20
-151.4560437989415
 30
0.0
 10
108.3141465658034
 20
-151.4560437989415
 30
0.0
 10
108.3141465658034
 20
-151.2414143502105
 30
0.0
 10
108.3141465658034
 20
-151.2414143502105
 30
0.0
 10
108.3141465658034
 20
-151.2414143502105
 30
0.0
 10
108.5659830457752
 20
-151.2414143502105
 30
0.0
 10
108.5659830457752
 20
-151.2414143502105
 30
0.0
 10
108.5659830457752
 20
-151.2414143502105
 30
0.0
 10
108.5659830457752
 20
-151.4560437989415
 30
0.0
 10
108.5659830457752
 20
-151.4560437989415
 30
0.0
  0
HATCH
  5
C1
330
B9
100
AcDbEntity
  8
レイヤー 1
 62
   250
420
  2299925
440
 33554687
100
AcDbHatch
 10
0.0
 20
0.0
 30
0.0
210
0.0
220
0.0
230
1.0
  2
SOLID
 70
     1
 71
     1
 91
        1
 92
        1
 93
        1
 72
     4
 94
        3
 73
     0
 74
     0
 95
       17
 96
       13
 40
0.0
 40
0.0
 40
0.0
 40
0.0
 40
1.0
 40
1.0
 40
1.0
 40
2.0
 40
2.0
 40
2.0
 40
3.0
 40
3.0
 40
3.0
 40
4.0
 40
4.0
 40
4.0
 40
4.0
 10
108.5659830457752
 20
-151.4560437989415
 10
108.5659830457752
 20
-151.4560437989415
 10
108.3141465658034
 20
-151.4560437989415
 10
108.3141465658034
 20
-151.4560437989415
 10
108.3141465658034
 20
-151.4560437989415
 10
108.3141465658034
 20
-151.2414143502105
 10
108.3141465658034
 20
-151.2414143502105
 10
108.3141465658034
 20
-151.2414143502105
 10
108.5659830457752
 20
-151.2414143502105
 10
108.5659830457752
 20
-151.2414143502105
 10
108.5659830457752
 20
-151.2414143502105
 10
108.5659830457752
 20
-151.4560437989415
 10
108.5659830457752
 20
-151.4560437989415
 97
        0
 97
        1
330
C0
 75
     2
 76
     1
 98
        1
 10
0.0
 20
0.0
450
        0
451
        0
460
0.0
461
0.0
452
        0
462
0.0
453
        0
470

  0
SPLINE
  5
C2
330
B9
100
AcDbEntity
  8
レイヤー 1
100
AcDbSpline
210
0.0
220
0.0
230
1.0
 70
    11
 71
     3
 72
    14
 73
    10
 74
     0
 42
0.0000000001
 43
0.0000000001
 40
0.0
 40
0.0
 40
0.0
 40
0.0
 40
1.0
 40
1.0
 40
1.0
 40
2.0
 40
2.0
 40
2.0
 40
3.0
 40
3.0
 40
3.0
 40
3.0
 10
107.36433374052
 20
-150.5165662601139
 30
0.0
 10
107.36433374052
 20
-150.5165662601139
 30
0.0
 10
108.0202799209116
 20
-150.9062065594956
 30
0.0
 10
108.0202799209116
 20
-150.9062065594956
 30
0.0
 10
108.0202799209116
 20
-150.9062065594956
 30
0.0
 10
108.0202799209116
 20
-150.5165662601139
 30
0.0
 10
108.0202799209116
 20
-150.5165662601139
 30
0.0
 10
108.0202799209116
 20
-150.5165662601139
 30
0.0
 10
107.36433374052
 20
-150.5165662601139
 30
0.0
 10
107.36433374052
 20
-150.5165662601139
 30
0.0
  0
SPLINE
  5
C3
330
B9
100
AcDbEntity
  8
レイヤー 1
100
AcDbSpline
210
0.0
220
0.0
230
1.0
 70
    11
 71
     3
 72
    38
 73
    34
 74
     0
 42
0.0000000001
 43
0.0000000001
 40
0.0
 40
0.0
 40
0.0
 40
0.0
 40
1.0
 40
1.0
 40
1.0
 40
2.0
 40
2.0
 40
2.0
 40
3.0
 40
3.0
 40
3.0
 40
4.0
 40
4.0
 40
4.0
 40
5.0
 40
5.0
 40
5.0
 40
6.0
 40
6.0
 40
6.0
 40
7.0
 40
7.0
 40
7.0
 40
8.0
 40
8.0
 40
8.0
 40
9.0
 40
9.0
 40
9.0
 40
10.0
 40
10.0
 40
10.0
 40
11.0
 40
11.0
 40
11.0
 40
11.0
 10
108.2190619304105
 20
-150.3308756134589
 30
0.0
 10
108.2190619304105
 20
-150.3308756134589
 30
0.0
 10
108.5659830457752
 20
-150.3308756134589
 30
0.0
 10
108.5659830457752
 20
-150.3308756134589
 30
0.0
 10
108.5659830457752
 20
-150.3308756134589
 30
0.0
 10
108.5659830457752
 20
-150.5165662601139
 30
0.0
 10
108.5659830457752
 20
-150.5165662601139
 30
0.0
 10
108.5659830457752
 20
-150.5165662601139
 30
0.0
 10
108.2190619304105
 20
-150.5165662601139
 30
0.0
 10
108.2190619304105
 20
-150.5165662601139
 30
0.0
 10
108.2190619304105
 20
-150.5165662601139
 30
0.0
 10
108.2190619304105
 20
-151.0757052573699
 30
0.0
 10
108.2190619304105
 20
-151.0757052573699
 30
0.0
 10
108.2190619304105
 20
-151.0757052573699
 30
0.0
 10
107.9947862143207
 20
-151.0757052573699
 30
0.0
 10
107.9947862143207
 20
-151.0757052573699
 30
0.0
 10
107.9947862143207
 20
-151.0757052573699
 30
0.0
 10
107.0215467397376
 20
-150.496929215848
 30
0.0
 10
107.0215467397376
 20
-150.496929215848
 30
0.0
 10
107.0215467397376
 20
-150.496929215848
 30
0.0
 10
107.0215467397376
 20
-150.3308756134589
 30
0.0
 10
107.0215467397376
 20
-150.3308756134589
 30
0.0
 10
107.0215467397376
 20
-150.3308756134589
 30
0.0
 10
108.0202799209116
 20
-150.3308756134589
 30
0.0
 10
108.0202799209116
 20
-150.3308756134589
 30
0.0
 10
108.0202799209116
 20
-150.3308756134589
 30
0.0
 10
108.0202799209116
 20
-150.1541422150656
 30
0.0
 10
108.0202799209116
 20
-150.1541422150656
 30
0.0
 10
108.0202799209116
 20
-150.1541422150656
 30
0.0
 10
108.2190619304105
 20
-150.1541422150656
 30
0.0
 10
108.2190619304105
 20
-150.1541422150656
 30
0.0
 10
108.2190619304105
 20
-150.1541422150656
 30
0.0
 10
108.2190619304105
 20
-150.3308756134589
 30
0.0
 10
108.2190619304105
 20
-150.3308756134589
 30
0.0
  0
HATCH
  5
C4
330
B9
100
AcDbEntity
  8
レイヤー 1
 62
   250
420
  2299925
440
 33554687
100
AcDbHatch
 10
0.0
 20
0.0
 30
0.0
210
0.0
220
0.0
230
1.0
  2
SOLID
 70
     1
 71
     1
 91
        2
 92
        1
 93
        1
 72
     4
 94
        3
 73
     0
 74
     0
 95
       14
 96
       10
 40
0.0
 40
0.0
 40
0.0
 40
0.0
 40
1.0
 40
1.0
 40
1.0
 40
2.0
 40
2.0
 40
2.0
 40
3.0
 40
3.0
 40
3.0
 40
3.0
 10
107.36433374052
 20
-150.5165662601139
 10
107.36433374052
 20
-150.5165662601139
 10
108.0202799209116
 20
-150.9062065594956
 10
108.0202799209116
 20
-150.9062065594956
 10
108.0202799209116
 20
-150.9062065594956
 10
108.0202799209116
 20
-150.5165662601139
 10
108.0202799209116
 20
-150.5165662601139
 10
108.0202799209116
 20
-150.5165662601139
 10
107.36433374052
 20
-150.5165662601139
 10
107.36433374052
 20
-150.5165662601139
 97
        0
 97
        1
330
C2
 92
        1
 93
        1
 72
     4
 94
        3
 73
     0
 74
     0
 95
       38
 96
       34
 40
0.0
 40
0.0
 40
0.0
 40
0.0
 40
1.0
 40
1.0
 40
1.0
 40
2.0
 40
2.0
 40
2.0
 40
3.0
 40
3.0
 40
3.0
 40
4.0
 40
4.0
 40
4.0
 40
5.0
 40
5.0
 40
5.0
 40
6.0
 40
6.0
 40
6.0
 40
7.0
 40
7.0
 40
7.0
 40
8.0
 40
8.0
 40
8.0
 40
9.0
 40
9.0
 40
9.0
 40
10.0
 40
10.0
 40
10.0
 40
11.0
 40
11.0
 40
11.0
 40
11.0
 10
108.2190619304105
 20
-150.3308756134589
 10
108.2190619304105
 20
-150.3308756134589
 10
108.5659830457752
 20
-150.3308756134589
 10
108.5659830457752
 20
-150.3308756134589
 10
108.5659830457752
 20
-150.3308756134589
 10
108.5659830457752
 20
-150.5165662601139
 10
108.5659830457752
 20
-150.5165662601139
 10
108.5659830457752
 20
-150.5165662601139
 10
108.2190619304105
 20
-150.5165662601139
 10
108.2190619304105
 20
-150.5165662601139
 10
108.2190619304105
 20
-150.5165662601139
 10
108.2190619304105
 20
-151.0757052573699
 10
108.2190619304105
 20
-151.0757052573699
 10
108.2190619304105
 20
-151.0757052573699
 10
107.9947862143207
 20
-151.0757052573699
 10
107.9947862143207
 20
-151.0757052573699
 10
107.9947862143207
 20
-151.0757052573699
 10
107.0215467397376
 20
-150.496929215848
 10
107.0215467397376
 20
-150.496929215848
 10
107.0215467397376
 20
-150.496929215848
 10
107.0215467397376
 20
-150.3308756134589
 10
107.0215467397376
 20
-150.3308756134589
 10
107.0215467397376
 20
-150.3308756134589
 10
108.0202799209116
 20
-150.3308756134589
 10
108.0202799209116
 20
-150.3308756134589
 10
108.0202799209116
 20
-150.3308756134589
 10
108.0202799209116
 20
-150.1541422150656
 10
108.0202799209116
 20
-150.1541422150656
 10
108.0202799209116
 20
-150.1541422150656
 10
108.2190619304105
 20
-150.1541422150656
 10
108.2190619304105
 20
-150.1541422150656
 10
108.2190619304105
 20
-150.1541422150656
 10
108.2190619304105
 20
-150.3308756134589
 10
108.2190619304105
 20
-150.3308756134589
 97
        0
 97
        1
330
C3
 75
     2
 76
     1
 98
        1
 10
0.0
 20
0.0
450
        0
451
        0
460
0.0
461
0.0
452
        0
462
0.0
453
        0
470

  0
ENDBLK
  5
BC
330
B9
100
AcDbEntity
  8
0
100
AcDbBlockEnd
  0
BLOCK
  5
CB
330
C9
100
AcDbEntity
  8
0
100
AcDbBlockBegin
  2
Block_7
 70
     0
 10
0.0
 20
0.0
 30
0.0
  3
Block_7
  1

  0
INSERT
  5
CE
330
C9
100
AcDbEntity
  8
レイヤー 1
100
AcDbBlockReference
  2
Block_8
 10
0.0
 20
0.0
 30
0.0
  0
ENDBLK
  5
CC
330
C9
100
AcDbEntity
  8
0
100
AcDbBlockEnd
  0
BLOCK
  5
CF
330
CD
100
AcDbEntity
  8
0
100
AcDbBlockBegin
  2
Block_8
 70
     0
 10
0.0
 20
0.0
 30
0.0
  3
Block_8
  1

  0
SPLINE
  5
D1
330
CD
100
AcDbEntity
  8
レイヤー 1
100
AcDbSpline
210
0.0
220
0.0
230
1.0
 70
    11
 71
     3
 72
    26
 73
    22
 74
     0
 42
0.0000000001
 43
0.0000000001
 40
0.0
 40
0.0
 40
0.0
 40
0.0
 40
1.0
 40
1.0
 40
1.0
 40
2.0
 40
2.0
 40
2.0
 40
3.0
 40
3.0
 40
3.0
 40
4.0
 40
4.0
 40
4.0
 40
5.0
 40
5.0
 40
5.0
 40
6.0
 40
6.0
 40
6.0
 40
7.0
 40
7.0
 40
7.0
 40
7.0
 10
79.78289928560982
 20
-144.5103867911293
 30
0.0
 10
79.78289928560982
 20
-144.5103867911293
 30
0.0
 10
78.67874618258726
 20
-144.5103867911293
 30
0.0
 10
78.67874618258726
 20
-144.5103867911293
 30
0.0
 10
78.67874618258726
 20
-144.5103867911293
 30
0.0
 10
78.67874618258726
 20
-144.7918510922742
 30
0.0
 10
78.67874618258726
 20
-144.7918510922742
 30
0.0
 10
78.67874618258726
 20
-144.7918510922742
 30
0.0
 10
78.53060707672153
 20
-144.7918510922742
 30
0.0
 10
78.53060707672153
 20
-144.7918510922742
 30
0.0
 10
78.51579316613494
 20
-144.5086642433867
 30
0.0
 10
78.35284014968262
 20
-144.4690456453063
 30
0.0
 10
78.23846297957233
 20
-144.443896448264
 30
0.0
 10
78.23846297957233
 20
-144.443896448264
 30
0.0
 10
78.23846297957233
 20
-144.319183991698
 30
0.0
 10
78.23846297957233
 20
-144.319183991698
 30
0.0
 10
78.23846297957233
 20
-144.319183991698
 30
0.0
 10
79.78289928560982
 20
-144.319183991698
 30
0.0
 10
79.78289928560982
 20
-144.319183991698
 30
0.0
 10
79.78289928560982
 20
-144.319183991698
 30
0.0
 10
79.78289928560982
 20
-144.5103867911293
 30
0.0
 10
79.78289928560982
 20
-144.5103867911293
 30
0.0
  0
HATCH
  5
D2
330
CD
100
AcDbEntity
  8
レイヤー 1
 62
   250
420
  2299925
440
 33554687
100
AcDbHatch
 10
0.0
 20
0.0
 30
0.0
210
0.0
220
0.0
230
1.0
  2
SOLID
 70
     1
 71
     1
 91
        1
 92
        1
 93
        1
 72
     4
 94
        3
 73
     0
 74
     0
 95
       26
 96
       22
 40
0.0
 40
0.0
 40
0.0
 40
0.0
 40
1.0
 40
1.0
 40
1.0
 40
2.0
 40
2.0
 40
2.0
 40
3.0
 40
3.0
 40
3.0
 40
4.0
 40
4.0
 40
4.0
 40
5.0
 40
5.0
 40
5.0
 40
6.0
 40
6.0
 40
6.0
 40
7.0
 40
7.0
 40
7.0
 40
7.0
 10
79.78289928560982
 20
-144.5103867911293
 10
79.78289928560982
 20
-144.5103867911293
 10
78.67874618258726
 20
-144.5103867911293
 10
78.67874618258726
 20
-144.5103867911293
 10
78.67874618258726
 20
-144.5103867911293
 10
78.67874618258726
 20
-144.7918510922742
 10
78.67874618258726
 20
-144.7918510922742
 10
78.67874618258726
 20
-144.7918510922742
 10
78.53060707672153
 20
-144.7918510922742
 10
78.53060707672153
 20
-144.7918510922742
 10
78.51579316613494
 20
-144.5086642433867
 10
78.35284014968262
 20
-144.4690456453063
 10
78.23846297957233
 20
-144.443896448264
 10
78.23846297957233
 20
-144.443896448264
 10
78.23846297957233
 20
-144.319183991698
 10
78.23846297957233
 20
-144.319183991698
 10
78.23846297957233
 20
-144.319183991698
 10
79.78289928560982
 20
-144.319183991698
 10
79.78289928560982
 20
-144.319183991698
 10
79.78289928560982
 20
-144.319183991698
 10
79.78289928560982
 20
-144.5103867911293
 10
79.78289928560982
 20
-144.5103867911293
 97
        0
 97
        1
330
D1
 75
     2
 76
     1
 98
        1
 10
0.0
 20
0.0
450
        0
451
        0
460
0.0
461
0.0
452
        0
462
0.0
453
        0
470

  0
SPLINE
  5
D3
330
CD
100
AcDbEntity
  8
レイヤー 1
100
AcDbSpline
210
0.0
220
0.0
230
1.0
 70
    11
 71
     3
 72
    17
 73
    13
 74
     0
 42
0.0000000001
 43
0.0000000001
 40
0.0
 40
0.0
 40
0.0
 40
0.0
 40
1.0
 40
1.0
 40
1.0
 40
2.0
 40
2.0
 40
2.0
 40
3.0
 40
3.0
 40
3.0
 40
4.0
 40
4.0
 40
4.0
 40
4.0
 10
79.78289928560982
 20
-143.8423827765394
 30
0.0
 10
79.78289928560982
 20
-143.8423827765394
 30
0.0
 10
79.53106280563807
 20
-143.8423827765394
 30
0.0
 10
79.53106280563807
 20
-143.8423827765394
 30
0.0
 10
79.53106280563807
 20
-143.8423827765394
 30
0.0
 10
79.53106280563807
 20
-143.6277533278083
 30
0.0
 10
79.53106280563807
 20
-143.6277533278083
 30
0.0
 10
79.53106280563807
 20
-143.6277533278083
 30
0.0
 10
79.78289928560982
 20
-143.6277533278083
 30
0.0
 10
79.78289928560982
 20
-143.6277533278083
 30
0.0
 10
79.78289928560982
 20
-143.6277533278083
 30
0.0
 10
79.78289928560982
 20
-143.8423827765394
 30
0.0
 10
79.78289928560982
 20
-143.8423827765394
 30
0.0
  0
HATCH
  5
D4
330
CD
100
AcDbEntity
  8
レイヤー 1
 62
   250
420
  2299925
440
 33554687
100
AcDbHatch
 10
0.0
 20
0.0
 30
0.0
210
0.0
220
0.0
230
1.0
  2
SOLID
 70
     1
 71
     1
 91
        1
 92
        1
 93
        1
 72
     4
 94
        3
 73
     0
 74
     0
 95
       17
 96
       13
 40
0.0
 40
0.0
 40
0.0
 40
0.0
 40
1.0
 40
1.0
 40
1.0
 40
2.0
 40
2.0
 40
2.0
 40
3.0
 40
3.0
 40
3.0
 40
4.0
 40
4.0
 40
4.0
 40
4.0
 10
79.78289928560982
 20
-143.8423827765394
 10
79.78289928560982
 20
-143.8423827765394
 10
79.53106280563807
 20
-143.8423827765394
 10
79.53106280563807
 20
-143.8423827765394
 10
79.53106280563807
 20
-143.8423827765394
 10
79.53106280563807
 20
-143.6277533278083
 10
79.53106280563807
 20
-143.6277533278083
 10
79.53106280563807
 20
-143.6277533278083
 10
79.78289928560982
 20
-143.6277533278083
 10
79.78289928560982
 20
-143.6277533278083
 10
79.78289928560982
 20
-143.6277533278083
 10
79.78289928560982
 20
-143.8423827765394
 10
79.78289928560982
 20
-143.8423827765394
 97
        0
 97
        1
330
D3
 75
     2
 76
     1
 98
        1
 10
0.0
 20
0.0
450
        0
451
        0
460
0.0
461
0.0
452
        0
462
0.0
453
        0
470

  0
SPLINE
  5
D5
330
CD
100
AcDbEntity
  8
レイヤー 1
100
AcDbSpline
210
0.0
220
0.0
230
1.0
 70
     9
 71
     3
 72
    17
 73
    13
 74
     0
 42
0.0000000001
 43
0.0000000001
 40
0.0
 40
0.0
 40
0.0
 40
0.0
 40
1.0
 40
1.0
 40
1.0
 40
2.0
 40
2.0
 40
2.0
 40
3.0
 40
3.0
 40
3.0
 40
4.0
 40
4.0
 40
4.0
 40
4.0
 10
78.38246797085577
 20
-143.0004014399443
 30
0.0
 10
78.38246797085577
 20
-143.2133083409328
 30
0.0
 10
78.66599932929183
 20
-143.2529269390131
 30
0.0
 10
79.01085338736534
 20
-143.2529269390131
 30
0.0
 10
79.330213738848
 20
-143.2529269390131
 30
0.0
 10
79.63889429432639
 20
-143.2222655891944
 30
0.0
 10
79.63889429432639
 20
-143.0004014399443
 30
0.0
 10
79.63889429432639
 20
-142.7892170866985
 30
0.0
 10
79.35777450273
 20
-142.7478759408755
 30
0.0
 10
79.01085338736534
 20
-142.7478759408755
 30
0.0
 10
78.69114852633416
 20
-142.7478759408755
 30
0.0
 10
78.38246797085577
 20
-142.7802598384368
 30
0.0
 10
78.38246797085577
 20
-143.0004014399443
 30
0.0
  0
SPLINE
  5
D6
330
CD
100
AcDbEntity
  8
レイヤー 1
100
AcDbSpline
210
0.0
220
0.0
230
1.0
 70
     9
 71
     3
 72
    29
 73
    25
 74
     0
 42
0.0000000001
 43
0.0000000001
 40
0.0
 40
0.0
 40
0.0
 40
0.0
 40
1.0
 40
1.0
 40
1.0
 40
2.0
 40
2.0
 40
2.0
 40
3.0
 40
3.0
 40
3.0
 40
4.0
 40
4.0
 40
4.0
 40
5.0
 40
5.0
 40
5.0
 40
6.0
 40
6.0
 40
6.0
 40
7.0
 40
7.0
 40
7.0
 40
8.0
 40
8.0
 40
8.0
 40
8.0
 10
79.60513235857094
 20
-142.6614040441957
 30
0.0
 10
79.81459416407414
 20
-142.7533880936519
 30
0.0
 10
79.83354218924301
 20
-142.9011826899691
 30
0.0
 10
79.83354218924301
 20
-143.0004014399443
 30
0.0
 10
79.83354218924301
 20
-143.1375162402573
 30
0.0
 10
79.78703340019213
 20
-143.258094582241
 30
0.0
 10
79.60513235857094
 20
-143.3393988356929
 30
0.0
 10
79.41048446365432
 20
-143.4275932801153
 30
0.0
 10
79.17346189426914
 20
-143.4441297384445
 30
0.0
 10
79.01085338736534
 20
-143.4441297384445
 30
0.0
 10
78.8668483960819
 20
-143.4441297384445
 30
0.0
 10
78.61501191611013
 20
-143.4296603374065
 30
0.0
 10
78.41622990661122
 20
-143.3393988356929
 30
0.0
 10
78.21331378253001
 20
-143.2474147862367
 30
0.0
 10
78.18988713323031
 20
-143.1102999859238
 30
0.0
 10
78.18988713323031
 20
-143.0004014399443
 30
0.0
 10
78.18988713323031
 20
-142.865009187374
 30
0.0
 10
78.23432886499003
 20
-142.7423637880991
 30
0.0
 10
78.41622990661122
 20
-142.6614040441957
 30
0.0
 10
78.60881074423669
 20
-142.5766546952586
 30
0.0
 10
78.83722057490875
 20
-142.5566731414441
 30
0.0
 10
79.01085338736534
 20
-142.5566731414441
 30
0.0
 10
79.18207463298227
 20
-142.5566731414441
 30
0.0
 10
79.41255152094547
 20
-142.574932147516
 30
0.0
 10
79.60513235857094
 20
-142.6614040441957
 30
0.0
  0
HATCH
  5
D7
330
CD
100
AcDbEntity
  8
レイヤー 1
 62
   250
420
  2299925
440
 33554687
100
AcDbHatch
 10
0.0
 20
0.0
 30
0.0
210
0.0
220
0.0
230
1.0
  2
SOLID
 70
     1
 71
     1
 91
        2
 92
        1
 93
        1
 72
     4
 94
        3
 73
     0
 74
     0
 95
       17
 96
       13
 40
0.0
 40
0.0
 40
0.0
 40
0.0
 40
1.0
 40
1.0
 40
1.0
 40
2.0
 40
2.0
 40
2.0
 40
3.0
 40
3.0
 40
3.0
 40
4.0
 40
4.0
 40
4.0
 40
4.0
 10
78.38246797085577
 20
-143.0004014399443
 10
78.38246797085577
 20
-143.2133083409328
 10
78.66599932929183
 20
-143.2529269390131
 10
79.01085338736534
 20
-143.2529269390131
 10
79.330213738848
 20
-143.2529269390131
 10
79.63889429432639
 20
-143.2222655891944
 10
79.63889429432639
 20
-143.0004014399443
 10
79.63889429432639
 20
-142.7892170866985
 10
79.35777450273
 20
-142.7478759408755
 10
79.01085338736534
 20
-142.7478759408755
 10
78.69114852633416
 20
-142.7478759408755
 10
78.38246797085577
 20
-142.7802598384368
 10
78.38246797085577
 20
-143.0004014399443
 97
        0
 97
        1
330
D5
 92
        1
 93
        1
 72
     4
 94
        3
 73
     0
 74
     0
 95
       29
 96
       25
 40
0.0
 40
0.0
 40
0.0
 40
0.0
 40
1.0
 40
1.0
 40
1.0
 40
2.0
 40
2.0
 40
2.0
 40
3.0
 40
3.0
 40
3.0
 40
4.0
 40
4.0
 40
4.0
 40
5.0
 40
5.0
 40
5.0
 40
6.0
 40
6.0
 40
6.0
 40
7.0
 40
7.0
 40
7.0
 40
8.0
 40
8.0
 40
8.0
 40
8.0
 10
79.60513235857094
 20
-142.6614040441957
 10
79.81459416407414
 20
-142.7533880936519
 10
79.83354218924301
 20
-142.9011826899691
 10
79.83354218924301
 20
-143.0004014399443
 10
79.83354218924301
 20
-143.1375162402573
 10
79.78703340019213
 20
-143.258094582241
 10
79.60513235857094
 20
-143.3393988356929
 10
79.41048446365432
 20
-143.4275932801153
 10
79.17346189426914
 20
-143.4441297384445
 10
79.01085338736534
 20
-143.4441297384445
 10
78.8668483960819
 20
-143.4441297384445
 10
78.61501191611013
 20
-143.4296603374065
 10
78.41622990661122
 20
-143.3393988356929
 10
78.21331378253001
 20
-143.2474147862367
 10
78.18988713323031
 20
-143.1102999859238
 10
78.18988713323031
 20
-143.0004014399443
 10
78.18988713323031
 20
-142.865009187374
 10
78.23432886499003
 20
-142.7423637880991
 10
78.41622990661122
 20
-142.6614040441957
 10
78.60881074423669
 20
-142.5766546952586
 10
78.83722057490875
 20
-142.5566731414441
 10
79.01085338736534
 20
-142.5566731414441
 10
79.18207463298227
 20
-142.5566731414441
 10
79.41255152094547
 20
-142.574932147516
 10
79.60513235857094
 20
-142.6614040441957
 97
        0
 97
        1
330
D6
 75
     2
 76
     1
 98
        1
 10
0.0
 20
0.0
450
        0
451
        0
460
0.0
461
0.0
452
        0
462
0.0
453
        0
470

  0
ENDBLK
  5
D0
330
CD
100
AcDbEntity
  8
0
100
AcDbBlockEnd
  0
BLOCK
  5
DA
330
D8
100
AcDbEntity
  8
0
100
AcDbBlockBegin
  2
Block_9
 70
     0
 10
0.0
 20
0.0
 30
0.0
  3
Block_9
  1

  0
LINE
  5
DC
330
D8
100
AcDbEntity
  8
レイヤー 1
 62
   250
420
  2299925
370
     9
100
AcDbLine
 10
78.5235761934978
 20
-156.1067978417671
 30
0.0
 11
82.52351174805356
 21
-156.1067978417671
 31
0.0
  0
ENDBLK
  5
DB
330
D8
100
AcDbEntity
  8
0
100
AcDbBlockEnd
  0
BLOCK
  5
E1
330
DF
100
AcDbEntity
  8
0
100
AcDbBlockBegin
  2
Block_10
 70
     0
 10
0.0
 20
0.0
 30
0.0
  3
Block_10
  1

  0
LINE
  5
E3
330
DF
100
AcDbEntity
  8
レイヤー 1
 62
    18
420
        0
370
     9
100
AcDbLine
 10
95.6741726926511
 20
-150.2137379643345
 30
0.0
 11
95.40732783479075
 21
-149.2499657310635
 31
0.0
  0
LINE
  5
E4
330
DF
100
AcDbEntity
  8
レイヤー 1
 62
    18
420
        0
370
     9
100
AcDbLine
 10
95.6741726926511
 20
-150.2137379643345
 30
0.0
 11
95.63973848527401
 21
-148.5997774015304
 31
0.0
  0
LINE
  5
E5
330
DF
100
AcDbEntity
  8
レイヤー 1
 62
    18
420
        0
370
     9
100
AcDbLine
 10
95.6741726926511
 20
-150.2137379643345
 30
0.0
 11
95.92502077015701
 21
-149.2455575089477
 31
0.0
  0
ENDBLK
  5
E2
330
DF
100
AcDbEntity
  8
0
100
AcDbBlockEnd
  0
BLOCK
  5
E8
330
E6
100
AcDbEntity
  8
0
100
AcDbBlockBegin
  2
Block_11
 70
     0
 10
0.0
 20
0.0
 30
0.0
  3
Block_11
  1

  0
INSERT
  5
EB
330
E6
100
AcDbEntity
  8
レイヤー 1
100
AcDbBlockReference
  2
Block_12
 10
0.0
 20
0.0
 30
0.0
  0
ENDBLK
  5
E9
330
E6
100
AcDbEntity
  8
0
100
AcDbBlockEnd
  0
BLOCK
  5
EC
330
EA
100
AcDbEntity
  8
0
100
AcDbBlockBegin
  2
Block_12
 70
     0
 10
0.0
 20
0.0
 30
0.0
  3
Block_12
  1

  0
SPLINE
  5
EE
330
EA
100
AcDbEntity
  8
レイヤー 1
100
AcDbSpline
210
0.0
220
0.0
230
1.0
 70
     9
 71
     3
 72
    17
 73
    13
 74
     0
 42
0.0000000001
 43
0.0000000001
 40
0.0
 40
0.0
 40
0.0
 40
0.0
 40
1.0
 40
1.0
 40
1.0
 40
2.0
 40
2.0
 40
2.0
 40
3.0
 40
3.0
 40
3.0
 40
4.0
 40
4.0
 40
4.0
 40
4.0
 10
91.6881157539877
 20
-147.5334580794361
 30
0.0
 10
91.67106253133571
 20
-147.562913645835
 30
0.0
 10
91.62041962770253
 20
-147.656103478711
 30
0.0
 10
91.60973983169826
 20
-147.6750515038798
 30
0.0
 10
91.80008135725833
 20
-147.7343071462261
 30
0.0
 10
91.82126869449261
 20
-147.7406805728738
 30
0.0
 10
91.89327119013432
 20
-147.7682413367558
 30
0.0
 10
91.94822046312406
 20
-147.6814249305275
 30
0.0
 10
91.97147485764949
 20
-147.6073553775947
 30
0.0
 10
91.98628876823606
 20
-147.5334580794361
 30
0.0
 10
91.98628876823606
 20
-147.5334580794361
 30
0.0
 10
91.6881157539877
 20
-147.5334580794361
 30
0.0
 10
91.6881157539877
 20
-147.5334580794361
 30
0.0
  0
SPLINE
  5
EF
330
EA
100
AcDbEntity
  8
レイヤー 1
100
AcDbSpline
210
0.0
220
0.0
230
1.0
 70
    11
 71
     3
 72
    20
 73
    16
 74
     0
 42
0.0000000001
 43
0.0000000001
 40
0.0
 40
0.0
 40
0.0
 40
0.0
 40
1.0
 40
1.0
 40
1.0
 40
2.0
 40
2.0
 40
2.0
 40
3.0
 40
3.0
 40
3.0
 40
4.0
 40
4.0
 40
4.0
 40
5.0
 40
5.0
 40
5.0
 40
5.0
 10
91.62455374228484
 20
-146.6830362589021
 30
0.0
 10
91.62455374228484
 20
-146.6830362589021
 30
0.0
 10
91.59285886382054
 20
-146.6830362589021
 30
0.0
 10
91.59285886382054
 20
-146.6830362589021
 30
0.0
 10
91.63936765287141
 20
-146.7824272636516
 30
0.0
 10
91.67106253133571
 20
-146.8626979884579
 30
0.0
 10
91.70499672186542
 20
-146.9896497570894
 30
0.0
 10
91.70499672186542
 20
-146.9896497570894
 30
0.0
 10
91.91221921530319
 20
-146.9896497570894
 30
0.0
 10
91.91221921530319
 20
-146.9896497570894
 30
0.0
 10
91.94408634854175
 20
-146.8966321789876
 30
0.0
 10
91.9673407430672
 20
-146.8120550848247
 30
0.0
 10
91.99059513759264
 20
-146.6830362589021
 30
0.0
 10
91.99059513759264
 20
-146.6830362589021
 30
0.0
 10
91.62455374228484
 20
-146.6830362589021
 30
0.0
 10
91.62455374228484
 20
-146.6830362589021
 30
0.0
  0
SPLINE
  5
F0
330
EA
100
AcDbEntity
  8
レイヤー 1
100
AcDbSpline
210
0.0
220
0.0
230
1.0
 70
     9
 71
     3
 72
   242
 73
   238
 74
     0
 42
0.0000000001
 43
0.0000000001
 40
0.0
 40
0.0
 40
0.0
 40
0.0
 40
1.0
 40
1.0
 40
1.0
 40
2.0
 40
2.0
 40
2.0
 40
3.0
 40
3.0
 40
3.0
 40
4.0
 40
4.0
 40
4.0
 40
5.0
 40
5.0
 40
5.0
 40
6.0
 40
6.0
 40
6.0
 40
7.0
 40
7.0
 40
7.0
 40
8.0
 40
8.0
 40
8.0
 40
9.0
 40
9.0
 40
9.0
 40
10.0
 40
10.0
 40
10.0
 40
11.0
 40
11.0
 40
11.0
 40
12.0
 40
12.0
 40
12.0
 40
13.0
 40
13.0
 40
13.0
 40
14.0
 40
14.0
 40
14.0
 40
15.0
 40
15.0
 40
15.0
 40
16.0
 40
16.0
 40
16.0
 40
17.0
 40
17.0
 40
17.0
 40
18.0
 40
18.0
 40
18.0
 40
19.0
 40
19.0
 40
19.0
 40
20.0
 40
20.0
 40
20.0
 40
21.0
 40
21.0
 40
21.0
 40
22.0
 40
22.0
 40
22.0
 40
23.0
 40
23.0
 40
23.0
 40
24.0
 40
24.0
 40
24.0
 40
25.0
 40
25.0
 40
25.0
 40
26.0
 40
26.0
 40
26.0
 40
27.0
 40
27.0
 40
27.0
 40
28.0
 40
28.0
 40
28.0
 40
29.0
 40
29.0
 40
29.0
 40
30.0
 40
30.0
 40
30.0
 40
31.0
 40
31.0
 40
31.0
 40
32.0
 40
32.0
 40
32.0
 40
33.0
 40
33.0
 40
33.0
 40
34.0
 40
34.0
 40
34.0
 40
35.0
 40
35.0
 40
35.0
 40
36.0
 40
36.0
 40
36.0
 40
37.0
 40
37.0
 40
37.0
 40
38.0
 40
38.0
 40
38.0
 40
39.0
 40
39.0
 40
39.0
 40
40.0
 40
40.0
 40
40.0
 40
41.0
 40
41.0
 40
41.0
 40
42.0
 40
42.0
 40
42.0
 40
43.0
 40
43.0
 40
43.0
 40
44.0
 40
44.0
 40
44.0
 40
45.0
 40
45.0
 40
45.0
 40
46.0
 40
46.0
 40
46.0
 40
47.0
 40
47.0
 40
47.0
 40
48.0
 40
48.0
 40
48.0
 40
49.0
 40
49.0
 40
49.0
 40
50.0
 40
50.0
 40
50.0
 40
51.0
 40
51.0
 40
51.0
 40
52.0
 40
52.0
 40
52.0
 40
53.0
 40
53.0
 40
53.0
 40
54.0
 40
54.0
 40
54.0
 40
55.0
 40
55.0
 40
55.0
 40
56.0
 40
56.0
 40
56.0
 40
57.0
 40
57.0
 40
57.0
 40
58.0
 40
58.0
 40
58.0
 40
59.0
 40
59.0
 40
59.0
 40
60.0
 40
60.0
 40
60.0
 40
61.0
 40
61.0
 40
61.0
 40
62.0
 40
62.0
 40
62.0
 40
63.0
 40
63.0
 40
63.0
 40
64.0
 40
64.0
 40
64.0
 40
65.0
 40
65.0
 40
65.0
 40
66.0
 40
66.0
 40
66.0
 40
67.0
 40
67.0
 40
67.0
 40
68.0
 40
68.0
 40
68.0
 40
69.0
 40
69.0
 40
69.0
 40
70.0
 40
70.0
 40
70.0
 40
71.0
 40
71.0
 40
71.0
 40
72.0
 40
72.0
 40
72.0
 40
73.0
 40
73.0
 40
73.0
 40
74.0
 40
74.0
 40
74.0
 40
75.0
 40
75.0
 40
75.0
 40
76.0
 40
76.0
 40
76.0
 40
77.0
 40
77.0
 40
77.0
 40
78.0
 40
78.0
 40
78.0
 40
79.0
 40
79.0
 40
79.0
 40
79.0
 10
92.2529391587944
 20
-147.1482964041851
 30
0.0
 10
92.2529391587944
 20
-147.1482964041851
 30
0.0
 10
91.99903562153149
 20
-147.1482964041851
 30
0.0
 10
91.99903562153149
 20
-147.1482964041851
 30
0.0
 10
91.99903562153149
 20
-147.1482964041851
 30
0.0
 10
91.72187768974316
 20
-147.1482964041851
 30
0.0
 10
91.72187768974316
 20
-147.1482964041851
 30
0.0
 10
91.72187768974316
 20
-147.1482964041851
 30
0.0
 10
91.84882945837459
 20
-147.1906710786537
 30
0.0
 10
91.84882945837459
 20
-147.1906710786537
 30
0.0
 10
91.85933699960461
 20
-147.1949774480103
 30
0.0
 10
91.87208385290004
 20
-147.2011786198837
 30
0.0
 10
91.87208385290004
 20
-147.2139254731791
 30
0.0
 10
91.87208385290004
 20
-147.2351128104134
 30
0.0
 10
91.84038897443574
 20
-147.2414862370611
 30
0.0
 10
91.81920163720146
 20
-147.2456203516434
 30
0.0
 10
91.80869409597145
 20
-147.2688747461689
 30
0.0
 10
91.77906627479829
 20
-147.3345038151629
 30
0.0
 10
91.75994599485516
 20
-147.3789455469226
 30
0.0
 10
91.75994599485516
 20
-147.3789455469226
 30
0.0
 10
92.03073049999579
 20
-147.3789455469226
 30
0.0
 10
92.03073049999579
 20
-147.3789455469226
 30
0.0
 10
92.12168102080639
 20
-147.3789455469226
 30
0.0
 10
92.31839597301414
 20
-147.3746391775661
 30
0.0
 10
92.46016165223219
 20
-147.3661986936272
 30
0.0
 10
92.46016165223219
 20
-147.3661986936272
 30
0.0
 10
92.46016165223219
 20
-147.5439656206661
 30
0.0
 10
92.46016165223219
 20
-147.5439656206661
 30
0.0
 10
92.37765161536044
 20
-147.5396592513095
 30
0.0
 10
92.35646427812616
 20
-147.5396592513095
 30
0.0
 10
92.17663029379613
 20
-147.5355251367272
 30
0.0
 10
92.14493541533183
 20
-147.6898654144664
 30
0.0
 10
92.10049368357209
 20
-147.770308394047
 30
0.0
 10
92.05605195181238
 20
-147.8400715776233
 30
0.0
 10
92.17663029379613
 20
-147.8993272199696
 30
0.0
 10
92.28256697996755
 20
-147.9670233462548
 30
0.0
 10
92.38609209929931
 20
-148.0495333831265
 30
0.0
 10
92.38609209929931
 20
-148.0495333831265
 30
0.0
 10
92.26775306938099
 20
-148.2166205141611
 30
0.0
 10
92.26775306938099
 20
-148.2166205141611
 30
0.0
 10
92.24449867485555
 20
-148.1976724889922
 30
0.0
 10
92.23175182156012
 20
-148.1892320050534
 30
0.0
 10
92.11961396351524
 20
-148.1044826561162
 30
0.0
 10
92.07086586239896
 20
-148.0664143510042
 30
0.0
 10
92.01178247482692
 20
-148.0305853579576
 30
0.0
 10
91.93133949524634
 20
-147.9861436261979
 30
0.0
 10
91.71981063245199
 20
-148.1723510371756
 30
0.0
 10
91.51448294153111
 20
-148.1956054317011
 30
0.0
 10
91.22475041122159
 20
-148.2252332528742
 30
0.0
 10
91.22475041122159
 20
-148.2252332528742
 30
0.0
 10
91.12105303711556
 20
-148.0453992685442
 30
0.0
 10
91.12105303711556
 20
-148.0453992685442
 30
0.0
 10
91.43834633130708
 20
-148.0410928991876
 30
0.0
 10
91.61404620105482
 20
-148.015771447371
 30
0.0
 10
91.76631942150287
 20
-147.9057006466173
 30
0.0
 10
91.64780813681026
 20
-147.8548854882099
 30
0.0
 10
91.55892467329083
 20
-147.8274969791021
 30
0.0
 10
91.52309568024422
 20
-147.8147501258067
 30
0.0
 10
91.50397540030109
 20
-147.8423108896887
 30
0.0
 10
91.48916148971451
 20
-147.8612589148576
 30
0.0
 10
91.46160072583253
 20
-147.8951931053873
 30
0.0
 10
91.46160072583253
 20
-147.8951931053873
 30
0.0
 10
91.26488577362476
 20
-147.8126830685156
 30
0.0
 10
91.26488577362476
 20
-147.8126830685156
 30
0.0
 10
91.34739581049649
 20
-147.732240088935
 30
0.0
 10
91.40871851013393
 20
-147.6369831987678
 30
0.0
 10
91.46590709518909
 20
-147.5355251367272
 30
0.0
 10
91.27556556962902
 20
-147.5396592513095
 30
0.0
 10
91.25437823239474
 20
-147.5396592513095
 30
0.0
 10
91.171868195523
 20
-147.5439656206661
 30
0.0
 10
91.171868195523
 20
-147.5439656206661
 30
0.0
 10
91.171868195523
 20
-147.3661986936272
 30
0.0
 10
91.171868195523
 20
-147.3661986936272
 30
0.0
 10
91.31139456267563
 20
-147.3725721202749
 30
0.0
 10
91.52085636817881
 20
-147.3768784896314
 30
0.0
 10
91.54635007476967
 20
-147.3768784896314
 30
0.0
 10
91.56323104264739
 20
-147.3429442991017
 30
0.0
 10
91.61818031563711
 20
-147.222365957118
 30
0.0
 10
91.63730059558025
 20
-147.1482964041851
 30
0.0
 10
91.61818031563711
 20
-147.1482964041851
 30
0.0
 10
91.4405856433725
 20
-147.1546698308328
 30
0.0
 10
91.24593774845589
 20
-147.1674166841283
 30
0.0
 10
91.24593774845589
 20
-147.1674166841283
 30
0.0
 10
91.24593774845589
 20
-147.3007418794074
 30
0.0
 10
91.24593774845589
 20
-147.3007418794074
 30
0.0
 10
91.1971896473396
 20
-147.326063331224
 30
0.0
 10
91.1379340049933
 20
-147.3577582096883
 30
0.0
 10
91.00478106448839
 20
-147.4233872786823
 30
0.0
 10
91.00478106448839
 20
-147.4233872786823
 30
0.0
 10
91.00478106448839
 20
-147.5692870724827
 30
0.0
 10
91.00478106448839
 20
-147.5692870724827
 30
0.0
 10
91.00478106448839
 20
-147.5692870724827
 30
0.0
 10
91.00478106448839
 20
-148.0369587846053
 30
0.0
 10
91.00478106448839
 20
-148.0369587846053
 30
0.0
 10
91.00478106448839
 20
-148.1637382984625
 30
0.0
 10
90.96877981666754
 20
-148.2229939408088
 30
0.0
 10
90.68524845823146
 20
-148.21455345687
 30
0.0
 10
90.68524845823146
 20
-148.21455345687
 30
0.0
 10
90.58155108412545
 20
-148.0073309634322
 30
0.0
 10
90.58155108412545
 20
-148.0073309634322
 30
0.0
 10
90.64511309582831
 20
-148.0199055619533
 30
0.0
 10
90.69368894217033
 20
-148.0242119313099
 30
0.0
 10
90.73399655934776
 20
-148.0242119313099
 30
0.0
 10
90.81013316957177
 20
-148.0242119313099
 30
0.0
 10
90.82064071080178
 20
-148.0009575367845
 30
0.0
 10
90.82064071080178
 20
-147.9353284677904
 30
0.0
 10
90.82064071080178
 20
-147.9353284677904
 30
0.0
 10
90.82064071080178
 20
-147.505897315554
 30
0.0
 10
90.82064071080178
 20
-147.505897315554
 30
0.0
 10
90.72331676334348
 20
-147.5460326779572
 30
0.0
 10
90.70643579546574
 20
-147.5524061046049
 30
0.0
 10
90.65992700641489
 20
-147.5715263845481
 30
0.0
 10
90.65562063705831
 20
-147.5925414670081
 30
0.0
 10
90.65148652247602
 20
-147.6221692881813
 30
0.0
 10
90.63236624253288
 20
-147.6221692881813
 30
0.0
 10
90.62392575859403
 20
-147.6221692881813
 30
0.0
 10
90.61341821736402
 20
-147.6180351735989
 30
0.0
 10
90.60704479071629
 20
-147.5947807790735
 30
0.0
 10
90.60704479071629
 20
-147.5947807790735
 30
0.0
 10
90.55416257501772
 20
-147.402199941448
 30
0.0
 10
90.55416257501772
 20
-147.402199941448
 30
0.0
 10
90.70006236881804
 20
-147.3556911523972
 30
0.0
 10
90.76569143781204
 20
-147.3324367578717
 30
0.0
 10
90.82064071080178
 20
-147.3112494206374
 30
0.0
 10
90.82064071080178
 20
-147.3112494206374
 30
0.0
 10
90.82064071080178
 20
-146.8986992362788
 30
0.0
 10
90.82064071080178
 20
-146.8986992362788
 30
0.0
 10
90.82064071080178
 20
-146.8986992362788
 30
0.0
 10
90.76775849510321
 20
-146.8986992362788
 30
0.0
 10
90.76775849510321
 20
-146.8986992362788
 30
0.0
 10
90.76775849510321
 20
-146.8986992362788
 30
0.0
 10
90.68955482758802
 20
-146.8986992362788
 30
0.0
 10
90.68955482758802
 20
-146.8986992362788
 30
0.0
 10
90.62185870130287
 20
-146.8986992362788
 30
0.0
 10
90.61341821736402
 20
-146.8986992362788
 30
0.0
 10
90.57741696954314
 20
-146.9050726629265
 30
0.0
 10
90.57741696954314
 20
-146.9050726629265
 30
0.0
 10
90.57741696954314
 20
-146.7104247680099
 30
0.0
 10
90.57741696954314
 20
-146.7104247680099
 30
0.0
 10
90.60497773342515
 20
-146.7167981946576
 30
0.0
 10
90.61341821736402
 20
-146.7167981946576
 30
0.0
 10
90.68318140094032
 20
-146.7167981946576
 30
0.0
 10
90.68318140094032
 20
-146.7167981946576
 30
0.0
 10
90.81650659621947
 20
-146.7167981946576
 30
0.0
 10
90.81650659621947
 20
-146.7167981946576
 30
0.0
 10
90.81650659621947
 20
-146.6470350110813
 30
0.0
 10
90.81650659621947
 20
-146.5645249742095
 30
0.0
 10
90.81426728415406
 20
-146.560218604853
 30
0.0
 10
90.80582680021521
 20
-146.3803846205229
 30
0.0
 10
90.80582680021521
 20
-146.3614365953541
 30
0.0
 10
90.80375974292406
 20
-146.3149278063032
 30
0.0
 10
90.80375974292406
 20
-146.3149278063032
 30
0.0
 10
91.01959497507497
 20
-146.3233682902421
 30
0.0
 10
91.01959497507497
 20
-146.3233682902421
 30
0.0
 10
91.03010251630498
 20
-146.3233682902421
 30
0.0
 10
91.05128985353927
 20
-146.3254353475332
 30
0.0
 10
91.05128985353927
 20
-146.3423163154109
 30
0.0
 10
91.05128985353927
 20
-146.3614365953541
 30
0.0
 10
91.03647594295269
 20
-146.3719441365841
 30
0.0
 10
91.01115449113612
 20
-146.3910644165272
 30
0.0
 10
91.01115449113612
 20
-146.4417073201604
 30
0.0
 10
91.00478106448839
 20
-146.6702894056067
 30
0.0
 10
91.00684812177954
 20
-146.7167981946576
 30
0.0
 10
91.13586694770216
 20
-146.7167981946576
 30
0.0
 10
91.14861380099757
 20
-146.7167981946576
 30
0.0
 10
91.24593774845589
 20
-146.7083577107187
 30
0.0
 10
91.24593774845589
 20
-146.7083577107187
 30
0.0
 10
91.24593774845589
 20
-146.9030056056354
 30
0.0
 10
91.24593774845589
 20
-146.9030056056354
 30
0.0
 10
91.20786944334387
 20
-146.9007662935699
 30
0.0
 10
91.14017331705872
 20
-146.8966321789876
 30
0.0
 10
91.00478106448839
 20
-146.8986992362788
 30
0.0
 10
91.00478106448839
 20
-146.8986992362788
 30
0.0
 10
91.00478106448839
 20
-147.2371798677046
 30
0.0
 10
91.00478106448839
 20
-147.2371798677046
 30
0.0
 10
91.05973033747813
 20
-147.2139254731791
 30
0.0
 10
91.12535940647214
 20
-147.1863647092971
 30
0.0
 10
91.17393525281416
 20
-147.1631103147717
 30
0.0
 10
91.17393525281416
 20
-147.1631103147717
 30
0.0
 10
91.17393525281416
 20
-146.9855156425071
 30
0.0
 10
91.17393525281416
 20
-146.9855156425071
 30
0.0
 10
91.28814016815018
 20
-146.9980902410282
 30
0.0
 10
91.40665145284279
 20
-146.9980902410282
 30
0.0
 10
91.52309568024422
 20
-146.9980902410282
 30
0.0
 10
91.49966903094453
 20
-146.9030056056354
 30
0.0
 10
91.47228052183679
 20
-146.8204955687636
 30
0.0
 10
91.40871851013393
 20
-146.6871703734844
 30
0.0
 10
91.36427677837422
 20
-146.6892374307756
 30
0.0
 10
91.28193899627673
 20
-146.6935438001321
 30
0.0
 10
91.24369843639048
 20
-146.6956108574233
 30
0.0
 10
91.24369843639048
 20
-146.6956108574233
 30
0.0
 10
91.24369843639048
 20
-146.5157768730932
 30
0.0
 10
91.24369843639048
 20
-146.5157768730932
 30
0.0
 10
91.36858314773077
 20
-146.5242173570321
 30
0.0
 10
91.54204370541311
 20
-146.5285237263887
 30
0.0
 10
91.62455374228484
 20
-146.5285237263887
 30
0.0
 10
91.62455374228484
 20
-146.5285237263887
 30
0.0
 10
91.70706377915657
 20
-146.5285237263887
 30
0.0
 10
91.70706377915657
 20
-146.5285237263887
 30
0.0
 10
91.70706377915657
 20
-146.3655707099364
 30
0.0
 10
91.70706377915657
 20
-146.3550631687064
 30
0.0
 10
91.70499672186542
 20
-146.3001138957166
 30
0.0
 10
91.70499672186542
 20
-146.3001138957166
 30
0.0
 10
91.92927243795519
 20
-146.3254353475332
 30
0.0
 10
91.92927243795519
 20
-146.3254353475332
 30
0.0
 10
91.93340655253749
 20
-146.3254353475332
 30
0.0
 10
91.95459388977177
 20
-146.3275024048243
 30
0.0
 10
91.95459388977177
 20
-146.3443833727021
 30
0.0
 10
91.95459388977177
 20
-146.3591972832887
 30
0.0
 10
91.94408634854175
 20
-146.3678100220018
 30
0.0
 10
91.91652558465976
 20
-146.3826239325884
 30
0.0
 10
91.91015215801206
 20
-146.4480807468081
 30
0.0
 10
91.90808510072089
 20
-146.4692680840424
 30
0.0
 10
91.90808510072089
 20
-146.5285237263887
 30
0.0
 10
91.90808510072089
 20
-146.5285237263887
 30
0.0
 10
92.00316973611379
 20
-146.5285237263887
 30
0.0
 10
92.00316973611379
 20
-146.5285237263887
 30
0.0
 10
92.08567977298553
 20
-146.5285237263887
 30
0.0
 10
92.25914033066786
 20
-146.5242173570321
 30
0.0
 10
92.38402504200816
 20
-146.5157768730932
 30
0.0
 10
92.38402504200816
 20
-146.5157768730932
 30
0.0
 10
92.38402504200816
 20
-146.6956108574233
 30
0.0
 10
92.38402504200816
 20
-146.6956108574233
 30
0.0
 10
92.35439722083501
 20
-146.6935438001321
 30
0.0
 10
92.23588593614243
 20
-146.6892374307756
 30
0.0
 10
92.19575057373926
 20
-146.6871703734844
 30
0.0
 10
92.18093666315269
 20
-146.7379855318919
 30
0.0
 10
92.14717472739724
 20
-146.8501233899368
 30
0.0
 10
92.08154565840322
 20
-146.9896497570894
 30
0.0
 10
92.12374807809753
 20
-146.9896497570894
 30
0.0
 10
92.40090600988589
 20
-146.9707017319205
 30
0.0
 10
92.46222870952333
 20
-146.9684624198551
 30
0.0
 10
92.46222870952333
 20
-146.9684624198551
 30
0.0
 10
92.46222870952333
 20
-147.1526027735417
 30
0.0
 10
92.46222870952333
 20
-147.1526027735417
 30
0.0
 10
92.43277314312445
 20
-147.1526027735417
 30
0.0
 10
92.41571992047246
 20
-147.1482964041851
 30
0.0
 10
92.2529391587944
 20
-147.1482964041851
 30
0.0
  0
HATCH
  5
F1
330
EA
100
AcDbEntity
  8
レイヤー 1
 62
    18
420
        0
440
 33554687
100
AcDbHatch
 10
0.0
 20
0.0
 30
0.0
210
0.0
220
0.0
230
1.0
  2
SOLID
 70
     1
 71
     1
 91
        3
 92
        1
 93
        1
 72
     4
 94
        3
 73
     0
 74
     0
 95
       17
 96
       13
 40
0.0
 40
0.0
 40
0.0
 40
0.0
 40
1.0
 40
1.0
 40
1.0
 40
2.0
 40
2.0
 40
2.0
 40
3.0
 40
3.0
 40
3.0
 40
4.0
 40
4.0
 40
4.0
 40
4.0
 10
91.6881157539877
 20
-147.5334580794361
 10
91.67106253133571
 20
-147.562913645835
 10
91.62041962770253
 20
-147.656103478711
 10
91.60973983169826
 20
-147.6750515038798
 10
91.80008135725833
 20
-147.7343071462261
 10
91.82126869449261
 20
-147.7406805728738
 10
91.89327119013432
 20
-147.7682413367558
 10
91.94822046312406
 20
-147.6814249305275
 10
91.97147485764949
 20
-147.6073553775947
 10
91.98628876823606
 20
-147.5334580794361
 10
91.98628876823606
 20
-147.5334580794361
 10
91.6881157539877
 20
-147.5334580794361
 10
91.6881157539877
 20
-147.5334580794361
 97
        0
 97
        1
330
EE
 92
        1
 93
        1
 72
     4
 94
        3
 73
     0
 74
     0
 95
       20
 96
       16
 40
0.0
 40
0.0
 40
0.0
 40
0.0
 40
1.0
 40
1.0
 40
1.0
 40
2.0
 40
2.0
 40
2.0
 40
3.0
 40
3.0
 40
3.0
 40
4.0
 40
4.0
 40
4.0
 40
5.0
 40
5.0
 40
5.0
 40
5.0
 10
91.62455374228484
 20
-146.6830362589021
 10
91.62455374228484
 20
-146.6830362589021
 10
91.59285886382054
 20
-146.6830362589021
 10
91.59285886382054
 20
-146.6830362589021
 10
91.63936765287141
 20
-146.7824272636516
 10
91.67106253133571
 20
-146.8626979884579
 10
91.70499672186542
 20
-146.9896497570894
 10
91.70499672186542
 20
-146.9896497570894
 10
91.91221921530319
 20
-146.9896497570894
 10
91.91221921530319
 20
-146.9896497570894
 10
91.94408634854175
 20
-146.8966321789876
 10
91.9673407430672
 20
-146.8120550848247
 10
91.99059513759264
 20
-146.6830362589021
 10
91.99059513759264
 20
-146.6830362589021
 10
91.62455374228484
 20
-146.6830362589021
 10
91.62455374228484
 20
-146.6830362589021
 97
        0
 97
        1
330
EF
 92
        1
 93
        1
 72
     4
 94
        3
 73
     0
 74
     0
 95
      242
 96
      238
 40
0.0
 40
0.0
 40
0.0
 40
0.0
 40
1.0
 40
1.0
 40
1.0
 40
2.0
 40
2.0
 40
2.0
 40
3.0
 40
3.0
 40
3.0
 40
4.0
 40
4.0
 40
4.0
 40
5.0
 40
5.0
 40
5.0
 40
6.0
 40
6.0
 40
6.0
 40
7.0
 40
7.0
 40
7.0
 40
8.0
 40
8.0
 40
8.0
 40
9.0
 40
9.0
 40
9.0
 40
10.0
 40
10.0
 40
10.0
 40
11.0
 40
11.0
 40
11.0
 40
12.0
 40
12.0
 40
12.0
 40
13.0
 40
13.0
 40
13.0
 40
14.0
 40
14.0
 40
14.0
 40
15.0
 40
15.0
 40
15.0
 40
16.0
 40
16.0
 40
16.0
 40
17.0
 40
17.0
 40
17.0
 40
18.0
 40
18.0
 40
18.0
 40
19.0
 40
19.0
 40
19.0
 40
20.0
 40
20.0
 40
20.0
 40
21.0
 40
21.0
 40
21.0
 40
22.0
 40
22.0
 40
22.0
 40
23.0
 40
23.0
 40
23.0
 40
24.0
 40
24.0
 40
24.0
 40
25.0
 40
25.0
 40
25.0
 40
26.0
 40
26.0
 40
26.0
 40
27.0
 40
27.0
 40
27.0
 40
28.0
 40
28.0
 40
28.0
 40
29.0
 40
29.0
 40
29.0
 40
30.0
 40
30.0
 40
30.0
 40
31.0
 40
31.0
 40
31.0
 40
32.0
 40
32.0
 40
32.0
 40
33.0
 40
33.0
 40
33.0
 40
34.0
 40
34.0
 40
34.0
 40
35.0
 40
35.0
 40
35.0
 40
36.0
 40
36.0
 40
36.0
 40
37.0
 40
37.0
 40
37.0
 40
38.0
 40
38.0
 40
38.0
 40
39.0
 40
39.0
 40
39.0
 40
40.0
 40
40.0
 40
40.0
 40
41.0
 40
41.0
 40
41.0
 40
42.0
 40
42.0
 40
42.0
 40
43.0
 40
43.0
 40
43.0
 40
44.0
 40
44.0
 40
44.0
 40
45.0
 40
45.0
 40
45.0
 40
46.0
 40
46.0
 40
46.0
 40
47.0
 40
47.0
 40
47.0
 40
48.0
 40
48.0
 40
48.0
 40
49.0
 40
49.0
 40
49.0
 40
50.0
 40
50.0
 40
50.0
 40
51.0
 40
51.0
 40
51.0
 40
52.0
 40
52.0
 40
52.0
 40
53.0
 40
53.0
 40
53.0
 40
54.0
 40
54.0
 40
54.0
 40
55.0
 40
55.0
 40
55.0
 40
56.0
 40
56.0
 40
56.0
 40
57.0
 40
57.0
 40
57.0
 40
58.0
 40
58.0
 40
58.0
 40
59.0
 40
59.0
 40
59.0
 40
60.0
 40
60.0
 40
60.0
 40
61.0
 40
61.0
 40
61.0
 40
62.0
 40
62.0
 40
62.0
 40
63.0
 40
63.0
 40
63.0
 40
64.0
 40
64.0
 40
64.0
 40
65.0
 40
65.0
 40
65.0
 40
66.0
 40
66.0
 40
66.0
 40
67.0
 40
67.0
 40
67.0
 40
68.0
 40
68.0
 40
68.0
 40
69.0
 40
69.0
 40
69.0
 40
70.0
 40
70.0
 40
70.0
 40
71.0
 40
71.0
 40
71.0
 40
72.0
 40
72.0
 40
72.0
 40
73.0
 40
73.0
 40
73.0
 40
74.0
 40
74.0
 40
74.0
 40
75.0
 40
75.0
 40
75.0
 40
76.0
 40
76.0
 40
76.0
 40
77.0
 40
77.0
 40
77.0
 40
78.0
 40
78.0
 40
78.0
 40
79.0
 40
79.0
 40
79.0
 40
79.0
 10
92.2529391587944
 20
-147.1482964041851
 10
92.2529391587944
 20
-147.1482964041851
 10
91.99903562153149
 20
-147.1482964041851
 10
91.99903562153149
 20
-147.1482964041851
 10
91.99903562153149
 20
-147.1482964041851
 10
91.72187768974316
 20
-147.1482964041851
 10
91.72187768974316
 20
-147.1482964041851
 10
91.72187768974316
 20
-147.1482964041851
 10
91.84882945837459
 20
-147.1906710786537
 10
91.84882945837459
 20
-147.1906710786537
 10
91.85933699960461
 20
-147.1949774480103
 10
91.87208385290004
 20
-147.2011786198837
 10
91.87208385290004
 20
-147.2139254731791
 10
91.87208385290004
 20
-147.2351128104134
 10
91.84038897443574
 20
-147.2414862370611
 10
91.81920163720146
 20
-147.2456203516434
 10
91.80869409597145
 20
-147.2688747461689
 10
91.77906627479829
 20
-147.3345038151629
 10
91.75994599485516
 20
-147.3789455469226
 10
91.75994599485516
 20
-147.3789455469226
 10
92.03073049999579
 20
-147.3789455469226
 10
92.03073049999579
 20
-147.3789455469226
 10
92.12168102080639
 20
-147.3789455469226
 10
92.31839597301414
 20
-147.3746391775661
 10
92.46016165223219
 20
-147.3661986936272
 10
92.46016165223219
 20
-147.3661986936272
 10
92.46016165223219
 20
-147.5439656206661
 10
92.46016165223219
 20
-147.5439656206661
 10
92.37765161536044
 20
-147.5396592513095
 10
92.35646427812616
 20
-147.5396592513095
 10
92.17663029379613
 20
-147.5355251367272
 10
92.14493541533183
 20
-147.6898654144664
 10
92.10049368357209
 20
-147.770308394047
 10
92.05605195181238
 20
-147.8400715776233
 10
92.17663029379613
 20
-147.8993272199696
 10
92.28256697996755
 20
-147.9670233462548
 10
92.38609209929931
 20
-148.0495333831265
 10
92.38609209929931
 20
-148.0495333831265
 10
92.26775306938099
 20
-148.2166205141611
 10
92.26775306938099
 20
-148.2166205141611
 10
92.24449867485555
 20
-148.1976724889922
 10
92.23175182156012
 20
-148.1892320050534
 10
92.11961396351524
 20
-148.1044826561162
 10
92.07086586239896
 20
-148.0664143510042
 10
92.01178247482692
 20
-148.0305853579576
 10
91.93133949524634
 20
-147.9861436261979
 10
91.71981063245199
 20
-148.1723510371756
 10
91.51448294153111
 20
-148.1956054317011
 10
91.22475041122159
 20
-148.2252332528742
 10
91.22475041122159
 20
-148.2252332528742
 10
91.12105303711556
 20
-148.0453992685442
 10
91.12105303711556
 20
-148.0453992685442
 10
91.43834633130708
 20
-148.0410928991876
 10
91.61404620105482
 20
-148.015771447371
 10
91.76631942150287
 20
-147.9057006466173
 10
91.64780813681026
 20
-147.8548854882099
 10
91.55892467329083
 20
-147.8274969791021
 10
91.52309568024422
 20
-147.8147501258067
 10
91.50397540030109
 20
-147.8423108896887
 10
91.48916148971451
 20
-147.8612589148576
 10
91.46160072583253
 20
-147.8951931053873
 10
91.46160072583253
 20
-147.8951931053873
 10
91.26488577362476
 20
-147.8126830685156
 10
91.26488577362476
 20
-147.8126830685156
 10
91.34739581049649
 20
-147.732240088935
 10
91.40871851013393
 20
-147.6369831987678
 10
91.46590709518909
 20
-147.5355251367272
 10
91.27556556962902
 20
-147.5396592513095
 10
91.25437823239474
 20
-147.5396592513095
 10
91.171868195523
 20
-147.5439656206661
 10
91.171868195523
 20
-147.5439656206661
 10
91.171868195523
 20
-147.3661986936272
 10
91.171868195523
 20
-147.3661986936272
 10
91.31139456267563
 20
-147.3725721202749
 10
91.52085636817881
 20
-147.3768784896314
 10
91.54635007476967
 20
-147.3768784896314
 10
91.56323104264739
 20
-147.3429442991017
 10
91.61818031563711
 20
-147.222365957118
 10
91.63730059558025
 20
-147.1482964041851
 10
91.61818031563711
 20
-147.1482964041851
 10
91.4405856433725
 20
-147.1546698308328
 10
91.24593774845589
 20
-147.1674166841283
 10
91.24593774845589
 20
-147.1674166841283
 10
91.24593774845589
 20
-147.3007418794074
 10
91.24593774845589
 20
-147.3007418794074
 10
91.1971896473396
 20
-147.326063331224
 10
91.1379340049933
 20
-147.3577582096883
 10
91.00478106448839
 20
-147.4233872786823
 10
91.00478106448839
 20
-147.4233872786823
 10
91.00478106448839
 20
-147.5692870724827
 10
91.00478106448839
 20
-147.5692870724827
 10
91.00478106448839
 20
-147.5692870724827
 10
91.00478106448839
 20
-148.0369587846053
 10
91.00478106448839
 20
-148.0369587846053
 10
91.00478106448839
 20
-148.1637382984625
 10
90.96877981666754
 20
-148.2229939408088
 10
90.68524845823146
 20
-148.21455345687
 10
90.68524845823146
 20
-148.21455345687
 10
90.58155108412545
 20
-148.0073309634322
 10
90.58155108412545
 20
-148.0073309634322
 10
90.64511309582831
 20
-148.0199055619533
 10
90.69368894217033
 20
-148.0242119313099
 10
90.73399655934776
 20
-148.0242119313099
 10
90.81013316957177
 20
-148.0242119313099
 10
90.82064071080178
 20
-148.0009575367845
 10
90.82064071080178
 20
-147.9353284677904
 10
90.82064071080178
 20
-147.9353284677904
 10
90.82064071080178
 20
-147.505897315554
 10
90.82064071080178
 20
-147.505897315554
 10
90.72331676334348
 20
-147.5460326779572
 10
90.70643579546574
 20
-147.5524061046049
 10
90.65992700641489
 20
-147.5715263845481
 10
90.65562063705831
 20
-147.5925414670081
 10
90.65148652247602
 20
-147.6221692881813
 10
90.63236624253288
 20
-147.6221692881813
 10
90.62392575859403
 20
-147.6221692881813
 10
90.61341821736402
 20
-147.6180351735989
 10
90.60704479071629
 20
-147.5947807790735
 10
90.60704479071629
 20
-147.5947807790735
 10
90.55416257501772
 20
-147.402199941448
 10
90.55416257501772
 20
-147.402199941448
 10
90.70006236881804
 20
-147.3556911523972
 10
90.76569143781204
 20
-147.3324367578717
 10
90.82064071080178
 20
-147.3112494206374
 10
90.82064071080178
 20
-147.3112494206374
 10
90.82064071080178
 20
-146.8986992362788
 10
90.82064071080178
 20
-146.8986992362788
 10
90.82064071080178
 20
-146.8986992362788
 10
90.76775849510321
 20
-146.8986992362788
 10
90.76775849510321
 20
-146.8986992362788
 10
90.76775849510321
 20
-146.8986992362788
 10
90.68955482758802
 20
-146.8986992362788
 10
90.68955482758802
 20
-146.8986992362788
 10
90.62185870130287
 20
-146.8986992362788
 10
90.61341821736402
 20
-146.8986992362788
 10
90.57741696954314
 20
-146.9050726629265
 10
90.57741696954314
 20
-146.9050726629265
 10
90.57741696954314
 20
-146.7104247680099
 10
90.57741696954314
 20
-146.7104247680099
 10
90.60497773342515
 20
-146.7167981946576
 10
90.61341821736402
 20
-146.7167981946576
 10
90.68318140094032
 20
-146.7167981946576
 10
90.68318140094032
 20
-146.7167981946576
 10
90.81650659621947
 20
-146.7167981946576
 10
90.81650659621947
 20
-146.7167981946576
 10
90.81650659621947
 20
-146.6470350110813
 10
90.81650659621947
 20
-146.5645249742095
 10
90.81426728415406
 20
-146.560218604853
 10
90.80582680021521
 20
-146.3803846205229
 10
90.80582680021521
 20
-146.3614365953541
 10
90.80375974292406
 20
-146.3149278063032
 10
90.80375974292406
 20
-146.3149278063032
 10
91.01959497507497
 20
-146.3233682902421
 10
91.01959497507497
 20
-146.3233682902421
 10
91.03010251630498
 20
-146.3233682902421
 10
91.05128985353927
 20
-146.3254353475332
 10
91.05128985353927
 20
-146.3423163154109
 10
91.05128985353927
 20
-146.3614365953541
 10
91.03647594295269
 20
-146.3719441365841
 10
91.01115449113612
 20
-146.3910644165272
 10
91.01115449113612
 20
-146.4417073201604
 10
91.00478106448839
 20
-146.6702894056067
 10
91.00684812177954
 20
-146.7167981946576
 10
91.13586694770216
 20
-146.7167981946576
 10
91.14861380099757
 20
-146.7167981946576
 10
91.24593774845589
 20
-146.7083577107187
 10
91.24593774845589
 20
-146.7083577107187
 10
91.24593774845589
 20
-146.9030056056354
 10
91.24593774845589
 20
-146.9030056056354
 10
91.20786944334387
 20
-146.9007662935699
 10
91.14017331705872
 20
-146.8966321789876
 10
91.00478106448839
 20
-146.8986992362788
 10
91.00478106448839
 20
-146.8986992362788
 10
91.00478106448839
 20
-147.2371798677046
 10
91.00478106448839
 20
-147.2371798677046
 10
91.05973033747813
 20
-147.2139254731791
 10
91.12535940647214
 20
-147.1863647092971
 10
91.17393525281416
 20
-147.1631103147717
 10
91.17393525281416
 20
-147.1631103147717
 10
91.17393525281416
 20
-146.9855156425071
 10
91.17393525281416
 20
-146.9855156425071
 10
91.28814016815018
 20
-146.9980902410282
 10
91.40665145284279
 20
-146.9980902410282
 10
91.52309568024422
 20
-146.9980902410282
 10
91.49966903094453
 20
-146.9030056056354
 10
91.47228052183679
 20
-146.8204955687636
 10
91.40871851013393
 20
-146.6871703734844
 10
91.36427677837422
 20
-146.6892374307756
 10
91.28193899627673
 20
-146.6935438001321
 10
91.24369843639048
 20
-146.6956108574233
 10
91.24369843639048
 20
-146.6956108574233
 10
91.24369843639048
 20
-146.5157768730932
 10
91.24369843639048
 20
-146.5157768730932
 10
91.36858314773077
 20
-146.5242173570321
 10
91.54204370541311
 20
-146.5285237263887
 10
91.62455374228484
 20
-146.5285237263887
 10
91.62455374228484
 20
-146.5285237263887
 10
91.70706377915657
 20
-146.5285237263887
 10
91.70706377915657
 20
-146.5285237263887
 10
91.70706377915657
 20
-146.3655707099364
 10
91.70706377915657
 20
-146.3550631687064
 10
91.70499672186542
 20
-146.3001138957166
 10
91.70499672186542
 20
-146.3001138957166
 10
91.92927243795519
 20
-146.3254353475332
 10
91.92927243795519
 20
-146.3254353475332
 10
91.93340655253749
 20
-146.3254353475332
 10
91.95459388977177
 20
-146.3275024048243
 10
91.95459388977177
 20
-146.3443833727021
 10
91.95459388977177
 20
-146.3591972832887
 10
91.94408634854175
 20
-146.3678100220018
 10
91.91652558465976
 20
-146.3826239325884
 10
91.91015215801206
 20
-146.4480807468081
 10
91.90808510072089
 20
-146.4692680840424
 10
91.90808510072089
 20
-146.5285237263887
 10
91.90808510072089
 20
-146.5285237263887
 10
92.00316973611379
 20
-146.5285237263887
 10
92.00316973611379
 20
-146.5285237263887
 10
92.08567977298553
 20
-146.5285237263887
 10
92.25914033066786
 20
-146.5242173570321
 10
92.38402504200816
 20
-146.5157768730932
 10
92.38402504200816
 20
-146.5157768730932
 10
92.38402504200816
 20
-146.6956108574233
 10
92.38402504200816
 20
-146.6956108574233
 10
92.35439722083501
 20
-146.6935438001321
 10
92.23588593614243
 20
-146.6892374307756
 10
92.19575057373926
 20
-146.6871703734844
 10
92.18093666315269
 20
-146.7379855318919
 10
92.14717472739724
 20
-146.8501233899368
 10
92.08154565840322
 20
-146.9896497570894
 10
92.12374807809753
 20
-146.9896497570894
 10
92.40090600988589
 20
-146.9707017319205
 10
92.46222870952333
 20
-146.9684624198551
 10
92.46222870952333
 20
-146.9684624198551
 10
92.46222870952333
 20
-147.1526027735417
 10
92.46222870952333
 20
-147.1526027735417
 10
92.43277314312445
 20
-147.1526027735417
 10
92.41571992047246
 20
-147.1482964041851
 10
92.2529391587944
 20
-147.1482964041851
 97
        0
 97
        1
330
F0
 75
     2
 76
     1
 98
        1
 10
0.0
 20
0.0
450
        0
451
        0
460
0.0
461
0.0
452
        0
462
0.0
453
        0
470

  0
SPLINE
  5
F2
330
EA
100
AcDbEntity
  8
レイヤー 1
100
AcDbSpline
210
0.0
220
0.0
230
1.0
 70
    11
 71
     3
 72
    17
 73
    13
 74
     0
 42
0.0000000001
 43
0.0000000001
 40
0.0
 40
0.0
 40
0.0
 40
0.0
 40
1.0
 40
1.0
 40
1.0
 40
2.0
 40
2.0
 40
2.0
 40
3.0
 40
3.0
 40
3.0
 40
4.0
 40
4.0
 40
4.0
 40
4.0
 10
94.10932886102129
 20
-147.9480753210859
 30
0.0
 10
94.10932886102129
 20
-147.9480753210859
 30
0.0
 10
93.40273977699654
 20
-147.9480753210859
 30
0.0
 10
93.40273977699654
 20
-147.9480753210859
 30
0.0
 10
93.40273977699654
 20
-147.9480753210859
 30
0.0
 10
93.40273977699654
 20
-148.0622802364219
 30
0.0
 10
93.40273977699654
 20
-148.0622802364219
 30
0.0
 10
93.40273977699654
 20
-148.0622802364219
 30
0.0
 10
94.10932886102129
 20
-148.0622802364219
 30
0.0
 10
94.10932886102129
 20
-148.0622802364219
 30
0.0
 10
94.10932886102129
 20
-148.0622802364219
 30
0.0
 10
94.10932886102129
 20
-147.9480753210859
 30
0.0
 10
94.10932886102129
 20
-147.9480753210859
 30
0.0
  0
SPLINE
  5
F3
330
EA
100
AcDbEntity
  8
レイヤー 1
100
AcDbSpline
210
0.0
220
0.0
230
1.0
 70
    11
 71
     3
 72
    17
 73
    13
 74
     0
 42
0.0000000001
 43
0.0000000001
 40
0.0
 40
0.0
 40
0.0
 40
0.0
 40
1.0
 40
1.0
 40
1.0
 40
2.0
 40
2.0
 40
2.0
 40
3.0
 40
3.0
 40
3.0
 40
4.0
 40
4.0
 40
4.0
 40
4.0
 10
94.10932886102129
 20
-147.704679325053
 30
0.0
 10
94.10932886102129
 20
-147.704679325053
 30
0.0
 10
93.40273977699654
 20
-147.704679325053
 30
0.0
 10
93.40273977699654
 20
-147.704679325053
 30
0.0
 10
93.40273977699654
 20
-147.704679325053
 30
0.0
 10
93.40273977699654
 20
-147.8190564951633
 30
0.0
 10
93.40273977699654
 20
-147.8190564951633
 30
0.0
 10
93.40273977699654
 20
-147.8190564951633
 30
0.0
 10
94.10932886102129
 20
-147.8190564951633
 30
0.0
 10
94.10932886102129
 20
-147.8190564951633
 30
0.0
 10
94.10932886102129
 20
-147.8190564951633
 30
0.0
 10
94.10932886102129
 20
-147.704679325053
 30
0.0
 10
94.10932886102129
 20
-147.704679325053
 30
0.0
  0
SPLINE
  5
F4
330
EA
100
AcDbEntity
  8
レイヤー 1
100
AcDbSpline
210
0.0
220
0.0
230
1.0
 70
    11
 71
     3
 72
    17
 73
    13
 74
     0
 42
0.0000000001
 43
0.0000000001
 40
0.0
 40
0.0
 40
0.0
 40
0.0
 40
1.0
 40
1.0
 40
1.0
 40
2.0
 40
2.0
 40
2.0
 40
3.0
 40
3.0
 40
3.0
 40
4.0
 40
4.0
 40
4.0
 40
4.0
 10
94.10932886102129
 20
-147.4719631250244
 30
0.0
 10
94.10932886102129
 20
-147.4719631250244
 30
0.0
 10
93.40273977699654
 20
-147.4719631250244
 30
0.0
 10
93.40273977699654
 20
-147.4719631250244
 30
0.0
 10
93.40273977699654
 20
-147.4719631250244
 30
0.0
 10
93.40273977699654
 20
-147.5799668684869
 30
0.0
 10
93.40273977699654
 20
-147.5799668684869
 30
0.0
 10
93.40273977699654
 20
-147.5799668684869
 30
0.0
 10
94.10932886102129
 20
-147.5799668684869
 30
0.0
 10
94.10932886102129
 20
-147.5799668684869
 30
0.0
 10
94.10932886102129
 20
-147.5799668684869
 30
0.0
 10
94.10932886102129
 20
-147.4719631250244
 30
0.0
 10
94.10932886102129
 20
-147.4719631250244
 30
0.0
  0
SPLINE
  5
F5
330
EA
100
AcDbEntity
  8
レイヤー 1
100
AcDbSpline
210
0.0
220
0.0
230
1.0
 70
     9
 71
     3
 72
   203
 73
   199
 74
     0
 42
0.0000000001
 43
0.0000000001
 40
0.0
 40
0.0
 40
0.0
 40
0.0
 40
1.0
 40
1.0
 40
1.0
 40
2.0
 40
2.0
 40
2.0
 40
3.0
 40
3.0
 40
3.0
 40
4.0
 40
4.0
 40
4.0
 40
5.0
 40
5.0
 40
5.0
 40
6.0
 40
6.0
 40
6.0
 40
7.0
 40
7.0
 40
7.0
 40
8.0
 40
8.0
 40
8.0
 40
9.0
 40
9.0
 40
9.0
 40
10.0
 40
10.0
 40
10.0
 40
11.0
 40
11.0
 40
11.0
 40
12.0
 40
12.0
 40
12.0
 40
13.0
 40
13.0
 40
13.0
 40
14.0
 40
14.0
 40
14.0
 40
15.0
 40
15.0
 40
15.0
 40
16.0
 40
16.0
 40
16.0
 40
17.0
 40
17.0
 40
17.0
 40
18.0
 40
18.0
 40
18.0
 40
19.0
 40
19.0
 40
19.0
 40
20.0
 40
20.0
 40
20.0
 40
21.0
 40
21.0
 40
21.0
 40
22.0
 40
22.0
 40
22.0
 40
23.0
 40
23.0
 40
23.0
 40
24.0
 40
24.0
 40
24.0
 40
25.0
 40
25.0
 40
25.0
 40
26.0
 40
26.0
 40
26.0
 40
27.0
 40
27.0
 40
27.0
 40
28.0
 40
28.0
 40
28.0
 40
29.0
 40
29.0
 40
29.0
 40
30.0
 40
30.0
 40
30.0
 40
31.0
 40
31.0
 40
31.0
 40
32.0
 40
32.0
 40
32.0
 40
33.0
 40
33.0
 40
33.0
 40
34.0
 40
34.0
 40
34.0
 40
35.0
 40
35.0
 40
35.0
 40
36.0
 40
36.0
 40
36.0
 40
37.0
 40
37.0
 40
37.0
 40
38.0
 40
38.0
 40
38.0
 40
39.0
 40
39.0
 40
39.0
 40
40.0
 40
40.0
 40
40.0
 40
41.0
 40
41.0
 40
41.0
 40
42.0
 40
42.0
 40
42.0
 40
43.0
 40
43.0
 40
43.0
 40
44.0
 40
44.0
 40
44.0
 40
45.0
 40
45.0
 40
45.0
 40
46.0
 40
46.0
 40
46.0
 40
47.0
 40
47.0
 40
47.0
 40
48.0
 40
48.0
 40
48.0
 40
49.0
 40
49.0
 40
49.0
 40
50.0
 40
50.0
 40
50.0
 40
51.0
 40
51.0
 40
51.0
 40
52.0
 40
52.0
 40
52.0
 40
53.0
 40
53.0
 40
53.0
 40
54.0
 40
54.0
 40
54.0
 40
55.0
 40
55.0
 40
55.0
 40
56.0
 40
56.0
 40
56.0
 40
57.0
 40
57.0
 40
57.0
 40
58.0
 40
58.0
 40
58.0
 40
59.0
 40
59.0
 40
59.0
 40
60.0
 40
60.0
 40
60.0
 40
61.0
 40
61.0
 40
61.0
 40
62.0
 40
62.0
 40
62.0
 40
63.0
 40
63.0
 40
63.0
 40
64.0
 40
64.0
 40
64.0
 40
65.0
 40
65.0
 40
65.0
 40
66.0
 40
66.0
 40
66.0
 40
66.0
 10
93.94430878727781
 20
-147.2159925304703
 30
0.0
 10
93.94430878727781
 20
-147.2159925304703
 30
0.0
 10
93.38585880911882
 20
-147.2159925304703
 30
0.0
 10
93.38585880911882
 20
-147.2159925304703
 30
0.0
 10
93.37517901311455
 20
-147.26043426223
 30
0.0
 10
93.36673852917568
 20
-147.2921291406943
 30
0.0
 10
93.35416393065452
 20
-147.3303697005806
 30
0.0
 10
93.37948538247109
 20
-147.3303697005806
 30
0.0
 10
93.39429929305769
 20
-147.3324367578717
 30
0.0
 10
93.40067271970539
 20
-147.3324367578717
 30
0.0
 10
93.40067271970539
 20
-147.3324367578717
 30
0.0
 10
93.58894718797429
 20
-147.3324367578717
 30
0.0
 10
93.58894718797429
 20
-147.3324367578717
 30
0.0
 10
93.58894718797429
 20
-147.3324367578717
 30
0.0
 10
93.96342906722095
 20
-147.3324367578717
 30
0.0
 10
93.96342906722095
 20
-147.3324367578717
 30
0.0
 10
94.01407197085411
 20
-147.3324367578717
 30
0.0
 10
94.29760332929019
 20
-147.3196899045763
 30
0.0
 10
94.32929820775449
 20
-147.3196899045763
 30
0.0
 10
94.32723115046334
 20
-147.3472506684583
 30
0.0
 10
94.32516409317219
 20
-147.3661986936272
 30
0.0
 10
94.32516409317219
 20
-147.3958265148003
 30
0.0
 10
94.32292478110678
 20
-147.4275213932646
 30
0.0
 10
94.32292478110678
 20
-147.562913645835
 30
0.0
 10
94.32292478110678
 20
-147.5904744097169
 30
0.0
 10
94.32292478110678
 20
-147.5904744097169
 30
0.0
 10
94.32292478110678
 20
-147.835937463041
 30
0.0
 10
94.32292478110678
 20
-147.835937463041
 30
0.0
 10
94.32292478110678
 20
-147.8803791948007
 30
0.0
 10
94.32723115046334
 20
-148.0770941470085
 30
0.0
 10
94.3315375198199
 20
-148.2293673674565
 30
0.0
 10
94.3315375198199
 20
-148.2293673674565
 30
0.0
 10
94.10502249166473
 20
-148.2293673674565
 30
0.0
 10
94.10502249166473
 20
-148.2293673674565
 30
0.0
 10
94.10502249166473
 20
-148.2293673674565
 30
0.0
 10
94.10726180373014
 20
-148.1956054317011
 30
0.0
 10
94.10726180373014
 20
-148.1956054317011
 30
0.0
 10
94.10726180373014
 20
-148.1956054317011
 30
0.0
 10
93.4048068342877
 20
-148.1956054317011
 30
0.0
 10
93.4048068342877
 20
-148.1956054317011
 30
0.0
 10
93.4048068342877
 20
-148.1956054317011
 30
0.0
 10
93.40704614635312
 20
-148.2293673674565
 30
0.0
 10
93.40704614635312
 20
-148.2293673674565
 30
0.0
 10
93.40704614635312
 20
-148.2293673674565
 30
0.0
 10
93.18914385691105
 20
-148.2293673674565
 30
0.0
 10
93.18914385691105
 20
-148.2293673674565
 30
0.0
 10
93.19327797149334
 20
-148.1744180944668
 30
0.0
 10
93.19327797149334
 20
-148.1616712411714
 30
0.0
 10
93.19965139814106
 20
-148.0474663258353
 30
0.0
 10
93.20171845543221
 20
-148.0199055619533
 30
0.0
 10
93.20395776749762
 20
-147.8867526214484
 30
0.0
 10
93.20395776749762
 20
-147.8676323415053
 30
0.0
 10
93.20395776749762
 20
-147.8676323415053
 30
0.0
 10
93.20395776749762
 20
-147.6645439626498
 30
0.0
 10
93.20395776749762
 20
-147.6645439626498
 30
0.0
 10
93.06425914557074
 20
-147.9141411305562
 30
0.0
 10
92.89510495724497
 20
-148.0453992685442
 30
0.0
 10
92.7893405258478
 20
-148.110856082764
 30
0.0
 10
92.7893405258478
 20
-148.110856082764
 30
0.0
 10
92.61570771339121
 20
-147.9713297156113
 30
0.0
 10
92.61570771339121
 20
-147.9713297156113
 30
0.0
 10
92.70459117691066
 20
-147.9205145572039
 30
0.0
 10
92.84842391341983
 20
-147.8336981509756
 30
0.0
 10
92.98605547805557
 20
-147.6392225108332
 30
0.0
 10
93.07700599886617
 20
-147.5122707422018
 30
0.0
 10
93.14263506786017
 20
-147.3684380056926
 30
0.0
 10
93.17639700361564
 20
-147.2159925304703
 30
0.0
 10
92.94798717294357
 20
-147.2182318425357
 30
0.0
 10
92.76815318861352
 20
-147.2246052691834
 30
0.0
 10
92.67289629844636
 20
-147.2266723264746
 30
0.0
 10
92.67289629844636
 20
-147.2266723264746
 30
0.0
 10
92.67289629844636
 20
-147.0489053994357
 30
0.0
 10
92.67289629844636
 20
-147.0489053994357
 30
0.0
 10
92.86961125065413
 20
-147.0552788260834
 30
0.0
 10
93.15314260909019
 20
-147.0595851954399
 30
0.0
 10
93.30334877224707
 20
-147.0595851954399
 30
0.0
 10
93.30334877224707
 20
-147.0595851954399
 30
0.0
 10
93.51694469233256
 20
-147.0595851954399
 30
0.0
 10
93.51694469233256
 20
-147.0595851954399
 30
0.0
 10
93.51694469233256
 20
-147.0595851954399
 30
0.0
 10
93.51694469233256
 20
-146.9515814519773
 30
0.0
 10
93.51694469233256
 20
-146.9515814519773
 30
0.0
 10
93.51694469233256
 20
-146.9515814519773
 30
0.0
 10
93.37104489853224
 20
-146.9515814519773
 30
0.0
 10
93.37104489853224
 20
-146.9515814519773
 30
0.0
 10
93.20171845543221
 20
-146.9515814519773
 30
0.0
 10
93.03256426710644
 20
-146.9558878213339
 30
0.0
 10
92.86547713607182
 20
-146.9622612479817
 30
0.0
 10
92.86547713607182
 20
-146.9622612479817
 30
0.0
 10
92.86547713607182
 20
-146.7908677475905
 30
0.0
 10
92.86547713607182
 20
-146.7908677475905
 30
0.0
 10
93.01981741381103
 20
-146.8013752888205
 30
0.0
 10
93.20602482478877
 20
-146.8013752888205
 30
0.0
 10
93.37104489853224
 20
-146.8013752888205
 30
0.0
 10
93.37104489853224
 20
-146.8013752888205
 30
0.0
 10
93.51694469233256
 20
-146.8013752888205
 30
0.0
 10
93.51694469233256
 20
-146.8013752888205
 30
0.0
 10
93.51694469233256
 20
-146.8013752888205
 30
0.0
 10
93.51694469233256
 20
-146.6830362589021
 30
0.0
 10
93.51694469233256
 20
-146.6830362589021
 30
0.0
 10
93.51694469233256
 20
-146.6830362589021
 30
0.0
 10
93.38585880911882
 20
-146.6830362589021
 30
0.0
 10
93.38585880911882
 20
-146.6830362589021
 30
0.0
 10
93.33935002006795
 20
-146.6830362589021
 30
0.0
 10
93.13626164121247
 20
-146.691476742841
 30
0.0
 10
93.09388696674389
 20
-146.691476742841
 30
0.0
 10
92.89079858788841
 20
-146.6956108574233
 30
0.0
 10
92.81466197766439
 20
-146.6976779147145
 30
0.0
 10
92.73645831014922
 20
-146.6999172267799
 30
0.0
 10
92.73645831014922
 20
-146.6999172267799
 30
0.0
 10
92.73645831014922
 20
-146.5157768730932
 30
0.0
 10
92.73645831014922
 20
-146.5157768730932
 30
0.0
 10
92.85066322548525
 20
-146.5242173570321
 30
0.0
 10
92.89510495724497
 20
-146.5242173570321
 30
0.0
 10
93.2780273204305
 20
-146.5328300957453
 30
0.0
 10
93.21446530872764
 20
-146.4375732055781
 30
0.0
 10
93.18690454484565
 20
-146.4100124416961
 30
0.0
 10
93.15107555179904
 20
-146.3740111938752
 30
0.0
 10
93.15107555179904
 20
-146.3740111938752
 30
0.0
 10
93.32660316677252
 20
-146.2915011570035
 30
0.0
 10
93.32660316677252
 20
-146.2915011570035
 30
0.0
 10
93.36673852917568
 20
-146.3275024048243
 30
0.0
 10
93.41118026093541
 20
-146.3698770792929
 30
0.0
 10
93.48524981386828
 20
-146.4797756252724
 30
0.0
 10
93.48524981386828
 20
-146.4797756252724
 30
0.0
 10
93.37104489853224
 20
-146.5348971530364
 30
0.0
 10
93.37104489853224
 20
-146.5348971530364
 30
0.0
 10
93.37104489853224
 20
-146.5348971530364
 30
0.0
 10
93.38155243976226
 20
-146.5348971530364
 30
0.0
 10
93.38155243976226
 20
-146.5348971530364
 30
0.0
 10
93.38155243976226
 20
-146.5348971530364
 30
0.0
 10
93.90417342487465
 20
-146.5348971530364
 30
0.0
 10
93.90417342487465
 20
-146.5348971530364
 30
0.0
 10
93.90417342487465
 20
-146.5348971530364
 30
0.0
 10
93.80891653470749
 20
-146.4904554212767
 30
0.0
 10
93.80891653470749
 20
-146.4904554212767
 30
0.0
 10
93.8364772985895
 20
-146.4523871161647
 30
0.0
 10
93.89349362887037
 20
-146.3719441365841
 30
0.0
 10
93.90830753945696
 20
-146.2978745836512
 30
0.0
 10
93.90830753945696
 20
-146.2978745836512
 30
0.0
 10
94.1220757143167
 20
-146.3614365953541
 30
0.0
 10
94.1220757143167
 20
-146.3614365953541
 30
0.0
 10
94.13051619825557
 20
-146.3635036526452
 30
0.0
 10
94.15170353548985
 20
-146.3740111938752
 30
0.0
 10
94.15170353548985
 20
-146.3951985311095
 30
0.0
 10
94.15170353548985
 20
-146.4332668362215
 30
0.0
 10
94.08607446649584
 20
-146.4332668362215
 30
0.0
 10
94.06695418655271
 20
-146.4332668362215
 30
0.0
 10
94.05644664532269
 20
-146.4523871161647
 30
0.0
 10
94.03319225079725
 20
-146.4925224785678
 30
0.0
 10
94.00356442962412
 20
-146.5328300957453
 30
0.0
 10
94.40336776068736
 20
-146.5264566690976
 30
0.0
 10
94.43299558186051
 20
-146.5242173570321
 30
0.0
 10
94.50913219208452
 20
-146.5180161851587
 30
0.0
 10
94.50913219208452
 20
-146.5180161851587
 30
0.0
 10
94.50913219208452
 20
-146.6999172267799
 30
0.0
 10
94.50913219208452
 20
-146.6999172267799
 30
0.0
 10
94.49018416691565
 20
-146.6999172267799
 30
0.0
 10
94.46469046032481
 20
-146.6976779147145
 30
0.0
 10
94.24472111359159
 20
-146.6892374307756
 30
0.0
 10
94.19390595518416
 20
-146.6871703734844
 30
0.0
 10
93.97393660845096
 20
-146.6830362589021
 30
0.0
 10
93.92949487669124
 20
-146.6830362589021
 30
0.0
 10
93.92949487669124
 20
-146.6830362589021
 30
0.0
 10
93.71365964454033
 20
-146.6830362589021
 30
0.0
 10
93.71365964454033
 20
-146.6830362589021
 30
0.0
 10
93.71365964454033
 20
-146.6830362589021
 30
0.0
 10
93.71365964454033
 20
-146.8013752888205
 30
0.0
 10
93.71365964454033
 20
-146.8013752888205
 30
0.0
 10
93.71365964454033
 20
-146.8013752888205
 30
0.0
 10
93.88712020222268
 20
-146.8013752888205
 30
0.0
 10
93.88712020222268
 20
-146.8013752888205
 30
0.0
 10
94.05007321867499
 20
-146.8013752888205
 30
0.0
 10
94.24041474423503
 20
-146.8013752888205
 30
0.0
 10
94.39699433403964
 20
-146.7908677475905
 30
0.0
 10
94.39699433403964
 20
-146.7908677475905
 30
0.0
 10
94.39699433403964
 20
-146.9622612479817
 30
0.0
 10
94.39699433403964
 20
-146.9622612479817
 30
0.0
 10
94.18753252853646
 20
-146.9538207640428
 30
0.0
 10
93.99081757632869
 20
-146.9515814519773
 30
0.0
 10
93.88712020222268
 20
-146.9515814519773
 30
0.0
 10
93.88712020222268
 20
-146.9515814519773
 30
0.0
 10
93.71365964454033
 20
-146.9515814519773
 30
0.0
 10
93.71365964454033
 20
-146.9515814519773
 30
0.0
 10
93.71365964454033
 20
-146.9515814519773
 30
0.0
 10
93.71365964454033
 20
-147.0595851954399
 30
0.0
 10
93.71365964454033
 20
-147.0595851954399
 30
0.0
 10
93.71365964454033
 20
-147.0595851954399
 30
0.0
 10
93.94430878727781
 20
-147.0595851954399
 30
0.0
 10
93.94430878727781
 20
-147.0595851954399
 30
0.0
 10
94.07763398255699
 20
-147.0595851954399
 30
0.0
 10
94.36529945557534
 20
-147.0552788260834
 30
0.0
 10
94.57476126107854
 20
-147.0489053994357
 30
0.0
 10
94.57476126107854
 20
-147.0489053994357
 30
0.0
 10
94.57476126107854
 20
-147.2266723264746
 30
0.0
 10
94.57476126107854
 20
-147.2266723264746
 30
0.0
 10
94.38218042345306
 20
-147.2202988998269
 30
0.0
 10
94.06919349861812
 20
-147.2159925304703
 30
0.0
 10
93.94430878727781
 20
-147.2159925304703
 30
0.0
  0
HATCH
  5
F6
330
EA
100
AcDbEntity
  8
レイヤー 1
 62
    18
420
        0
440
 33554687
100
AcDbHatch
 10
0.0
 20
0.0
 30
0.0
210
0.0
220
0.0
230
1.0
  2
SOLID
 70
     1
 71
     1
 91
        4
 92
        1
 93
        1
 72
     4
 94
        3
 73
     0
 74
     0
 95
       17
 96
       13
 40
0.0
 40
0.0
 40
0.0
 40
0.0
 40
1.0
 40
1.0
 40
1.0
 40
2.0
 40
2.0
 40
2.0
 40
3.0
 40
3.0
 40
3.0
 40
4.0
 40
4.0
 40
4.0
 40
4.0
 10
94.10932886102129
 20
-147.9480753210859
 10
94.10932886102129
 20
-147.9480753210859
 10
93.40273977699654
 20
-147.9480753210859
 10
93.40273977699654
 20
-147.9480753210859
 10
93.40273977699654
 20
-147.9480753210859
 10
93.40273977699654
 20
-148.0622802364219
 10
93.40273977699654
 20
-148.0622802364219
 10
93.40273977699654
 20
-148.0622802364219
 10
94.10932886102129
 20
-148.0622802364219
 10
94.10932886102129
 20
-148.0622802364219
 10
94.10932886102129
 20
-148.0622802364219
 10
94.10932886102129
 20
-147.9480753210859
 10
94.10932886102129
 20
-147.9480753210859
 97
        0
 97
        1
330
F2
 92
        1
 93
        1
 72
     4
 94
        3
 73
     0
 74
     0
 95
       17
 96
       13
 40
0.0
 40
0.0
 40
0.0
 40
0.0
 40
1.0
 40
1.0
 40
1.0
 40
2.0
 40
2.0
 40
2.0
 40
3.0
 40
3.0
 40
3.0
 40
4.0
 40
4.0
 40
4.0
 40
4.0
 10
94.10932886102129
 20
-147.704679325053
 10
94.10932886102129
 20
-147.704679325053
 10
93.40273977699654
 20
-147.704679325053
 10
93.40273977699654
 20
-147.704679325053
 10
93.40273977699654
 20
-147.704679325053
 10
93.40273977699654
 20
-147.8190564951633
 10
93.40273977699654
 20
-147.8190564951633
 10
93.40273977699654
 20
-147.8190564951633
 10
94.10932886102129
 20
-147.8190564951633
 10
94.10932886102129
 20
-147.8190564951633
 10
94.10932886102129
 20
-147.8190564951633
 10
94.10932886102129
 20
-147.704679325053
 10
94.10932886102129
 20
-147.704679325053
 97
        0
 97
        1
330
F3
 92
        1
 93
        1
 72
     4
 94
        3
 73
     0
 74
     0
 95
       17
 96
       13
 40
0.0
 40
0.0
 40
0.0
 40
0.0
 40
1.0
 40
1.0
 40
1.0
 40
2.0
 40
2.0
 40
2.0
 40
3.0
 40
3.0
 40
3.0
 40
4.0
 40
4.0
 40
4.0
 40
4.0
 10
94.10932886102129
 20
-147.4719631250244
 10
94.10932886102129
 20
-147.4719631250244
 10
93.40273977699654
 20
-147.4719631250244
 10
93.40273977699654
 20
-147.4719631250244
 10
93.40273977699654
 20
-147.4719631250244
 10
93.40273977699654
 20
-147.5799668684869
 10
93.40273977699654
 20
-147.5799668684869
 10
93.40273977699654
 20
-147.5799668684869
 10
94.10932886102129
 20
-147.5799668684869
 10
94.10932886102129
 20
-147.5799668684869
 10
94.10932886102129
 20
-147.5799668684869
 10
94.10932886102129
 20
-147.4719631250244
 10
94.10932886102129
 20
-147.4719631250244
 97
        0
 97
        1
330
F4
 92
        1
 93
        1
 72
     4
 94
        3
 73
     0
 74
     0
 95
      203
 96
      199
 40
0.0
 40
0.0
 40
0.0
 40
0.0
 40
1.0
 40
1.0
 40
1.0
 40
2.0
 40
2.0
 40
2.0
 40
3.0
 40
3.0
 40
3.0
 40
4.0
 40
4.0
 40
4.0
 40
5.0
 40
5.0
 40
5.0
 40
6.0
 40
6.0
 40
6.0
 40
7.0
 40
7.0
 40
7.0
 40
8.0
 40
8.0
 40
8.0
 40
9.0
 40
9.0
 40
9.0
 40
10.0
 40
10.0
 40
10.0
 40
11.0
 40
11.0
 40
11.0
 40
12.0
 40
12.0
 40
12.0
 40
13.0
 40
13.0
 40
13.0
 40
14.0
 40
14.0
 40
14.0
 40
15.0
 40
15.0
 40
15.0
 40
16.0
 40
16.0
 40
16.0
 40
17.0
 40
17.0
 40
17.0
 40
18.0
 40
18.0
 40
18.0
 40
19.0
 40
19.0
 40
19.0
 40
20.0
 40
20.0
 40
20.0
 40
21.0
 40
21.0
 40
21.0
 40
22.0
 40
22.0
 40
22.0
 40
23.0
 40
23.0
 40
23.0
 40
24.0
 40
24.0
 40
24.0
 40
25.0
 40
25.0
 40
25.0
 40
26.0
 40
26.0
 40
26.0
 40
27.0
 40
27.0
 40
27.0
 40
28.0
 40
28.0
 40
28.0
 40
29.0
 40
29.0
 40
29.0
 40
30.0
 40
30.0
 40
30.0
 40
31.0
 40
31.0
 40
31.0
 40
32.0
 40
32.0
 40
32.0
 40
33.0
 40
33.0
 40
33.0
 40
34.0
 40
34.0
 40
34.0
 40
35.0
 40
35.0
 40
35.0
 40
36.0
 40
36.0
 40
36.0
 40
37.0
 40
37.0
 40
37.0
 40
38.0
 40
38.0
 40
38.0
 40
39.0
 40
39.0
 40
39.0
 40
40.0
 40
40.0
 40
40.0
 40
41.0
 40
41.0
 40
41.0
 40
42.0
 40
42.0
 40
42.0
 40
43.0
 40
43.0
 40
43.0
 40
44.0
 40
44.0
 40
44.0
 40
45.0
 40
45.0
 40
45.0
 40
46.0
 40
46.0
 40
46.0
 40
47.0
 40
47.0
 40
47.0
 40
48.0
 40
48.0
 40
48.0
 40
49.0
 40
49.0
 40
49.0
 40
50.0
 40
50.0
 40
50.0
 40
51.0
 40
51.0
 40
51.0
 40
52.0
 40
52.0
 40
52.0
 40
53.0
 40
53.0
 40
53.0
 40
54.0
 40
54.0
 40
54.0
 40
55.0
 40
55.0
 40
55.0
 40
56.0
 40
56.0
 40
56.0
 40
57.0
 40
57.0
 40
57.0
 40
58.0
 40
58.0
 40
58.0
 40
59.0
 40
59.0
 40
59.0
 40
60.0
 40
60.0
 40
60.0
 40
61.0
 40
61.0
 40
61.0
 40
62.0
 40
62.0
 40
62.0
 40
63.0
 40
63.0
 40
63.0
 40
64.0
 40
64.0
 40
64.0
 40
65.0
 40
65.0
 40
65.0
 40
66.0
 40
66.0
 40
66.0
 40
66.0
 10
93.94430878727781
 20
-147.2159925304703
 10
93.94430878727781
 20
-147.2159925304703
 10
93.38585880911882
 20
-147.2159925304703
 10
93.38585880911882
 20
-147.2159925304703
 10
93.37517901311455
 20
-147.26043426223
 10
93.36673852917568
 20
-147.2921291406943
 10
93.35416393065452
 20
-147.3303697005806
 10
93.37948538247109
 20
-147.3303697005806
 10
93.39429929305769
 20
-147.3324367578717
 10
93.40067271970539
 20
-147.3324367578717
 10
93.40067271970539
 20
-147.3324367578717
 10
93.58894718797429
 20
-147.3324367578717
 10
93.58894718797429
 20
-147.3324367578717
 10
93.58894718797429
 20
-147.3324367578717
 10
93.96342906722095
 20
-147.3324367578717
 10
93.96342906722095
 20
-147.3324367578717
 10
94.01407197085411
 20
-147.3324367578717
 10
94.29760332929019
 20
-147.3196899045763
 10
94.32929820775449
 20
-147.3196899045763
 10
94.32723115046334
 20
-147.3472506684583
 10
94.32516409317219
 20
-147.3661986936272
 10
94.32516409317219
 20
-147.3958265148003
 10
94.32292478110678
 20
-147.4275213932646
 10
94.32292478110678
 20
-147.562913645835
 10
94.32292478110678
 20
-147.5904744097169
 10
94.32292478110678
 20
-147.5904744097169
 10
94.32292478110678
 20
-147.835937463041
 10
94.32292478110678
 20
-147.835937463041
 10
94.32292478110678
 20
-147.8803791948007
 10
94.32723115046334
 20
-148.0770941470085
 10
94.3315375198199
 20
-148.2293673674565
 10
94.3315375198199
 20
-148.2293673674565
 10
94.10502249166473
 20
-148.2293673674565
 10
94.10502249166473
 20
-148.2293673674565
 10
94.10502249166473
 20
-148.2293673674565
 10
94.10726180373014
 20
-148.1956054317011
 10
94.10726180373014
 20
-148.1956054317011
 10
94.10726180373014
 20
-148.1956054317011
 10
93.4048068342877
 20
-148.1956054317011
 10
93.4048068342877
 20
-148.1956054317011
 10
93.4048068342877
 20
-148.1956054317011
 10
93.40704614635312
 20
-148.2293673674565
 10
93.40704614635312
 20
-148.2293673674565
 10
93.40704614635312
 20
-148.2293673674565
 10
93.18914385691105
 20
-148.2293673674565
 10
93.18914385691105
 20
-148.2293673674565
 10
93.19327797149334
 20
-148.1744180944668
 10
93.19327797149334
 20
-148.1616712411714
 10
93.19965139814106
 20
-148.0474663258353
 10
93.20171845543221
 20
-148.0199055619533
 10
93.20395776749762
 20
-147.8867526214484
 10
93.20395776749762
 20
-147.8676323415053
 10
93.20395776749762
 20
-147.8676323415053
 10
93.20395776749762
 20
-147.6645439626498
 10
93.20395776749762
 20
-147.6645439626498
 10
93.06425914557074
 20
-147.9141411305562
 10
92.89510495724497
 20
-148.0453992685442
 10
92.7893405258478
 20
-148.110856082764
 10
92.7893405258478
 20
-148.110856082764
 10
92.61570771339121
 20
-147.9713297156113
 10
92.61570771339121
 20
-147.9713297156113
 10
92.70459117691066
 20
-147.9205145572039
 10
92.84842391341983
 20
-147.8336981509756
 10
92.98605547805557
 20
-147.6392225108332
 10
93.07700599886617
 20
-147.5122707422018
 10
93.14263506786017
 20
-147.3684380056926
 10
93.17639700361564
 20
-147.2159925304703
 10
92.94798717294357
 20
-147.2182318425357
 10
92.76815318861352
 20
-147.2246052691834
 10
92.67289629844636
 20
-147.2266723264746
 10
92.67289629844636
 20
-147.2266723264746
 10
92.67289629844636
 20
-147.0489053994357
 10
92.67289629844636
 20
-147.0489053994357
 10
92.86961125065413
 20
-147.0552788260834
 10
93.15314260909019
 20
-147.0595851954399
 10
93.30334877224707
 20
-147.0595851954399
 10
93.30334877224707
 20
-147.0595851954399
 10
93.51694469233256
 20
-147.0595851954399
 10
93.51694469233256
 20
-147.0595851954399
 10
93.51694469233256
 20
-147.0595851954399
 10
93.51694469233256
 20
-146.9515814519773
 10
93.51694469233256
 20
-146.9515814519773
 10
93.51694469233256
 20
-146.9515814519773
 10
93.37104489853224
 20
-146.9515814519773
 10
93.37104489853224
 20
-146.9515814519773
 10
93.20171845543221
 20
-146.9515814519773
 10
93.03256426710644
 20
-146.9558878213339
 10
92.86547713607182
 20
-146.9622612479817
 10
92.86547713607182
 20
-146.9622612479817
 10
92.86547713607182
 20
-146.7908677475905
 10
92.86547713607182
 20
-146.7908677475905
 10
93.01981741381103
 20
-146.8013752888205
 10
93.20602482478877
 20
-146.8013752888205
 10
93.37104489853224
 20
-146.8013752888205
 10
93.37104489853224
 20
-146.8013752888205
 10
93.51694469233256
 20
-146.8013752888205
 10
93.51694469233256
 20
-146.8013752888205
 10
93.51694469233256
 20
-146.8013752888205
 10
93.51694469233256
 20
-146.6830362589021
 10
93.51694469233256
 20
-146.6830362589021
 10
93.51694469233256
 20
-146.6830362589021
 10
93.38585880911882
 20
-146.6830362589021
 10
93.38585880911882
 20
-146.6830362589021
 10
93.33935002006795
 20
-146.6830362589021
 10
93.13626164121247
 20
-146.691476742841
 10
93.09388696674389
 20
-146.691476742841
 10
92.89079858788841
 20
-146.6956108574233
 10
92.81466197766439
 20
-146.6976779147145
 10
92.73645831014922
 20
-146.6999172267799
 10
92.73645831014922
 20
-146.6999172267799
 10
92.73645831014922
 20
-146.5157768730932
 10
92.73645831014922
 20
-146.5157768730932
 10
92.85066322548525
 20
-146.5242173570321
 10
92.89510495724497
 20
-146.5242173570321
 10
93.2780273204305
 20
-146.5328300957453
 10
93.21446530872764
 20
-146.4375732055781
 10
93.18690454484565
 20
-146.4100124416961
 10
93.15107555179904
 20
-146.3740111938752
 10
93.15107555179904
 20
-146.3740111938752
 10
93.32660316677252
 20
-146.2915011570035
 10
93.32660316677252
 20
-146.2915011570035
 10
93.36673852917568
 20
-146.3275024048243
 10
93.41118026093541
 20
-146.3698770792929
 10
93.48524981386828
 20
-146.4797756252724
 10
93.48524981386828
 20
-146.4797756252724
 10
93.37104489853224
 20
-146.5348971530364
 10
93.37104489853224
 20
-146.5348971530364
 10
93.37104489853224
 20
-146.5348971530364
 10
93.38155243976226
 20
-146.5348971530364
 10
93.38155243976226
 20
-146.5348971530364
 10
93.38155243976226
 20
-146.5348971530364
 10
93.90417342487465
 20
-146.5348971530364
 10
93.90417342487465
 20
-146.5348971530364
 10
93.90417342487465
 20
-146.5348971530364
 10
93.80891653470749
 20
-146.4904554212767
 10
93.80891653470749
 20
-146.4904554212767
 10
93.8364772985895
 20
-146.4523871161647
 10
93.89349362887037
 20
-146.3719441365841
 10
93.90830753945696
 20
-146.2978745836512
 10
93.90830753945696
 20
-146.2978745836512
 10
94.1220757143167
 20
-146.3614365953541
 10
94.1220757143167
 20
-146.3614365953541
 10
94.13051619825557
 20
-146.3635036526452
 10
94.15170353548985
 20
-146.3740111938752
 10
94.15170353548985
 20
-146.3951985311095
 10
94.15170353548985
 20
-146.4332668362215
 10
94.08607446649584
 20
-146.4332668362215
 10
94.06695418655271
 20
-146.4332668362215
 10
94.05644664532269
 20
-146.4523871161647
 10
94.03319225079725
 20
-146.4925224785678
 10
94.00356442962412
 20
-146.5328300957453
 10
94.40336776068736
 20
-146.5264566690976
 10
94.43299558186051
 20
-146.5242173570321
 10
94.50913219208452
 20
-146.5180161851587
 10
94.50913219208452
 20
-146.5180161851587
 10
94.50913219208452
 20
-146.6999172267799
 10
94.50913219208452
 20
-146.6999172267799
 10
94.49018416691565
 20
-146.6999172267799
 10
94.46469046032481
 20
-146.6976779147145
 10
94.24472111359159
 20
-146.6892374307756
 10
94.19390595518416
 20
-146.6871703734844
 10
93.97393660845096
 20
-146.6830362589021
 10
93.92949487669124
 20
-146.6830362589021
 10
93.92949487669124
 20
-146.6830362589021
 10
93.71365964454033
 20
-146.6830362589021
 10
93.71365964454033
 20
-146.6830362589021
 10
93.71365964454033
 20
-146.6830362589021
 10
93.71365964454033
 20
-146.8013752888205
 10
93.71365964454033
 20
-146.8013752888205
 10
93.71365964454033
 20
-146.8013752888205
 10
93.88712020222268
 20
-146.8013752888205
 10
93.88712020222268
 20
-146.8013752888205
 10
94.05007321867499
 20
-146.8013752888205
 10
94.24041474423503
 20
-146.8013752888205
 10
94.39699433403964
 20
-146.7908677475905
 10
94.39699433403964
 20
-146.7908677475905
 10
94.39699433403964
 20
-146.9622612479817
 10
94.39699433403964
 20
-146.9622612479817
 10
94.18753252853646
 20
-146.9538207640428
 10
93.99081757632869
 20
-146.9515814519773
 10
93.88712020222268
 20
-146.9515814519773
 10
93.88712020222268
 20
-146.9515814519773
 10
93.71365964454033
 20
-146.9515814519773
 10
93.71365964454033
 20
-146.9515814519773
 10
93.71365964454033
 20
-146.9515814519773
 10
93.71365964454033
 20
-147.0595851954399
 10
93.71365964454033
 20
-147.0595851954399
 10
93.71365964454033
 20
-147.0595851954399
 10
93.94430878727781
 20
-147.0595851954399
 10
93.94430878727781
 20
-147.0595851954399
 10
94.07763398255699
 20
-147.0595851954399
 10
94.36529945557534
 20
-147.0552788260834
 10
94.57476126107854
 20
-147.0489053994357
 10
94.57476126107854
 20
-147.0489053994357
 10
94.57476126107854
 20
-147.2266723264746
 10
94.57476126107854
 20
-147.2266723264746
 10
94.38218042345306
 20
-147.2202988998269
 10
94.06919349861812
 20
-147.2159925304703
 10
93.94430878727781
 20
-147.2159925304703
 97
        0
 97
        1
330
F5
 75
     2
 76
     1
 98
        1
 10
0.0
 20
0.0
450
        0
451
        0
460
0.0
461
0.0
452
        0
462
0.0
453
        0
470

  0
SPLINE
  5
F7
330
EA
100
AcDbEntity
  8
レイヤー 1
100
AcDbSpline
210
0.0
220
0.0
230
1.0
 70
     9
 71
     3
 72
    29
 73
    25
 74
     0
 42
0.0000000001
 43
0.0000000001
 40
0.0
 40
0.0
 40
0.0
 40
0.0
 40
1.0
 40
1.0
 40
1.0
 40
2.0
 40
2.0
 40
2.0
 40
3.0
 40
3.0
 40
3.0
 40
4.0
 40
4.0
 40
4.0
 40
5.0
 40
5.0
 40
5.0
 40
6.0
 40
6.0
 40
6.0
 40
7.0
 40
7.0
 40
7.0
 40
8.0
 40
8.0
 40
8.0
 40
8.0
 10
95.81981876944782
 20
-146.663915978959
 30
0.0
 10
95.81981876944782
 20
-146.663915978959
 30
0.0
 10
95.46652422743546
 20
-146.663915978959
 30
0.0
 10
95.46652422743546
 20
-146.663915978959
 30
0.0
 10
95.35438636939057
 20
-146.663915978959
 30
0.0
 10
95.21486000223795
 20
-146.6702894056067
 30
0.0
 10
95.10685625877538
 20
-146.6830362589021
 30
0.0
 10
95.10685625877538
 20
-146.6830362589021
 30
0.0
 10
95.10685625877538
 20
-146.4480807468081
 30
0.0
 10
95.10685625877538
 20
-146.4480807468081
 30
0.0
 10
95.22536754346797
 20
-146.4628946573947
 30
0.0
 10
95.40933564238031
 20
-146.4672010267513
 30
0.0
 10
95.46652422743546
 20
-146.4672010267513
 30
0.0
 10
95.46652422743546
 20
-146.4672010267513
 30
0.0
 10
95.81981876944782
 20
-146.4672010267513
 30
0.0
 10
95.81981876944782
 20
-146.4672010267513
 30
0.0
 10
95.8387667946167
 20
-146.4672010267513
 30
0.0
 10
96.04202742824645
 20
-146.4672010267513
 30
0.0
 10
96.18362085269021
 20
-146.4480807468081
 30
0.0
 10
96.18362085269021
 20
-146.4480807468081
 30
0.0
 10
96.18362085269021
 20
-146.6830362589021
 30
0.0
 10
96.18362085269021
 20
-146.6830362589021
 30
0.0
 10
96.02721351765987
 20
-146.663915978959
 30
0.0
 10
95.83669973732554
 20
-146.663915978959
 30
0.0
 10
95.81981876944782
 20
-146.663915978959
 30
0.0
  0
SPLINE
  5
F8
330
EA
100
AcDbEntity
  8
レイヤー 1
100
AcDbSpline
210
0.0
220
0.0
230
1.0
 70
     9
 71
     3
 72
    47
 73
    43
 74
     0
 42
0.0000000001
 43
0.0000000001
 40
0.0
 40
0.0
 40
0.0
 40
0.0
 40
1.0
 40
1.0
 40
1.0
 40
2.0
 40
2.0
 40
2.0
 40
3.0
 40
3.0
 40
3.0
 40
4.0
 40
4.0
 40
4.0
 40
5.0
 40
5.0
 40
5.0
 40
6.0
 40
6.0
 40
6.0
 40
7.0
 40
7.0
 40
7.0
 40
8.0
 40
8.0
 40
8.0
 40
9.0
 40
9.0
 40
9.0
 40
10.0
 40
10.0
 40
10.0
 40
11.0
 40
11.0
 40
11.0
 40
12.0
 40
12.0
 40
12.0
 40
13.0
 40
13.0
 40
13.0
 40
14.0
 40
14.0
 40
14.0
 40
14.0
 10
95.92127683148843
 20
-147.1927381359448
 30
0.0
 10
95.92127683148843
 20
-147.1927381359448
 30
0.0
 10
95.81981876944782
 20
-147.1927381359448
 30
0.0
 10
95.81981876944782
 20
-147.1927381359448
 30
0.0
 10
95.81981876944782
 20
-147.2795545421732
 30
0.0
 10
95.79863143221354
 20
-147.6688503320064
 30
0.0
 10
95.60191648000577
 20
-147.8888196787396
 30
0.0
 10
95.44964325955772
 20
-148.0579738670654
 30
0.0
 10
95.24224851134569
 20
-148.1279093054159
 30
0.0
 10
95.15767141718281
 20
-148.1552978145237
 30
0.0
 10
95.15767141718281
 20
-148.1552978145237
 30
0.0
 10
94.96302352226619
 20
-147.988210683489
 30
0.0
 10
94.96302352226619
 20
-147.988210683489
 30
0.0
 10
95.06034746972451
 20
-147.9754638301936
 30
0.0
 10
95.23587508469798
 20
-147.9522094356682
 30
0.0
 10
95.42414955296688
 20
-147.7639349673993
 30
0.0
 10
95.49821910589974
 20
-147.6921047265318
 30
0.0
 10
95.60191648000577
 20
-147.5524061046049
 30
0.0
 10
95.60191648000577
 20
-147.1927381359448
 30
0.0
 10
95.60191648000577
 20
-147.1927381359448
 30
0.0
 10
95.37126733726829
 20
-147.1927381359448
 30
0.0
 10
95.37126733726829
 20
-147.1927381359448
 30
0.0
 10
95.1852321810648
 20
-147.1927381359448
 30
0.0
 10
94.99902477008705
 20
-147.1970445053014
 30
0.0
 10
94.81281735910931
 20
-147.211858415888
 30
0.0
 10
94.81281735910931
 20
-147.211858415888
 30
0.0
 10
94.81281735910931
 20
-146.9918890691548
 30
0.0
 10
94.81281735910931
 20
-146.9918890691548
 30
0.0
 10
95.00109182737821
 20
-147.0067029797414
 30
0.0
 10
95.28669024310541
 20
-147.0108370943236
 30
0.0
 10
95.37126733726829
 20
-147.0108370943236
 30
0.0
 10
95.37126733726829
 20
-147.0108370943236
 30
0.0
 10
95.92127683148843
 20
-147.0108370943236
 30
0.0
 10
95.92127683148843
 20
-147.0108370943236
 30
0.0
 10
95.94039711143157
 20
-147.0108370943236
 30
0.0
 10
96.25769040562309
 20
-147.0108370943236
 30
0.0
 10
96.48627249106942
 20
-146.9918890691548
 30
0.0
 10
96.48627249106942
 20
-146.9918890691548
 30
0.0
 10
96.48627249106942
 20
-147.211858415888
 30
0.0
 10
96.48627249106942
 20
-147.211858415888
 30
0.0
 10
96.2979980228005
 20
-147.1970445053014
 30
0.0
 10
96.10955129975735
 20
-147.1927381359448
 30
0.0
 10
95.92127683148843
 20
-147.1927381359448
 30
0.0
  0
HATCH
  5
F9
330
EA
100
AcDbEntity
  8
レイヤー 1
 62
    18
420
        0
440
 33554687
100
AcDbHatch
 10
0.0
 20
0.0
 30
0.0
210
0.0
220
0.0
230
1.0
  2
SOLID
 70
     1
 71
     1
 91
        2
 92
        1
 93
        1
 72
     4
 94
        3
 73
     0
 74
     0
 95
       29
 96
       25
 40
0.0
 40
0.0
 40
0.0
 40
0.0
 40
1.0
 40
1.0
 40
1.0
 40
2.0
 40
2.0
 40
2.0
 40
3.0
 40
3.0
 40
3.0
 40
4.0
 40
4.0
 40
4.0
 40
5.0
 40
5.0
 40
5.0
 40
6.0
 40
6.0
 40
6.0
 40
7.0
 40
7.0
 40
7.0
 40
8.0
 40
8.0
 40
8.0
 40
8.0
 10
95.81981876944782
 20
-146.663915978959
 10
95.81981876944782
 20
-146.663915978959
 10
95.46652422743546
 20
-146.663915978959
 10
95.46652422743546
 20
-146.663915978959
 10
95.35438636939057
 20
-146.663915978959
 10
95.21486000223795
 20
-146.6702894056067
 10
95.10685625877538
 20
-146.6830362589021
 10
95.10685625877538
 20
-146.6830362589021
 10
95.10685625877538
 20
-146.4480807468081
 10
95.10685625877538
 20
-146.4480807468081
 10
95.22536754346797
 20
-146.4628946573947
 10
95.40933564238031
 20
-146.4672010267513
 10
95.46652422743546
 20
-146.4672010267513
 10
95.46652422743546
 20
-146.4672010267513
 10
95.81981876944782
 20
-146.4672010267513
 10
95.81981876944782
 20
-146.4672010267513
 10
95.8387667946167
 20
-146.4672010267513
 10
96.04202742824645
 20
-146.4672010267513
 10
96.18362085269021
 20
-146.4480807468081
 10
96.18362085269021
 20
-146.4480807468081
 10
96.18362085269021
 20
-146.6830362589021
 10
96.18362085269021
 20
-146.6830362589021
 10
96.02721351765987
 20
-146.663915978959
 10
95.83669973732554
 20
-146.663915978959
 10
95.81981876944782
 20
-146.663915978959
 97
        0
 97
        1
330
F7
 92
        1
 93
        1
 72
     4
 94
        3
 73
     0
 74
     0
 95
       47
 96
       43
 40
0.0
 40
0.0
 40
0.0
 40
0.0
 40
1.0
 40
1.0
 40
1.0
 40
2.0
 40
2.0
 40
2.0
 40
3.0
 40
3.0
 40
3.0
 40
4.0
 40
4.0
 40
4.0
 40
5.0
 40
5.0
 40
5.0
 40
6.0
 40
6.0
 40
6.0
 40
7.0
 40
7.0
 40
7.0
 40
8.0
 40
8.0
 40
8.0
 40
9.0
 40
9.0
 40
9.0
 40
10.0
 40
10.0
 40
10.0
 40
11.0
 40
11.0
 40
11.0
 40
12.0
 40
12.0
 40
12.0
 40
13.0
 40
13.0
 40
13.0
 40
14.0
 40
14.0
 40
14.0
 40
14.0
 10
95.92127683148843
 20
-147.1927381359448
 10
95.92127683148843
 20
-147.1927381359448
 10
95.81981876944782
 20
-147.1927381359448
 10
95.81981876944782
 20
-147.1927381359448
 10
95.81981876944782
 20
-147.2795545421732
 10
95.79863143221354
 20
-147.6688503320064
 10
95.60191648000577
 20
-147.8888196787396
 10
95.44964325955772
 20
-148.0579738670654
 10
95.24224851134569
 20
-148.1279093054159
 10
95.15767141718281
 20
-148.1552978145237
 10
95.15767141718281
 20
-148.1552978145237
 10
94.96302352226619
 20
-147.988210683489
 10
94.96302352226619
 20
-147.988210683489
 10
95.06034746972451
 20
-147.9754638301936
 10
95.23587508469798
 20
-147.9522094356682
 10
95.42414955296688
 20
-147.7639349673993
 10
95.49821910589974
 20
-147.6921047265318
 10
95.60191648000577
 20
-147.5524061046049
 10
95.60191648000577
 20
-147.1927381359448
 10
95.60191648000577
 20
-147.1927381359448
 10
95.37126733726829
 20
-147.1927381359448
 10
95.37126733726829
 20
-147.1927381359448
 10
95.1852321810648
 20
-147.1927381359448
 10
94.99902477008705
 20
-147.1970445053014
 10
94.81281735910931
 20
-147.211858415888
 10
94.81281735910931
 20
-147.211858415888
 10
94.81281735910931
 20
-146.9918890691548
 10
94.81281735910931
 20
-146.9918890691548
 10
95.00109182737821
 20
-147.0067029797414
 10
95.28669024310541
 20
-147.0108370943236
 10
95.37126733726829
 20
-147.0108370943236
 10
95.37126733726829
 20
-147.0108370943236
 10
95.92127683148843
 20
-147.0108370943236
 10
95.92127683148843
 20
-147.0108370943236
 10
95.94039711143157
 20
-147.0108370943236
 10
96.25769040562309
 20
-147.0108370943236
 10
96.48627249106942
 20
-146.9918890691548
 10
96.48627249106942
 20
-146.9918890691548
 10
96.48627249106942
 20
-147.211858415888
 10
96.48627249106942
 20
-147.211858415888
 10
96.2979980228005
 20
-147.1970445053014
 10
96.10955129975735
 20
-147.1927381359448
 10
95.92127683148843
 20
-147.1927381359448
 97
        0
 97
        1
330
F8
 75
     2
 76
     1
 98
        1
 10
0.0
 20
0.0
450
        0
451
        0
460
0.0
461
0.0
452
        0
462
0.0
453
        0
470

  0
SPLINE
  5
FA
330
EA
100
AcDbEntity
  8
レイヤー 1
100
AcDbSpline
210
0.0
220
0.0
230
1.0
 70
     9
 71
     3
 72
    29
 73
    25
 74
     0
 42
0.0000000001
 43
0.0000000001
 40
0.0
 40
0.0
 40
0.0
 40
0.0
 40
1.0
 40
1.0
 40
1.0
 40
2.0
 40
2.0
 40
2.0
 40
3.0
 40
3.0
 40
3.0
 40
4.0
 40
4.0
 40
4.0
 40
5.0
 40
5.0
 40
5.0
 40
6.0
 40
6.0
 40
6.0
 40
7.0
 40
7.0
 40
7.0
 40
8.0
 40
8.0
 40
8.0
 40
8.0
 10
97.76715899248529
 20
-147.3556911523972
 30
0.0
 10
97.76715899248529
 20
-147.3556911523972
 30
0.0
 10
97.28277856725917
 20
-147.3556911523972
 30
0.0
 10
97.28277856725917
 20
-147.3556911523972
 30
0.0
 10
97.25521780337718
 20
-147.3556911523972
 30
0.0
 10
96.93792450918566
 20
-147.3556911523972
 30
0.0
 10
96.72639564639133
 20
-147.3810126042138
 30
0.0
 10
96.72639564639133
 20
-147.3810126042138
 30
0.0
 10
96.72639564639133
 20
-147.1505357162506
 30
0.0
 10
96.72639564639133
 20
-147.1505357162506
 30
0.0
 10
96.88504229348708
 20
-147.173790110776
 30
0.0
 10
97.07538381904713
 20
-147.1758571680671
 30
0.0
 10
97.28277856725917
 20
-147.1758571680671
 30
0.0
 10
97.28277856725917
 20
-147.1758571680671
 30
0.0
 10
97.76715899248529
 20
-147.1758571680671
 30
0.0
 10
97.76715899248529
 20
-147.1758571680671
 30
0.0
 10
97.95336640346306
 20
-147.1758571680671
 30
0.0
 10
98.13957381444081
 20
-147.173790110776
 30
0.0
 10
98.32354191335316
 20
-147.1505357162506
 30
0.0
 10
98.32354191335316
 20
-147.1505357162506
 30
0.0
 10
98.32354191335316
 20
-147.3810126042138
 30
0.0
 10
98.32354191335316
 20
-147.3810126042138
 30
0.0
 10
98.13957381444081
 20
-147.3577582096883
 30
0.0
 10
97.89204370382561
 20
-147.3556911523972
 30
0.0
 10
97.76715899248529
 20
-147.3556911523972
 30
0.0
  0
HATCH
  5
FB
330
EA
100
AcDbEntity
  8
レイヤー 1
 62
    18
420
        0
440
 33554687
100
AcDbHatch
 10
0.0
 20
0.0
 30
0.0
210
0.0
220
0.0
230
1.0
  2
SOLID
 70
     1
 71
     1
 91
        1
 92
        1
 93
        1
 72
     4
 94
        3
 73
     0
 74
     0
 95
       29
 96
       25
 40
0.0
 40
0.0
 40
0.0
 40
0.0
 40
1.0
 40
1.0
 40
1.0
 40
2.0
 40
2.0
 40
2.0
 40
3.0
 40
3.0
 40
3.0
 40
4.0
 40
4.0
 40
4.0
 40
5.0
 40
5.0
 40
5.0
 40
6.0
 40
6.0
 40
6.0
 40
7.0
 40
7.0
 40
7.0
 40
8.0
 40
8.0
 40
8.0
 40
8.0
 10
97.76715899248529
 20
-147.3556911523972
 10
97.76715899248529
 20
-147.3556911523972
 10
97.28277856725917
 20
-147.3556911523972
 10
97.28277856725917
 20
-147.3556911523972
 10
97.25521780337718
 20
-147.3556911523972
 10
96.93792450918566
 20
-147.3556911523972
 10
96.72639564639133
 20
-147.3810126042138
 10
96.72639564639133
 20
-147.3810126042138
 10
96.72639564639133
 20
-147.1505357162506
 10
96.72639564639133
 20
-147.1505357162506
 10
96.88504229348708
 20
-147.173790110776
 10
97.07538381904713
 20
-147.1758571680671
 10
97.28277856725917
 20
-147.1758571680671
 10
97.28277856725917
 20
-147.1758571680671
 10
97.76715899248529
 20
-147.1758571680671
 10
97.76715899248529
 20
-147.1758571680671
 10
97.95336640346306
 20
-147.1758571680671
 10
98.13957381444081
 20
-147.173790110776
 10
98.32354191335316
 20
-147.1505357162506
 10
98.32354191335316
 20
-147.1505357162506
 10
98.32354191335316
 20
-147.3810126042138
 10
98.32354191335316
 20
-147.3810126042138
 10
98.13957381444081
 20
-147.3577582096883
 10
97.89204370382561
 20
-147.3556911523972
 10
97.76715899248529
 20
-147.3556911523972
 97
        0
 97
        1
330
FA
 75
     2
 76
     1
 98
        1
 10
0.0
 20
0.0
450
        0
451
        0
460
0.0
461
0.0
452
        0
462
0.0
453
        0
470

  0
SPLINE
  5
FC
330
EA
100
AcDbEntity
  8
レイヤー 1
100
AcDbSpline
210
0.0
220
0.0
230
1.0
 70
     9
 71
     3
 72
    47
 73
    43
 74
     0
 42
0.0000000001
 43
0.0000000001
 40
0.0
 40
0.0
 40
0.0
 40
0.0
 40
1.0
 40
1.0
 40
1.0
 40
2.0
 40
2.0
 40
2.0
 40
3.0
 40
3.0
 40
3.0
 40
4.0
 40
4.0
 40
4.0
 40
5.0
 40
5.0
 40
5.0
 40
6.0
 40
6.0
 40
6.0
 40
7.0
 40
7.0
 40
7.0
 40
8.0
 40
8.0
 40
8.0
 40
9.0
 40
9.0
 40
9.0
 40
10.0
 40
10.0
 40
10.0
 40
11.0
 40
11.0
 40
11.0
 40
12.0
 40
12.0
 40
12.0
 40
13.0
 40
13.0
 40
13.0
 40
14.0
 40
14.0
 40
14.0
 40
14.0
 10
99.98735077795457
 20
-146.7612399264173
 30
0.0
 10
99.91741533960398
 20
-147.0404649154968
 30
0.0
 10
99.84127872937996
 20
-147.3451836111672
 30
0.0
 10
99.52829180454502
 20
-147.6772908159452
 30
0.0
 10
99.29126923515983
 20
-147.9268879838516
 30
0.0
 10
99.04597843661004
 20
-148.026278988601
 30
0.0
 10
98.94021400521287
 20
-148.0686536630696
 30
0.0
 10
98.94021400521287
 20
-148.0686536630696
 30
0.0
 10
98.74556611029625
 20
-147.8867526214484
 30
0.0
 10
98.74556611029625
 20
-147.8867526214484
 30
0.0
 10
98.93160126649974
 20
-147.8400715776233
 30
0.0
 10
99.29350854722525
 20
-147.7470539995215
 30
0.0
 10
99.58961450418247
 20
-147.2519937782911
 30
0.0
 10
99.75032820856938
 20
-146.9855156425071
 30
0.0
 10
99.76307506186479
 20
-146.8120550848247
 30
0.0
 10
99.77151554580366
 20
-146.7211045640142
 30
0.0
 10
99.77151554580366
 20
-146.7211045640142
 30
0.0
 10
99.26594778334324
 20
-146.7211045640142
 30
0.0
 10
99.26594778334324
 20
-146.7211045640142
 30
0.0
 10
99.14743649865066
 20
-146.7211045640142
 30
0.0
 10
98.72644583035311
 20
-146.740052589183
 30
0.0
 10
98.57417260990509
 20
-146.750560130413
 30
0.0
 10
98.57417260990509
 20
-146.750560130413
 30
0.0
 10
98.57417260990509
 20
-146.5412705796841
 30
0.0
 10
98.57417260990509
 20
-146.5412705796841
 30
0.0
 10
98.7159382891231
 20
-146.5538451782053
 30
0.0
 10
98.99309622091145
 20
-146.5581515475618
 30
0.0
 10
99.10936819353864
 20
-146.5581515475618
 30
0.0
 10
99.10936819353864
 20
-146.5581515475618
 30
0.0
 10
99.46472979284216
 20
-146.5581515475618
 30
0.0
 10
99.46472979284216
 20
-146.5581515475618
 30
0.0
 10
99.49229055672416
 20
-146.5581515475618
 30
0.0
 10
99.65300426111106
 20
-146.5560844902707
 30
0.0
 10
99.76307506186479
 20
-146.5412705796841
 30
0.0
 10
99.82026364691995
 20
-146.5348971530364
 30
0.0
 10
99.83714461479767
 20
-146.5157768730932
 30
0.0
 10
99.86039900932311
 20
-146.4925224785678
 30
0.0
 10
99.86039900932311
 20
-146.4925224785678
 30
0.0
 10
100.048673477592
 20
-146.6427286417247
 30
0.0
 10
100.048673477592
 20
-146.6427286417247
 30
0.0
 10
100.0338595670054
 20
-146.6723564628979
 30
0.0
 10
100.0233520257754
 20
-146.691476742841
 30
0.0
 10
99.98735077795457
 20
-146.7612399264173
 30
0.0
  0
HATCH
  5
FD
330
EA
100
AcDbEntity
  8
レイヤー 1
 62
    18
420
        0
440
 33554687
100
AcDbHatch
 10
0.0
 20
0.0
 30
0.0
210
0.0
220
0.0
230
1.0
  2
SOLID
 70
     1
 71
     1
 91
        1
 92
        1
 93
        1
 72
     4
 94
        3
 73
     0
 74
     0
 95
       47
 96
       43
 40
0.0
 40
0.0
 40
0.0
 40
0.0
 40
1.0
 40
1.0
 40
1.0
 40
2.0
 40
2.0
 40
2.0
 40
3.0
 40
3.0
 40
3.0
 40
4.0
 40
4.0
 40
4.0
 40
5.0
 40
5.0
 40
5.0
 40
6.0
 40
6.0
 40
6.0
 40
7.0
 40
7.0
 40
7.0
 40
8.0
 40
8.0
 40
8.0
 40
9.0
 40
9.0
 40
9.0
 40
10.0
 40
10.0
 40
10.0
 40
11.0
 40
11.0
 40
11.0
 40
12.0
 40
12.0
 40
12.0
 40
13.0
 40
13.0
 40
13.0
 40
14.0
 40
14.0
 40
14.0
 40
14.0
 10
99.98735077795457
 20
-146.7612399264173
 10
99.91741533960398
 20
-147.0404649154968
 10
99.84127872937996
 20
-147.3451836111672
 10
99.52829180454502
 20
-147.6772908159452
 10
99.29126923515983
 20
-147.9268879838516
 10
99.04597843661004
 20
-148.026278988601
 10
98.94021400521287
 20
-148.0686536630696
 10
98.94021400521287
 20
-148.0686536630696
 10
98.74556611029625
 20
-147.8867526214484
 10
98.74556611029625
 20
-147.8867526214484
 10
98.93160126649974
 20
-147.8400715776233
 10
99.29350854722525
 20
-147.7470539995215
 10
99.58961450418247
 20
-147.2519937782911
 10
99.75032820856938
 20
-146.9855156425071
 10
99.76307506186479
 20
-146.8120550848247
 10
99.77151554580366
 20
-146.7211045640142
 10
99.77151554580366
 20
-146.7211045640142
 10
99.26594778334324
 20
-146.7211045640142
 10
99.26594778334324
 20
-146.7211045640142
 10
99.14743649865066
 20
-146.7211045640142
 10
98.72644583035311
 20
-146.740052589183
 10
98.57417260990509
 20
-146.750560130413
 10
98.57417260990509
 20
-146.750560130413
 10
98.57417260990509
 20
-146.5412705796841
 10
98.57417260990509
 20
-146.5412705796841
 10
98.7159382891231
 20
-146.5538451782053
 10
98.99309622091145
 20
-146.5581515475618
 10
99.10936819353864
 20
-146.5581515475618
 10
99.10936819353864
 20
-146.5581515475618
 10
99.46472979284216
 20
-146.5581515475618
 10
99.46472979284216
 20
-146.5581515475618
 10
99.49229055672416
 20
-146.5581515475618
 10
99.65300426111106
 20
-146.5560844902707
 10
99.76307506186479
 20
-146.5412705796841
 10
99.82026364691995
 20
-146.5348971530364
 10
99.83714461479767
 20
-146.5157768730932
 10
99.86039900932311
 20
-146.4925224785678
 10
99.86039900932311
 20
-146.4925224785678
 10
100.048673477592
 20
-146.6427286417247
 10
100.048673477592
 20
-146.6427286417247
 10
100.0338595670054
 20
-146.6723564628979
 10
100.0233520257754
 20
-146.691476742841
 10
99.98735077795457
 20
-146.7612399264173
 97
        0
 97
        1
330
FC
 75
     2
 76
     1
 98
        1
 10
0.0
 20
0.0
450
        0
451
        0
460
0.0
461
0.0
452
        0
462
0.0
453
        0
470

  0
SPLINE
  5
FE
330
EA
100
AcDbEntity
  8
レイヤー 1
100
AcDbSpline
210
0.0
220
0.0
230
1.0
 70
    11
 71
     3
 72
    17
 73
    13
 74
     0
 42
0.0000000001
 43
0.0000000001
 40
0.0
 40
0.0
 40
0.0
 40
0.0
 40
1.0
 40
1.0
 40
1.0
 40
2.0
 40
2.0
 40
2.0
 40
3.0
 40
3.0
 40
3.0
 40
4.0
 40
4.0
 40
4.0
 40
4.0
 10
100.3776800964333
 20
-146.5433376369753
 30
0.0
 10
100.3776800964333
 20
-146.6025932793216
 30
0.0
 10
100.4241888854842
 20
-146.6491020683724
 30
0.0
 10
100.4834445278305
 20
-146.6491020683724
 30
0.0
 10
100.5427001701768
 20
-146.6491020683724
 30
0.0
 10
100.5912760165188
 20
-146.6025932793216
 30
0.0
 10
100.5912760165188
 20
-146.5433376369753
 30
0.0
 10
100.5912760165188
 20
-146.484081994629
 30
0.0
 10
100.5427001701768
 20
-146.4355061482869
 30
0.0
 10
100.4834445278305
 20
-146.4355061482869
 30
0.0
 10
100.4241888854842
 20
-146.4355061482869
 30
0.0
 10
100.3776800964333
 20
-146.484081994629
 30
0.0
 10
100.3776800964333
 20
-146.5433376369753
 30
0.0
  0
SPLINE
  5
FF
330
EA
100
AcDbEntity
  8
レイヤー 1
100
AcDbSpline
210
0.0
220
0.0
230
1.0
 70
     9
 71
     3
 72
    17
 73
    13
 74
     0
 42
0.0000000001
 43
0.0000000001
 40
0.0
 40
0.0
 40
0.0
 40
0.0
 40
1.0
 40
1.0
 40
1.0
 40
2.0
 40
2.0
 40
2.0
 40
3.0
 40
3.0
 40
3.0
 40
4.0
 40
4.0
 40
4.0
 40
4.0
 10
100.6927340785594
 20
-146.5433376369753
 30
0.0
 10
100.6927340785594
 20
-146.6575425523113
 30
0.0
 10
100.5997165004577
 20
-146.7527994424784
 30
0.0
 10
100.4834445278305
 20
-146.7527994424784
 30
0.0
 10
100.3690673577202
 20
-146.7527994424784
 30
0.0
 10
100.2739827223273
 20
-146.6575425523113
 30
0.0
 10
100.2739827223273
 20
-146.5433376369753
 30
0.0
 10
100.2739827223273
 20
-146.4268934095738
 30
0.0
 10
100.3690673577202
 20
-146.3338758314721
 30
0.0
 10
100.4834445278305
 20
-146.3338758314721
 30
0.0
 10
100.5976494431665
 20
-146.3338758314721
 30
0.0
 10
100.6927340785594
 20
-146.4268934095738
 30
0.0
 10
100.6927340785594
 20
-146.5433376369753
 30
0.0
  0
HATCH
  5
100
330
EA
100
AcDbEntity
  8
レイヤー 1
 62
    18
420
        0
440
 33554687
100
AcDbHatch
 10
0.0
 20
0.0
 30
0.0
210
0.0
220
0.0
230
1.0
  2
SOLID
 70
     1
 71
     1
 91
        2
 92
        1
 93
        1
 72
     4
 94
        3
 73
     0
 74
     0
 95
       17
 96
       13
 40
0.0
 40
0.0
 40
0.0
 40
0.0
 40
1.0
 40
1.0
 40
1.0
 40
2.0
 40
2.0
 40
2.0
 40
3.0
 40
3.0
 40
3.0
 40
4.0
 40
4.0
 40
4.0
 40
4.0
 10
100.3776800964333
 20
-146.5433376369753
 10
100.3776800964333
 20
-146.6025932793216
 10
100.4241888854842
 20
-146.6491020683724
 10
100.4834445278305
 20
-146.6491020683724
 10
100.5427001701768
 20
-146.6491020683724
 10
100.5912760165188
 20
-146.6025932793216
 10
100.5912760165188
 20
-146.5433376369753
 10
100.5912760165188
 20
-146.484081994629
 10
100.5427001701768
 20
-146.4355061482869
 10
100.4834445278305
 20
-146.4355061482869
 10
100.4241888854842
 20
-146.4355061482869
 10
100.3776800964333
 20
-146.484081994629
 10
100.3776800964333
 20
-146.5433376369753
 97
        0
 97
        1
330
FE
 92
        1
 93
        1
 72
     4
 94
        3
 73
     0
 74
     0
 95
       17
 96
       13
 40
0.0
 40
0.0
 40
0.0
 40
0.0
 40
1.0
 40
1.0
 40
1.0
 40
2.0
 40
2.0
 40
2.0
 40
3.0
 40
3.0
 40
3.0
 40
4.0
 40
4.0
 40
4.0
 40
4.0
 10
100.6927340785594
 20
-146.5433376369753
 10
100.6927340785594
 20
-146.6575425523113
 10
100.5997165004577
 20
-146.7527994424784
 10
100.4834445278305
 20
-146.7527994424784
 10
100.3690673577202
 20
-146.7527994424784
 10
100.2739827223273
 20
-146.6575425523113
 10
100.2739827223273
 20
-146.5433376369753
 10
100.2739827223273
 20
-146.4268934095738
 10
100.3690673577202
 20
-146.3338758314721
 10
100.4834445278305
 20
-146.3338758314721
 10
100.5976494431665
 20
-146.3338758314721
 10
100.6927340785594
 20
-146.4268934095738
 10
100.6927340785594
 20
-146.5433376369753
 97
        0
 97
        1
330
FF
 75
     2
 76
     1
 98
        1
 10
0.0
 20
0.0
450
        0
451
        0
460
0.0
461
0.0
452
        0
462
0.0
453
        0
470

  0
ENDBLK
  5
ED
330
EA
100
AcDbEntity
  8
0
100
AcDbBlockEnd
  0
ENDSEC
  0
SECTION
  2
ENTITIES
  0
LINE
  5
79
330
70
100
AcDbEntity
  8
レイヤー 1
 62
   250
420
  2299925
370
    25
100
AcDbLine
 10
82.47870897028684
 20
-145.0070334027234
 30
0.0
 11
84.97871646966158
 21
-145.0070334027234
 31
0.0
  0
LINE
  5
7A
330
70
100
AcDbEntity
  8
レイヤー 1
 62
   250
420
  2299925
370
    25
100
AcDbLine
 10
83.97872008102309
 20
-146.0068055994397
 30
0.0
 11
83.97872008102309
 21
-152.0068623882831
 31
0.0
  0
LINE
  5
7B
330
70
100
AcDbEntity
  8
レイヤー 1
 62
   250
420
  2299925
370
    25
100
AcDbLine
 10
82.47870897028684
 20
-146.0068055994397
 30
0.0
 11
83.97872008102309
 21
-146.0068055994397
 31
0.0
  0
LINE
  5
7C
330
70
100
AcDbEntity
  8
レイヤー 1
 62
   250
420
  2299925
370
    25
100
AcDbLine
 10
82.47870897028684
 20
-145.0070334027234
 30
0.0
 11
82.47870897028684
 21
-146.0068055994397
 31
0.0
  0
LINE
  5
7D
330
70
100
AcDbEntity
  8
レイヤー 1
 62
   250
420
  2299925
370
    25
100
AcDbLine
 10
84.97871646477792
 20
-145.0070334027234
 30
0.0
 11
84.97871646477792
 21
-151.0071835274246
 31
0.0
  0
LINE
  5
7E
330
70
100
AcDbEntity
  8
レイヤー 1
 62
   250
420
  2299925
370
    25
100
AcDbLine
 10
100.9786921503167
 20
-151.0071835274246
 30
0.0
 11
100.9786921503167
 21
-151.4071629616647
 31
0.0
  0
LINE
  5
7F
330
70
100
AcDbEntity
  8
レイヤー 1
 62
   250
420
  2299925
370
    25
100
AcDbLine
 10
84.97871646966158
 20
-151.0071835274246
 30
0.0
 11
100.9786921503167
 21
-151.0071835274246
 31
0.0
  0
LINE
  5
80
330
70
100
AcDbEntity
  8
レイヤー 1
 62
   250
420
  2299925
370
    25
100
AcDbLine
 10
100.9786921503167
 20
-151.4071629616647
 30
0.0
 11
83.97872008102309
 21
-152.0068623882831
 31
0.0
  0
SPLINE
  5
81
330
70
100
AcDbEntity
  8
レイヤー 1
 62
   250
420
  2299925
370
     9
100
AcDbSpline
210
0.0
220
0.0
230
1.0
 70
    11
 71
     3
 72
    17
 73
    13
 74
     0
 42
0.0000000001
 43
0.0000000001
 40
0.0
 40
0.0
 40
0.0
 40
0.0
 40
1.0
 40
1.0
 40
1.0
 40
2.0
 40
2.0
 40
2.0
 40
3.0
 40
3.0
 40
3.0
 40
4.0
 40
4.0
 40
4.0
 40
4.0
 10
105.0790645201924
 20
-145.0070334027234
 30
0.0
 10
105.0790645201924
 20
-144.9517531263559
 30
0.0
 10
105.0342617424257
 20
-144.9069503497212
 30
0.0
 10
104.9784512149407
 20
-144.9069503497212
 30
0.0
 10
104.9233473274576
 20
-144.9069503497212
 30
0.0
 10
104.8785445508229
 20
-144.9517531263559
 30
0.0
 10
104.8785445508229
 20
-145.0070334027234
 30
0.0
 10
104.8785445508229
 20
-145.0623136790909
 30
0.0
 10
104.9233473274576
 20
-145.107116455726
 30
0.0
 10
104.9784512149407
 20
-145.107116455726
 30
0.0
 10
105.0342617424257
 20
-145.107116455726
 30
0.0
 10
105.0790645201924
 20
-145.0623136790909
 30
0.0
 10
105.0790645201924
 20
-145.0070334027234
 30
0.0
  0
SPLINE
  5
82
330
70
100
AcDbEntity
  8
レイヤー 1
 62
   250
420
  2299925
370
     9
100
AcDbSpline
210
0.0
220
0.0
230
1.0
 70
     9
 71
     3
 72
    17
 73
    13
 74
     0
 42
0.0000000001
 43
0.0000000001
 40
0.0
 40
0.0
 40
0.0
 40
0.0
 40
1.0
 40
1.0
 40
1.0
 40
2.0
 40
2.0
 40
2.0
 40
3.0
 40
3.0
 40
3.0
 40
4.0
 40
4.0
 40
4.0
 40
4.0
 10
105.0790645201924
 20
-151.0071835274246
 30
0.0
 10
105.0790645201924
 20
-150.9517268621728
 30
0.0
 10
105.0342617424257
 20
-150.906924085538
 30
0.0
 10
104.9784512149407
 20
-150.906924085538
 30
0.0
 10
104.9233473274576
 20
-150.906924085538
 30
0.0
 10
104.8785445508229
 20
-150.9517268621728
 30
0.0
 10
104.8785445508229
 20
-151.0071835274246
 30
0.0
 10
104.8785445508229
 20
-151.0622874149077
 30
0.0
 10
104.9233473274576
 20
-151.1070901915424
 30
0.0
 10
104.9784512149407
 20
-151.1070901915424
 30
0.0
 10
105.0342617424257
 20
-151.1070901915424
 30
0.0
 10
105.0790645201924
 20
-151.0622874149077
 30
0.0
 10
105.0790645201924
 20
-151.0071835274246
 30
0.0
  0
SPLINE
  5
83
330
70
100
AcDbEntity
  8
レイヤー 1
 62
   250
420
  2299925
370
     9
100
AcDbSpline
210
0.0
220
0.0
230
1.0
 70
     9
 71
     3
 72
    17
 73
    13
 74
     0
 42
0.0000000001
 43
0.0000000001
 40
0.0
 40
0.0
 40
0.0
 40
0.0
 40
1.0
 40
1.0
 40
1.0
 40
2.0
 40
2.0
 40
2.0
 40
3.0
 40
3.0
 40
3.0
 40
4.0
 40
4.0
 40
4.0
 40
4.0
 10
105.0790645201924
 20
-151.4071629616647
 30
0.0
 10
105.0790645201924
 20
-151.3517062964129
 30
0.0
 10
105.0342617424257
 20
-151.3069035197781
 30
0.0
 10
104.9784512149407
 20
-151.3069035197781
 30
0.0
 10
104.9233473274576
 20
-151.3069035197781
 30
0.0
 10
104.8785445508229
 20
-151.3517062964129
 30
0.0
 10
104.8785445508229
 20
-151.4071629616647
 30
0.0
 10
104.8785445508229
 20
-151.4622668491478
 30
0.0
 10
104.9233473274576
 20
-151.5070696257826
 30
0.0
 10
104.9784512149407
 20
-151.5070696257826
 30
0.0
 10
105.0342617424257
 20
-151.5070696257826
 30
0.0
 10
105.0790645201924
 20
-151.4622668491478
 30
0.0
 10
105.0790645201924
 20
-151.4071629616647
 30
0.0
  0
CIRCLE
  5
84
330
70
100
AcDbEntity
  8
レイヤー 1
 62
   250
420
  2299925
370
     9
100
AcDbCircle
 10
100.9786921503166
 20
-156.1067978417671
 30
0.0
 40
0.0999066641179156
  0
SPLINE
  5
85
330
70
100
AcDbEntity
  8
レイヤー 1
 62
   250
420
  2299925
370
     9
100
AcDbSpline
210
0.0
220
0.0
230
1.0
 70
     9
 71
     3
 72
    17
 73
    13
 74
     0
 42
0.0000000001
 43
0.0000000001
 40
0.0
 40
0.0
 40
0.0
 40
0.0
 40
1.0
 40
1.0
 40
1.0
 40
2.0
 40
2.0
 40
2.0
 40
3.0
 40
3.0
 40
3.0
 40
4.0
 40
4.0
 40
4.0
 40
4.0
 10
82.57879202581737
 20
-156.1067978417671
 30
0.0
 10
82.57879202581737
 20
-156.0516526858365
 30
0.0
 10
82.53398924805065
 20
-156.0068911776492
 30
0.0
 10
82.47870897028684
 20
-156.0068911776492
 30
0.0
 10
82.42342869252304
 20
-156.0068911776492
 30
0.0
 10
82.3788023036452
 20
-156.0516526858365
 30
0.0
 10
82.3788023036452
 20
-156.1067978417671
 30
0.0
 10
82.3788023036452
 20
-156.1619017292501
 30
0.0
 10
82.42342869252304
 20
-156.2067045058849
 30
0.0
 10
82.47870897028684
 20
-156.2067045058849
 30
0.0
 10
82.53398924805065
 20
-156.2067045058849
 30
0.0
 10
82.57879202581737
 20
-156.1619017292501
 30
0.0
 10
82.57879202581737
 20
-156.1067978417671
 30
0.0
  0
SPLINE
  5
86
330
70
100
AcDbEntity
  8
レイヤー 1
 62
   250
420
  2299925
370
     9
100
AcDbSpline
210
0.0
220
0.0
230
1.0
 70
    11
 71
     3
 72
    17
 73
    13
 74
     0
 42
0.0000000001
 43
0.0000000001
 40
0.0
 40
0.0
 40
0.0
 40
0.0
 40
1.0
 40
1.0
 40
1.0
 40
2.0
 40
2.0
 40
2.0
 40
3.0
 40
3.0
 40
3.0
 40
4.0
 40
4.0
 40
4.0
 40
4.0
 10
80.52894147077401
 20
-145.0070334027234
 30
0.0
 10
80.52894147077401
 20
-144.9517531263559
 30
0.0
 10
80.48417397078546
 20
-144.9069503497212
 30
0.0
 10
80.42903480413302
 20
-144.9069503497212
 30
0.0
 10
80.37375452636858
 20
-144.9069503497212
 30
0.0
 10
80.32898702637906
 20
-144.9517531263559
 30
0.0
 10
80.32898702637906
 20
-145.0070334027234
 30
0.0
 10
80.32898702637906
 20
-145.0623136790909
 30
0.0
 10
80.37375452636858
 20
-145.107116455726
 30
0.0
 10
80.42903480413302
 20
-145.107116455726
 30
0.0
 10
80.48417397078546
 20
-145.107116455726
 30
0.0
 10
80.52894147077401
 20
-145.0623136790909
 30
0.0
 10
80.52894147077401
 20
-145.0070334027234
 30
0.0
  0
SPLINE
  5
87
330
70
100
AcDbEntity
  8
レイヤー 1
 62
   250
420
  2299925
370
     9
100
AcDbSpline
210
0.0
220
0.0
230
1.0
 70
     9
 71
     3
 72
    17
 73
    13
 74
     0
 42
0.0000000001
 43
0.0000000001
 40
0.0
 40
0.0
 40
0.0
 40
0.0
 40
1.0
 40
1.0
 40
1.0
 40
2.0
 40
2.0
 40
2.0
 40
3.0
 40
3.0
 40
3.0
 40
4.0
 40
4.0
 40
4.0
 40
4.0
 10
80.52894147077401
 20
-146.0068055994397
 30
0.0
 10
80.52894147077401
 20
-145.9516664341794
 30
0.0
 10
80.48417397078546
 20
-145.9068989353215
 30
0.0
 10
80.42903480413302
 20
-145.9068989353215
 30
0.0
 10
80.37375452636858
 20
-145.9068989353215
 30
0.0
 10
80.32898702637906
 20
-145.9516664341794
 30
0.0
 10
80.32898702637906
 20
-146.0068055994397
 30
0.0
 10
80.32898702637906
 20
-146.0622622646912
 30
0.0
 10
80.37375452636858
 20
-146.107065041326
 30
0.0
 10
80.42903480413302
 20
-146.107065041326
 30
0.0
 10
80.48417397078546
 20
-146.107065041326
 30
0.0
 10
80.52894147077401
 20
-146.0622622646912
 30
0.0
 10
80.52894147077401
 20
-146.0068055994397
 30
0.0
  0
SPLINE
  5
88
330
70
100
AcDbEntity
  8
レイヤー 1
 62
   250
420
  2299925
370
     9
100
AcDbSpline
210
0.0
220
0.0
230
1.0
 70
     9
 71
     3
 72
    17
 73
    13
 74
     0
 42
0.0000000001
 43
0.0000000001
 40
0.0
 40
0.0
 40
0.0
 40
0.0
 40
1.0
 40
1.0
 40
1.0
 40
2.0
 40
2.0
 40
2.0
 40
3.0
 40
3.0
 40
3.0
 40
4.0
 40
4.0
 40
4.0
 40
4.0
 10
84.07876785877546
 20
-156.1067978417671
 30
0.0
 10
84.07876785877546
 20
-156.0516526858365
 30
0.0
 10
84.03400035878688
 20
-156.0068911776492
 30
0.0
 10
83.97872008102309
 20
-156.0068911776492
 30
0.0
 10
83.92358091437001
 20
-156.0068911776492
 30
0.0
 10
83.87881341438049
 20
-156.0516526858365
 30
0.0
 10
83.87881341438049
 20
-156.1067978417671
 30
0.0
 10
83.87881341438049
 20
-156.1619017292501
 30
0.0
 10
83.92358091437001
 20
-156.2067045058849
 30
0.0
 10
83.97872008102309
 20
-156.2067045058849
 30
0.0
 10
84.03400035878688
 20
-156.2067045058849
 30
0.0
 10
84.07876785877546
 20
-156.1619017292501
 30
0.0
 10
84.07876785877546
 20
-156.1067978417671
 30
0.0
  0
LINE
  5
89
330
70
100
AcDbEntity
  8
レイヤー 1
 62
   250
420
  2299925
370
     9
100
AcDbLine
 10
82.47888535917573
 20
-156.1067978417671
 30
0.0
 11
83.97872008102309
 21
-156.1067978417671
 31
0.0
  0
LINE
  5
8A
330
70
100
AcDbEntity
  8
レイヤー 1
 62
   250
420
  2299925
370
     9
100
AcDbLine
 10
82.47870897028684
 20
-148.6469591431945
 30
0.0
 11
82.47870897028684
 21
-157.1072403162436
 31
0.0
  0
LINE
  5
8B
330
70
100
AcDbEntity
  8
レイヤー 1
 62
   250
420
  2299925
370
     9
100
AcDbLine
 10
83.97872008102309
 20
-154.6467564901269
 30
0.0
 11
83.97872008102309
 21
-157.1072403162436
 31
0.0
  0
INSERT
  5
8D
330
70
100
AcDbEntity
  8
レイヤー 1
100
AcDbBlockReference
  2
Block_0
 10
0.0
 20
0.0
 30
0.0
  0
LINE
  5
9A
330
70
100
AcDbEntity
  8
レイヤー 1
 62
   250
420
  2299925
370
     9
100
AcDbLine
 10
83.97872008102309
 20
-156.1067978417671
 30
0.0
 11
100.9786921503167
 21
-156.1067978417671
 31
0.0
  0
LINE
  5
9B
330
70
100
AcDbEntity
  8
レイヤー 1
 62
   250
420
  2299925
370
     9
100
AcDbLine
 10
100.9786921503167
 20
-153.9467042857645
 30
0.0
 11
100.9786921503167
 21
-157.1072403162436
 31
0.0
  0
INSERT
  5
9D
330
70
100
AcDbEntity
  8
レイヤー 1
100
AcDbBlockReference
  2
Block_2
 10
0.0
 20
0.0
 30
0.0
  0
LINE
  5
A8
330
70
100
AcDbEntity
  8
レイヤー 1
 62
   250
420
  2299925
370
     9
100
AcDbLine
 10
104.9784512149407
 20
-151.0071835274246
 30
0.0
 11
104.9784512149407
 21
-145.0070334027234
 31
0.0
  0
LINE
  5
A9
330
70
100
AcDbEntity
  8
レイヤー 1
 62
   250
420
  2299925
370
     9
100
AcDbLine
 10
87.61878702455716
 20
-145.0070334027234
 30
0.0
 11
105.9788936894173
 21
-145.0070334027234
 31
0.0
  0
INSERT
  5
AB
330
70
100
AcDbEntity
  8
レイヤー 1
100
AcDbBlockReference
  2
Block_4
 10
0.0
 20
0.0
 30
0.0
  0
LINE
  5
B1
330
70
100
AcDbEntity
  8
レイヤー 1
 62
   250
420
  2299925
370
     9
100
AcDbLine
 10
104.9784512149407
 20
-151.4071629616647
 30
0.0
 11
104.9784512149407
 21
-152.4069351583806
 31
0.0
  0
LINE
  5
B2
330
70
100
AcDbEntity
  8
レイヤー 1
 62
   250
420
  2299925
370
     9
100
AcDbLine
 10
104.9784512149407
 20
-151.0071835274246
 30
0.0
 11
104.9784512149407
 21
-151.4071629616647
 31
0.0
  0
LINE
  5
B3
330
70
100
AcDbEntity
  8
レイヤー 1
 62
   250
420
  2299925
370
     9
100
AcDbLine
 10
103.5184098633006
 20
-151.0071835274246
 30
0.0
 11
105.9788936894173
 21
-151.0071835274246
 31
0.0
  0
LINE
  5
B4
330
70
100
AcDbEntity
  8
レイヤー 1
 62
   250
420
  2299925
370
     9
100
AcDbLine
 10
103.5184098633006
 20
-151.4071629616647
 30
0.0
 11
105.9788936894173
 21
-151.4071629616647
 31
0.0
  0
INSERT
  5
B6
330
70
100
AcDbEntity
  8
レイヤー 1
100
AcDbBlockReference
  2
Block_5
 10
0.0
 20
0.0
 30
0.0
  0
LINE
  5
C5
330
70
100
AcDbEntity
  8
レイヤー 1
 62
   250
420
  2299925
370
     9
100
AcDbLine
 10
80.42903480413302
 20
-145.0070334027234
 30
0.0
 11
80.42903480413302
 21
-144.0070848171231
 31
0.0
  0
LINE
  5
C6
330
70
100
AcDbEntity
  8
レイヤー 1
 62
   250
420
  2299925
370
     9
100
AcDbLine
 10
80.42903480413302
 20
-145.0070334027234
 30
0.0
 11
80.42903480413302
 21
-147.0068952961471
 31
0.0
  0
LINE
  5
C7
330
70
100
AcDbEntity
  8
レイヤー 1
 62
   250
420
  2299925
370
     9
100
AcDbLine
 10
81.88889980376719
 20
-145.0070334027234
 30
0.0
 11
79.42894508216024
 21
-145.0070334027234
 31
0.0
  0
LINE
  5
C8
330
70
100
AcDbEntity
  8
レイヤー 1
 62
   250
420
  2299925
370
     9
100
AcDbLine
 10
81.88889980376719
 20
-146.0068055994397
 30
0.0
 11
79.42894508216024
 21
-146.0068055994397
 31
0.0
  0
INSERT
  5
CA
330
70
100
AcDbEntity
  8
レイヤー 1
100
AcDbBlockReference
  2
Block_7
 10
0.0
 20
0.0
 30
0.0
  0
INSERT
  5
D9
330
70
100
AcDbEntity
  8
レイヤー 1
100
AcDbBlockReference
  2
Block_9
 10
0.0
 20
0.0
 30
0.0
  0
LINE
  5
DD
330
70
100
AcDbEntity
  8
レイヤー 1
  6
AI-Linetype-0
 62
   154
420
    23468
370
    25
100
AcDbLine
 10
90.97869221109686
 20
-150.4198156278626
 30
0.0
 11
100.9130495181456
 21
-150.4198156278626
 31
0.0
  0
INSERT
  5
E0
330
70
100
AcDbEntity
  8
レイヤー 1
100
AcDbBlockReference
  2
Block_10
 10
0.0
 20
0.0
 30
0.0
  0
INSERT
  5
E7
330
70
100
AcDbEntity
  8
レイヤー 1
100
AcDbBlockReference
  2
Block_11
 10
0.0
 20
0.0
 30
0.0
  0
LWPOLYLINE
  5
101
330
70
100
AcDbEntity
  8
レイヤー 1
100
AcDbPolyline
 90
        4
 70
     1
 43
0.0
 10
118.0552950931581
 20
-150.526382901085
 10
114.0552950941584
 20
-150.526382901085
 10
114.0552950941584
 20
-150.0263829012097
 10
118.0552950931581
 20
-150.0263829012097
  0
HATCH
  5
102
330
70
100
AcDbEntity
  8
レイヤー 1
 62
   250
420
  2299925
440
 33554687
100
AcDbHatch
 10
0.0
 20
0.0
 30
0.0
210
0.0
220
0.0
230
1.0
  2
SOLID
 70
     1
 71
     1
 91
        1
 92
        1
 93
        4
 72
     1
 10
118.0552950931581
 20
-150.526382901085
 11
114.0552950941584
 21
-150.526382901085
 72
     1
 10
114.0552950941584
 20
-150.526382901085
 11
114.0552950941584
 21
-150.0263829012097
 72
     1
 10
114.0552950941584
 20
-150.0263829012097
 11
118.0552950931581
 21
-150.0263829012097
 72
     1
 10
118.0552950931581
 20
-150.0263829012097
 11
118.0552950931581
 21
-150.526382901085
 97
        1
330
101
 75
     2
 76
     1
 98
        1
 10
0.0
 20
0.0
450
        0
451
        0
460
0.0
461
0.0
452
        0
462
0.0
453
        0
470

  0
LWPOLYLINE
  5
103
330
70
100
AcDbEntity
  8
レイヤー 1
100
AcDbPolyline
 90
        4
 70
     1
 43
0.0
 10
118.0544642733767
 20
-150.0524130602116
 10
118.0544642731971
 20
-154.0524130592113
 10
117.5544642733219
 20
-154.0524130591895
 10
117.5544642735015
 20
-150.0524130601891
  0
HATCH
  5
104
330
70
100
AcDbEntity
  8
レイヤー 1
 62
   250
420
  2299925
440
 33554687
100
AcDbHatch
 10
0.0
 20
0.0
 30
0.0
210
0.0
220
0.0
230
1.0
  2
SOLID
 70
     1
 71
     1
 91
        1
 92
        1
 93
        4
 72
     1
 10
118.0544642733767
 20
-150.0524130602116
 11
118.0544642731971
 21
-154.0524130592113
 72
     1
 10
118.0544642731971
 20
-154.0524130592113
 11
117.5544642733219
 21
-154.0524130591895
 72
     1
 10
117.5544642733219
 20
-154.0524130591895
 11
117.5544642735015
 21
-150.0524130601891
 72
     1
 10
117.5544642735015
 20
-150.0524130601891
 11
118.0544642733767
 21
-150.0524130602116
 97
        1
330
103
 75
     2
 76
     1
 98
        1
 10
0.0
 20
0.0
450
        0
451
        0
460
0.0
461
0.0
452
        0
462
0.0
453
        0
470

  0
LWPOLYLINE
  5
105
330
70
100
AcDbEntity
  8
レイヤー 1
100
AcDbPolyline
 90
        4
 70
     1
 43
0.0
 10
126.0526123964248
 20
-153.7663018452958
 10
117.5526123985495
 20
-154.0663018452204
 10
117.5526123985495
 20
-153.5663018453459
 10
126.0526123964248
 20
-153.5663018453459
  0
HATCH
  5
106
330
70
100
AcDbEntity
  8
レイヤー 1
 62
   250
420
  2299925
440
 33554687
100
AcDbHatch
 10
0.0
 20
0.0
 30
0.0
210
0.0
220
0.0
230
1.0
  2
SOLID
 70
     1
 71
     1
 91
        1
 92
        1
 93
        4
 72
     1
 10
126.0526123964248
 20
-153.7663018452958
 11
117.5526123985495
 21
-154.0663018452204
 72
     1
 10
117.5526123985495
 20
-154.0663018452204
 11
117.5526123985495
 21
-153.5663018453459
 72
     1
 10
117.5526123985495
 20
-153.5663018453459
 11
126.0526123964248
 21
-153.5663018453459
 72
     1
 10
126.0526123964248
 20
-153.5663018453459
 11
126.0526123964248
 21
-153.7663018452958
 97
        1
330
105
 75
     2
 76
     1
 98
        1
 10
0.0
 20
0.0
450
        0
451
        0
460
0.0
461
0.0
452
        0
462
0.0
453
        0
470

  0
LINE
  5
107
330
70
100
AcDbEntity
  8
レイヤー 1
 62
   250
420
  2299925
370
     9
100
AcDbLine
 10
118.0462913661724
 20
-150.1109517393896
 30
0.0
 11
124.2456783404351
 21
-146.385984244573
 31
0.0
  0
LINE
  5
108
330
70
100
AcDbEntity
  8
レイヤー 1
 62
   250
420
  2299925
370
     9
100
AcDbLine
 10
114.1009273831693
 20
-150.06095711645
 30
0.0
 11
120.21716110001
 21
-146.38594628587
 31
0.0
  0
LWPOLYLINE
  5
109
330
70
100
AcDbEntity
  8
レイヤー 1
 62
   250
420
  2299925
370
     9
100
AcDbPolyline
 90
        3
 70
     0
 43
0.0
 10
118.0962913661604
 20
-153.5596466151436
 10
127.4300058870119
 20
-147.9513851305142
 10
130.8731396853551
 20
-145.8825416251197
  0
LINE
  5
10A
330
70
100
AcDbEntity
  8
レイヤー 1
 62
   250
420
  2299925
370
     9
100
AcDbLine
 10
125.9912440746557
 20
-153.609646615131
 30
0.0
 11
133.9365755940244
 21
-148.8356098001913
 31
0.0
  0
LINE
  5
10B
330
70
100
AcDbEntity
  8
レイヤー 1
 62
   250
420
  2299925
370
     9
100
AcDbLine
 10
126.0412440770854
 20
-153.7096466199902
 30
0.0
 11
133.977752240169
 21
-148.9409114123692
 31
0.0
  0
SPLINE
  5
10C
330
70
100
AcDbEntity
  8
レイヤー 1
 62
   250
420
  2299925
370
     9
100
AcDbSpline
210
0.0
220
0.0
230
1.0
 70
     9
 71
     3
 72
    17
 73
    13
 74
     0
 42
0.0000000001
 43
0.0000000001
 40
0.0
 40
0.0
 40
0.0
 40
0.0
 40
1.0
 40
1.0
 40
1.0
 40
2.0
 40
2.0
 40
2.0
 40
3.0
 40
3.0
 40
3.0
 40
4.0
 40
4.0
 40
4.0
 40
4.0
 10
122.4158478289627
 20
-152.2558114190579
 30
0.0
 10
122.5039710755991
 20
-152.474750284446
 30
0.0
 10
122.2691650816811
 20
-152.7753348563789
 30
0.0
 10
121.8914092021925
 20
-152.9273822074839
 30
0.0
 10
121.5136787468828
 20
-153.079419325316
 30
0.0
 10
121.1367649846793
 20
-153.0250529423965
 30
0.0
 10
121.0486417380436
 20
-152.8061140770078
 30
0.0
 10
120.9605316637919
 20
-152.5872079379082
 30
0.0
 10
121.1944065119125
 20
-152.2861995615976
 30
0.0
 10
121.5721369672222
 20
-152.1341624437654
 30
0.0
 10
121.9498928467114
 20
-151.9821150926598
 30
0.0
 10
122.3277377547104
 20
-152.0369052799577
 30
0.0
 10
122.4158478289627
 20
-152.2558114190579
 30
0.0
  0
SPLINE
  5
10D
330
70
100
AcDbEntity
  8
レイヤー 1
 62
   250
420
  2299925
370
     9
100
AcDbSpline
210
0.0
220
0.0
230
1.0
 70
     8
 71
     3
 72
    11
 73
     7
 74
     0
 42
0.0000000001
 43
0.0000000001
 40
0.0
 40
0.0
 40
0.0
 40
0.0
 40
1.0
 40
1.0
 40
1.0
 40
2.0
 40
2.0
 40
2.0
 40
2.0
 10
121.2551658255415
 20
-152.9760654261061
 30
0.0
 10
121.2551658255415
 20
-152.9760654261061
 30
0.0
 10
121.0430537140371
 20
-152.5081306781782
 30
0.0
 10
121.8319884246201
 20
-152.2371677210209
 30
0.0
 10
121.8319884246201
 20
-152.2371677210209
 30
0.0
 10
122.3115703299139
 20
-152.1130423167878
 30
0.0
 10
122.3766461494842
 20
-152.5016607288538
 30
0.0
  0
SPLINE
  5
10E
330
70
100
AcDbEntity
  8
レイヤー 1
 62
   250
420
  2299925
370
     9
100
AcDbSpline
210
0.0
220
0.0
230
1.0
 70
     9
 71
     3
 72
    17
 73
    13
 74
     0
 42
0.0000000001
 43
0.0000000001
 40
0.0
 40
0.0
 40
0.0
 40
0.0
 40
1.0
 40
1.0
 40
1.0
 40
2.0
 40
2.0
 40
2.0
 40
3.0
 40
3.0
 40
3.0
 40
4.0
 40
4.0
 40
4.0
 40
4.0
 10
126.4433939945844
 20
-152.2853956561145
 30
0.0
 10
126.5315172412208
 20
-152.5043345215025
 30
0.0
 10
126.2967112473028
 20
-152.8049190934354
 30
0.0
 10
125.9189553678142
 20
-152.9569664445404
 30
0.0
 10
125.5412249125045
 20
-153.1090035623725
 30
0.0
 10
125.164311150301
 20
-153.0546371794524
 30
0.0
 10
125.0761879036653
 20
-152.8356983140644
 30
0.0
 10
124.9880778294136
 20
-152.6167921749648
 30
0.0
 10
125.2219526775342
 20
-152.3157837986541
 30
0.0
 10
125.5996831328439
 20
-152.1637466808219
 30
0.0
 10
125.9774390123331
 20
-152.0116993297176
 30
0.0
 10
126.3552839203321
 20
-152.0664895170143
 30
0.0
 10
126.4433939945844
 20
-152.2853956561145
 30
0.0
  0
SPLINE
  5
10F
330
70
100
AcDbEntity
  8
レイヤー 1
 62
   250
420
  2299925
370
     9
100
AcDbSpline
210
0.0
220
0.0
230
1.0
 70
     8
 71
     3
 72
    11
 73
     7
 74
     0
 42
0.0000000001
 43
0.0000000001
 40
0.0
 40
0.0
 40
0.0
 40
0.0
 40
1.0
 40
1.0
 40
1.0
 40
2.0
 40
2.0
 40
2.0
 40
2.0
 10
125.2827119911632
 20
-153.0056496631626
 30
0.0
 10
125.2827119911632
 20
-153.0056496631626
 30
0.0
 10
125.0705998796588
 20
-152.5377149152348
 30
0.0
 10
125.8595345902418
 20
-152.2667519580774
 30
0.0
 10
125.8595345902418
 20
-152.2667519580774
 30
0.0
 10
126.3391164955356
 20
-152.1426265538443
 30
0.0
 10
126.4041923151059
 20
-152.5312449659103
 30
0.0
  0
SPLINE
  5
110
330
70
100
AcDbEntity
  8
レイヤー 1
 62
   250
420
  2299925
370
     9
100
AcDbSpline
210
0.0
220
0.0
230
1.0
 70
     9
 71
     3
 72
    17
 73
    13
 74
     0
 42
0.0000000001
 43
0.0000000001
 40
0.0
 40
0.0
 40
0.0
 40
0.0
 40
1.0
 40
1.0
 40
1.0
 40
2.0
 40
2.0
 40
2.0
 40
3.0
 40
3.0
 40
3.0
 40
4.0
 40
4.0
 40
4.0
 40
4.0
 10
125.8187421447886
 20
-151.4517224616777
 30
0.0
 10
125.906918080959
 20
-151.6707922322163
 30
0.0
 10
125.6716314510986
 20
-151.9719885710202
 30
0.0
 10
125.294526446295
 20
-152.1237739440138
 30
0.0
 10
124.9167669157526
 20
-152.2758227646744
 30
0.0
 10
124.5397082573298
 20
-152.221096392589
 30
0.0
 10
124.4515323211594
 20
-152.0020266220497
 30
0.0
 10
124.3633563849891
 20
-151.7829568515104
 30
0.0
 10
124.5975605427016
 20
-151.4827666323956
 30
0.0
 10
124.9753200732434
 20
-151.3307178117357
 30
0.0
 10
125.3524250780476
 20
-151.1789324387421
 30
0.0
 10
125.7305662086189
 20
-151.2326526911384
 30
0.0
 10
125.8187421447886
 20
-151.4517224616777
 30
0.0
  0
SPLINE
  5
111
330
70
100
AcDbEntity
  8
レイヤー 1
 62
   250
420
  2299925
370
     9
100
AcDbSpline
210
0.0
220
0.0
230
1.0
 70
     8
 71
     3
 72
    11
 73
     7
 74
     0
 42
0.0000000001
 43
0.0000000001
 40
0.0
 40
0.0
 40
0.0
 40
0.0
 40
1.0
 40
1.0
 40
1.0
 40
2.0
 40
2.0
 40
2.0
 40
2.0
 10
124.6581881324933
 20
-152.1723052340254
 30
0.0
 10
124.6581881324933
 20
-152.1723052340254
 30
0.0
 10
124.4466552131035
 20
-151.7039091911766
 30
0.0
 10
125.2356325310243
 20
-151.4331572536573
 30
0.0
 10
125.2356325310243
 20
-151.4331572536573
 30
0.0
 10
125.7158226540421
 20
-151.3085588716484
 30
0.0
 10
125.7797211459694
 20
-151.6980314419256
 30
0.0
  0
SPLINE
  5
112
330
70
100
AcDbEntity
  8
レイヤー 1
 62
   250
420
  2299925
370
     9
100
AcDbSpline
210
0.0
220
0.0
230
1.0
 70
     9
 71
     3
 72
    17
 73
    13
 74
     0
 42
0.0000000001
 43
0.0000000001
 40
0.0
 40
0.0
 40
0.0
 40
0.0
 40
1.0
 40
1.0
 40
1.0
 40
2.0
 40
2.0
 40
2.0
 40
3.0
 40
3.0
 40
3.0
 40
4.0
 40
4.0
 40
4.0
 40
4.0
 10
125.0935868166928
 20
-150.646863513231
 30
0.0
 10
125.1817100633292
 20
-150.865802378619
 30
0.0
 10
124.9469040694112
 20
-151.1663869505519
 30
0.0
 10
124.5691481899226
 20
-151.3184343016568
 30
0.0
 10
124.1914177346129
 20
-151.470471419489
 30
0.0
 10
123.8145039724094
 20
-151.4161050365695
 30
0.0
 10
123.7263807257737
 20
-151.1971661711808
 30
0.0
 10
123.6382706515219
 20
-150.9782600320813
 30
0.0
 10
123.8721454996425
 20
-150.6772516557706
 30
0.0
 10
124.2498759549523
 20
-150.5252145379384
 30
0.0
 10
124.6276318344415
 20
-150.3731671868341
 30
0.0
 10
125.0054767424404
 20
-150.4279573741307
 30
0.0
 10
125.0935868166928
 20
-150.646863513231
 30
0.0
  0
SPLINE
  5
113
330
70
100
AcDbEntity
  8
レイヤー 1
 62
   250
420
  2299925
370
     9
100
AcDbSpline
210
0.0
220
0.0
230
1.0
 70
     8
 71
     3
 72
    11
 73
     7
 74
     0
 42
0.0000000001
 43
0.0000000001
 40
0.0
 40
0.0
 40
0.0
 40
0.0
 40
1.0
 40
1.0
 40
1.0
 40
2.0
 40
2.0
 40
2.0
 40
2.0
 10
123.9329048132715
 20
-151.3671175202791
 30
0.0
 10
123.9329048132715
 20
-151.3671175202791
 30
0.0
 10
123.7207927017672
 20
-150.8991827723512
 30
0.0
 10
124.5097274123502
 20
-150.6282198151939
 30
0.0
 10
124.5097274123502
 20
-150.6282198151939
 30
0.0
 10
124.9893093176439
 20
-150.5040944109608
 30
0.0
 10
125.0543851372142
 20
-150.8927128230268
 30
0.0
  0
SPLINE
  5
114
330
70
100
AcDbEntity
  8
レイヤー 1
 62
   250
420
  2299925
370
     9
100
AcDbSpline
210
0.0
220
0.0
230
1.0
 70
     9
 71
     3
 72
    17
 73
    13
 74
     0
 42
0.0000000001
 43
0.0000000001
 40
0.0
 40
0.0
 40
0.0
 40
0.0
 40
1.0
 40
1.0
 40
1.0
 40
2.0
 40
2.0
 40
2.0
 40
3.0
 40
3.0
 40
3.0
 40
4.0
 40
4.0
 40
4.0
 40
4.0
 10
129.1211329823145
 20
-150.6764477502875
 30
0.0
 10
129.2092562289509
 20
-150.8953866156749
 30
0.0
 10
128.9744502350329
 20
-151.1959711876085
 30
0.0
 10
128.5966943555443
 20
-151.3480185387134
 30
0.0
 10
128.2189639002346
 20
-151.5000556565455
 30
0.0
 10
127.8420501380311
 20
-151.4456892736247
 30
0.0
 10
127.7539268913954
 20
-151.2267504082374
 30
0.0
 10
127.6658168171437
 20
-151.0078442691378
 30
0.0
 10
127.8996916652642
 20
-150.7068358928271
 30
0.0
 10
128.277422120574
 20
-150.5547987749949
 30
0.0
 10
128.6551780000632
 20
-150.4027514238906
 30
0.0
 10
129.0330229080622
 20
-150.4575416111873
 30
0.0
 10
129.1211329823145
 20
-150.6764477502875
 30
0.0
  0
SPLINE
  5
115
330
70
100
AcDbEntity
  8
レイヤー 1
 62
   250
420
  2299925
370
     9
100
AcDbSpline
210
0.0
220
0.0
230
1.0
 70
     8
 71
     3
 72
    11
 73
     7
 74
     0
 42
0.0000000001
 43
0.0000000001
 40
0.0
 40
0.0
 40
0.0
 40
0.0
 40
1.0
 40
1.0
 40
1.0
 40
2.0
 40
2.0
 40
2.0
 40
2.0
 10
127.9604509788933
 20
-151.3967017573356
 30
0.0
 10
127.9604509788933
 20
-151.3967017573356
 30
0.0
 10
127.7483388673889
 20
-150.9287670094078
 30
0.0
 10
128.5372735779719
 20
-150.6578040522504
 30
0.0
 10
128.5372735779719
 20
-150.6578040522504
 30
0.0
 10
129.0168554832656
 20
-150.5336786480173
 30
0.0
 10
129.081931302836
 20
-150.9222970600833
 30
0.0
  0
SPLINE
  5
116
330
70
100
AcDbEntity
  8
レイヤー 1
 62
   250
420
  2299925
370
     9
100
AcDbSpline
210
0.0
220
0.0
230
1.0
 70
     9
 71
     3
 72
    17
 73
    13
 74
     0
 42
0.0000000001
 43
0.0000000001
 40
0.0
 40
0.0
 40
0.0
 40
0.0
 40
1.0
 40
1.0
 40
1.0
 40
2.0
 40
2.0
 40
2.0
 40
3.0
 40
3.0
 40
3.0
 40
4.0
 40
4.0
 40
4.0
 40
4.0
 10
128.4964811325187
 20
-149.8427745558507
 30
0.0
 10
128.5846570686891
 20
-150.0618443263893
 30
0.0
 10
128.3493704388287
 20
-150.3630406651932
 30
0.0
 10
127.9722654340251
 20
-150.5148260381868
 30
0.0
 10
127.5945059034827
 20
-150.6668748588474
 30
0.0
 10
127.2174472450599
 20
-150.612148486762
 30
0.0
 10
127.1292713088895
 20
-150.3930787162233
 30
0.0
 10
127.0410953727191
 20
-150.1740089456841
 30
0.0
 10
127.2752995304317
 20
-149.8738187265686
 30
0.0
 10
127.6530590609734
 20
-149.7217699059087
 30
0.0
 10
128.0301640657776
 20
-149.569984532915
 30
0.0
 10
128.408305196349
 20
-149.6237047853114
 30
0.0
 10
128.4964811325187
 20
-149.8427745558507
 30
0.0
  0
SPLINE
  5
117
330
70
100
AcDbEntity
  8
レイヤー 1
 62
   250
420
  2299925
370
     9
100
AcDbSpline
210
0.0
220
0.0
230
1.0
 70
     8
 71
     3
 72
    11
 73
     7
 74
     0
 42
0.0000000001
 43
0.0000000001
 40
0.0
 40
0.0
 40
0.0
 40
0.0
 40
1.0
 40
1.0
 40
1.0
 40
2.0
 40
2.0
 40
2.0
 40
2.0
 10
127.3359271202234
 20
-150.5633573281984
 30
0.0
 10
127.3359271202234
 20
-150.5633573281984
 30
0.0
 10
127.1243942008336
 20
-150.0949612853496
 30
0.0
 10
127.9133715187544
 20
-149.8242093478303
 30
0.0
 10
127.9133715187544
 20
-149.8242093478303
 30
0.0
 10
128.3935616417721
 20
-149.6996109658214
 30
0.0
 10
128.4574601336995
 20
-150.0890835360986
 30
0.0
  0
SPLINE
  5
118
330
70
100
AcDbEntity
  8
レイヤー 1
 62
   250
420
  2299925
370
     9
100
AcDbSpline
210
0.0
220
0.0
230
1.0
 70
     9
 71
     3
 72
    17
 73
    13
 74
     0
 42
0.0000000001
 43
0.0000000001
 40
0.0
 40
0.0
 40
0.0
 40
0.0
 40
1.0
 40
1.0
 40
1.0
 40
2.0
 40
2.0
 40
2.0
 40
3.0
 40
3.0
 40
3.0
 40
4.0
 40
4.0
 40
4.0
 40
4.0
 10
127.7713258044229
 20
-149.0379156074039
 30
0.0
 10
127.8594490510592
 20
-149.256854472792
 30
0.0
 10
127.6246430571412
 20
-149.5574390447249
 30
0.0
 10
127.2468871776527
 20
-149.7094863958299
 30
0.0
 10
126.8691567223429
 20
-149.861523513662
 30
0.0
 10
126.4922429601395
 20
-149.8071571307425
 30
0.0
 10
126.4041197135037
 20
-149.5882182653538
 30
0.0
 10
126.316009639252
 20
-149.3693121262543
 30
0.0
 10
126.5498844873726
 20
-149.0683037499436
 30
0.0
 10
126.9276149426823
 20
-148.9162666321114
 30
0.0
 10
127.3053708221715
 20
-148.7642192810071
 30
0.0
 10
127.6832157301705
 20
-148.8190094683037
 30
0.0
 10
127.7713258044229
 20
-149.0379156074039
 30
0.0
  0
SPLINE
  5
119
330
70
100
AcDbEntity
  8
レイヤー 1
 62
   250
420
  2299925
370
     9
100
AcDbSpline
210
0.0
220
0.0
230
1.0
 70
     8
 71
     3
 72
    11
 73
     7
 74
     0
 42
0.0000000001
 43
0.0000000001
 40
0.0
 40
0.0
 40
0.0
 40
0.0
 40
1.0
 40
1.0
 40
1.0
 40
2.0
 40
2.0
 40
2.0
 40
2.0
 10
126.6106438010016
 20
-149.7581696144521
 30
0.0
 10
126.6106438010016
 20
-149.7581696144521
 30
0.0
 10
126.3985316894972
 20
-149.2902348665243
 30
0.0
 10
127.1874664000803
 20
-149.0192719093669
 30
0.0
 10
127.1874664000803
 20
-149.0192719093669
 30
0.0
 10
127.667048305374
 20
-148.8951465051338
 30
0.0
 10
127.7321241249443
 20
-149.2837649171998
 30
0.0
  0
SPLINE
  5
11A
330
70
100
AcDbEntity
  8
レイヤー 1
 62
   250
420
  2299925
370
     9
100
AcDbSpline
210
0.0
220
0.0
230
1.0
 70
     9
 71
     3
 72
    17
 73
    13
 74
     0
 42
0.0000000001
 43
0.0000000001
 40
0.0
 40
0.0
 40
0.0
 40
0.0
 40
1.0
 40
1.0
 40
1.0
 40
2.0
 40
2.0
 40
2.0
 40
3.0
 40
3.0
 40
3.0
 40
4.0
 40
4.0
 40
4.0
 40
4.0
 10
131.7988719700446
 20
-149.0674998444605
 30
0.0
 10
131.8869952166809
 20
-149.2864387098479
 30
0.0
 10
131.6521892227629
 20
-149.5870232817815
 30
0.0
 10
131.2744333432744
 20
-149.7390706328857
 30
0.0
 10
130.8967028879646
 20
-149.8911077507185
 30
0.0
 10
130.5197891257612
 20
-149.836741367799
 30
0.0
 10
130.4316658791255
 20
-149.6178025024104
 30
0.0
 10
130.3435558048737
 20
-149.3988963633108
 30
0.0
 10
130.5774306529943
 20
-149.0978879870001
 30
0.0
 10
130.955161108304
 20
-148.9458508691679
 30
0.0
 10
131.3329169877933
 20
-148.7938035180633
 30
0.0
 10
131.7107618957922
 20
-148.8485937053603
 30
0.0
 10
131.7988719700446
 20
-149.0674998444605
 30
0.0
  0
SPLINE
  5
11B
330
70
100
AcDbEntity
  8
レイヤー 1
 62
   250
420
  2299925
370
     9
100
AcDbSpline
210
0.0
220
0.0
230
1.0
 70
     8
 71
     3
 72
    11
 73
     7
 74
     0
 42
0.0000000001
 43
0.0000000001
 40
0.0
 40
0.0
 40
0.0
 40
0.0
 40
1.0
 40
1.0
 40
1.0
 40
2.0
 40
2.0
 40
2.0
 40
2.0
 10
130.6381899666233
 20
-149.7877538515086
 30
0.0
 10
130.6381899666233
 20
-149.7877538515086
 30
0.0
 10
130.426077855119
 20
-149.3198191035801
 30
0.0
 10
131.215012565702
 20
-149.0488561464234
 30
0.0
 10
131.215012565702
 20
-149.0488561464234
 30
0.0
 10
131.6945944709957
 20
-148.9247307421897
 30
0.0
 10
131.759670290566
 20
-149.3133491542564
 30
0.0
  0
SPLINE
  5
11C
330
70
100
AcDbEntity
  8
レイヤー 1
 62
   250
420
  2299925
370
     9
100
AcDbSpline
210
0.0
220
0.0
230
1.0
 70
     9
 71
     3
 72
    17
 73
    13
 74
     0
 42
0.0000000001
 43
0.0000000001
 40
0.0
 40
0.0
 40
0.0
 40
0.0
 40
1.0
 40
1.0
 40
1.0
 40
2.0
 40
2.0
 40
2.0
 40
3.0
 40
3.0
 40
3.0
 40
4.0
 40
4.0
 40
4.0
 40
4.0
 10
131.1742201202488
 20
-148.2338266500237
 30
0.0
 10
131.2623960564191
 20
-148.4528964205623
 30
0.0
 10
131.0271094265587
 20
-148.7540927593658
 30
0.0
 10
130.6500044217552
 20
-148.9058781323598
 30
0.0
 10
130.2722448912128
 20
-149.0579269530204
 30
0.0
 10
129.8951862327899
 20
-149.003200580935
 30
0.0
 10
129.8070102966196
 20
-148.7841308103957
 30
0.0
 10
129.7188343604492
 20
-148.5650610398571
 30
0.0
 10
129.9530385181618
 20
-148.2648708207423
 30
0.0
 10
130.3307980487035
 20
-148.1128220000817
 30
0.0
 10
130.7079030535077
 20
-147.9610366270874
 30
0.0
 10
131.086044184079
 20
-148.0147568794844
 30
0.0
 10
131.1742201202488
 20
-148.2338266500237
 30
0.0
  0
SPLINE
  5
11D
330
70
100
AcDbEntity
  8
レイヤー 1
 62
   250
420
  2299925
370
     9
100
AcDbSpline
210
0.0
220
0.0
230
1.0
 70
     8
 71
     3
 72
    11
 73
     7
 74
     0
 42
0.0000000001
 43
0.0000000001
 40
0.0
 40
0.0
 40
0.0
 40
0.0
 40
1.0
 40
1.0
 40
1.0
 40
2.0
 40
2.0
 40
2.0
 40
2.0
 10
130.0136661079535
 20
-148.9544094223714
 30
0.0
 10
130.0136661079535
 20
-148.9544094223714
 30
0.0
 10
129.8021331885637
 20
-148.4860133795226
 30
0.0
 10
130.5911105064844
 20
-148.2152614420026
 30
0.0
 10
130.5911105064844
 20
-148.2152614420026
 30
0.0
 10
131.0713006295022
 20
-148.0906630599941
 30
0.0
 10
131.1351991214295
 20
-148.4801356302713
 30
0.0
  0
SPLINE
  5
11E
330
70
100
AcDbEntity
  8
レイヤー 1
 62
   250
420
  2299925
370
     9
100
AcDbSpline
210
0.0
220
0.0
230
1.0
 70
     9
 71
     3
 72
    17
 73
    13
 74
     0
 42
0.0000000001
 43
0.0000000001
 40
0.0
 40
0.0
 40
0.0
 40
0.0
 40
1.0
 40
1.0
 40
1.0
 40
2.0
 40
2.0
 40
2.0
 40
3.0
 40
3.0
 40
3.0
 40
4.0
 40
4.0
 40
4.0
 40
4.0
 10
130.4490647921529
 20
-147.4289677015766
 30
0.0
 10
130.5371880387893
 20
-147.6479065669647
 30
0.0
 10
130.3023820448713
 20
-147.9484911388979
 30
0.0
 10
129.9246261653827
 20
-148.1005384900025
 30
0.0
 10
129.546895710073
 20
-148.2525756078347
 30
0.0
 10
129.1699819478695
 20
-148.1982092249152
 30
0.0
 10
129.0818587012338
 20
-147.9792703595268
 30
0.0
 10
128.9937486269821
 20
-147.7603642204269
 30
0.0
 10
129.2276234751027
 20
-147.4593558441169
 30
0.0
 10
129.6053539304124
 20
-147.3073187262848
 30
0.0
 10
129.9831098099016
 20
-147.1552713751798
 30
0.0
 10
130.3609547179006
 20
-147.2100615624768
 30
0.0
 10
130.4490647921529
 20
-147.4289677015766
 30
0.0
  0
SPLINE
  5
11F
330
70
100
AcDbEntity
  8
レイヤー 1
 62
   250
420
  2299925
370
     9
100
AcDbSpline
210
0.0
220
0.0
230
1.0
 70
     8
 71
     3
 72
    11
 73
     7
 74
     0
 42
0.0000000001
 43
0.0000000001
 40
0.0
 40
0.0
 40
0.0
 40
0.0
 40
1.0
 40
1.0
 40
1.0
 40
2.0
 40
2.0
 40
2.0
 40
2.0
 10
129.2883827887317
 20
-148.1492217086248
 30
0.0
 10
129.2883827887317
 20
-148.1492217086248
 30
0.0
 10
129.0762706772273
 20
-147.6812869606969
 30
0.0
 10
129.8652053878103
 20
-147.4103240035399
 30
0.0
 10
129.8652053878103
 20
-147.4103240035399
 30
0.0
 10
130.3447872931041
 20
-147.2861985993068
 30
0.0
 10
130.4098631126744
 20
-147.6748170113728
 30
0.0
  0
ENDSEC
  0
SECTION
  2
OBJECTS
  0
DICTIONARY
  5
C
330
0
100
AcDbDictionary
281
     1
  3
ACAD_COLOR
350
63
  3
ACAD_DETAILVIEWSTYLE
350
6A
  3
ACAD_GROUP
350
D
  3
ACAD_LAYOUT
350
62
  3
ACAD_MATERIAL
350
10
  3
ACAD_MLEADERSTYLE
350
66
  3
ACAD_MLINESTYLE
350
5F
  3
ACAD_PLOTSETTINGS
350
61
  3
ACAD_PLOTSTYLENAME
350
E
  3
ACAD_SCALELIST
350
42
  3
ACAD_SECTIONVIEWSTYLE
350
68
  3
ACAD_TABLESTYLE
350
64
  3
ACAD_VISUALSTYLE
350
29
  3
ACDB_RECOMPOSE_DATA
350
128
  3
AcDbVariableDictionary
350
120
  0
DICTIONARY
  5
63
102
{ACAD_REACTORS
330
C
102
}
330
C
100
AcDbDictionary
281
     1
  0
DICTIONARY
  5
6A
102
{ACAD_REACTORS
330
C
102
}
330
C
100
AcDbDictionary
281
     1
  3
Imperial24
350
6B
  0
DICTIONARY
  5
D
102
{ACAD_REACTORS
330
C
102
}
330
C
100
AcDbDictionary
281
     1
  0
DICTIONARY
  5
62
102
{ACAD_REACTORS
330
C
102
}
330
C
100
AcDbDictionary
281
     1
  3
Layout1
350
6F
  3
Layout2
350
77
  3
Model
350
73
  0
DICTIONARY
  5
10
102
{ACAD_REACTORS
330
C
102
}
330
C
100
AcDbDictionary
281
     1
  3
ByBlock
350
19
  3
ByLayer
350
11
  3
Global
350
21
  0
DICTIONARY
  5
66
102
{ACAD_REACTORS
330
C
102
}
330
C
100
AcDbDictionary
281
     1
  3
Standard
350
67
  0
DICTIONARY
  5
5F
102
{ACAD_REACTORS
330
C
102
}
330
C
100
AcDbDictionary
281
     1
  3
Standard
350
60
  0
DICTIONARY
  5
61
102
{ACAD_REACTORS
330
C
102
}
330
C
100
AcDbDictionary
281
     1
  0
ACDBDICTIONARYWDFLT
  5
E
102
{ACAD_REACTORS
330
C
102
}
330
C
100
AcDbDictionary
281
     1
  3
Normal
350
F
100
AcDbDictionaryWithDefault
340
F
  0
DICTIONARY
  5
42
102
{ACAD_REACTORS
330
C
102
}
330
C
100
AcDbDictionary
281
     1
  3
A0
350
43
  3
A1
350
44
  3
A2
350
45
  3
A3
350
46
  3
A4
350
47
  3
A5
350
48
  3
A6
350
49
  3
A7
350
4A
  3
A8
350
4B
  3
A9
350
4C
  3
B0
350
4D
  3
B1
350
4E
  3
B2
350
4F
  3
B3
350
50
  3
B4
350
51
  3
B5
350
52
  3
B6
350
53
  0
DICTIONARY
  5
68
102
{ACAD_REACTORS
330
C
102
}
330
C
100
AcDbDictionary
281
     1
  3
Imperial24
350
69
  0
DICTIONARY
  5
64
102
{ACAD_REACTORS
330
C
102
}
330
C
100
AcDbDictionary
281
     1
  3
Standard
350
65
  0
DICTIONARY
  5
29
102
{ACAD_REACTORS
330
C
102
}
330
C
100
AcDbDictionary
281
     1
  3
2dWireframe
350
2F
  3
Basic
350
2E
  3
Brighten
350
35
  3
ColorChange
350
39
  3
Conceptual
350
32
  3
Dim
350
34
  3
EdgeColorOff
350
41
  3
Facepattern
350
38
  3
Flat
350
2A
  3
FlatWithEdges
350
2B
  3
Gouraud
350
2C
  3
GouraudWithEdges
350
2D
  3
Hidden
350
31
  3
JitterOff
350
3F
  3
Linepattern
350
37
  3
OverhangOff
350
40
  3
Realistic
350
33
  3
Shaded
350
3E
  3
Shaded with edges
350
3D
  3
Shades of Gray
350
3A
  3
Sketchy
350
3B
  3
Thicken
350
36
  3
Wireframe
350
30
  3
X-Ray
350
3C
  0
XRECORD
  5
128
102
{ACAD_REACTORS
330
C
102
}
330
C
100
AcDbXrecord
280
     1
 90
        1
330
65
  0
DICTIONARY
  5
120
102
{ACAD_REACTORS
330
C
102
}
330
C
100
AcDbDictionary
281
     1
  3
CANNOSCALE
350
125
  3
CMLEADERSTYLE
350
122
  3
CTABLESTYLE
350
121
  3
CVIEWDETAILSTYLE
350
123
  3
CVIEWSECTIONSTYLE
350
124
  0
ACDBDETAILVIEWSTYLE
  5
6B
102
{ACAD_XDICTIONARY
360
15D
102
}
102
{ACAD_REACTORS
330
6A
102
}
330
6A
100
AcDbModelDocViewStyle
 70
     0
  3
Imperial24
290
     0
100
AcDbDetailViewStyle
 70
     0
 71
     0
 90
        3
 71
     1
340
55
 62
   256
 40
0.24
340
0
 62
   256
 40
0.24
300

 40
0.36
280
     3
 71
     2
340
5D
 90
       25
 62
   256
 71
     3
340
55
 62
   256
 40
0.24
 90
        1
 40
0.75
 90
        1
300
%<\AcVar ViewType \f "%tc1">% %<\AcVar ViewDetailId>%\PSCALE %<\AcVar ViewScale \f "%sn">%
 71
     4
340
5D
 90
       25
 62
   256
340
5D
 90
       25
 62
   256
280
     0
  0
LAYOUT
  5
6F
102
{ACAD_REACTORS
330
62
102
}
330
62
100
AcDbPlotSettings
  1

  2

  4

  6

 40
0.0
 41
0.0
 42
0.0
 43
0.0
 44
0.0
 45
0.0
 46
0.0
 47
0.0
 48
0.0
 49
0.0
140
0.0
141
0.0
142
1.0
143
1.0
 70
   688
 72
     0
 73
     0
 74
     5
  7

 75
    16
147
1.0
 76
     0
 77
     2
 78
   300
148
0.0
149
0.0
100
AcDbLayout
  1
Layout1
 70
     1
 71
     1
 10
0.0
 20
0.0
 11
12.0
 21
9.0
 12
0.0
 22
0.0
 32
0.0
 14
0.0
 24
0.0
 34
0.0
 15
0.0
 25
0.0
 35
0.0
146
0.0
 13
0.0
 23
0.0
 33
0.0
 16
1.0
 26
0.0
 36
0.0
 17
0.0
 27
1.0
 37
0.0
 76
     0
330
6C
  0
LAYOUT
  5
77
102
{ACAD_REACTORS
330
62
102
}
330
62
100
AcDbPlotSettings
  1

  2

  4

  6

 40
0.0
 41
0.0
 42
0.0
 43
0.0
 44
0.0
 45
0.0
 46
0.0
 47
0.0
 48
0.0
 49
0.0
140
0.0
141
0.0
142
1.0
143
1.0
 70
   688
 72
     0
 73
     0
 74
     5
  7

 75
    16
147
1.0
 76
     0
 77
     2
 78
   300
148
0.0
149
0.0
100
AcDbLayout
  1
Layout2
 70
     1
 71
     2
 10
0.0
 20
0.0
 11
12.0
 21
9.0
 12
0.0
 22
0.0
 32
0.0
 14
0.0
 24
0.0
 34
0.0
 15
0.0
 25
0.0
 35
0.0
146
0.0
 13
0.0
 23
0.0
 33
0.0
 16
1.0
 26
0.0
 36
0.0
 17
0.0
 27
1.0
 37
0.0
 76
     0
330
74
  0
LAYOUT
  5
73
102
{ACAD_REACTORS
330
62
102
}
330
62
100
AcDbPlotSettings
  1

  2

  4

  6

 40
0.0
 41
0.0
 42
0.0
 43
0.0
 44
0.0
 45
0.0
 46
0.0
 47
0.0
 48
0.0
 49
0.0
140
0.0
141
0.0
142
1.0
143
1.0
 70
  1712
 72
     0
 73
     0
 74
     0
  7

 75
     0
147
1.0
 76
     0
 77
     2
 78
   300
148
0.0
149
0.0
100
AcDbLayout
  1
Model
 70
     1
 71
     0
 10
0.0
 20
0.0
 11
12.0
 21
9.0
 12
0.0
 22
0.0
 32
0.0
 14
0.0
 24
0.0
 34
0.0
 15
0.0
 25
0.0
 35
0.0
146
0.0
 13
0.0
 23
0.0
 33
0.0
 16
1.0
 26
0.0
 36
0.0
 17
0.0
 27
1.0
 37
0.0
 76
     0
330
70
  0
MATERIAL
  5
19
102
{ACAD_XDICTIONARY
360
1A
102
}
102
{ACAD_REACTORS
330
10
102
}
330
10
100
AcDbMaterial
  1
ByBlock
 72
     0
 43
0.0208333333333333
 43
0.0
 43
0.0
 43
0.0
 43
0.0
 43
0.0208333333333333
 43
0.0
 43
0.0
 43
0.0
 43
0.0
 43
1.0
 43
0.0
 43
0.0
 43
0.0
 43
0.0
 43
1.0
 77
     0
 47
0.0208333333333333
 47
0.0
 47
0.0
 47
0.0
 47
0.0
 47
0.0208333333333333
 47
0.0
 47
0.0
 47
0.0
 47
0.0
 47
1.0
 47
0.0
 47
0.0
 47
0.0
 47
0.0
 47
1.0
171
     0
 49
0.0208333333333333
 49
0.0
 49
0.0
 49
0.0
 49
0.0
 49
0.0208333333333333
 49
0.0
 49
0.0
 49
0.0
 49
0.0
 49
1.0
 49
0.0
 49
0.0
 49
0.0
 49
0.0
 49
1.0
175
     0
142
0.0208333333333333
142
0.0
142
0.0
142
0.0
142
0.0
142
0.0208333333333333
142
0.0
142
0.0
142
0.0
142
0.0
142
1.0
142
0.0
142
0.0
142
0.0
142
0.0
142
1.0
179
     0
144
0.0208333333333333
144
0.0
144
0.0
144
0.0
144
0.0
144
0.0208333333333333
144
0.0
144
0.0
144
0.0
144
0.0
144
1.0
144
0.0
144
0.0
144
0.0
144
0.0
144
1.0
147
0.0208333333333333
147
0.0
147
0.0
147
0.0
147
0.0
147
0.0208333333333333
147
0.0
147
0.0
147
0.0
147
0.0
147
1.0
147
0.0
147
0.0
147
0.0
147
0.0
147
1.0
  0
MATERIAL
  5
11
102
{ACAD_XDICTIONARY
360
12
102
}
102
{ACAD_REACTORS
330
10
102
}
330
10
100
AcDbMaterial
  1
ByLayer
 72
     0
 43
0.0208333333333333
 43
0.0
 43
0.0
 43
0.0
 43
0.0
 43
0.0208333333333333
 43
0.0
 43
0.0
 43
0.0
 43
0.0
 43
1.0
 43
0.0
 43
0.0
 43
0.0
 43
0.0
 43
1.0
 77
     0
 47
0.0208333333333333
 47
0.0
 47
0.0
 47
0.0
 47
0.0
 47
0.0208333333333333
 47
0.0
 47
0.0
 47
0.0
 47
0.0
 47
1.0
 47
0.0
 47
0.0
 47
0.0
 47
0.0
 47
1.0
171
     0
 49
0.0208333333333333
 49
0.0
 49
0.0
 49
0.0
 49
0.0
 49
0.0208333333333333
 49
0.0
 49
0.0
 49
0.0
 49
0.0
 49
1.0
 49
0.0
 49
0.0
 49
0.0
 49
0.0
 49
1.0
175
     0
142
0.0208333333333333
142
0.0
142
0.0
142
0.0
142
0.0
142
0.0208333333333333
142
0.0
142
0.0
142
0.0
142
0.0
142
1.0
142
0.0
142
0.0
142
0.0
142
0.0
142
1.0
179
     0
144
0.0208333333333333
144
0.0
144
0.0
144
0.0
144
0.0
144
0.0208333333333333
144
0.0
144
0.0
144
0.0
144
0.0
144
1.0
144
0.0
144
0.0
144
0.0
144
0.0
144
1.0
147
0.0208333333333333
147
0.0
147
0.0
147
0.0
147
0.0
147
0.0208333333333333
147
0.0
147
0.0
147
0.0
147
0.0
147
1.0
147
0.0
147
0.0
147
0.0
147
0.0
147
1.0
  0
MATERIAL
  5
21
102
{ACAD_XDICTIONARY
360
22
102
}
102
{ACAD_REACTORS
330
10
102
}
330
10
100
AcDbMaterial
  1
Global
 72
     0
 43
0.0208333333333333
 43
0.0
 43
0.0
 43
0.0
 43
0.0
 43
0.0208333333333333
 43
0.0
 43
0.0
 43
0.0
 43
0.0
 43
1.0
 43
0.0
 43
0.0
 43
0.0
 43
0.0
 43
1.0
 77
     0
 47
0.0208333333333333
 47
0.0
 47
0.0
 47
0.0
 47
0.0
 47
0.0208333333333333
 47
0.0
 47
0.0
 47
0.0
 47
0.0
 47
1.0
 47
0.0
 47
0.0
 47
0.0
 47
0.0
 47
1.0
171
     0
 49
0.0208333333333333
 49
0.0
 49
0.0
 49
0.0
 49
0.0
 49
0.0208333333333333
 49
0.0
 49
0.0
 49
0.0
 49
0.0
 49
1.0
 49
0.0
 49
0.0
 49
0.0
 49
0.0
 49
1.0
175
     0
142
0.0208333333333333
142
0.0
142
0.0
142
0.0
142
0.0
142
0.0208333333333333
142
0.0
142
0.0
142
0.0
142
0.0
142
1.0
142
0.0
142
0.0
142
0.0
142
0.0
142
1.0
179
     0
144
0.0208333333333333
144
0.0
144
0.0
144
0.0
144
0.0
144
0.0208333333333333
144
0.0
144
0.0
144
0.0
144
0.0
144
1.0
144
0.0
144
0.0
144
0.0
144
0.0
144
1.0
147
0.0208333333333333
147
0.0
147
0.0
147
0.0
147
0.0
147
0.0208333333333333
147
0.0
147
0.0
147
0.0
147
0.0
147
1.0
147
0.0
147
0.0
147
0.0
147
0.0
147
1.0
  0
MLEADERSTYLE
  5
67
102
{ACAD_XDICTIONARY
360
159
102
}
102
{ACAD_REACTORS
330
66
102
}
330
66
100
AcDbMLeaderStyle
179
     2
170
     2
171
     1
172
     0
 90
        2
 40
0.0
 41
0.0
173
     1
 91
-1056964608
340
5B
 92
       -2
290
     1
 42
0.09
291
     1
 43
0.36
  3
Standard
 44
0.18
300

342
55
174
     1
178
     6
175
     1
176
     0
 93
-1056964608
 45
0.18
292
     0
297
     0
 46
0.18
 94
-1056964608
 47
1.0
 49
1.0
140
1.0
293
     1
141
0.0
294
     1
177
     0
142
1.0
295
     0
296
     0
143
0.125
271
     0
272
     9
273
     9
  0
MLINESTYLE
  5
60
102
{ACAD_REACTORS
330
5F
102
}
330
5F
100
AcDbMlineStyle
  2
STANDARD
 70
     0
  3

 62
   256
 51
90.0
 52
90.0
 71
     2
 49
0.5
 62
   256
  6
BYLAYER
 49
-0.5
 62
   256
  6
BYLAYER
  0
ACDBPLACEHOLDER
  5
F
102
{ACAD_REACTORS
330
E
102
}
330
E
  0
SCALE
  5
43
102
{ACAD_REACTORS
330
42
102
}
330
42
100
AcDbScale
 70
     0
300
1:1
140
1.0
141
1.0
290
     1
  0
SCALE
  5
44
102
{ACAD_REACTORS
330
42
102
}
330
42
100
AcDbScale
 70
     0
300
1/128" = 1'-0"
140
0.0078125
141
12.0
290
     0
  0
SCALE
  5
45
102
{ACAD_REACTORS
330
42
102
}
330
42
100
AcDbScale
 70
     0
300
1/64" = 1'-0"
140
0.015625
141
12.0
290
     0
  0
SCALE
  5
46
102
{ACAD_REACTORS
330
42
102
}
330
42
100
AcDbScale
 70
     0
300
1/32" = 1'-0"
140
0.03125
141
12.0
290
     0
  0
SCALE
  5
47
102
{ACAD_REACTORS
330
42
102
}
330
42
100
AcDbScale
 70
     0
300
1/16" = 1'-0"
140
0.0625
141
12.0
290
     0
  0
SCALE
  5
48
102
{ACAD_REACTORS
330
42
102
}
330
42
100
AcDbScale
 70
     0
300
3/32" = 1'-0"
140
0.09375
141
12.0
290
     0
  0
SCALE
  5
49
102
{ACAD_REACTORS
330
42
102
}
330
42
100
AcDbScale
 70
     0
300
1/8" = 1'-0"
140
0.125
141
12.0
290
     0
  0
SCALE
  5
4A
102
{ACAD_REACTORS
330
42
102
}
330
42
100
AcDbScale
 70
     0
300
3/16" = 1'-0"
140
0.1875
141
12.0
290
     0
  0
SCALE
  5
4B
102
{ACAD_REACTORS
330
42
102
}
330
42
100
AcDbScale
 70
     0
300
1/4" = 1'-0"
140
0.25
141
12.0
290
     0
  0
SCALE
  5
4C
102
{ACAD_REACTORS
330
42
102
}
330
42
100
AcDbScale
 70
     0
300
3/8" = 1'-0"
140
0.375
141
12.0
290
     0
  0
SCALE
  5
4D
102
{ACAD_REACTORS
330
42
102
}
330
42
100
AcDbScale
 70
     0
300
1/2" = 1'-0"
140
0.5
141
12.0
290
     0
  0
SCALE
  5
4E
102
{ACAD_REACTORS
330
42
102
}
330
42
100
AcDbScale
 70
     0
300
3/4" = 1'-0"
140
0.75
141
12.0
290
     0
  0
SCALE
  5
4F
102
{ACAD_REACTORS
330
42
102
}
330
42
100
AcDbScale
 70
     0
300
1" = 1'-0"
140
1.0
141
12.0
290
     0
  0
SCALE
  5
50
102
{ACAD_REACTORS
330
42
102
}
330
42
100
AcDbScale
 70
     0
300
1-1/2" = 1'-0"
140
1.5
141
12.0
290
     0
  0
SCALE
  5
51
102
{ACAD_REACTORS
330
42
102
}
330
42
100
AcDbScale
 70
     0
300
3" = 1'-0"
140
3.0
141
12.0
290
     0
  0
SCALE
  5
52
102
{ACAD_REACTORS
330
42
102
}
330
42
100
AcDbScale
 70
     0
300
6" = 1'-0"
140
6.0
141
12.0
290
     0
  0
SCALE
  5
53
102
{ACAD_REACTORS
330
42
102
}
330
42
100
AcDbScale
 70
     0
300
1'-0" = 1'-0"
140
12.0
141
12.0
290
     0
  0
ACDBSECTIONVIEWSTYLE
  5
69
102
{ACAD_XDICTIONARY
360
15B
102
}
102
{ACAD_REACTORS
330
68
102
}
330
68
100
AcDbModelDocViewStyle
 70
     0
  3
Imperial24
290
     0
100
AcDbSectionViewStyle
 70
     0
 71
     0
 90
       78
 71
     1
340
55
 62
   256
 40
0.24
340
0
340
0
 62
   256
 40
0.24
300
I, O, Q, S, X, Z
 40
0.48
 90
        3
 40
0.18
 90
        1
 71
     2
340
5D
 90
       25
 62
   256
340
5D
 90
       50
 62
   256
 40
0.24
 40
0.0
 40
0.24
 71
     3
340
55
 62
   256
 40
0.24
 90
        1
 40
0.75
 90
        1
300
%<\AcVar ViewType \f "%tc1">% %<\AcVar ViewSectionStartId>%-%<\AcVar ViewSectionEndId>%\PSCALE %<\AcVar ViewScale \f "%sn">%
 71
     4
 62
   256
 62
   257
300
ANSI31
 40
1.0
 90
        0
290
     0
290
     0
 90
        6
 40
0.0
 40
1.570796326794896
 40
0.2617993877991494
 40
1.308996938995747
 40
-0.2617993877991494
 40
1.832595714594046
  0
TABLESTYLE
  5
65
102
{ACAD_XDICTIONARY
360
126
102
}
102
{ACAD_REACTORS
330
64
102
}
330
64
100
AcDbTableStyle
280
     0
  3
Standard
 70
     0
 71
     0
 40
0.06
 41
0.06
280
     0
281
     0
  7
Standard
140
0.18
170
     2
 62
     0
 63
     7
283
     0
 90
      512
 91
        0
  1

274
    -2
284
     1
 64
     0
275
    -2
285
     1
 65
     0
276
    -2
286
     1
 66
     0
277
    -2
287
     1
 67
     0
278
    -2
288
     1
 68
     0
279
    -2
289
     1
 69
     0
  7
Standard
140
0.25
170
     5
 62
     0
 63
     7
283
     0
 90
      512
 91
        0
  1

274
    -2
284
     1
 64
     0
275
    -2
285
     1
 65
     0
276
    -2
286
     1
 66
     0
277
    -2
287
     1
 67
     0
278
    -2
288
     1
 68
     0
279
    -2
289
     1
 69
     0
  7
Standard
140
0.18
170
     5
 62
     0
 63
     7
283
     0
 90
      512
 91
        0
  1

274
    -2
284
     1
 64
     0
275
    -2
285
     1
 65
     0
276
    -2
286
     1
 66
     0
277
    -2
287
     1
 67
     0
278
    -2
288
     1
 68
     0
279
    -2
289
     1
 69
     0
  0
VISUALSTYLE
  5
2F
102
{ACAD_XDICTIONARY
360
133
102
}
102
{ACAD_REACTORS
330
29
102
}
330
29
100
AcDbVisualStyle
  2
2dWireframe
 70
     4
177
     2
291
     0
 71
     0
176
     1
 72
     2
176
     1
 73
     0
176
     1
 90
        0
176
     1
 40
0.6
176
     1
 41
30.0
176
     1
 63
     7
421
 16777215
176
     1
 74
     1
176
     1
 91
        4
176
     1
 64
     7
176
     1
 65
   257
176
     1
 75
     1
176
     1
175
     1
176
     1
 42
1.0
176
     1
 92
        0
176
     1
 66
   257
176
     1
 43
1.0
176
     1
 76
     1
176
     1
 77
     6
176
     1
 78
     2
176
     1
 67
     7
176
     1
 79
     5
176
     1
170
     0
176
     1
171
     0
176
     1
290
     0
176
     1
 93
        1
176
     1
 44
0.0
176
     1
173
     0
176
     1
1001
ACAD
1000
AcDbSavedByObjectVersion
1070
     0
  0
VISUALSTYLE
  5
2E
102
{ACAD_XDICTIONARY
360
131
102
}
102
{ACAD_REACTORS
330
29
102
}
330
29
100
AcDbVisualStyle
  2
Basic
 70
     7
177
     2
291
     1
 71
     1
176
     1
 72
     0
176
     1
 73
     1
176
     1
 90
        0
176
     1
 40
0.6
176
     1
 41
30.0
176
     1
 63
     7
421
 16777215
176
     1
 74
     0
176
     1
 91
        4
176
     1
 64
     7
176
     1
 65
   257
176
     1
 75
     1
176
     1
175
     1
176
     1
 42
1.0
176
     1
 92
        8
176
     1
 66
     7
176
     1
 43
1.0
176
     1
 76
     1
176
     1
 77
     6
176
     1
 78
     2
176
     1
 67
     7
176
     1
 79
     5
176
     1
170
     0
176
     1
171
     0
176
     1
290
     0
176
     1
 93
        1
176
     1
 44
0.0
176
     1
173
     0
176
     1
1001
ACAD
1000
AcDbSavedByObjectVersion
1070
     0
  0
VISUALSTYLE
  5
35
102
{ACAD_XDICTIONARY
360
13F
102
}
102
{ACAD_REACTORS
330
29
102
}
330
29
100
AcDbVisualStyle
  2
Brighten
 70
    12
177
     2
291
     1
 71
     2
176
     1
 72
     2
176
     1
 73
     0
176
     1
 90
        0
176
     1
 40
0.6
176
     1
 41
30.0
176
     1
 63
     7
421
 16777215
176
     1
 74
     1
176
     1
 91
        4
176
     1
 64
     7
176
     1
 65
   257
176
     1
 75
     1
176
     1
175
     1
176
     1
 42
1.0
176
     1
 92
        8
176
     1
 66
     7
176
     1
 43
1.0
176
     1
 76
     1
176
     1
 77
     6
176
     1
 78
     2
176
     1
 67
     7
176
     1
 79
     5
176
     1
170
     0
176
     1
171
     0
176
     1
290
     0
176
     1
 93
        1
176
     1
 44
50.0
176
     1
173
     0
176
     1
1001
ACAD
1000
AcDbSavedByObjectVersion
1070
     0
  0
VISUALSTYLE
  5
39
102
{ACAD_XDICTIONARY
360
147
102
}
102
{ACAD_REACTORS
330
29
102
}
330
29
100
AcDbVisualStyle
  2
ColorChange
 70
    16
177
     2
291
     1
 71
     2
176
     1
 72
     2
176
     1
 73
     3
176
     1
 90
        0
176
     1
 40
0.6
176
     1
 41
30.0
176
     1
 63
     8
421
  8421504
176
     1
 74
     1
176
     1
 91
        4
176
     1
 64
     7
176
     1
 65
   257
176
     1
 75
     1
176
     1
175
     1
176
     1
 42
1.0
176
     1
 92
        8
176
     1
 66
     8
424
  8421504
176
     1
 43
1.0
176
     1
 76
     1
176
     1
 77
     6
176
     1
 78
     2
176
     1
 67
     7
176
     1
 79
     5
176
     1
170
     0
176
     1
171
     0
176
     1
290
     0
176
     1
 93
        1
176
     1
 44
0.0
176
     1
173
     0
176
     1
1001
ACAD
1000
AcDbSavedByObjectVersion
1070
     0
  0
VISUALSTYLE
  5
32
102
{ACAD_XDICTIONARY
360
139
102
}
102
{ACAD_REACTORS
330
29
102
}
330
29
100
AcDbVisualStyle
  2
Conceptual
 70
     9
177
     2
291
     0
 71
     3
176
     1
 72
     2
176
     1
 73
     0
176
     1
 90
        0
176
     1
 40
0.6
176
     1
 41
30.0
176
     1
 63
     7
421
 16777215
176
     1
 74
     2
176
     1
 91
        2
176
     1
 64
     7
176
     1
 65
   257
176
     1
 75
     1
176
     1
175
     1
176
     1
 42
179.0
176
     1
 92
        8
176
     1
 66
     7
176
     1
 43
1.0
176
     1
 76
     1
176
     1
 77
     6
176
     1
 78
     2
176
     1
 67
     7
176
     1
 79
     3
176
     1
170
     0
176
     1
171
     0
176
     1
290
     0
176
     1
 93
        1
176
     1
 44
0.0
176
     1
173
     0
176
     1
1001
ACAD
1000
AcDbSavedByObjectVersion
1070
     0
  0
VISUALSTYLE
  5
34
102
{ACAD_XDICTIONARY
360
13D
102
}
102
{ACAD_REACTORS
330
29
102
}
330
29
100
AcDbVisualStyle
  2
Dim
 70
    11
177
     2
291
     1
 71
     2
176
     1
 72
     2
176
     1
 73
     0
176
     1
 90
        0
176
     1
 40
0.6
176
     1
 41
30.0
176
     1
 63
     7
421
 16777215
176
     1
 74
     1
176
     1
 91
        4
176
     1
 64
     7
176
     1
 65
   257
176
     1
 75
     1
176
     1
175
     1
176
     1
 42
1.0
176
     1
 92
        8
176
     1
 66
     7
176
     1
 43
1.0
176
     1
 76
     1
176
     1
 77
     6
176
     1
 78
     2
176
     1
 67
     7
176
     1
 79
     5
176
     1
170
     0
176
     1
171
     0
176
     1
290
     0
176
     1
 93
        1
176
     1
 44
-50.0
176
     1
173
     0
176
     1
1001
ACAD
1000
AcDbSavedByObjectVersion
1070
     0
  0
VISUALSTYLE
  5
41
102
{ACAD_XDICTIONARY
360
157
102
}
102
{ACAD_REACTORS
330
29
102
}
330
29
100
AcDbVisualStyle
  2
EdgeColorOff
 70
    22
177
     2
291
     1
 71
     2
176
     0
 72
     2
176
     0
 73
     0
176
     0
 90
        0
176
     0
 40
0.6
176
     0
 41
30.0
176
     0
 63
     7
421
 16777215
176
     0
 74
     1
176
     0
 91
        4
176
     0
 64
     7
176
     0
 65
   257
176
     0
 75
     1
176
     0
175
     1
176
     0
 42
1.0
176
     0
 92
        8
176
     2
 66
     7
176
     0
 43
1.0
176
     0
 76
     1
176
     0
 77
     6
176
     0
 78
     2
176
     0
 67
     7
176
     0
 79
     5
176
     0
170
     0
176
     0
171
     0
176
     0
290
     0
176
     0
 93
        1
176
     0
 44
0.0
176
     0
173
     0
176
     0
1001
ACAD
1000
AcDbSavedByObjectVersion
1070
     0
  0
VISUALSTYLE
  5
38
102
{ACAD_XDICTIONARY
360
145
102
}
102
{ACAD_REACTORS
330
29
102
}
330
29
100
AcDbVisualStyle
  2
Facepattern
 70
    15
177
     2
291
     1
 71
     2
176
     1
 72
     2
176
     1
 73
     0
176
     1
 90
        0
176
     1
 40
0.6
176
     1
 41
30.0
176
     1
 63
     7
421
 16777215
176
     1
 74
     1
176
     1
 91
        4
176
     1
 64
     7
176
     1
 65
   257
176
     1
 75
     1
176
     1
175
     1
176
     1
 42
1.0
176
     1
 92
        8
176
     1
 66
     7
176
     1
 43
1.0
176
     1
 76
     1
176
     1
 77
     6
176
     1
 78
     2
176
     1
 67
     7
176
     1
 79
     5
176
     1
170
     0
176
     1
171
     0
176
     1
290
     0
176
     1
 93
        1
176
     1
 44
0.0
176
     1
173
     0
176
     1
1001
ACAD
1000
AcDbSavedByObjectVersion
1070
     0
  0
VISUALSTYLE
  5
2A
102
{ACAD_XDICTIONARY
360
129
102
}
102
{ACAD_REACTORS
330
29
102
}
330
29
100
AcDbVisualStyle
  2
Flat
 70
     0
177
     2
291
     1
 71
     2
176
     1
 72
     1
176
     1
 73
     1
176
     1
 90
        2
176
     1
 40
0.6
176
     1
 41
30.0
176
     1
 63
     7
421
 16777215
176
     1
 74
     0
176
     1
 91
        0
176
     1
 64
     7
176
     1
 65
   257
176
     1
 75
     1
176
     1
175
     1
176
     1
 42
1.0
176
     1
 92
        8
176
     1
 66
     7
176
     1
 43
1.0
176
     1
 76
     1
176
     1
 77
     6
176
     1
 78
     2
176
     1
 67
     7
176
     1
 79
     5
176
     1
170
     0
176
     1
171
     0
176
     1
290
     0
176
     1
 93
       13
176
     1
 44
0.0
176
     1
173
     0
176
     1
1001
ACAD
1000
AcDbSavedByObjectVersion
1070
     0
  0
VISUALSTYLE
  5
2B
102
{ACAD_XDICTIONARY
360
12B
102
}
102
{ACAD_REACTORS
330
29
102
}
330
29
100
AcDbVisualStyle
  2
FlatWithEdges
 70
     1
177
     2
291
     1
 71
     2
176
     1
 72
     1
176
     1
 73
     1
176
     1
 90
        2
176
     1
 40
0.6
176
     1
 41
30.0
176
     1
 63
     7
421
 16777215
176
     1
 74
     1
176
     1
 91
        0
176
     1
 64
     7
176
     1
 65
   257
176
     1
 75
     1
176
     1
175
     1
176
     1
 42
1.0
176
     1
 92
        0
176
     1
 66
   257
176
     1
 43
1.0
176
     1
 76
     1
176
     1
 77
     6
176
     1
 78
     2
176
     1
 67
     7
176
     1
 79
     5
176
     1
170
     0
176
     1
171
     0
176
     1
290
     0
176
     1
 93
       13
176
     1
 44
0.0
176
     1
173
     0
176
     1
1001
ACAD
1000
AcDbSavedByObjectVersion
1070
     0
  0
VISUALSTYLE
  5
2C
102
{ACAD_XDICTIONARY
360
12D
102
}
102
{ACAD_REACTORS
330
29
102
}
330
29
100
AcDbVisualStyle
  2
Gouraud
 70
     2
177
     2
291
     1
 71
     2
176
     1
 72
     2
176
     1
 73
     1
176
     1
 90
        2
176
     1
 40
0.6
176
     1
 41
30.0
176
     1
 63
     7
421
 16777215
176
     1
 74
     0
176
     1
 91
        0
176
     1
 64
     7
176
     1
 65
   257
176
     1
 75
     1
176
     1
175
     1
176
     1
 42
1.0
176
     1
 92
        0
176
     1
 66
     7
176
     1
 43
1.0
176
     1
 76
     1
176
     1
 77
     6
176
     1
 78
     2
176
     1
 67
     7
176
     1
 79
     5
176
     1
170
     0
176
     1
171
     0
176
     1
290
     0
176
     1
 93
       13
176
     1
 44
0.0
176
     1
173
     0
176
     1
1001
ACAD
1000
AcDbSavedByObjectVersion
1070
     0
  0
VISUALSTYLE
  5
2D
102
{ACAD_XDICTIONARY
360
12F
102
}
102
{ACAD_REACTORS
330
29
102
}
330
29
100
AcDbVisualStyle
  2
GouraudWithEdges
 70
     3
177
     2
291
     1
 71
     2
176
     1
 72
     2
176
     1
 73
     1
176
     1
 90
        2
176
     1
 40
0.6
176
     1
 41
30.0
176
     1
 63
     7
421
 16777215
176
     1
 74
     1
176
     1
 91
        0
176
     1
 64
     7
176
     1
 65
   257
176
     1
 75
     1
176
     1
175
     1
176
     1
 42
1.0
176
     1
 92
        0
176
     1
 66
   257
176
     1
 43
1.0
176
     1
 76
     1
176
     1
 77
     6
176
     1
 78
     2
176
     1
 67
     7
176
     1
 79
     5
176
     1
170
     0
176
     1
171
     0
176
     1
290
     0
176
     1
 93
       13
176
     1
 44
0.0
176
     1
173
     0
176
     1
1001
ACAD
1000
AcDbSavedByObjectVersion
1070
     0
  0
VISUALSTYLE
  5
31
102
{ACAD_XDICTIONARY
360
137
102
}
102
{ACAD_REACTORS
330
29
102
}
330
29
100
AcDbVisualStyle
  2
Hidden
 70
     6
177
     2
291
     0
 71
     1
176
     1
 72
     2
176
     1
 73
     2
176
     1
 90
        0
176
     1
 40
0.6
176
     1
 41
30.0
176
     1
 63
     7
421
 16777215
176
     1
 74
     2
176
     1
 91
        2
176
     1
 64
     7
176
     1
 65
   257
176
     1
 75
     2
176
     1
175
     1
176
     1
 42
40.0
176
     1
 92
        0
176
     1
 66
   257
176
     1
 43
1.0
176
     1
 76
     1
176
     1
 77
     6
176
     1
 78
     2
176
     1
 67
     7
176
     1
 79
     3
176
     1
170
     0
176
     1
171
     0
176
     1
290
     0
176
     1
 93
        1
176
     1
 44
0.0
176
     1
173
     0
176
     1
1001
ACAD
1000
AcDbSavedByObjectVersion
1070
     0
  0
VISUALSTYLE
  5
3F
102
{ACAD_XDICTIONARY
360
153
102
}
102
{ACAD_REACTORS
330
29
102
}
330
29
100
AcDbVisualStyle
  2
JitterOff
 70
    20
177
     2
291
     1
 71
     2
176
     0
 72
     2
176
     0
 73
     0
176
     0
 90
        0
176
     0
 40
0.6
176
     0
 41
30.0
176
     0
 63
     7
421
 16777215
176
     0
 74
     1
176
     0
 91
        4
176
     0
 64
     7
176
     0
 65
   257
176
     0
 75
     1
176
     0
175
     1
176
     0
 42
1.0
176
     0
 92
       10
176
     2
 66
     7
176
     0
 43
1.0
176
     0
 76
     1
176
     0
 77
     6
176
     0
 78
     2
176
     0
 67
     7
176
     0
 79
     5
176
     0
170
     0
176
     0
171
     0
176
     0
290
     0
176
     0
 93
        1
176
     0
 44
0.0
176
     0
173
     0
176
     0
1001
ACAD
1000
AcDbSavedByObjectVersion
1070
     0
  0
VISUALSTYLE
  5
37
102
{ACAD_XDICTIONARY
360
143
102
}
102
{ACAD_REACTORS
330
29
102
}
330
29
100
AcDbVisualStyle
  2
Linepattern
 70
    14
177
     2
291
     1
 71
     2
176
     1
 72
     2
176
     1
 73
     0
176
     1
 90
        0
176
     1
 40
0.6
176
     1
 41
30.0
176
     1
 63
     7
421
 16777215
176
     1
 74
     1
176
     1
 91
        4
176
     1
 64
     7
176
     1
 65
   257
176
     1
 75
     7
176
     1
175
     7
176
     1
 42
1.0
176
     1
 92
        8
176
     1
 66
     7
176
     1
 43
1.0
176
     1
 76
     1
176
     1
 77
     6
176
     1
 78
     2
176
     1
 67
     7
176
     1
 79
     5
176
     1
170
     0
176
     1
171
     0
176
     1
290
     0
176
     1
 93
        1
176
     1
 44
0.0
176
     1
173
     0
176
     1
1001
ACAD
1000
AcDbSavedByObjectVersion
1070
     0
  0
VISUALSTYLE
  5
40
102
{ACAD_XDICTIONARY
360
155
102
}
102
{ACAD_REACTORS
330
29
102
}
330
29
100
AcDbVisualStyle
  2
OverhangOff
 70
    21
177
     2
291
     1
 71
     2
176
     0
 72
     2
176
     0
 73
     0
176
     0
 90
        0
176
     0
 40
0.6
176
     0
 41
30.0
176
     0
 63
     7
421
 16777215
176
     0
 74
     1
176
     0
 91
        4
176
     0
 64
     7
176
     0
 65
   257
176
     0
 75
     1
176
     0
175
     1
176
     0
 42
1.0
176
     0
 92
        9
176
     2
 66
     7
176
     0
 43
1.0
176
     0
 76
     1
176
     0
 77
     6
176
     0
 78
     2
176
     0
 67
     7
176
     0
 79
     5
176
     0
170
     0
176
     0
171
     0
176
     0
290
     0
176
     0
 93
        1
176
     0
 44
0.0
176
     0
173
     0
176
     0
1001
ACAD
1000
AcDbSavedByObjectVersion
1070
     0
  0
VISUALSTYLE
  5
33
102
{ACAD_XDICTIONARY
360
13B
102
}
102
{ACAD_REACTORS
330
29
102
}
330
29
100
AcDbVisualStyle
  2
Realistic
 70
     8
177
     2
291
     0
 71
     2
176
     1
 72
     3
176
     1
 73
     0
176
     1
 90
        2
176
     1
 40
0.6
176
     1
 41
30.0
176
     1
 63
     7
421
 16777215
176
     1
 74
     0
176
     1
 91
        0
176
     1
 64
     7
176
     1
 65
   257
176
     1
 75
     1
176
     1
175
     1
176
     1
 42
1.0
176
     1
 92
        8
176
     1
 66
   257
176
     1
 43
1.0
176
     1
 76
     1
176
     1
 77
     6
176
     1
 78
     2
176
     1
 67
     7
176
     1
 79
     3
176
     1
170
     0
176
     1
171
     0
176
     1
290
     0
176
     1
 93
       13
176
     1
 44
0.0
176
     1
173
     0
176
     1
1001
ACAD
1000
AcDbSavedByObjectVersion
1070
     0
  0
VISUALSTYLE
  5
3E
102
{ACAD_XDICTIONARY
360
151
102
}
102
{ACAD_REACTORS
330
29
102
}
330
29
100
AcDbVisualStyle
  2
Shaded
 70
    27
177
     2
291
     0
 71
     2
176
     1
 72
     2
176
     1
 73
     1
176
     1
 90
        2
176
     1
 40
0.6
176
     1
 41
30.0
176
     1
 63
     7
421
 16777215
176
     1
 74
     0
176
     1
 91
        4
176
     1
 64
     7
176
     1
 65
   257
176
     1
 75
     1
176
     1
175
     1
176
     1
 42
1.0
176
     1
 92
        8
176
     1
 66
   257
176
     1
 43
1.0
176
     1
 76
     1
176
     1
 77
     6
176
     1
 78
     2
176
     1
 67
     8
425
  7895160
176
     1
 79
     3
176
     1
170
     0
176
     1
171
     0
176
     1
290
     0
176
     1
 93
        5
176
     1
 44
0.0
176
     1
173
     0
176
     1
1001
ACAD
1000
AcDbSavedByObjectVersion
1070
     0
  0
VISUALSTYLE
  5
3D
102
{ACAD_XDICTIONARY
360
14F
102
}
102
{ACAD_REACTORS
330
29
102
}
330
29
100
AcDbVisualStyle
  2
Shaded with edges
 70
    26
177
     2
291
     0
 71
     2
176
     1
 72
     2
176
     1
 73
     1
176
     1
 90
        2
176
     1
 40
0.6
176
     1
 41
30.0
176
     1
 63
     7
421
 16777215
176
     1
 74
     1
176
     1
 91
        2
176
     1
 64
     7
176
     1
 65
   257
176
     1
 75
     2
176
     1
175
     1
176
     1
 42
1.0
176
     1
 92
        8
176
     1
 66
   257
176
     1
 43
1.0
176
     1
 76
     1
176
     1
 77
     6
176
     1
 78
     2
176
     1
 67
     7
176
     1
 79
     3
176
     1
170
     0
176
     1
171
     0
176
     1
290
     0
176
     1
 93
        5
176
     1
 44
0.0
176
     1
173
     0
176
     1
1001
ACAD
1000
AcDbSavedByObjectVersion
1070
     0
  0
VISUALSTYLE
  5
3A
102
{ACAD_XDICTIONARY
360
149
102
}
102
{ACAD_REACTORS
330
29
102
}
330
29
100
AcDbVisualStyle
  2
Shades of Gray
 70
    23
177
     2
291
     0
 71
     2
176
     1
 72
     2
176
     1
 73
     3
176
     1
 90
        0
176
     1
 40
0.6
176
     1
 41
30.0
176
     1
 63
     7
421
 16777215
176
     1
 74
     2
176
     1
 91
        2
176
     1
 64
     7
176
     1
 65
     7
176
     1
 75
     1
176
     1
175
     1
176
     1
 42
40.0
176
     1
 92
        8
176
     1
 66
     7
176
     1
 43
1.0
176
     1
 76
     1
176
     1
 77
     6
176
     1
 78
     2
176
     1
 67
     7
176
     1
 79
     3
176
     1
170
     0
176
     1
171
     0
176
     1
290
     0
176
     1
 93
        1
176
     1
 44
0.0
176
     1
173
     0
176
     1
1001
ACAD
1000
AcDbSavedByObjectVersion
1070
     0
  0
VISUALSTYLE
  5
3B
102
{ACAD_XDICTIONARY
360
14B
102
}
102
{ACAD_REACTORS
330
29
102
}
330
29
100
AcDbVisualStyle
  2
Sketchy
 70
    24
177
     2
291
     0
 71
     1
176
     1
 72
     2
176
     1
 73
     2
176
     1
 90
        0
176
     1
 40
0.6
176
     1
 41
30.0
176
     1
 63
     7
421
 16777215
176
     1
 74
     2
176
     1
 91
        2
176
     1
 64
     7
176
     1
 65
     7
176
     1
 75
     1
176
     1
175
     1
176
     1
 42
40.0
176
     1
 92
       11
176
     1
 66
     7
176
     1
 43
1.0
176
     1
 76
     1
176
     1
 77
     6
176
     1
 78
     2
176
     1
 67
     7
176
     1
 79
     6
176
     1
170
     0
176
     1
171
     0
176
     1
290
     0
176
     1
 93
        1
176
     1
 44
0.0
176
     1
173
     0
176
     1
1001
ACAD
1000
AcDbSavedByObjectVersion
1070
     0
  0
VISUALSTYLE
  5
36
102
{ACAD_XDICTIONARY
360
141
102
}
102
{ACAD_REACTORS
330
29
102
}
330
29
100
AcDbVisualStyle
  2
Thicken
 70
    13
177
     2
291
     1
 71
     2
176
     1
 72
     2
176
     1
 73
     0
176
     1
 90
        0
176
     1
 40
0.6
176
     1
 41
30.0
176
     1
 63
     7
421
 16777215
176
     1
 74
     1
176
     1
 91
        4
176
     1
 64
     7
176
     1
 65
   257
176
     1
 75
     1
176
     1
175
     1
176
     1
 42
1.0
176
     1
 92
       12
176
     1
 66
     7
176
     1
 43
1.0
176
     1
 76
     1
176
     1
 77
     6
176
     1
 78
     2
176
     1
 67
     7
176
     1
 79
     5
176
     1
170
     0
176
     1
171
     0
176
     1
290
     0
176
     1
 93
        1
176
     1
 44
0.0
176
     1
173
     0
176
     1
1001
ACAD
1000
AcDbSavedByObjectVersion
1070
     0
  0
VISUALSTYLE
  5
30
102
{ACAD_XDICTIONARY
360
135
102
}
102
{ACAD_REACTORS
330
29
102
}
330
29
100
AcDbVisualStyle
  2
Wireframe
 70
     5
177
     2
291
     0
 71
     0
176
     1
 72
     2
176
     1
 73
     0
176
     1
 90
        0
176
     1
 40
0.6
176
     1
 41
30.0
176
     1
 63
     7
421
 16777215
176
     1
 74
     1
176
     1
 91
        4
176
     1
 64
     7
176
     1
 65
   257
176
     1
 75
     1
176
     1
175
     1
176
     1
 42
1.0
176
     1
 92
        0
176
     1
 66
   257
176
     1
 43
1.0
176
     1
 76
     1
176
     1
 77
     6
176
     1
 78
     2
176
     1
 67
     7
176
     1
 79
     3
176
     1
170
     0
176
     1
171
     0
176
     1
290
     0
176
     1
 93
        1
176
     1
 44
0.0
176
     1
173
     0
176
     1
1001
ACAD
1000
AcDbSavedByObjectVersion
1070
     0
  0
VISUALSTYLE
  5
3C
102
{ACAD_XDICTIONARY
360
14D
102
}
102
{ACAD_REACTORS
330
29
102
}
330
29
100
AcDbVisualStyle
  2
X-Ray
 70
    25
177
     2
291
     0
 71
     2
176
     1
 72
     2
176
     1
 73
     1
176
     1
 90
        1
176
     1
 40
0.5
176
     1
 41
30.0
176
     1
 63
     7
421
 16777215
176
     1
 74
     1
176
     1
 91
        0
176
     1
 64
     7
176
     1
 65
   257
176
     1
 75
     1
176
     1
175
     1
176
     1
 42
1.0
176
     1
 92
        8
176
     1
 66
     7
176
     1
 43
1.0
176
     1
 76
     1
176
     1
 77
     6
176
     1
 78
     2
176
     1
 67
     7
176
     1
 79
     3
176
     1
170
     0
176
     1
171
     0
176
     1
290
     0
176
     1
 93
       13
176
     1
 44
0.0
176
     1
173
     0
176
     1
1001
ACAD
1000
AcDbSavedByObjectVersion
1070
     0
  0
DICTIONARYVAR
  5
125
102
{ACAD_REACTORS
330
120
102
}
330
120
100
DictionaryVariables
280
     0
  1
1:1
  0
DICTIONARYVAR
  5
122
102
{ACAD_REACTORS
330
120
102
}
330
120
100
DictionaryVariables
280
     0
  1
STANDARD
  0
DICTIONARYVAR
  5
121
102
{ACAD_REACTORS
330
120
102
}
330
120
100
DictionaryVariables
280
     0
  1
STANDARD
  0
DICTIONARYVAR
  5
123
102
{ACAD_REACTORS
330
120
102
}
330
120
100
DictionaryVariables
280
     0
  1
Imperial24
  0
DICTIONARYVAR
  5
124
102
{ACAD_REACTORS
330
120
102
}
330
120
100
DictionaryVariables
280
     0
  1
Imperial24
  0
DICTIONARY
  5
15D
330
6B
100
AcDbDictionary
280
     1
281
     1
  3
ACAD_XREC_ROUNDTRIP
360
15E
  0
DICTIONARY
  5
1A
330
19
100
AcDbDictionary
280
     1
281
     1
  3
BUMPTILE
360
1C
  3
DIFFUSETILE
360
1B
  3
OPACITYTILE
360
1F
  3
REFLECTIONTILE
360
1E
  3
REFRACTIONTILE
360
20
  3
SPECULARTILE
360
1D
  0
DICTIONARY
  5
12
330
11
100
AcDbDictionary
280
     1
281
     1
  3
BUMPTILE
360
14
  3
DIFFUSETILE
360
13
  3
OPACITYTILE
360
17
  3
REFLECTIONTILE
360
16
  3
REFRACTIONTILE
360
18
  3
SPECULARTILE
360
15
  0
DICTIONARY
  5
22
330
21
100
AcDbDictionary
280
     1
281
     1
  3
BUMPTILE
360
24
  3
DIFFUSETILE
360
23
  3
OPACITYTILE
360
27
  3
REFLECTIONTILE
360
26
  3
REFRACTIONTILE
360
28
  3
SPECULARTILE
360
25
  0
DICTIONARY
  5
159
330
67
100
AcDbDictionary
280
     1
281
     1
  3
ACAD_XREC_ROUNDTRIP
360
15A
  0
DICTIONARY
  5
15B
330
69
100
AcDbDictionary
280
     1
281
     1
  3
ACAD_XREC_ROUNDTRIP
360
15C
  0
DICTIONARY
  5
126
330
65
100
AcDbDictionary
280
     1
281
     1
  3
ACAD_ROUNDTRIP_2008_TABLESTYLE_CELLSTYLEMAP
360
127
  0
DICTIONARY
  5
133
330
2F
100
AcDbDictionary
280
     1
281
     1
  3
ACAD_XREC_ROUNDTRIP
360
134
  0
DICTIONARY
  5
131
330
2E
100
AcDbDictionary
280
     1
281
     1
  3
ACAD_XREC_ROUNDTRIP
360
132
  0
DICTIONARY
  5
13F
330
35
100
AcDbDictionary
280
     1
281
     1
  3
ACAD_XREC_ROUNDTRIP
360
140
  0
DICTIONARY
  5
147
330
39
100
AcDbDictionary
280
     1
281
     1
  3
ACAD_XREC_ROUNDTRIP
360
148
  0
DICTIONARY
  5
139
330
32
100
AcDbDictionary
280
     1
281
     1
  3
ACAD_XREC_ROUNDTRIP
360
13A
  0
DICTIONARY
  5
13D
330
34
100
AcDbDictionary
280
     1
281
     1
  3
ACAD_XREC_ROUNDTRIP
360
13E
  0
DICTIONARY
  5
157
330
41
100
AcDbDictionary
280
     1
281
     1
  3
ACAD_XREC_ROUNDTRIP
360
158
  0
DICTIONARY
  5
145
330
38
100
AcDbDictionary
280
     1
281
     1
  3
ACAD_XREC_ROUNDTRIP
360
146
  0
DICTIONARY
  5
129
330
2A
100
AcDbDictionary
280
     1
281
     1
  3
ACAD_XREC_ROUNDTRIP
360
12A
  0
DICTIONARY
  5
12B
330
2B
100
AcDbDictionary
280
     1
281
     1
  3
ACAD_XREC_ROUNDTRIP
360
12C
  0
DICTIONARY
  5
12D
330
2C
100
AcDbDictionary
280
     1
281
     1
  3
ACAD_XREC_ROUNDTRIP
360
12E
  0
DICTIONARY
  5
12F
330
2D
100
AcDbDictionary
280
     1
281
     1
  3
ACAD_XREC_ROUNDTRIP
360
130
  0
DICTIONARY
  5
137
330
31
100
AcDbDictionary
280
     1
281
     1
  3
ACAD_XREC_ROUNDTRIP
360
138
  0
DICTIONARY
  5
153
330
3F
100
AcDbDictionary
280
     1
281
     1
  3
ACAD_XREC_ROUNDTRIP
360
154
  0
DICTIONARY
  5
143
330
37
100
AcDbDictionary
280
     1
281
     1
  3
ACAD_XREC_ROUNDTRIP
360
144
  0
DICTIONARY
  5
155
330
40
100
AcDbDictionary
280
     1
281
     1
  3
ACAD_XREC_ROUNDTRIP
360
156
  0
DICTIONARY
  5
13B
330
33
100
AcDbDictionary
280
     1
281
     1
  3
ACAD_XREC_ROUNDTRIP
360
13C
  0
DICTIONARY
  5
151
330
3E
100
AcDbDictionary
280
     1
281
     1
  3
ACAD_XREC_ROUNDTRIP
360
152
  0
DICTIONARY
  5
14F
330
3D
100
AcDbDictionary
280
     1
281
     1
  3
ACAD_XREC_ROUNDTRIP
360
150
  0
DICTIONARY
  5
149
330
3A
100
AcDbDictionary
280
     1
281
     1
  3
ACAD_XREC_ROUNDTRIP
360
14A
  0
DICTIONARY
  5
14B
330
3B
100
AcDbDictionary
280
     1
281
     1
  3
ACAD_XREC_ROUNDTRIP
360
14C
  0
DICTIONARY
  5
141
330
36
100
AcDbDictionary
280
     1
281
     1
  3
ACAD_XREC_ROUNDTRIP
360
142
  0
DICTIONARY
  5
135
330
30
100
AcDbDictionary
280
     1
281
     1
  3
ACAD_XREC_ROUNDTRIP
360
136
  0
DICTIONARY
  5
14D
330
3C
100
AcDbDictionary
280
     1
281
     1
  3
ACAD_XREC_ROUNDTRIP
360
14E
  0
XRECORD
  5
15E
102
{ACAD_REACTORS
330
15D
102
}
330
15D
100
AcDbXrecord
280
     1
102
DISPLAYNAME
  1
Imperial24
102
FLAGS
 90
        0
  0
XRECORD
  5
1C
102
{ACAD_REACTORS
330
1A
102
}
330
1A
100
AcDbXrecord
280
     1
270
     1
271
     1
  0
XRECORD
  5
1B
102
{ACAD_REACTORS
330
1A
102
}
330
1A
100
AcDbXrecord
280
     1
270
     1
271
     1
  0
XRECORD
  5
1F
102
{ACAD_REACTORS
330
1A
102
}
330
1A
100
AcDbXrecord
280
     1
270
     1
271
     1
  0
XRECORD
  5
1E
102
{ACAD_REACTORS
330
1A
102
}
330
1A
100
AcDbXrecord
280
     1
270
     1
271
     1
  0
XRECORD
  5
20
102
{ACAD_REACTORS
330
1A
102
}
330
1A
100
AcDbXrecord
280
     1
270
     1
271
     1
  0
XRECORD
  5
1D
102
{ACAD_REACTORS
330
1A
102
}
330
1A
100
AcDbXrecord
280
     1
270
     1
271
     1
  0
XRECORD
  5
14
102
{ACAD_REACTORS
330
12
102
}
330
12
100
AcDbXrecord
280
     1
270
     1
271
     1
  0
XRECORD
  5
13
102
{ACAD_REACTORS
330
12
102
}
330
12
100
AcDbXrecord
280
     1
270
     1
271
     1
  0
XRECORD
  5
17
102
{ACAD_REACTORS
330
12
102
}
330
12
100
AcDbXrecord
280
     1
270
     1
271
     1
  0
XRECORD
  5
16
102
{ACAD_REACTORS
330
12
102
}
330
12
100
AcDbXrecord
280
     1
270
     1
271
     1
  0
XRECORD
  5
18
102
{ACAD_REACTORS
330
12
102
}
330
12
100
AcDbXrecord
280
     1
270
     1
271
     1
  0
XRECORD
  5
15
102
{ACAD_REACTORS
330
12
102
}
330
12
100
AcDbXrecord
280
     1
270
     1
271
     1
  0
XRECORD
  5
24
102
{ACAD_REACTORS
330
22
102
}
330
22
100
AcDbXrecord
280
     1
270
     1
271
     1
  0
XRECORD
  5
23
102
{ACAD_REACTORS
330
22
102
}
330
22
100
AcDbXrecord
280
     1
270
     1
271
     1
  0
XRECORD
  5
27
102
{ACAD_REACTORS
330
22
102
}
330
22
100
AcDbXrecord
280
     1
270
     1
271
     1
  0
XRECORD
  5
26
102
{ACAD_REACTORS
330
22
102
}
330
22
100
AcDbXrecord
280
     1
270
     1
271
     1
  0
XRECORD
  5
28
102
{ACAD_REACTORS
330
22
102
}
330
22
100
AcDbXrecord
280
     1
270
     1
271
     1
  0
XRECORD
  5
25
102
{ACAD_REACTORS
330
22
102
}
330
22
100
AcDbXrecord
280
     1
270
     1
271
     1
  0
XRECORD
  5
15A
102
{ACAD_REACTORS
330
159
102
}
330
159
100
AcDbXrecord
280
     1
102
ACAD_ROUNDTRIP_2012_MLEADER_STYLE
298
     1
  0
XRECORD
  5
15C
102
{ACAD_REACTORS
330
15B
102
}
330
15B
100
AcDbXrecord
280
     1
102
DISPLAYNAME
  1
Imperial24
102
FLAGS
 90
        0
  0
CELLSTYLEMAP
  5
127
102
{ACAD_REACTORS
330
126
102
}
330
126
100
AcDbCellStyleMap
 90
        3
300
CELLSTYLE
  1
TABLEFORMAT_BEGIN
 90
        5
170
     1
 91
        0
 92
    32768
 62
   257
 93
        1
300
CONTENTFORMAT
  1
CONTENTFORMAT_BEGIN
 90
        0
 91
        0
 92
      512
 93
        0
300

 40
0.0
140
1.0
 94
        5
 62
     0
340
55
144
0.25
309
CONTENTFORMAT_END
171
     0
 94
        0
309
TABLEFORMAT_END
  1
CELLSTYLE_BEGIN
 90
        1
 91
        1
300
_TITLE
309
CELLSTYLE_END
300
CELLSTYLE
  1
TABLEFORMAT_BEGIN
 90
        5
170
     1
 91
        0
 92
        0
 62
   257
 93
        1
300
CONTENTFORMAT
  1
CONTENTFORMAT_BEGIN
 90
        0
 91
        0
 92
      512
 93
        0
300

 40
0.0
140
1.0
 94
        5
 62
     0
340
55
144
0.18
309
CONTENTFORMAT_END
171
     0
 94
        0
309
TABLEFORMAT_END
  1
CELLSTYLE_BEGIN
 90
        2
 91
        1
300
_HEADER
309
CELLSTYLE_END
300
CELLSTYLE
  1
TABLEFORMAT_BEGIN
 90
        5
170
     1
 91
        0
 92
        0
 62
   257
 93
        1
300
CONTENTFORMAT
  1
CONTENTFORMAT_BEGIN
 90
        0
 91
        0
 92
      512
 93
        0
300

 40
0.0
140
1.0
 94
        2
 62
     0
340
55
144
0.18
309
CONTENTFORMAT_END
171
     0
 94
        0
309
TABLEFORMAT_END
  1
CELLSTYLE_BEGIN
 90
        3
 91
        2
300
_DATA
309
CELLSTYLE_END
  0
XRECORD
  5
134
102
{ACAD_REACTORS
330
133
102
}
330
133
100
AcDbXrecord
280
     1
102
RTVSPost2010Prop28
280
     1
102
RTVSPost2010PropOp28
 70
     1
102
RTVSPost2010Prop29
280
     1
102
RTVSPost2010PropOp29
 70
     1
102
RTVSPost2010Prop30
280
     0
102
RTVSPost2010PropOp30
 70
     1
102
RTVSPost2010Prop31
280
     0
102
RTVSPost2010PropOp31
 70
     1
102
RTVSPost2010Prop32
280
     0
102
RTVSPost2010PropOp32
 70
     1
102
RTVSPost2010Prop33
280
     0
102
RTVSPost2010PropOp33
 70
     1
102
RTVSPost2010Prop34
280
     0
102
RTVSPost2010PropOp34
 70
     1
102
RTVSPost2010Prop35
280
     0
102
RTVSPost2010PropOp35
 70
     1
102
RTVSPost2010Prop36
280
     0
102
RTVSPost2010PropOp36
 70
     1
102
RTVSPost2010Prop37
 90
       50
102
RTVSPost2010PropOp37
 70
     1
102
RTVSPost2010Prop38
140
0.0
102
RTVSPost2010PropOp38
 70
     1
102
RTVSPost2010Prop39
140
1.0
102
RTVSPost2010PropOp39
 70
     1
102
RTVSPost2010Prop40
 90
        0
102
RTVSPost2010PropOp40
 70
     1
102
RTVSPost2010Prop41ColorIndex
 90
       18
102
RTVSPost2010Prop41ColorRGB
 90
        0
102
RTVSPost2010PropOp41
 70
     1
102
RTVSPost2010Prop42
 90
       50
102
RTVSPost2010PropOp42
 70
     1
102
RTVSPost2010Prop43
 90
        3
102
RTVSPost2010PropOp43
 70
     1
102
RTVSPost2010Prop44ColorIndex
 90
        5
102
RTVSPost2010Prop44ColorRGB
 90
      255
102
RTVSPost2010PropOp44
 70
     1
102
RTVSPost2010Prop45
280
     0
102
RTVSPost2010PropOp45
 70
     1
102
RTVSPost2010Prop46
 90
       50
102
RTVSPost2010PropOp46
 70
     1
102
RTVSPost2010Prop47
 90
       50
102
RTVSPost2010PropOp47
 70
     1
102
RTVSPost2010Prop48
 90
       50
102
RTVSPost2010PropOp48
 70
     1
102
RTVSPost2010Prop49
280
     0
102
RTVSPost2010PropOp49
 70
     1
102
RTVSPost2010Prop50
 90
       50
102
RTVSPost2010PropOp50
 70
     1
102
RTVSPost2010Prop51ColorIndex
 90
      256
102
RTVSPost2010Prop51ColorRGB
 90
-16777216
102
RTVSPost2010PropOp51
 70
     0
102
RTVSPost2010Prop52
140
1.0
102
RTVSPost2010PropOp52
 70
     0
102
RTVSPost2010Prop53
 90
        2
102
RTVSPost2010PropOp53
 70
     1
102
RTVSPost2010Prop54
  1
strokes_ogs.tif
102
RTVSPost2010PropOp54
 70
     1
102
RTVSPost2010Prop55
280
     0
102
RTVSPost2010PropOp55
 70
     1
102
RTVSPost2010Prop56
140
1.0
102
RTVSPost2010PropOp56
 70
     1
102
RTVSPost2010Prop57
140
1.0
102
RTVSPost2010PropOp57
 70
     1
  0
XRECORD
  5
132
102
{ACAD_REACTORS
330
131
102
}
330
131
100
AcDbXrecord
280
     1
102
RTVSPost2010Prop28
280
     0
102
RTVSPost2010PropOp28
 70
     1
102
RTVSPost2010Prop29
280
     1
102
RTVSPost2010PropOp29
 70
     1
102
RTVSPost2010Prop30
280
     1
102
RTVSPost2010PropOp30
 70
     1
102
RTVSPost2010Prop31
280
     0
102
RTVSPost2010PropOp31
 70
     1
102
RTVSPost2010Prop32
280
     0
102
RTVSPost2010PropOp32
 70
     1
102
RTVSPost2010Prop33
280
     0
102
RTVSPost2010PropOp33
 70
     1
102
RTVSPost2010Prop34
280
     0
102
RTVSPost2010PropOp34
 70
     1
102
RTVSPost2010Prop35
280
     0
102
RTVSPost2010PropOp35
 70
     1
102
RTVSPost2010Prop36
280
     0
102
RTVSPost2010PropOp36
 70
     1
102
RTVSPost2010Prop37
 90
       50
102
RTVSPost2010PropOp37
 70
     1
102
RTVSPost2010Prop38
140
0.0
102
RTVSPost2010PropOp38
 70
     1
102
RTVSPost2010Prop39
140
1.0
102
RTVSPost2010PropOp39
 70
     1
102
RTVSPost2010Prop40
 90
        0
102
RTVSPost2010PropOp40
 70
     1
102
RTVSPost2010Prop41ColorIndex
 90
       18
102
RTVSPost2010Prop41ColorRGB
 90
        0
102
RTVSPost2010PropOp41
 70
     1
102
RTVSPost2010Prop42
 90
       50
102
RTVSPost2010PropOp42
 70
     1
102
RTVSPost2010Prop43
 90
        3
102
RTVSPost2010PropOp43
 70
     1
102
RTVSPost2010Prop44ColorIndex
 90
        5
102
RTVSPost2010Prop44ColorRGB
 90
      255
102
RTVSPost2010PropOp44
 70
     1
102
RTVSPost2010Prop45
280
     0
102
RTVSPost2010PropOp45
 70
     1
102
RTVSPost2010Prop46
 90
       50
102
RTVSPost2010PropOp46
 70
     1
102
RTVSPost2010Prop47
 90
       50
102
RTVSPost2010PropOp47
 70
     1
102
RTVSPost2010Prop48
 90
       50
102
RTVSPost2010PropOp48
 70
     1
102
RTVSPost2010Prop49
280
     0
102
RTVSPost2010PropOp49
 70
     1
102
RTVSPost2010Prop50
 90
       50
102
RTVSPost2010PropOp50
 70
     1
102
RTVSPost2010Prop51ColorIndex
 90
      256
102
RTVSPost2010Prop51ColorRGB
 90
-16777216
102
RTVSPost2010PropOp51
 70
     0
102
RTVSPost2010Prop52
140
1.0
102
RTVSPost2010PropOp52
 70
     0
102
RTVSPost2010Prop53
 90
        2
102
RTVSPost2010PropOp53
 70
     1
102
RTVSPost2010Prop54
  1
strokes_ogs.tif
102
RTVSPost2010PropOp54
 70
     1
102
RTVSPost2010Prop55
280
     0
102
RTVSPost2010PropOp55
 70
     1
102
RTVSPost2010Prop56
140
1.0
102
RTVSPost2010PropOp56
 70
     1
102
RTVSPost2010Prop57
140
1.0
102
RTVSPost2010PropOp57
 70
     1
  0
XRECORD
  5
140
102
{ACAD_REACTORS
330
13F
102
}
330
13F
100
AcDbXrecord
280
     1
102
RTVSPost2010Prop28
280
     0
102
RTVSPost2010PropOp28
 70
     1
102
RTVSPost2010Prop29
280
     1
102
RTVSPost2010PropOp29
 70
     1
102
RTVSPost2010Prop30
280
     1
102
RTVSPost2010PropOp30
 70
     1
102
RTVSPost2010Prop31
280
     0
102
RTVSPost2010PropOp31
 70
     1
102
RTVSPost2010Prop32
280
     0
102
RTVSPost2010PropOp32
 70
     1
102
RTVSPost2010Prop33
280
     0
102
RTVSPost2010PropOp33
 70
     1
102
RTVSPost2010Prop34
280
     0
102
RTVSPost2010PropOp34
 70
     1
102
RTVSPost2010Prop35
280
     0
102
RTVSPost2010PropOp35
 70
     1
102
RTVSPost2010Prop36
280
     0
102
RTVSPost2010PropOp36
 70
     1
102
RTVSPost2010Prop37
 90
       50
102
RTVSPost2010PropOp37
 70
     1
102
RTVSPost2010Prop38
140
0.0
102
RTVSPost2010PropOp38
 70
     1
102
RTVSPost2010Prop39
140
1.0
102
RTVSPost2010PropOp39
 70
     1
102
RTVSPost2010Prop40
 90
        0
102
RTVSPost2010PropOp40
 70
     1
102
RTVSPost2010Prop41ColorIndex
 90
       18
102
RTVSPost2010Prop41ColorRGB
 90
        0
102
RTVSPost2010PropOp41
 70
     1
102
RTVSPost2010Prop42
 90
       50
102
RTVSPost2010PropOp42
 70
     1
102
RTVSPost2010Prop43
 90
        3
102
RTVSPost2010PropOp43
 70
     1
102
RTVSPost2010Prop44ColorIndex
 90
        5
102
RTVSPost2010Prop44ColorRGB
 90
      255
102
RTVSPost2010PropOp44
 70
     1
102
RTVSPost2010Prop45
280
     0
102
RTVSPost2010PropOp45
 70
     1
102
RTVSPost2010Prop46
 90
       50
102
RTVSPost2010PropOp46
 70
     1
102
RTVSPost2010Prop47
 90
       50
102
RTVSPost2010PropOp47
 70
     1
102
RTVSPost2010Prop48
 90
       50
102
RTVSPost2010PropOp48
 70
     1
102
RTVSPost2010Prop49
280
     0
102
RTVSPost2010PropOp49
 70
     1
102
RTVSPost2010Prop50
 90
       50
102
RTVSPost2010PropOp50
 70
     1
102
RTVSPost2010Prop51ColorIndex
 90
      256
102
RTVSPost2010Prop51ColorRGB
 90
-16777216
102
RTVSPost2010PropOp51
 70
     0
102
RTVSPost2010Prop52
140
1.0
102
RTVSPost2010PropOp52
 70
     0
102
RTVSPost2010Prop53
 90
        2
102
RTVSPost2010PropOp53
 70
     1
102
RTVSPost2010Prop54
  1
strokes_ogs.tif
102
RTVSPost2010PropOp54
 70
     1
102
RTVSPost2010Prop55
280
     0
102
RTVSPost2010PropOp55
 70
     1
102
RTVSPost2010Prop56
140
1.0
102
RTVSPost2010PropOp56
 70
     1
102
RTVSPost2010Prop57
140
1.0
102
RTVSPost2010PropOp57
 70
     1
  0
XRECORD
  5
148
102
{ACAD_REACTORS
330
147
102
}
330
147
100
AcDbXrecord
280
     1
102
RTVSPost2010Prop28
280
     0
102
RTVSPost2010PropOp28
 70
     1
102
RTVSPost2010Prop29
280
     1
102
RTVSPost2010PropOp29
 70
     1
102
RTVSPost2010Prop30
280
     1
102
RTVSPost2010PropOp30
 70
     1
102
RTVSPost2010Prop31
280
     0
102
RTVSPost2010PropOp31
 70
     1
102
RTVSPost2010Prop32
280
     0
102
RTVSPost2010PropOp32
 70
     1
102
RTVSPost2010Prop33
280
     0
102
RTVSPost2010PropOp33
 70
     1
102
RTVSPost2010Prop34
280
     0
102
RTVSPost2010PropOp34
 70
     1
102
RTVSPost2010Prop35
280
     0
102
RTVSPost2010PropOp35
 70
     1
102
RTVSPost2010Prop36
280
     0
102
RTVSPost2010PropOp36
 70
     1
102
RTVSPost2010Prop37
 90
       50
102
RTVSPost2010PropOp37
 70
     1
102
RTVSPost2010Prop38
140
0.0
102
RTVSPost2010PropOp38
 70
     1
102
RTVSPost2010Prop39
140
1.0
102
RTVSPost2010PropOp39
 70
     1
102
RTVSPost2010Prop40
 90
        0
102
RTVSPost2010PropOp40
 70
     1
102
RTVSPost2010Prop41ColorIndex
 90
       18
102
RTVSPost2010Prop41ColorRGB
 90
        0
102
RTVSPost2010PropOp41
 70
     1
102
RTVSPost2010Prop42
 90
       50
102
RTVSPost2010PropOp42
 70
     1
102
RTVSPost2010Prop43
 90
        3
102
RTVSPost2010PropOp43
 70
     1
102
RTVSPost2010Prop44ColorIndex
 90
        5
102
RTVSPost2010Prop44ColorRGB
 90
      255
102
RTVSPost2010PropOp44
 70
     1
102
RTVSPost2010Prop45
280
     0
102
RTVSPost2010PropOp45
 70
     1
102
RTVSPost2010Prop46
 90
       50
102
RTVSPost2010PropOp46
 70
     1
102
RTVSPost2010Prop47
 90
       50
102
RTVSPost2010PropOp47
 70
     1
102
RTVSPost2010Prop48
 90
       50
102
RTVSPost2010PropOp48
 70
     1
102
RTVSPost2010Prop49
280
     0
102
RTVSPost2010PropOp49
 70
     1
102
RTVSPost2010Prop50
 90
       50
102
RTVSPost2010PropOp50
 70
     1
102
RTVSPost2010Prop51ColorIndex
 90
      256
102
RTVSPost2010Prop51ColorRGB
 90
-16777216
102
RTVSPost2010PropOp51
 70
     0
102
RTVSPost2010Prop52
140
1.0
102
RTVSPost2010PropOp52
 70
     0
102
RTVSPost2010Prop53
 90
        2
102
RTVSPost2010PropOp53
 70
     1
102
RTVSPost2010Prop54
  1
strokes_ogs.tif
102
RTVSPost2010PropOp54
 70
     1
102
RTVSPost2010Prop55
280
     0
102
RTVSPost2010PropOp55
 70
     1
102
RTVSPost2010Prop56
140
1.0
102
RTVSPost2010PropOp56
 70
     1
102
RTVSPost2010Prop57
140
1.0
102
RTVSPost2010PropOp57
 70
     1
  0
XRECORD
  5
13A
102
{ACAD_REACTORS
330
139
102
}
330
139
100
AcDbXrecord
280
     1
102
RTVSPost2010Prop28
280
     0
102
RTVSPost2010PropOp28
 70
     1
102
RTVSPost2010Prop29
280
     1
102
RTVSPost2010PropOp29
 70
     1
102
RTVSPost2010Prop30
280
     1
102
RTVSPost2010PropOp30
 70
     1
102
RTVSPost2010Prop31
280
     0
102
RTVSPost2010PropOp31
 70
     1
102
RTVSPost2010Prop32
280
     0
102
RTVSPost2010PropOp32
 70
     1
102
RTVSPost2010Prop33
280
     0
102
RTVSPost2010PropOp33
 70
     1
102
RTVSPost2010Prop34
280
     0
102
RTVSPost2010PropOp34
 70
     1
102
RTVSPost2010Prop35
280
     0
102
RTVSPost2010PropOp35
 70
     1
102
RTVSPost2010Prop36
280
     0
102
RTVSPost2010PropOp36
 70
     1
102
RTVSPost2010Prop37
 90
       50
102
RTVSPost2010PropOp37
 70
     1
102
RTVSPost2010Prop38
140
0.0
102
RTVSPost2010PropOp38
 70
     1
102
RTVSPost2010Prop39
140
1.0
102
RTVSPost2010PropOp39
 70
     1
102
RTVSPost2010Prop40
 90
        0
102
RTVSPost2010PropOp40
 70
     1
102
RTVSPost2010Prop41ColorIndex
 90
       18
102
RTVSPost2010Prop41ColorRGB
 90
        0
102
RTVSPost2010PropOp41
 70
     1
102
RTVSPost2010Prop42
 90
       50
102
RTVSPost2010PropOp42
 70
     1
102
RTVSPost2010Prop43
 90
        3
102
RTVSPost2010PropOp43
 70
     1
102
RTVSPost2010Prop44ColorIndex
 90
        5
102
RTVSPost2010Prop44ColorRGB
 90
      255
102
RTVSPost2010PropOp44
 70
     1
102
RTVSPost2010Prop45
280
     0
102
RTVSPost2010PropOp45
 70
     1
102
RTVSPost2010Prop46
 90
       50
102
RTVSPost2010PropOp46
 70
     1
102
RTVSPost2010Prop47
 90
       50
102
RTVSPost2010PropOp47
 70
     1
102
RTVSPost2010Prop48
 90
       50
102
RTVSPost2010PropOp48
 70
     1
102
RTVSPost2010Prop49
280
     0
102
RTVSPost2010PropOp49
 70
     1
102
RTVSPost2010Prop50
 90
       50
102
RTVSPost2010PropOp50
 70
     1
102
RTVSPost2010Prop51ColorIndex
 90
      256
102
RTVSPost2010Prop51ColorRGB
 90
-16777216
102
RTVSPost2010PropOp51
 70
     0
102
RTVSPost2010Prop52
140
1.0
102
RTVSPost2010PropOp52
 70
     0
102
RTVSPost2010Prop53
 90
        2
102
RTVSPost2010PropOp53
 70
     1
102
RTVSPost2010Prop54
  1
strokes_ogs.tif
102
RTVSPost2010PropOp54
 70
     1
102
RTVSPost2010Prop55
280
     0
102
RTVSPost2010PropOp55
 70
     1
102
RTVSPost2010Prop56
140
1.0
102
RTVSPost2010PropOp56
 70
     1
102
RTVSPost2010Prop57
140
1.0
102
RTVSPost2010PropOp57
 70
     1
  0
XRECORD
  5
13E
102
{ACAD_REACTORS
330
13D
102
}
330
13D
100
AcDbXrecord
280
     1
102
RTVSPost2010Prop28
280
     0
102
RTVSPost2010PropOp28
 70
     1
102
RTVSPost2010Prop29
280
     1
102
RTVSPost2010PropOp29
 70
     1
102
RTVSPost2010Prop30
280
     1
102
RTVSPost2010PropOp30
 70
     1
102
RTVSPost2010Prop31
280
     0
102
RTVSPost2010PropOp31
 70
     1
102
RTVSPost2010Prop32
280
     0
102
RTVSPost2010PropOp32
 70
     1
102
RTVSPost2010Prop33
280
     0
102
RTVSPost2010PropOp33
 70
     1
102
RTVSPost2010Prop34
280
     0
102
RTVSPost2010PropOp34
 70
     1
102
RTVSPost2010Prop35
280
     0
102
RTVSPost2010PropOp35
 70
     1
102
RTVSPost2010Prop36
280
     0
102
RTVSPost2010PropOp36
 70
     1
102
RTVSPost2010Prop37
 90
       50
102
RTVSPost2010PropOp37
 70
     1
102
RTVSPost2010Prop38
140
0.0
102
RTVSPost2010PropOp38
 70
     1
102
RTVSPost2010Prop39
140
1.0
102
RTVSPost2010PropOp39
 70
     1
102
RTVSPost2010Prop40
 90
        0
102
RTVSPost2010PropOp40
 70
     1
102
RTVSPost2010Prop41ColorIndex
 90
       18
102
RTVSPost2010Prop41ColorRGB
 90
        0
102
RTVSPost2010PropOp41
 70
     1
102
RTVSPost2010Prop42
 90
       50
102
RTVSPost2010PropOp42
 70
     1
102
RTVSPost2010Prop43
 90
        3
102
RTVSPost2010PropOp43
 70
     1
102
RTVSPost2010Prop44ColorIndex
 90
        5
102
RTVSPost2010Prop44ColorRGB
 90
      255
102
RTVSPost2010PropOp44
 70
     1
102
RTVSPost2010Prop45
280
     0
102
RTVSPost2010PropOp45
 70
     1
102
RTVSPost2010Prop46
 90
       50
102
RTVSPost2010PropOp46
 70
     1
102
RTVSPost2010Prop47
 90
       50
102
RTVSPost2010PropOp47
 70
     1
102
RTVSPost2010Prop48
 90
       50
102
RTVSPost2010PropOp48
 70
     1
102
RTVSPost2010Prop49
280
     0
102
RTVSPost2010PropOp49
 70
     1
102
RTVSPost2010Prop50
 90
       50
102
RTVSPost2010PropOp50
 70
     1
102
RTVSPost2010Prop51ColorIndex
 90
      256
102
RTVSPost2010Prop51ColorRGB
 90
-16777216
102
RTVSPost2010PropOp51
 70
     0
102
RTVSPost2010Prop52
140
1.0
102
RTVSPost2010PropOp52
 70
     0
102
RTVSPost2010Prop53
 90
        2
102
RTVSPost2010PropOp53
 70
     1
102
RTVSPost2010Prop54
  1
strokes_ogs.tif
102
RTVSPost2010PropOp54
 70
     1
102
RTVSPost2010Prop55
280
     0
102
RTVSPost2010PropOp55
 70
     1
102
RTVSPost2010Prop56
140
1.0
102
RTVSPost2010PropOp56
 70
     1
102
RTVSPost2010Prop57
140
1.0
102
RTVSPost2010PropOp57
 70
     1
  0
XRECORD
  5
158
102
{ACAD_REACTORS
330
157
102
}
330
157
100
AcDbXrecord
280
     1
102
RTVSPost2010Prop28
280
     0
102
RTVSPost2010PropOp28
 70
     0
102
RTVSPost2010Prop29
280
     1
102
RTVSPost2010PropOp29
 70
     0
102
RTVSPost2010Prop30
280
     1
102
RTVSPost2010PropOp30
 70
     0
102
RTVSPost2010Prop31
280
     0
102
RTVSPost2010PropOp31
 70
     0
102
RTVSPost2010Prop32
280
     0
102
RTVSPost2010PropOp32
 70
     0
102
RTVSPost2010Prop33
280
     0
102
RTVSPost2010PropOp33
 70
     0
102
RTVSPost2010Prop34
280
     0
102
RTVSPost2010PropOp34
 70
     0
102
RTVSPost2010Prop35
280
     0
102
RTVSPost2010PropOp35
 70
     0
102
RTVSPost2010Prop36
280
     0
102
RTVSPost2010PropOp36
 70
     0
102
RTVSPost2010Prop37
 90
       50
102
RTVSPost2010PropOp37
 70
     0
102
RTVSPost2010Prop38
140
0.0
102
RTVSPost2010PropOp38
 70
     0
102
RTVSPost2010Prop39
140
1.0
102
RTVSPost2010PropOp39
 70
     0
102
RTVSPost2010Prop40
 90
        0
102
RTVSPost2010PropOp40
 70
     0
102
RTVSPost2010Prop41ColorIndex
 90
       18
102
RTVSPost2010Prop41ColorRGB
 90
        0
102
RTVSPost2010PropOp41
 70
     0
102
RTVSPost2010Prop42
 90
       50
102
RTVSPost2010PropOp42
 70
     0
102
RTVSPost2010Prop43
 90
        3
102
RTVSPost2010PropOp43
 70
     0
102
RTVSPost2010Prop44ColorIndex
 90
        5
102
RTVSPost2010Prop44ColorRGB
 90
      255
102
RTVSPost2010PropOp44
 70
     0
102
RTVSPost2010Prop45
280
     0
102
RTVSPost2010PropOp45
 70
     0
102
RTVSPost2010Prop46
 90
       50
102
RTVSPost2010PropOp46
 70
     0
102
RTVSPost2010Prop47
 90
       50
102
RTVSPost2010PropOp47
 70
     0
102
RTVSPost2010Prop48
 90
       50
102
RTVSPost2010PropOp48
 70
     0
102
RTVSPost2010Prop49
280
     0
102
RTVSPost2010PropOp49
 70
     0
102
RTVSPost2010Prop50
 90
       50
102
RTVSPost2010PropOp50
 70
     0
102
RTVSPost2010Prop51ColorIndex
 90
      256
102
RTVSPost2010Prop51ColorRGB
 90
-16777216
102
RTVSPost2010PropOp51
 70
     0
102
RTVSPost2010Prop52
140
1.0
102
RTVSPost2010PropOp52
 70
     0
102
RTVSPost2010Prop53
 90
        2
102
RTVSPost2010PropOp53
 70
     0
102
RTVSPost2010Prop54
  1
strokes_ogs.tif
102
RTVSPost2010PropOp54
 70
     0
102
RTVSPost2010Prop55
280
     0
102
RTVSPost2010PropOp55
 70
     0
102
RTVSPost2010Prop56
140
1.0
102
RTVSPost2010PropOp56
 70
     0
102
RTVSPost2010Prop57
140
1.0
102
RTVSPost2010PropOp57
 70
     0
  0
XRECORD
  5
146
102
{ACAD_REACTORS
330
145
102
}
330
145
100
AcDbXrecord
280
     1
102
RTVSPost2010Prop28
280
     0
102
RTVSPost2010PropOp28
 70
     1
102
RTVSPost2010Prop29
280
     1
102
RTVSPost2010PropOp29
 70
     1
102
RTVSPost2010Prop30
280
     1
102
RTVSPost2010PropOp30
 70
     1
102
RTVSPost2010Prop31
280
     0
102
RTVSPost2010PropOp31
 70
     1
102
RTVSPost2010Prop32
280
     0
102
RTVSPost2010PropOp32
 70
     1
102
RTVSPost2010Prop33
280
     0
102
RTVSPost2010PropOp33
 70
     1
102
RTVSPost2010Prop34
280
     0
102
RTVSPost2010PropOp34
 70
     1
102
RTVSPost2010Prop35
280
     0
102
RTVSPost2010PropOp35
 70
     1
102
RTVSPost2010Prop36
280
     0
102
RTVSPost2010PropOp36
 70
     1
102
RTVSPost2010Prop37
 90
       50
102
RTVSPost2010PropOp37
 70
     1
102
RTVSPost2010Prop38
140
0.0
102
RTVSPost2010PropOp38
 70
     1
102
RTVSPost2010Prop39
140
1.0
102
RTVSPost2010PropOp39
 70
     1
102
RTVSPost2010Prop40
 90
        0
102
RTVSPost2010PropOp40
 70
     1
102
RTVSPost2010Prop41ColorIndex
 90
       18
102
RTVSPost2010Prop41ColorRGB
 90
        0
102
RTVSPost2010PropOp41
 70
     1
102
RTVSPost2010Prop42
 90
       50
102
RTVSPost2010PropOp42
 70
     1
102
RTVSPost2010Prop43
 90
        3
102
RTVSPost2010PropOp43
 70
     1
102
RTVSPost2010Prop44ColorIndex
 90
        5
102
RTVSPost2010Prop44ColorRGB
 90
      255
102
RTVSPost2010PropOp44
 70
     1
102
RTVSPost2010Prop45
280
     0
102
RTVSPost2010PropOp45
 70
     1
102
RTVSPost2010Prop46
 90
       50
102
RTVSPost2010PropOp46
 70
     1
102
RTVSPost2010Prop47
 90
       50
102
RTVSPost2010PropOp47
 70
     1
102
RTVSPost2010Prop48
 90
       50
102
RTVSPost2010PropOp48
 70
     1
102
RTVSPost2010Prop49
280
     0
102
RTVSPost2010PropOp49
 70
     1
102
RTVSPost2010Prop50
 90
       50
102
RTVSPost2010PropOp50
 70
     1
102
RTVSPost2010Prop51ColorIndex
 90
      256
102
RTVSPost2010Prop51ColorRGB
 90
-16777216
102
RTVSPost2010PropOp51
 70
     0
102
RTVSPost2010Prop52
140
1.0
102
RTVSPost2010PropOp52
 70
     0
102
RTVSPost2010Prop53
 90
        2
102
RTVSPost2010PropOp53
 70
     1
102
RTVSPost2010Prop54
  1
strokes_ogs.tif
102
RTVSPost2010PropOp54
 70
     1
102
RTVSPost2010Prop55
280
     0
102
RTVSPost2010PropOp55
 70
     1
102
RTVSPost2010Prop56
140
1.0
102
RTVSPost2010PropOp56
 70
     1
102
RTVSPost2010Prop57
140
1.0
102
RTVSPost2010PropOp57
 70
     1
  0
XRECORD
  5
12A
102
{ACAD_REACTORS
330
129
102
}
330
129
100
AcDbXrecord
280
     1
102
RTVSPost2010Prop28
280
     0
102
RTVSPost2010PropOp28
 70
     1
102
RTVSPost2010Prop29
280
     1
102
RTVSPost2010PropOp29
 70
     1
102
RTVSPost2010Prop30
280
     1
102
RTVSPost2010PropOp30
 70
     1
102
RTVSPost2010Prop31
280
     0
102
RTVSPost2010PropOp31
 70
     1
102
RTVSPost2010Prop32
280
     0
102
RTVSPost2010PropOp32
 70
     1
102
RTVSPost2010Prop33
280
     0
102
RTVSPost2010PropOp33
 70
     1
102
RTVSPost2010Prop34
280
     0
102
RTVSPost2010PropOp34
 70
     1
102
RTVSPost2010Prop35
280
     0
102
RTVSPost2010PropOp35
 70
     1
102
RTVSPost2010Prop36
280
     0
102
RTVSPost2010PropOp36
 70
     1
102
RTVSPost2010Prop37
 90
       50
102
RTVSPost2010PropOp37
 70
     1
102
RTVSPost2010Prop38
140
0.0
102
RTVSPost2010PropOp38
 70
     1
102
RTVSPost2010Prop39
140
1.0
102
RTVSPost2010PropOp39
 70
     1
102
RTVSPost2010Prop40
 90
        0
102
RTVSPost2010PropOp40
 70
     1
102
RTVSPost2010Prop41ColorIndex
 90
       18
102
RTVSPost2010Prop41ColorRGB
 90
        0
102
RTVSPost2010PropOp41
 70
     1
102
RTVSPost2010Prop42
 90
       50
102
RTVSPost2010PropOp42
 70
     1
102
RTVSPost2010Prop43
 90
        3
102
RTVSPost2010PropOp43
 70
     1
102
RTVSPost2010Prop44ColorIndex
 90
        5
102
RTVSPost2010Prop44ColorRGB
 90
      255
102
RTVSPost2010PropOp44
 70
     1
102
RTVSPost2010Prop45
280
     0
102
RTVSPost2010PropOp45
 70
     1
102
RTVSPost2010Prop46
 90
       50
102
RTVSPost2010PropOp46
 70
     1
102
RTVSPost2010Prop47
 90
       50
102
RTVSPost2010PropOp47
 70
     1
102
RTVSPost2010Prop48
 90
       50
102
RTVSPost2010PropOp48
 70
     1
102
RTVSPost2010Prop49
280
     0
102
RTVSPost2010PropOp49
 70
     1
102
RTVSPost2010Prop50
 90
       50
102
RTVSPost2010PropOp50
 70
     1
102
RTVSPost2010Prop51ColorIndex
 90
      256
102
RTVSPost2010Prop51ColorRGB
 90
-16777216
102
RTVSPost2010PropOp51
 70
     0
102
RTVSPost2010Prop52
140
1.0
102
RTVSPost2010PropOp52
 70
     0
102
RTVSPost2010Prop53
 90
        2
102
RTVSPost2010PropOp53
 70
     1
102
RTVSPost2010Prop54
  1
strokes_ogs.tif
102
RTVSPost2010PropOp54
 70
     1
102
RTVSPost2010Prop55
280
     0
102
RTVSPost2010PropOp55
 70
     1
102
RTVSPost2010Prop56
140
1.0
102
RTVSPost2010PropOp56
 70
     1
102
RTVSPost2010Prop57
140
1.0
102
RTVSPost2010PropOp57
 70
     1
  0
XRECORD
  5
12C
102
{ACAD_REACTORS
330
12B
102
}
330
12B
100
AcDbXrecord
280
     1
102
RTVSPost2010Prop28
280
     0
102
RTVSPost2010PropOp28
 70
     1
102
RTVSPost2010Prop29
280
     1
102
RTVSPost2010PropOp29
 70
     1
102
RTVSPost2010Prop30
280
     1
102
RTVSPost2010PropOp30
 70
     1
102
RTVSPost2010Prop31
280
     0
102
RTVSPost2010PropOp31
 70
     1
102
RTVSPost2010Prop32
280
     0
102
RTVSPost2010PropOp32
 70
     1
102
RTVSPost2010Prop33
280
     0
102
RTVSPost2010PropOp33
 70
     1
102
RTVSPost2010Prop34
280
     0
102
RTVSPost2010PropOp34
 70
     1
102
RTVSPost2010Prop35
280
     0
102
RTVSPost2010PropOp35
 70
     1
102
RTVSPost2010Prop36
280
     0
102
RTVSPost2010PropOp36
 70
     1
102
RTVSPost2010Prop37
 90
       50
102
RTVSPost2010PropOp37
 70
     1
102
RTVSPost2010Prop38
140
0.0
102
RTVSPost2010PropOp38
 70
     1
102
RTVSPost2010Prop39
140
1.0
102
RTVSPost2010PropOp39
 70
     1
102
RTVSPost2010Prop40
 90
        0
102
RTVSPost2010PropOp40
 70
     1
102
RTVSPost2010Prop41ColorIndex
 90
       18
102
RTVSPost2010Prop41ColorRGB
 90
        0
102
RTVSPost2010PropOp41
 70
     1
102
RTVSPost2010Prop42
 90
       50
102
RTVSPost2010PropOp42
 70
     1
102
RTVSPost2010Prop43
 90
        3
102
RTVSPost2010PropOp43
 70
     1
102
RTVSPost2010Prop44ColorIndex
 90
        5
102
RTVSPost2010Prop44ColorRGB
 90
      255
102
RTVSPost2010PropOp44
 70
     1
102
RTVSPost2010Prop45
280
     0
102
RTVSPost2010PropOp45
 70
     1
102
RTVSPost2010Prop46
 90
       50
102
RTVSPost2010PropOp46
 70
     1
102
RTVSPost2010Prop47
 90
       50
102
RTVSPost2010PropOp47
 70
     1
102
RTVSPost2010Prop48
 90
       50
102
RTVSPost2010PropOp48
 70
     1
102
RTVSPost2010Prop49
280
     0
102
RTVSPost2010PropOp49
 70
     1
102
RTVSPost2010Prop50
 90
       50
102
RTVSPost2010PropOp50
 70
     1
102
RTVSPost2010Prop51ColorIndex
 90
      256
102
RTVSPost2010Prop51ColorRGB
 90
-16777216
102
RTVSPost2010PropOp51
 70
     0
102
RTVSPost2010Prop52
140
1.0
102
RTVSPost2010PropOp52
 70
     0
102
RTVSPost2010Prop53
 90
        2
102
RTVSPost2010PropOp53
 70
     1
102
RTVSPost2010Prop54
  1
strokes_ogs.tif
102
RTVSPost2010PropOp54
 70
     1
102
RTVSPost2010Prop55
280
     0
102
RTVSPost2010PropOp55
 70
     1
102
RTVSPost2010Prop56
140
1.0
102
RTVSPost2010PropOp56
 70
     1
102
RTVSPost2010Prop57
140
1.0
102
RTVSPost2010PropOp57
 70
     1
  0
XRECORD
  5
12E
102
{ACAD_REACTORS
330
12D
102
}
330
12D
100
AcDbXrecord
280
     1
102
RTVSPost2010Prop28
280
     0
102
RTVSPost2010PropOp28
 70
     1
102
RTVSPost2010Prop29
280
     1
102
RTVSPost2010PropOp29
 70
     1
102
RTVSPost2010Prop30
280
     1
102
RTVSPost2010PropOp30
 70
     1
102
RTVSPost2010Prop31
280
     0
102
RTVSPost2010PropOp31
 70
     1
102
RTVSPost2010Prop32
280
     0
102
RTVSPost2010PropOp32
 70
     1
102
RTVSPost2010Prop33
280
     0
102
RTVSPost2010PropOp33
 70
     1
102
RTVSPost2010Prop34
280
     0
102
RTVSPost2010PropOp34
 70
     1
102
RTVSPost2010Prop35
280
     0
102
RTVSPost2010PropOp35
 70
     1
102
RTVSPost2010Prop36
280
     0
102
RTVSPost2010PropOp36
 70
     1
102
RTVSPost2010Prop37
 90
       50
102
RTVSPost2010PropOp37
 70
     1
102
RTVSPost2010Prop38
140
0.0
102
RTVSPost2010PropOp38
 70
     1
102
RTVSPost2010Prop39
140
1.0
102
RTVSPost2010PropOp39
 70
     1
102
RTVSPost2010Prop40
 90
        0
102
RTVSPost2010PropOp40
 70
     1
102
RTVSPost2010Prop41ColorIndex
 90
       18
102
RTVSPost2010Prop41ColorRGB
 90
        0
102
RTVSPost2010PropOp41
 70
     1
102
RTVSPost2010Prop42
 90
       50
102
RTVSPost2010PropOp42
 70
     1
102
RTVSPost2010Prop43
 90
        3
102
RTVSPost2010PropOp43
 70
     1
102
RTVSPost2010Prop44ColorIndex
 90
        5
102
RTVSPost2010Prop44ColorRGB
 90
      255
102
RTVSPost2010PropOp44
 70
     1
102
RTVSPost2010Prop45
280
     0
102
RTVSPost2010PropOp45
 70
     1
102
RTVSPost2010Prop46
 90
       50
102
RTVSPost2010PropOp46
 70
     1
102
RTVSPost2010Prop47
 90
       50
102
RTVSPost2010PropOp47
 70
     1
102
RTVSPost2010Prop48
 90
       50
102
RTVSPost2010PropOp48
 70
     1
102
RTVSPost2010Prop49
280
     0
102
RTVSPost2010PropOp49
 70
     1
102
RTVSPost2010Prop50
 90
       50
102
RTVSPost2010PropOp50
 70
     1
102
RTVSPost2010Prop51ColorIndex
 90
      256
102
RTVSPost2010Prop51ColorRGB
 90
-16777216
102
RTVSPost2010PropOp51
 70
     0
102
RTVSPost2010Prop52
140
1.0
102
RTVSPost2010PropOp52
 70
     0
102
RTVSPost2010Prop53
 90
        2
102
RTVSPost2010PropOp53
 70
     1
102
RTVSPost2010Prop54
  1
strokes_ogs.tif
102
RTVSPost2010PropOp54
 70
     1
102
RTVSPost2010Prop55
280
     0
102
RTVSPost2010PropOp55
 70
     1
102
RTVSPost2010Prop56
140
1.0
102
RTVSPost2010PropOp56
 70
     1
102
RTVSPost2010Prop57
140
1.0
102
RTVSPost2010PropOp57
 70
     1
  0
XRECORD
  5
130
102
{ACAD_REACTORS
330
12F
102
}
330
12F
100
AcDbXrecord
280
     1
102
RTVSPost2010Prop28
280
     0
102
RTVSPost2010PropOp28
 70
     1
102
RTVSPost2010Prop29
280
     1
102
RTVSPost2010PropOp29
 70
     1
102
RTVSPost2010Prop30
280
     1
102
RTVSPost2010PropOp30
 70
     1
102
RTVSPost2010Prop31
280
     0
102
RTVSPost2010PropOp31
 70
     1
102
RTVSPost2010Prop32
280
     0
102
RTVSPost2010PropOp32
 70
     1
102
RTVSPost2010Prop33
280
     0
102
RTVSPost2010PropOp33
 70
     1
102
RTVSPost2010Prop34
280
     0
102
RTVSPost2010PropOp34
 70
     1
102
RTVSPost2010Prop35
280
     0
102
RTVSPost2010PropOp35
 70
     1
102
RTVSPost2010Prop36
280
     0
102
RTVSPost2010PropOp36
 70
     1
102
RTVSPost2010Prop37
 90
       50
102
RTVSPost2010PropOp37
 70
     1
102
RTVSPost2010Prop38
140
0.0
102
RTVSPost2010PropOp38
 70
     1
102
RTVSPost2010Prop39
140
1.0
102
RTVSPost2010PropOp39
 70
     1
102
RTVSPost2010Prop40
 90
        0
102
RTVSPost2010PropOp40
 70
     1
102
RTVSPost2010Prop41ColorIndex
 90
       18
102
RTVSPost2010Prop41ColorRGB
 90
        0
102
RTVSPost2010PropOp41
 70
     1
102
RTVSPost2010Prop42
 90
       50
102
RTVSPost2010PropOp42
 70
     1
102
RTVSPost2010Prop43
 90
        3
102
RTVSPost2010PropOp43
 70
     1
102
RTVSPost2010Prop44ColorIndex
 90
        5
102
RTVSPost2010Prop44ColorRGB
 90
      255
102
RTVSPost2010PropOp44
 70
     1
102
RTVSPost2010Prop45
280
     0
102
RTVSPost2010PropOp45
 70
     1
102
RTVSPost2010Prop46
 90
       50
102
RTVSPost2010PropOp46
 70
     1
102
RTVSPost2010Prop47
 90
       50
102
RTVSPost2010PropOp47
 70
     1
102
RTVSPost2010Prop48
 90
       50
102
RTVSPost2010PropOp48
 70
     1
102
RTVSPost2010Prop49
280
     0
102
RTVSPost2010PropOp49
 70
     1
102
RTVSPost2010Prop50
 90
       50
102
RTVSPost2010PropOp50
 70
     1
102
RTVSPost2010Prop51ColorIndex
 90
      256
102
RTVSPost2010Prop51ColorRGB
 90
-16777216
102
RTVSPost2010PropOp51
 70
     0
102
RTVSPost2010Prop52
140
1.0
102
RTVSPost2010PropOp52
 70
     0
102
RTVSPost2010Prop53
 90
        2
102
RTVSPost2010PropOp53
 70
     1
102
RTVSPost2010Prop54
  1
strokes_ogs.tif
102
RTVSPost2010PropOp54
 70
     1
102
RTVSPost2010Prop55
280
     0
102
RTVSPost2010PropOp55
 70
     1
102
RTVSPost2010Prop56
140
1.0
102
RTVSPost2010PropOp56
 70
     1
102
RTVSPost2010Prop57
140
1.0
102
RTVSPost2010PropOp57
 70
     1
  0
XRECORD
  5
138
102
{ACAD_REACTORS
330
137
102
}
330
137
100
AcDbXrecord
280
     1
102
RTVSPost2010Prop28
280
     0
102
RTVSPost2010PropOp28
 70
     1
102
RTVSPost2010Prop29
280
     1
102
RTVSPost2010PropOp29
 70
     1
102
RTVSPost2010Prop30
280
     1
102
RTVSPost2010PropOp30
 70
     1
102
RTVSPost2010Prop31
280
     0
102
RTVSPost2010PropOp31
 70
     1
102
RTVSPost2010Prop32
280
     0
102
RTVSPost2010PropOp32
 70
     1
102
RTVSPost2010Prop33
280
     0
102
RTVSPost2010PropOp33
 70
     1
102
RTVSPost2010Prop34
280
     0
102
RTVSPost2010PropOp34
 70
     1
102
RTVSPost2010Prop35
280
     0
102
RTVSPost2010PropOp35
 70
     1
102
RTVSPost2010Prop36
280
     0
102
RTVSPost2010PropOp36
 70
     1
102
RTVSPost2010Prop37
 90
       50
102
RTVSPost2010PropOp37
 70
     1
102
RTVSPost2010Prop38
140
0.0
102
RTVSPost2010PropOp38
 70
     1
102
RTVSPost2010Prop39
140
1.0
102
RTVSPost2010PropOp39
 70
     1
102
RTVSPost2010Prop40
 90
        0
102
RTVSPost2010PropOp40
 70
     1
102
RTVSPost2010Prop41ColorIndex
 90
       18
102
RTVSPost2010Prop41ColorRGB
 90
        0
102
RTVSPost2010PropOp41
 70
     1
102
RTVSPost2010Prop42
 90
       50
102
RTVSPost2010PropOp42
 70
     1
102
RTVSPost2010Prop43
 90
        3
102
RTVSPost2010PropOp43
 70
     1
102
RTVSPost2010Prop44ColorIndex
 90
        5
102
RTVSPost2010Prop44ColorRGB
 90
      255
102
RTVSPost2010PropOp44
 70
     1
102
RTVSPost2010Prop45
280
     0
102
RTVSPost2010PropOp45
 70
     1
102
RTVSPost2010Prop46
 90
       50
102
RTVSPost2010PropOp46
 70
     1
102
RTVSPost2010Prop47
 90
       50
102
RTVSPost2010PropOp47
 70
     1
102
RTVSPost2010Prop48
 90
       50
102
RTVSPost2010PropOp48
 70
     1
102
RTVSPost2010Prop49
280
     0
102
RTVSPost2010PropOp49
 70
     1
102
RTVSPost2010Prop50
 90
       50
102
RTVSPost2010PropOp50
 70
     1
102
RTVSPost2010Prop51ColorIndex
 90
      256
102
RTVSPost2010Prop51ColorRGB
 90
-16777216
102
RTVSPost2010PropOp51
 70
     0
102
RTVSPost2010Prop52
140
1.0
102
RTVSPost2010PropOp52
 70
     0
102
RTVSPost2010Prop53
 90
        2
102
RTVSPost2010PropOp53
 70
     1
102
RTVSPost2010Prop54
  1
strokes_ogs.tif
102
RTVSPost2010PropOp54
 70
     1
102
RTVSPost2010Prop55
280
     0
102
RTVSPost2010PropOp55
 70
     1
102
RTVSPost2010Prop56
140
1.0
102
RTVSPost2010PropOp56
 70
     1
102
RTVSPost2010Prop57
140
1.0
102
RTVSPost2010PropOp57
 70
     1
  0
XRECORD
  5
154
102
{ACAD_REACTORS
330
153
102
}
330
153
100
AcDbXrecord
280
     1
102
RTVSPost2010Prop28
280
     0
102
RTVSPost2010PropOp28
 70
     0
102
RTVSPost2010Prop29
280
     1
102
RTVSPost2010PropOp29
 70
     0
102
RTVSPost2010Prop30
280
     1
102
RTVSPost2010PropOp30
 70
     0
102
RTVSPost2010Prop31
280
     0
102
RTVSPost2010PropOp31
 70
     0
102
RTVSPost2010Prop32
280
     0
102
RTVSPost2010PropOp32
 70
     0
102
RTVSPost2010Prop33
280
     0
102
RTVSPost2010PropOp33
 70
     0
102
RTVSPost2010Prop34
280
     0
102
RTVSPost2010PropOp34
 70
     0
102
RTVSPost2010Prop35
280
     0
102
RTVSPost2010PropOp35
 70
     0
102
RTVSPost2010Prop36
280
     0
102
RTVSPost2010PropOp36
 70
     0
102
RTVSPost2010Prop37
 90
       50
102
RTVSPost2010PropOp37
 70
     0
102
RTVSPost2010Prop38
140
0.0
102
RTVSPost2010PropOp38
 70
     0
102
RTVSPost2010Prop39
140
1.0
102
RTVSPost2010PropOp39
 70
     0
102
RTVSPost2010Prop40
 90
        0
102
RTVSPost2010PropOp40
 70
     0
102
RTVSPost2010Prop41ColorIndex
 90
       18
102
RTVSPost2010Prop41ColorRGB
 90
        0
102
RTVSPost2010PropOp41
 70
     0
102
RTVSPost2010Prop42
 90
       50
102
RTVSPost2010PropOp42
 70
     0
102
RTVSPost2010Prop43
 90
        3
102
RTVSPost2010PropOp43
 70
     0
102
RTVSPost2010Prop44ColorIndex
 90
        5
102
RTVSPost2010Prop44ColorRGB
 90
      255
102
RTVSPost2010PropOp44
 70
     0
102
RTVSPost2010Prop45
280
     0
102
RTVSPost2010PropOp45
 70
     0
102
RTVSPost2010Prop46
 90
       50
102
RTVSPost2010PropOp46
 70
     0
102
RTVSPost2010Prop47
 90
       50
102
RTVSPost2010PropOp47
 70
     0
102
RTVSPost2010Prop48
 90
       50
102
RTVSPost2010PropOp48
 70
     0
102
RTVSPost2010Prop49
280
     0
102
RTVSPost2010PropOp49
 70
     0
102
RTVSPost2010Prop50
 90
       50
102
RTVSPost2010PropOp50
 70
     0
102
RTVSPost2010Prop51ColorIndex
 90
      256
102
RTVSPost2010Prop51ColorRGB
 90
-16777216
102
RTVSPost2010PropOp51
 70
     0
102
RTVSPost2010Prop52
140
1.0
102
RTVSPost2010PropOp52
 70
     0
102
RTVSPost2010Prop53
 90
        2
102
RTVSPost2010PropOp53
 70
     0
102
RTVSPost2010Prop54
  1
strokes_ogs.tif
102
RTVSPost2010PropOp54
 70
     0
102
RTVSPost2010Prop55
280
     0
102
RTVSPost2010PropOp55
 70
     0
102
RTVSPost2010Prop56
140
1.0
102
RTVSPost2010PropOp56
 70
     0
102
RTVSPost2010Prop57
140
1.0
102
RTVSPost2010PropOp57
 70
     0
  0
XRECORD
  5
144
102
{ACAD_REACTORS
330
143
102
}
330
143
100
AcDbXrecord
280
     1
102
RTVSPost2010Prop28
280
     0
102
RTVSPost2010PropOp28
 70
     1
102
RTVSPost2010Prop29
280
     1
102
RTVSPost2010PropOp29
 70
     1
102
RTVSPost2010Prop30
280
     1
102
RTVSPost2010PropOp30
 70
     1
102
RTVSPost2010Prop31
280
     0
102
RTVSPost2010PropOp31
 70
     1
102
RTVSPost2010Prop32
280
     0
102
RTVSPost2010PropOp32
 70
     1
102
RTVSPost2010Prop33
280
     0
102
RTVSPost2010PropOp33
 70
     1
102
RTVSPost2010Prop34
280
     0
102
RTVSPost2010PropOp34
 70
     1
102
RTVSPost2010Prop35
280
     0
102
RTVSPost2010PropOp35
 70
     1
102
RTVSPost2010Prop36
280
     0
102
RTVSPost2010PropOp36
 70
     1
102
RTVSPost2010Prop37
 90
       50
102
RTVSPost2010PropOp37
 70
     1
102
RTVSPost2010Prop38
140
0.0
102
RTVSPost2010PropOp38
 70
     1
102
RTVSPost2010Prop39
140
1.0
102
RTVSPost2010PropOp39
 70
     1
102
RTVSPost2010Prop40
 90
        0
102
RTVSPost2010PropOp40
 70
     1
102
RTVSPost2010Prop41ColorIndex
 90
       18
102
RTVSPost2010Prop41ColorRGB
 90
        0
102
RTVSPost2010PropOp41
 70
     1
102
RTVSPost2010Prop42
 90
       50
102
RTVSPost2010PropOp42
 70
     1
102
RTVSPost2010Prop43
 90
        3
102
RTVSPost2010PropOp43
 70
     1
102
RTVSPost2010Prop44ColorIndex
 90
        5
102
RTVSPost2010Prop44ColorRGB
 90
      255
102
RTVSPost2010PropOp44
 70
     1
102
RTVSPost2010Prop45
280
     0
102
RTVSPost2010PropOp45
 70
     1
102
RTVSPost2010Prop46
 90
       50
102
RTVSPost2010PropOp46
 70
     1
102
RTVSPost2010Prop47
 90
       50
102
RTVSPost2010PropOp47
 70
     1
102
RTVSPost2010Prop48
 90
       50
102
RTVSPost2010PropOp48
 70
     1
102
RTVSPost2010Prop49
280
     0
102
RTVSPost2010PropOp49
 70
     1
102
RTVSPost2010Prop50
 90
       50
102
RTVSPost2010PropOp50
 70
     1
102
RTVSPost2010Prop51ColorIndex
 90
      256
102
RTVSPost2010Prop51ColorRGB
 90
-16777216
102
RTVSPost2010PropOp51
 70
     0
102
RTVSPost2010Prop52
140
1.0
102
RTVSPost2010PropOp52
 70
     0
102
RTVSPost2010Prop53
 90
        2
102
RTVSPost2010PropOp53
 70
     1
102
RTVSPost2010Prop54
  1
strokes_ogs.tif
102
RTVSPost2010PropOp54
 70
     1
102
RTVSPost2010Prop55
280
     0
102
RTVSPost2010PropOp55
 70
     1
102
RTVSPost2010Prop56
140
1.0
102
RTVSPost2010PropOp56
 70
     1
102
RTVSPost2010Prop57
140
1.0
102
RTVSPost2010PropOp57
 70
     1
  0
XRECORD
  5
156
102
{ACAD_REACTORS
330
155
102
}
330
155
100
AcDbXrecord
280
     1
102
RTVSPost2010Prop28
280
     0
102
RTVSPost2010PropOp28
 70
     0
102
RTVSPost2010Prop29
280
     1
102
RTVSPost2010PropOp29
 70
     0
102
RTVSPost2010Prop30
280
     1
102
RTVSPost2010PropOp30
 70
     0
102
RTVSPost2010Prop31
280
     0
102
RTVSPost2010PropOp31
 70
     0
102
RTVSPost2010Prop32
280
     0
102
RTVSPost2010PropOp32
 70
     0
102
RTVSPost2010Prop33
280
     0
102
RTVSPost2010PropOp33
 70
     0
102
RTVSPost2010Prop34
280
     0
102
RTVSPost2010PropOp34
 70
     0
102
RTVSPost2010Prop35
280
     0
102
RTVSPost2010PropOp35
 70
     0
102
RTVSPost2010Prop36
280
     0
102
RTVSPost2010PropOp36
 70
     0
102
RTVSPost2010Prop37
 90
       50
102
RTVSPost2010PropOp37
 70
     0
102
RTVSPost2010Prop38
140
0.0
102
RTVSPost2010PropOp38
 70
     0
102
RTVSPost2010Prop39
140
1.0
102
RTVSPost2010PropOp39
 70
     0
102
RTVSPost2010Prop40
 90
        0
102
RTVSPost2010PropOp40
 70
     0
102
RTVSPost2010Prop41ColorIndex
 90
       18
102
RTVSPost2010Prop41ColorRGB
 90
        0
102
RTVSPost2010PropOp41
 70
     0
102
RTVSPost2010Prop42
 90
       50
102
RTVSPost2010PropOp42
 70
     0
102
RTVSPost2010Prop43
 90
        3
102
RTVSPost2010PropOp43
 70
     0
102
RTVSPost2010Prop44ColorIndex
 90
        5
102
RTVSPost2010Prop44ColorRGB
 90
      255
102
RTVSPost2010PropOp44
 70
     0
102
RTVSPost2010Prop45
280
     0
102
RTVSPost2010PropOp45
 70
     0
102
RTVSPost2010Prop46
 90
       50
102
RTVSPost2010PropOp46
 70
     0
102
RTVSPost2010Prop47
 90
       50
102
RTVSPost2010PropOp47
 70
     0
102
RTVSPost2010Prop48
 90
       50
102
RTVSPost2010PropOp48
 70
     0
102
RTVSPost2010Prop49
280
     0
102
RTVSPost2010PropOp49
 70
     0
102
RTVSPost2010Prop50
 90
       50
102
RTVSPost2010PropOp50
 70
     0
102
RTVSPost2010Prop51ColorIndex
 90
      256
102
RTVSPost2010Prop51ColorRGB
 90
-16777216
102
RTVSPost2010PropOp51
 70
     0
102
RTVSPost2010Prop52
140
1.0
102
RTVSPost2010PropOp52
 70
     0
102
RTVSPost2010Prop53
 90
        2
102
RTVSPost2010PropOp53
 70
     0
102
RTVSPost2010Prop54
  1
strokes_ogs.tif
102
RTVSPost2010PropOp54
 70
     0
102
RTVSPost2010Prop55
280
     0
102
RTVSPost2010PropOp55
 70
     0
102
RTVSPost2010Prop56
140
1.0
102
RTVSPost2010PropOp56
 70
     0
102
RTVSPost2010Prop57
140
1.0
102
RTVSPost2010PropOp57
 70
     0
  0
XRECORD
  5
13C
102
{ACAD_REACTORS
330
13B
102
}
330
13B
100
AcDbXrecord
280
     1
102
RTVSPost2010Prop28
280
     0
102
RTVSPost2010PropOp28
 70
     1
102
RTVSPost2010Prop29
280
     1
102
RTVSPost2010PropOp29
 70
     1
102
RTVSPost2010Prop30
280
     1
102
RTVSPost2010PropOp30
 70
     1
102
RTVSPost2010Prop31
280
     0
102
RTVSPost2010PropOp31
 70
     1
102
RTVSPost2010Prop32
280
     0
102
RTVSPost2010PropOp32
 70
     1
102
RTVSPost2010Prop33
280
     0
102
RTVSPost2010PropOp33
 70
     1
102
RTVSPost2010Prop34
280
     0
102
RTVSPost2010PropOp34
 70
     1
102
RTVSPost2010Prop35
280
     0
102
RTVSPost2010PropOp35
 70
     1
102
RTVSPost2010Prop36
280
     0
102
RTVSPost2010PropOp36
 70
     1
102
RTVSPost2010Prop37
 90
       50
102
RTVSPost2010PropOp37
 70
     1
102
RTVSPost2010Prop38
140
0.0
102
RTVSPost2010PropOp38
 70
     1
102
RTVSPost2010Prop39
140
1.0
102
RTVSPost2010PropOp39
 70
     1
102
RTVSPost2010Prop40
 90
        0
102
RTVSPost2010PropOp40
 70
     1
102
RTVSPost2010Prop41ColorIndex
 90
       18
102
RTVSPost2010Prop41ColorRGB
 90
        0
102
RTVSPost2010PropOp41
 70
     1
102
RTVSPost2010Prop42
 90
       50
102
RTVSPost2010PropOp42
 70
     1
102
RTVSPost2010Prop43
 90
        3
102
RTVSPost2010PropOp43
 70
     1
102
RTVSPost2010Prop44ColorIndex
 90
        5
102
RTVSPost2010Prop44ColorRGB
 90
      255
102
RTVSPost2010PropOp44
 70
     1
102
RTVSPost2010Prop45
280
     0
102
RTVSPost2010PropOp45
 70
     1
102
RTVSPost2010Prop46
 90
       50
102
RTVSPost2010PropOp46
 70
     1
102
RTVSPost2010Prop47
 90
       50
102
RTVSPost2010PropOp47
 70
     1
102
RTVSPost2010Prop48
 90
       50
102
RTVSPost2010PropOp48
 70
     1
102
RTVSPost2010Prop49
280
     0
102
RTVSPost2010PropOp49
 70
     1
102
RTVSPost2010Prop50
 90
       50
102
RTVSPost2010PropOp50
 70
     1
102
RTVSPost2010Prop51ColorIndex
 90
      256
102
RTVSPost2010Prop51ColorRGB
 90
-16777216
102
RTVSPost2010PropOp51
 70
     0
102
RTVSPost2010Prop52
140
1.0
102
RTVSPost2010PropOp52
 70
     0
102
RTVSPost2010Prop53
 90
        2
102
RTVSPost2010PropOp53
 70
     1
102
RTVSPost2010Prop54
  1
strokes_ogs.tif
102
RTVSPost2010PropOp54
 70
     1
102
RTVSPost2010Prop55
280
     0
102
RTVSPost2010PropOp55
 70
     1
102
RTVSPost2010Prop56
140
1.0
102
RTVSPost2010PropOp56
 70
     1
102
RTVSPost2010Prop57
140
1.0
102
RTVSPost2010PropOp57
 70
     1
  0
XRECORD
  5
152
102
{ACAD_REACTORS
330
151
102
}
330
151
100
AcDbXrecord
280
     1
102
RTVSPost2010Prop28
280
     0
102
RTVSPost2010PropOp28
 70
     1
102
RTVSPost2010Prop29
280
     1
102
RTVSPost2010PropOp29
 70
     1
102
RTVSPost2010Prop30
280
     1
102
RTVSPost2010PropOp30
 70
     1
102
RTVSPost2010Prop31
280
     0
102
RTVSPost2010PropOp31
 70
     1
102
RTVSPost2010Prop32
280
     0
102
RTVSPost2010PropOp32
 70
     1
102
RTVSPost2010Prop33
280
     0
102
RTVSPost2010PropOp33
 70
     1
102
RTVSPost2010Prop34
280
     0
102
RTVSPost2010PropOp34
 70
     1
102
RTVSPost2010Prop35
280
     0
102
RTVSPost2010PropOp35
 70
     1
102
RTVSPost2010Prop36
280
     0
102
RTVSPost2010PropOp36
 70
     1
102
RTVSPost2010Prop37
 90
       50
102
RTVSPost2010PropOp37
 70
     1
102
RTVSPost2010Prop38
140
0.0
102
RTVSPost2010PropOp38
 70
     1
102
RTVSPost2010Prop39
140
1.0
102
RTVSPost2010PropOp39
 70
     1
102
RTVSPost2010Prop40
 90
        0
102
RTVSPost2010PropOp40
 70
     1
102
RTVSPost2010Prop41ColorIndex
 90
       18
102
RTVSPost2010Prop41ColorRGB
 90
        0
102
RTVSPost2010PropOp41
 70
     1
102
RTVSPost2010Prop42
 90
       50
102
RTVSPost2010PropOp42
 70
     1
102
RTVSPost2010Prop43
 90
        3
102
RTVSPost2010PropOp43
 70
     1
102
RTVSPost2010Prop44ColorIndex
 90
        5
102
RTVSPost2010Prop44ColorRGB
 90
      255
102
RTVSPost2010PropOp44
 70
     1
102
RTVSPost2010Prop45
280
     0
102
RTVSPost2010PropOp45
 70
     1
102
RTVSPost2010Prop46
 90
       50
102
RTVSPost2010PropOp46
 70
     1
102
RTVSPost2010Prop47
 90
       50
102
RTVSPost2010PropOp47
 70
     1
102
RTVSPost2010Prop48
 90
       50
102
RTVSPost2010PropOp48
 70
     1
102
RTVSPost2010Prop49
280
     0
102
RTVSPost2010PropOp49
 70
     1
102
RTVSPost2010Prop50
 90
       50
102
RTVSPost2010PropOp50
 70
     1
102
RTVSPost2010Prop51ColorIndex
 90
      256
102
RTVSPost2010Prop51ColorRGB
 90
-16777216
102
RTVSPost2010PropOp51
 70
     0
102
RTVSPost2010Prop52
140
1.0
102
RTVSPost2010PropOp52
 70
     0
102
RTVSPost2010Prop53
 90
        2
102
RTVSPost2010PropOp53
 70
     1
102
RTVSPost2010Prop54
  1
strokes_ogs.tif
102
RTVSPost2010PropOp54
 70
     1
102
RTVSPost2010Prop55
280
     0
102
RTVSPost2010PropOp55
 70
     1
102
RTVSPost2010Prop56
140
1.0
102
RTVSPost2010PropOp56
 70
     1
102
RTVSPost2010Prop57
140
1.0
102
RTVSPost2010PropOp57
 70
     1
  0
XRECORD
  5
150
102
{ACAD_REACTORS
330
14F
102
}
330
14F
100
AcDbXrecord
280
     1
102
RTVSPost2010Prop28
280
     0
102
RTVSPost2010PropOp28
 70
     1
102
RTVSPost2010Prop29
280
     1
102
RTVSPost2010PropOp29
 70
     1
102
RTVSPost2010Prop30
280
     1
102
RTVSPost2010PropOp30
 70
     1
102
RTVSPost2010Prop31
280
     0
102
RTVSPost2010PropOp31
 70
     1
102
RTVSPost2010Prop32
280
     0
102
RTVSPost2010PropOp32
 70
     1
102
RTVSPost2010Prop33
280
     0
102
RTVSPost2010PropOp33
 70
     1
102
RTVSPost2010Prop34
280
     0
102
RTVSPost2010PropOp34
 70
     1
102
RTVSPost2010Prop35
280
     0
102
RTVSPost2010PropOp35
 70
     1
102
RTVSPost2010Prop36
280
     0
102
RTVSPost2010PropOp36
 70
     1
102
RTVSPost2010Prop37
 90
       50
102
RTVSPost2010PropOp37
 70
     1
102
RTVSPost2010Prop38
140
0.0
102
RTVSPost2010PropOp38
 70
     1
102
RTVSPost2010Prop39
140
1.0
102
RTVSPost2010PropOp39
 70
     1
102
RTVSPost2010Prop40
 90
        0
102
RTVSPost2010PropOp40
 70
     1
102
RTVSPost2010Prop41ColorIndex
 90
       18
102
RTVSPost2010Prop41ColorRGB
 90
        0
102
RTVSPost2010PropOp41
 70
     1
102
RTVSPost2010Prop42
 90
       50
102
RTVSPost2010PropOp42
 70
     1
102
RTVSPost2010Prop43
 90
        3
102
RTVSPost2010PropOp43
 70
     1
102
RTVSPost2010Prop44ColorIndex
 90
        5
102
RTVSPost2010Prop44ColorRGB
 90
      255
102
RTVSPost2010PropOp44
 70
     1
102
RTVSPost2010Prop45
280
     0
102
RTVSPost2010PropOp45
 70
     1
102
RTVSPost2010Prop46
 90
       50
102
RTVSPost2010PropOp46
 70
     1
102
RTVSPost2010Prop47
 90
       50
102
RTVSPost2010PropOp47
 70
     1
102
RTVSPost2010Prop48
 90
       50
102
RTVSPost2010PropOp48
 70
     1
102
RTVSPost2010Prop49
280
     0
102
RTVSPost2010PropOp49
 70
     1
102
RTVSPost2010Prop50
 90
       50
102
RTVSPost2010PropOp50
 70
     1
102
RTVSPost2010Prop51ColorIndex
 90
      256
102
RTVSPost2010Prop51ColorRGB
 90
-16777216
102
RTVSPost2010PropOp51
 70
     0
102
RTVSPost2010Prop52
140
1.0
102
RTVSPost2010PropOp52
 70
     0
102
RTVSPost2010Prop53
 90
        2
102
RTVSPost2010PropOp53
 70
     1
102
RTVSPost2010Prop54
  1
strokes_ogs.tif
102
RTVSPost2010PropOp54
 70
     1
102
RTVSPost2010Prop55
280
     0
102
RTVSPost2010PropOp55
 70
     1
102
RTVSPost2010Prop56
140
1.0
102
RTVSPost2010PropOp56
 70
     1
102
RTVSPost2010Prop57
140
1.0
102
RTVSPost2010PropOp57
 70
     1
  0
XRECORD
  5
14A
102
{ACAD_REACTORS
330
149
102
}
330
149
100
AcDbXrecord
280
     1
102
RTVSPost2010Prop28
280
     0
102
RTVSPost2010PropOp28
 70
     1
102
RTVSPost2010Prop29
280
     1
102
RTVSPost2010PropOp29
 70
     1
102
RTVSPost2010Prop30
280
     1
102
RTVSPost2010PropOp30
 70
     1
102
RTVSPost2010Prop31
280
     0
102
RTVSPost2010PropOp31
 70
     1
102
RTVSPost2010Prop32
280
     0
102
RTVSPost2010PropOp32
 70
     1
102
RTVSPost2010Prop33
280
     0
102
RTVSPost2010PropOp33
 70
     1
102
RTVSPost2010Prop34
280
     0
102
RTVSPost2010PropOp34
 70
     1
102
RTVSPost2010Prop35
280
     0
102
RTVSPost2010PropOp35
 70
     1
102
RTVSPost2010Prop36
280
     0
102
RTVSPost2010PropOp36
 70
     1
102
RTVSPost2010Prop37
 90
       50
102
RTVSPost2010PropOp37
 70
     1
102
RTVSPost2010Prop38
140
0.0
102
RTVSPost2010PropOp38
 70
     1
102
RTVSPost2010Prop39
140
1.0
102
RTVSPost2010PropOp39
 70
     1
102
RTVSPost2010Prop40
 90
        0
102
RTVSPost2010PropOp40
 70
     1
102
RTVSPost2010Prop41ColorIndex
 90
       18
102
RTVSPost2010Prop41ColorRGB
 90
        0
102
RTVSPost2010PropOp41
 70
     1
102
RTVSPost2010Prop42
 90
       50
102
RTVSPost2010PropOp42
 70
     1
102
RTVSPost2010Prop43
 90
        3
102
RTVSPost2010PropOp43
 70
     1
102
RTVSPost2010Prop44ColorIndex
 90
        5
102
RTVSPost2010Prop44ColorRGB
 90
      255
102
RTVSPost2010PropOp44
 70
     1
102
RTVSPost2010Prop45
280
     0
102
RTVSPost2010PropOp45
 70
     1
102
RTVSPost2010Prop46
 90
       50
102
RTVSPost2010PropOp46
 70
     1
102
RTVSPost2010Prop47
 90
       50
102
RTVSPost2010PropOp47
 70
     1
102
RTVSPost2010Prop48
 90
       50
102
RTVSPost2010PropOp48
 70
     1
102
RTVSPost2010Prop49
280
     0
102
RTVSPost2010PropOp49
 70
     1
102
RTVSPost2010Prop50
 90
       50
102
RTVSPost2010PropOp50
 70
     1
102
RTVSPost2010Prop51ColorIndex
 90
      256
102
RTVSPost2010Prop51ColorRGB
 90
-16777216
102
RTVSPost2010PropOp51
 70
     0
102
RTVSPost2010Prop52
140
1.0
102
RTVSPost2010PropOp52
 70
     0
102
RTVSPost2010Prop53
 90
        2
102
RTVSPost2010PropOp53
 70
     1
102
RTVSPost2010Prop54
  1
strokes_ogs.tif
102
RTVSPost2010PropOp54
 70
     1
102
RTVSPost2010Prop55
280
     0
102
RTVSPost2010PropOp55
 70
     1
102
RTVSPost2010Prop56
140
1.0
102
RTVSPost2010PropOp56
 70
     1
102
RTVSPost2010Prop57
140
1.0
102
RTVSPost2010PropOp57
 70
     1
  0
XRECORD
  5
14C
102
{ACAD_REACTORS
330
14B
102
}
330
14B
100
AcDbXrecord
280
     1
102
RTVSPost2010Prop28
280
     0
102
RTVSPost2010PropOp28
 70
     1
102
RTVSPost2010Prop29
280
     1
102
RTVSPost2010PropOp29
 70
     1
102
RTVSPost2010Prop30
280
     1
102
RTVSPost2010PropOp30
 70
     1
102
RTVSPost2010Prop31
280
     0
102
RTVSPost2010PropOp31
 70
     1
102
RTVSPost2010Prop32
280
     0
102
RTVSPost2010PropOp32
 70
     1
102
RTVSPost2010Prop33
280
     0
102
RTVSPost2010PropOp33
 70
     1
102
RTVSPost2010Prop34
280
     0
102
RTVSPost2010PropOp34
 70
     1
102
RTVSPost2010Prop35
280
     0
102
RTVSPost2010PropOp35
 70
     1
102
RTVSPost2010Prop36
280
     0
102
RTVSPost2010PropOp36
 70
     1
102
RTVSPost2010Prop37
 90
       50
102
RTVSPost2010PropOp37
 70
     1
102
RTVSPost2010Prop38
140
0.0
102
RTVSPost2010PropOp38
 70
     1
102
RTVSPost2010Prop39
140
1.0
102
RTVSPost2010PropOp39
 70
     1
102
RTVSPost2010Prop40
 90
        0
102
RTVSPost2010PropOp40
 70
     1
102
RTVSPost2010Prop41ColorIndex
 90
       18
102
RTVSPost2010Prop41ColorRGB
 90
        0
102
RTVSPost2010PropOp41
 70
     1
102
RTVSPost2010Prop42
 90
       50
102
RTVSPost2010PropOp42
 70
     1
102
RTVSPost2010Prop43
 90
        3
102
RTVSPost2010PropOp43
 70
     1
102
RTVSPost2010Prop44ColorIndex
 90
        5
102
RTVSPost2010Prop44ColorRGB
 90
      255
102
RTVSPost2010PropOp44
 70
     1
102
RTVSPost2010Prop45
280
     0
102
RTVSPost2010PropOp45
 70
     1
102
RTVSPost2010Prop46
 90
       50
102
RTVSPost2010PropOp46
 70
     1
102
RTVSPost2010Prop47
 90
       50
102
RTVSPost2010PropOp47
 70
     1
102
RTVSPost2010Prop48
 90
       50
102
RTVSPost2010PropOp48
 70
     1
102
RTVSPost2010Prop49
280
     0
102
RTVSPost2010PropOp49
 70
     1
102
RTVSPost2010Prop50
 90
       50
102
RTVSPost2010PropOp50
 70
     1
102
RTVSPost2010Prop51ColorIndex
 90
      256
102
RTVSPost2010Prop51ColorRGB
 90
-16777216
102
RTVSPost2010PropOp51
 70
     0
102
RTVSPost2010Prop52
140
1.0
102
RTVSPost2010PropOp52
 70
     0
102
RTVSPost2010Prop53
 90
        2
102
RTVSPost2010PropOp53
 70
     1
102
RTVSPost2010Prop54
  1
strokes_ogs.tif
102
RTVSPost2010PropOp54
 70
     1
102
RTVSPost2010Prop55
280
     0
102
RTVSPost2010PropOp55
 70
     1
102
RTVSPost2010Prop56
140
1.0
102
RTVSPost2010PropOp56
 70
     1
102
RTVSPost2010Prop57
140
1.0
102
RTVSPost2010PropOp57
 70
     1
  0
XRECORD
  5
142
102
{ACAD_REACTORS
330
141
102
}
330
141
100
AcDbXrecord
280
     1
102
RTVSPost2010Prop28
280
     0
102
RTVSPost2010PropOp28
 70
     1
102
RTVSPost2010Prop29
280
     1
102
RTVSPost2010PropOp29
 70
     1
102
RTVSPost2010Prop30
280
     1
102
RTVSPost2010PropOp30
 70
     1
102
RTVSPost2010Prop31
280
     0
102
RTVSPost2010PropOp31
 70
     1
102
RTVSPost2010Prop32
280
     0
102
RTVSPost2010PropOp32
 70
     1
102
RTVSPost2010Prop33
280
     0
102
RTVSPost2010PropOp33
 70
     1
102
RTVSPost2010Prop34
280
     0
102
RTVSPost2010PropOp34
 70
     1
102
RTVSPost2010Prop35
280
     0
102
RTVSPost2010PropOp35
 70
     1
102
RTVSPost2010Prop36
280
     0
102
RTVSPost2010PropOp36
 70
     1
102
RTVSPost2010Prop37
 90
       50
102
RTVSPost2010PropOp37
 70
     1
102
RTVSPost2010Prop38
140
0.0
102
RTVSPost2010PropOp38
 70
     1
102
RTVSPost2010Prop39
140
1.0
102
RTVSPost2010PropOp39
 70
     1
102
RTVSPost2010Prop40
 90
        0
102
RTVSPost2010PropOp40
 70
     1
102
RTVSPost2010Prop41ColorIndex
 90
       18
102
RTVSPost2010Prop41ColorRGB
 90
        0
102
RTVSPost2010PropOp41
 70
     1
102
RTVSPost2010Prop42
 90
       50
102
RTVSPost2010PropOp42
 70
     1
102
RTVSPost2010Prop43
 90
        3
102
RTVSPost2010PropOp43
 70
     1
102
RTVSPost2010Prop44ColorIndex
 90
        5
102
RTVSPost2010Prop44ColorRGB
 90
      255
102
RTVSPost2010PropOp44
 70
     1
102
RTVSPost2010Prop45
280
     0
102
RTVSPost2010PropOp45
 70
     1
102
RTVSPost2010Prop46
 90
       50
102
RTVSPost2010PropOp46
 70
     1
102
RTVSPost2010Prop47
 90
       50
102
RTVSPost2010PropOp47
 70
     1
102
RTVSPost2010Prop48
 90
       50
102
RTVSPost2010PropOp48
 70
     1
102
RTVSPost2010Prop49
280
     0
102
RTVSPost2010PropOp49
 70
     1
102
RTVSPost2010Prop50
 90
       50
102
RTVSPost2010PropOp50
 70
     1
102
RTVSPost2010Prop51ColorIndex
 90
      256
102
RTVSPost2010Prop51ColorRGB
 90
-16777216
102
RTVSPost2010PropOp51
 70
     0
102
RTVSPost2010Prop52
140
1.0
102
RTVSPost2010PropOp52
 70
     0
102
RTVSPost2010Prop53
 90
        2
102
RTVSPost2010PropOp53
 70
     1
102
RTVSPost2010Prop54
  1
strokes_ogs.tif
102
RTVSPost2010PropOp54
 70
     1
102
RTVSPost2010Prop55
280
     0
102
RTVSPost2010PropOp55
 70
     1
102
RTVSPost2010Prop56
140
1.0
102
RTVSPost2010PropOp56
 70
     1
102
RTVSPost2010Prop57
140
1.0
102
RTVSPost2010PropOp57
 70
     1
  0
XRECORD
  5
136
102
{ACAD_REACTORS
330
135
102
}
330
135
100
AcDbXrecord
280
     1
102
RTVSPost2010Prop28
280
     0
102
RTVSPost2010PropOp28
 70
     1
102
RTVSPost2010Prop29
280
     1
102
RTVSPost2010PropOp29
 70
     1
102
RTVSPost2010Prop30
280
     1
102
RTVSPost2010PropOp30
 70
     1
102
RTVSPost2010Prop31
280
     0
102
RTVSPost2010PropOp31
 70
     1
102
RTVSPost2010Prop32
280
     0
102
RTVSPost2010PropOp32
 70
     1
102
RTVSPost2010Prop33
280
     0
102
RTVSPost2010PropOp33
 70
     1
102
RTVSPost2010Prop34
280
     0
102
RTVSPost2010PropOp34
 70
     1
102
RTVSPost2010Prop35
280
     0
102
RTVSPost2010PropOp35
 70
     1
102
RTVSPost2010Prop36
280
     0
102
RTVSPost2010PropOp36
 70
     1
102
RTVSPost2010Prop37
 90
       50
102
RTVSPost2010PropOp37
 70
     1
102
RTVSPost2010Prop38
140
0.0
102
RTVSPost2010PropOp38
 70
     1
102
RTVSPost2010Prop39
140
1.0
102
RTVSPost2010PropOp39
 70
     1
102
RTVSPost2010Prop40
 90
        0
102
RTVSPost2010PropOp40
 70
     1
102
RTVSPost2010Prop41ColorIndex
 90
       18
102
RTVSPost2010Prop41ColorRGB
 90
        0
102
RTVSPost2010PropOp41
 70
     1
102
RTVSPost2010Prop42
 90
       50
102
RTVSPost2010PropOp42
 70
     1
102
RTVSPost2010Prop43
 90
        3
102
RTVSPost2010PropOp43
 70
     1
102
RTVSPost2010Prop44ColorIndex
 90
        5
102
RTVSPost2010Prop44ColorRGB
 90
      255
102
RTVSPost2010PropOp44
 70
     1
102
RTVSPost2010Prop45
280
     0
102
RTVSPost2010PropOp45
 70
     1
102
RTVSPost2010Prop46
 90
       50
102
RTVSPost2010PropOp46
 70
     1
102
RTVSPost2010Prop47
 90
       50
102
RTVSPost2010PropOp47
 70
     1
102
RTVSPost2010Prop48
 90
       50
102
RTVSPost2010PropOp48
 70
     1
102
RTVSPost2010Prop49
280
     0
102
RTVSPost2010PropOp49
 70
     1
102
RTVSPost2010Prop50
 90
       50
102
RTVSPost2010PropOp50
 70
     1
102
RTVSPost2010Prop51ColorIndex
 90
      256
102
RTVSPost2010Prop51ColorRGB
 90
-16777216
102
RTVSPost2010PropOp51
 70
     0
102
RTVSPost2010Prop52
140
1.0
102
RTVSPost2010PropOp52
 70
     0
102
RTVSPost2010Prop53
 90
        2
102
RTVSPost2010PropOp53
 70
     1
102
RTVSPost2010Prop54
  1
strokes_ogs.tif
102
RTVSPost2010PropOp54
 70
     1
102
RTVSPost2010Prop55
280
     0
102
RTVSPost2010PropOp55
 70
     1
102
RTVSPost2010Prop56
140
1.0
102
RTVSPost2010PropOp56
 70
     1
102
RTVSPost2010Prop57
140
1.0
102
RTVSPost2010PropOp57
 70
     1
  0
XRECORD
  5
14E
102
{ACAD_REACTORS
330
14D
102
}
330
14D
100
AcDbXrecord
280
     1
102
RTVSPost2010Prop28
280
     0
102
RTVSPost2010PropOp28
 70
     1
102
RTVSPost2010Prop29
280
     1
102
RTVSPost2010PropOp29
 70
     1
102
RTVSPost2010Prop30
280
     1
102
RTVSPost2010PropOp30
 70
     1
102
RTVSPost2010Prop31
280
     0
102
RTVSPost2010PropOp31
 70
     1
102
RTVSPost2010Prop32
280
     0
102
RTVSPost2010PropOp32
 70
     1
102
RTVSPost2010Prop33
280
     0
102
RTVSPost2010PropOp33
 70
     1
102
RTVSPost2010Prop34
280
     0
102
RTVSPost2010PropOp34
 70
     1
102
RTVSPost2010Prop35
280
     0
102
RTVSPost2010PropOp35
 70
     1
102
RTVSPost2010Prop36
280
     0
102
RTVSPost2010PropOp36
 70
     1
102
RTVSPost2010Prop37
 90
       50
102
RTVSPost2010PropOp37
 70
     1
102
RTVSPost2010Prop38
140
0.0
102
RTVSPost2010PropOp38
 70
     1
102
RTVSPost2010Prop39
140
1.0
102
RTVSPost2010PropOp39
 70
     1
102
RTVSPost2010Prop40
 90
        0
102
RTVSPost2010PropOp40
 70
     1
102
RTVSPost2010Prop41ColorIndex
 90
       18
102
RTVSPost2010Prop41ColorRGB
 90
        0
102
RTVSPost2010PropOp41
 70
     1
102
RTVSPost2010Prop42
 90
       50
102
RTVSPost2010PropOp42
 70
     1
102
RTVSPost2010Prop43
 90
        3
102
RTVSPost2010PropOp43
 70
     1
102
RTVSPost2010Prop44ColorIndex
 90
        5
102
RTVSPost2010Prop44ColorRGB
 90
      255
102
RTVSPost2010PropOp44
 70
     1
102
RTVSPost2010Prop45
280
     0
102
RTVSPost2010PropOp45
 70
     1
102
RTVSPost2010Prop46
 90
       50
102
RTVSPost2010PropOp46
 70
     1
102
RTVSPost2010Prop47
 90
       50
102
RTVSPost2010PropOp47
 70
     1
102
RTVSPost2010Prop48
 90
       50
102
RTVSPost2010PropOp48
 70
     1
102
RTVSPost2010Prop49
280
     0
102
RTVSPost2010PropOp49
 70
     1
102
RTVSPost2010Prop50
 90
       50
102
RTVSPost2010PropOp50
 70
     1
102
RTVSPost2010Prop51ColorIndex
 90
      256
102
RTVSPost2010Prop51ColorRGB
 90
-16777216
102
RTVSPost2010PropOp51
 70
     0
102
RTVSPost2010Prop52
140
1.0
102
RTVSPost2010PropOp52
 70
     0
102
RTVSPost2010Prop53
 90
        2
102
RTVSPost2010PropOp53
 70
     1
102
RTVSPost2010Prop54
  1
strokes_ogs.tif
102
RTVSPost2010PropOp54
 70
     1
102
RTVSPost2010Prop55
280
     0
102
RTVSPost2010PropOp55
 70
     1
102
RTVSPost2010Prop56
140
1.0
102
RTVSPost2010PropOp56
 70
     1
102
RTVSPost2010Prop57
140
1.0
102
RTVSPost2010PropOp57
 70
     1
  0
ENDSEC
  0
EOF
