  0
SECTION
  2
HEADER
  9
$ACADVER
  1
AC1024
  9
$ACADMAINTVER
 70
   226
  9
$DWGCODEPAGE
  3
ANSI_932
  9
$INSBASE
 10
0.0
 20
0.0
 30
0.0
  9
$EXTMIN
 10
1.000000000000000E+20
 20
1.000000000000000E+20
 30
1.000000000000000E+20
  9
$EXTMAX
 10
-1.000000000000000E+20
 20
-1.000000000000000E+20
 30
-1.000000000000000E+20
  9
$LIMMIN
 10
0.0
 20
0.0
  9
$LIMMAX
 10
12.0
 20
9.0
  9
$ORTHOMODE
 70
     0
  9
$REGENMODE
 70
     1
  9
$FILLMODE
 70
     1
  9
$QTEXTMODE
 70
     0
  9
$MIRRTEXT
 70
     0
  9
$LTSCALE
 40
1.0
  9
$ATTMODE
 70
     1
  9
$TEXTSIZE
 40
0.2
  9
$TRACEWID
 40
0.05
  9
$TEXTSTYLE
  7
Standard
  9
$CLAYER
  8
0
  9
$CELTYPE
  6
ByLayer
  9
$CECOLOR
 62
   256
  9
$CELTSCALE
 40
1.0
  9
$DISPSILH
 70
     0
  9
$DIMSCALE
 40
1.0
  9
$DIMASZ
 40
0.18
  9
$DIMEXO
 40
0.0625
  9
$DIMDLI
 40
0.38
  9
$DIMRND
 40
0.0
  9
$DIMDLE
 40
0.0
  9
$DIMEXE
 40
0.18
  9
$DIMTP
 40
0.0
  9
$DIMTM
 40
0.0
  9
$DIMTXT
 40
0.18
  9
$DIMCEN
 40
0.09
  9
$DIMTSZ
 40
0.0
  9
$DIMTOL
 70
     0
  9
$DIMLIM
 70
     0
  9
$DIMTIH
 70
     1
  9
$DIMTOH
 70
     1
  9
$DIMSE1
 70
     0
  9
$DIMSE2
 70
     0
  9
$DIMTAD
 70
     0
  9
$DIMZIN
 70
     0
  9
$DIMBLK
  1

  9
$DIMASO
 70
     1
  9
$DIMSHO
 70
     1
  9
$DIMPOST
  1

  9
$DIMAPOST
  1

  9
$DIMALT
 70
     0
  9
$DIMALTD
 70
     2
  9
$DIMALTF
 40
25.4
  9
$DIMLFAC
 40
1.0
  9
$DIMTOFL
 70
     0
  9
$DIMTVP
 40
0.0
  9
$DIMTIX
 70
     0
  9
$DIMSOXD
 70
     0
  9
$DIMSAH
 70
     0
  9
$DIMBLK1
  1

  9
$DIMBLK2
  1

  9
$DIMSTYLE
  2
Standard
  9
$DIMCLRD
 70
     0
  9
$DIMCLRE
 70
     0
  9
$DIMCLRT
 70
     0
  9
$DIMTFAC
 40
1.0
  9
$DIMGAP
 40
0.09
  9
$DIMJUST
 70
     0
  9
$DIMSD1
 70
     0
  9
$DIMSD2
 70
     0
  9
$DIMTOLJ
 70
     1
  9
$DIMTZIN
 70
     0
  9
$DIMALTZ
 70
     0
  9
$DIMALTTZ
 70
     0
  9
$DIMUPT
 70
     0
  9
$DIMDEC
 70
     4
  9
$DIMTDEC
 70
     4
  9
$DIMALTU
 70
     2
  9
$DIMALTTD
 70
     2
  9
$DIMTXSTY
  7
Standard
  9
$DIMAUNIT
 70
     0
  9
$DIMADEC
 70
     0
  9
$DIMALTRND
 40
0.0
  9
$DIMAZIN
 70
     0
  9
$DIMDSEP
 70
    46
  9
$DIMATFIT
 70
     3
  9
$DIMFRAC
 70
     0
  9
$DIMLDRBLK
  1

  9
$DIMLUNIT
 70
     2
  9
$DIMLWD
 70
    -2
  9
$DIMLWE
 70
    -2
  9
$DIMTMOVE
 70
     0
  9
$DIMFXL
 40
1.0
  9
$DIMFXLON
 70
     0
  9
$DIMJOGANG
 40
0.7853981633974483
  9
$DIMTFILL
 70
     0
  9
$DIMTFILLCLR
 70
     0
  9
$DIMARCSYM
 70
     0
  9
$DIMLTYPE
  6

  9
$DIMLTEX1
  6

  9
$DIMLTEX2
  6

  9
$DIMTXTDIRECTION
 70
     0
  9
$LUNITS
 70
     2
  9
$LUPREC
 70
     4
  9
$SKETCHINC
 40
0.1
  9
$FILLETRAD
 40
0.0
  9
$AUNITS
 70
     0
  9
$AUPREC
 70
     0
  9
$MENU
  1
.
  9
$ELEVATION
 40
0.0
  9
$PELEVATION
 40
0.0
  9
$THICKNESS
 40
0.0
  9
$LIMCHECK
 70
     0
  9
$CHAMFERA
 40
0.0
  9
$CHAMFERB
 40
0.0
  9
$CHAMFERC
 40
0.0
  9
$CHAMFERD
 40
0.0
  9
$SKPOLY
 70
     0
  9
$TDCREATE
 40
2459569.489351852
  9
$TDUCREATE
 40
2459569.114351852
  9
$TDUPDATE
 40
2459569.489351852
  9
$TDUUPDATE
 40
2459569.114351852
  9
$TDINDWG
 40
0.0000000000
  9
$TDUSRTIMER
 40
0.0000000000
  9
$USRTIMER
 70
     1
  9
$ANGBASE
 50
0.0
  9
$ANGDIR
 70
     0
  9
$PDMODE
 70
     0
  9
$PDSIZE
 40
0.0
  9
$PLINEWID
 40
0.0
  9
$SPLFRAME
 70
     0
  9
$SPLINETYPE
 70
     6
  9
$SPLINESEGS
 70
     8
  9
$HANDSEED
  5
148
  9
$SURFTAB1
 70
     6
  9
$SURFTAB2
 70
     6
  9
$SURFTYPE
 70
     6
  9
$SURFU
 70
     6
  9
$SURFV
 70
     6
  9
$UCSBASE
  2

  9
$UCSNAME
  2

  9
$UCSORG
 10
0.0
 20
0.0
 30
0.0
  9
$UCSXDIR
 10
1.0
 20
0.0
 30
0.0
  9
$UCSYDIR
 10
0.0
 20
1.0
 30
0.0
  9
$UCSORTHOREF
  2

  9
$UCSORTHOVIEW
 70
     0
  9
$UCSORGTOP
 10
0.0
 20
0.0
 30
0.0
  9
$UCSORGBOTTOM
 10
0.0
 20
0.0
 30
0.0
  9
$UCSORGLEFT
 10
0.0
 20
0.0
 30
0.0
  9
$UCSORGRIGHT
 10
0.0
 20
0.0
 30
0.0
  9
$UCSORGFRONT
 10
0.0
 20
0.0
 30
0.0
  9
$UCSORGBACK
 10
0.0
 20
0.0
 30
0.0
  9
$PUCSBASE
  2

  9
$PUCSNAME
  2

  9
$PUCSORG
 10
0.0
 20
0.0
 30
0.0
  9
$PUCSXDIR
 10
1.0
 20
0.0
 30
0.0
  9
$PUCSYDIR
 10
0.0
 20
1.0
 30
0.0
  9
$PUCSORTHOREF
  2

  9
$PUCSORTHOVIEW
 70
     0
  9
$PUCSORGTOP
 10
0.0
 20
0.0
 30
0.0
  9
$PUCSORGBOTTOM
 10
0.0
 20
0.0
 30
0.0
  9
$PUCSORGLEFT
 10
0.0
 20
0.0
 30
0.0
  9
$PUCSORGRIGHT
 10
0.0
 20
0.0
 30
0.0
  9
$PUCSORGFRONT
 10
0.0
 20
0.0
 30
0.0
  9
$PUCSORGBACK
 10
0.0
 20
0.0
 30
0.0
  9
$USERI1
 70
     0
  9
$USERI2
 70
     0
  9
$USERI3
 70
     0
  9
$USERI4
 70
     0
  9
$USERI5
 70
     0
  9
$USERR1
 40
0.0
  9
$USERR2
 40
0.0
  9
$USERR3
 40
0.0
  9
$USERR4
 40
0.0
  9
$USERR5
 40
0.0
  9
$WORLDVIEW
 70
     1
  9
$SHADEDGE
 70
     3
  9
$SHADEDIF
 70
    70
  9
$TILEMODE
 70
     1
  9
$MAXACTVP
 70
    64
  9
$PINSBASE
 10
0.0
 20
0.0
 30
0.0
  9
$PLIMCHECK
 70
     0
  9
$PEXTMIN
 10
1.000000000000000E+20
 20
1.000000000000000E+20
 30
1.000000000000000E+20
  9
$PEXTMAX
 10
-1.000000000000000E+20
 20
-1.000000000000000E+20
 30
-1.000000000000000E+20
  9
$PLIMMIN
 10
0.0
 20
0.0
  9
$PLIMMAX
 10
12.0
 20
9.0
  9
$UNITMODE
 70
     0
  9
$VISRETAIN
 70
     1
  9
$PLINEGEN
 70
     0
  9
$PSLTSCALE
 70
     1
  9
$TREEDEPTH
 70
  3020
  9
$CMLSTYLE
  2
Standard
  9
$CMLJUST
 70
     0
  9
$CMLSCALE
 40
1.0
  9
$PROXYGRAPHICS
 70
     1
  9
$MEASUREMENT
 70
     0
  9
$CELWEIGHT
370
    -1
  9
$ENDCAPS
280
     0
  9
$JOINSTYLE
280
     0
  9
$LWDISPLAY
290
     1
  9
$INSUNITS
 70
     4
  9
$HYPERLINKBASE
  1

  9
$STYLESHEET
  1

  9
$XEDIT
290
     1
  9
$CEPSNTYPE
380
     0
  9
$PSTYLEMODE
290
     1
  9
$FINGERPRINTGUID
  2
{AF49AC52-22F9-1F4C-ACC6-51EA962D4EC6}
  9
$VERSIONGUID
  2
{AAEC0F80-D178-C54E-B0D9-A30313BB8009}
  9
$EXTNAMES
290
     1
  9
$PSVPSCALE
 40
0.0
  9
$OLESTARTUP
290
     0
  9
$SORTENTS
280
   127
  9
$INDEXCTL
280
     0
  9
$HIDETEXT
280
     1
  9
$XCLIPFRAME
280
     2
  9
$HALOGAP
280
     0
  9
$OBSCOLOR
 70
   257
  9
$OBSLTYPE
280
     0
  9
$INTERSECTIONDISPLAY
280
     0
  9
$INTERSECTIONCOLOR
 70
   257
  9
$DIMASSOC
280
     2
  9
$PROJECTNAME
  1

  9
$CAMERADISPLAY
290
     0
  9
$LENSLENGTH
 40
50.0
  9
$CAMERAHEIGHT
 40
0.0
  9
$STEPSPERSEC
 40
2.0
  9
$STEPSIZE
 40
6.0
  9
$3DDWFPREC
 40
2.0
  9
$PSOLWIDTH
 40
0.25
  9
$PSOLHEIGHT
 40
4.0
  9
$LOFTANG1
 40
1.570796326794896
  9
$LOFTANG2
 40
1.570796326794896
  9
$LOFTMAG1
 40
0.0
  9
$LOFTMAG2
 40
0.0
  9
$LOFTPARAM
 70
     7
  9
$LOFTNORMALS
280
     1
  9
$LATITUDE
 40
37.795
  9
$LONGITUDE
 40
-122.394
  9
$NORTHDIRECTION
 40
0.0
  9
$TIMEZONE
 70
 -8000
  9
$LIGHTGLYPHDISPLAY
280
     1
  9
$TILEMODELIGHTSYNCH
280
     1
  9
$CMATERIAL
347
11
  9
$SOLIDHIST
280
     0
  9
$SHOWHIST
280
     1
  9
$DWFFRAME
280
     2
  9
$DGNFRAME
280
     0
  9
$REALWORLDSCALE
290
     1
  9
$INTERFERECOLOR
 62
     1
  9
$INTERFEREOBJVS
345
33
  9
$INTERFEREVPVS
346
30
  9
$CSHADOW
280
     0
  9
$SHADOWPLANELOCATION
 40
0.0
  0
ENDSEC
  0
SECTION
  2
CLASSES
  0
CLASS
  1
ACDBDICTIONARYWDFLT
  2
AcDbDictionaryWithDefault
  3
ObjectDBX Classes
 90
        0
 91
        1
280
     0
281
     0
  0
CLASS
  1
MATERIAL
  2
AcDbMaterial
  3
ObjectDBX Classes
 90
     1153
 91
        3
280
     0
281
     0
  0
CLASS
  1
VISUALSTYLE
  2
AcDbVisualStyle
  3
ObjectDBX Classes
 90
     4095
 91
       24
280
     0
281
     0
  0
CLASS
  1
SCALE
  2
AcDbScale
  3
ObjectDBX Classes
 90
     1153
 91
       17
280
     0
281
     0
  0
CLASS
  1
TABLESTYLE
  2
AcDbTableStyle
  3
ObjectDBX Classes
 90
     4095
 91
        1
280
     0
281
     0
  0
CLASS
  1
MLEADERSTYLE
  2
AcDbMLeaderStyle
  3
ACDB_MLEADERSTYLE_CLASS
 90
     4095
 91
        1
280
     0
281
     0
  0
CLASS
  1
ACDBSECTIONVIEWSTYLE
  2
AcDbSectionViewStyle
  3
ObjectDBX Classes
 90
     1025
 91
        1
280
     0
281
     0
  0
CLASS
  1
ACDBDETAILVIEWSTYLE
  2
AcDbDetailViewStyle
  3
ObjectDBX Classes
 90
     1025
 91
        1
280
     0
281
     0
  0
CLASS
  1
DICTIONARYVAR
  2
AcDbDictionaryVar
  3
ObjectDBX Classes
 90
        0
 91
        5
280
     0
281
     0
  0
CLASS
  1
CELLSTYLEMAP
  2
AcDbCellStyleMap
  3
ObjectDBX Classes
 90
     1152
 91
        1
280
     0
281
     0
  0
ENDSEC
  0
SECTION
  2
TABLES
  0
TABLE
  2
VPORT
  5
8
330
0
100
AcDbSymbolTable
 70
     1
  0
VPORT
  5
57
330
8
100
AcDbSymbolTableRecord
100
AcDbViewportTableRecord
  2
*Active
 70
     0
 10
0.0
 20
0.0
 11
1.0
 21
1.0
 12
0.0
 22
0.0
 13
0.0
 23
0.0
 14
1.0
 24
1.0
 15
0.0
 25
0.0
 16
0.0
 26
0.0
 36
1.0
 17
104.9999999737534
 27
-148.4999999628701
 37
0.0
 40
302.939999924255
 41
0.7070707070707534
 42
50.0
 43
0.0
 44
0.0
 50
0.0
 51
0.0
 71
     0
 72
   100
 73
     1
 74
     0
 75
     1
 76
     0
 77
     0
 78
     0
281
     0
 65
     1
110
0.0
120
0.0
130
0.0
111
1.0
121
0.0
131
0.0
112
0.0
122
1.0
132
0.0
 79
     0
146
0.0
 60
     3
 61
     5
292
     1
282
     1
141
0.0
142
0.0
 63
   250
421
  3355443
  0
ENDTAB
  0
TABLE
  2
LTYPE
  5
5
330
0
100
AcDbSymbolTable
 70
     2
  0
LTYPE
  5
5B
330
5
100
AcDbSymbolTableRecord
100
AcDbLinetypeTableRecord
  2
ByBlock
 70
     0
  3

 72
    65
 73
     0
 40
0.0
  0
LTYPE
  5
5C
330
5
100
AcDbSymbolTableRecord
100
AcDbLinetypeTableRecord
  2
ByLayer
 70
     0
  3

 72
    65
 73
     0
 40
0.0
  0
LTYPE
  5
5D
330
5
100
AcDbSymbolTableRecord
100
AcDbLinetypeTableRecord
  2
Continuous
 70
     0
  3
Solid line
 72
    65
 73
     0
 40
0.0
  0
LTYPE
  5
E6
330
5
100
AcDbSymbolTableRecord
100
AcDbLinetypeTableRecord
  2
AI-Linetype-0
 70
     0
  3
Adobe Illustrator Linetype No. 0
 72
    65
 73
     2
 40
1.411111110758333
 49
0.7055555553791667
 74
     0
 49
-0.7055555553791667
 74
     0
  0
ENDTAB
  0
TABLE
  2
LAYER
  5
2
330
0
100
AcDbSymbolTable
 70
     2
  0
LAYER
  5
54
330
2
100
AcDbSymbolTableRecord
100
AcDbLayerTableRecord
  2
0
 70
     0
 62
     7
  6
Continuous
370
    -3
390
F
347
21
  0
LAYER
  5
78
330
2
100
AcDbSymbolTableRecord
100
AcDbLayerTableRecord
  2
レイヤー 1
 70
     0
 62
     7
  6
Continuous
370
     0
390
F
347
21
  0
ENDTAB
  0
TABLE
  2
STYLE
  5
3
330
0
100
AcDbSymbolTable
 70
     2
  0
STYLE
  5
55
330
3
100
AcDbSymbolTableRecord
100
AcDbTextStyleTableRecord
  2
Standard
 70
     0
 40
0.0
 41
1.0
 50
0.0
 71
     0
 42
0.2
  3
txt
  4

  0
STYLE
  5
5A
330
3
100
AcDbSymbolTableRecord
100
AcDbTextStyleTableRecord
  2
Annotative
 70
     0
 40
0.0
 41
1.0
 50
0.0
 71
     0
 42
0.2
  3
txt
  4

1001
AcadAnnotative
1000
AnnotativeData
1002
{
1070
     1
1070
     1
1002
}
  0
ENDTAB
  0
TABLE
  2
VIEW
  5
6
330
0
100
AcDbSymbolTable
 70
     0
  0
ENDTAB
  0
TABLE
  2
UCS
  5
7
330
0
100
AcDbSymbolTable
 70
     0
  0
ENDTAB
  0
TABLE
  2
APPID
  5
9
330
0
100
AcDbSymbolTable
 70
     2
  0
APPID
  5
56
330
9
100
AcDbSymbolTableRecord
100
AcDbRegAppTableRecord
  2
ACAD
 70
     0
  0
APPID
  5
5E
330
9
100
AcDbSymbolTableRecord
100
AcDbRegAppTableRecord
  2
AcadAnnotative
 70
     0
  0
ENDTAB
  0
TABLE
  2
DIMSTYLE
  5
A
330
0
100
AcDbSymbolTable
 70
     2
100
AcDbDimStyleTable
 71
     0
  0
DIMSTYLE
105
58
330
A
100
AcDbSymbolTableRecord
100
AcDbDimStyleTableRecord
  2
Standard
 70
     0
340
55
  0
DIMSTYLE
105
59
330
A
100
AcDbSymbolTableRecord
100
AcDbDimStyleTableRecord
  2
Annotative
 70
     0
340
55
1001
AcadAnnotative
1000
AnnotativeData
1002
{
1070
     1
1070
     1
1002
}
  0
ENDTAB
  0
TABLE
  2
BLOCK_RECORD
  5
1
330
0
100
AcDbSymbolTable
 70
    16
  0
BLOCK_RECORD
  5
70
330
1
100
AcDbSymbolTableRecord
100
AcDbBlockTableRecord
  2
*Model_Space
340
73
 70
     0
280
     1
281
     0
  0
BLOCK_RECORD
  5
6C
330
1
100
AcDbSymbolTableRecord
100
AcDbBlockTableRecord
  2
*Paper_Space
340
6F
 70
     0
280
     1
281
     0
  0
BLOCK_RECORD
  5
74
330
1
100
AcDbSymbolTableRecord
100
AcDbBlockTableRecord
  2
*Paper_Space0
340
77
 70
     0
280
     1
281
     0
  0
BLOCK_RECORD
  5
79
330
1
100
AcDbSymbolTableRecord
100
AcDbBlockTableRecord
  2
Block_0
340
0
102
{BLKREFS
331
7A
102
}
 70
     0
280
     1
281
     0
  0
BLOCK_RECORD
  5
7D
330
1
100
AcDbSymbolTableRecord
100
AcDbBlockTableRecord
  2
Block_1
340
0
102
{BLKREFS
331
7E
102
}
 70
     0
280
     1
281
     0
  0
BLOCK_RECORD
  5
94
330
1
100
AcDbSymbolTableRecord
100
AcDbBlockTableRecord
  2
Block_2
340
0
102
{BLKREFS
331
95
102
}
 70
     0
280
     1
281
     0
  0
BLOCK_RECORD
  5
98
330
1
100
AcDbSymbolTableRecord
100
AcDbBlockTableRecord
  2
Block_3
340
0
102
{BLKREFS
331
99
102
}
 70
     0
280
     1
281
     0
  0
BLOCK_RECORD
  5
A4
330
1
100
AcDbSymbolTableRecord
100
AcDbBlockTableRecord
  2
Block_4
340
0
102
{BLKREFS
331
A5
102
}
 70
     0
280
     1
281
     0
  0
BLOCK_RECORD
  5
A8
330
1
100
AcDbSymbolTableRecord
100
AcDbBlockTableRecord
  2
Block_5
340
0
102
{BLKREFS
331
A9
102
}
 70
     0
280
     1
281
     0
  0
BLOCK_RECORD
  5
B2
330
1
100
AcDbSymbolTableRecord
100
AcDbBlockTableRecord
  2
Block_6
340
0
102
{BLKREFS
331
B3
102
}
 70
     0
280
     1
281
     0
  0
BLOCK_RECORD
  5
BD
330
1
100
AcDbSymbolTableRecord
100
AcDbBlockTableRecord
  2
Block_7
340
0
102
{BLKREFS
331
BE
102
}
 70
     0
280
     1
281
     0
  0
BLOCK_RECORD
  5
C1
330
1
100
AcDbSymbolTableRecord
100
AcDbBlockTableRecord
  2
Block_8
340
0
102
{BLKREFS
331
C2
102
}
 70
     0
280
     1
281
     0
  0
BLOCK_RECORD
  5
D1
330
1
100
AcDbSymbolTableRecord
100
AcDbBlockTableRecord
  2
Block_9
340
0
102
{BLKREFS
331
D2
102
}
 70
     0
280
     1
281
     0
  0
BLOCK_RECORD
  5
D5
330
1
100
AcDbSymbolTableRecord
100
AcDbBlockTableRecord
  2
Block_10
340
0
102
{BLKREFS
331
D6
102
}
 70
     0
280
     1
281
     0
  0
BLOCK_RECORD
  5
E0
330
1
100
AcDbSymbolTableRecord
100
AcDbBlockTableRecord
  2
Block_11
340
0
102
{BLKREFS
331
E1
102
}
 70
     0
280
     1
281
     0
  0
BLOCK_RECORD
  5
E7
330
1
100
AcDbSymbolTableRecord
100
AcDbBlockTableRecord
  2
Block_12
340
0
102
{BLKREFS
331
E8
102
}
 70
     0
280
     1
281
     0
  0
BLOCK_RECORD
  5
EE
330
1
100
AcDbSymbolTableRecord
100
AcDbBlockTableRecord
  2
Block_13
340
0
102
{BLKREFS
331
EF
102
}
 70
     0
280
     1
281
     0
  0
BLOCK_RECORD
  5
F2
330
1
100
AcDbSymbolTableRecord
100
AcDbBlockTableRecord
  2
Block_14
340
0
102
{BLKREFS
331
F3
102
}
 70
     0
280
     1
281
     0
  0
ENDTAB
  0
ENDSEC
  0
SECTION
  2
BLOCKS
  0
BLOCK
  5
71
330
70
100
AcDbEntity
  8
0
100
AcDbBlockBegin
  2
*Model_Space
 70
     0
 10
0.0
 20
0.0
 30
0.0
  3
*Model_Space
  1

  0
ENDBLK
  5
72
330
70
100
AcDbEntity
  8
0
100
AcDbBlockEnd
  0
BLOCK
  5
6D
330
6C
100
AcDbEntity
 67
     1
  8
0
100
AcDbBlockBegin
  2
*Paper_Space
 70
     0
 10
0.0
 20
0.0
 30
0.0
  3
*Paper_Space
  1

  0
ENDBLK
  5
6E
330
6C
100
AcDbEntity
 67
     1
  8
0
100
AcDbBlockEnd
  0
BLOCK
  5
75
330
74
100
AcDbEntity
 67
     1
  8
0
100
AcDbBlockBegin
  2
*Paper_Space0
 70
     0
 10
0.0
 20
0.0
 30
0.0
  3
*Paper_Space0
  1

  0
ENDBLK
  5
76
330
74
100
AcDbEntity
 67
     1
  8
0
100
AcDbBlockEnd
  0
BLOCK
  5
7B
330
79
100
AcDbEntity
  8
0
100
AcDbBlockBegin
  2
Block_0
 70
     0
 10
0.0
 20
0.0
 30
0.0
  3
Block_0
  1

  0
INSERT
  5
7E
330
79
100
AcDbEntity
  8
レイヤー 1
100
AcDbBlockReference
  2
Block_1
 10
0.0
 20
0.0
 30
0.0
  0
INSERT
  5
E1
330
79
100
AcDbEntity
  8
レイヤー 1
100
AcDbBlockReference
  2
Block_11
 10
0.0
 20
0.0
 30
0.0
  0
ENDBLK
  5
7C
330
79
100
AcDbEntity
  8
0
100
AcDbBlockEnd
  0
BLOCK
  5
7F
330
7D
100
AcDbEntity
  8
0
100
AcDbBlockBegin
  2
Block_1
 70
     0
 10
0.0
 20
0.0
 30
0.0
  3
Block_1
  1

  0
LINE
  5
81
330
7D
100
AcDbEntity
  8
レイヤー 1
 62
   250
420
  2299925
370
    25
100
AcDbLine
 10
93.97760003933219
 20
-145.0070334027234
 30
0.0
 11
96.47760753870723
 21
-145.0070334027234
 31
0.0
  0
LINE
  5
82
330
7D
100
AcDbEntity
  8
レイヤー 1
 62
   250
420
  2299925
370
    25
100
AcDbLine
 10
95.47761115006844
 20
-146.0068055994397
 30
0.0
 11
95.47761115006844
 21
-152.0068623882831
 31
0.0
  0
LINE
  5
83
330
7D
100
AcDbEntity
  8
レイヤー 1
 62
   250
420
  2299925
370
    25
100
AcDbLine
 10
93.97760003933219
 20
-146.0068055994397
 30
0.0
 11
95.47761115006844
 21
-146.0068055994397
 31
0.0
  0
LINE
  5
84
330
7D
100
AcDbEntity
  8
レイヤー 1
 62
   250
420
  2299925
370
    25
100
AcDbLine
 10
93.97760003933219
 20
-145.0070334027234
 30
0.0
 11
93.97760003933219
 21
-146.0068055994397
 31
0.0
  0
LINE
  5
85
330
7D
100
AcDbEntity
  8
レイヤー 1
 62
   250
420
  2299925
370
    25
100
AcDbLine
 10
96.47760753382295
 20
-145.0070334027234
 30
0.0
 11
96.47760753382295
 21
-151.0071835274246
 31
0.0
  0
LINE
  5
86
330
7D
100
AcDbEntity
  8
レイヤー 1
 62
   250
420
  2299925
370
    25
100
AcDbLine
 10
112.4775832193618
 20
-151.0071835274246
 30
0.0
 11
112.4775832193618
 21
-151.4071629616647
 31
0.0
  0
LINE
  5
87
330
7D
100
AcDbEntity
  8
レイヤー 1
 62
   250
420
  2299925
370
    25
100
AcDbLine
 10
96.47760753870723
 20
-151.0071835274246
 30
0.0
 11
112.4775832193618
 21
-151.0071835274246
 31
0.0
  0
LINE
  5
88
330
7D
100
AcDbEntity
  8
レイヤー 1
 62
   250
420
  2299925
370
    25
100
AcDbLine
 10
112.4775832193618
 20
-151.4071629616647
 30
0.0
 11
95.47761115006844
 21
-152.0068623882831
 31
0.0
  0
SPLINE
  5
89
330
7D
100
AcDbEntity
  8
レイヤー 1
 62
   250
420
  2299925
370
     9
100
AcDbSpline
210
0.0
220
0.0
230
1.0
 70
    11
 71
     3
 72
    17
 73
    13
 74
     0
 42
0.0000000001
 43
0.0000000001
 40
0.0
 40
0.0
 40
0.0
 40
0.0
 40
1.0
 40
1.0
 40
1.0
 40
2.0
 40
2.0
 40
2.0
 40
3.0
 40
3.0
 40
3.0
 40
4.0
 40
4.0
 40
4.0
 40
4.0
 10
116.5779555892377
 20
-145.0070334027234
 30
0.0
 10
116.5779555892377
 20
-144.9517531263559
 30
0.0
 10
116.533152811471
 20
-144.9069503497212
 30
0.0
 10
116.4773422839861
 20
-144.9069503497212
 30
0.0
 10
116.422238396503
 20
-144.9069503497212
 30
0.0
 10
116.3774356198682
 20
-144.9517531263559
 30
0.0
 10
116.3774356198682
 20
-145.0070334027234
 30
0.0
 10
116.3774356198682
 20
-145.0623136790909
 30
0.0
 10
116.422238396503
 20
-145.107116455726
 30
0.0
 10
116.4773422839861
 20
-145.107116455726
 30
0.0
 10
116.533152811471
 20
-145.107116455726
 30
0.0
 10
116.5779555892377
 20
-145.0623136790909
 30
0.0
 10
116.5779555892377
 20
-145.0070334027234
 30
0.0
  0
SPLINE
  5
8A
330
7D
100
AcDbEntity
  8
レイヤー 1
 62
   250
420
  2299925
370
     9
100
AcDbSpline
210
0.0
220
0.0
230
1.0
 70
     9
 71
     3
 72
    17
 73
    13
 74
     0
 42
0.0000000001
 43
0.0000000001
 40
0.0
 40
0.0
 40
0.0
 40
0.0
 40
1.0
 40
1.0
 40
1.0
 40
2.0
 40
2.0
 40
2.0
 40
3.0
 40
3.0
 40
3.0
 40
4.0
 40
4.0
 40
4.0
 40
4.0
 10
116.5779555892377
 20
-151.0071835274246
 30
0.0
 10
116.5779555892377
 20
-150.9517268621728
 30
0.0
 10
116.533152811471
 20
-150.906924085538
 30
0.0
 10
116.4773422839861
 20
-150.906924085538
 30
0.0
 10
116.422238396503
 20
-150.906924085538
 30
0.0
 10
116.3774356198682
 20
-150.9517268621728
 30
0.0
 10
116.3774356198682
 20
-151.0071835274246
 30
0.0
 10
116.3774356198682
 20
-151.0622874149077
 30
0.0
 10
116.422238396503
 20
-151.1070901915424
 30
0.0
 10
116.4773422839861
 20
-151.1070901915424
 30
0.0
 10
116.533152811471
 20
-151.1070901915424
 30
0.0
 10
116.5779555892377
 20
-151.0622874149077
 30
0.0
 10
116.5779555892377
 20
-151.0071835274246
 30
0.0
  0
SPLINE
  5
8B
330
7D
100
AcDbEntity
  8
レイヤー 1
 62
   250
420
  2299925
370
     9
100
AcDbSpline
210
0.0
220
0.0
230
1.0
 70
     9
 71
     3
 72
    17
 73
    13
 74
     0
 42
0.0000000001
 43
0.0000000001
 40
0.0
 40
0.0
 40
0.0
 40
0.0
 40
1.0
 40
1.0
 40
1.0
 40
2.0
 40
2.0
 40
2.0
 40
3.0
 40
3.0
 40
3.0
 40
4.0
 40
4.0
 40
4.0
 40
4.0
 10
116.5779555892377
 20
-151.4071629616647
 30
0.0
 10
116.5779555892377
 20
-151.3517062964129
 30
0.0
 10
116.533152811471
 20
-151.3069035197781
 30
0.0
 10
116.4773422839861
 20
-151.3069035197781
 30
0.0
 10
116.422238396503
 20
-151.3069035197781
 30
0.0
 10
116.3774356198682
 20
-151.3517062964129
 30
0.0
 10
116.3774356198682
 20
-151.4071629616647
 30
0.0
 10
116.3774356198682
 20
-151.4622668491478
 30
0.0
 10
116.422238396503
 20
-151.5070696257826
 30
0.0
 10
116.4773422839861
 20
-151.5070696257826
 30
0.0
 10
116.533152811471
 20
-151.5070696257826
 30
0.0
 10
116.5779555892377
 20
-151.4622668491478
 30
0.0
 10
116.5779555892377
 20
-151.4071629616647
 30
0.0
  0
CIRCLE
  5
8C
330
7D
100
AcDbEntity
  8
レイヤー 1
 62
   250
420
  2299925
370
     9
100
AcDbCircle
 10
112.4775832193618
 20
-156.1067978417671
 30
0.0
 40
0.0999066641178353
  0
SPLINE
  5
8D
330
7D
100
AcDbEntity
  8
レイヤー 1
 62
   250
420
  2299925
370
     9
100
AcDbSpline
210
0.0
220
0.0
230
1.0
 70
     9
 71
     3
 72
    17
 73
    13
 74
     0
 42
0.0000000001
 43
0.0000000001
 40
0.0
 40
0.0
 40
0.0
 40
0.0
 40
1.0
 40
1.0
 40
1.0
 40
2.0
 40
2.0
 40
2.0
 40
3.0
 40
3.0
 40
3.0
 40
4.0
 40
4.0
 40
4.0
 40
4.0
 10
94.0776830948627
 20
-156.1067978417671
 30
0.0
 10
94.0776830948627
 20
-156.0516526858365
 30
0.0
 10
94.03288031709598
 20
-156.0068911776492
 30
0.0
 10
93.97760003933219
 20
-156.0068911776492
 30
0.0
 10
93.92231976156839
 20
-156.0068911776492
 30
0.0
 10
93.87769337269054
 20
-156.0516526858365
 30
0.0
 10
93.87769337269054
 20
-156.1067978417671
 30
0.0
 10
93.87769337269054
 20
-156.1619017292501
 30
0.0
 10
93.92231976156839
 20
-156.2067045058849
 30
0.0
 10
93.97760003933219
 20
-156.2067045058849
 30
0.0
 10
94.03288031709598
 20
-156.2067045058849
 30
0.0
 10
94.0776830948627
 20
-156.1619017292501
 30
0.0
 10
94.0776830948627
 20
-156.1067978417671
 30
0.0
  0
SPLINE
  5
8E
330
7D
100
AcDbEntity
  8
レイヤー 1
 62
   250
420
  2299925
370
     9
100
AcDbSpline
210
0.0
220
0.0
230
1.0
 70
    11
 71
     3
 72
    17
 73
    13
 74
     0
 42
0.0000000001
 43
0.0000000001
 40
0.0
 40
0.0
 40
0.0
 40
0.0
 40
1.0
 40
1.0
 40
1.0
 40
2.0
 40
2.0
 40
2.0
 40
3.0
 40
3.0
 40
3.0
 40
4.0
 40
4.0
 40
4.0
 40
4.0
 10
92.02783253981968
 20
-145.0070334027234
 30
0.0
 10
92.02783253981968
 20
-144.9517531263559
 30
0.0
 10
91.98306503983081
 20
-144.9069503497212
 30
0.0
 10
91.92792587317804
 20
-144.9069503497212
 30
0.0
 10
91.87264559541359
 20
-144.9069503497212
 30
0.0
 10
91.82787809542473
 20
-144.9517531263559
 30
0.0
 10
91.82787809542473
 20
-145.0070334027234
 30
0.0
 10
91.82787809542473
 20
-145.0623136790909
 30
0.0
 10
91.87264559541359
 20
-145.107116455726
 30
0.0
 10
91.92792587317804
 20
-145.107116455726
 30
0.0
 10
91.98306503983081
 20
-145.107116455726
 30
0.0
 10
92.02783253981968
 20
-145.0623136790909
 30
0.0
 10
92.02783253981968
 20
-145.0070334027234
 30
0.0
  0
SPLINE
  5
8F
330
7D
100
AcDbEntity
  8
レイヤー 1
 62
   250
420
  2299925
370
     9
100
AcDbSpline
210
0.0
220
0.0
230
1.0
 70
     9
 71
     3
 72
    17
 73
    13
 74
     0
 42
0.0000000001
 43
0.0000000001
 40
0.0
 40
0.0
 40
0.0
 40
0.0
 40
1.0
 40
1.0
 40
1.0
 40
2.0
 40
2.0
 40
2.0
 40
3.0
 40
3.0
 40
3.0
 40
4.0
 40
4.0
 40
4.0
 40
4.0
 10
92.02783253981968
 20
-146.0068055994397
 30
0.0
 10
92.02783253981968
 20
-145.9516664341794
 30
0.0
 10
91.98306503983081
 20
-145.9068989353215
 30
0.0
 10
91.92792587317804
 20
-145.9068989353215
 30
0.0
 10
91.87264559541359
 20
-145.9068989353215
 30
0.0
 10
91.82787809542473
 20
-145.9516664341794
 30
0.0
 10
91.82787809542473
 20
-146.0068055994397
 30
0.0
 10
91.82787809542473
 20
-146.0622622646912
 30
0.0
 10
91.87264559541359
 20
-146.107065041326
 30
0.0
 10
91.92792587317804
 20
-146.107065041326
 30
0.0
 10
91.98306503983081
 20
-146.107065041326
 30
0.0
 10
92.02783253981968
 20
-146.0622622646912
 30
0.0
 10
92.02783253981968
 20
-146.0068055994397
 30
0.0
  0
SPLINE
  5
90
330
7D
100
AcDbEntity
  8
レイヤー 1
 62
   250
420
  2299925
370
     9
100
AcDbSpline
210
0.0
220
0.0
230
1.0
 70
     9
 71
     3
 72
    17
 73
    13
 74
     0
 42
0.0000000001
 43
0.0000000001
 40
0.0
 40
0.0
 40
0.0
 40
0.0
 40
1.0
 40
1.0
 40
1.0
 40
2.0
 40
2.0
 40
2.0
 40
3.0
 40
3.0
 40
3.0
 40
4.0
 40
4.0
 40
4.0
 40
4.0
 10
95.57765892782112
 20
-156.1067978417671
 30
0.0
 10
95.57765892782112
 20
-156.0516526858365
 30
0.0
 10
95.53289142783224
 20
-156.0068911776492
 30
0.0
 10
95.47761115006844
 20
-156.0068911776492
 30
0.0
 10
95.42247198341504
 20
-156.0068911776492
 30
0.0
 10
95.37770448342616
 20
-156.0516526858365
 30
0.0
 10
95.37770448342616
 20
-156.1067978417671
 30
0.0
 10
95.37770448342616
 20
-156.1619017292501
 30
0.0
 10
95.42247198341504
 20
-156.2067045058849
 30
0.0
 10
95.47761115006844
 20
-156.2067045058849
 30
0.0
 10
95.53289142783224
 20
-156.2067045058849
 30
0.0
 10
95.57765892782112
 20
-156.1619017292501
 30
0.0
 10
95.57765892782112
 20
-156.1067978417671
 30
0.0
  0
LINE
  5
91
330
7D
100
AcDbEntity
  8
レイヤー 1
 62
   250
420
  2299925
370
     9
100
AcDbLine
 10
93.97777642822106
 20
-156.1067978417671
 30
0.0
 11
95.47761115006844
 21
-156.1067978417671
 31
0.0
  0
LINE
  5
92
330
7D
100
AcDbEntity
  8
レイヤー 1
 62
   250
420
  2299925
370
     9
100
AcDbLine
 10
93.97760003933219
 20
-148.6469591431945
 30
0.0
 11
93.97760003933219
 21
-157.1072403162436
 31
0.0
  0
LINE
  5
93
330
7D
100
AcDbEntity
  8
レイヤー 1
 62
   250
420
  2299925
370
     9
100
AcDbLine
 10
95.47761115006844
 20
-154.6467564901269
 30
0.0
 11
95.47761115006844
 21
-157.1072403162436
 31
0.0
  0
INSERT
  5
95
330
7D
100
AcDbEntity
  8
レイヤー 1
100
AcDbBlockReference
  2
Block_2
 10
0.0
 20
0.0
 30
0.0
  0
LINE
  5
A2
330
7D
100
AcDbEntity
  8
レイヤー 1
 62
   250
420
  2299925
370
     9
100
AcDbLine
 10
95.47761115006844
 20
-156.1067978417671
 30
0.0
 11
112.4775832193618
 21
-156.1067978417671
 31
0.0
  0
LINE
  5
A3
330
7D
100
AcDbEntity
  8
レイヤー 1
 62
   250
420
  2299925
370
     9
100
AcDbLine
 10
112.4775832193618
 20
-153.9467042857645
 30
0.0
 11
112.4775832193618
 21
-157.1072403162436
 31
0.0
  0
INSERT
  5
A5
330
7D
100
AcDbEntity
  8
レイヤー 1
100
AcDbBlockReference
  2
Block_4
 10
0.0
 20
0.0
 30
0.0
  0
LINE
  5
B0
330
7D
100
AcDbEntity
  8
レイヤー 1
 62
   250
420
  2299925
370
     9
100
AcDbLine
 10
116.4773422839861
 20
-151.0071835274246
 30
0.0
 11
116.4773422839861
 21
-145.0070334027234
 31
0.0
  0
LINE
  5
B1
330
7D
100
AcDbEntity
  8
レイヤー 1
 62
   250
420
  2299925
370
     9
100
AcDbLine
 10
99.11767809360284
 20
-145.0070334027234
 30
0.0
 11
117.4777847584627
 21
-145.0070334027234
 31
0.0
  0
INSERT
  5
B3
330
7D
100
AcDbEntity
  8
レイヤー 1
100
AcDbBlockReference
  2
Block_6
 10
0.0
 20
0.0
 30
0.0
  0
LINE
  5
B9
330
7D
100
AcDbEntity
  8
レイヤー 1
 62
   250
420
  2299925
370
     9
100
AcDbLine
 10
116.4773422839861
 20
-151.4071629616647
 30
0.0
 11
116.4773422839861
 21
-152.4069351583806
 31
0.0
  0
LINE
  5
BA
330
7D
100
AcDbEntity
  8
レイヤー 1
 62
   250
420
  2299925
370
     9
100
AcDbLine
 10
116.4773422839861
 20
-151.0071835274246
 30
0.0
 11
116.4773422839861
 21
-151.4071629616647
 31
0.0
  0
LINE
  5
BB
330
7D
100
AcDbEntity
  8
レイヤー 1
 62
   250
420
  2299925
370
     9
100
AcDbLine
 10
115.0173009323459
 20
-151.0071835274246
 30
0.0
 11
117.4777847584627
 21
-151.0071835274246
 31
0.0
  0
LINE
  5
BC
330
7D
100
AcDbEntity
  8
レイヤー 1
 62
   250
420
  2299925
370
     9
100
AcDbLine
 10
115.0173009323459
 20
-151.4071629616647
 30
0.0
 11
117.4777847584627
 21
-151.4071629616647
 31
0.0
  0
INSERT
  5
BE
330
7D
100
AcDbEntity
  8
レイヤー 1
100
AcDbBlockReference
  2
Block_7
 10
0.0
 20
0.0
 30
0.0
  0
LINE
  5
CD
330
7D
100
AcDbEntity
  8
レイヤー 1
 62
   250
420
  2299925
370
     9
100
AcDbLine
 10
91.92792587317804
 20
-145.0070334027234
 30
0.0
 11
91.92792587317804
 21
-144.0070848171231
 31
0.0
  0
LINE
  5
CE
330
7D
100
AcDbEntity
  8
レイヤー 1
 62
   250
420
  2299925
370
     9
100
AcDbLine
 10
91.92792587317804
 20
-145.0070334027234
 30
0.0
 11
91.92792587317804
 21
-147.0068952961471
 31
0.0
  0
LINE
  5
CF
330
7D
100
AcDbEntity
  8
レイヤー 1
 62
   250
420
  2299925
370
     9
100
AcDbLine
 10
93.3877908728132
 20
-145.0070334027234
 30
0.0
 11
90.92783615120557
 21
-145.0070334027234
 31
0.0
  0
LINE
  5
D0
330
7D
100
AcDbEntity
  8
レイヤー 1
 62
   250
420
  2299925
370
     9
100
AcDbLine
 10
93.3877908728132
 20
-146.0068055994397
 30
0.0
 11
90.92783615120557
 21
-146.0068055994397
 31
0.0
  0
INSERT
  5
D2
330
7D
100
AcDbEntity
  8
レイヤー 1
100
AcDbBlockReference
  2
Block_9
 10
0.0
 20
0.0
 30
0.0
  0
ENDBLK
  5
80
330
7D
100
AcDbEntity
  8
0
100
AcDbBlockEnd
  0
BLOCK
  5
96
330
94
100
AcDbEntity
  8
0
100
AcDbBlockBegin
  2
Block_2
 70
     0
 10
0.0
 20
0.0
 30
0.0
  3
Block_2
  1

  0
INSERT
  5
99
330
94
100
AcDbEntity
  8
レイヤー 1
100
AcDbBlockReference
  2
Block_3
 10
0.0
 20
0.0
 30
0.0
  0
ENDBLK
  5
97
330
94
100
AcDbEntity
  8
0
100
AcDbBlockEnd
  0
BLOCK
  5
9A
330
98
100
AcDbEntity
  8
0
100
AcDbBlockBegin
  2
Block_3
 70
     0
 10
0.0
 20
0.0
 30
0.0
  3
Block_3
  1

  0
SPLINE
  5
9C
330
98
100
AcDbEntity
  8
レイヤー 1
100
AcDbSpline
210
0.0
220
0.0
230
1.0
 70
    11
 71
     3
 72
    26
 73
    22
 74
     0
 42
0.0000000001
 43
0.0000000001
 40
0.0
 40
0.0
 40
0.0
 40
0.0
 40
1.0
 40
1.0
 40
1.0
 40
2.0
 40
2.0
 40
2.0
 40
3.0
 40
3.0
 40
3.0
 40
4.0
 40
4.0
 40
4.0
 40
5.0
 40
5.0
 40
5.0
 40
6.0
 40
6.0
 40
6.0
 40
7.0
 40
7.0
 40
7.0
 40
7.0
 10
90.87972409837382
 20
-155.461311810093
 30
0.0
 10
90.87972409837382
 20
-155.461311810093
 30
0.0
 10
90.87972409837382
 20
-154.3571587070704
 30
0.0
 10
90.87972409837382
 20
-154.3571587070704
 30
0.0
 10
90.87972409837382
 20
-154.3571587070704
 30
0.0
 10
90.59825979722891
 20
-154.3571587070704
 30
0.0
 10
90.59825979722891
 20
-154.3571587070704
 30
0.0
 10
90.59825979722891
 20
-154.3571587070704
 30
0.0
 10
90.59825979722891
 20
-154.2090196012047
 30
0.0
 10
90.59825979722891
 20
-154.2090196012047
 30
0.0
 10
90.88144664611645
 20
-154.1942056906181
 30
0.0
 10
90.92106524419682
 20
-154.0312526741658
 30
0.0
 10
90.94638669601341
 20
-153.9168755040555
 30
0.0
 10
90.94638669601341
 20
-153.9168755040555
 30
0.0
 10
91.07075464303092
 20
-153.9168755040555
 30
0.0
 10
91.07075464303092
 20
-153.9168755040555
 30
0.0
 10
91.07075464303092
 20
-153.9168755040555
 30
0.0
 10
91.07075464303092
 20
-155.461311810093
 30
0.0
 10
91.07075464303092
 20
-155.461311810093
 30
0.0
 10
91.07075464303092
 20
-155.461311810093
 30
0.0
 10
90.87972409837382
 20
-155.461311810093
 30
0.0
 10
90.87972409837382
 20
-155.461311810093
 30
0.0
  0
HATCH
  5
9D
330
98
100
AcDbEntity
  8
レイヤー 1
 62
   250
420
  2299925
440
 33554687
100
AcDbHatch
 10
0.0
 20
0.0
 30
0.0
210
0.0
220
0.0
230
1.0
  2
SOLID
 70
     1
 71
     1
 91
        1
 92
        1
 93
        1
 72
     4
 94
        3
 73
     0
 74
     0
 95
       26
 96
       22
 40
0.0
 40
0.0
 40
0.0
 40
0.0
 40
1.0
 40
1.0
 40
1.0
 40
2.0
 40
2.0
 40
2.0
 40
3.0
 40
3.0
 40
3.0
 40
4.0
 40
4.0
 40
4.0
 40
5.0
 40
5.0
 40
5.0
 40
6.0
 40
6.0
 40
6.0
 40
7.0
 40
7.0
 40
7.0
 40
7.0
 10
90.87972409837382
 20
-155.461311810093
 10
90.87972409837382
 20
-155.461311810093
 10
90.87972409837382
 20
-154.3571587070704
 10
90.87972409837382
 20
-154.3571587070704
 10
90.87972409837382
 20
-154.3571587070704
 10
90.59825979722891
 20
-154.3571587070704
 10
90.59825979722891
 20
-154.3571587070704
 10
90.59825979722891
 20
-154.3571587070704
 10
90.59825979722891
 20
-154.2090196012047
 10
90.59825979722891
 20
-154.2090196012047
 10
90.88144664611645
 20
-154.1942056906181
 10
90.92106524419682
 20
-154.0312526741658
 10
90.94638669601341
 20
-153.9168755040555
 10
90.94638669601341
 20
-153.9168755040555
 10
91.07075464303092
 20
-153.9168755040555
 10
91.07075464303092
 20
-153.9168755040555
 10
91.07075464303092
 20
-153.9168755040555
 10
91.07075464303092
 20
-155.461311810093
 10
91.07075464303092
 20
-155.461311810093
 10
91.07075464303092
 20
-155.461311810093
 10
90.87972409837382
 20
-155.461311810093
 10
90.87972409837382
 20
-155.461311810093
 97
        0
 97
        1
330
9C
 75
     2
 76
     1
 98
        1
 10
0.0
 20
0.0
450
        0
451
        0
460
0.0
461
0.0
452
        0
462
0.0
453
        0
470

  0
SPLINE
  5
9E
330
98
100
AcDbEntity
  8
レイヤー 1
100
AcDbSpline
210
0.0
220
0.0
230
1.0
 70
    11
 71
     3
 72
    17
 73
    13
 74
     0
 42
0.0000000001
 43
0.0000000001
 40
0.0
 40
0.0
 40
0.0
 40
0.0
 40
1.0
 40
1.0
 40
1.0
 40
2.0
 40
2.0
 40
2.0
 40
3.0
 40
3.0
 40
3.0
 40
4.0
 40
4.0
 40
4.0
 40
4.0
 10
91.54790036773801
 20
-155.461311810093
 30
0.0
 10
91.54790036773801
 20
-155.461311810093
 30
0.0
 10
91.54790036773801
 20
-155.2094753301212
 30
0.0
 10
91.54790036773801
 20
-155.2094753301212
 30
0.0
 10
91.54790036773801
 20
-155.2094753301212
 30
0.0
 10
91.76252981646909
 20
-155.2094753301212
 30
0.0
 10
91.76252981646909
 20
-155.2094753301212
 30
0.0
 10
91.76252981646909
 20
-155.2094753301212
 30
0.0
 10
91.76252981646909
 20
-155.461311810093
 30
0.0
 10
91.76252981646909
 20
-155.461311810093
 30
0.0
 10
91.76252981646909
 20
-155.461311810093
 30
0.0
 10
91.54790036773801
 20
-155.461311810093
 30
0.0
 10
91.54790036773801
 20
-155.461311810093
 30
0.0
  0
HATCH
  5
9F
330
98
100
AcDbEntity
  8
レイヤー 1
 62
   250
420
  2299925
440
 33554687
100
AcDbHatch
 10
0.0
 20
0.0
 30
0.0
210
0.0
220
0.0
230
1.0
  2
SOLID
 70
     1
 71
     1
 91
        1
 92
        1
 93
        1
 72
     4
 94
        3
 73
     0
 74
     0
 95
       17
 96
       13
 40
0.0
 40
0.0
 40
0.0
 40
0.0
 40
1.0
 40
1.0
 40
1.0
 40
2.0
 40
2.0
 40
2.0
 40
3.0
 40
3.0
 40
3.0
 40
4.0
 40
4.0
 40
4.0
 40
4.0
 10
91.54790036773801
 20
-155.461311810093
 10
91.54790036773801
 20
-155.461311810093
 10
91.54790036773801
 20
-155.2094753301212
 10
91.54790036773801
 20
-155.2094753301212
 10
91.54790036773801
 20
-155.2094753301212
 10
91.76252981646909
 20
-155.2094753301212
 10
91.76252981646909
 20
-155.2094753301212
 10
91.76252981646909
 20
-155.2094753301212
 10
91.76252981646909
 20
-155.461311810093
 10
91.76252981646909
 20
-155.461311810093
 10
91.76252981646909
 20
-155.461311810093
 10
91.54790036773801
 20
-155.461311810093
 10
91.54790036773801
 20
-155.461311810093
 97
        0
 97
        1
330
9E
 75
     2
 76
     1
 98
        1
 10
0.0
 20
0.0
450
        0
451
        0
460
0.0
461
0.0
452
        0
462
0.0
453
        0
470

  0
SPLINE
  5
A0
330
98
100
AcDbEntity
  8
レイヤー 1
100
AcDbSpline
210
0.0
220
0.0
230
1.0
 70
     9
 71
     3
 72
    53
 73
    49
 74
     0
 42
0.0000000001
 43
0.0000000001
 40
0.0
 40
0.0
 40
0.0
 40
0.0
 40
1.0
 40
1.0
 40
1.0
 40
2.0
 40
2.0
 40
2.0
 40
3.0
 40
3.0
 40
3.0
 40
4.0
 40
4.0
 40
4.0
 40
5.0
 40
5.0
 40
5.0
 40
6.0
 40
6.0
 40
6.0
 40
7.0
 40
7.0
 40
7.0
 40
8.0
 40
8.0
 40
8.0
 40
9.0
 40
9.0
 40
9.0
 40
10.0
 40
10.0
 40
10.0
 40
11.0
 40
11.0
 40
11.0
 40
12.0
 40
12.0
 40
12.0
 40
13.0
 40
13.0
 40
13.0
 40
14.0
 40
14.0
 40
14.0
 40
15.0
 40
15.0
 40
15.0
 40
16.0
 40
16.0
 40
16.0
 40
16.0
 10
92.3733452460039
 20
-155.5119547137262
 30
0.0
 10
92.30668264836429
 20
-155.5119547137262
 30
0.0
 10
92.22003849691027
 20
-155.4950737458484
 30
0.0
 10
92.1335666002305
 20
-155.4316839889198
 30
0.0
 10
91.98559974913903
 20
-155.3217854429403
 30
0.0
 10
91.96768525261573
 20
-155.1905273049524
 30
0.0
 10
91.95132104906077
 20
-155.082695816264
 30
0.0
 10
91.95132104906077
 20
-155.082695816264
 30
0.0
 10
92.14080130074952
 20
-155.082695816264
 30
0.0
 10
92.14080130074952
 20
-155.082695816264
 30
0.0
 10
92.18765459934891
 20
-155.281477825763
 30
0.0
 10
92.29583059758576
 20
-155.3111056469361
 30
0.0
 10
92.37524004852078
 20
-155.3111056469361
 30
0.0
 10
92.49426809753616
 20
-155.3111056469361
 30
0.0
 10
92.62397594255581
 20
-155.2115423874124
 30
0.0
 10
92.62397594255581
 20
-154.978998442158
 30
0.0
 10
92.62397594255581
 20
-154.7230278476039
 30
0.0
 10
92.4706691934622
 20
-154.6530924092534
 30
0.0
 10
92.36800534800176
 20
-154.6530924092534
 30
0.0
 10
92.34096134844255
 20
-154.6530924092534
 30
0.0
 10
92.22003849691027
 20
-154.6530924092534
 30
0.0
 10
92.14441865100903
 20
-154.7822834899502
 30
0.0
 10
92.14441865100903
 20
-154.7822834899502
 30
0.0
 10
91.99472925217493
 20
-154.7633354647814
 30
0.0
 10
91.99472925217493
 20
-154.7633354647814
 30
0.0
 10
91.99472925217493
 20
-154.7633354647814
 30
0.0
 10
92.09739309763538
 20
-153.9168755040555
 30
0.0
 10
92.09739309763538
 20
-153.9168755040555
 30
0.0
 10
92.09739309763538
 20
-153.9168755040555
 30
0.0
 10
92.76109074286877
 20
-153.9168755040555
 30
0.0
 10
92.76109074286877
 20
-153.9168755040555
 30
0.0
 10
92.76109074286877
 20
-153.9168755040555
 30
0.0
 10
92.76109074286877
 20
-154.1115233989721
 30
0.0
 10
92.76109074286877
 20
-154.1115233989721
 30
0.0
 10
92.76109074286877
 20
-154.1115233989721
 30
0.0
 10
92.23623044569094
 20
-154.1115233989721
 30
0.0
 10
92.23623044569094
 20
-154.1115233989721
 30
0.0
 10
92.23623044569094
 20
-154.1115233989721
 30
0.0
 10
92.18041989882989
 20
-154.5345811245608
 30
0.0
 10
92.18041989882989
 20
-154.5345811245608
 30
0.0
 10
92.2327853502057
 20
-154.5008191888053
 30
0.0
 10
92.3030652981048
 20
-154.4605115716279
 30
0.0
 10
92.40400659582261
 20
-154.4605115716279
 30
0.0
 10
92.6203585922963
 20
-154.4605115716279
 30
0.0
 10
92.82241344250619
 20
-154.6468912373799
 30
0.0
 10
92.82241344250619
 20
-154.9600504169891
 30
0.0
 10
92.82241344250619
 20
-155.2773437111806
 30
0.0
 10
92.63121064307483
 20
-155.5119547137262
 30
0.0
 10
92.3733452460039
 20
-155.5119547137262
 30
0.0
  0
HATCH
  5
A1
330
98
100
AcDbEntity
  8
レイヤー 1
 62
   250
420
  2299925
440
 33554687
100
AcDbHatch
 10
0.0
 20
0.0
 30
0.0
210
0.0
220
0.0
230
1.0
  2
SOLID
 70
     1
 71
     1
 91
        1
 92
        1
 93
        1
 72
     4
 94
        3
 73
     0
 74
     0
 95
       53
 96
       49
 40
0.0
 40
0.0
 40
0.0
 40
0.0
 40
1.0
 40
1.0
 40
1.0
 40
2.0
 40
2.0
 40
2.0
 40
3.0
 40
3.0
 40
3.0
 40
4.0
 40
4.0
 40
4.0
 40
5.0
 40
5.0
 40
5.0
 40
6.0
 40
6.0
 40
6.0
 40
7.0
 40
7.0
 40
7.0
 40
8.0
 40
8.0
 40
8.0
 40
9.0
 40
9.0
 40
9.0
 40
10.0
 40
10.0
 40
10.0
 40
11.0
 40
11.0
 40
11.0
 40
12.0
 40
12.0
 40
12.0
 40
13.0
 40
13.0
 40
13.0
 40
14.0
 40
14.0
 40
14.0
 40
15.0
 40
15.0
 40
15.0
 40
16.0
 40
16.0
 40
16.0
 40
16.0
 10
92.3733452460039
 20
-155.5119547137262
 10
92.30668264836429
 20
-155.5119547137262
 10
92.22003849691027
 20
-155.4950737458484
 10
92.1335666002305
 20
-155.4316839889198
 10
91.98559974913903
 20
-155.3217854429403
 10
91.96768525261573
 20
-155.1905273049524
 10
91.95132104906077
 20
-155.082695816264
 10
91.95132104906077
 20
-155.082695816264
 10
92.14080130074952
 20
-155.082695816264
 10
92.14080130074952
 20
-155.082695816264
 10
92.18765459934891
 20
-155.281477825763
 10
92.29583059758576
 20
-155.3111056469361
 10
92.37524004852078
 20
-155.3111056469361
 10
92.49426809753616
 20
-155.3111056469361
 10
92.62397594255581
 20
-155.2115423874124
 10
92.62397594255581
 20
-154.978998442158
 10
92.62397594255581
 20
-154.7230278476039
 10
92.4706691934622
 20
-154.6530924092534
 10
92.36800534800176
 20
-154.6530924092534
 10
92.34096134844255
 20
-154.6530924092534
 10
92.22003849691027
 20
-154.6530924092534
 10
92.14441865100903
 20
-154.7822834899502
 10
92.14441865100903
 20
-154.7822834899502
 10
91.99472925217493
 20
-154.7633354647814
 10
91.99472925217493
 20
-154.7633354647814
 10
91.99472925217493
 20
-154.7633354647814
 10
92.09739309763538
 20
-153.9168755040555
 10
92.09739309763538
 20
-153.9168755040555
 10
92.09739309763538
 20
-153.9168755040555
 10
92.76109074286877
 20
-153.9168755040555
 10
92.76109074286877
 20
-153.9168755040555
 10
92.76109074286877
 20
-153.9168755040555
 10
92.76109074286877
 20
-154.1115233989721
 10
92.76109074286877
 20
-154.1115233989721
 10
92.76109074286877
 20
-154.1115233989721
 10
92.23623044569094
 20
-154.1115233989721
 10
92.23623044569094
 20
-154.1115233989721
 10
92.23623044569094
 20
-154.1115233989721
 10
92.18041989882989
 20
-154.5345811245608
 10
92.18041989882989
 20
-154.5345811245608
 10
92.2327853502057
 20
-154.5008191888053
 10
92.3030652981048
 20
-154.4605115716279
 10
92.40400659582261
 20
-154.4605115716279
 10
92.6203585922963
 20
-154.4605115716279
 10
92.82241344250619
 20
-154.6468912373799
 10
92.82241344250619
 20
-154.9600504169891
 10
92.82241344250619
 20
-155.2773437111806
 10
92.63121064307483
 20
-155.5119547137262
 10
92.3733452460039
 20
-155.5119547137262
 97
        0
 97
        1
330
A0
 75
     2
 76
     1
 98
        1
 10
0.0
 20
0.0
450
        0
451
        0
460
0.0
461
0.0
452
        0
462
0.0
453
        0
470

  0
ENDBLK
  5
9B
330
98
100
AcDbEntity
  8
0
100
AcDbBlockEnd
  0
BLOCK
  5
A6
330
A4
100
AcDbEntity
  8
0
100
AcDbBlockBegin
  2
Block_4
 70
     0
 10
0.0
 20
0.0
 30
0.0
  3
Block_4
  1

  0
INSERT
  5
A9
330
A4
100
AcDbEntity
  8
レイヤー 1
100
AcDbBlockReference
  2
Block_5
 10
0.0
 20
0.0
 30
0.0
  0
ENDBLK
  5
A7
330
A4
100
AcDbEntity
  8
0
100
AcDbBlockEnd
  0
BLOCK
  5
AA
330
A8
100
AcDbEntity
  8
0
100
AcDbBlockBegin
  2
Block_5
 70
     0
 10
0.0
 20
0.0
 30
0.0
  3
Block_5
  1

  0
SPLINE
  5
AC
330
A8
100
AcDbEntity
  8
レイヤー 1
100
AcDbSpline
210
0.0
220
0.0
230
1.0
 70
    11
 71
     3
 72
    26
 73
    22
 74
     0
 42
0.0000000001
 43
0.0000000001
 40
0.0
 40
0.0
 40
0.0
 40
0.0
 40
1.0
 40
1.0
 40
1.0
 40
2.0
 40
2.0
 40
2.0
 40
3.0
 40
3.0
 40
3.0
 40
4.0
 40
4.0
 40
4.0
 40
5.0
 40
5.0
 40
5.0
 40
6.0
 40
6.0
 40
6.0
 40
7.0
 40
7.0
 40
7.0
 40
7.0
 10
103.4357191039154
 20
-155.461311810093
 30
0.0
 10
103.4357191039154
 20
-155.461311810093
 30
0.0
 10
103.4357191039154
 20
-154.3571587070704
 30
0.0
 10
103.4357191039154
 20
-154.3571587070704
 30
0.0
 10
103.4357191039154
 20
-154.3571587070704
 30
0.0
 10
103.1542548027704
 20
-154.3571587070704
 30
0.0
 10
103.1542548027704
 20
-154.3571587070704
 30
0.0
 10
103.1542548027704
 20
-154.3571587070704
 30
0.0
 10
103.1542548027704
 20
-154.2090196012047
 30
0.0
 10
103.1542548027704
 20
-154.2090196012047
 30
0.0
 10
103.437441651658
 20
-154.1942056906181
 30
0.0
 10
103.4770602497383
 20
-154.0312526741658
 30
0.0
 10
103.5022094467807
 20
-153.9168755040555
 30
0.0
 10
103.5022094467807
 20
-153.9168755040555
 30
0.0
 10
103.6269219033467
 20
-153.9168755040555
 30
0.0
 10
103.6269219033467
 20
-153.9168755040555
 30
0.0
 10
103.6269219033467
 20
-153.9168755040555
 30
0.0
 10
103.6269219033467
 20
-155.461311810093
 30
0.0
 10
103.6269219033467
 20
-155.461311810093
 30
0.0
 10
103.6269219033467
 20
-155.461311810093
 30
0.0
 10
103.4357191039154
 20
-155.461311810093
 30
0.0
 10
103.4357191039154
 20
-155.461311810093
 30
0.0
  0
HATCH
  5
AD
330
A8
100
AcDbEntity
  8
レイヤー 1
 62
   250
420
  2299925
440
 33554687
100
AcDbHatch
 10
0.0
 20
0.0
 30
0.0
210
0.0
220
0.0
230
1.0
  2
SOLID
 70
     1
 71
     1
 91
        1
 92
        1
 93
        1
 72
     4
 94
        3
 73
     0
 74
     0
 95
       26
 96
       22
 40
0.0
 40
0.0
 40
0.0
 40
0.0
 40
1.0
 40
1.0
 40
1.0
 40
2.0
 40
2.0
 40
2.0
 40
3.0
 40
3.0
 40
3.0
 40
4.0
 40
4.0
 40
4.0
 40
5.0
 40
5.0
 40
5.0
 40
6.0
 40
6.0
 40
6.0
 40
7.0
 40
7.0
 40
7.0
 40
7.0
 10
103.4357191039154
 20
-155.461311810093
 10
103.4357191039154
 20
-155.461311810093
 10
103.4357191039154
 20
-154.3571587070704
 10
103.4357191039154
 20
-154.3571587070704
 10
103.4357191039154
 20
-154.3571587070704
 10
103.1542548027704
 20
-154.3571587070704
 10
103.1542548027704
 20
-154.3571587070704
 10
103.1542548027704
 20
-154.3571587070704
 10
103.1542548027704
 20
-154.2090196012047
 10
103.1542548027704
 20
-154.2090196012047
 10
103.437441651658
 20
-154.1942056906181
 10
103.4770602497383
 20
-154.0312526741658
 10
103.5022094467807
 20
-153.9168755040555
 10
103.5022094467807
 20
-153.9168755040555
 10
103.6269219033467
 20
-153.9168755040555
 10
103.6269219033467
 20
-153.9168755040555
 10
103.6269219033467
 20
-153.9168755040555
 10
103.6269219033467
 20
-155.461311810093
 10
103.6269219033467
 20
-155.461311810093
 10
103.6269219033467
 20
-155.461311810093
 10
103.4357191039154
 20
-155.461311810093
 10
103.4357191039154
 20
-155.461311810093
 97
        0
 97
        1
330
AC
 75
     2
 76
     1
 98
        1
 10
0.0
 20
0.0
450
        0
451
        0
460
0.0
461
0.0
452
        0
462
0.0
453
        0
470

  0
SPLINE
  5
AE
330
A8
100
AcDbEntity
  8
レイヤー 1
100
AcDbSpline
210
0.0
220
0.0
230
1.0
 70
     9
 71
     3
 72
    26
 73
    22
 74
     0
 42
0.0000000001
 43
0.0000000001
 40
0.0
 40
0.0
 40
0.0
 40
0.0
 40
1.0
 40
1.0
 40
1.0
 40
2.0
 40
2.0
 40
2.0
 40
3.0
 40
3.0
 40
3.0
 40
4.0
 40
4.0
 40
4.0
 40
5.0
 40
5.0
 40
5.0
 40
6.0
 40
6.0
 40
6.0
 40
7.0
 40
7.0
 40
7.0
 40
7.0
 10
104.4031019161735
 20
-155.461311810093
 30
0.0
 10
104.4031019161735
 20
-155.461311810093
 30
0.0
 10
104.2012193207379
 20
-155.461311810093
 30
0.0
 10
104.2012193207379
 20
-155.461311810093
 30
0.0
 10
104.2229234222949
 20
-155.1522867450661
 30
0.0
 10
104.3869099673928
 20
-154.6341443840845
 30
0.0
 10
104.7331420636604
 20
-154.1284043668498
 30
0.0
 10
104.7331420636604
 20
-154.1284043668498
 30
0.0
 10
104.0189737695681
 20
-154.1284043668498
 30
0.0
 10
104.0189737695681
 20
-154.1284043668498
 30
0.0
 10
104.0189737695681
 20
-154.1284043668498
 30
0.0
 10
104.0189737695681
 20
-153.9168755040555
 30
0.0
 10
104.0189737695681
 20
-153.9168755040555
 30
0.0
 10
104.0189737695681
 20
-153.9168755040555
 30
0.0
 10
104.9350246590961
 20
-153.9168755040555
 30
0.0
 10
104.9350246590961
 20
-153.9168755040555
 30
0.0
 10
104.9350246590961
 20
-153.9168755040555
 30
0.0
 10
104.9350246590961
 20
-154.1284043668498
 30
0.0
 10
104.9350246590961
 20
-154.1284043668498
 30
0.0
 10
104.6594170202761
 20
-154.4184814067079
 30
0.0
 10
104.4320407182496
 20
-155.0106933206223
 30
0.0
 10
104.4031019161735
 20
-155.461311810093
 30
0.0
  0
HATCH
  5
AF
330
A8
100
AcDbEntity
  8
レイヤー 1
 62
   250
420
  2299925
440
 33554687
100
AcDbHatch
 10
0.0
 20
0.0
 30
0.0
210
0.0
220
0.0
230
1.0
  2
SOLID
 70
     1
 71
     1
 91
        1
 92
        1
 93
        1
 72
     4
 94
        3
 73
     0
 74
     0
 95
       26
 96
       22
 40
0.0
 40
0.0
 40
0.0
 40
0.0
 40
1.0
 40
1.0
 40
1.0
 40
2.0
 40
2.0
 40
2.0
 40
3.0
 40
3.0
 40
3.0
 40
4.0
 40
4.0
 40
4.0
 40
5.0
 40
5.0
 40
5.0
 40
6.0
 40
6.0
 40
6.0
 40
7.0
 40
7.0
 40
7.0
 40
7.0
 10
104.4031019161735
 20
-155.461311810093
 10
104.4031019161735
 20
-155.461311810093
 10
104.2012193207379
 20
-155.461311810093
 10
104.2012193207379
 20
-155.461311810093
 10
104.2229234222949
 20
-155.1522867450661
 10
104.3869099673928
 20
-154.6341443840845
 10
104.7331420636604
 20
-154.1284043668498
 10
104.7331420636604
 20
-154.1284043668498
 10
104.0189737695681
 20
-154.1284043668498
 10
104.0189737695681
 20
-154.1284043668498
 10
104.0189737695681
 20
-154.1284043668498
 10
104.0189737695681
 20
-153.9168755040555
 10
104.0189737695681
 20
-153.9168755040555
 10
104.0189737695681
 20
-153.9168755040555
 10
104.9350246590961
 20
-153.9168755040555
 10
104.9350246590961
 20
-153.9168755040555
 10
104.9350246590961
 20
-153.9168755040555
 10
104.9350246590961
 20
-154.1284043668498
 10
104.9350246590961
 20
-154.1284043668498
 10
104.6594170202761
 20
-154.4184814067079
 10
104.4320407182496
 20
-155.0106933206223
 10
104.4031019161735
 20
-155.461311810093
 97
        0
 97
        1
330
AE
 75
     2
 76
     1
 98
        1
 10
0.0
 20
0.0
450
        0
451
        0
460
0.0
461
0.0
452
        0
462
0.0
453
        0
470

  0
ENDBLK
  5
AB
330
A8
100
AcDbEntity
  8
0
100
AcDbBlockEnd
  0
BLOCK
  5
B4
330
B2
100
AcDbEntity
  8
0
100
AcDbBlockBegin
  2
Block_6
 70
     0
 10
0.0
 20
0.0
 30
0.0
  3
Block_6
  1

  0
SPLINE
  5
B6
330
B2
100
AcDbEntity
  8
レイヤー 1
100
AcDbSpline
210
0.0
220
0.0
230
1.0
 70
     9
 71
     3
 72
    17
 73
    13
 74
     0
 42
0.0000000001
 43
0.0000000001
 40
0.0
 40
0.0
 40
0.0
 40
0.0
 40
1.0
 40
1.0
 40
1.0
 40
2.0
 40
2.0
 40
2.0
 40
3.0
 40
3.0
 40
3.0
 40
4.0
 40
4.0
 40
4.0
 40
4.0
 10
115.0234700233275
 20
-147.988210683489
 30
0.0
 10
115.0234700233275
 20
-148.2117973804817
 30
0.0
 10
115.2349988861218
 20
-148.2441812780431
 30
0.0
 10
115.3514431135232
 20
-148.2441812780431
 30
0.0
 10
115.527142983271
 20
-148.2441812780431
 30
0.0
 10
115.6900959997233
 20
-148.1628770245912
 30
0.0
 10
115.6900959997233
 20
-148.0061251800123
 30
0.0
 10
115.6900959997233
 20
-147.9031168250034
 30
0.0
 10
115.630840357377
 20
-147.7535996809435
 30
0.0
 10
115.3452419416498
 20
-147.7535996809435
 30
0.0
 10
115.12096622556
 20
-147.7535996809435
 30
0.0
 10
115.0234700233275
 20
-147.8724554751846
 30
0.0
 10
115.0234700233275
 20
-147.988210683489
 30
0.0
  0
SPLINE
  5
B7
330
B2
100
AcDbEntity
  8
レイヤー 1
100
AcDbSpline
210
0.0
220
0.0
230
1.0
 70
     9
 71
     3
 72
    32
 73
    28
 74
     0
 42
0.0000000001
 43
0.0000000001
 40
0.0
 40
0.0
 40
0.0
 40
0.0
 40
1.0
 40
1.0
 40
1.0
 40
2.0
 40
2.0
 40
2.0
 40
3.0
 40
3.0
 40
3.0
 40
4.0
 40
4.0
 40
4.0
 40
5.0
 40
5.0
 40
5.0
 40
6.0
 40
6.0
 40
6.0
 40
7.0
 40
7.0
 40
7.0
 40
8.0
 40
8.0
 40
8.0
 40
9.0
 40
9.0
 40
9.0
 40
9.0
 10
115.8823323278002
 20
-148.0023355749786
 30
0.0
 10
115.8823323278002
 20
-148.4426187779935
 30
0.0
 10
115.3283609737721
 20
-148.4498534785125
 30
0.0
 10
115.114420544138
 20
-148.4498534785125
 30
0.0
 10
114.8839436561748
 20
-148.4498534785125
 30
0.0
 10
114.2366102144964
 20
-148.4333170201833
 30
0.0
 10
114.2366102144964
 20
-147.9699516774172
 30
0.0
 10
114.2366102144964
 20
-147.8221570811
 30
0.0
 10
114.306545652847
 20
-147.6130397851453
 30
0.0
 10
114.638652857625
 20
-147.580655887584
 30
0.0
 10
114.638652857625
 20
-147.580655887584
 30
0.0
 10
114.638652857625
 20
-147.7625569292052
 30
0.0
 10
114.638652857625
 20
-147.7625569292052
 30
0.0
 10
114.5814642725699
 20
-147.7715141774668
 30
0.0
 10
114.4333251667042
 20
-147.7987304318003
 30
0.0
 10
114.4333251667042
 20
-147.9716742251598
 30
0.0
 10
114.4333251667042
 20
-148.2207546287434
 30
0.0
 10
114.7612982568999
 20
-148.2548610740474
 30
0.0
 10
114.9662814382723
 20
-148.2658853796002
 30
0.0
 10
114.8880777707571
 20
-148.1863036738909
 30
0.0
 10
114.8288221284108
 20
-148.1287705792872
 30
0.0
 10
114.8288221284108
 20
-147.973741282451
 30
0.0
 10
114.8288221284108
 20
-147.8204345333574
 30
0.0
 10
114.9369981266477
 20
-147.5623968815122
 30
0.0
 10
115.3431748843586
 20
-147.5623968815122
 30
0.0
 10
115.6625352358413
 20
-147.5623968815122
 30
0.0
 10
115.8823323278002
 20
-147.7318955793865
 30
0.0
 10
115.8823323278002
 20
-148.0023355749786
 30
0.0
  0
HATCH
  5
B8
330
B2
100
AcDbEntity
  8
レイヤー 1
 62
   250
420
  2299925
440
 33554687
100
AcDbHatch
 10
0.0
 20
0.0
 30
0.0
210
0.0
220
0.0
230
1.0
  2
SOLID
 70
     1
 71
     1
 91
        2
 92
        1
 93
        1
 72
     4
 94
        3
 73
     0
 74
     0
 95
       17
 96
       13
 40
0.0
 40
0.0
 40
0.0
 40
0.0
 40
1.0
 40
1.0
 40
1.0
 40
2.0
 40
2.0
 40
2.0
 40
3.0
 40
3.0
 40
3.0
 40
4.0
 40
4.0
 40
4.0
 40
4.0
 10
115.0234700233275
 20
-147.988210683489
 10
115.0234700233275
 20
-148.2117973804817
 10
115.2349988861218
 20
-148.2441812780431
 10
115.3514431135232
 20
-148.2441812780431
 10
115.527142983271
 20
-148.2441812780431
 10
115.6900959997233
 20
-148.1628770245912
 10
115.6900959997233
 20
-148.0061251800123
 10
115.6900959997233
 20
-147.9031168250034
 10
115.630840357377
 20
-147.7535996809435
 10
115.3452419416498
 20
-147.7535996809435
 10
115.12096622556
 20
-147.7535996809435
 10
115.0234700233275
 20
-147.8724554751846
 10
115.0234700233275
 20
-147.988210683489
 97
        0
 97
        1
330
B6
 92
        1
 93
        1
 72
     4
 94
        3
 73
     0
 74
     0
 95
       32
 96
       28
 40
0.0
 40
0.0
 40
0.0
 40
0.0
 40
1.0
 40
1.0
 40
1.0
 40
2.0
 40
2.0
 40
2.0
 40
3.0
 40
3.0
 40
3.0
 40
4.0
 40
4.0
 40
4.0
 40
5.0
 40
5.0
 40
5.0
 40
6.0
 40
6.0
 40
6.0
 40
7.0
 40
7.0
 40
7.0
 40
8.0
 40
8.0
 40
8.0
 40
9.0
 40
9.0
 40
9.0
 40
9.0
 10
115.8823323278002
 20
-148.0023355749786
 10
115.8823323278002
 20
-148.4426187779935
 10
115.3283609737721
 20
-148.4498534785125
 10
115.114420544138
 20
-148.4498534785125
 10
114.8839436561748
 20
-148.4498534785125
 10
114.2366102144964
 20
-148.4333170201833
 10
114.2366102144964
 20
-147.9699516774172
 10
114.2366102144964
 20
-147.8221570811
 10
114.306545652847
 20
-147.6130397851453
 10
114.638652857625
 20
-147.580655887584
 10
114.638652857625
 20
-147.580655887584
 10
114.638652857625
 20
-147.7625569292052
 10
114.638652857625
 20
-147.7625569292052
 10
114.5814642725699
 20
-147.7715141774668
 10
114.4333251667042
 20
-147.7987304318003
 10
114.4333251667042
 20
-147.9716742251598
 10
114.4333251667042
 20
-148.2207546287434
 10
114.7612982568999
 20
-148.2548610740474
 10
114.9662814382723
 20
-148.2658853796002
 10
114.8880777707571
 20
-148.1863036738909
 10
114.8288221284108
 20
-148.1287705792872
 10
114.8288221284108
 20
-147.973741282451
 10
114.8288221284108
 20
-147.8204345333574
 10
114.9369981266477
 20
-147.5623968815122
 10
115.3431748843586
 20
-147.5623968815122
 10
115.6625352358413
 20
-147.5623968815122
 10
115.8823323278002
 20
-147.7318955793865
 10
115.8823323278002
 20
-148.0023355749786
 97
        0
 97
        1
330
B7
 75
     2
 76
     1
 98
        1
 10
0.0
 20
0.0
450
        0
451
        0
460
0.0
461
0.0
452
        0
462
0.0
453
        0
470

  0
ENDBLK
  5
B5
330
B2
100
AcDbEntity
  8
0
100
AcDbBlockEnd
  0
BLOCK
  5
BF
330
BD
100
AcDbEntity
  8
0
100
AcDbBlockBegin
  2
Block_7
 70
     0
 10
0.0
 20
0.0
 30
0.0
  3
Block_7
  1

  0
INSERT
  5
C2
330
BD
100
AcDbEntity
  8
レイヤー 1
100
AcDbBlockReference
  2
Block_8
 10
0.0
 20
0.0
 30
0.0
  0
ENDBLK
  5
C0
330
BD
100
AcDbEntity
  8
0
100
AcDbBlockEnd
  0
BLOCK
  5
C3
330
C1
100
AcDbEntity
  8
0
100
AcDbBlockBegin
  2
Block_8
 70
     0
 10
0.0
 20
0.0
 30
0.0
  3
Block_8
  1

  0
SPLINE
  5
C5
330
C1
100
AcDbEntity
  8
レイヤー 1
100
AcDbSpline
210
0.0
220
0.0
230
1.0
 70
     9
 71
     3
 72
    17
 73
    13
 74
     0
 42
0.0000000001
 43
0.0000000001
 40
0.0
 40
0.0
 40
0.0
 40
0.0
 40
1.0
 40
1.0
 40
1.0
 40
2.0
 40
2.0
 40
2.0
 40
3.0
 40
3.0
 40
3.0
 40
4.0
 40
4.0
 40
4.0
 40
4.0
 10
118.664591441688
 20
-152.0827066677085
 30
0.0
 10
118.664591441688
 20
-152.2952690591484
 30
0.0
 10
118.948122800124
 20
-152.3352321667773
 30
0.0
 10
119.2929768581976
 20
-152.3352321667773
 30
0.0
 10
119.6123372096802
 20
-152.3352321667773
 30
0.0
 10
119.9210177651586
 20
-152.3045708169586
 30
0.0
 10
119.9210177651586
 20
-152.0827066677085
 30
0.0
 10
119.9210177651586
 20
-151.8715223144627
 30
0.0
 10
119.6398979735622
 20
-151.8301811686397
 30
0.0
 10
119.2929768581976
 20
-151.8301811686397
 30
0.0
 10
118.9732719971664
 20
-151.8301811686397
 30
0.0
 10
118.664591441688
 20
-151.862565066201
 30
0.0
 10
118.664591441688
 20
-152.0827066677085
 30
0.0
  0
SPLINE
  5
C6
330
C1
100
AcDbEntity
  8
レイヤー 1
100
AcDbSpline
210
0.0
220
0.0
230
1.0
 70
     9
 71
     3
 72
    29
 73
    25
 74
     0
 42
0.0000000001
 43
0.0000000001
 40
0.0
 40
0.0
 40
0.0
 40
0.0
 40
1.0
 40
1.0
 40
1.0
 40
2.0
 40
2.0
 40
2.0
 40
3.0
 40
3.0
 40
3.0
 40
4.0
 40
4.0
 40
4.0
 40
5.0
 40
5.0
 40
5.0
 40
6.0
 40
6.0
 40
6.0
 40
7.0
 40
7.0
 40
7.0
 40
8.0
 40
8.0
 40
8.0
 40
8.0
 10
119.8872558294032
 20
-151.7437092719599
 30
0.0
 10
120.0967176349064
 20
-151.8356933214161
 30
0.0
 10
120.1156656600752
 20
-151.9834879177333
 30
0.0
 10
120.1156656600752
 20
-152.0827066677085
 30
0.0
 10
120.1156656600752
 20
-152.2198214680214
 30
0.0
 10
120.0691568710244
 20
-152.3403998100052
 30
0.0
 10
119.8872558294032
 20
-152.421704063457
 30
0.0
 10
119.6926079344865
 20
-152.5098985078795
 30
0.0
 10
119.4555853651014
 20
-152.5260904566601
 30
0.0
 10
119.2929768581976
 20
-152.5260904566601
 30
0.0
 10
119.1489718669141
 20
-152.5260904566601
 30
0.0
 10
118.8971353869424
 20
-152.5119655651706
 30
0.0
 10
118.6983533774434
 20
-152.421704063457
 30
0.0
 10
118.4954372533622
 20
-152.3297200140009
 30
0.0
 10
118.4720106040625
 20
-152.1926052136879
 30
0.0
 10
118.4720106040625
 20
-152.0827066677085
 30
0.0
 10
118.4720106040625
 20
-151.9473144151382
 30
0.0
 10
118.5164523358223
 20
-151.8246690158633
 30
0.0
 10
118.6983533774434
 20
-151.7437092719599
 30
0.0
 10
118.8909342150689
 20
-151.6589599230227
 30
0.0
 10
119.119344045741
 20
-151.6389783692083
 30
0.0
 10
119.2929768581976
 20
-151.6389783692083
 30
0.0
 10
119.4641981038145
 20
-151.6389783692083
 30
0.0
 10
119.6946749917777
 20
-151.6572373752801
 30
0.0
 10
119.8872558294032
 20
-151.7437092719599
 30
0.0
  0
HATCH
  5
C7
330
C1
100
AcDbEntity
  8
レイヤー 1
 62
   250
420
  2299925
440
 33554687
100
AcDbHatch
 10
0.0
 20
0.0
 30
0.0
210
0.0
220
0.0
230
1.0
  2
SOLID
 70
     1
 71
     1
 91
        2
 92
        1
 93
        1
 72
     4
 94
        3
 73
     0
 74
     0
 95
       17
 96
       13
 40
0.0
 40
0.0
 40
0.0
 40
0.0
 40
1.0
 40
1.0
 40
1.0
 40
2.0
 40
2.0
 40
2.0
 40
3.0
 40
3.0
 40
3.0
 40
4.0
 40
4.0
 40
4.0
 40
4.0
 10
118.664591441688
 20
-152.0827066677085
 10
118.664591441688
 20
-152.2952690591484
 10
118.948122800124
 20
-152.3352321667773
 10
119.2929768581976
 20
-152.3352321667773
 10
119.6123372096802
 20
-152.3352321667773
 10
119.9210177651586
 20
-152.3045708169586
 10
119.9210177651586
 20
-152.0827066677085
 10
119.9210177651586
 20
-151.8715223144627
 10
119.6398979735622
 20
-151.8301811686397
 10
119.2929768581976
 20
-151.8301811686397
 10
118.9732719971664
 20
-151.8301811686397
 10
118.664591441688
 20
-151.862565066201
 10
118.664591441688
 20
-152.0827066677085
 97
        0
 97
        1
330
C5
 92
        1
 93
        1
 72
     4
 94
        3
 73
     0
 74
     0
 95
       29
 96
       25
 40
0.0
 40
0.0
 40
0.0
 40
0.0
 40
1.0
 40
1.0
 40
1.0
 40
2.0
 40
2.0
 40
2.0
 40
3.0
 40
3.0
 40
3.0
 40
4.0
 40
4.0
 40
4.0
 40
5.0
 40
5.0
 40
5.0
 40
6.0
 40
6.0
 40
6.0
 40
7.0
 40
7.0
 40
7.0
 40
8.0
 40
8.0
 40
8.0
 40
8.0
 10
119.8872558294032
 20
-151.7437092719599
 10
120.0967176349064
 20
-151.8356933214161
 10
120.1156656600752
 20
-151.9834879177333
 10
120.1156656600752
 20
-152.0827066677085
 10
120.1156656600752
 20
-152.2198214680214
 10
120.0691568710244
 20
-152.3403998100052
 10
119.8872558294032
 20
-152.421704063457
 10
119.6926079344865
 20
-152.5098985078795
 10
119.4555853651014
 20
-152.5260904566601
 10
119.2929768581976
 20
-152.5260904566601
 10
119.1489718669141
 20
-152.5260904566601
 10
118.8971353869424
 20
-152.5119655651706
 10
118.6983533774434
 20
-152.421704063457
 10
118.4954372533622
 20
-152.3297200140009
 10
118.4720106040625
 20
-152.1926052136879
 10
118.4720106040625
 20
-152.0827066677085
 10
118.4720106040625
 20
-151.9473144151382
 10
118.5164523358223
 20
-151.8246690158633
 10
118.6983533774434
 20
-151.7437092719599
 10
118.8909342150689
 20
-151.6589599230227
 10
119.119344045741
 20
-151.6389783692083
 10
119.2929768581976
 20
-151.6389783692083
 10
119.4641981038145
 20
-151.6389783692083
 10
119.6946749917777
 20
-151.6572373752801
 10
119.8872558294032
 20
-151.7437092719599
 97
        0
 97
        1
330
C6
 75
     2
 76
     1
 98
        1
 10
0.0
 20
0.0
450
        0
451
        0
460
0.0
461
0.0
452
        0
462
0.0
453
        0
470

  0
SPLINE
  5
C8
330
C1
100
AcDbEntity
  8
レイヤー 1
100
AcDbSpline
210
0.0
220
0.0
230
1.0
 70
    11
 71
     3
 72
    17
 73
    13
 74
     0
 42
0.0000000001
 43
0.0000000001
 40
0.0
 40
0.0
 40
0.0
 40
0.0
 40
1.0
 40
1.0
 40
1.0
 40
2.0
 40
2.0
 40
2.0
 40
3.0
 40
3.0
 40
3.0
 40
4.0
 40
4.0
 40
4.0
 40
4.0
 10
120.0650227564421
 20
-151.4560437989415
 30
0.0
 10
120.0650227564421
 20
-151.4560437989415
 30
0.0
 10
119.8131862764703
 20
-151.4560437989415
 30
0.0
 10
119.8131862764703
 20
-151.4560437989415
 30
0.0
 10
119.8131862764703
 20
-151.4560437989415
 30
0.0
 10
119.8131862764703
 20
-151.2414143502105
 30
0.0
 10
119.8131862764703
 20
-151.2414143502105
 30
0.0
 10
119.8131862764703
 20
-151.2414143502105
 30
0.0
 10
120.0650227564421
 20
-151.2414143502105
 30
0.0
 10
120.0650227564421
 20
-151.2414143502105
 30
0.0
 10
120.0650227564421
 20
-151.2414143502105
 30
0.0
 10
120.0650227564421
 20
-151.4560437989415
 30
0.0
 10
120.0650227564421
 20
-151.4560437989415
 30
0.0
  0
HATCH
  5
C9
330
C1
100
AcDbEntity
  8
レイヤー 1
 62
   250
420
  2299925
440
 33554687
100
AcDbHatch
 10
0.0
 20
0.0
 30
0.0
210
0.0
220
0.0
230
1.0
  2
SOLID
 70
     1
 71
     1
 91
        1
 92
        1
 93
        1
 72
     4
 94
        3
 73
     0
 74
     0
 95
       17
 96
       13
 40
0.0
 40
0.0
 40
0.0
 40
0.0
 40
1.0
 40
1.0
 40
1.0
 40
2.0
 40
2.0
 40
2.0
 40
3.0
 40
3.0
 40
3.0
 40
4.0
 40
4.0
 40
4.0
 40
4.0
 10
120.0650227564421
 20
-151.4560437989415
 10
120.0650227564421
 20
-151.4560437989415
 10
119.8131862764703
 20
-151.4560437989415
 10
119.8131862764703
 20
-151.4560437989415
 10
119.8131862764703
 20
-151.4560437989415
 10
119.8131862764703
 20
-151.2414143502105
 10
119.8131862764703
 20
-151.2414143502105
 10
119.8131862764703
 20
-151.2414143502105
 10
120.0650227564421
 20
-151.2414143502105
 10
120.0650227564421
 20
-151.2414143502105
 10
120.0650227564421
 20
-151.2414143502105
 10
120.0650227564421
 20
-151.4560437989415
 10
120.0650227564421
 20
-151.4560437989415
 97
        0
 97
        1
330
C8
 75
     2
 76
     1
 98
        1
 10
0.0
 20
0.0
450
        0
451
        0
460
0.0
461
0.0
452
        0
462
0.0
453
        0
470

  0
SPLINE
  5
CA
330
C1
100
AcDbEntity
  8
レイヤー 1
100
AcDbSpline
210
0.0
220
0.0
230
1.0
 70
    11
 71
     3
 72
    14
 73
    10
 74
     0
 42
0.0000000001
 43
0.0000000001
 40
0.0
 40
0.0
 40
0.0
 40
0.0
 40
1.0
 40
1.0
 40
1.0
 40
2.0
 40
2.0
 40
2.0
 40
3.0
 40
3.0
 40
3.0
 40
3.0
 10
118.8633734511869
 20
-150.5165662601139
 30
0.0
 10
118.8633734511869
 20
-150.5165662601139
 30
0.0
 10
119.5193196315785
 20
-150.9062065594956
 30
0.0
 10
119.5193196315785
 20
-150.9062065594956
 30
0.0
 10
119.5193196315785
 20
-150.9062065594956
 30
0.0
 10
119.5193196315785
 20
-150.5165662601139
 30
0.0
 10
119.5193196315785
 20
-150.5165662601139
 30
0.0
 10
119.5193196315785
 20
-150.5165662601139
 30
0.0
 10
118.8633734511869
 20
-150.5165662601139
 30
0.0
 10
118.8633734511869
 20
-150.5165662601139
 30
0.0
  0
SPLINE
  5
CB
330
C1
100
AcDbEntity
  8
レイヤー 1
100
AcDbSpline
210
0.0
220
0.0
230
1.0
 70
    11
 71
     3
 72
    38
 73
    34
 74
     0
 42
0.0000000001
 43
0.0000000001
 40
0.0
 40
0.0
 40
0.0
 40
0.0
 40
1.0
 40
1.0
 40
1.0
 40
2.0
 40
2.0
 40
2.0
 40
3.0
 40
3.0
 40
3.0
 40
4.0
 40
4.0
 40
4.0
 40
5.0
 40
5.0
 40
5.0
 40
6.0
 40
6.0
 40
6.0
 40
7.0
 40
7.0
 40
7.0
 40
8.0
 40
8.0
 40
8.0
 40
9.0
 40
9.0
 40
9.0
 40
10.0
 40
10.0
 40
10.0
 40
11.0
 40
11.0
 40
11.0
 40
11.0
 10
119.7181016410774
 20
-150.3308756134589
 30
0.0
 10
119.7181016410774
 20
-150.3308756134589
 30
0.0
 10
120.0650227564421
 20
-150.3308756134589
 30
0.0
 10
120.0650227564421
 20
-150.3308756134589
 30
0.0
 10
120.0650227564421
 20
-150.3308756134589
 30
0.0
 10
120.0650227564421
 20
-150.5165662601139
 30
0.0
 10
120.0650227564421
 20
-150.5165662601139
 30
0.0
 10
120.0650227564421
 20
-150.5165662601139
 30
0.0
 10
119.7181016410774
 20
-150.5165662601139
 30
0.0
 10
119.7181016410774
 20
-150.5165662601139
 30
0.0
 10
119.7181016410774
 20
-150.5165662601139
 30
0.0
 10
119.7181016410774
 20
-151.0757052573699
 30
0.0
 10
119.7181016410774
 20
-151.0757052573699
 30
0.0
 10
119.7181016410774
 20
-151.0757052573699
 30
0.0
 10
119.4938259249876
 20
-151.0757052573699
 30
0.0
 10
119.4938259249876
 20
-151.0757052573699
 30
0.0
 10
119.4938259249876
 20
-151.0757052573699
 30
0.0
 10
118.5205864504045
 20
-150.496929215848
 30
0.0
 10
118.5205864504045
 20
-150.496929215848
 30
0.0
 10
118.5205864504045
 20
-150.496929215848
 30
0.0
 10
118.5205864504045
 20
-150.3308756134589
 30
0.0
 10
118.5205864504045
 20
-150.3308756134589
 30
0.0
 10
118.5205864504045
 20
-150.3308756134589
 30
0.0
 10
119.5193196315785
 20
-150.3308756134589
 30
0.0
 10
119.5193196315785
 20
-150.3308756134589
 30
0.0
 10
119.5193196315785
 20
-150.3308756134589
 30
0.0
 10
119.5193196315785
 20
-150.1541422150656
 30
0.0
 10
119.5193196315785
 20
-150.1541422150656
 30
0.0
 10
119.5193196315785
 20
-150.1541422150656
 30
0.0
 10
119.7181016410774
 20
-150.1541422150656
 30
0.0
 10
119.7181016410774
 20
-150.1541422150656
 30
0.0
 10
119.7181016410774
 20
-150.1541422150656
 30
0.0
 10
119.7181016410774
 20
-150.3308756134589
 30
0.0
 10
119.7181016410774
 20
-150.3308756134589
 30
0.0
  0
HATCH
  5
CC
330
C1
100
AcDbEntity
  8
レイヤー 1
 62
   250
420
  2299925
440
 33554687
100
AcDbHatch
 10
0.0
 20
0.0
 30
0.0
210
0.0
220
0.0
230
1.0
  2
SOLID
 70
     1
 71
     1
 91
        2
 92
        1
 93
        1
 72
     4
 94
        3
 73
     0
 74
     0
 95
       14
 96
       10
 40
0.0
 40
0.0
 40
0.0
 40
0.0
 40
1.0
 40
1.0
 40
1.0
 40
2.0
 40
2.0
 40
2.0
 40
3.0
 40
3.0
 40
3.0
 40
3.0
 10
118.8633734511869
 20
-150.5165662601139
 10
118.8633734511869
 20
-150.5165662601139
 10
119.5193196315785
 20
-150.9062065594956
 10
119.5193196315785
 20
-150.9062065594956
 10
119.5193196315785
 20
-150.9062065594956
 10
119.5193196315785
 20
-150.5165662601139
 10
119.5193196315785
 20
-150.5165662601139
 10
119.5193196315785
 20
-150.5165662601139
 10
118.8633734511869
 20
-150.5165662601139
 10
118.8633734511869
 20
-150.5165662601139
 97
        0
 97
        1
330
CA
 92
        1
 93
        1
 72
     4
 94
        3
 73
     0
 74
     0
 95
       38
 96
       34
 40
0.0
 40
0.0
 40
0.0
 40
0.0
 40
1.0
 40
1.0
 40
1.0
 40
2.0
 40
2.0
 40
2.0
 40
3.0
 40
3.0
 40
3.0
 40
4.0
 40
4.0
 40
4.0
 40
5.0
 40
5.0
 40
5.0
 40
6.0
 40
6.0
 40
6.0
 40
7.0
 40
7.0
 40
7.0
 40
8.0
 40
8.0
 40
8.0
 40
9.0
 40
9.0
 40
9.0
 40
10.0
 40
10.0
 40
10.0
 40
11.0
 40
11.0
 40
11.0
 40
11.0
 10
119.7181016410774
 20
-150.3308756134589
 10
119.7181016410774
 20
-150.3308756134589
 10
120.0650227564421
 20
-150.3308756134589
 10
120.0650227564421
 20
-150.3308756134589
 10
120.0650227564421
 20
-150.3308756134589
 10
120.0650227564421
 20
-150.5165662601139
 10
120.0650227564421
 20
-150.5165662601139
 10
120.0650227564421
 20
-150.5165662601139
 10
119.7181016410774
 20
-150.5165662601139
 10
119.7181016410774
 20
-150.5165662601139
 10
119.7181016410774
 20
-150.5165662601139
 10
119.7181016410774
 20
-151.0757052573699
 10
119.7181016410774
 20
-151.0757052573699
 10
119.7181016410774
 20
-151.0757052573699
 10
119.4938259249876
 20
-151.0757052573699
 10
119.4938259249876
 20
-151.0757052573699
 10
119.4938259249876
 20
-151.0757052573699
 10
118.5205864504045
 20
-150.496929215848
 10
118.5205864504045
 20
-150.496929215848
 10
118.5205864504045
 20
-150.496929215848
 10
118.5205864504045
 20
-150.3308756134589
 10
118.5205864504045
 20
-150.3308756134589
 10
118.5205864504045
 20
-150.3308756134589
 10
119.5193196315785
 20
-150.3308756134589
 10
119.5193196315785
 20
-150.3308756134589
 10
119.5193196315785
 20
-150.3308756134589
 10
119.5193196315785
 20
-150.1541422150656
 10
119.5193196315785
 20
-150.1541422150656
 10
119.5193196315785
 20
-150.1541422150656
 10
119.7181016410774
 20
-150.1541422150656
 10
119.7181016410774
 20
-150.1541422150656
 10
119.7181016410774
 20
-150.1541422150656
 10
119.7181016410774
 20
-150.3308756134589
 10
119.7181016410774
 20
-150.3308756134589
 97
        0
 97
        1
330
CB
 75
     2
 76
     1
 98
        1
 10
0.0
 20
0.0
450
        0
451
        0
460
0.0
461
0.0
452
        0
462
0.0
453
        0
470

  0
ENDBLK
  5
C4
330
C1
100
AcDbEntity
  8
0
100
AcDbBlockEnd
  0
BLOCK
  5
D3
330
D1
100
AcDbEntity
  8
0
100
AcDbBlockBegin
  2
Block_9
 70
     0
 10
0.0
 20
0.0
 30
0.0
  3
Block_9
  1

  0
INSERT
  5
D6
330
D1
100
AcDbEntity
  8
レイヤー 1
100
AcDbBlockReference
  2
Block_10
 10
0.0
 20
0.0
 30
0.0
  0
ENDBLK
  5
D4
330
D1
100
AcDbEntity
  8
0
100
AcDbBlockEnd
  0
BLOCK
  5
D7
330
D5
100
AcDbEntity
  8
0
100
AcDbBlockBegin
  2
Block_10
 70
     0
 10
0.0
 20
0.0
 30
0.0
  3
Block_10
  1

  0
SPLINE
  5
D9
330
D5
100
AcDbEntity
  8
レイヤー 1
100
AcDbSpline
210
0.0
220
0.0
230
1.0
 70
    11
 71
     3
 72
    26
 73
    22
 74
     0
 42
0.0000000001
 43
0.0000000001
 40
0.0
 40
0.0
 40
0.0
 40
0.0
 40
1.0
 40
1.0
 40
1.0
 40
2.0
 40
2.0
 40
2.0
 40
3.0
 40
3.0
 40
3.0
 40
4.0
 40
4.0
 40
4.0
 40
5.0
 40
5.0
 40
5.0
 40
6.0
 40
6.0
 40
6.0
 40
7.0
 40
7.0
 40
7.0
 40
7.0
 10
91.28176674150248
 20
-144.5103867911293
 30
0.0
 10
91.28176674150248
 20
-144.5103867911293
 30
0.0
 10
90.17761363847991
 20
-144.5103867911293
 30
0.0
 10
90.17761363847991
 20
-144.5103867911293
 30
0.0
 10
90.17761363847991
 20
-144.5103867911293
 30
0.0
 10
90.17761363847991
 20
-144.7918510922742
 30
0.0
 10
90.17761363847991
 20
-144.7918510922742
 30
0.0
 10
90.17761363847991
 20
-144.7918510922742
 30
0.0
 10
90.02947453261416
 20
-144.7918510922742
 30
0.0
 10
90.02947453261416
 20
-144.7918510922742
 30
0.0
 10
90.01466062202759
 20
-144.5086642433867
 30
0.0
 10
89.85170760557528
 20
-144.4690456453063
 30
0.0
 10
89.73733043546499
 20
-144.443896448264
 30
0.0
 10
89.73733043546499
 20
-144.443896448264
 30
0.0
 10
89.73733043546499
 20
-144.319183991698
 30
0.0
 10
89.73733043546499
 20
-144.319183991698
 30
0.0
 10
89.73733043546499
 20
-144.319183991698
 30
0.0
 10
91.28176674150248
 20
-144.319183991698
 30
0.0
 10
91.28176674150248
 20
-144.319183991698
 30
0.0
 10
91.28176674150248
 20
-144.319183991698
 30
0.0
 10
91.28176674150248
 20
-144.5103867911293
 30
0.0
 10
91.28176674150248
 20
-144.5103867911293
 30
0.0
  0
HATCH
  5
DA
330
D5
100
AcDbEntity
  8
レイヤー 1
 62
   250
420
  2299925
440
 33554687
100
AcDbHatch
 10
0.0
 20
0.0
 30
0.0
210
0.0
220
0.0
230
1.0
  2
SOLID
 70
     1
 71
     1
 91
        1
 92
        1
 93
        1
 72
     4
 94
        3
 73
     0
 74
     0
 95
       26
 96
       22
 40
0.0
 40
0.0
 40
0.0
 40
0.0
 40
1.0
 40
1.0
 40
1.0
 40
2.0
 40
2.0
 40
2.0
 40
3.0
 40
3.0
 40
3.0
 40
4.0
 40
4.0
 40
4.0
 40
5.0
 40
5.0
 40
5.0
 40
6.0
 40
6.0
 40
6.0
 40
7.0
 40
7.0
 40
7.0
 40
7.0
 10
91.28176674150248
 20
-144.5103867911293
 10
91.28176674150248
 20
-144.5103867911293
 10
90.17761363847991
 20
-144.5103867911293
 10
90.17761363847991
 20
-144.5103867911293
 10
90.17761363847991
 20
-144.5103867911293
 10
90.17761363847991
 20
-144.7918510922742
 10
90.17761363847991
 20
-144.7918510922742
 10
90.17761363847991
 20
-144.7918510922742
 10
90.02947453261416
 20
-144.7918510922742
 10
90.02947453261416
 20
-144.7918510922742
 10
90.01466062202759
 20
-144.5086642433867
 10
89.85170760557528
 20
-144.4690456453063
 10
89.73733043546499
 20
-144.443896448264
 10
89.73733043546499
 20
-144.443896448264
 10
89.73733043546499
 20
-144.319183991698
 10
89.73733043546499
 20
-144.319183991698
 10
89.73733043546499
 20
-144.319183991698
 10
91.28176674150248
 20
-144.319183991698
 10
91.28176674150248
 20
-144.319183991698
 10
91.28176674150248
 20
-144.319183991698
 10
91.28176674150248
 20
-144.5103867911293
 10
91.28176674150248
 20
-144.5103867911293
 97
        0
 97
        1
330
D9
 75
     2
 76
     1
 98
        1
 10
0.0
 20
0.0
450
        0
451
        0
460
0.0
461
0.0
452
        0
462
0.0
453
        0
470

  0
SPLINE
  5
DB
330
D5
100
AcDbEntity
  8
レイヤー 1
100
AcDbSpline
210
0.0
220
0.0
230
1.0
 70
    11
 71
     3
 72
    17
 73
    13
 74
     0
 42
0.0000000001
 43
0.0000000001
 40
0.0
 40
0.0
 40
0.0
 40
0.0
 40
1.0
 40
1.0
 40
1.0
 40
2.0
 40
2.0
 40
2.0
 40
3.0
 40
3.0
 40
3.0
 40
4.0
 40
4.0
 40
4.0
 40
4.0
 10
91.28176674150248
 20
-143.8423827765394
 30
0.0
 10
91.28176674150248
 20
-143.8423827765394
 30
0.0
 10
91.02993026153072
 20
-143.8423827765394
 30
0.0
 10
91.02993026153072
 20
-143.8423827765394
 30
0.0
 10
91.02993026153072
 20
-143.8423827765394
 30
0.0
 10
91.02993026153072
 20
-143.6277533278083
 30
0.0
 10
91.02993026153072
 20
-143.6277533278083
 30
0.0
 10
91.02993026153072
 20
-143.6277533278083
 30
0.0
 10
91.28176674150248
 20
-143.6277533278083
 30
0.0
 10
91.28176674150248
 20
-143.6277533278083
 30
0.0
 10
91.28176674150248
 20
-143.6277533278083
 30
0.0
 10
91.28176674150248
 20
-143.8423827765394
 30
0.0
 10
91.28176674150248
 20
-143.8423827765394
 30
0.0
  0
HATCH
  5
DC
330
D5
100
AcDbEntity
  8
レイヤー 1
 62
   250
420
  2299925
440
 33554687
100
AcDbHatch
 10
0.0
 20
0.0
 30
0.0
210
0.0
220
0.0
230
1.0
  2
SOLID
 70
     1
 71
     1
 91
        1
 92
        1
 93
        1
 72
     4
 94
        3
 73
     0
 74
     0
 95
       17
 96
       13
 40
0.0
 40
0.0
 40
0.0
 40
0.0
 40
1.0
 40
1.0
 40
1.0
 40
2.0
 40
2.0
 40
2.0
 40
3.0
 40
3.0
 40
3.0
 40
4.0
 40
4.0
 40
4.0
 40
4.0
 10
91.28176674150248
 20
-143.8423827765394
 10
91.28176674150248
 20
-143.8423827765394
 10
91.02993026153072
 20
-143.8423827765394
 10
91.02993026153072
 20
-143.8423827765394
 10
91.02993026153072
 20
-143.8423827765394
 10
91.02993026153072
 20
-143.6277533278083
 10
91.02993026153072
 20
-143.6277533278083
 10
91.02993026153072
 20
-143.6277533278083
 10
91.28176674150248
 20
-143.6277533278083
 10
91.28176674150248
 20
-143.6277533278083
 10
91.28176674150248
 20
-143.6277533278083
 10
91.28176674150248
 20
-143.8423827765394
 10
91.28176674150248
 20
-143.8423827765394
 97
        0
 97
        1
330
DB
 75
     2
 76
     1
 98
        1
 10
0.0
 20
0.0
450
        0
451
        0
460
0.0
461
0.0
452
        0
462
0.0
453
        0
470

  0
SPLINE
  5
DD
330
D5
100
AcDbEntity
  8
レイヤー 1
100
AcDbSpline
210
0.0
220
0.0
230
1.0
 70
     9
 71
     3
 72
    17
 73
    13
 74
     0
 42
0.0000000001
 43
0.0000000001
 40
0.0
 40
0.0
 40
0.0
 40
0.0
 40
1.0
 40
1.0
 40
1.0
 40
2.0
 40
2.0
 40
2.0
 40
3.0
 40
3.0
 40
3.0
 40
4.0
 40
4.0
 40
4.0
 40
4.0
 10
89.88133542674843
 20
-143.0004014399443
 30
0.0
 10
89.88133542674843
 20
-143.2133083409328
 30
0.0
 10
90.16486678518448
 20
-143.2529269390131
 30
0.0
 10
90.50972084325799
 20
-143.2529269390131
 30
0.0
 10
90.82908119474065
 20
-143.2529269390131
 30
0.0
 10
91.13776175021904
 20
-143.2222655891944
 30
0.0
 10
91.13776175021904
 20
-143.0004014399443
 30
0.0
 10
91.13776175021904
 20
-142.7892170866985
 30
0.0
 10
90.85664195862264
 20
-142.7478759408755
 30
0.0
 10
90.50972084325799
 20
-142.7478759408755
 30
0.0
 10
90.19001598222681
 20
-142.7478759408755
 30
0.0
 10
89.88133542674843
 20
-142.7802598384368
 30
0.0
 10
89.88133542674843
 20
-143.0004014399443
 30
0.0
  0
SPLINE
  5
DE
330
D5
100
AcDbEntity
  8
レイヤー 1
100
AcDbSpline
210
0.0
220
0.0
230
1.0
 70
     9
 71
     3
 72
    29
 73
    25
 74
     0
 42
0.0000000001
 43
0.0000000001
 40
0.0
 40
0.0
 40
0.0
 40
0.0
 40
1.0
 40
1.0
 40
1.0
 40
2.0
 40
2.0
 40
2.0
 40
3.0
 40
3.0
 40
3.0
 40
4.0
 40
4.0
 40
4.0
 40
5.0
 40
5.0
 40
5.0
 40
6.0
 40
6.0
 40
6.0
 40
7.0
 40
7.0
 40
7.0
 40
8.0
 40
8.0
 40
8.0
 40
8.0
 10
91.10399981446359
 20
-142.6614040441957
 30
0.0
 10
91.31346161996678
 20
-142.7533880936519
 30
0.0
 10
91.33240964513566
 20
-142.9011826899691
 30
0.0
 10
91.33240964513566
 20
-143.0004014399443
 30
0.0
 10
91.33240964513566
 20
-143.1375162402573
 30
0.0
 10
91.28590085608477
 20
-143.258094582241
 30
0.0
 10
91.10399981446359
 20
-143.3393988356929
 30
0.0
 10
90.90935191954697
 20
-143.4275932801153
 30
0.0
 10
90.67232935016178
 20
-143.4441297384445
 30
0.0
 10
90.50972084325799
 20
-143.4441297384445
 30
0.0
 10
90.36571585197455
 20
-143.4441297384445
 30
0.0
 10
90.11387937200279
 20
-143.4296603374065
 30
0.0
 10
89.91509736250387
 20
-143.3393988356929
 30
0.0
 10
89.71218123842266
 20
-143.2474147862367
 30
0.0
 10
89.68875458912295
 20
-143.1102999859238
 30
0.0
 10
89.68875458912295
 20
-143.0004014399443
 30
0.0
 10
89.68875458912295
 20
-142.865009187374
 30
0.0
 10
89.73319632088267
 20
-142.7423637880991
 30
0.0
 10
89.91509736250387
 20
-142.6614040441957
 30
0.0
 10
90.10767820012933
 20
-142.5766546952586
 30
0.0
 10
90.3360880308014
 20
-142.5566731414441
 30
0.0
 10
90.50972084325799
 20
-142.5566731414441
 30
0.0
 10
90.68094208887492
 20
-142.5566731414441
 30
0.0
 10
90.91141897683812
 20
-142.574932147516
 30
0.0
 10
91.10399981446359
 20
-142.6614040441957
 30
0.0
  0
HATCH
  5
DF
330
D5
100
AcDbEntity
  8
レイヤー 1
 62
   250
420
  2299925
440
 33554687
100
AcDbHatch
 10
0.0
 20
0.0
 30
0.0
210
0.0
220
0.0
230
1.0
  2
SOLID
 70
     1
 71
     1
 91
        2
 92
        1
 93
        1
 72
     4
 94
        3
 73
     0
 74
     0
 95
       17
 96
       13
 40
0.0
 40
0.0
 40
0.0
 40
0.0
 40
1.0
 40
1.0
 40
1.0
 40
2.0
 40
2.0
 40
2.0
 40
3.0
 40
3.0
 40
3.0
 40
4.0
 40
4.0
 40
4.0
 40
4.0
 10
89.88133542674843
 20
-143.0004014399443
 10
89.88133542674843
 20
-143.2133083409328
 10
90.16486678518448
 20
-143.2529269390131
 10
90.50972084325799
 20
-143.2529269390131
 10
90.82908119474065
 20
-143.2529269390131
 10
91.13776175021904
 20
-143.2222655891944
 10
91.13776175021904
 20
-143.0004014399443
 10
91.13776175021904
 20
-142.7892170866985
 10
90.85664195862264
 20
-142.7478759408755
 10
90.50972084325799
 20
-142.7478759408755
 10
90.19001598222681
 20
-142.7478759408755
 10
89.88133542674843
 20
-142.7802598384368
 10
89.88133542674843
 20
-143.0004014399443
 97
        0
 97
        1
330
DD
 92
        1
 93
        1
 72
     4
 94
        3
 73
     0
 74
     0
 95
       29
 96
       25
 40
0.0
 40
0.0
 40
0.0
 40
0.0
 40
1.0
 40
1.0
 40
1.0
 40
2.0
 40
2.0
 40
2.0
 40
3.0
 40
3.0
 40
3.0
 40
4.0
 40
4.0
 40
4.0
 40
5.0
 40
5.0
 40
5.0
 40
6.0
 40
6.0
 40
6.0
 40
7.0
 40
7.0
 40
7.0
 40
8.0
 40
8.0
 40
8.0
 40
8.0
 10
91.10399981446359
 20
-142.6614040441957
 10
91.31346161996678
 20
-142.7533880936519
 10
91.33240964513566
 20
-142.9011826899691
 10
91.33240964513566
 20
-143.0004014399443
 10
91.33240964513566
 20
-143.1375162402573
 10
91.28590085608477
 20
-143.258094582241
 10
91.10399981446359
 20
-143.3393988356929
 10
90.90935191954697
 20
-143.4275932801153
 10
90.67232935016178
 20
-143.4441297384445
 10
90.50972084325799
 20
-143.4441297384445
 10
90.36571585197455
 20
-143.4441297384445
 10
90.11387937200279
 20
-143.4296603374065
 10
89.91509736250387
 20
-143.3393988356929
 10
89.71218123842266
 20
-143.2474147862367
 10
89.68875458912295
 20
-143.1102999859238
 10
89.68875458912295
 20
-143.0004014399443
 10
89.68875458912295
 20
-142.865009187374
 10
89.73319632088267
 20
-142.7423637880991
 10
89.91509736250387
 20
-142.6614040441957
 10
90.10767820012933
 20
-142.5766546952586
 10
90.3360880308014
 20
-142.5566731414441
 10
90.50972084325799
 20
-142.5566731414441
 10
90.68094208887492
 20
-142.5566731414441
 10
90.91141897683812
 20
-142.574932147516
 10
91.10399981446359
 20
-142.6614040441957
 97
        0
 97
        1
330
DE
 75
     2
 76
     1
 98
        1
 10
0.0
 20
0.0
450
        0
451
        0
460
0.0
461
0.0
452
        0
462
0.0
453
        0
470

  0
ENDBLK
  5
D8
330
D5
100
AcDbEntity
  8
0
100
AcDbBlockEnd
  0
BLOCK
  5
E2
330
E0
100
AcDbEntity
  8
0
100
AcDbBlockBegin
  2
Block_11
 70
     0
 10
0.0
 20
0.0
 30
0.0
  3
Block_11
  1

  0
LINE
  5
E4
330
E0
100
AcDbEntity
  8
レイヤー 1
 62
   250
420
  2299925
370
     9
100
AcDbLine
 10
90.02246726254346
 20
-156.1067978417671
 30
0.0
 11
94.02240281709891
 21
-156.1067978417671
 31
0.0
  0
ENDBLK
  5
E3
330
E0
100
AcDbEntity
  8
0
100
AcDbBlockEnd
  0
BLOCK
  5
E9
330
E7
100
AcDbEntity
  8
0
100
AcDbBlockBegin
  2
Block_12
 70
     0
 10
0.0
 20
0.0
 30
0.0
  3
Block_12
  1

  0
LINE
  5
EB
330
E7
100
AcDbEntity
  8
レイヤー 1
 62
    18
420
        0
370
     9
100
AcDbLine
 10
107.1730637616964
 20
-150.2137379643345
 30
0.0
 11
106.9062189038354
 21
-149.2499657310635
 31
0.0
  0
LINE
  5
EC
330
E7
100
AcDbEntity
  8
レイヤー 1
 62
    18
420
        0
370
     9
100
AcDbLine
 10
107.1730637616964
 20
-150.2137379643345
 30
0.0
 11
107.1386295543193
 21
-148.5997774015304
 31
0.0
  0
LINE
  5
ED
330
E7
100
AcDbEntity
  8
レイヤー 1
 62
    18
420
        0
370
     9
100
AcDbLine
 10
107.1730637616964
 20
-150.2137379643345
 30
0.0
 11
107.4239118392017
 21
-149.2455575089477
 31
0.0
  0
ENDBLK
  5
EA
330
E7
100
AcDbEntity
  8
0
100
AcDbBlockEnd
  0
BLOCK
  5
F0
330
EE
100
AcDbEntity
  8
0
100
AcDbBlockBegin
  2
Block_13
 70
     0
 10
0.0
 20
0.0
 30
0.0
  3
Block_13
  1

  0
INSERT
  5
F3
330
EE
100
AcDbEntity
  8
レイヤー 1
100
AcDbBlockReference
  2
Block_14
 10
0.0
 20
0.0
 30
0.0
  0
ENDBLK
  5
F1
330
EE
100
AcDbEntity
  8
0
100
AcDbBlockEnd
  0
BLOCK
  5
F4
330
F2
100
AcDbEntity
  8
0
100
AcDbBlockBegin
  2
Block_14
 70
     0
 10
0.0
 20
0.0
 30
0.0
  3
Block_14
  1

  0
SPLINE
  5
F6
330
F2
100
AcDbEntity
  8
レイヤー 1
100
AcDbSpline
210
0.0
220
0.0
230
1.0
 70
     9
 71
     3
 72
    17
 73
    13
 74
     0
 42
0.0000000001
 43
0.0000000001
 40
0.0
 40
0.0
 40
0.0
 40
0.0
 40
1.0
 40
1.0
 40
1.0
 40
2.0
 40
2.0
 40
2.0
 40
3.0
 40
3.0
 40
3.0
 40
4.0
 40
4.0
 40
4.0
 40
4.0
 10
103.1869832098803
 20
-147.5334580794361
 30
0.0
 10
103.1699299872283
 20
-147.562913645835
 30
0.0
 10
103.1192870835952
 20
-147.656103478711
 30
0.0
 10
103.1086072875909
 20
-147.6750515038798
 30
0.0
 10
103.2989488131509
 20
-147.7343071462261
 30
0.0
 10
103.3201361503852
 20
-147.7406805728738
 30
0.0
 10
103.3921386460269
 20
-147.7682413367558
 30
0.0
 10
103.4470879190167
 20
-147.6814249305275
 30
0.0
 10
103.4703423135421
 20
-147.6073553775947
 30
0.0
 10
103.4851562241287
 20
-147.5334580794361
 30
0.0
 10
103.4851562241287
 20
-147.5334580794361
 30
0.0
 10
103.1869832098803
 20
-147.5334580794361
 30
0.0
 10
103.1869832098803
 20
-147.5334580794361
 30
0.0
  0
SPLINE
  5
F7
330
F2
100
AcDbEntity
  8
レイヤー 1
100
AcDbSpline
210
0.0
220
0.0
230
1.0
 70
    11
 71
     3
 72
    20
 73
    16
 74
     0
 42
0.0000000001
 43
0.0000000001
 40
0.0
 40
0.0
 40
0.0
 40
0.0
 40
1.0
 40
1.0
 40
1.0
 40
2.0
 40
2.0
 40
2.0
 40
3.0
 40
3.0
 40
3.0
 40
4.0
 40
4.0
 40
4.0
 40
5.0
 40
5.0
 40
5.0
 40
5.0
 10
103.1234211981775
 20
-146.6830362589021
 30
0.0
 10
103.1234211981775
 20
-146.6830362589021
 30
0.0
 10
103.0917263197132
 20
-146.6830362589021
 30
0.0
 10
103.0917263197132
 20
-146.6830362589021
 30
0.0
 10
103.138235108764
 20
-146.7824272636516
 30
0.0
 10
103.1699299872283
 20
-146.8626979884579
 30
0.0
 10
103.203864177758
 20
-146.9896497570894
 30
0.0
 10
103.203864177758
 20
-146.9896497570894
 30
0.0
 10
103.4110866711958
 20
-146.9896497570894
 30
0.0
 10
103.4110866711958
 20
-146.9896497570894
 30
0.0
 10
103.4429538044344
 20
-146.8966321789876
 30
0.0
 10
103.4662081989598
 20
-146.8120550848247
 30
0.0
 10
103.4894625934853
 20
-146.6830362589021
 30
0.0
 10
103.4894625934853
 20
-146.6830362589021
 30
0.0
 10
103.1234211981775
 20
-146.6830362589021
 30
0.0
 10
103.1234211981775
 20
-146.6830362589021
 30
0.0
  0
SPLINE
  5
F8
330
F2
100
AcDbEntity
  8
レイヤー 1
100
AcDbSpline
210
0.0
220
0.0
230
1.0
 70
     9
 71
     3
 72
   242
 73
   238
 74
     0
 42
0.0000000001
 43
0.0000000001
 40
0.0
 40
0.0
 40
0.0
 40
0.0
 40
1.0
 40
1.0
 40
1.0
 40
2.0
 40
2.0
 40
2.0
 40
3.0
 40
3.0
 40
3.0
 40
4.0
 40
4.0
 40
4.0
 40
5.0
 40
5.0
 40
5.0
 40
6.0
 40
6.0
 40
6.0
 40
7.0
 40
7.0
 40
7.0
 40
8.0
 40
8.0
 40
8.0
 40
9.0
 40
9.0
 40
9.0
 40
10.0
 40
10.0
 40
10.0
 40
11.0
 40
11.0
 40
11.0
 40
12.0
 40
12.0
 40
12.0
 40
13.0
 40
13.0
 40
13.0
 40
14.0
 40
14.0
 40
14.0
 40
15.0
 40
15.0
 40
15.0
 40
16.0
 40
16.0
 40
16.0
 40
17.0
 40
17.0
 40
17.0
 40
18.0
 40
18.0
 40
18.0
 40
19.0
 40
19.0
 40
19.0
 40
20.0
 40
20.0
 40
20.0
 40
21.0
 40
21.0
 40
21.0
 40
22.0
 40
22.0
 40
22.0
 40
23.0
 40
23.0
 40
23.0
 40
24.0
 40
24.0
 40
24.0
 40
25.0
 40
25.0
 40
25.0
 40
26.0
 40
26.0
 40
26.0
 40
27.0
 40
27.0
 40
27.0
 40
28.0
 40
28.0
 40
28.0
 40
29.0
 40
29.0
 40
29.0
 40
30.0
 40
30.0
 40
30.0
 40
31.0
 40
31.0
 40
31.0
 40
32.0
 40
32.0
 40
32.0
 40
33.0
 40
33.0
 40
33.0
 40
34.0
 40
34.0
 40
34.0
 40
35.0
 40
35.0
 40
35.0
 40
36.0
 40
36.0
 40
36.0
 40
37.0
 40
37.0
 40
37.0
 40
38.0
 40
38.0
 40
38.0
 40
39.0
 40
39.0
 40
39.0
 40
40.0
 40
40.0
 40
40.0
 40
41.0
 40
41.0
 40
41.0
 40
42.0
 40
42.0
 40
42.0
 40
43.0
 40
43.0
 40
43.0
 40
44.0
 40
44.0
 40
44.0
 40
45.0
 40
45.0
 40
45.0
 40
46.0
 40
46.0
 40
46.0
 40
47.0
 40
47.0
 40
47.0
 40
48.0
 40
48.0
 40
48.0
 40
49.0
 40
49.0
 40
49.0
 40
50.0
 40
50.0
 40
50.0
 40
51.0
 40
51.0
 40
51.0
 40
52.0
 40
52.0
 40
52.0
 40
53.0
 40
53.0
 40
53.0
 40
54.0
 40
54.0
 40
54.0
 40
55.0
 40
55.0
 40
55.0
 40
56.0
 40
56.0
 40
56.0
 40
57.0
 40
57.0
 40
57.0
 40
58.0
 40
58.0
 40
58.0
 40
59.0
 40
59.0
 40
59.0
 40
60.0
 40
60.0
 40
60.0
 40
61.0
 40
61.0
 40
61.0
 40
62.0
 40
62.0
 40
62.0
 40
63.0
 40
63.0
 40
63.0
 40
64.0
 40
64.0
 40
64.0
 40
65.0
 40
65.0
 40
65.0
 40
66.0
 40
66.0
 40
66.0
 40
67.0
 40
67.0
 40
67.0
 40
68.0
 40
68.0
 40
68.0
 40
69.0
 40
69.0
 40
69.0
 40
70.0
 40
70.0
 40
70.0
 40
71.0
 40
71.0
 40
71.0
 40
72.0
 40
72.0
 40
72.0
 40
73.0
 40
73.0
 40
73.0
 40
74.0
 40
74.0
 40
74.0
 40
75.0
 40
75.0
 40
75.0
 40
76.0
 40
76.0
 40
76.0
 40
77.0
 40
77.0
 40
77.0
 40
78.0
 40
78.0
 40
78.0
 40
79.0
 40
79.0
 40
79.0
 40
79.0
 10
103.751806614687
 20
-147.1482964041851
 30
0.0
 10
103.751806614687
 20
-147.1482964041851
 30
0.0
 10
103.4979030774241
 20
-147.1482964041851
 30
0.0
 10
103.4979030774241
 20
-147.1482964041851
 30
0.0
 10
103.4979030774241
 20
-147.1482964041851
 30
0.0
 10
103.2207451456358
 20
-147.1482964041851
 30
0.0
 10
103.2207451456358
 20
-147.1482964041851
 30
0.0
 10
103.2207451456358
 20
-147.1482964041851
 30
0.0
 10
103.3476969142672
 20
-147.1906710786537
 30
0.0
 10
103.3476969142672
 20
-147.1906710786537
 30
0.0
 10
103.3582044554972
 20
-147.1949774480103
 30
0.0
 10
103.3709513087927
 20
-147.2011786198837
 30
0.0
 10
103.3709513087927
 20
-147.2139254731791
 30
0.0
 10
103.3709513087927
 20
-147.2351128104134
 30
0.0
 10
103.3392564303284
 20
-147.2414862370611
 30
0.0
 10
103.3180690930941
 20
-147.2456203516434
 30
0.0
 10
103.3075615518641
 20
-147.2688747461689
 30
0.0
 10
103.2779337306909
 20
-147.3345038151629
 30
0.0
 10
103.2588134507478
 20
-147.3789455469226
 30
0.0
 10
103.2588134507478
 20
-147.3789455469226
 30
0.0
 10
103.5295979558884
 20
-147.3789455469226
 30
0.0
 10
103.5295979558884
 20
-147.3789455469226
 30
0.0
 10
103.620548476699
 20
-147.3789455469226
 30
0.0
 10
103.8172634289068
 20
-147.3746391775661
 30
0.0
 10
103.9590291081248
 20
-147.3661986936272
 30
0.0
 10
103.9590291081248
 20
-147.3661986936272
 30
0.0
 10
103.9590291081248
 20
-147.5439656206661
 30
0.0
 10
103.9590291081248
 20
-147.5439656206661
 30
0.0
 10
103.8765190712531
 20
-147.5396592513095
 30
0.0
 10
103.8553317340188
 20
-147.5396592513095
 30
0.0
 10
103.6754977496888
 20
-147.5355251367272
 30
0.0
 10
103.6438028712244
 20
-147.6898654144664
 30
0.0
 10
103.5993611394647
 20
-147.770308394047
 30
0.0
 10
103.554919407705
 20
-147.8400715776233
 30
0.0
 10
103.6754977496888
 20
-147.8993272199696
 30
0.0
 10
103.7814344358602
 20
-147.9670233462548
 30
0.0
 10
103.8849595551919
 20
-148.0495333831265
 30
0.0
 10
103.8849595551919
 20
-148.0495333831265
 30
0.0
 10
103.7666205252736
 20
-148.2166205141611
 30
0.0
 10
103.7666205252736
 20
-148.2166205141611
 30
0.0
 10
103.7433661307482
 20
-148.1976724889922
 30
0.0
 10
103.7306192774527
 20
-148.1892320050534
 30
0.0
 10
103.6184814194079
 20
-148.1044826561162
 30
0.0
 10
103.5697333182916
 20
-148.0664143510042
 30
0.0
 10
103.5106499307195
 20
-148.0305853579576
 30
0.0
 10
103.430206951139
 20
-147.9861436261979
 30
0.0
 10
103.2186780883446
 20
-148.1723510371756
 30
0.0
 10
103.0133503974237
 20
-148.1956054317011
 30
0.0
 10
102.7236178671142
 20
-148.2252332528742
 30
0.0
 10
102.7236178671142
 20
-148.2252332528742
 30
0.0
 10
102.6199204930082
 20
-148.0453992685442
 30
0.0
 10
102.6199204930082
 20
-148.0453992685442
 30
0.0
 10
102.9372137871997
 20
-148.0410928991876
 30
0.0
 10
103.1129136569475
 20
-148.015771447371
 30
0.0
 10
103.2651868773955
 20
-147.9057006466173
 30
0.0
 10
103.1466755927029
 20
-147.8548854882099
 30
0.0
 10
103.0577921291834
 20
-147.8274969791021
 30
0.0
 10
103.0219631361368
 20
-147.8147501258067
 30
0.0
 10
103.0028428561937
 20
-147.8423108896887
 30
0.0
 10
102.9880289456071
 20
-147.8612589148576
 30
0.0
 10
102.9604681817251
 20
-147.8951931053873
 30
0.0
 10
102.9604681817251
 20
-147.8951931053873
 30
0.0
 10
102.7637532295174
 20
-147.8126830685156
 30
0.0
 10
102.7637532295174
 20
-147.8126830685156
 30
0.0
 10
102.8462632663891
 20
-147.732240088935
 30
0.0
 10
102.9075859660266
 20
-147.6369831987678
 30
0.0
 10
102.9647745510817
 20
-147.5355251367272
 30
0.0
 10
102.7744330255216
 20
-147.5396592513095
 30
0.0
 10
102.7532456882874
 20
-147.5396592513095
 30
0.0
 10
102.6707356514156
 20
-147.5439656206661
 30
0.0
 10
102.6707356514156
 20
-147.5439656206661
 30
0.0
 10
102.6707356514156
 20
-147.3661986936272
 30
0.0
 10
102.6707356514156
 20
-147.3661986936272
 30
0.0
 10
102.8102620185682
 20
-147.3725721202749
 30
0.0
 10
103.0197238240714
 20
-147.3768784896314
 30
0.0
 10
103.0452175306623
 20
-147.3768784896314
 30
0.0
 10
103.06209849854
 20
-147.3429442991017
 30
0.0
 10
103.1170477715297
 20
-147.222365957118
 30
0.0
 10
103.1361680514729
 20
-147.1482964041851
 30
0.0
 10
103.1170477715297
 20
-147.1482964041851
 30
0.0
 10
102.9394530992651
 20
-147.1546698308328
 30
0.0
 10
102.7448052043485
 20
-147.1674166841283
 30
0.0
 10
102.7448052043485
 20
-147.1674166841283
 30
0.0
 10
102.7448052043485
 20
-147.3007418794074
 30
0.0
 10
102.7448052043485
 20
-147.3007418794074
 30
0.0
 10
102.6960571032322
 20
-147.326063331224
 30
0.0
 10
102.6368014608859
 20
-147.3577582096883
 30
0.0
 10
102.503648520381
 20
-147.4233872786823
 30
0.0
 10
102.503648520381
 20
-147.4233872786823
 30
0.0
 10
102.503648520381
 20
-147.5692870724827
 30
0.0
 10
102.503648520381
 20
-147.5692870724827
 30
0.0
 10
102.503648520381
 20
-147.5692870724827
 30
0.0
 10
102.503648520381
 20
-148.0369587846053
 30
0.0
 10
102.503648520381
 20
-148.0369587846053
 30
0.0
 10
102.503648520381
 20
-148.1637382984625
 30
0.0
 10
102.4676472725601
 20
-148.2229939408088
 30
0.0
 10
102.1841159141241
 20
-148.21455345687
 30
0.0
 10
102.1841159141241
 20
-148.21455345687
 30
0.0
 10
102.0804185400181
 20
-148.0073309634322
 30
0.0
 10
102.0804185400181
 20
-148.0073309634322
 30
0.0
 10
102.1439805517209
 20
-148.0199055619533
 30
0.0
 10
102.1925563980629
 20
-148.0242119313099
 30
0.0
 10
102.2328640152404
 20
-148.0242119313099
 30
0.0
 10
102.3090006254644
 20
-148.0242119313099
 30
0.0
 10
102.3195081666944
 20
-148.0009575367845
 30
0.0
 10
102.3195081666944
 20
-147.9353284677904
 30
0.0
 10
102.3195081666944
 20
-147.9353284677904
 30
0.0
 10
102.3195081666944
 20
-147.505897315554
 30
0.0
 10
102.3195081666944
 20
-147.505897315554
 30
0.0
 10
102.2221842192361
 20
-147.5460326779572
 30
0.0
 10
102.2053032513584
 20
-147.5524061046049
 30
0.0
 10
102.1587944623075
 20
-147.5715263845481
 30
0.0
 10
102.154488092951
 20
-147.5925414670081
 30
0.0
 10
102.1503539783686
 20
-147.6221692881813
 30
0.0
 10
102.1312336984255
 20
-147.6221692881813
 30
0.0
 10
102.1227932144866
 20
-147.6221692881813
 30
0.0
 10
102.1122856732566
 20
-147.6180351735989
 30
0.0
 10
102.1059122466089
 20
-147.5947807790735
 30
0.0
 10
102.1059122466089
 20
-147.5947807790735
 30
0.0
 10
102.0530300309103
 20
-147.402199941448
 30
0.0
 10
102.0530300309103
 20
-147.402199941448
 30
0.0
 10
102.1989298247107
 20
-147.3556911523972
 30
0.0
 10
102.2645588937047
 20
-147.3324367578717
 30
0.0
 10
102.3195081666944
 20
-147.3112494206374
 30
0.0
 10
102.3195081666944
 20
-147.3112494206374
 30
0.0
 10
102.3195081666944
 20
-146.8986992362788
 30
0.0
 10
102.3195081666944
 20
-146.8986992362788
 30
0.0
 10
102.3195081666944
 20
-146.8986992362788
 30
0.0
 10
102.2666259509958
 20
-146.8986992362788
 30
0.0
 10
102.2666259509958
 20
-146.8986992362788
 30
0.0
 10
102.2666259509958
 20
-146.8986992362788
 30
0.0
 10
102.1884222834807
 20
-146.8986992362788
 30
0.0
 10
102.1884222834807
 20
-146.8986992362788
 30
0.0
 10
102.1207261571955
 20
-146.8986992362788
 30
0.0
 10
102.1122856732566
 20
-146.8986992362788
 30
0.0
 10
102.0762844254358
 20
-146.9050726629265
 30
0.0
 10
102.0762844254358
 20
-146.9050726629265
 30
0.0
 10
102.0762844254358
 20
-146.7104247680099
 30
0.0
 10
102.0762844254358
 20
-146.7104247680099
 30
0.0
 10
102.1038451893178
 20
-146.7167981946576
 30
0.0
 10
102.1122856732566
 20
-146.7167981946576
 30
0.0
 10
102.1820488568329
 20
-146.7167981946576
 30
0.0
 10
102.1820488568329
 20
-146.7167981946576
 30
0.0
 10
102.3153740521121
 20
-146.7167981946576
 30
0.0
 10
102.3153740521121
 20
-146.7167981946576
 30
0.0
 10
102.3153740521121
 20
-146.6470350110813
 30
0.0
 10
102.3153740521121
 20
-146.5645249742095
 30
0.0
 10
102.3131347400467
 20
-146.560218604853
 30
0.0
 10
102.3046942561078
 20
-146.3803846205229
 30
0.0
 10
102.3046942561078
 20
-146.3614365953541
 30
0.0
 10
102.3026271988167
 20
-146.3149278063032
 30
0.0
 10
102.3026271988167
 20
-146.3149278063032
 30
0.0
 10
102.5184624309676
 20
-146.3233682902421
 30
0.0
 10
102.5184624309676
 20
-146.3233682902421
 30
0.0
 10
102.5289699721976
 20
-146.3233682902421
 30
0.0
 10
102.5501573094319
 20
-146.3254353475332
 30
0.0
 10
102.5501573094319
 20
-146.3423163154109
 30
0.0
 10
102.5501573094319
 20
-146.3614365953541
 30
0.0
 10
102.5353433988453
 20
-146.3719441365841
 30
0.0
 10
102.5100219470287
 20
-146.3910644165272
 30
0.0
 10
102.5100219470287
 20
-146.4417073201604
 30
0.0
 10
102.503648520381
 20
-146.6702894056067
 30
0.0
 10
102.5057155776722
 20
-146.7167981946576
 30
0.0
 10
102.6347344035948
 20
-146.7167981946576
 30
0.0
 10
102.6474812568902
 20
-146.7167981946576
 30
0.0
 10
102.7448052043485
 20
-146.7083577107187
 30
0.0
 10
102.7448052043485
 20
-146.7083577107187
 30
0.0
 10
102.7448052043485
 20
-146.9030056056354
 30
0.0
 10
102.7448052043485
 20
-146.9030056056354
 30
0.0
 10
102.7067368992365
 20
-146.9007662935699
 30
0.0
 10
102.6390407729513
 20
-146.8966321789876
 30
0.0
 10
102.503648520381
 20
-146.8986992362788
 30
0.0
 10
102.503648520381
 20
-146.8986992362788
 30
0.0
 10
102.503648520381
 20
-147.2371798677046
 30
0.0
 10
102.503648520381
 20
-147.2371798677046
 30
0.0
 10
102.5585977933707
 20
-147.2139254731791
 30
0.0
 10
102.6242268623648
 20
-147.1863647092971
 30
0.0
 10
102.6728027087068
 20
-147.1631103147717
 30
0.0
 10
102.6728027087068
 20
-147.1631103147717
 30
0.0
 10
102.6728027087068
 20
-146.9855156425071
 30
0.0
 10
102.6728027087068
 20
-146.9855156425071
 30
0.0
 10
102.7870076240428
 20
-146.9980902410282
 30
0.0
 10
102.9055189087354
 20
-146.9980902410282
 30
0.0
 10
103.0219631361368
 20
-146.9980902410282
 30
0.0
 10
102.9985364868372
 20
-146.9030056056354
 30
0.0
 10
102.9711479777294
 20
-146.8204955687636
 30
0.0
 10
102.9075859660266
 20
-146.6871703734844
 30
0.0
 10
102.8631442342668
 20
-146.6892374307756
 30
0.0
 10
102.7808064521694
 20
-146.6935438001321
 30
0.0
 10
102.7425658922831
 20
-146.6956108574233
 30
0.0
 10
102.7425658922831
 20
-146.6956108574233
 30
0.0
 10
102.7425658922831
 20
-146.5157768730932
 30
0.0
 10
102.7425658922831
 20
-146.5157768730932
 30
0.0
 10
102.8674506036234
 20
-146.5242173570321
 30
0.0
 10
103.0409111613057
 20
-146.5285237263887
 30
0.0
 10
103.1234211981775
 20
-146.5285237263887
 30
0.0
 10
103.1234211981775
 20
-146.5285237263887
 30
0.0
 10
103.2059312350492
 20
-146.5285237263887
 30
0.0
 10
103.2059312350492
 20
-146.5285237263887
 30
0.0
 10
103.2059312350492
 20
-146.3655707099364
 30
0.0
 10
103.2059312350492
 20
-146.3550631687064
 30
0.0
 10
103.203864177758
 20
-146.3001138957166
 30
0.0
 10
103.203864177758
 20
-146.3001138957166
 30
0.0
 10
103.4281398938478
 20
-146.3254353475332
 30
0.0
 10
103.4281398938478
 20
-146.3254353475332
 30
0.0
 10
103.4322740084301
 20
-146.3254353475332
 30
0.0
 10
103.4534613456644
 20
-146.3275024048243
 30
0.0
 10
103.4534613456644
 20
-146.3443833727021
 30
0.0
 10
103.4534613456644
 20
-146.3591972832887
 30
0.0
 10
103.4429538044344
 20
-146.3678100220018
 30
0.0
 10
103.4153930405524
 20
-146.3826239325884
 30
0.0
 10
103.4090196139047
 20
-146.4480807468081
 30
0.0
 10
103.4069525566135
 20
-146.4692680840424
 30
0.0
 10
103.4069525566135
 20
-146.5285237263887
 30
0.0
 10
103.4069525566135
 20
-146.5285237263887
 30
0.0
 10
103.5020371920064
 20
-146.5285237263887
 30
0.0
 10
103.5020371920064
 20
-146.5285237263887
 30
0.0
 10
103.5845472288781
 20
-146.5285237263887
 30
0.0
 10
103.7580077865605
 20
-146.5242173570321
 30
0.0
 10
103.8828924979008
 20
-146.5157768730932
 30
0.0
 10
103.8828924979008
 20
-146.5157768730932
 30
0.0
 10
103.8828924979008
 20
-146.6956108574233
 30
0.0
 10
103.8828924979008
 20
-146.6956108574233
 30
0.0
 10
103.8532646767276
 20
-146.6935438001321
 30
0.0
 10
103.734753392035
 20
-146.6892374307756
 30
0.0
 10
103.6946180296319
 20
-146.6871703734844
 30
0.0
 10
103.6798041190453
 20
-146.7379855318919
 30
0.0
 10
103.6460421832898
 20
-146.8501233899368
 30
0.0
 10
103.5804131142959
 20
-146.9896497570894
 30
0.0
 10
103.6226155339902
 20
-146.9896497570894
 30
0.0
 10
103.8997734657785
 20
-146.9707017319205
 30
0.0
 10
103.961096165416
 20
-146.9684624198551
 30
0.0
 10
103.961096165416
 20
-146.9684624198551
 30
0.0
 10
103.961096165416
 20
-147.1526027735417
 30
0.0
 10
103.961096165416
 20
-147.1526027735417
 30
0.0
 10
103.9316405990171
 20
-147.1526027735417
 30
0.0
 10
103.9145873763651
 20
-147.1482964041851
 30
0.0
 10
103.751806614687
 20
-147.1482964041851
 30
0.0
  0
HATCH
  5
F9
330
F2
100
AcDbEntity
  8
レイヤー 1
 62
    18
420
        0
440
 33554687
100
AcDbHatch
 10
0.0
 20
0.0
 30
0.0
210
0.0
220
0.0
230
1.0
  2
SOLID
 70
     1
 71
     1
 91
        3
 92
        1
 93
        1
 72
     4
 94
        3
 73
     0
 74
     0
 95
       17
 96
       13
 40
0.0
 40
0.0
 40
0.0
 40
0.0
 40
1.0
 40
1.0
 40
1.0
 40
2.0
 40
2.0
 40
2.0
 40
3.0
 40
3.0
 40
3.0
 40
4.0
 40
4.0
 40
4.0
 40
4.0
 10
103.1869832098803
 20
-147.5334580794361
 10
103.1699299872283
 20
-147.562913645835
 10
103.1192870835952
 20
-147.656103478711
 10
103.1086072875909
 20
-147.6750515038798
 10
103.2989488131509
 20
-147.7343071462261
 10
103.3201361503852
 20
-147.7406805728738
 10
103.3921386460269
 20
-147.7682413367558
 10
103.4470879190167
 20
-147.6814249305275
 10
103.4703423135421
 20
-147.6073553775947
 10
103.4851562241287
 20
-147.5334580794361
 10
103.4851562241287
 20
-147.5334580794361
 10
103.1869832098803
 20
-147.5334580794361
 10
103.1869832098803
 20
-147.5334580794361
 97
        0
 97
        1
330
F6
 92
        1
 93
        1
 72
     4
 94
        3
 73
     0
 74
     0
 95
       20
 96
       16
 40
0.0
 40
0.0
 40
0.0
 40
0.0
 40
1.0
 40
1.0
 40
1.0
 40
2.0
 40
2.0
 40
2.0
 40
3.0
 40
3.0
 40
3.0
 40
4.0
 40
4.0
 40
4.0
 40
5.0
 40
5.0
 40
5.0
 40
5.0
 10
103.1234211981775
 20
-146.6830362589021
 10
103.1234211981775
 20
-146.6830362589021
 10
103.0917263197132
 20
-146.6830362589021
 10
103.0917263197132
 20
-146.6830362589021
 10
103.138235108764
 20
-146.7824272636516
 10
103.1699299872283
 20
-146.8626979884579
 10
103.203864177758
 20
-146.9896497570894
 10
103.203864177758
 20
-146.9896497570894
 10
103.4110866711958
 20
-146.9896497570894
 10
103.4110866711958
 20
-146.9896497570894
 10
103.4429538044344
 20
-146.8966321789876
 10
103.4662081989598
 20
-146.8120550848247
 10
103.4894625934853
 20
-146.6830362589021
 10
103.4894625934853
 20
-146.6830362589021
 10
103.1234211981775
 20
-146.6830362589021
 10
103.1234211981775
 20
-146.6830362589021
 97
        0
 97
        1
330
F7
 92
        1
 93
        1
 72
     4
 94
        3
 73
     0
 74
     0
 95
      242
 96
      238
 40
0.0
 40
0.0
 40
0.0
 40
0.0
 40
1.0
 40
1.0
 40
1.0
 40
2.0
 40
2.0
 40
2.0
 40
3.0
 40
3.0
 40
3.0
 40
4.0
 40
4.0
 40
4.0
 40
5.0
 40
5.0
 40
5.0
 40
6.0
 40
6.0
 40
6.0
 40
7.0
 40
7.0
 40
7.0
 40
8.0
 40
8.0
 40
8.0
 40
9.0
 40
9.0
 40
9.0
 40
10.0
 40
10.0
 40
10.0
 40
11.0
 40
11.0
 40
11.0
 40
12.0
 40
12.0
 40
12.0
 40
13.0
 40
13.0
 40
13.0
 40
14.0
 40
14.0
 40
14.0
 40
15.0
 40
15.0
 40
15.0
 40
16.0
 40
16.0
 40
16.0
 40
17.0
 40
17.0
 40
17.0
 40
18.0
 40
18.0
 40
18.0
 40
19.0
 40
19.0
 40
19.0
 40
20.0
 40
20.0
 40
20.0
 40
21.0
 40
21.0
 40
21.0
 40
22.0
 40
22.0
 40
22.0
 40
23.0
 40
23.0
 40
23.0
 40
24.0
 40
24.0
 40
24.0
 40
25.0
 40
25.0
 40
25.0
 40
26.0
 40
26.0
 40
26.0
 40
27.0
 40
27.0
 40
27.0
 40
28.0
 40
28.0
 40
28.0
 40
29.0
 40
29.0
 40
29.0
 40
30.0
 40
30.0
 40
30.0
 40
31.0
 40
31.0
 40
31.0
 40
32.0
 40
32.0
 40
32.0
 40
33.0
 40
33.0
 40
33.0
 40
34.0
 40
34.0
 40
34.0
 40
35.0
 40
35.0
 40
35.0
 40
36.0
 40
36.0
 40
36.0
 40
37.0
 40
37.0
 40
37.0
 40
38.0
 40
38.0
 40
38.0
 40
39.0
 40
39.0
 40
39.0
 40
40.0
 40
40.0
 40
40.0
 40
41.0
 40
41.0
 40
41.0
 40
42.0
 40
42.0
 40
42.0
 40
43.0
 40
43.0
 40
43.0
 40
44.0
 40
44.0
 40
44.0
 40
45.0
 40
45.0
 40
45.0
 40
46.0
 40
46.0
 40
46.0
 40
47.0
 40
47.0
 40
47.0
 40
48.0
 40
48.0
 40
48.0
 40
49.0
 40
49.0
 40
49.0
 40
50.0
 40
50.0
 40
50.0
 40
51.0
 40
51.0
 40
51.0
 40
52.0
 40
52.0
 40
52.0
 40
53.0
 40
53.0
 40
53.0
 40
54.0
 40
54.0
 40
54.0
 40
55.0
 40
55.0
 40
55.0
 40
56.0
 40
56.0
 40
56.0
 40
57.0
 40
57.0
 40
57.0
 40
58.0
 40
58.0
 40
58.0
 40
59.0
 40
59.0
 40
59.0
 40
60.0
 40
60.0
 40
60.0
 40
61.0
 40
61.0
 40
61.0
 40
62.0
 40
62.0
 40
62.0
 40
63.0
 40
63.0
 40
63.0
 40
64.0
 40
64.0
 40
64.0
 40
65.0
 40
65.0
 40
65.0
 40
66.0
 40
66.0
 40
66.0
 40
67.0
 40
67.0
 40
67.0
 40
68.0
 40
68.0
 40
68.0
 40
69.0
 40
69.0
 40
69.0
 40
70.0
 40
70.0
 40
70.0
 40
71.0
 40
71.0
 40
71.0
 40
72.0
 40
72.0
 40
72.0
 40
73.0
 40
73.0
 40
73.0
 40
74.0
 40
74.0
 40
74.0
 40
75.0
 40
75.0
 40
75.0
 40
76.0
 40
76.0
 40
76.0
 40
77.0
 40
77.0
 40
77.0
 40
78.0
 40
78.0
 40
78.0
 40
79.0
 40
79.0
 40
79.0
 40
79.0
 10
103.751806614687
 20
-147.1482964041851
 10
103.751806614687
 20
-147.1482964041851
 10
103.4979030774241
 20
-147.1482964041851
 10
103.4979030774241
 20
-147.1482964041851
 10
103.4979030774241
 20
-147.1482964041851
 10
103.2207451456358
 20
-147.1482964041851
 10
103.2207451456358
 20
-147.1482964041851
 10
103.2207451456358
 20
-147.1482964041851
 10
103.3476969142672
 20
-147.1906710786537
 10
103.3476969142672
 20
-147.1906710786537
 10
103.3582044554972
 20
-147.1949774480103
 10
103.3709513087927
 20
-147.2011786198837
 10
103.3709513087927
 20
-147.2139254731791
 10
103.3709513087927
 20
-147.2351128104134
 10
103.3392564303284
 20
-147.2414862370611
 10
103.3180690930941
 20
-147.2456203516434
 10
103.3075615518641
 20
-147.2688747461689
 10
103.2779337306909
 20
-147.3345038151629
 10
103.2588134507478
 20
-147.3789455469226
 10
103.2588134507478
 20
-147.3789455469226
 10
103.5295979558884
 20
-147.3789455469226
 10
103.5295979558884
 20
-147.3789455469226
 10
103.620548476699
 20
-147.3789455469226
 10
103.8172634289068
 20
-147.3746391775661
 10
103.9590291081248
 20
-147.3661986936272
 10
103.9590291081248
 20
-147.3661986936272
 10
103.9590291081248
 20
-147.5439656206661
 10
103.9590291081248
 20
-147.5439656206661
 10
103.8765190712531
 20
-147.5396592513095
 10
103.8553317340188
 20
-147.5396592513095
 10
103.6754977496888
 20
-147.5355251367272
 10
103.6438028712244
 20
-147.6898654144664
 10
103.5993611394647
 20
-147.770308394047
 10
103.554919407705
 20
-147.8400715776233
 10
103.6754977496888
 20
-147.8993272199696
 10
103.7814344358602
 20
-147.9670233462548
 10
103.8849595551919
 20
-148.0495333831265
 10
103.8849595551919
 20
-148.0495333831265
 10
103.7666205252736
 20
-148.2166205141611
 10
103.7666205252736
 20
-148.2166205141611
 10
103.7433661307482
 20
-148.1976724889922
 10
103.7306192774527
 20
-148.1892320050534
 10
103.6184814194079
 20
-148.1044826561162
 10
103.5697333182916
 20
-148.0664143510042
 10
103.5106499307195
 20
-148.0305853579576
 10
103.430206951139
 20
-147.9861436261979
 10
103.2186780883446
 20
-148.1723510371756
 10
103.0133503974237
 20
-148.1956054317011
 10
102.7236178671142
 20
-148.2252332528742
 10
102.7236178671142
 20
-148.2252332528742
 10
102.6199204930082
 20
-148.0453992685442
 10
102.6199204930082
 20
-148.0453992685442
 10
102.9372137871997
 20
-148.0410928991876
 10
103.1129136569475
 20
-148.015771447371
 10
103.2651868773955
 20
-147.9057006466173
 10
103.1466755927029
 20
-147.8548854882099
 10
103.0577921291834
 20
-147.8274969791021
 10
103.0219631361368
 20
-147.8147501258067
 10
103.0028428561937
 20
-147.8423108896887
 10
102.9880289456071
 20
-147.8612589148576
 10
102.9604681817251
 20
-147.8951931053873
 10
102.9604681817251
 20
-147.8951931053873
 10
102.7637532295174
 20
-147.8126830685156
 10
102.7637532295174
 20
-147.8126830685156
 10
102.8462632663891
 20
-147.732240088935
 10
102.9075859660266
 20
-147.6369831987678
 10
102.9647745510817
 20
-147.5355251367272
 10
102.7744330255216
 20
-147.5396592513095
 10
102.7532456882874
 20
-147.5396592513095
 10
102.6707356514156
 20
-147.5439656206661
 10
102.6707356514156
 20
-147.5439656206661
 10
102.6707356514156
 20
-147.3661986936272
 10
102.6707356514156
 20
-147.3661986936272
 10
102.8102620185682
 20
-147.3725721202749
 10
103.0197238240714
 20
-147.3768784896314
 10
103.0452175306623
 20
-147.3768784896314
 10
103.06209849854
 20
-147.3429442991017
 10
103.1170477715297
 20
-147.222365957118
 10
103.1361680514729
 20
-147.1482964041851
 10
103.1170477715297
 20
-147.1482964041851
 10
102.9394530992651
 20
-147.1546698308328
 10
102.7448052043485
 20
-147.1674166841283
 10
102.7448052043485
 20
-147.1674166841283
 10
102.7448052043485
 20
-147.3007418794074
 10
102.7448052043485
 20
-147.3007418794074
 10
102.6960571032322
 20
-147.326063331224
 10
102.6368014608859
 20
-147.3577582096883
 10
102.503648520381
 20
-147.4233872786823
 10
102.503648520381
 20
-147.4233872786823
 10
102.503648520381
 20
-147.5692870724827
 10
102.503648520381
 20
-147.5692870724827
 10
102.503648520381
 20
-147.5692870724827
 10
102.503648520381
 20
-148.0369587846053
 10
102.503648520381
 20
-148.0369587846053
 10
102.503648520381
 20
-148.1637382984625
 10
102.4676472725601
 20
-148.2229939408088
 10
102.1841159141241
 20
-148.21455345687
 10
102.1841159141241
 20
-148.21455345687
 10
102.0804185400181
 20
-148.0073309634322
 10
102.0804185400181
 20
-148.0073309634322
 10
102.1439805517209
 20
-148.0199055619533
 10
102.1925563980629
 20
-148.0242119313099
 10
102.2328640152404
 20
-148.0242119313099
 10
102.3090006254644
 20
-148.0242119313099
 10
102.3195081666944
 20
-148.0009575367845
 10
102.3195081666944
 20
-147.9353284677904
 10
102.3195081666944
 20
-147.9353284677904
 10
102.3195081666944
 20
-147.505897315554
 10
102.3195081666944
 20
-147.505897315554
 10
102.2221842192361
 20
-147.5460326779572
 10
102.2053032513584
 20
-147.5524061046049
 10
102.1587944623075
 20
-147.5715263845481
 10
102.154488092951
 20
-147.5925414670081
 10
102.1503539783686
 20
-147.6221692881813
 10
102.1312336984255
 20
-147.6221692881813
 10
102.1227932144866
 20
-147.6221692881813
 10
102.1122856732566
 20
-147.6180351735989
 10
102.1059122466089
 20
-147.5947807790735
 10
102.1059122466089
 20
-147.5947807790735
 10
102.0530300309103
 20
-147.402199941448
 10
102.0530300309103
 20
-147.402199941448
 10
102.1989298247107
 20
-147.3556911523972
 10
102.2645588937047
 20
-147.3324367578717
 10
102.3195081666944
 20
-147.3112494206374
 10
102.3195081666944
 20
-147.3112494206374
 10
102.3195081666944
 20
-146.8986992362788
 10
102.3195081666944
 20
-146.8986992362788
 10
102.3195081666944
 20
-146.8986992362788
 10
102.2666259509958
 20
-146.8986992362788
 10
102.2666259509958
 20
-146.8986992362788
 10
102.2666259509958
 20
-146.8986992362788
 10
102.1884222834807
 20
-146.8986992362788
 10
102.1884222834807
 20
-146.8986992362788
 10
102.1207261571955
 20
-146.8986992362788
 10
102.1122856732566
 20
-146.8986992362788
 10
102.0762844254358
 20
-146.9050726629265
 10
102.0762844254358
 20
-146.9050726629265
 10
102.0762844254358
 20
-146.7104247680099
 10
102.0762844254358
 20
-146.7104247680099
 10
102.1038451893178
 20
-146.7167981946576
 10
102.1122856732566
 20
-146.7167981946576
 10
102.1820488568329
 20
-146.7167981946576
 10
102.1820488568329
 20
-146.7167981946576
 10
102.3153740521121
 20
-146.7167981946576
 10
102.3153740521121
 20
-146.7167981946576
 10
102.3153740521121
 20
-146.6470350110813
 10
102.3153740521121
 20
-146.5645249742095
 10
102.3131347400467
 20
-146.560218604853
 10
102.3046942561078
 20
-146.3803846205229
 10
102.3046942561078
 20
-146.3614365953541
 10
102.3026271988167
 20
-146.3149278063032
 10
102.3026271988167
 20
-146.3149278063032
 10
102.5184624309676
 20
-146.3233682902421
 10
102.5184624309676
 20
-146.3233682902421
 10
102.5289699721976
 20
-146.3233682902421
 10
102.5501573094319
 20
-146.3254353475332
 10
102.5501573094319
 20
-146.3423163154109
 10
102.5501573094319
 20
-146.3614365953541
 10
102.5353433988453
 20
-146.3719441365841
 10
102.5100219470287
 20
-146.3910644165272
 10
102.5100219470287
 20
-146.4417073201604
 10
102.503648520381
 20
-146.6702894056067
 10
102.5057155776722
 20
-146.7167981946576
 10
102.6347344035948
 20
-146.7167981946576
 10
102.6474812568902
 20
-146.7167981946576
 10
102.7448052043485
 20
-146.7083577107187
 10
102.7448052043485
 20
-146.7083577107187
 10
102.7448052043485
 20
-146.9030056056354
 10
102.7448052043485
 20
-146.9030056056354
 10
102.7067368992365
 20
-146.9007662935699
 10
102.6390407729513
 20
-146.8966321789876
 10
102.503648520381
 20
-146.8986992362788
 10
102.503648520381
 20
-146.8986992362788
 10
102.503648520381
 20
-147.2371798677046
 10
102.503648520381
 20
-147.2371798677046
 10
102.5585977933707
 20
-147.2139254731791
 10
102.6242268623648
 20
-147.1863647092971
 10
102.6728027087068
 20
-147.1631103147717
 10
102.6728027087068
 20
-147.1631103147717
 10
102.6728027087068
 20
-146.9855156425071
 10
102.6728027087068
 20
-146.9855156425071
 10
102.7870076240428
 20
-146.9980902410282
 10
102.9055189087354
 20
-146.9980902410282
 10
103.0219631361368
 20
-146.9980902410282
 10
102.9985364868372
 20
-146.9030056056354
 10
102.9711479777294
 20
-146.8204955687636
 10
102.9075859660266
 20
-146.6871703734844
 10
102.8631442342668
 20
-146.6892374307756
 10
102.7808064521694
 20
-146.6935438001321
 10
102.7425658922831
 20
-146.6956108574233
 10
102.7425658922831
 20
-146.6956108574233
 10
102.7425658922831
 20
-146.5157768730932
 10
102.7425658922831
 20
-146.5157768730932
 10
102.8674506036234
 20
-146.5242173570321
 10
103.0409111613057
 20
-146.5285237263887
 10
103.1234211981775
 20
-146.5285237263887
 10
103.1234211981775
 20
-146.5285237263887
 10
103.2059312350492
 20
-146.5285237263887
 10
103.2059312350492
 20
-146.5285237263887
 10
103.2059312350492
 20
-146.3655707099364
 10
103.2059312350492
 20
-146.3550631687064
 10
103.203864177758
 20
-146.3001138957166
 10
103.203864177758
 20
-146.3001138957166
 10
103.4281398938478
 20
-146.3254353475332
 10
103.4281398938478
 20
-146.3254353475332
 10
103.4322740084301
 20
-146.3254353475332
 10
103.4534613456644
 20
-146.3275024048243
 10
103.4534613456644
 20
-146.3443833727021
 10
103.4534613456644
 20
-146.3591972832887
 10
103.4429538044344
 20
-146.3678100220018
 10
103.4153930405524
 20
-146.3826239325884
 10
103.4090196139047
 20
-146.4480807468081
 10
103.4069525566135
 20
-146.4692680840424
 10
103.4069525566135
 20
-146.5285237263887
 10
103.4069525566135
 20
-146.5285237263887
 10
103.5020371920064
 20
-146.5285237263887
 10
103.5020371920064
 20
-146.5285237263887
 10
103.5845472288781
 20
-146.5285237263887
 10
103.7580077865605
 20
-146.5242173570321
 10
103.8828924979008
 20
-146.5157768730932
 10
103.8828924979008
 20
-146.5157768730932
 10
103.8828924979008
 20
-146.6956108574233
 10
103.8828924979008
 20
-146.6956108574233
 10
103.8532646767276
 20
-146.6935438001321
 10
103.734753392035
 20
-146.6892374307756
 10
103.6946180296319
 20
-146.6871703734844
 10
103.6798041190453
 20
-146.7379855318919
 10
103.6460421832898
 20
-146.8501233899368
 10
103.5804131142959
 20
-146.9896497570894
 10
103.6226155339902
 20
-146.9896497570894
 10
103.8997734657785
 20
-146.9707017319205
 10
103.961096165416
 20
-146.9684624198551
 10
103.961096165416
 20
-146.9684624198551
 10
103.961096165416
 20
-147.1526027735417
 10
103.961096165416
 20
-147.1526027735417
 10
103.9316405990171
 20
-147.1526027735417
 10
103.9145873763651
 20
-147.1482964041851
 10
103.751806614687
 20
-147.1482964041851
 97
        0
 97
        1
330
F8
 75
     2
 76
     1
 98
        1
 10
0.0
 20
0.0
450
        0
451
        0
460
0.0
461
0.0
452
        0
462
0.0
453
        0
470

  0
SPLINE
  5
FA
330
F2
100
AcDbEntity
  8
レイヤー 1
100
AcDbSpline
210
0.0
220
0.0
230
1.0
 70
    11
 71
     3
 72
    17
 73
    13
 74
     0
 42
0.0000000001
 43
0.0000000001
 40
0.0
 40
0.0
 40
0.0
 40
0.0
 40
1.0
 40
1.0
 40
1.0
 40
2.0
 40
2.0
 40
2.0
 40
3.0
 40
3.0
 40
3.0
 40
4.0
 40
4.0
 40
4.0
 40
4.0
 10
105.6083685716882
 20
-147.9480753210859
 30
0.0
 10
105.6083685716882
 20
-147.9480753210859
 30
0.0
 10
104.9016072328892
 20
-147.9480753210859
 30
0.0
 10
104.9016072328892
 20
-147.9480753210859
 30
0.0
 10
104.9016072328892
 20
-147.9480753210859
 30
0.0
 10
104.9016072328892
 20
-148.0622802364219
 30
0.0
 10
104.9016072328892
 20
-148.0622802364219
 30
0.0
 10
104.9016072328892
 20
-148.0622802364219
 30
0.0
 10
105.6083685716882
 20
-148.0622802364219
 30
0.0
 10
105.6083685716882
 20
-148.0622802364219
 30
0.0
 10
105.6083685716882
 20
-148.0622802364219
 30
0.0
 10
105.6083685716882
 20
-147.9480753210859
 30
0.0
 10
105.6083685716882
 20
-147.9480753210859
 30
0.0
  0
SPLINE
  5
FB
330
F2
100
AcDbEntity
  8
レイヤー 1
100
AcDbSpline
210
0.0
220
0.0
230
1.0
 70
    11
 71
     3
 72
    17
 73
    13
 74
     0
 42
0.0000000001
 43
0.0000000001
 40
0.0
 40
0.0
 40
0.0
 40
0.0
 40
1.0
 40
1.0
 40
1.0
 40
2.0
 40
2.0
 40
2.0
 40
3.0
 40
3.0
 40
3.0
 40
4.0
 40
4.0
 40
4.0
 40
4.0
 10
105.6083685716882
 20
-147.704679325053
 30
0.0
 10
105.6083685716882
 20
-147.704679325053
 30
0.0
 10
104.9016072328892
 20
-147.704679325053
 30
0.0
 10
104.9016072328892
 20
-147.704679325053
 30
0.0
 10
104.9016072328892
 20
-147.704679325053
 30
0.0
 10
104.9016072328892
 20
-147.8190564951633
 30
0.0
 10
104.9016072328892
 20
-147.8190564951633
 30
0.0
 10
104.9016072328892
 20
-147.8190564951633
 30
0.0
 10
105.6083685716882
 20
-147.8190564951633
 30
0.0
 10
105.6083685716882
 20
-147.8190564951633
 30
0.0
 10
105.6083685716882
 20
-147.8190564951633
 30
0.0
 10
105.6083685716882
 20
-147.704679325053
 30
0.0
 10
105.6083685716882
 20
-147.704679325053
 30
0.0
  0
SPLINE
  5
FC
330
F2
100
AcDbEntity
  8
レイヤー 1
100
AcDbSpline
210
0.0
220
0.0
230
1.0
 70
    11
 71
     3
 72
    17
 73
    13
 74
     0
 42
0.0000000001
 43
0.0000000001
 40
0.0
 40
0.0
 40
0.0
 40
0.0
 40
1.0
 40
1.0
 40
1.0
 40
2.0
 40
2.0
 40
2.0
 40
3.0
 40
3.0
 40
3.0
 40
4.0
 40
4.0
 40
4.0
 40
4.0
 10
105.6083685716882
 20
-147.4719631250244
 30
0.0
 10
105.6083685716882
 20
-147.4719631250244
 30
0.0
 10
104.9016072328892
 20
-147.4719631250244
 30
0.0
 10
104.9016072328892
 20
-147.4719631250244
 30
0.0
 10
104.9016072328892
 20
-147.4719631250244
 30
0.0
 10
104.9016072328892
 20
-147.5799668684869
 30
0.0
 10
104.9016072328892
 20
-147.5799668684869
 30
0.0
 10
104.9016072328892
 20
-147.5799668684869
 30
0.0
 10
105.6083685716882
 20
-147.5799668684869
 30
0.0
 10
105.6083685716882
 20
-147.5799668684869
 30
0.0
 10
105.6083685716882
 20
-147.5799668684869
 30
0.0
 10
105.6083685716882
 20
-147.4719631250244
 30
0.0
 10
105.6083685716882
 20
-147.4719631250244
 30
0.0
  0
SPLINE
  5
FD
330
F2
100
AcDbEntity
  8
レイヤー 1
100
AcDbSpline
210
0.0
220
0.0
230
1.0
 70
     9
 71
     3
 72
   203
 73
   199
 74
     0
 42
0.0000000001
 43
0.0000000001
 40
0.0
 40
0.0
 40
0.0
 40
0.0
 40
1.0
 40
1.0
 40
1.0
 40
2.0
 40
2.0
 40
2.0
 40
3.0
 40
3.0
 40
3.0
 40
4.0
 40
4.0
 40
4.0
 40
5.0
 40
5.0
 40
5.0
 40
6.0
 40
6.0
 40
6.0
 40
7.0
 40
7.0
 40
7.0
 40
8.0
 40
8.0
 40
8.0
 40
9.0
 40
9.0
 40
9.0
 40
10.0
 40
10.0
 40
10.0
 40
11.0
 40
11.0
 40
11.0
 40
12.0
 40
12.0
 40
12.0
 40
13.0
 40
13.0
 40
13.0
 40
14.0
 40
14.0
 40
14.0
 40
15.0
 40
15.0
 40
15.0
 40
16.0
 40
16.0
 40
16.0
 40
17.0
 40
17.0
 40
17.0
 40
18.0
 40
18.0
 40
18.0
 40
19.0
 40
19.0
 40
19.0
 40
20.0
 40
20.0
 40
20.0
 40
21.0
 40
21.0
 40
21.0
 40
22.0
 40
22.0
 40
22.0
 40
23.0
 40
23.0
 40
23.0
 40
24.0
 40
24.0
 40
24.0
 40
25.0
 40
25.0
 40
25.0
 40
26.0
 40
26.0
 40
26.0
 40
27.0
 40
27.0
 40
27.0
 40
28.0
 40
28.0
 40
28.0
 40
29.0
 40
29.0
 40
29.0
 40
30.0
 40
30.0
 40
30.0
 40
31.0
 40
31.0
 40
31.0
 40
32.0
 40
32.0
 40
32.0
 40
33.0
 40
33.0
 40
33.0
 40
34.0
 40
34.0
 40
34.0
 40
35.0
 40
35.0
 40
35.0
 40
36.0
 40
36.0
 40
36.0
 40
37.0
 40
37.0
 40
37.0
 40
38.0
 40
38.0
 40
38.0
 40
39.0
 40
39.0
 40
39.0
 40
40.0
 40
40.0
 40
40.0
 40
41.0
 40
41.0
 40
41.0
 40
42.0
 40
42.0
 40
42.0
 40
43.0
 40
43.0
 40
43.0
 40
44.0
 40
44.0
 40
44.0
 40
45.0
 40
45.0
 40
45.0
 40
46.0
 40
46.0
 40
46.0
 40
47.0
 40
47.0
 40
47.0
 40
48.0
 40
48.0
 40
48.0
 40
49.0
 40
49.0
 40
49.0
 40
50.0
 40
50.0
 40
50.0
 40
51.0
 40
51.0
 40
51.0
 40
52.0
 40
52.0
 40
52.0
 40
53.0
 40
53.0
 40
53.0
 40
54.0
 40
54.0
 40
54.0
 40
55.0
 40
55.0
 40
55.0
 40
56.0
 40
56.0
 40
56.0
 40
57.0
 40
57.0
 40
57.0
 40
58.0
 40
58.0
 40
58.0
 40
59.0
 40
59.0
 40
59.0
 40
60.0
 40
60.0
 40
60.0
 40
61.0
 40
61.0
 40
61.0
 40
62.0
 40
62.0
 40
62.0
 40
63.0
 40
63.0
 40
63.0
 40
64.0
 40
64.0
 40
64.0
 40
65.0
 40
65.0
 40
65.0
 40
66.0
 40
66.0
 40
66.0
 40
66.0
 10
105.4431762431704
 20
-147.2159925304703
 30
0.0
 10
105.4431762431704
 20
-147.2159925304703
 30
0.0
 10
104.8847262650114
 20
-147.2159925304703
 30
0.0
 10
104.8847262650114
 20
-147.2159925304703
 30
0.0
 10
104.8740464690071
 20
-147.26043426223
 30
0.0
 10
104.8656059850683
 20
-147.2921291406943
 30
0.0
 10
104.8530313865471
 20
-147.3303697005806
 30
0.0
 10
104.8783528383637
 20
-147.3303697005806
 30
0.0
 10
104.8931667489503
 20
-147.3324367578717
 30
0.0
 10
104.899540175598
 20
-147.3324367578717
 30
0.0
 10
104.899540175598
 20
-147.3324367578717
 30
0.0
 10
105.0878146438669
 20
-147.3324367578717
 30
0.0
 10
105.0878146438669
 20
-147.3324367578717
 30
0.0
 10
105.0878146438669
 20
-147.3324367578717
 30
0.0
 10
105.4622965231136
 20
-147.3324367578717
 30
0.0
 10
105.4622965231136
 20
-147.3324367578717
 30
0.0
 10
105.5129394267467
 20
-147.3324367578717
 30
0.0
 10
105.7964707851828
 20
-147.3196899045763
 30
0.0
 10
105.8281656636471
 20
-147.3196899045763
 30
0.0
 10
105.826098606356
 20
-147.3472506684583
 30
0.0
 10
105.8240315490648
 20
-147.3661986936272
 30
0.0
 10
105.8240315490648
 20
-147.3958265148003
 30
0.0
 10
105.8219644917737
 20
-147.4275213932646
 30
0.0
 10
105.8219644917737
 20
-147.562913645835
 30
0.0
 10
105.8219644917737
 20
-147.5904744097169
 30
0.0
 10
105.8219644917737
 20
-147.5904744097169
 30
0.0
 10
105.8219644917737
 20
-147.835937463041
 30
0.0
 10
105.8219644917737
 20
-147.835937463041
 30
0.0
 10
105.8219644917737
 20
-147.8803791948007
 30
0.0
 10
105.826098606356
 20
-148.0770941470085
 30
0.0
 10
105.8305772304868
 20
-148.2293673674565
 30
0.0
 10
105.8305772304868
 20
-148.2293673674565
 30
0.0
 10
105.6038899475573
 20
-148.2293673674565
 30
0.0
 10
105.6038899475573
 20
-148.2293673674565
 30
0.0
 10
105.6038899475573
 20
-148.2293673674565
 30
0.0
 10
105.606301514397
 20
-148.1956054317011
 30
0.0
 10
105.606301514397
 20
-148.1956054317011
 30
0.0
 10
105.606301514397
 20
-148.1956054317011
 30
0.0
 10
104.9036742901803
 20
-148.1956054317011
 30
0.0
 10
104.9036742901803
 20
-148.1956054317011
 30
0.0
 10
104.9036742901803
 20
-148.1956054317011
 30
0.0
 10
104.9059136022457
 20
-148.2293673674565
 30
0.0
 10
104.9059136022457
 20
-148.2293673674565
 30
0.0
 10
104.9059136022457
 20
-148.2293673674565
 30
0.0
 10
104.6880113128037
 20
-148.2293673674565
 30
0.0
 10
104.6880113128037
 20
-148.2293673674565
 30
0.0
 10
104.692145427386
 20
-148.1744180944668
 30
0.0
 10
104.692145427386
 20
-148.1616712411714
 30
0.0
 10
104.6985188540337
 20
-148.0474663258353
 30
0.0
 10
104.7005859113248
 20
-148.0199055619533
 30
0.0
 10
104.7028252233902
 20
-147.8867526214484
 30
0.0
 10
104.7028252233902
 20
-147.8676323415053
 30
0.0
 10
104.7028252233902
 20
-147.8676323415053
 30
0.0
 10
104.7028252233902
 20
-147.6645439626498
 30
0.0
 10
104.7028252233902
 20
-147.6645439626498
 30
0.0
 10
104.5631266014634
 20
-147.9141411305562
 30
0.0
 10
104.3939724131376
 20
-148.0453992685442
 30
0.0
 10
104.2882079817404
 20
-148.110856082764
 30
0.0
 10
104.2882079817404
 20
-148.110856082764
 30
0.0
 10
104.1145751692838
 20
-147.9713297156113
 30
0.0
 10
104.1145751692838
 20
-147.9713297156113
 30
0.0
 10
104.2034586328033
 20
-147.9205145572039
 30
0.0
 10
104.3472913693125
 20
-147.8336981509756
 30
0.0
 10
104.4849229339482
 20
-147.6392225108332
 30
0.0
 10
104.5758734547588
 20
-147.5122707422018
 30
0.0
 10
104.6415025237528
 20
-147.3684380056926
 30
0.0
 10
104.6752644595082
 20
-147.2159925304703
 30
0.0
 10
104.4468546288362
 20
-147.2182318425357
 30
0.0
 10
104.2670206445061
 20
-147.2246052691834
 30
0.0
 10
104.171763754339
 20
-147.2266723264746
 30
0.0
 10
104.171763754339
 20
-147.2266723264746
 30
0.0
 10
104.171763754339
 20
-147.0489053994357
 30
0.0
 10
104.171763754339
 20
-147.0489053994357
 30
0.0
 10
104.3684787065467
 20
-147.0552788260834
 30
0.0
 10
104.6520100649828
 20
-147.0595851954399
 30
0.0
 10
104.8022162281397
 20
-147.0595851954399
 30
0.0
 10
104.8022162281397
 20
-147.0595851954399
 30
0.0
 10
105.0158121482252
 20
-147.0595851954399
 30
0.0
 10
105.0158121482252
 20
-147.0595851954399
 30
0.0
 10
105.0158121482252
 20
-147.0595851954399
 30
0.0
 10
105.0158121482252
 20
-146.9515814519773
 30
0.0
 10
105.0158121482252
 20
-146.9515814519773
 30
0.0
 10
105.0158121482252
 20
-146.9515814519773
 30
0.0
 10
104.8699123544249
 20
-146.9515814519773
 30
0.0
 10
104.8699123544249
 20
-146.9515814519773
 30
0.0
 10
104.7005859113248
 20
-146.9515814519773
 30
0.0
 10
104.5314317229991
 20
-146.9558878213339
 30
0.0
 10
104.3643445919644
 20
-146.9622612479817
 30
0.0
 10
104.3643445919644
 20
-146.9622612479817
 30
0.0
 10
104.3643445919644
 20
-146.7908677475905
 30
0.0
 10
104.3643445919644
 20
-146.7908677475905
 30
0.0
 10
104.5186848697036
 20
-146.8013752888205
 30
0.0
 10
104.7048922806814
 20
-146.8013752888205
 30
0.0
 10
104.8699123544249
 20
-146.8013752888205
 30
0.0
 10
104.8699123544249
 20
-146.8013752888205
 30
0.0
 10
105.0158121482252
 20
-146.8013752888205
 30
0.0
 10
105.0158121482252
 20
-146.8013752888205
 30
0.0
 10
105.0158121482252
 20
-146.8013752888205
 30
0.0
 10
105.0158121482252
 20
-146.6830362589021
 30
0.0
 10
105.0158121482252
 20
-146.6830362589021
 30
0.0
 10
105.0158121482252
 20
-146.6830362589021
 30
0.0
 10
104.8847262650114
 20
-146.6830362589021
 30
0.0
 10
104.8847262650114
 20
-146.6830362589021
 30
0.0
 10
104.8382174759606
 20
-146.6830362589021
 30
0.0
 10
104.6351290971051
 20
-146.691476742841
 30
0.0
 10
104.5927544226365
 20
-146.691476742841
 30
0.0
 10
104.389666043781
 20
-146.6956108574233
 30
0.0
 10
104.313529433557
 20
-146.6976779147145
 30
0.0
 10
104.2353257660418
 20
-146.6999172267799
 30
0.0
 10
104.2353257660418
 20
-146.6999172267799
 30
0.0
 10
104.2353257660418
 20
-146.5157768730932
 30
0.0
 10
104.2353257660418
 20
-146.5157768730932
 30
0.0
 10
104.3495306813779
 20
-146.5242173570321
 30
0.0
 10
104.3939724131376
 20
-146.5242173570321
 30
0.0
 10
104.7768947763231
 20
-146.5328300957453
 30
0.0
 10
104.7133327646202
 20
-146.4375732055781
 30
0.0
 10
104.6857720007382
 20
-146.4100124416961
 30
0.0
 10
104.6499430076917
 20
-146.3740111938752
 30
0.0
 10
104.6499430076917
 20
-146.3740111938752
 30
0.0
 10
104.8254706226651
 20
-146.2915011570035
 30
0.0
 10
104.8254706226651
 20
-146.2915011570035
 30
0.0
 10
104.8656059850683
 20
-146.3275024048243
 30
0.0
 10
104.910047716828
 20
-146.3698770792929
 30
0.0
 10
104.9841172697609
 20
-146.4797756252724
 30
0.0
 10
104.9841172697609
 20
-146.4797756252724
 30
0.0
 10
104.8699123544249
 20
-146.5348971530364
 30
0.0
 10
104.8699123544249
 20
-146.5348971530364
 30
0.0
 10
104.8699123544249
 20
-146.5348971530364
 30
0.0
 10
104.8804198956549
 20
-146.5348971530364
 30
0.0
 10
104.8804198956549
 20
-146.5348971530364
 30
0.0
 10
104.8804198956549
 20
-146.5348971530364
 30
0.0
 10
105.4030408807673
 20
-146.5348971530364
 30
0.0
 10
105.4030408807673
 20
-146.5348971530364
 30
0.0
 10
105.4030408807673
 20
-146.5348971530364
 30
0.0
 10
105.3077839906001
 20
-146.4904554212767
 30
0.0
 10
105.3077839906001
 20
-146.4904554212767
 30
0.0
 10
105.3353447544821
 20
-146.4523871161647
 30
0.0
 10
105.392361084763
 20
-146.3719441365841
 30
0.0
 10
105.4071749953496
 20
-146.2978745836512
 30
0.0
 10
105.4071749953496
 20
-146.2978745836512
 30
0.0
 10
105.6211154249836
 20
-146.3614365953541
 30
0.0
 10
105.6211154249836
 20
-146.3614365953541
 30
0.0
 10
105.6293836541482
 20
-146.3635036526452
 30
0.0
 10
105.6507432461567
 20
-146.3740111938752
 30
0.0
 10
105.6507432461567
 20
-146.3951985311095
 30
0.0
 10
105.6507432461567
 20
-146.4332668362215
 30
0.0
 10
105.5849419223885
 20
-146.4332668362215
 30
0.0
 10
105.5659938972196
 20
-146.4332668362215
 30
0.0
 10
105.5553141012153
 20
-146.4523871161647
 30
0.0
 10
105.5322319614641
 20
-146.4925224785678
 30
0.0
 10
105.502604140291
 20
-146.5328300957453
 30
0.0
 10
105.90223521658
 20
-146.5264566690976
 30
0.0
 10
105.9318630377531
 20
-146.5242173570321
 30
0.0
 10
106.0079996479772
 20
-146.5180161851587
 30
0.0
 10
106.0079996479772
 20
-146.5180161851587
 30
0.0
 10
106.0079996479772
 20
-146.6999172267799
 30
0.0
 10
106.0079996479772
 20
-146.6999172267799
 30
0.0
 10
105.9890516228083
 20
-146.6999172267799
 30
0.0
 10
105.9635579162174
 20
-146.6976779147145
 30
0.0
 10
105.7437608242585
 20
-146.6892374307756
 30
0.0
 10
105.6927734110768
 20
-146.6871703734844
 30
0.0
 10
105.4728040643436
 20
-146.6830362589021
 30
0.0
 10
105.4283623325839
 20
-146.6830362589021
 30
0.0
 10
105.4283623325839
 20
-146.6830362589021
 30
0.0
 10
105.212527100433
 20
-146.6830362589021
 30
0.0
 10
105.212527100433
 20
-146.6830362589021
 30
0.0
 10
105.212527100433
 20
-146.6830362589021
 30
0.0
 10
105.212527100433
 20
-146.8013752888205
 30
0.0
 10
105.212527100433
 20
-146.8013752888205
 30
0.0
 10
105.212527100433
 20
-146.8013752888205
 30
0.0
 10
105.3859876581153
 20
-146.8013752888205
 30
0.0
 10
105.3859876581153
 20
-146.8013752888205
 30
0.0
 10
105.5491129293419
 20
-146.8013752888205
 30
0.0
 10
105.7392822001277
 20
-146.8013752888205
 30
0.0
 10
105.8960340447065
 20
-146.7908677475905
 30
0.0
 10
105.8960340447065
 20
-146.7908677475905
 30
0.0
 10
105.8960340447065
 20
-146.9622612479817
 30
0.0
 10
105.8960340447065
 20
-146.9622612479817
 30
0.0
 10
105.6865722392033
 20
-146.9538207640428
 30
0.0
 10
105.4898572869956
 20
-146.9515814519773
 30
0.0
 10
105.3859876581153
 20
-146.9515814519773
 30
0.0
 10
105.3859876581153
 20
-146.9515814519773
 30
0.0
 10
105.212527100433
 20
-146.9515814519773
 30
0.0
 10
105.212527100433
 20
-146.9515814519773
 30
0.0
 10
105.212527100433
 20
-146.9515814519773
 30
0.0
 10
105.212527100433
 20
-147.0595851954399
 30
0.0
 10
105.212527100433
 20
-147.0595851954399
 30
0.0
 10
105.212527100433
 20
-147.0595851954399
 30
0.0
 10
105.4431762431704
 20
-147.0595851954399
 30
0.0
 10
105.4431762431704
 20
-147.0595851954399
 30
0.0
 10
105.5766736932239
 20
-147.0595851954399
 30
0.0
 10
105.8643391662422
 20
-147.0552788260834
 30
0.0
 10
106.0738009717454
 20
-147.0489053994357
 30
0.0
 10
106.0738009717454
 20
-147.0489053994357
 30
0.0
 10
106.0738009717454
 20
-147.2266723264746
 30
0.0
 10
106.0738009717454
 20
-147.2266723264746
 30
0.0
 10
105.88122013412
 20
-147.2202988998269
 30
0.0
 10
105.5680609545107
 20
-147.2159925304703
 30
0.0
 10
105.4431762431704
 20
-147.2159925304703
 30
0.0
  0
HATCH
  5
FE
330
F2
100
AcDbEntity
  8
レイヤー 1
 62
    18
420
        0
440
 33554687
100
AcDbHatch
 10
0.0
 20
0.0
 30
0.0
210
0.0
220
0.0
230
1.0
  2
SOLID
 70
     1
 71
     1
 91
        4
 92
        1
 93
        1
 72
     4
 94
        3
 73
     0
 74
     0
 95
       17
 96
       13
 40
0.0
 40
0.0
 40
0.0
 40
0.0
 40
1.0
 40
1.0
 40
1.0
 40
2.0
 40
2.0
 40
2.0
 40
3.0
 40
3.0
 40
3.0
 40
4.0
 40
4.0
 40
4.0
 40
4.0
 10
105.6083685716882
 20
-147.9480753210859
 10
105.6083685716882
 20
-147.9480753210859
 10
104.9016072328892
 20
-147.9480753210859
 10
104.9016072328892
 20
-147.9480753210859
 10
104.9016072328892
 20
-147.9480753210859
 10
104.9016072328892
 20
-148.0622802364219
 10
104.9016072328892
 20
-148.0622802364219
 10
104.9016072328892
 20
-148.0622802364219
 10
105.6083685716882
 20
-148.0622802364219
 10
105.6083685716882
 20
-148.0622802364219
 10
105.6083685716882
 20
-148.0622802364219
 10
105.6083685716882
 20
-147.9480753210859
 10
105.6083685716882
 20
-147.9480753210859
 97
        0
 97
        1
330
FA
 92
        1
 93
        1
 72
     4
 94
        3
 73
     0
 74
     0
 95
       17
 96
       13
 40
0.0
 40
0.0
 40
0.0
 40
0.0
 40
1.0
 40
1.0
 40
1.0
 40
2.0
 40
2.0
 40
2.0
 40
3.0
 40
3.0
 40
3.0
 40
4.0
 40
4.0
 40
4.0
 40
4.0
 10
105.6083685716882
 20
-147.704679325053
 10
105.6083685716882
 20
-147.704679325053
 10
104.9016072328892
 20
-147.704679325053
 10
104.9016072328892
 20
-147.704679325053
 10
104.9016072328892
 20
-147.704679325053
 10
104.9016072328892
 20
-147.8190564951633
 10
104.9016072328892
 20
-147.8190564951633
 10
104.9016072328892
 20
-147.8190564951633
 10
105.6083685716882
 20
-147.8190564951633
 10
105.6083685716882
 20
-147.8190564951633
 10
105.6083685716882
 20
-147.8190564951633
 10
105.6083685716882
 20
-147.704679325053
 10
105.6083685716882
 20
-147.704679325053
 97
        0
 97
        1
330
FB
 92
        1
 93
        1
 72
     4
 94
        3
 73
     0
 74
     0
 95
       17
 96
       13
 40
0.0
 40
0.0
 40
0.0
 40
0.0
 40
1.0
 40
1.0
 40
1.0
 40
2.0
 40
2.0
 40
2.0
 40
3.0
 40
3.0
 40
3.0
 40
4.0
 40
4.0
 40
4.0
 40
4.0
 10
105.6083685716882
 20
-147.4719631250244
 10
105.6083685716882
 20
-147.4719631250244
 10
104.9016072328892
 20
-147.4719631250244
 10
104.9016072328892
 20
-147.4719631250244
 10
104.9016072328892
 20
-147.4719631250244
 10
104.9016072328892
 20
-147.5799668684869
 10
104.9016072328892
 20
-147.5799668684869
 10
104.9016072328892
 20
-147.5799668684869
 10
105.6083685716882
 20
-147.5799668684869
 10
105.6083685716882
 20
-147.5799668684869
 10
105.6083685716882
 20
-147.5799668684869
 10
105.6083685716882
 20
-147.4719631250244
 10
105.6083685716882
 20
-147.4719631250244
 97
        0
 97
        1
330
FC
 92
        1
 93
        1
 72
     4
 94
        3
 73
     0
 74
     0
 95
      203
 96
      199
 40
0.0
 40
0.0
 40
0.0
 40
0.0
 40
1.0
 40
1.0
 40
1.0
 40
2.0
 40
2.0
 40
2.0
 40
3.0
 40
3.0
 40
3.0
 40
4.0
 40
4.0
 40
4.0
 40
5.0
 40
5.0
 40
5.0
 40
6.0
 40
6.0
 40
6.0
 40
7.0
 40
7.0
 40
7.0
 40
8.0
 40
8.0
 40
8.0
 40
9.0
 40
9.0
 40
9.0
 40
10.0
 40
10.0
 40
10.0
 40
11.0
 40
11.0
 40
11.0
 40
12.0
 40
12.0
 40
12.0
 40
13.0
 40
13.0
 40
13.0
 40
14.0
 40
14.0
 40
14.0
 40
15.0
 40
15.0
 40
15.0
 40
16.0
 40
16.0
 40
16.0
 40
17.0
 40
17.0
 40
17.0
 40
18.0
 40
18.0
 40
18.0
 40
19.0
 40
19.0
 40
19.0
 40
20.0
 40
20.0
 40
20.0
 40
21.0
 40
21.0
 40
21.0
 40
22.0
 40
22.0
 40
22.0
 40
23.0
 40
23.0
 40
23.0
 40
24.0
 40
24.0
 40
24.0
 40
25.0
 40
25.0
 40
25.0
 40
26.0
 40
26.0
 40
26.0
 40
27.0
 40
27.0
 40
27.0
 40
28.0
 40
28.0
 40
28.0
 40
29.0
 40
29.0
 40
29.0
 40
30.0
 40
30.0
 40
30.0
 40
31.0
 40
31.0
 40
31.0
 40
32.0
 40
32.0
 40
32.0
 40
33.0
 40
33.0
 40
33.0
 40
34.0
 40
34.0
 40
34.0
 40
35.0
 40
35.0
 40
35.0
 40
36.0
 40
36.0
 40
36.0
 40
37.0
 40
37.0
 40
37.0
 40
38.0
 40
38.0
 40
38.0
 40
39.0
 40
39.0
 40
39.0
 40
40.0
 40
40.0
 40
40.0
 40
41.0
 40
41.0
 40
41.0
 40
42.0
 40
42.0
 40
42.0
 40
43.0
 40
43.0
 40
43.0
 40
44.0
 40
44.0
 40
44.0
 40
45.0
 40
45.0
 40
45.0
 40
46.0
 40
46.0
 40
46.0
 40
47.0
 40
47.0
 40
47.0
 40
48.0
 40
48.0
 40
48.0
 40
49.0
 40
49.0
 40
49.0
 40
50.0
 40
50.0
 40
50.0
 40
51.0
 40
51.0
 40
51.0
 40
52.0
 40
52.0
 40
52.0
 40
53.0
 40
53.0
 40
53.0
 40
54.0
 40
54.0
 40
54.0
 40
55.0
 40
55.0
 40
55.0
 40
56.0
 40
56.0
 40
56.0
 40
57.0
 40
57.0
 40
57.0
 40
58.0
 40
58.0
 40
58.0
 40
59.0
 40
59.0
 40
59.0
 40
60.0
 40
60.0
 40
60.0
 40
61.0
 40
61.0
 40
61.0
 40
62.0
 40
62.0
 40
62.0
 40
63.0
 40
63.0
 40
63.0
 40
64.0
 40
64.0
 40
64.0
 40
65.0
 40
65.0
 40
65.0
 40
66.0
 40
66.0
 40
66.0
 40
66.0
 10
105.4431762431704
 20
-147.2159925304703
 10
105.4431762431704
 20
-147.2159925304703
 10
104.8847262650114
 20
-147.2159925304703
 10
104.8847262650114
 20
-147.2159925304703
 10
104.8740464690071
 20
-147.26043426223
 10
104.8656059850683
 20
-147.2921291406943
 10
104.8530313865471
 20
-147.3303697005806
 10
104.8783528383637
 20
-147.3303697005806
 10
104.8931667489503
 20
-147.3324367578717
 10
104.899540175598
 20
-147.3324367578717
 10
104.899540175598
 20
-147.3324367578717
 10
105.0878146438669
 20
-147.3324367578717
 10
105.0878146438669
 20
-147.3324367578717
 10
105.0878146438669
 20
-147.3324367578717
 10
105.4622965231136
 20
-147.3324367578717
 10
105.4622965231136
 20
-147.3324367578717
 10
105.5129394267467
 20
-147.3324367578717
 10
105.7964707851828
 20
-147.3196899045763
 10
105.8281656636471
 20
-147.3196899045763
 10
105.826098606356
 20
-147.3472506684583
 10
105.8240315490648
 20
-147.3661986936272
 10
105.8240315490648
 20
-147.3958265148003
 10
105.8219644917737
 20
-147.4275213932646
 10
105.8219644917737
 20
-147.562913645835
 10
105.8219644917737
 20
-147.5904744097169
 10
105.8219644917737
 20
-147.5904744097169
 10
105.8219644917737
 20
-147.835937463041
 10
105.8219644917737
 20
-147.835937463041
 10
105.8219644917737
 20
-147.8803791948007
 10
105.826098606356
 20
-148.0770941470085
 10
105.8305772304868
 20
-148.2293673674565
 10
105.8305772304868
 20
-148.2293673674565
 10
105.6038899475573
 20
-148.2293673674565
 10
105.6038899475573
 20
-148.2293673674565
 10
105.6038899475573
 20
-148.2293673674565
 10
105.606301514397
 20
-148.1956054317011
 10
105.606301514397
 20
-148.1956054317011
 10
105.606301514397
 20
-148.1956054317011
 10
104.9036742901803
 20
-148.1956054317011
 10
104.9036742901803
 20
-148.1956054317011
 10
104.9036742901803
 20
-148.1956054317011
 10
104.9059136022457
 20
-148.2293673674565
 10
104.9059136022457
 20
-148.2293673674565
 10
104.9059136022457
 20
-148.2293673674565
 10
104.6880113128037
 20
-148.2293673674565
 10
104.6880113128037
 20
-148.2293673674565
 10
104.692145427386
 20
-148.1744180944668
 10
104.692145427386
 20
-148.1616712411714
 10
104.6985188540337
 20
-148.0474663258353
 10
104.7005859113248
 20
-148.0199055619533
 10
104.7028252233902
 20
-147.8867526214484
 10
104.7028252233902
 20
-147.8676323415053
 10
104.7028252233902
 20
-147.8676323415053
 10
104.7028252233902
 20
-147.6645439626498
 10
104.7028252233902
 20
-147.6645439626498
 10
104.5631266014634
 20
-147.9141411305562
 10
104.3939724131376
 20
-148.0453992685442
 10
104.2882079817404
 20
-148.110856082764
 10
104.2882079817404
 20
-148.110856082764
 10
104.1145751692838
 20
-147.9713297156113
 10
104.1145751692838
 20
-147.9713297156113
 10
104.2034586328033
 20
-147.9205145572039
 10
104.3472913693125
 20
-147.8336981509756
 10
104.4849229339482
 20
-147.6392225108332
 10
104.5758734547588
 20
-147.5122707422018
 10
104.6415025237528
 20
-147.3684380056926
 10
104.6752644595082
 20
-147.2159925304703
 10
104.4468546288362
 20
-147.2182318425357
 10
104.2670206445061
 20
-147.2246052691834
 10
104.171763754339
 20
-147.2266723264746
 10
104.171763754339
 20
-147.2266723264746
 10
104.171763754339
 20
-147.0489053994357
 10
104.171763754339
 20
-147.0489053994357
 10
104.3684787065467
 20
-147.0552788260834
 10
104.6520100649828
 20
-147.0595851954399
 10
104.8022162281397
 20
-147.0595851954399
 10
104.8022162281397
 20
-147.0595851954399
 10
105.0158121482252
 20
-147.0595851954399
 10
105.0158121482252
 20
-147.0595851954399
 10
105.0158121482252
 20
-147.0595851954399
 10
105.0158121482252
 20
-146.9515814519773
 10
105.0158121482252
 20
-146.9515814519773
 10
105.0158121482252
 20
-146.9515814519773
 10
104.8699123544249
 20
-146.9515814519773
 10
104.8699123544249
 20
-146.9515814519773
 10
104.7005859113248
 20
-146.9515814519773
 10
104.5314317229991
 20
-146.9558878213339
 10
104.3643445919644
 20
-146.9622612479817
 10
104.3643445919644
 20
-146.9622612479817
 10
104.3643445919644
 20
-146.7908677475905
 10
104.3643445919644
 20
-146.7908677475905
 10
104.5186848697036
 20
-146.8013752888205
 10
104.7048922806814
 20
-146.8013752888205
 10
104.8699123544249
 20
-146.8013752888205
 10
104.8699123544249
 20
-146.8013752888205
 10
105.0158121482252
 20
-146.8013752888205
 10
105.0158121482252
 20
-146.8013752888205
 10
105.0158121482252
 20
-146.8013752888205
 10
105.0158121482252
 20
-146.6830362589021
 10
105.0158121482252
 20
-146.6830362589021
 10
105.0158121482252
 20
-146.6830362589021
 10
104.8847262650114
 20
-146.6830362589021
 10
104.8847262650114
 20
-146.6830362589021
 10
104.8382174759606
 20
-146.6830362589021
 10
104.6351290971051
 20
-146.691476742841
 10
104.5927544226365
 20
-146.691476742841
 10
104.389666043781
 20
-146.6956108574233
 10
104.313529433557
 20
-146.6976779147145
 10
104.2353257660418
 20
-146.6999172267799
 10
104.2353257660418
 20
-146.6999172267799
 10
104.2353257660418
 20
-146.5157768730932
 10
104.2353257660418
 20
-146.5157768730932
 10
104.3495306813779
 20
-146.5242173570321
 10
104.3939724131376
 20
-146.5242173570321
 10
104.7768947763231
 20
-146.5328300957453
 10
104.7133327646202
 20
-146.4375732055781
 10
104.6857720007382
 20
-146.4100124416961
 10
104.6499430076917
 20
-146.3740111938752
 10
104.6499430076917
 20
-146.3740111938752
 10
104.8254706226651
 20
-146.2915011570035
 10
104.8254706226651
 20
-146.2915011570035
 10
104.8656059850683
 20
-146.3275024048243
 10
104.910047716828
 20
-146.3698770792929
 10
104.9841172697609
 20
-146.4797756252724
 10
104.9841172697609
 20
-146.4797756252724
 10
104.8699123544249
 20
-146.5348971530364
 10
104.8699123544249
 20
-146.5348971530364
 10
104.8699123544249
 20
-146.5348971530364
 10
104.8804198956549
 20
-146.5348971530364
 10
104.8804198956549
 20
-146.5348971530364
 10
104.8804198956549
 20
-146.5348971530364
 10
105.4030408807673
 20
-146.5348971530364
 10
105.4030408807673
 20
-146.5348971530364
 10
105.4030408807673
 20
-146.5348971530364
 10
105.3077839906001
 20
-146.4904554212767
 10
105.3077839906001
 20
-146.4904554212767
 10
105.3353447544821
 20
-146.4523871161647
 10
105.392361084763
 20
-146.3719441365841
 10
105.4071749953496
 20
-146.2978745836512
 10
105.4071749953496
 20
-146.2978745836512
 10
105.6211154249836
 20
-146.3614365953541
 10
105.6211154249836
 20
-146.3614365953541
 10
105.6293836541482
 20
-146.3635036526452
 10
105.6507432461567
 20
-146.3740111938752
 10
105.6507432461567
 20
-146.3951985311095
 10
105.6507432461567
 20
-146.4332668362215
 10
105.5849419223885
 20
-146.4332668362215
 10
105.5659938972196
 20
-146.4332668362215
 10
105.5553141012153
 20
-146.4523871161647
 10
105.5322319614641
 20
-146.4925224785678
 10
105.502604140291
 20
-146.5328300957453
 10
105.90223521658
 20
-146.5264566690976
 10
105.9318630377531
 20
-146.5242173570321
 10
106.0079996479772
 20
-146.5180161851587
 10
106.0079996479772
 20
-146.5180161851587
 10
106.0079996479772
 20
-146.6999172267799
 10
106.0079996479772
 20
-146.6999172267799
 10
105.9890516228083
 20
-146.6999172267799
 10
105.9635579162174
 20
-146.6976779147145
 10
105.7437608242585
 20
-146.6892374307756
 10
105.6927734110768
 20
-146.6871703734844
 10
105.4728040643436
 20
-146.6830362589021
 10
105.4283623325839
 20
-146.6830362589021
 10
105.4283623325839
 20
-146.6830362589021
 10
105.212527100433
 20
-146.6830362589021
 10
105.212527100433
 20
-146.6830362589021
 10
105.212527100433
 20
-146.6830362589021
 10
105.212527100433
 20
-146.8013752888205
 10
105.212527100433
 20
-146.8013752888205
 10
105.212527100433
 20
-146.8013752888205
 10
105.3859876581153
 20
-146.8013752888205
 10
105.3859876581153
 20
-146.8013752888205
 10
105.5491129293419
 20
-146.8013752888205
 10
105.7392822001277
 20
-146.8013752888205
 10
105.8960340447065
 20
-146.7908677475905
 10
105.8960340447065
 20
-146.7908677475905
 10
105.8960340447065
 20
-146.9622612479817
 10
105.8960340447065
 20
-146.9622612479817
 10
105.6865722392033
 20
-146.9538207640428
 10
105.4898572869956
 20
-146.9515814519773
 10
105.3859876581153
 20
-146.9515814519773
 10
105.3859876581153
 20
-146.9515814519773
 10
105.212527100433
 20
-146.9515814519773
 10
105.212527100433
 20
-146.9515814519773
 10
105.212527100433
 20
-146.9515814519773
 10
105.212527100433
 20
-147.0595851954399
 10
105.212527100433
 20
-147.0595851954399
 10
105.212527100433
 20
-147.0595851954399
 10
105.4431762431704
 20
-147.0595851954399
 10
105.4431762431704
 20
-147.0595851954399
 10
105.5766736932239
 20
-147.0595851954399
 10
105.8643391662422
 20
-147.0552788260834
 10
106.0738009717454
 20
-147.0489053994357
 10
106.0738009717454
 20
-147.0489053994357
 10
106.0738009717454
 20
-147.2266723264746
 10
106.0738009717454
 20
-147.2266723264746
 10
105.88122013412
 20
-147.2202988998269
 10
105.5680609545107
 20
-147.2159925304703
 10
105.4431762431704
 20
-147.2159925304703
 97
        0
 97
        1
330
FD
 75
     2
 76
     1
 98
        1
 10
0.0
 20
0.0
450
        0
451
        0
460
0.0
461
0.0
452
        0
462
0.0
453
        0
470

  0
SPLINE
  5
FF
330
F2
100
AcDbEntity
  8
レイヤー 1
100
AcDbSpline
210
0.0
220
0.0
230
1.0
 70
     9
 71
     3
 72
    29
 73
    25
 74
     0
 42
0.0000000001
 43
0.0000000001
 40
0.0
 40
0.0
 40
0.0
 40
0.0
 40
1.0
 40
1.0
 40
1.0
 40
2.0
 40
2.0
 40
2.0
 40
3.0
 40
3.0
 40
3.0
 40
4.0
 40
4.0
 40
4.0
 40
5.0
 40
5.0
 40
5.0
 40
6.0
 40
6.0
 40
6.0
 40
7.0
 40
7.0
 40
7.0
 40
8.0
 40
8.0
 40
8.0
 40
8.0
 10
107.3188584801147
 20
-146.663915978959
 30
0.0
 10
107.3188584801147
 20
-146.663915978959
 30
0.0
 10
106.9653916833281
 20
-146.663915978959
 30
0.0
 10
106.9653916833281
 20
-146.663915978959
 30
0.0
 10
106.8534260800575
 20
-146.663915978959
 30
0.0
 10
106.7138997129048
 20
-146.6702894056067
 30
0.0
 10
106.605723714668
 20
-146.6830362589021
 30
0.0
 10
106.605723714668
 20
-146.6830362589021
 30
0.0
 10
106.605723714668
 20
-146.4480807468081
 30
0.0
 10
106.605723714668
 20
-146.4480807468081
 30
0.0
 10
106.7242349993606
 20
-146.4628946573947
 30
0.0
 10
106.9082030982729
 20
-146.4672010267513
 30
0.0
 10
106.9653916833281
 20
-146.4672010267513
 30
0.0
 10
106.9653916833281
 20
-146.4672010267513
 30
0.0
 10
107.3188584801147
 20
-146.4672010267513
 30
0.0
 10
107.3188584801147
 20
-146.4672010267513
 30
0.0
 10
107.3378065052836
 20
-146.4672010267513
 30
0.0
 10
107.5410671389133
 20
-146.4672010267513
 30
0.0
 10
107.6826605633571
 20
-146.4480807468081
 30
0.0
 10
107.6826605633571
 20
-146.4480807468081
 30
0.0
 10
107.6826605633571
 20
-146.6830362589021
 30
0.0
 10
107.6826605633571
 20
-146.6830362589021
 30
0.0
 10
107.5262532283268
 20
-146.663915978959
 30
0.0
 10
107.3357394479924
 20
-146.663915978959
 30
0.0
 10
107.3188584801147
 20
-146.663915978959
 30
0.0
  0
SPLINE
  5
100
330
F2
100
AcDbEntity
  8
レイヤー 1
100
AcDbSpline
210
0.0
220
0.0
230
1.0
 70
     9
 71
     3
 72
    47
 73
    43
 74
     0
 42
0.0000000001
 43
0.0000000001
 40
0.0
 40
0.0
 40
0.0
 40
0.0
 40
1.0
 40
1.0
 40
1.0
 40
2.0
 40
2.0
 40
2.0
 40
3.0
 40
3.0
 40
3.0
 40
4.0
 40
4.0
 40
4.0
 40
5.0
 40
5.0
 40
5.0
 40
6.0
 40
6.0
 40
6.0
 40
7.0
 40
7.0
 40
7.0
 40
8.0
 40
8.0
 40
8.0
 40
9.0
 40
9.0
 40
9.0
 40
10.0
 40
10.0
 40
10.0
 40
11.0
 40
11.0
 40
11.0
 40
12.0
 40
12.0
 40
12.0
 40
13.0
 40
13.0
 40
13.0
 40
14.0
 40
14.0
 40
14.0
 40
14.0
 10
107.420144287381
 20
-147.1927381359448
 30
0.0
 10
107.420144287381
 20
-147.1927381359448
 30
0.0
 10
107.3188584801147
 20
-147.1927381359448
 30
0.0
 10
107.3188584801147
 20
-147.1927381359448
 30
0.0
 10
107.3188584801147
 20
-147.2795545421732
 30
0.0
 10
107.2974988881062
 20
-147.6688503320064
 30
0.0
 10
107.1007839358984
 20
-147.8888196787396
 30
0.0
 10
106.9485107154504
 20
-148.0579738670654
 30
0.0
 10
106.7411159672383
 20
-148.1279093054159
 30
0.0
 10
106.6567111278497
 20
-148.1552978145237
 30
0.0
 10
106.6567111278497
 20
-148.1552978145237
 30
0.0
 10
106.4620632329331
 20
-147.988210683489
 30
0.0
 10
106.4620632329331
 20
-147.988210683489
 30
0.0
 10
106.5592149256171
 20
-147.9754638301936
 30
0.0
 10
106.7349147953649
 20
-147.9522094356682
 30
0.0
 10
106.9230170088595
 20
-147.7639349673993
 30
0.0
 10
106.9970865617924
 20
-147.6921047265318
 30
0.0
 10
107.1007839358984
 20
-147.5524061046049
 30
0.0
 10
107.1007839358984
 20
-147.1927381359448
 30
0.0
 10
107.1007839358984
 20
-147.1927381359448
 30
0.0
 10
106.8703070479352
 20
-147.1927381359448
 30
0.0
 10
106.8703070479352
 20
-147.1927381359448
 30
0.0
 10
106.6842718917317
 20
-147.1927381359448
 30
0.0
 10
106.4978922259797
 20
-147.1970445053014
 30
0.0
 10
106.3118570697762
 20
-147.211858415888
 30
0.0
 10
106.3118570697762
 20
-147.211858415888
 30
0.0
 10
106.3118570697762
 20
-146.9918890691548
 30
0.0
 10
106.3118570697762
 20
-146.9918890691548
 30
0.0
 10
106.4999592832708
 20
-147.0067029797414
 30
0.0
 10
106.785557698998
 20
-147.0108370943236
 30
0.0
 10
106.8703070479352
 20
-147.0108370943236
 30
0.0
 10
106.8703070479352
 20
-147.0108370943236
 30
0.0
 10
107.420144287381
 20
-147.0108370943236
 30
0.0
 10
107.420144287381
 20
-147.0108370943236
 30
0.0
 10
107.4394368220985
 20
-147.0108370943236
 30
0.0
 10
107.75673011629
 20
-147.0108370943236
 30
0.0
 10
107.985139946962
 20
-146.9918890691548
 30
0.0
 10
107.985139946962
 20
-146.9918890691548
 30
0.0
 10
107.985139946962
 20
-147.211858415888
 30
0.0
 10
107.985139946962
 20
-147.211858415888
 30
0.0
 10
107.7970377334674
 20
-147.1970445053014
 30
0.0
 10
107.6085910104242
 20
-147.1927381359448
 30
0.0
 10
107.420144287381
 20
-147.1927381359448
 30
0.0
  0
HATCH
  5
101
330
F2
100
AcDbEntity
  8
レイヤー 1
 62
    18
420
        0
440
 33554687
100
AcDbHatch
 10
0.0
 20
0.0
 30
0.0
210
0.0
220
0.0
230
1.0
  2
SOLID
 70
     1
 71
     1
 91
        2
 92
        1
 93
        1
 72
     4
 94
        3
 73
     0
 74
     0
 95
       29
 96
       25
 40
0.0
 40
0.0
 40
0.0
 40
0.0
 40
1.0
 40
1.0
 40
1.0
 40
2.0
 40
2.0
 40
2.0
 40
3.0
 40
3.0
 40
3.0
 40
4.0
 40
4.0
 40
4.0
 40
5.0
 40
5.0
 40
5.0
 40
6.0
 40
6.0
 40
6.0
 40
7.0
 40
7.0
 40
7.0
 40
8.0
 40
8.0
 40
8.0
 40
8.0
 10
107.3188584801147
 20
-146.663915978959
 10
107.3188584801147
 20
-146.663915978959
 10
106.9653916833281
 20
-146.663915978959
 10
106.9653916833281
 20
-146.663915978959
 10
106.8534260800575
 20
-146.663915978959
 10
106.7138997129048
 20
-146.6702894056067
 10
106.605723714668
 20
-146.6830362589021
 10
106.605723714668
 20
-146.6830362589021
 10
106.605723714668
 20
-146.4480807468081
 10
106.605723714668
 20
-146.4480807468081
 10
106.7242349993606
 20
-146.4628946573947
 10
106.9082030982729
 20
-146.4672010267513
 10
106.9653916833281
 20
-146.4672010267513
 10
106.9653916833281
 20
-146.4672010267513
 10
107.3188584801147
 20
-146.4672010267513
 10
107.3188584801147
 20
-146.4672010267513
 10
107.3378065052836
 20
-146.4672010267513
 10
107.5410671389133
 20
-146.4672010267513
 10
107.6826605633571
 20
-146.4480807468081
 10
107.6826605633571
 20
-146.4480807468081
 10
107.6826605633571
 20
-146.6830362589021
 10
107.6826605633571
 20
-146.6830362589021
 10
107.5262532283268
 20
-146.663915978959
 10
107.3357394479924
 20
-146.663915978959
 10
107.3188584801147
 20
-146.663915978959
 97
        0
 97
        1
330
FF
 92
        1
 93
        1
 72
     4
 94
        3
 73
     0
 74
     0
 95
       47
 96
       43
 40
0.0
 40
0.0
 40
0.0
 40
0.0
 40
1.0
 40
1.0
 40
1.0
 40
2.0
 40
2.0
 40
2.0
 40
3.0
 40
3.0
 40
3.0
 40
4.0
 40
4.0
 40
4.0
 40
5.0
 40
5.0
 40
5.0
 40
6.0
 40
6.0
 40
6.0
 40
7.0
 40
7.0
 40
7.0
 40
8.0
 40
8.0
 40
8.0
 40
9.0
 40
9.0
 40
9.0
 40
10.0
 40
10.0
 40
10.0
 40
11.0
 40
11.0
 40
11.0
 40
12.0
 40
12.0
 40
12.0
 40
13.0
 40
13.0
 40
13.0
 40
14.0
 40
14.0
 40
14.0
 40
14.0
 10
107.420144287381
 20
-147.1927381359448
 10
107.420144287381
 20
-147.1927381359448
 10
107.3188584801147
 20
-147.1927381359448
 10
107.3188584801147
 20
-147.1927381359448
 10
107.3188584801147
 20
-147.2795545421732
 10
107.2974988881062
 20
-147.6688503320064
 10
107.1007839358984
 20
-147.8888196787396
 10
106.9485107154504
 20
-148.0579738670654
 10
106.7411159672383
 20
-148.1279093054159
 10
106.6567111278497
 20
-148.1552978145237
 10
106.6567111278497
 20
-148.1552978145237
 10
106.4620632329331
 20
-147.988210683489
 10
106.4620632329331
 20
-147.988210683489
 10
106.5592149256171
 20
-147.9754638301936
 10
106.7349147953649
 20
-147.9522094356682
 10
106.9230170088595
 20
-147.7639349673993
 10
106.9970865617924
 20
-147.6921047265318
 10
107.1007839358984
 20
-147.5524061046049
 10
107.1007839358984
 20
-147.1927381359448
 10
107.1007839358984
 20
-147.1927381359448
 10
106.8703070479352
 20
-147.1927381359448
 10
106.8703070479352
 20
-147.1927381359448
 10
106.6842718917317
 20
-147.1927381359448
 10
106.4978922259797
 20
-147.1970445053014
 10
106.3118570697762
 20
-147.211858415888
 10
106.3118570697762
 20
-147.211858415888
 10
106.3118570697762
 20
-146.9918890691548
 10
106.3118570697762
 20
-146.9918890691548
 10
106.4999592832708
 20
-147.0067029797414
 10
106.785557698998
 20
-147.0108370943236
 10
106.8703070479352
 20
-147.0108370943236
 10
106.8703070479352
 20
-147.0108370943236
 10
107.420144287381
 20
-147.0108370943236
 10
107.420144287381
 20
-147.0108370943236
 10
107.4394368220985
 20
-147.0108370943236
 10
107.75673011629
 20
-147.0108370943236
 10
107.985139946962
 20
-146.9918890691548
 10
107.985139946962
 20
-146.9918890691548
 10
107.985139946962
 20
-147.211858415888
 10
107.985139946962
 20
-147.211858415888
 10
107.7970377334674
 20
-147.1970445053014
 10
107.6085910104242
 20
-147.1927381359448
 10
107.420144287381
 20
-147.1927381359448
 97
        0
 97
        1
330
100
 75
     2
 76
     1
 98
        1
 10
0.0
 20
0.0
450
        0
451
        0
460
0.0
461
0.0
452
        0
462
0.0
453
        0
470

  0
SPLINE
  5
102
330
F2
100
AcDbEntity
  8
レイヤー 1
100
AcDbSpline
210
0.0
220
0.0
230
1.0
 70
     9
 71
     3
 72
    29
 73
    25
 74
     0
 42
0.0000000001
 43
0.0000000001
 40
0.0
 40
0.0
 40
0.0
 40
0.0
 40
1.0
 40
1.0
 40
1.0
 40
2.0
 40
2.0
 40
2.0
 40
3.0
 40
3.0
 40
3.0
 40
4.0
 40
4.0
 40
4.0
 40
5.0
 40
5.0
 40
5.0
 40
6.0
 40
6.0
 40
6.0
 40
7.0
 40
7.0
 40
7.0
 40
8.0
 40
8.0
 40
8.0
 40
8.0
 10
109.2660264483779
 20
-147.3556911523972
 30
0.0
 10
109.2660264483779
 20
-147.3556911523972
 30
0.0
 10
108.7816460231518
 20
-147.3556911523972
 30
0.0
 10
108.7816460231518
 20
-147.3556911523972
 30
0.0
 10
108.7540852592698
 20
-147.3556911523972
 30
0.0
 10
108.4367919650783
 20
-147.3556911523972
 30
0.0
 10
108.2252631022839
 20
-147.3810126042138
 30
0.0
 10
108.2252631022839
 20
-147.3810126042138
 30
0.0
 10
108.2252631022839
 20
-147.1505357162506
 30
0.0
 10
108.2252631022839
 20
-147.1505357162506
 30
0.0
 10
108.384082004154
 20
-147.173790110776
 30
0.0
 10
108.5742512749398
 20
-147.1758571680671
 30
0.0
 10
108.7816460231518
 20
-147.1758571680671
 30
0.0
 10
108.7816460231518
 20
-147.1758571680671
 30
0.0
 10
109.2660264483779
 20
-147.1758571680671
 30
0.0
 10
109.2660264483779
 20
-147.1758571680671
 30
0.0
 10
109.4524061141299
 20
-147.1758571680671
 30
0.0
 10
109.6384412703334
 20
-147.173790110776
 30
0.0
 10
109.8224093692458
 20
-147.1505357162506
 30
0.0
 10
109.8224093692458
 20
-147.1505357162506
 30
0.0
 10
109.8224093692458
 20
-147.3810126042138
 30
0.0
 10
109.8224093692458
 20
-147.3810126042138
 30
0.0
 10
109.6384412703334
 20
-147.3577582096883
 30
0.0
 10
109.3910834144925
 20
-147.3556911523972
 30
0.0
 10
109.2660264483779
 20
-147.3556911523972
 30
0.0
  0
HATCH
  5
103
330
F2
100
AcDbEntity
  8
レイヤー 1
 62
    18
420
        0
440
 33554687
100
AcDbHatch
 10
0.0
 20
0.0
 30
0.0
210
0.0
220
0.0
230
1.0
  2
SOLID
 70
     1
 71
     1
 91
        1
 92
        1
 93
        1
 72
     4
 94
        3
 73
     0
 74
     0
 95
       29
 96
       25
 40
0.0
 40
0.0
 40
0.0
 40
0.0
 40
1.0
 40
1.0
 40
1.0
 40
2.0
 40
2.0
 40
2.0
 40
3.0
 40
3.0
 40
3.0
 40
4.0
 40
4.0
 40
4.0
 40
5.0
 40
5.0
 40
5.0
 40
6.0
 40
6.0
 40
6.0
 40
7.0
 40
7.0
 40
7.0
 40
8.0
 40
8.0
 40
8.0
 40
8.0
 10
109.2660264483779
 20
-147.3556911523972
 10
109.2660264483779
 20
-147.3556911523972
 10
108.7816460231518
 20
-147.3556911523972
 10
108.7816460231518
 20
-147.3556911523972
 10
108.7540852592698
 20
-147.3556911523972
 10
108.4367919650783
 20
-147.3556911523972
 10
108.2252631022839
 20
-147.3810126042138
 10
108.2252631022839
 20
-147.3810126042138
 10
108.2252631022839
 20
-147.1505357162506
 10
108.2252631022839
 20
-147.1505357162506
 10
108.384082004154
 20
-147.173790110776
 10
108.5742512749398
 20
-147.1758571680671
 10
108.7816460231518
 20
-147.1758571680671
 10
108.7816460231518
 20
-147.1758571680671
 10
109.2660264483779
 20
-147.1758571680671
 10
109.2660264483779
 20
-147.1758571680671
 10
109.4524061141299
 20
-147.1758571680671
 10
109.6384412703334
 20
-147.173790110776
 10
109.8224093692458
 20
-147.1505357162506
 10
109.8224093692458
 20
-147.1505357162506
 10
109.8224093692458
 20
-147.3810126042138
 10
109.8224093692458
 20
-147.3810126042138
 10
109.6384412703334
 20
-147.3577582096883
 10
109.3910834144925
 20
-147.3556911523972
 10
109.2660264483779
 20
-147.3556911523972
 97
        0
 97
        1
330
102
 75
     2
 76
     1
 98
        1
 10
0.0
 20
0.0
450
        0
451
        0
460
0.0
461
0.0
452
        0
462
0.0
453
        0
470

  0
SPLINE
  5
104
330
F2
100
AcDbEntity
  8
レイヤー 1
100
AcDbSpline
210
0.0
220
0.0
230
1.0
 70
     9
 71
     3
 72
    47
 73
    43
 74
     0
 42
0.0000000001
 43
0.0000000001
 40
0.0
 40
0.0
 40
0.0
 40
0.0
 40
1.0
 40
1.0
 40
1.0
 40
2.0
 40
2.0
 40
2.0
 40
3.0
 40
3.0
 40
3.0
 40
4.0
 40
4.0
 40
4.0
 40
5.0
 40
5.0
 40
5.0
 40
6.0
 40
6.0
 40
6.0
 40
7.0
 40
7.0
 40
7.0
 40
8.0
 40
8.0
 40
8.0
 40
9.0
 40
9.0
 40
9.0
 40
10.0
 40
10.0
 40
10.0
 40
11.0
 40
11.0
 40
11.0
 40
12.0
 40
12.0
 40
12.0
 40
13.0
 40
13.0
 40
13.0
 40
14.0
 40
14.0
 40
14.0
 40
14.0
 10
111.4863904886215
 20
-146.7612399264173
 30
0.0
 10
111.4164550502709
 20
-147.0404649154968
 30
0.0
 10
111.3403184400469
 20
-147.3451836111672
 30
0.0
 10
111.0271592604376
 20
-147.6772908159452
 30
0.0
 10
110.7901366910524
 20
-147.9268879838516
 30
0.0
 10
110.5448458925027
 20
-148.026278988601
 30
0.0
 10
110.4390814611055
 20
-148.0686536630696
 30
0.0
 10
110.4390814611055
 20
-148.0686536630696
 30
0.0
 10
110.2444335661889
 20
-147.8867526214484
 30
0.0
 10
110.2444335661889
 20
-147.8867526214484
 30
0.0
 10
110.4304687223924
 20
-147.8400715776233
 30
0.0
 10
110.7925482578921
 20
-147.7470539995215
 30
0.0
 10
111.0884819600751
 20
-147.2519937782911
 30
0.0
 10
111.2493679192362
 20
-146.9855156425071
 30
0.0
 10
111.2621147725317
 20
-146.8120550848247
 30
0.0
 10
111.2703830016963
 20
-146.7211045640142
 30
0.0
 10
111.2703830016963
 20
-146.7211045640142
 30
0.0
 10
110.7649874940101
 20
-146.7211045640142
 30
0.0
 10
110.7649874940101
 20
-146.7211045640142
 30
0.0
 10
110.6464762093175
 20
-146.7211045640142
 30
0.0
 10
110.22548554102
 20
-146.740052589183
 30
0.0
 10
110.073212320572
 20
-146.750560130413
 30
0.0
 10
110.073212320572
 20
-146.750560130413
 30
0.0
 10
110.073212320572
 20
-146.5412705796841
 30
0.0
 10
110.073212320572
 20
-146.5412705796841
 30
0.0
 10
110.2148057450157
 20
-146.5538451782053
 30
0.0
 10
110.4921359315783
 20
-146.5581515475618
 30
0.0
 10
110.6082356494312
 20
-146.5581515475618
 30
0.0
 10
110.6082356494312
 20
-146.5581515475618
 30
0.0
 10
110.963769503509
 20
-146.5581515475618
 30
0.0
 10
110.963769503509
 20
-146.5581515475618
 30
0.0
 10
110.991330267391
 20
-146.5581515475618
 30
0.0
 10
111.1518717170037
 20
-146.5560844902707
 30
0.0
 10
111.2621147725317
 20
-146.5412705796841
 30
0.0
 10
111.3193033575868
 20
-146.5348971530364
 30
0.0
 10
111.3361843254645
 20
-146.5157768730932
 30
0.0
 10
111.3592664652157
 20
-146.4925224785678
 30
0.0
 10
111.3592664652157
 20
-146.4925224785678
 30
0.0
 10
111.5477131882589
 20
-146.6427286417247
 30
0.0
 10
111.5477131882589
 20
-146.6427286417247
 30
0.0
 10
111.5328992776723
 20
-146.6723564628979
 30
0.0
 10
111.522219481668
 20
-146.691476742841
 30
0.0
 10
111.4863904886215
 20
-146.7612399264173
 30
0.0
  0
HATCH
  5
105
330
F2
100
AcDbEntity
  8
レイヤー 1
 62
    18
420
        0
440
 33554687
100
AcDbHatch
 10
0.0
 20
0.0
 30
0.0
210
0.0
220
0.0
230
1.0
  2
SOLID
 70
     1
 71
     1
 91
        1
 92
        1
 93
        1
 72
     4
 94
        3
 73
     0
 74
     0
 95
       47
 96
       43
 40
0.0
 40
0.0
 40
0.0
 40
0.0
 40
1.0
 40
1.0
 40
1.0
 40
2.0
 40
2.0
 40
2.0
 40
3.0
 40
3.0
 40
3.0
 40
4.0
 40
4.0
 40
4.0
 40
5.0
 40
5.0
 40
5.0
 40
6.0
 40
6.0
 40
6.0
 40
7.0
 40
7.0
 40
7.0
 40
8.0
 40
8.0
 40
8.0
 40
9.0
 40
9.0
 40
9.0
 40
10.0
 40
10.0
 40
10.0
 40
11.0
 40
11.0
 40
11.0
 40
12.0
 40
12.0
 40
12.0
 40
13.0
 40
13.0
 40
13.0
 40
14.0
 40
14.0
 40
14.0
 40
14.0
 10
111.4863904886215
 20
-146.7612399264173
 10
111.4164550502709
 20
-147.0404649154968
 10
111.3403184400469
 20
-147.3451836111672
 10
111.0271592604376
 20
-147.6772908159452
 10
110.7901366910524
 20
-147.9268879838516
 10
110.5448458925027
 20
-148.026278988601
 10
110.4390814611055
 20
-148.0686536630696
 10
110.4390814611055
 20
-148.0686536630696
 10
110.2444335661889
 20
-147.8867526214484
 10
110.2444335661889
 20
-147.8867526214484
 10
110.4304687223924
 20
-147.8400715776233
 10
110.7925482578921
 20
-147.7470539995215
 10
111.0884819600751
 20
-147.2519937782911
 10
111.2493679192362
 20
-146.9855156425071
 10
111.2621147725317
 20
-146.8120550848247
 10
111.2703830016963
 20
-146.7211045640142
 10
111.2703830016963
 20
-146.7211045640142
 10
110.7649874940101
 20
-146.7211045640142
 10
110.7649874940101
 20
-146.7211045640142
 10
110.6464762093175
 20
-146.7211045640142
 10
110.22548554102
 20
-146.740052589183
 10
110.073212320572
 20
-146.750560130413
 10
110.073212320572
 20
-146.750560130413
 10
110.073212320572
 20
-146.5412705796841
 10
110.073212320572
 20
-146.5412705796841
 10
110.2148057450157
 20
-146.5538451782053
 10
110.4921359315783
 20
-146.5581515475618
 10
110.6082356494312
 20
-146.5581515475618
 10
110.6082356494312
 20
-146.5581515475618
 10
110.963769503509
 20
-146.5581515475618
 10
110.963769503509
 20
-146.5581515475618
 10
110.991330267391
 20
-146.5581515475618
 10
111.1518717170037
 20
-146.5560844902707
 10
111.2621147725317
 20
-146.5412705796841
 10
111.3193033575868
 20
-146.5348971530364
 10
111.3361843254645
 20
-146.5157768730932
 10
111.3592664652157
 20
-146.4925224785678
 10
111.3592664652157
 20
-146.4925224785678
 10
111.5477131882589
 20
-146.6427286417247
 10
111.5477131882589
 20
-146.6427286417247
 10
111.5328992776723
 20
-146.6723564628979
 10
111.522219481668
 20
-146.691476742841
 10
111.4863904886215
 20
-146.7612399264173
 97
        0
 97
        1
330
104
 75
     2
 76
     1
 98
        1
 10
0.0
 20
0.0
450
        0
451
        0
460
0.0
461
0.0
452
        0
462
0.0
453
        0
470

  0
SPLINE
  5
106
330
F2
100
AcDbEntity
  8
レイヤー 1
100
AcDbSpline
210
0.0
220
0.0
230
1.0
 70
    11
 71
     3
 72
    17
 73
    13
 74
     0
 42
0.0000000001
 43
0.0000000001
 40
0.0
 40
0.0
 40
0.0
 40
0.0
 40
1.0
 40
1.0
 40
1.0
 40
2.0
 40
2.0
 40
2.0
 40
3.0
 40
3.0
 40
3.0
 40
4.0
 40
4.0
 40
4.0
 40
4.0
 10
111.8767198071002
 20
-146.5433376369753
 30
0.0
 10
111.8767198071002
 20
-146.6025932793216
 30
0.0
 10
111.9232285961511
 20
-146.6491020683724
 30
0.0
 10
111.9824842384974
 20
-146.6491020683724
 30
0.0
 10
112.0417398808437
 20
-146.6491020683724
 30
0.0
 10
112.0903157271857
 20
-146.6025932793216
 30
0.0
 10
112.0903157271857
 20
-146.5433376369753
 30
0.0
 10
112.0903157271857
 20
-146.484081994629
 30
0.0
 10
112.0417398808437
 20
-146.4355061482869
 30
0.0
 10
111.9824842384974
 20
-146.4355061482869
 30
0.0
 10
111.9232285961511
 20
-146.4355061482869
 30
0.0
 10
111.8767198071002
 20
-146.484081994629
 30
0.0
 10
111.8767198071002
 20
-146.5433376369753
 30
0.0
  0
SPLINE
  5
107
330
F2
100
AcDbEntity
  8
レイヤー 1
100
AcDbSpline
210
0.0
220
0.0
230
1.0
 70
     9
 71
     3
 72
    17
 73
    13
 74
     0
 42
0.0000000001
 43
0.0000000001
 40
0.0
 40
0.0
 40
0.0
 40
0.0
 40
1.0
 40
1.0
 40
1.0
 40
2.0
 40
2.0
 40
2.0
 40
3.0
 40
3.0
 40
3.0
 40
4.0
 40
4.0
 40
4.0
 40
4.0
 10
112.1916015344521
 20
-146.5433376369753
 30
0.0
 10
112.1916015344521
 20
-146.6575425523113
 30
0.0
 10
112.0985839563503
 20
-146.7527994424784
 30
0.0
 10
111.9824842384974
 20
-146.7527994424784
 30
0.0
 10
111.8681070683871
 20
-146.7527994424784
 30
0.0
 10
111.7730224329942
 20
-146.6575425523113
 30
0.0
 10
111.7730224329942
 20
-146.5433376369753
 30
0.0
 10
111.7730224329942
 20
-146.4268934095738
 30
0.0
 10
111.8681070683871
 20
-146.3338758314721
 30
0.0
 10
111.9824842384974
 20
-146.3338758314721
 30
0.0
 10
112.0965168990592
 20
-146.3338758314721
 30
0.0
 10
112.1916015344521
 20
-146.4268934095738
 30
0.0
 10
112.1916015344521
 20
-146.5433376369753
 30
0.0
  0
HATCH
  5
108
330
F2
100
AcDbEntity
  8
レイヤー 1
 62
    18
420
        0
440
 33554687
100
AcDbHatch
 10
0.0
 20
0.0
 30
0.0
210
0.0
220
0.0
230
1.0
  2
SOLID
 70
     1
 71
     1
 91
        2
 92
        1
 93
        1
 72
     4
 94
        3
 73
     0
 74
     0
 95
       17
 96
       13
 40
0.0
 40
0.0
 40
0.0
 40
0.0
 40
1.0
 40
1.0
 40
1.0
 40
2.0
 40
2.0
 40
2.0
 40
3.0
 40
3.0
 40
3.0
 40
4.0
 40
4.0
 40
4.0
 40
4.0
 10
111.8767198071002
 20
-146.5433376369753
 10
111.8767198071002
 20
-146.6025932793216
 10
111.9232285961511
 20
-146.6491020683724
 10
111.9824842384974
 20
-146.6491020683724
 10
112.0417398808437
 20
-146.6491020683724
 10
112.0903157271857
 20
-146.6025932793216
 10
112.0903157271857
 20
-146.5433376369753
 10
112.0903157271857
 20
-146.484081994629
 10
112.0417398808437
 20
-146.4355061482869
 10
111.9824842384974
 20
-146.4355061482869
 10
111.9232285961511
 20
-146.4355061482869
 10
111.8767198071002
 20
-146.484081994629
 10
111.8767198071002
 20
-146.5433376369753
 97
        0
 97
        1
330
106
 92
        1
 93
        1
 72
     4
 94
        3
 73
     0
 74
     0
 95
       17
 96
       13
 40
0.0
 40
0.0
 40
0.0
 40
0.0
 40
1.0
 40
1.0
 40
1.0
 40
2.0
 40
2.0
 40
2.0
 40
3.0
 40
3.0
 40
3.0
 40
4.0
 40
4.0
 40
4.0
 40
4.0
 10
112.1916015344521
 20
-146.5433376369753
 10
112.1916015344521
 20
-146.6575425523113
 10
112.0985839563503
 20
-146.7527994424784
 10
111.9824842384974
 20
-146.7527994424784
 10
111.8681070683871
 20
-146.7527994424784
 10
111.7730224329942
 20
-146.6575425523113
 10
111.7730224329942
 20
-146.5433376369753
 10
111.7730224329942
 20
-146.4268934095738
 10
111.8681070683871
 20
-146.3338758314721
 10
111.9824842384974
 20
-146.3338758314721
 10
112.0965168990592
 20
-146.3338758314721
 10
112.1916015344521
 20
-146.4268934095738
 10
112.1916015344521
 20
-146.5433376369753
 97
        0
 97
        1
330
107
 75
     2
 76
     1
 98
        1
 10
0.0
 20
0.0
450
        0
451
        0
460
0.0
461
0.0
452
        0
462
0.0
453
        0
470

  0
ENDBLK
  5
F5
330
F2
100
AcDbEntity
  8
0
100
AcDbBlockEnd
  0
ENDSEC
  0
SECTION
  2
ENTITIES
  0
INSERT
  5
7A
330
70
100
AcDbEntity
  8
レイヤー 1
100
AcDbBlockReference
  2
Block_0
 10
0.0
 20
0.0
 30
0.0
  0
LINE
  5
E5
330
70
100
AcDbEntity
  8
レイヤー 1
  6
AI-Linetype-0
 62
   154
420
    23468
370
    25
100
AcDbLine
 10
102.3660862113811
 20
-150.4198156278626
 30
0.0
 11
112.411940587191
 21
-150.4198156278626
 31
0.0
  0
INSERT
  5
E8
330
70
100
AcDbEntity
  8
レイヤー 1
100
AcDbBlockReference
  2
Block_12
 10
0.0
 20
0.0
 30
0.0
  0
INSERT
  5
EF
330
70
100
AcDbEntity
  8
レイヤー 1
100
AcDbBlockReference
  2
Block_13
 10
0.0
 20
0.0
 30
0.0
  0
ENDSEC
  0
SECTION
  2
OBJECTS
  0
DICTIONARY
  5
C
330
0
100
AcDbDictionary
281
     1
  3
ACAD_COLOR
350
63
  3
ACAD_DETAILVIEWSTYLE
350
6A
  3
ACAD_GROUP
350
D
  3
ACAD_LAYOUT
350
62
  3
ACAD_MATERIAL
350
10
  3
ACAD_MLEADERSTYLE
350
66
  3
ACAD_MLINESTYLE
350
5F
  3
ACAD_PLOTSETTINGS
350
61
  3
ACAD_PLOTSTYLENAME
350
E
  3
ACAD_SCALELIST
350
42
  3
ACAD_SECTIONVIEWSTYLE
350
68
  3
ACAD_TABLESTYLE
350
64
  3
ACAD_VISUALSTYLE
350
29
  3
ACDB_RECOMPOSE_DATA
350
111
  3
AcDbVariableDictionary
350
109
  0
DICTIONARY
  5
63
102
{ACAD_REACTORS
330
C
102
}
330
C
100
AcDbDictionary
281
     1
  0
DICTIONARY
  5
6A
102
{ACAD_REACTORS
330
C
102
}
330
C
100
AcDbDictionary
281
     1
  3
Imperial24
350
6B
  0
DICTIONARY
  5
D
102
{ACAD_REACTORS
330
C
102
}
330
C
100
AcDbDictionary
281
     1
  0
DICTIONARY
  5
62
102
{ACAD_REACTORS
330
C
102
}
330
C
100
AcDbDictionary
281
     1
  3
Layout1
350
6F
  3
Layout2
350
77
  3
Model
350
73
  0
DICTIONARY
  5
10
102
{ACAD_REACTORS
330
C
102
}
330
C
100
AcDbDictionary
281
     1
  3
ByBlock
350
19
  3
ByLayer
350
11
  3
Global
350
21
  0
DICTIONARY
  5
66
102
{ACAD_REACTORS
330
C
102
}
330
C
100
AcDbDictionary
281
     1
  3
Standard
350
67
  0
DICTIONARY
  5
5F
102
{ACAD_REACTORS
330
C
102
}
330
C
100
AcDbDictionary
281
     1
  3
Standard
350
60
  0
DICTIONARY
  5
61
102
{ACAD_REACTORS
330
C
102
}
330
C
100
AcDbDictionary
281
     1
  0
ACDBDICTIONARYWDFLT
  5
E
102
{ACAD_REACTORS
330
C
102
}
330
C
100
AcDbDictionary
281
     1
  3
Normal
350
F
100
AcDbDictionaryWithDefault
340
F
  0
DICTIONARY
  5
42
102
{ACAD_REACTORS
330
C
102
}
330
C
100
AcDbDictionary
281
     1
  3
A0
350
43
  3
A1
350
44
  3
A2
350
45
  3
A3
350
46
  3
A4
350
47
  3
A5
350
48
  3
A6
350
49
  3
A7
350
4A
  3
A8
350
4B
  3
A9
350
4C
  3
B0
350
4D
  3
B1
350
4E
  3
B2
350
4F
  3
B3
350
50
  3
B4
350
51
  3
B5
350
52
  3
B6
350
53
  0
DICTIONARY
  5
68
102
{ACAD_REACTORS
330
C
102
}
330
C
100
AcDbDictionary
281
     1
  3
Imperial24
350
69
  0
DICTIONARY
  5
64
102
{ACAD_REACTORS
330
C
102
}
330
C
100
AcDbDictionary
281
     1
  3
Standard
350
65
  0
DICTIONARY
  5
29
102
{ACAD_REACTORS
330
C
102
}
330
C
100
AcDbDictionary
281
     1
  3
2dWireframe
350
2F
  3
Basic
350
2E
  3
Brighten
350
35
  3
ColorChange
350
39
  3
Conceptual
350
32
  3
Dim
350
34
  3
EdgeColorOff
350
41
  3
Facepattern
350
38
  3
Flat
350
2A
  3
FlatWithEdges
350
2B
  3
Gouraud
350
2C
  3
GouraudWithEdges
350
2D
  3
Hidden
350
31
  3
JitterOff
350
3F
  3
Linepattern
350
37
  3
OverhangOff
350
40
  3
Realistic
350
33
  3
Shaded
350
3E
  3
Shaded with edges
350
3D
  3
Shades of Gray
350
3A
  3
Sketchy
350
3B
  3
Thicken
350
36
  3
Wireframe
350
30
  3
X-Ray
350
3C
  0
XRECORD
  5
111
102
{ACAD_REACTORS
330
C
102
}
330
C
100
AcDbXrecord
280
     1
 90
        1
330
65
  0
DICTIONARY
  5
109
102
{ACAD_REACTORS
330
C
102
}
330
C
100
AcDbDictionary
281
     1
  3
CANNOSCALE
350
10E
  3
CMLEADERSTYLE
350
10B
  3
CTABLESTYLE
350
10A
  3
CVIEWDETAILSTYLE
350
10C
  3
CVIEWSECTIONSTYLE
350
10D
  0
ACDBDETAILVIEWSTYLE
  5
6B
102
{ACAD_XDICTIONARY
360
146
102
}
102
{ACAD_REACTORS
330
6A
102
}
330
6A
100
AcDbModelDocViewStyle
 70
     0
  3
Imperial24
290
     0
100
AcDbDetailViewStyle
 70
     0
 71
     0
 90
        3
 71
     1
340
55
 62
   256
 40
0.24
340
0
 62
   256
 40
0.24
300

 40
0.36
280
     3
 71
     2
340
5D
 90
       25
 62
   256
 71
     3
340
55
 62
   256
 40
0.24
 90
        1
 40
0.75
 90
        1
300
%<\AcVar ViewType \f "%tc1">% %<\AcVar ViewDetailId>%\PSCALE %<\AcVar ViewScale \f "%sn">%
 71
     4
340
5D
 90
       25
 62
   256
340
5D
 90
       25
 62
   256
280
     0
  0
LAYOUT
  5
6F
102
{ACAD_REACTORS
330
62
102
}
330
62
100
AcDbPlotSettings
  1

  2

  4

  6

 40
0.0
 41
0.0
 42
0.0
 43
0.0
 44
0.0
 45
0.0
 46
0.0
 47
0.0
 48
0.0
 49
0.0
140
0.0
141
0.0
142
1.0
143
1.0
 70
   688
 72
     0
 73
     0
 74
     5
  7

 75
    16
147
1.0
 76
     0
 77
     2
 78
   300
148
0.0
149
0.0
100
AcDbLayout
  1
Layout1
 70
     1
 71
     1
 10
0.0
 20
0.0
 11
12.0
 21
9.0
 12
0.0
 22
0.0
 32
0.0
 14
0.0
 24
0.0
 34
0.0
 15
0.0
 25
0.0
 35
0.0
146
0.0
 13
0.0
 23
0.0
 33
0.0
 16
1.0
 26
0.0
 36
0.0
 17
0.0
 27
1.0
 37
0.0
 76
     0
330
6C
  0
LAYOUT
  5
77
102
{ACAD_REACTORS
330
62
102
}
330
62
100
AcDbPlotSettings
  1

  2

  4

  6

 40
0.0
 41
0.0
 42
0.0
 43
0.0
 44
0.0
 45
0.0
 46
0.0
 47
0.0
 48
0.0
 49
0.0
140
0.0
141
0.0
142
1.0
143
1.0
 70
   688
 72
     0
 73
     0
 74
     5
  7

 75
    16
147
1.0
 76
     0
 77
     2
 78
   300
148
0.0
149
0.0
100
AcDbLayout
  1
Layout2
 70
     1
 71
     2
 10
0.0
 20
0.0
 11
12.0
 21
9.0
 12
0.0
 22
0.0
 32
0.0
 14
0.0
 24
0.0
 34
0.0
 15
0.0
 25
0.0
 35
0.0
146
0.0
 13
0.0
 23
0.0
 33
0.0
 16
1.0
 26
0.0
 36
0.0
 17
0.0
 27
1.0
 37
0.0
 76
     0
330
74
  0
LAYOUT
  5
73
102
{ACAD_REACTORS
330
62
102
}
330
62
100
AcDbPlotSettings
  1

  2

  4

  6

 40
0.0
 41
0.0
 42
0.0
 43
0.0
 44
0.0
 45
0.0
 46
0.0
 47
0.0
 48
0.0
 49
0.0
140
0.0
141
0.0
142
1.0
143
1.0
 70
  1712
 72
     0
 73
     0
 74
     0
  7

 75
     0
147
1.0
 76
     0
 77
     2
 78
   300
148
0.0
149
0.0
100
AcDbLayout
  1
Model
 70
     1
 71
     0
 10
0.0
 20
0.0
 11
12.0
 21
9.0
 12
0.0
 22
0.0
 32
0.0
 14
0.0
 24
0.0
 34
0.0
 15
0.0
 25
0.0
 35
0.0
146
0.0
 13
0.0
 23
0.0
 33
0.0
 16
1.0
 26
0.0
 36
0.0
 17
0.0
 27
1.0
 37
0.0
 76
     0
330
70
  0
MATERIAL
  5
19
102
{ACAD_XDICTIONARY
360
1A
102
}
102
{ACAD_REACTORS
330
10
102
}
330
10
100
AcDbMaterial
  1
ByBlock
 72
     0
 43
0.0208333333333333
 43
0.0
 43
0.0
 43
0.0
 43
0.0
 43
0.0208333333333333
 43
0.0
 43
0.0
 43
0.0
 43
0.0
 43
1.0
 43
0.0
 43
0.0
 43
0.0
 43
0.0
 43
1.0
 77
     0
 47
0.0208333333333333
 47
0.0
 47
0.0
 47
0.0
 47
0.0
 47
0.0208333333333333
 47
0.0
 47
0.0
 47
0.0
 47
0.0
 47
1.0
 47
0.0
 47
0.0
 47
0.0
 47
0.0
 47
1.0
171
     0
 49
0.0208333333333333
 49
0.0
 49
0.0
 49
0.0
 49
0.0
 49
0.0208333333333333
 49
0.0
 49
0.0
 49
0.0
 49
0.0
 49
1.0
 49
0.0
 49
0.0
 49
0.0
 49
0.0
 49
1.0
175
     0
142
0.0208333333333333
142
0.0
142
0.0
142
0.0
142
0.0
142
0.0208333333333333
142
0.0
142
0.0
142
0.0
142
0.0
142
1.0
142
0.0
142
0.0
142
0.0
142
0.0
142
1.0
179
     0
144
0.0208333333333333
144
0.0
144
0.0
144
0.0
144
0.0
144
0.0208333333333333
144
0.0
144
0.0
144
0.0
144
0.0
144
1.0
144
0.0
144
0.0
144
0.0
144
0.0
144
1.0
147
0.0208333333333333
147
0.0
147
0.0
147
0.0
147
0.0
147
0.0208333333333333
147
0.0
147
0.0
147
0.0
147
0.0
147
1.0
147
0.0
147
0.0
147
0.0
147
0.0
147
1.0
  0
MATERIAL
  5
11
102
{ACAD_XDICTIONARY
360
12
102
}
102
{ACAD_REACTORS
330
10
102
}
330
10
100
AcDbMaterial
  1
ByLayer
 72
     0
 43
0.0208333333333333
 43
0.0
 43
0.0
 43
0.0
 43
0.0
 43
0.0208333333333333
 43
0.0
 43
0.0
 43
0.0
 43
0.0
 43
1.0
 43
0.0
 43
0.0
 43
0.0
 43
0.0
 43
1.0
 77
     0
 47
0.0208333333333333
 47
0.0
 47
0.0
 47
0.0
 47
0.0
 47
0.0208333333333333
 47
0.0
 47
0.0
 47
0.0
 47
0.0
 47
1.0
 47
0.0
 47
0.0
 47
0.0
 47
0.0
 47
1.0
171
     0
 49
0.0208333333333333
 49
0.0
 49
0.0
 49
0.0
 49
0.0
 49
0.0208333333333333
 49
0.0
 49
0.0
 49
0.0
 49
0.0
 49
1.0
 49
0.0
 49
0.0
 49
0.0
 49
0.0
 49
1.0
175
     0
142
0.0208333333333333
142
0.0
142
0.0
142
0.0
142
0.0
142
0.0208333333333333
142
0.0
142
0.0
142
0.0
142
0.0
142
1.0
142
0.0
142
0.0
142
0.0
142
0.0
142
1.0
179
     0
144
0.0208333333333333
144
0.0
144
0.0
144
0.0
144
0.0
144
0.0208333333333333
144
0.0
144
0.0
144
0.0
144
0.0
144
1.0
144
0.0
144
0.0
144
0.0
144
0.0
144
1.0
147
0.0208333333333333
147
0.0
147
0.0
147
0.0
147
0.0
147
0.0208333333333333
147
0.0
147
0.0
147
0.0
147
0.0
147
1.0
147
0.0
147
0.0
147
0.0
147
0.0
147
1.0
  0
MATERIAL
  5
21
102
{ACAD_XDICTIONARY
360
22
102
}
102
{ACAD_REACTORS
330
10
102
}
330
10
100
AcDbMaterial
  1
Global
 72
     0
 43
0.0208333333333333
 43
0.0
 43
0.0
 43
0.0
 43
0.0
 43
0.0208333333333333
 43
0.0
 43
0.0
 43
0.0
 43
0.0
 43
1.0
 43
0.0
 43
0.0
 43
0.0
 43
0.0
 43
1.0
 77
     0
 47
0.0208333333333333
 47
0.0
 47
0.0
 47
0.0
 47
0.0
 47
0.0208333333333333
 47
0.0
 47
0.0
 47
0.0
 47
0.0
 47
1.0
 47
0.0
 47
0.0
 47
0.0
 47
0.0
 47
1.0
171
     0
 49
0.0208333333333333
 49
0.0
 49
0.0
 49
0.0
 49
0.0
 49
0.0208333333333333
 49
0.0
 49
0.0
 49
0.0
 49
0.0
 49
1.0
 49
0.0
 49
0.0
 49
0.0
 49
0.0
 49
1.0
175
     0
142
0.0208333333333333
142
0.0
142
0.0
142
0.0
142
0.0
142
0.0208333333333333
142
0.0
142
0.0
142
0.0
142
0.0
142
1.0
142
0.0
142
0.0
142
0.0
142
0.0
142
1.0
179
     0
144
0.0208333333333333
144
0.0
144
0.0
144
0.0
144
0.0
144
0.0208333333333333
144
0.0
144
0.0
144
0.0
144
0.0
144
1.0
144
0.0
144
0.0
144
0.0
144
0.0
144
1.0
147
0.0208333333333333
147
0.0
147
0.0
147
0.0
147
0.0
147
0.0208333333333333
147
0.0
147
0.0
147
0.0
147
0.0
147
1.0
147
0.0
147
0.0
147
0.0
147
0.0
147
1.0
  0
MLEADERSTYLE
  5
67
102
{ACAD_XDICTIONARY
360
142
102
}
102
{ACAD_REACTORS
330
66
102
}
330
66
100
AcDbMLeaderStyle
179
     2
170
     2
171
     1
172
     0
 90
        2
 40
0.0
 41
0.0
173
     1
 91
-1056964608
340
5B
 92
       -2
290
     1
 42
0.09
291
     1
 43
0.36
  3
Standard
 44
0.18
300

342
55
174
     1
178
     6
175
     1
176
     0
 93
-1056964608
 45
0.18
292
     0
297
     0
 46
0.18
 94
-1056964608
 47
1.0
 49
1.0
140
1.0
293
     1
141
0.0
294
     1
177
     0
142
1.0
295
     0
296
     0
143
0.125
271
     0
272
     9
273
     9
  0
MLINESTYLE
  5
60
102
{ACAD_REACTORS
330
5F
102
}
330
5F
100
AcDbMlineStyle
  2
STANDARD
 70
     0
  3

 62
   256
 51
90.0
 52
90.0
 71
     2
 49
0.5
 62
   256
  6
BYLAYER
 49
-0.5
 62
   256
  6
BYLAYER
  0
ACDBPLACEHOLDER
  5
F
102
{ACAD_REACTORS
330
E
102
}
330
E
  0
SCALE
  5
43
102
{ACAD_REACTORS
330
42
102
}
330
42
100
AcDbScale
 70
     0
300
1:1
140
1.0
141
1.0
290
     1
  0
SCALE
  5
44
102
{ACAD_REACTORS
330
42
102
}
330
42
100
AcDbScale
 70
     0
300
1/128" = 1'-0"
140
0.0078125
141
12.0
290
     0
  0
SCALE
  5
45
102
{ACAD_REACTORS
330
42
102
}
330
42
100
AcDbScale
 70
     0
300
1/64" = 1'-0"
140
0.015625
141
12.0
290
     0
  0
SCALE
  5
46
102
{ACAD_REACTORS
330
42
102
}
330
42
100
AcDbScale
 70
     0
300
1/32" = 1'-0"
140
0.03125
141
12.0
290
     0
  0
SCALE
  5
47
102
{ACAD_REACTORS
330
42
102
}
330
42
100
AcDbScale
 70
     0
300
1/16" = 1'-0"
140
0.0625
141
12.0
290
     0
  0
SCALE
  5
48
102
{ACAD_REACTORS
330
42
102
}
330
42
100
AcDbScale
 70
     0
300
3/32" = 1'-0"
140
0.09375
141
12.0
290
     0
  0
SCALE
  5
49
102
{ACAD_REACTORS
330
42
102
}
330
42
100
AcDbScale
 70
     0
300
1/8" = 1'-0"
140
0.125
141
12.0
290
     0
  0
SCALE
  5
4A
102
{ACAD_REACTORS
330
42
102
}
330
42
100
AcDbScale
 70
     0
300
3/16" = 1'-0"
140
0.1875
141
12.0
290
     0
  0
SCALE
  5
4B
102
{ACAD_REACTORS
330
42
102
}
330
42
100
AcDbScale
 70
     0
300
1/4" = 1'-0"
140
0.25
141
12.0
290
     0
  0
SCALE
  5
4C
102
{ACAD_REACTORS
330
42
102
}
330
42
100
AcDbScale
 70
     0
300
3/8" = 1'-0"
140
0.375
141
12.0
290
     0
  0
SCALE
  5
4D
102
{ACAD_REACTORS
330
42
102
}
330
42
100
AcDbScale
 70
     0
300
1/2" = 1'-0"
140
0.5
141
12.0
290
     0
  0
SCALE
  5
4E
102
{ACAD_REACTORS
330
42
102
}
330
42
100
AcDbScale
 70
     0
300
3/4" = 1'-0"
140
0.75
141
12.0
290
     0
  0
SCALE
  5
4F
102
{ACAD_REACTORS
330
42
102
}
330
42
100
AcDbScale
 70
     0
300
1" = 1'-0"
140
1.0
141
12.0
290
     0
  0
SCALE
  5
50
102
{ACAD_REACTORS
330
42
102
}
330
42
100
AcDbScale
 70
     0
300
1-1/2" = 1'-0"
140
1.5
141
12.0
290
     0
  0
SCALE
  5
51
102
{ACAD_REACTORS
330
42
102
}
330
42
100
AcDbScale
 70
     0
300
3" = 1'-0"
140
3.0
141
12.0
290
     0
  0
SCALE
  5
52
102
{ACAD_REACTORS
330
42
102
}
330
42
100
AcDbScale
 70
     0
300
6" = 1'-0"
140
6.0
141
12.0
290
     0
  0
SCALE
  5
53
102
{ACAD_REACTORS
330
42
102
}
330
42
100
AcDbScale
 70
     0
300
1'-0" = 1'-0"
140
12.0
141
12.0
290
     0
  0
ACDBSECTIONVIEWSTYLE
  5
69
102
{ACAD_XDICTIONARY
360
144
102
}
102
{ACAD_REACTORS
330
68
102
}
330
68
100
AcDbModelDocViewStyle
 70
     0
  3
Imperial24
290
     0
100
AcDbSectionViewStyle
 70
     0
 71
     0
 90
       78
 71
     1
340
55
 62
   256
 40
0.24
340
0
340
0
 62
   256
 40
0.24
300
I, O, Q, S, X, Z
 40
0.48
 90
        3
 40
0.18
 90
        1
 71
     2
340
5D
 90
       25
 62
   256
340
5D
 90
       50
 62
   256
 40
0.24
 40
0.0
 40
0.24
 71
     3
340
55
 62
   256
 40
0.24
 90
        1
 40
0.75
 90
        1
300
%<\AcVar ViewType \f "%tc1">% %<\AcVar ViewSectionStartId>%-%<\AcVar ViewSectionEndId>%\PSCALE %<\AcVar ViewScale \f "%sn">%
 71
     4
 62
   256
 62
   257
300
ANSI31
 40
1.0
 90
        0
290
     0
290
     0
 90
        6
 40
0.0
 40
1.570796326794896
 40
0.2617993877991494
 40
1.308996938995747
 40
-0.2617993877991494
 40
1.832595714594046
  0
TABLESTYLE
  5
65
102
{ACAD_XDICTIONARY
360
10F
102
}
102
{ACAD_REACTORS
330
64
102
}
330
64
100
AcDbTableStyle
280
     0
  3
Standard
 70
     0
 71
     0
 40
0.06
 41
0.06
280
     0
281
     0
  7
Standard
140
0.18
170
     2
 62
     0
 63
     7
283
     0
 90
      512
 91
        0
  1

274
    -2
284
     1
 64
     0
275
    -2
285
     1
 65
     0
276
    -2
286
     1
 66
     0
277
    -2
287
     1
 67
     0
278
    -2
288
     1
 68
     0
279
    -2
289
     1
 69
     0
  7
Standard
140
0.25
170
     5
 62
     0
 63
     7
283
     0
 90
      512
 91
        0
  1

274
    -2
284
     1
 64
     0
275
    -2
285
     1
 65
     0
276
    -2
286
     1
 66
     0
277
    -2
287
     1
 67
     0
278
    -2
288
     1
 68
     0
279
    -2
289
     1
 69
     0
  7
Standard
140
0.18
170
     5
 62
     0
 63
     7
283
     0
 90
      512
 91
        0
  1

274
    -2
284
     1
 64
     0
275
    -2
285
     1
 65
     0
276
    -2
286
     1
 66
     0
277
    -2
287
     1
 67
     0
278
    -2
288
     1
 68
     0
279
    -2
289
     1
 69
     0
  0
VISUALSTYLE
  5
2F
102
{ACAD_XDICTIONARY
360
11C
102
}
102
{ACAD_REACTORS
330
29
102
}
330
29
100
AcDbVisualStyle
  2
2dWireframe
 70
     4
177
     2
291
     0
 71
     0
176
     1
 72
     2
176
     1
 73
     0
176
     1
 90
        0
176
     1
 40
0.6
176
     1
 41
30.0
176
     1
 63
     7
421
 16777215
176
     1
 74
     1
176
     1
 91
        4
176
     1
 64
     7
176
     1
 65
   257
176
     1
 75
     1
176
     1
175
     1
176
     1
 42
1.0
176
     1
 92
        0
176
     1
 66
   257
176
     1
 43
1.0
176
     1
 76
     1
176
     1
 77
     6
176
     1
 78
     2
176
     1
 67
     7
176
     1
 79
     5
176
     1
170
     0
176
     1
171
     0
176
     1
290
     0
176
     1
 93
        1
176
     1
 44
0.0
176
     1
173
     0
176
     1
1001
ACAD
1000
AcDbSavedByObjectVersion
1070
     0
  0
VISUALSTYLE
  5
2E
102
{ACAD_XDICTIONARY
360
11A
102
}
102
{ACAD_REACTORS
330
29
102
}
330
29
100
AcDbVisualStyle
  2
Basic
 70
     7
177
     2
291
     1
 71
     1
176
     1
 72
     0
176
     1
 73
     1
176
     1
 90
        0
176
     1
 40
0.6
176
     1
 41
30.0
176
     1
 63
     7
421
 16777215
176
     1
 74
     0
176
     1
 91
        4
176
     1
 64
     7
176
     1
 65
   257
176
     1
 75
     1
176
     1
175
     1
176
     1
 42
1.0
176
     1
 92
        8
176
     1
 66
     7
176
     1
 43
1.0
176
     1
 76
     1
176
     1
 77
     6
176
     1
 78
     2
176
     1
 67
     7
176
     1
 79
     5
176
     1
170
     0
176
     1
171
     0
176
     1
290
     0
176
     1
 93
        1
176
     1
 44
0.0
176
     1
173
     0
176
     1
1001
ACAD
1000
AcDbSavedByObjectVersion
1070
     0
  0
VISUALSTYLE
  5
35
102
{ACAD_XDICTIONARY
360
128
102
}
102
{ACAD_REACTORS
330
29
102
}
330
29
100
AcDbVisualStyle
  2
Brighten
 70
    12
177
     2
291
     1
 71
     2
176
     1
 72
     2
176
     1
 73
     0
176
     1
 90
        0
176
     1
 40
0.6
176
     1
 41
30.0
176
     1
 63
     7
421
 16777215
176
     1
 74
     1
176
     1
 91
        4
176
     1
 64
     7
176
     1
 65
   257
176
     1
 75
     1
176
     1
175
     1
176
     1
 42
1.0
176
     1
 92
        8
176
     1
 66
     7
176
     1
 43
1.0
176
     1
 76
     1
176
     1
 77
     6
176
     1
 78
     2
176
     1
 67
     7
176
     1
 79
     5
176
     1
170
     0
176
     1
171
     0
176
     1
290
     0
176
     1
 93
        1
176
     1
 44
50.0
176
     1
173
     0
176
     1
1001
ACAD
1000
AcDbSavedByObjectVersion
1070
     0
  0
VISUALSTYLE
  5
39
102
{ACAD_XDICTIONARY
360
130
102
}
102
{ACAD_REACTORS
330
29
102
}
330
29
100
AcDbVisualStyle
  2
ColorChange
 70
    16
177
     2
291
     1
 71
     2
176
     1
 72
     2
176
     1
 73
     3
176
     1
 90
        0
176
     1
 40
0.6
176
     1
 41
30.0
176
     1
 63
     8
421
  8421504
176
     1
 74
     1
176
     1
 91
        4
176
     1
 64
     7
176
     1
 65
   257
176
     1
 75
     1
176
     1
175
     1
176
     1
 42
1.0
176
     1
 92
        8
176
     1
 66
     8
424
  8421504
176
     1
 43
1.0
176
     1
 76
     1
176
     1
 77
     6
176
     1
 78
     2
176
     1
 67
     7
176
     1
 79
     5
176
     1
170
     0
176
     1
171
     0
176
     1
290
     0
176
     1
 93
        1
176
     1
 44
0.0
176
     1
173
     0
176
     1
1001
ACAD
1000
AcDbSavedByObjectVersion
1070
     0
  0
VISUALSTYLE
  5
32
102
{ACAD_XDICTIONARY
360
122
102
}
102
{ACAD_REACTORS
330
29
102
}
330
29
100
AcDbVisualStyle
  2
Conceptual
 70
     9
177
     2
291
     0
 71
     3
176
     1
 72
     2
176
     1
 73
     0
176
     1
 90
        0
176
     1
 40
0.6
176
     1
 41
30.0
176
     1
 63
     7
421
 16777215
176
     1
 74
     2
176
     1
 91
        2
176
     1
 64
     7
176
     1
 65
   257
176
     1
 75
     1
176
     1
175
     1
176
     1
 42
179.0
176
     1
 92
        8
176
     1
 66
     7
176
     1
 43
1.0
176
     1
 76
     1
176
     1
 77
     6
176
     1
 78
     2
176
     1
 67
     7
176
     1
 79
     3
176
     1
170
     0
176
     1
171
     0
176
     1
290
     0
176
     1
 93
        1
176
     1
 44
0.0
176
     1
173
     0
176
     1
1001
ACAD
1000
AcDbSavedByObjectVersion
1070
     0
  0
VISUALSTYLE
  5
34
102
{ACAD_XDICTIONARY
360
126
102
}
102
{ACAD_REACTORS
330
29
102
}
330
29
100
AcDbVisualStyle
  2
Dim
 70
    11
177
     2
291
     1
 71
     2
176
     1
 72
     2
176
     1
 73
     0
176
     1
 90
        0
176
     1
 40
0.6
176
     1
 41
30.0
176
     1
 63
     7
421
 16777215
176
     1
 74
     1
176
     1
 91
        4
176
     1
 64
     7
176
     1
 65
   257
176
     1
 75
     1
176
     1
175
     1
176
     1
 42
1.0
176
     1
 92
        8
176
     1
 66
     7
176
     1
 43
1.0
176
     1
 76
     1
176
     1
 77
     6
176
     1
 78
     2
176
     1
 67
     7
176
     1
 79
     5
176
     1
170
     0
176
     1
171
     0
176
     1
290
     0
176
     1
 93
        1
176
     1
 44
-50.0
176
     1
173
     0
176
     1
1001
ACAD
1000
AcDbSavedByObjectVersion
1070
     0
  0
VISUALSTYLE
  5
41
102
{ACAD_XDICTIONARY
360
140
102
}
102
{ACAD_REACTORS
330
29
102
}
330
29
100
AcDbVisualStyle
  2
EdgeColorOff
 70
    22
177
     2
291
     1
 71
     2
176
     0
 72
     2
176
     0
 73
     0
176
     0
 90
        0
176
     0
 40
0.6
176
     0
 41
30.0
176
     0
 63
     7
421
 16777215
176
     0
 74
     1
176
     0
 91
        4
176
     0
 64
     7
176
     0
 65
   257
176
     0
 75
     1
176
     0
175
     1
176
     0
 42
1.0
176
     0
 92
        8
176
     2
 66
     7
176
     0
 43
1.0
176
     0
 76
     1
176
     0
 77
     6
176
     0
 78
     2
176
     0
 67
     7
176
     0
 79
     5
176
     0
170
     0
176
     0
171
     0
176
     0
290
     0
176
     0
 93
        1
176
     0
 44
0.0
176
     0
173
     0
176
     0
1001
ACAD
1000
AcDbSavedByObjectVersion
1070
     0
  0
VISUALSTYLE
  5
38
102
{ACAD_XDICTIONARY
360
12E
102
}
102
{ACAD_REACTORS
330
29
102
}
330
29
100
AcDbVisualStyle
  2
Facepattern
 70
    15
177
     2
291
     1
 71
     2
176
     1
 72
     2
176
     1
 73
     0
176
     1
 90
        0
176
     1
 40
0.6
176
     1
 41
30.0
176
     1
 63
     7
421
 16777215
176
     1
 74
     1
176
     1
 91
        4
176
     1
 64
     7
176
     1
 65
   257
176
     1
 75
     1
176
     1
175
     1
176
     1
 42
1.0
176
     1
 92
        8
176
     1
 66
     7
176
     1
 43
1.0
176
     1
 76
     1
176
     1
 77
     6
176
     1
 78
     2
176
     1
 67
     7
176
     1
 79
     5
176
     1
170
     0
176
     1
171
     0
176
     1
290
     0
176
     1
 93
        1
176
     1
 44
0.0
176
     1
173
     0
176
     1
1001
ACAD
1000
AcDbSavedByObjectVersion
1070
     0
  0
VISUALSTYLE
  5
2A
102
{ACAD_XDICTIONARY
360
112
102
}
102
{ACAD_REACTORS
330
29
102
}
330
29
100
AcDbVisualStyle
  2
Flat
 70
     0
177
     2
291
     1
 71
     2
176
     1
 72
     1
176
     1
 73
     1
176
     1
 90
        2
176
     1
 40
0.6
176
     1
 41
30.0
176
     1
 63
     7
421
 16777215
176
     1
 74
     0
176
     1
 91
        0
176
     1
 64
     7
176
     1
 65
   257
176
     1
 75
     1
176
     1
175
     1
176
     1
 42
1.0
176
     1
 92
        8
176
     1
 66
     7
176
     1
 43
1.0
176
     1
 76
     1
176
     1
 77
     6
176
     1
 78
     2
176
     1
 67
     7
176
     1
 79
     5
176
     1
170
     0
176
     1
171
     0
176
     1
290
     0
176
     1
 93
       13
176
     1
 44
0.0
176
     1
173
     0
176
     1
1001
ACAD
1000
AcDbSavedByObjectVersion
1070
     0
  0
VISUALSTYLE
  5
2B
102
{ACAD_XDICTIONARY
360
114
102
}
102
{ACAD_REACTORS
330
29
102
}
330
29
100
AcDbVisualStyle
  2
FlatWithEdges
 70
     1
177
     2
291
     1
 71
     2
176
     1
 72
     1
176
     1
 73
     1
176
     1
 90
        2
176
     1
 40
0.6
176
     1
 41
30.0
176
     1
 63
     7
421
 16777215
176
     1
 74
     1
176
     1
 91
        0
176
     1
 64
     7
176
     1
 65
   257
176
     1
 75
     1
176
     1
175
     1
176
     1
 42
1.0
176
     1
 92
        0
176
     1
 66
   257
176
     1
 43
1.0
176
     1
 76
     1
176
     1
 77
     6
176
     1
 78
     2
176
     1
 67
     7
176
     1
 79
     5
176
     1
170
     0
176
     1
171
     0
176
     1
290
     0
176
     1
 93
       13
176
     1
 44
0.0
176
     1
173
     0
176
     1
1001
ACAD
1000
AcDbSavedByObjectVersion
1070
     0
  0
VISUALSTYLE
  5
2C
102
{ACAD_XDICTIONARY
360
116
102
}
102
{ACAD_REACTORS
330
29
102
}
330
29
100
AcDbVisualStyle
  2
Gouraud
 70
     2
177
     2
291
     1
 71
     2
176
     1
 72
     2
176
     1
 73
     1
176
     1
 90
        2
176
     1
 40
0.6
176
     1
 41
30.0
176
     1
 63
     7
421
 16777215
176
     1
 74
     0
176
     1
 91
        0
176
     1
 64
     7
176
     1
 65
   257
176
     1
 75
     1
176
     1
175
     1
176
     1
 42
1.0
176
     1
 92
        0
176
     1
 66
     7
176
     1
 43
1.0
176
     1
 76
     1
176
     1
 77
     6
176
     1
 78
     2
176
     1
 67
     7
176
     1
 79
     5
176
     1
170
     0
176
     1
171
     0
176
     1
290
     0
176
     1
 93
       13
176
     1
 44
0.0
176
     1
173
     0
176
     1
1001
ACAD
1000
AcDbSavedByObjectVersion
1070
     0
  0
VISUALSTYLE
  5
2D
102
{ACAD_XDICTIONARY
360
118
102
}
102
{ACAD_REACTORS
330
29
102
}
330
29
100
AcDbVisualStyle
  2
GouraudWithEdges
 70
     3
177
     2
291
     1
 71
     2
176
     1
 72
     2
176
     1
 73
     1
176
     1
 90
        2
176
     1
 40
0.6
176
     1
 41
30.0
176
     1
 63
     7
421
 16777215
176
     1
 74
     1
176
     1
 91
        0
176
     1
 64
     7
176
     1
 65
   257
176
     1
 75
     1
176
     1
175
     1
176
     1
 42
1.0
176
     1
 92
        0
176
     1
 66
   257
176
     1
 43
1.0
176
     1
 76
     1
176
     1
 77
     6
176
     1
 78
     2
176
     1
 67
     7
176
     1
 79
     5
176
     1
170
     0
176
     1
171
     0
176
     1
290
     0
176
     1
 93
       13
176
     1
 44
0.0
176
     1
173
     0
176
     1
1001
ACAD
1000
AcDbSavedByObjectVersion
1070
     0
  0
VISUALSTYLE
  5
31
102
{ACAD_XDICTIONARY
360
120
102
}
102
{ACAD_REACTORS
330
29
102
}
330
29
100
AcDbVisualStyle
  2
Hidden
 70
     6
177
     2
291
     0
 71
     1
176
     1
 72
     2
176
     1
 73
     2
176
     1
 90
        0
176
     1
 40
0.6
176
     1
 41
30.0
176
     1
 63
     7
421
 16777215
176
     1
 74
     2
176
     1
 91
        2
176
     1
 64
     7
176
     1
 65
   257
176
     1
 75
     2
176
     1
175
     1
176
     1
 42
40.0
176
     1
 92
        0
176
     1
 66
   257
176
     1
 43
1.0
176
     1
 76
     1
176
     1
 77
     6
176
     1
 78
     2
176
     1
 67
     7
176
     1
 79
     3
176
     1
170
     0
176
     1
171
     0
176
     1
290
     0
176
     1
 93
        1
176
     1
 44
0.0
176
     1
173
     0
176
     1
1001
ACAD
1000
AcDbSavedByObjectVersion
1070
     0
  0
VISUALSTYLE
  5
3F
102
{ACAD_XDICTIONARY
360
13C
102
}
102
{ACAD_REACTORS
330
29
102
}
330
29
100
AcDbVisualStyle
  2
JitterOff
 70
    20
177
     2
291
     1
 71
     2
176
     0
 72
     2
176
     0
 73
     0
176
     0
 90
        0
176
     0
 40
0.6
176
     0
 41
30.0
176
     0
 63
     7
421
 16777215
176
     0
 74
     1
176
     0
 91
        4
176
     0
 64
     7
176
     0
 65
   257
176
     0
 75
     1
176
     0
175
     1
176
     0
 42
1.0
176
     0
 92
       10
176
     2
 66
     7
176
     0
 43
1.0
176
     0
 76
     1
176
     0
 77
     6
176
     0
 78
     2
176
     0
 67
     7
176
     0
 79
     5
176
     0
170
     0
176
     0
171
     0
176
     0
290
     0
176
     0
 93
        1
176
     0
 44
0.0
176
     0
173
     0
176
     0
1001
ACAD
1000
AcDbSavedByObjectVersion
1070
     0
  0
VISUALSTYLE
  5
37
102
{ACAD_XDICTIONARY
360
12C
102
}
102
{ACAD_REACTORS
330
29
102
}
330
29
100
AcDbVisualStyle
  2
Linepattern
 70
    14
177
     2
291
     1
 71
     2
176
     1
 72
     2
176
     1
 73
     0
176
     1
 90
        0
176
     1
 40
0.6
176
     1
 41
30.0
176
     1
 63
     7
421
 16777215
176
     1
 74
     1
176
     1
 91
        4
176
     1
 64
     7
176
     1
 65
   257
176
     1
 75
     7
176
     1
175
     7
176
     1
 42
1.0
176
     1
 92
        8
176
     1
 66
     7
176
     1
 43
1.0
176
     1
 76
     1
176
     1
 77
     6
176
     1
 78
     2
176
     1
 67
     7
176
     1
 79
     5
176
     1
170
     0
176
     1
171
     0
176
     1
290
     0
176
     1
 93
        1
176
     1
 44
0.0
176
     1
173
     0
176
     1
1001
ACAD
1000
AcDbSavedByObjectVersion
1070
     0
  0
VISUALSTYLE
  5
40
102
{ACAD_XDICTIONARY
360
13E
102
}
102
{ACAD_REACTORS
330
29
102
}
330
29
100
AcDbVisualStyle
  2
OverhangOff
 70
    21
177
     2
291
     1
 71
     2
176
     0
 72
     2
176
     0
 73
     0
176
     0
 90
        0
176
     0
 40
0.6
176
     0
 41
30.0
176
     0
 63
     7
421
 16777215
176
     0
 74
     1
176
     0
 91
        4
176
     0
 64
     7
176
     0
 65
   257
176
     0
 75
     1
176
     0
175
     1
176
     0
 42
1.0
176
     0
 92
        9
176
     2
 66
     7
176
     0
 43
1.0
176
     0
 76
     1
176
     0
 77
     6
176
     0
 78
     2
176
     0
 67
     7
176
     0
 79
     5
176
     0
170
     0
176
     0
171
     0
176
     0
290
     0
176
     0
 93
        1
176
     0
 44
0.0
176
     0
173
     0
176
     0
1001
ACAD
1000
AcDbSavedByObjectVersion
1070
     0
  0
VISUALSTYLE
  5
33
102
{ACAD_XDICTIONARY
360
124
102
}
102
{ACAD_REACTORS
330
29
102
}
330
29
100
AcDbVisualStyle
  2
Realistic
 70
     8
177
     2
291
     0
 71
     2
176
     1
 72
     3
176
     1
 73
     0
176
     1
 90
        2
176
     1
 40
0.6
176
     1
 41
30.0
176
     1
 63
     7
421
 16777215
176
     1
 74
     0
176
     1
 91
        0
176
     1
 64
     7
176
     1
 65
   257
176
     1
 75
     1
176
     1
175
     1
176
     1
 42
1.0
176
     1
 92
        8
176
     1
 66
   257
176
     1
 43
1.0
176
     1
 76
     1
176
     1
 77
     6
176
     1
 78
     2
176
     1
 67
     7
176
     1
 79
     3
176
     1
170
     0
176
     1
171
     0
176
     1
290
     0
176
     1
 93
       13
176
     1
 44
0.0
176
     1
173
     0
176
     1
1001
ACAD
1000
AcDbSavedByObjectVersion
1070
     0
  0
VISUALSTYLE
  5
3E
102
{ACAD_XDICTIONARY
360
13A
102
}
102
{ACAD_REACTORS
330
29
102
}
330
29
100
AcDbVisualStyle
  2
Shaded
 70
    27
177
     2
291
     0
 71
     2
176
     1
 72
     2
176
     1
 73
     1
176
     1
 90
        2
176
     1
 40
0.6
176
     1
 41
30.0
176
     1
 63
     7
421
 16777215
176
     1
 74
     0
176
     1
 91
        4
176
     1
 64
     7
176
     1
 65
   257
176
     1
 75
     1
176
     1
175
     1
176
     1
 42
1.0
176
     1
 92
        8
176
     1
 66
   257
176
     1
 43
1.0
176
     1
 76
     1
176
     1
 77
     6
176
     1
 78
     2
176
     1
 67
     8
425
  7895160
176
     1
 79
     3
176
     1
170
     0
176
     1
171
     0
176
     1
290
     0
176
     1
 93
        5
176
     1
 44
0.0
176
     1
173
     0
176
     1
1001
ACAD
1000
AcDbSavedByObjectVersion
1070
     0
  0
VISUALSTYLE
  5
3D
102
{ACAD_XDICTIONARY
360
138
102
}
102
{ACAD_REACTORS
330
29
102
}
330
29
100
AcDbVisualStyle
  2
Shaded with edges
 70
    26
177
     2
291
     0
 71
     2
176
     1
 72
     2
176
     1
 73
     1
176
     1
 90
        2
176
     1
 40
0.6
176
     1
 41
30.0
176
     1
 63
     7
421
 16777215
176
     1
 74
     1
176
     1
 91
        2
176
     1
 64
     7
176
     1
 65
   257
176
     1
 75
     2
176
     1
175
     1
176
     1
 42
1.0
176
     1
 92
        8
176
     1
 66
   257
176
     1
 43
1.0
176
     1
 76
     1
176
     1
 77
     6
176
     1
 78
     2
176
     1
 67
     7
176
     1
 79
     3
176
     1
170
     0
176
     1
171
     0
176
     1
290
     0
176
     1
 93
        5
176
     1
 44
0.0
176
     1
173
     0
176
     1
1001
ACAD
1000
AcDbSavedByObjectVersion
1070
     0
  0
VISUALSTYLE
  5
3A
102
{ACAD_XDICTIONARY
360
132
102
}
102
{ACAD_REACTORS
330
29
102
}
330
29
100
AcDbVisualStyle
  2
Shades of Gray
 70
    23
177
     2
291
     0
 71
     2
176
     1
 72
     2
176
     1
 73
     3
176
     1
 90
        0
176
     1
 40
0.6
176
     1
 41
30.0
176
     1
 63
     7
421
 16777215
176
     1
 74
     2
176
     1
 91
        2
176
     1
 64
     7
176
     1
 65
     7
176
     1
 75
     1
176
     1
175
     1
176
     1
 42
40.0
176
     1
 92
        8
176
     1
 66
     7
176
     1
 43
1.0
176
     1
 76
     1
176
     1
 77
     6
176
     1
 78
     2
176
     1
 67
     7
176
     1
 79
     3
176
     1
170
     0
176
     1
171
     0
176
     1
290
     0
176
     1
 93
        1
176
     1
 44
0.0
176
     1
173
     0
176
     1
1001
ACAD
1000
AcDbSavedByObjectVersion
1070
     0
  0
VISUALSTYLE
  5
3B
102
{ACAD_XDICTIONARY
360
134
102
}
102
{ACAD_REACTORS
330
29
102
}
330
29
100
AcDbVisualStyle
  2
Sketchy
 70
    24
177
     2
291
     0
 71
     1
176
     1
 72
     2
176
     1
 73
     2
176
     1
 90
        0
176
     1
 40
0.6
176
     1
 41
30.0
176
     1
 63
     7
421
 16777215
176
     1
 74
     2
176
     1
 91
        2
176
     1
 64
     7
176
     1
 65
     7
176
     1
 75
     1
176
     1
175
     1
176
     1
 42
40.0
176
     1
 92
       11
176
     1
 66
     7
176
     1
 43
1.0
176
     1
 76
     1
176
     1
 77
     6
176
     1
 78
     2
176
     1
 67
     7
176
     1
 79
     6
176
     1
170
     0
176
     1
171
     0
176
     1
290
     0
176
     1
 93
        1
176
     1
 44
0.0
176
     1
173
     0
176
     1
1001
ACAD
1000
AcDbSavedByObjectVersion
1070
     0
  0
VISUALSTYLE
  5
36
102
{ACAD_XDICTIONARY
360
12A
102
}
102
{ACAD_REACTORS
330
29
102
}
330
29
100
AcDbVisualStyle
  2
Thicken
 70
    13
177
     2
291
     1
 71
     2
176
     1
 72
     2
176
     1
 73
     0
176
     1
 90
        0
176
     1
 40
0.6
176
     1
 41
30.0
176
     1
 63
     7
421
 16777215
176
     1
 74
     1
176
     1
 91
        4
176
     1
 64
     7
176
     1
 65
   257
176
     1
 75
     1
176
     1
175
     1
176
     1
 42
1.0
176
     1
 92
       12
176
     1
 66
     7
176
     1
 43
1.0
176
     1
 76
     1
176
     1
 77
     6
176
     1
 78
     2
176
     1
 67
     7
176
     1
 79
     5
176
     1
170
     0
176
     1
171
     0
176
     1
290
     0
176
     1
 93
        1
176
     1
 44
0.0
176
     1
173
     0
176
     1
1001
ACAD
1000
AcDbSavedByObjectVersion
1070
     0
  0
VISUALSTYLE
  5
30
102
{ACAD_XDICTIONARY
360
11E
102
}
102
{ACAD_REACTORS
330
29
102
}
330
29
100
AcDbVisualStyle
  2
Wireframe
 70
     5
177
     2
291
     0
 71
     0
176
     1
 72
     2
176
     1
 73
     0
176
     1
 90
        0
176
     1
 40
0.6
176
     1
 41
30.0
176
     1
 63
     7
421
 16777215
176
     1
 74
     1
176
     1
 91
        4
176
     1
 64
     7
176
     1
 65
   257
176
     1
 75
     1
176
     1
175
     1
176
     1
 42
1.0
176
     1
 92
        0
176
     1
 66
   257
176
     1
 43
1.0
176
     1
 76
     1
176
     1
 77
     6
176
     1
 78
     2
176
     1
 67
     7
176
     1
 79
     3
176
     1
170
     0
176
     1
171
     0
176
     1
290
     0
176
     1
 93
        1
176
     1
 44
0.0
176
     1
173
     0
176
     1
1001
ACAD
1000
AcDbSavedByObjectVersion
1070
     0
  0
VISUALSTYLE
  5
3C
102
{ACAD_XDICTIONARY
360
136
102
}
102
{ACAD_REACTORS
330
29
102
}
330
29
100
AcDbVisualStyle
  2
X-Ray
 70
    25
177
     2
291
     0
 71
     2
176
     1
 72
     2
176
     1
 73
     1
176
     1
 90
        1
176
     1
 40
0.5
176
     1
 41
30.0
176
     1
 63
     7
421
 16777215
176
     1
 74
     1
176
     1
 91
        0
176
     1
 64
     7
176
     1
 65
   257
176
     1
 75
     1
176
     1
175
     1
176
     1
 42
1.0
176
     1
 92
        8
176
     1
 66
     7
176
     1
 43
1.0
176
     1
 76
     1
176
     1
 77
     6
176
     1
 78
     2
176
     1
 67
     7
176
     1
 79
     3
176
     1
170
     0
176
     1
171
     0
176
     1
290
     0
176
     1
 93
       13
176
     1
 44
0.0
176
     1
173
     0
176
     1
1001
ACAD
1000
AcDbSavedByObjectVersion
1070
     0
  0
DICTIONARYVAR
  5
10E
102
{ACAD_REACTORS
330
109
102
}
330
109
100
DictionaryVariables
280
     0
  1
1:1
  0
DICTIONARYVAR
  5
10B
102
{ACAD_REACTORS
330
109
102
}
330
109
100
DictionaryVariables
280
     0
  1
STANDARD
  0
DICTIONARYVAR
  5
10A
102
{ACAD_REACTORS
330
109
102
}
330
109
100
DictionaryVariables
280
     0
  1
STANDARD
  0
DICTIONARYVAR
  5
10C
102
{ACAD_REACTORS
330
109
102
}
330
109
100
DictionaryVariables
280
     0
  1
Imperial24
  0
DICTIONARYVAR
  5
10D
102
{ACAD_REACTORS
330
109
102
}
330
109
100
DictionaryVariables
280
     0
  1
Imperial24
  0
DICTIONARY
  5
146
330
6B
100
AcDbDictionary
280
     1
281
     1
  3
ACAD_XREC_ROUNDTRIP
360
147
  0
DICTIONARY
  5
1A
330
19
100
AcDbDictionary
280
     1
281
     1
  3
BUMPTILE
360
1C
  3
DIFFUSETILE
360
1B
  3
OPACITYTILE
360
1F
  3
REFLECTIONTILE
360
1E
  3
REFRACTIONTILE
360
20
  3
SPECULARTILE
360
1D
  0
DICTIONARY
  5
12
330
11
100
AcDbDictionary
280
     1
281
     1
  3
BUMPTILE
360
14
  3
DIFFUSETILE
360
13
  3
OPACITYTILE
360
17
  3
REFLECTIONTILE
360
16
  3
REFRACTIONTILE
360
18
  3
SPECULARTILE
360
15
  0
DICTIONARY
  5
22
330
21
100
AcDbDictionary
280
     1
281
     1
  3
BUMPTILE
360
24
  3
DIFFUSETILE
360
23
  3
OPACITYTILE
360
27
  3
REFLECTIONTILE
360
26
  3
REFRACTIONTILE
360
28
  3
SPECULARTILE
360
25
  0
DICTIONARY
  5
142
330
67
100
AcDbDictionary
280
     1
281
     1
  3
ACAD_XREC_ROUNDTRIP
360
143
  0
DICTIONARY
  5
144
330
69
100
AcDbDictionary
280
     1
281
     1
  3
ACAD_XREC_ROUNDTRIP
360
145
  0
DICTIONARY
  5
10F
330
65
100
AcDbDictionary
280
     1
281
     1
  3
ACAD_ROUNDTRIP_2008_TABLESTYLE_CELLSTYLEMAP
360
110
  0
DICTIONARY
  5
11C
330
2F
100
AcDbDictionary
280
     1
281
     1
  3
ACAD_XREC_ROUNDTRIP
360
11D
  0
DICTIONARY
  5
11A
330
2E
100
AcDbDictionary
280
     1
281
     1
  3
ACAD_XREC_ROUNDTRIP
360
11B
  0
DICTIONARY
  5
128
330
35
100
AcDbDictionary
280
     1
281
     1
  3
ACAD_XREC_ROUNDTRIP
360
129
  0
DICTIONARY
  5
130
330
39
100
AcDbDictionary
280
     1
281
     1
  3
ACAD_XREC_ROUNDTRIP
360
131
  0
DICTIONARY
  5
122
330
32
100
AcDbDictionary
280
     1
281
     1
  3
ACAD_XREC_ROUNDTRIP
360
123
  0
DICTIONARY
  5
126
330
34
100
AcDbDictionary
280
     1
281
     1
  3
ACAD_XREC_ROUNDTRIP
360
127
  0
DICTIONARY
  5
140
330
41
100
AcDbDictionary
280
     1
281
     1
  3
ACAD_XREC_ROUNDTRIP
360
141
  0
DICTIONARY
  5
12E
330
38
100
AcDbDictionary
280
     1
281
     1
  3
ACAD_XREC_ROUNDTRIP
360
12F
  0
DICTIONARY
  5
112
330
2A
100
AcDbDictionary
280
     1
281
     1
  3
ACAD_XREC_ROUNDTRIP
360
113
  0
DICTIONARY
  5
114
330
2B
100
AcDbDictionary
280
     1
281
     1
  3
ACAD_XREC_ROUNDTRIP
360
115
  0
DICTIONARY
  5
116
330
2C
100
AcDbDictionary
280
     1
281
     1
  3
ACAD_XREC_ROUNDTRIP
360
117
  0
DICTIONARY
  5
118
330
2D
100
AcDbDictionary
280
     1
281
     1
  3
ACAD_XREC_ROUNDTRIP
360
119
  0
DICTIONARY
  5
120
330
31
100
AcDbDictionary
280
     1
281
     1
  3
ACAD_XREC_ROUNDTRIP
360
121
  0
DICTIONARY
  5
13C
330
3F
100
AcDbDictionary
280
     1
281
     1
  3
ACAD_XREC_ROUNDTRIP
360
13D
  0
DICTIONARY
  5
12C
330
37
100
AcDbDictionary
280
     1
281
     1
  3
ACAD_XREC_ROUNDTRIP
360
12D
  0
DICTIONARY
  5
13E
330
40
100
AcDbDictionary
280
     1
281
     1
  3
ACAD_XREC_ROUNDTRIP
360
13F
  0
DICTIONARY
  5
124
330
33
100
AcDbDictionary
280
     1
281
     1
  3
ACAD_XREC_ROUNDTRIP
360
125
  0
DICTIONARY
  5
13A
330
3E
100
AcDbDictionary
280
     1
281
     1
  3
ACAD_XREC_ROUNDTRIP
360
13B
  0
DICTIONARY
  5
138
330
3D
100
AcDbDictionary
280
     1
281
     1
  3
ACAD_XREC_ROUNDTRIP
360
139
  0
DICTIONARY
  5
132
330
3A
100
AcDbDictionary
280
     1
281
     1
  3
ACAD_XREC_ROUNDTRIP
360
133
  0
DICTIONARY
  5
134
330
3B
100
AcDbDictionary
280
     1
281
     1
  3
ACAD_XREC_ROUNDTRIP
360
135
  0
DICTIONARY
  5
12A
330
36
100
AcDbDictionary
280
     1
281
     1
  3
ACAD_XREC_ROUNDTRIP
360
12B
  0
DICTIONARY
  5
11E
330
30
100
AcDbDictionary
280
     1
281
     1
  3
ACAD_XREC_ROUNDTRIP
360
11F
  0
DICTIONARY
  5
136
330
3C
100
AcDbDictionary
280
     1
281
     1
  3
ACAD_XREC_ROUNDTRIP
360
137
  0
XRECORD
  5
147
102
{ACAD_REACTORS
330
146
102
}
330
146
100
AcDbXrecord
280
     1
102
DISPLAYNAME
  1
Imperial24
102
FLAGS
 90
        0
  0
XRECORD
  5
1C
102
{ACAD_REACTORS
330
1A
102
}
330
1A
100
AcDbXrecord
280
     1
270
     1
271
     1
  0
XRECORD
  5
1B
102
{ACAD_REACTORS
330
1A
102
}
330
1A
100
AcDbXrecord
280
     1
270
     1
271
     1
  0
XRECORD
  5
1F
102
{ACAD_REACTORS
330
1A
102
}
330
1A
100
AcDbXrecord
280
     1
270
     1
271
     1
  0
XRECORD
  5
1E
102
{ACAD_REACTORS
330
1A
102
}
330
1A
100
AcDbXrecord
280
     1
270
     1
271
     1
  0
XRECORD
  5
20
102
{ACAD_REACTORS
330
1A
102
}
330
1A
100
AcDbXrecord
280
     1
270
     1
271
     1
  0
XRECORD
  5
1D
102
{ACAD_REACTORS
330
1A
102
}
330
1A
100
AcDbXrecord
280
     1
270
     1
271
     1
  0
XRECORD
  5
14
102
{ACAD_REACTORS
330
12
102
}
330
12
100
AcDbXrecord
280
     1
270
     1
271
     1
  0
XRECORD
  5
13
102
{ACAD_REACTORS
330
12
102
}
330
12
100
AcDbXrecord
280
     1
270
     1
271
     1
  0
XRECORD
  5
17
102
{ACAD_REACTORS
330
12
102
}
330
12
100
AcDbXrecord
280
     1
270
     1
271
     1
  0
XRECORD
  5
16
102
{ACAD_REACTORS
330
12
102
}
330
12
100
AcDbXrecord
280
     1
270
     1
271
     1
  0
XRECORD
  5
18
102
{ACAD_REACTORS
330
12
102
}
330
12
100
AcDbXrecord
280
     1
270
     1
271
     1
  0
XRECORD
  5
15
102
{ACAD_REACTORS
330
12
102
}
330
12
100
AcDbXrecord
280
     1
270
     1
271
     1
  0
XRECORD
  5
24
102
{ACAD_REACTORS
330
22
102
}
330
22
100
AcDbXrecord
280
     1
270
     1
271
     1
  0
XRECORD
  5
23
102
{ACAD_REACTORS
330
22
102
}
330
22
100
AcDbXrecord
280
     1
270
     1
271
     1
  0
XRECORD
  5
27
102
{ACAD_REACTORS
330
22
102
}
330
22
100
AcDbXrecord
280
     1
270
     1
271
     1
  0
XRECORD
  5
26
102
{ACAD_REACTORS
330
22
102
}
330
22
100
AcDbXrecord
280
     1
270
     1
271
     1
  0
XRECORD
  5
28
102
{ACAD_REACTORS
330
22
102
}
330
22
100
AcDbXrecord
280
     1
270
     1
271
     1
  0
XRECORD
  5
25
102
{ACAD_REACTORS
330
22
102
}
330
22
100
AcDbXrecord
280
     1
270
     1
271
     1
  0
XRECORD
  5
143
102
{ACAD_REACTORS
330
142
102
}
330
142
100
AcDbXrecord
280
     1
102
ACAD_ROUNDTRIP_2012_MLEADER_STYLE
298
     1
  0
XRECORD
  5
145
102
{ACAD_REACTORS
330
144
102
}
330
144
100
AcDbXrecord
280
     1
102
DISPLAYNAME
  1
Imperial24
102
FLAGS
 90
        0
  0
CELLSTYLEMAP
  5
110
102
{ACAD_REACTORS
330
10F
102
}
330
10F
100
AcDbCellStyleMap
 90
        3
300
CELLSTYLE
  1
TABLEFORMAT_BEGIN
 90
        5
170
     1
 91
        0
 92
    32768
 62
   257
 93
        1
300
CONTENTFORMAT
  1
CONTENTFORMAT_BEGIN
 90
        0
 91
        0
 92
      512
 93
        0
300

 40
0.0
140
1.0
 94
        5
 62
     0
340
55
144
0.25
309
CONTENTFORMAT_END
171
     0
 94
        0
309
TABLEFORMAT_END
  1
CELLSTYLE_BEGIN
 90
        1
 91
        1
300
_TITLE
309
CELLSTYLE_END
300
CELLSTYLE
  1
TABLEFORMAT_BEGIN
 90
        5
170
     1
 91
        0
 92
        0
 62
   257
 93
        1
300
CONTENTFORMAT
  1
CONTENTFORMAT_BEGIN
 90
        0
 91
        0
 92
      512
 93
        0
300

 40
0.0
140
1.0
 94
        5
 62
     0
340
55
144
0.18
309
CONTENTFORMAT_END
171
     0
 94
        0
309
TABLEFORMAT_END
  1
CELLSTYLE_BEGIN
 90
        2
 91
        1
300
_HEADER
309
CELLSTYLE_END
300
CELLSTYLE
  1
TABLEFORMAT_BEGIN
 90
        5
170
     1
 91
        0
 92
        0
 62
   257
 93
        1
300
CONTENTFORMAT
  1
CONTENTFORMAT_BEGIN
 90
        0
 91
        0
 92
      512
 93
        0
300

 40
0.0
140
1.0
 94
        2
 62
     0
340
55
144
0.18
309
CONTENTFORMAT_END
171
     0
 94
        0
309
TABLEFORMAT_END
  1
CELLSTYLE_BEGIN
 90
        3
 91
        2
300
_DATA
309
CELLSTYLE_END
  0
XRECORD
  5
11D
102
{ACAD_REACTORS
330
11C
102
}
330
11C
100
AcDbXrecord
280
     1
102
RTVSPost2010Prop28
280
     1
102
RTVSPost2010PropOp28
 70
     1
102
RTVSPost2010Prop29
280
     1
102
RTVSPost2010PropOp29
 70
     1
102
RTVSPost2010Prop30
280
     0
102
RTVSPost2010PropOp30
 70
     1
102
RTVSPost2010Prop31
280
     0
102
RTVSPost2010PropOp31
 70
     1
102
RTVSPost2010Prop32
280
     0
102
RTVSPost2010PropOp32
 70
     1
102
RTVSPost2010Prop33
280
     0
102
RTVSPost2010PropOp33
 70
     1
102
RTVSPost2010Prop34
280
     0
102
RTVSPost2010PropOp34
 70
     1
102
RTVSPost2010Prop35
280
     0
102
RTVSPost2010PropOp35
 70
     1
102
RTVSPost2010Prop36
280
     0
102
RTVSPost2010PropOp36
 70
     1
102
RTVSPost2010Prop37
 90
       50
102
RTVSPost2010PropOp37
 70
     1
102
RTVSPost2010Prop38
140
0.0
102
RTVSPost2010PropOp38
 70
     1
102
RTVSPost2010Prop39
140
1.0
102
RTVSPost2010PropOp39
 70
     1
102
RTVSPost2010Prop40
 90
        0
102
RTVSPost2010PropOp40
 70
     1
102
RTVSPost2010Prop41ColorIndex
 90
       18
102
RTVSPost2010Prop41ColorRGB
 90
        0
102
RTVSPost2010PropOp41
 70
     1
102
RTVSPost2010Prop42
 90
       50
102
RTVSPost2010PropOp42
 70
     1
102
RTVSPost2010Prop43
 90
        3
102
RTVSPost2010PropOp43
 70
     1
102
RTVSPost2010Prop44ColorIndex
 90
        5
102
RTVSPost2010Prop44ColorRGB
 90
      255
102
RTVSPost2010PropOp44
 70
     1
102
RTVSPost2010Prop45
280
     0
102
RTVSPost2010PropOp45
 70
     1
102
RTVSPost2010Prop46
 90
       50
102
RTVSPost2010PropOp46
 70
     1
102
RTVSPost2010Prop47
 90
       50
102
RTVSPost2010PropOp47
 70
     1
102
RTVSPost2010Prop48
 90
       50
102
RTVSPost2010PropOp48
 70
     1
102
RTVSPost2010Prop49
280
     0
102
RTVSPost2010PropOp49
 70
     1
102
RTVSPost2010Prop50
 90
       50
102
RTVSPost2010PropOp50
 70
     1
102
RTVSPost2010Prop51ColorIndex
 90
      256
102
RTVSPost2010Prop51ColorRGB
 90
-16777216
102
RTVSPost2010PropOp51
 70
     0
102
RTVSPost2010Prop52
140
1.0
102
RTVSPost2010PropOp52
 70
     0
102
RTVSPost2010Prop53
 90
        2
102
RTVSPost2010PropOp53
 70
     1
102
RTVSPost2010Prop54
  1
strokes_ogs.tif
102
RTVSPost2010PropOp54
 70
     1
102
RTVSPost2010Prop55
280
     0
102
RTVSPost2010PropOp55
 70
     1
102
RTVSPost2010Prop56
140
1.0
102
RTVSPost2010PropOp56
 70
     1
102
RTVSPost2010Prop57
140
1.0
102
RTVSPost2010PropOp57
 70
     1
  0
XRECORD
  5
11B
102
{ACAD_REACTORS
330
11A
102
}
330
11A
100
AcDbXrecord
280
     1
102
RTVSPost2010Prop28
280
     0
102
RTVSPost2010PropOp28
 70
     1
102
RTVSPost2010Prop29
280
     1
102
RTVSPost2010PropOp29
 70
     1
102
RTVSPost2010Prop30
280
     1
102
RTVSPost2010PropOp30
 70
     1
102
RTVSPost2010Prop31
280
     0
102
RTVSPost2010PropOp31
 70
     1
102
RTVSPost2010Prop32
280
     0
102
RTVSPost2010PropOp32
 70
     1
102
RTVSPost2010Prop33
280
     0
102
RTVSPost2010PropOp33
 70
     1
102
RTVSPost2010Prop34
280
     0
102
RTVSPost2010PropOp34
 70
     1
102
RTVSPost2010Prop35
280
     0
102
RTVSPost2010PropOp35
 70
     1
102
RTVSPost2010Prop36
280
     0
102
RTVSPost2010PropOp36
 70
     1
102
RTVSPost2010Prop37
 90
       50
102
RTVSPost2010PropOp37
 70
     1
102
RTVSPost2010Prop38
140
0.0
102
RTVSPost2010PropOp38
 70
     1
102
RTVSPost2010Prop39
140
1.0
102
RTVSPost2010PropOp39
 70
     1
102
RTVSPost2010Prop40
 90
        0
102
RTVSPost2010PropOp40
 70
     1
102
RTVSPost2010Prop41ColorIndex
 90
       18
102
RTVSPost2010Prop41ColorRGB
 90
        0
102
RTVSPost2010PropOp41
 70
     1
102
RTVSPost2010Prop42
 90
       50
102
RTVSPost2010PropOp42
 70
     1
102
RTVSPost2010Prop43
 90
        3
102
RTVSPost2010PropOp43
 70
     1
102
RTVSPost2010Prop44ColorIndex
 90
        5
102
RTVSPost2010Prop44ColorRGB
 90
      255
102
RTVSPost2010PropOp44
 70
     1
102
RTVSPost2010Prop45
280
     0
102
RTVSPost2010PropOp45
 70
     1
102
RTVSPost2010Prop46
 90
       50
102
RTVSPost2010PropOp46
 70
     1
102
RTVSPost2010Prop47
 90
       50
102
RTVSPost2010PropOp47
 70
     1
102
RTVSPost2010Prop48
 90
       50
102
RTVSPost2010PropOp48
 70
     1
102
RTVSPost2010Prop49
280
     0
102
RTVSPost2010PropOp49
 70
     1
102
RTVSPost2010Prop50
 90
       50
102
RTVSPost2010PropOp50
 70
     1
102
RTVSPost2010Prop51ColorIndex
 90
      256
102
RTVSPost2010Prop51ColorRGB
 90
-16777216
102
RTVSPost2010PropOp51
 70
     0
102
RTVSPost2010Prop52
140
1.0
102
RTVSPost2010PropOp52
 70
     0
102
RTVSPost2010Prop53
 90
        2
102
RTVSPost2010PropOp53
 70
     1
102
RTVSPost2010Prop54
  1
strokes_ogs.tif
102
RTVSPost2010PropOp54
 70
     1
102
RTVSPost2010Prop55
280
     0
102
RTVSPost2010PropOp55
 70
     1
102
RTVSPost2010Prop56
140
1.0
102
RTVSPost2010PropOp56
 70
     1
102
RTVSPost2010Prop57
140
1.0
102
RTVSPost2010PropOp57
 70
     1
  0
XRECORD
  5
129
102
{ACAD_REACTORS
330
128
102
}
330
128
100
AcDbXrecord
280
     1
102
RTVSPost2010Prop28
280
     0
102
RTVSPost2010PropOp28
 70
     1
102
RTVSPost2010Prop29
280
     1
102
RTVSPost2010PropOp29
 70
     1
102
RTVSPost2010Prop30
280
     1
102
RTVSPost2010PropOp30
 70
     1
102
RTVSPost2010Prop31
280
     0
102
RTVSPost2010PropOp31
 70
     1
102
RTVSPost2010Prop32
280
     0
102
RTVSPost2010PropOp32
 70
     1
102
RTVSPost2010Prop33
280
     0
102
RTVSPost2010PropOp33
 70
     1
102
RTVSPost2010Prop34
280
     0
102
RTVSPost2010PropOp34
 70
     1
102
RTVSPost2010Prop35
280
     0
102
RTVSPost2010PropOp35
 70
     1
102
RTVSPost2010Prop36
280
     0
102
RTVSPost2010PropOp36
 70
     1
102
RTVSPost2010Prop37
 90
       50
102
RTVSPost2010PropOp37
 70
     1
102
RTVSPost2010Prop38
140
0.0
102
RTVSPost2010PropOp38
 70
     1
102
RTVSPost2010Prop39
140
1.0
102
RTVSPost2010PropOp39
 70
     1
102
RTVSPost2010Prop40
 90
        0
102
RTVSPost2010PropOp40
 70
     1
102
RTVSPost2010Prop41ColorIndex
 90
       18
102
RTVSPost2010Prop41ColorRGB
 90
        0
102
RTVSPost2010PropOp41
 70
     1
102
RTVSPost2010Prop42
 90
       50
102
RTVSPost2010PropOp42
 70
     1
102
RTVSPost2010Prop43
 90
        3
102
RTVSPost2010PropOp43
 70
     1
102
RTVSPost2010Prop44ColorIndex
 90
        5
102
RTVSPost2010Prop44ColorRGB
 90
      255
102
RTVSPost2010PropOp44
 70
     1
102
RTVSPost2010Prop45
280
     0
102
RTVSPost2010PropOp45
 70
     1
102
RTVSPost2010Prop46
 90
       50
102
RTVSPost2010PropOp46
 70
     1
102
RTVSPost2010Prop47
 90
       50
102
RTVSPost2010PropOp47
 70
     1
102
RTVSPost2010Prop48
 90
       50
102
RTVSPost2010PropOp48
 70
     1
102
RTVSPost2010Prop49
280
     0
102
RTVSPost2010PropOp49
 70
     1
102
RTVSPost2010Prop50
 90
       50
102
RTVSPost2010PropOp50
 70
     1
102
RTVSPost2010Prop51ColorIndex
 90
      256
102
RTVSPost2010Prop51ColorRGB
 90
-16777216
102
RTVSPost2010PropOp51
 70
     0
102
RTVSPost2010Prop52
140
1.0
102
RTVSPost2010PropOp52
 70
     0
102
RTVSPost2010Prop53
 90
        2
102
RTVSPost2010PropOp53
 70
     1
102
RTVSPost2010Prop54
  1
strokes_ogs.tif
102
RTVSPost2010PropOp54
 70
     1
102
RTVSPost2010Prop55
280
     0
102
RTVSPost2010PropOp55
 70
     1
102
RTVSPost2010Prop56
140
1.0
102
RTVSPost2010PropOp56
 70
     1
102
RTVSPost2010Prop57
140
1.0
102
RTVSPost2010PropOp57
 70
     1
  0
XRECORD
  5
131
102
{ACAD_REACTORS
330
130
102
}
330
130
100
AcDbXrecord
280
     1
102
RTVSPost2010Prop28
280
     0
102
RTVSPost2010PropOp28
 70
     1
102
RTVSPost2010Prop29
280
     1
102
RTVSPost2010PropOp29
 70
     1
102
RTVSPost2010Prop30
280
     1
102
RTVSPost2010PropOp30
 70
     1
102
RTVSPost2010Prop31
280
     0
102
RTVSPost2010PropOp31
 70
     1
102
RTVSPost2010Prop32
280
     0
102
RTVSPost2010PropOp32
 70
     1
102
RTVSPost2010Prop33
280
     0
102
RTVSPost2010PropOp33
 70
     1
102
RTVSPost2010Prop34
280
     0
102
RTVSPost2010PropOp34
 70
     1
102
RTVSPost2010Prop35
280
     0
102
RTVSPost2010PropOp35
 70
     1
102
RTVSPost2010Prop36
280
     0
102
RTVSPost2010PropOp36
 70
     1
102
RTVSPost2010Prop37
 90
       50
102
RTVSPost2010PropOp37
 70
     1
102
RTVSPost2010Prop38
140
0.0
102
RTVSPost2010PropOp38
 70
     1
102
RTVSPost2010Prop39
140
1.0
102
RTVSPost2010PropOp39
 70
     1
102
RTVSPost2010Prop40
 90
        0
102
RTVSPost2010PropOp40
 70
     1
102
RTVSPost2010Prop41ColorIndex
 90
       18
102
RTVSPost2010Prop41ColorRGB
 90
        0
102
RTVSPost2010PropOp41
 70
     1
102
RTVSPost2010Prop42
 90
       50
102
RTVSPost2010PropOp42
 70
     1
102
RTVSPost2010Prop43
 90
        3
102
RTVSPost2010PropOp43
 70
     1
102
RTVSPost2010Prop44ColorIndex
 90
        5
102
RTVSPost2010Prop44ColorRGB
 90
      255
102
RTVSPost2010PropOp44
 70
     1
102
RTVSPost2010Prop45
280
     0
102
RTVSPost2010PropOp45
 70
     1
102
RTVSPost2010Prop46
 90
       50
102
RTVSPost2010PropOp46
 70
     1
102
RTVSPost2010Prop47
 90
       50
102
RTVSPost2010PropOp47
 70
     1
102
RTVSPost2010Prop48
 90
       50
102
RTVSPost2010PropOp48
 70
     1
102
RTVSPost2010Prop49
280
     0
102
RTVSPost2010PropOp49
 70
     1
102
RTVSPost2010Prop50
 90
       50
102
RTVSPost2010PropOp50
 70
     1
102
RTVSPost2010Prop51ColorIndex
 90
      256
102
RTVSPost2010Prop51ColorRGB
 90
-16777216
102
RTVSPost2010PropOp51
 70
     0
102
RTVSPost2010Prop52
140
1.0
102
RTVSPost2010PropOp52
 70
     0
102
RTVSPost2010Prop53
 90
        2
102
RTVSPost2010PropOp53
 70
     1
102
RTVSPost2010Prop54
  1
strokes_ogs.tif
102
RTVSPost2010PropOp54
 70
     1
102
RTVSPost2010Prop55
280
     0
102
RTVSPost2010PropOp55
 70
     1
102
RTVSPost2010Prop56
140
1.0
102
RTVSPost2010PropOp56
 70
     1
102
RTVSPost2010Prop57
140
1.0
102
RTVSPost2010PropOp57
 70
     1
  0
XRECORD
  5
123
102
{ACAD_REACTORS
330
122
102
}
330
122
100
AcDbXrecord
280
     1
102
RTVSPost2010Prop28
280
     0
102
RTVSPost2010PropOp28
 70
     1
102
RTVSPost2010Prop29
280
     1
102
RTVSPost2010PropOp29
 70
     1
102
RTVSPost2010Prop30
280
     1
102
RTVSPost2010PropOp30
 70
     1
102
RTVSPost2010Prop31
280
     0
102
RTVSPost2010PropOp31
 70
     1
102
RTVSPost2010Prop32
280
     0
102
RTVSPost2010PropOp32
 70
     1
102
RTVSPost2010Prop33
280
     0
102
RTVSPost2010PropOp33
 70
     1
102
RTVSPost2010Prop34
280
     0
102
RTVSPost2010PropOp34
 70
     1
102
RTVSPost2010Prop35
280
     0
102
RTVSPost2010PropOp35
 70
     1
102
RTVSPost2010Prop36
280
     0
102
RTVSPost2010PropOp36
 70
     1
102
RTVSPost2010Prop37
 90
       50
102
RTVSPost2010PropOp37
 70
     1
102
RTVSPost2010Prop38
140
0.0
102
RTVSPost2010PropOp38
 70
     1
102
RTVSPost2010Prop39
140
1.0
102
RTVSPost2010PropOp39
 70
     1
102
RTVSPost2010Prop40
 90
        0
102
RTVSPost2010PropOp40
 70
     1
102
RTVSPost2010Prop41ColorIndex
 90
       18
102
RTVSPost2010Prop41ColorRGB
 90
        0
102
RTVSPost2010PropOp41
 70
     1
102
RTVSPost2010Prop42
 90
       50
102
RTVSPost2010PropOp42
 70
     1
102
RTVSPost2010Prop43
 90
        3
102
RTVSPost2010PropOp43
 70
     1
102
RTVSPost2010Prop44ColorIndex
 90
        5
102
RTVSPost2010Prop44ColorRGB
 90
      255
102
RTVSPost2010PropOp44
 70
     1
102
RTVSPost2010Prop45
280
     0
102
RTVSPost2010PropOp45
 70
     1
102
RTVSPost2010Prop46
 90
       50
102
RTVSPost2010PropOp46
 70
     1
102
RTVSPost2010Prop47
 90
       50
102
RTVSPost2010PropOp47
 70
     1
102
RTVSPost2010Prop48
 90
       50
102
RTVSPost2010PropOp48
 70
     1
102
RTVSPost2010Prop49
280
     0
102
RTVSPost2010PropOp49
 70
     1
102
RTVSPost2010Prop50
 90
       50
102
RTVSPost2010PropOp50
 70
     1
102
RTVSPost2010Prop51ColorIndex
 90
      256
102
RTVSPost2010Prop51ColorRGB
 90
-16777216
102
RTVSPost2010PropOp51
 70
     0
102
RTVSPost2010Prop52
140
1.0
102
RTVSPost2010PropOp52
 70
     0
102
RTVSPost2010Prop53
 90
        2
102
RTVSPost2010PropOp53
 70
     1
102
RTVSPost2010Prop54
  1
strokes_ogs.tif
102
RTVSPost2010PropOp54
 70
     1
102
RTVSPost2010Prop55
280
     0
102
RTVSPost2010PropOp55
 70
     1
102
RTVSPost2010Prop56
140
1.0
102
RTVSPost2010PropOp56
 70
     1
102
RTVSPost2010Prop57
140
1.0
102
RTVSPost2010PropOp57
 70
     1
  0
XRECORD
  5
127
102
{ACAD_REACTORS
330
126
102
}
330
126
100
AcDbXrecord
280
     1
102
RTVSPost2010Prop28
280
     0
102
RTVSPost2010PropOp28
 70
     1
102
RTVSPost2010Prop29
280
     1
102
RTVSPost2010PropOp29
 70
     1
102
RTVSPost2010Prop30
280
     1
102
RTVSPost2010PropOp30
 70
     1
102
RTVSPost2010Prop31
280
     0
102
RTVSPost2010PropOp31
 70
     1
102
RTVSPost2010Prop32
280
     0
102
RTVSPost2010PropOp32
 70
     1
102
RTVSPost2010Prop33
280
     0
102
RTVSPost2010PropOp33
 70
     1
102
RTVSPost2010Prop34
280
     0
102
RTVSPost2010PropOp34
 70
     1
102
RTVSPost2010Prop35
280
     0
102
RTVSPost2010PropOp35
 70
     1
102
RTVSPost2010Prop36
280
     0
102
RTVSPost2010PropOp36
 70
     1
102
RTVSPost2010Prop37
 90
       50
102
RTVSPost2010PropOp37
 70
     1
102
RTVSPost2010Prop38
140
0.0
102
RTVSPost2010PropOp38
 70
     1
102
RTVSPost2010Prop39
140
1.0
102
RTVSPost2010PropOp39
 70
     1
102
RTVSPost2010Prop40
 90
        0
102
RTVSPost2010PropOp40
 70
     1
102
RTVSPost2010Prop41ColorIndex
 90
       18
102
RTVSPost2010Prop41ColorRGB
 90
        0
102
RTVSPost2010PropOp41
 70
     1
102
RTVSPost2010Prop42
 90
       50
102
RTVSPost2010PropOp42
 70
     1
102
RTVSPost2010Prop43
 90
        3
102
RTVSPost2010PropOp43
 70
     1
102
RTVSPost2010Prop44ColorIndex
 90
        5
102
RTVSPost2010Prop44ColorRGB
 90
      255
102
RTVSPost2010PropOp44
 70
     1
102
RTVSPost2010Prop45
280
     0
102
RTVSPost2010PropOp45
 70
     1
102
RTVSPost2010Prop46
 90
       50
102
RTVSPost2010PropOp46
 70
     1
102
RTVSPost2010Prop47
 90
       50
102
RTVSPost2010PropOp47
 70
     1
102
RTVSPost2010Prop48
 90
       50
102
RTVSPost2010PropOp48
 70
     1
102
RTVSPost2010Prop49
280
     0
102
RTVSPost2010PropOp49
 70
     1
102
RTVSPost2010Prop50
 90
       50
102
RTVSPost2010PropOp50
 70
     1
102
RTVSPost2010Prop51ColorIndex
 90
      256
102
RTVSPost2010Prop51ColorRGB
 90
-16777216
102
RTVSPost2010PropOp51
 70
     0
102
RTVSPost2010Prop52
140
1.0
102
RTVSPost2010PropOp52
 70
     0
102
RTVSPost2010Prop53
 90
        2
102
RTVSPost2010PropOp53
 70
     1
102
RTVSPost2010Prop54
  1
strokes_ogs.tif
102
RTVSPost2010PropOp54
 70
     1
102
RTVSPost2010Prop55
280
     0
102
RTVSPost2010PropOp55
 70
     1
102
RTVSPost2010Prop56
140
1.0
102
RTVSPost2010PropOp56
 70
     1
102
RTVSPost2010Prop57
140
1.0
102
RTVSPost2010PropOp57
 70
     1
  0
XRECORD
  5
141
102
{ACAD_REACTORS
330
140
102
}
330
140
100
AcDbXrecord
280
     1
102
RTVSPost2010Prop28
280
     0
102
RTVSPost2010PropOp28
 70
     0
102
RTVSPost2010Prop29
280
     1
102
RTVSPost2010PropOp29
 70
     0
102
RTVSPost2010Prop30
280
     1
102
RTVSPost2010PropOp30
 70
     0
102
RTVSPost2010Prop31
280
     0
102
RTVSPost2010PropOp31
 70
     0
102
RTVSPost2010Prop32
280
     0
102
RTVSPost2010PropOp32
 70
     0
102
RTVSPost2010Prop33
280
     0
102
RTVSPost2010PropOp33
 70
     0
102
RTVSPost2010Prop34
280
     0
102
RTVSPost2010PropOp34
 70
     0
102
RTVSPost2010Prop35
280
     0
102
RTVSPost2010PropOp35
 70
     0
102
RTVSPost2010Prop36
280
     0
102
RTVSPost2010PropOp36
 70
     0
102
RTVSPost2010Prop37
 90
       50
102
RTVSPost2010PropOp37
 70
     0
102
RTVSPost2010Prop38
140
0.0
102
RTVSPost2010PropOp38
 70
     0
102
RTVSPost2010Prop39
140
1.0
102
RTVSPost2010PropOp39
 70
     0
102
RTVSPost2010Prop40
 90
        0
102
RTVSPost2010PropOp40
 70
     0
102
RTVSPost2010Prop41ColorIndex
 90
       18
102
RTVSPost2010Prop41ColorRGB
 90
        0
102
RTVSPost2010PropOp41
 70
     0
102
RTVSPost2010Prop42
 90
       50
102
RTVSPost2010PropOp42
 70
     0
102
RTVSPost2010Prop43
 90
        3
102
RTVSPost2010PropOp43
 70
     0
102
RTVSPost2010Prop44ColorIndex
 90
        5
102
RTVSPost2010Prop44ColorRGB
 90
      255
102
RTVSPost2010PropOp44
 70
     0
102
RTVSPost2010Prop45
280
     0
102
RTVSPost2010PropOp45
 70
     0
102
RTVSPost2010Prop46
 90
       50
102
RTVSPost2010PropOp46
 70
     0
102
RTVSPost2010Prop47
 90
       50
102
RTVSPost2010PropOp47
 70
     0
102
RTVSPost2010Prop48
 90
       50
102
RTVSPost2010PropOp48
 70
     0
102
RTVSPost2010Prop49
280
     0
102
RTVSPost2010PropOp49
 70
     0
102
RTVSPost2010Prop50
 90
       50
102
RTVSPost2010PropOp50
 70
     0
102
RTVSPost2010Prop51ColorIndex
 90
      256
102
RTVSPost2010Prop51ColorRGB
 90
-16777216
102
RTVSPost2010PropOp51
 70
     0
102
RTVSPost2010Prop52
140
1.0
102
RTVSPost2010PropOp52
 70
     0
102
RTVSPost2010Prop53
 90
        2
102
RTVSPost2010PropOp53
 70
     0
102
RTVSPost2010Prop54
  1
strokes_ogs.tif
102
RTVSPost2010PropOp54
 70
     0
102
RTVSPost2010Prop55
280
     0
102
RTVSPost2010PropOp55
 70
     0
102
RTVSPost2010Prop56
140
1.0
102
RTVSPost2010PropOp56
 70
     0
102
RTVSPost2010Prop57
140
1.0
102
RTVSPost2010PropOp57
 70
     0
  0
XRECORD
  5
12F
102
{ACAD_REACTORS
330
12E
102
}
330
12E
100
AcDbXrecord
280
     1
102
RTVSPost2010Prop28
280
     0
102
RTVSPost2010PropOp28
 70
     1
102
RTVSPost2010Prop29
280
     1
102
RTVSPost2010PropOp29
 70
     1
102
RTVSPost2010Prop30
280
     1
102
RTVSPost2010PropOp30
 70
     1
102
RTVSPost2010Prop31
280
     0
102
RTVSPost2010PropOp31
 70
     1
102
RTVSPost2010Prop32
280
     0
102
RTVSPost2010PropOp32
 70
     1
102
RTVSPost2010Prop33
280
     0
102
RTVSPost2010PropOp33
 70
     1
102
RTVSPost2010Prop34
280
     0
102
RTVSPost2010PropOp34
 70
     1
102
RTVSPost2010Prop35
280
     0
102
RTVSPost2010PropOp35
 70
     1
102
RTVSPost2010Prop36
280
     0
102
RTVSPost2010PropOp36
 70
     1
102
RTVSPost2010Prop37
 90
       50
102
RTVSPost2010PropOp37
 70
     1
102
RTVSPost2010Prop38
140
0.0
102
RTVSPost2010PropOp38
 70
     1
102
RTVSPost2010Prop39
140
1.0
102
RTVSPost2010PropOp39
 70
     1
102
RTVSPost2010Prop40
 90
        0
102
RTVSPost2010PropOp40
 70
     1
102
RTVSPost2010Prop41ColorIndex
 90
       18
102
RTVSPost2010Prop41ColorRGB
 90
        0
102
RTVSPost2010PropOp41
 70
     1
102
RTVSPost2010Prop42
 90
       50
102
RTVSPost2010PropOp42
 70
     1
102
RTVSPost2010Prop43
 90
        3
102
RTVSPost2010PropOp43
 70
     1
102
RTVSPost2010Prop44ColorIndex
 90
        5
102
RTVSPost2010Prop44ColorRGB
 90
      255
102
RTVSPost2010PropOp44
 70
     1
102
RTVSPost2010Prop45
280
     0
102
RTVSPost2010PropOp45
 70
     1
102
RTVSPost2010Prop46
 90
       50
102
RTVSPost2010PropOp46
 70
     1
102
RTVSPost2010Prop47
 90
       50
102
RTVSPost2010PropOp47
 70
     1
102
RTVSPost2010Prop48
 90
       50
102
RTVSPost2010PropOp48
 70
     1
102
RTVSPost2010Prop49
280
     0
102
RTVSPost2010PropOp49
 70
     1
102
RTVSPost2010Prop50
 90
       50
102
RTVSPost2010PropOp50
 70
     1
102
RTVSPost2010Prop51ColorIndex
 90
      256
102
RTVSPost2010Prop51ColorRGB
 90
-16777216
102
RTVSPost2010PropOp51
 70
     0
102
RTVSPost2010Prop52
140
1.0
102
RTVSPost2010PropOp52
 70
     0
102
RTVSPost2010Prop53
 90
        2
102
RTVSPost2010PropOp53
 70
     1
102
RTVSPost2010Prop54
  1
strokes_ogs.tif
102
RTVSPost2010PropOp54
 70
     1
102
RTVSPost2010Prop55
280
     0
102
RTVSPost2010PropOp55
 70
     1
102
RTVSPost2010Prop56
140
1.0
102
RTVSPost2010PropOp56
 70
     1
102
RTVSPost2010Prop57
140
1.0
102
RTVSPost2010PropOp57
 70
     1
  0
XRECORD
  5
113
102
{ACAD_REACTORS
330
112
102
}
330
112
100
AcDbXrecord
280
     1
102
RTVSPost2010Prop28
280
     0
102
RTVSPost2010PropOp28
 70
     1
102
RTVSPost2010Prop29
280
     1
102
RTVSPost2010PropOp29
 70
     1
102
RTVSPost2010Prop30
280
     1
102
RTVSPost2010PropOp30
 70
     1
102
RTVSPost2010Prop31
280
     0
102
RTVSPost2010PropOp31
 70
     1
102
RTVSPost2010Prop32
280
     0
102
RTVSPost2010PropOp32
 70
     1
102
RTVSPost2010Prop33
280
     0
102
RTVSPost2010PropOp33
 70
     1
102
RTVSPost2010Prop34
280
     0
102
RTVSPost2010PropOp34
 70
     1
102
RTVSPost2010Prop35
280
     0
102
RTVSPost2010PropOp35
 70
     1
102
RTVSPost2010Prop36
280
     0
102
RTVSPost2010PropOp36
 70
     1
102
RTVSPost2010Prop37
 90
       50
102
RTVSPost2010PropOp37
 70
     1
102
RTVSPost2010Prop38
140
0.0
102
RTVSPost2010PropOp38
 70
     1
102
RTVSPost2010Prop39
140
1.0
102
RTVSPost2010PropOp39
 70
     1
102
RTVSPost2010Prop40
 90
        0
102
RTVSPost2010PropOp40
 70
     1
102
RTVSPost2010Prop41ColorIndex
 90
       18
102
RTVSPost2010Prop41ColorRGB
 90
        0
102
RTVSPost2010PropOp41
 70
     1
102
RTVSPost2010Prop42
 90
       50
102
RTVSPost2010PropOp42
 70
     1
102
RTVSPost2010Prop43
 90
        3
102
RTVSPost2010PropOp43
 70
     1
102
RTVSPost2010Prop44ColorIndex
 90
        5
102
RTVSPost2010Prop44ColorRGB
 90
      255
102
RTVSPost2010PropOp44
 70
     1
102
RTVSPost2010Prop45
280
     0
102
RTVSPost2010PropOp45
 70
     1
102
RTVSPost2010Prop46
 90
       50
102
RTVSPost2010PropOp46
 70
     1
102
RTVSPost2010Prop47
 90
       50
102
RTVSPost2010PropOp47
 70
     1
102
RTVSPost2010Prop48
 90
       50
102
RTVSPost2010PropOp48
 70
     1
102
RTVSPost2010Prop49
280
     0
102
RTVSPost2010PropOp49
 70
     1
102
RTVSPost2010Prop50
 90
       50
102
RTVSPost2010PropOp50
 70
     1
102
RTVSPost2010Prop51ColorIndex
 90
      256
102
RTVSPost2010Prop51ColorRGB
 90
-16777216
102
RTVSPost2010PropOp51
 70
     0
102
RTVSPost2010Prop52
140
1.0
102
RTVSPost2010PropOp52
 70
     0
102
RTVSPost2010Prop53
 90
        2
102
RTVSPost2010PropOp53
 70
     1
102
RTVSPost2010Prop54
  1
strokes_ogs.tif
102
RTVSPost2010PropOp54
 70
     1
102
RTVSPost2010Prop55
280
     0
102
RTVSPost2010PropOp55
 70
     1
102
RTVSPost2010Prop56
140
1.0
102
RTVSPost2010PropOp56
 70
     1
102
RTVSPost2010Prop57
140
1.0
102
RTVSPost2010PropOp57
 70
     1
  0
XRECORD
  5
115
102
{ACAD_REACTORS
330
114
102
}
330
114
100
AcDbXrecord
280
     1
102
RTVSPost2010Prop28
280
     0
102
RTVSPost2010PropOp28
 70
     1
102
RTVSPost2010Prop29
280
     1
102
RTVSPost2010PropOp29
 70
     1
102
RTVSPost2010Prop30
280
     1
102
RTVSPost2010PropOp30
 70
     1
102
RTVSPost2010Prop31
280
     0
102
RTVSPost2010PropOp31
 70
     1
102
RTVSPost2010Prop32
280
     0
102
RTVSPost2010PropOp32
 70
     1
102
RTVSPost2010Prop33
280
     0
102
RTVSPost2010PropOp33
 70
     1
102
RTVSPost2010Prop34
280
     0
102
RTVSPost2010PropOp34
 70
     1
102
RTVSPost2010Prop35
280
     0
102
RTVSPost2010PropOp35
 70
     1
102
RTVSPost2010Prop36
280
     0
102
RTVSPost2010PropOp36
 70
     1
102
RTVSPost2010Prop37
 90
       50
102
RTVSPost2010PropOp37
 70
     1
102
RTVSPost2010Prop38
140
0.0
102
RTVSPost2010PropOp38
 70
     1
102
RTVSPost2010Prop39
140
1.0
102
RTVSPost2010PropOp39
 70
     1
102
RTVSPost2010Prop40
 90
        0
102
RTVSPost2010PropOp40
 70
     1
102
RTVSPost2010Prop41ColorIndex
 90
       18
102
RTVSPost2010Prop41ColorRGB
 90
        0
102
RTVSPost2010PropOp41
 70
     1
102
RTVSPost2010Prop42
 90
       50
102
RTVSPost2010PropOp42
 70
     1
102
RTVSPost2010Prop43
 90
        3
102
RTVSPost2010PropOp43
 70
     1
102
RTVSPost2010Prop44ColorIndex
 90
        5
102
RTVSPost2010Prop44ColorRGB
 90
      255
102
RTVSPost2010PropOp44
 70
     1
102
RTVSPost2010Prop45
280
     0
102
RTVSPost2010PropOp45
 70
     1
102
RTVSPost2010Prop46
 90
       50
102
RTVSPost2010PropOp46
 70
     1
102
RTVSPost2010Prop47
 90
       50
102
RTVSPost2010PropOp47
 70
     1
102
RTVSPost2010Prop48
 90
       50
102
RTVSPost2010PropOp48
 70
     1
102
RTVSPost2010Prop49
280
     0
102
RTVSPost2010PropOp49
 70
     1
102
RTVSPost2010Prop50
 90
       50
102
RTVSPost2010PropOp50
 70
     1
102
RTVSPost2010Prop51ColorIndex
 90
      256
102
RTVSPost2010Prop51ColorRGB
 90
-16777216
102
RTVSPost2010PropOp51
 70
     0
102
RTVSPost2010Prop52
140
1.0
102
RTVSPost2010PropOp52
 70
     0
102
RTVSPost2010Prop53
 90
        2
102
RTVSPost2010PropOp53
 70
     1
102
RTVSPost2010Prop54
  1
strokes_ogs.tif
102
RTVSPost2010PropOp54
 70
     1
102
RTVSPost2010Prop55
280
     0
102
RTVSPost2010PropOp55
 70
     1
102
RTVSPost2010Prop56
140
1.0
102
RTVSPost2010PropOp56
 70
     1
102
RTVSPost2010Prop57
140
1.0
102
RTVSPost2010PropOp57
 70
     1
  0
XRECORD
  5
117
102
{ACAD_REACTORS
330
116
102
}
330
116
100
AcDbXrecord
280
     1
102
RTVSPost2010Prop28
280
     0
102
RTVSPost2010PropOp28
 70
     1
102
RTVSPost2010Prop29
280
     1
102
RTVSPost2010PropOp29
 70
     1
102
RTVSPost2010Prop30
280
     1
102
RTVSPost2010PropOp30
 70
     1
102
RTVSPost2010Prop31
280
     0
102
RTVSPost2010PropOp31
 70
     1
102
RTVSPost2010Prop32
280
     0
102
RTVSPost2010PropOp32
 70
     1
102
RTVSPost2010Prop33
280
     0
102
RTVSPost2010PropOp33
 70
     1
102
RTVSPost2010Prop34
280
     0
102
RTVSPost2010PropOp34
 70
     1
102
RTVSPost2010Prop35
280
     0
102
RTVSPost2010PropOp35
 70
     1
102
RTVSPost2010Prop36
280
     0
102
RTVSPost2010PropOp36
 70
     1
102
RTVSPost2010Prop37
 90
       50
102
RTVSPost2010PropOp37
 70
     1
102
RTVSPost2010Prop38
140
0.0
102
RTVSPost2010PropOp38
 70
     1
102
RTVSPost2010Prop39
140
1.0
102
RTVSPost2010PropOp39
 70
     1
102
RTVSPost2010Prop40
 90
        0
102
RTVSPost2010PropOp40
 70
     1
102
RTVSPost2010Prop41ColorIndex
 90
       18
102
RTVSPost2010Prop41ColorRGB
 90
        0
102
RTVSPost2010PropOp41
 70
     1
102
RTVSPost2010Prop42
 90
       50
102
RTVSPost2010PropOp42
 70
     1
102
RTVSPost2010Prop43
 90
        3
102
RTVSPost2010PropOp43
 70
     1
102
RTVSPost2010Prop44ColorIndex
 90
        5
102
RTVSPost2010Prop44ColorRGB
 90
      255
102
RTVSPost2010PropOp44
 70
     1
102
RTVSPost2010Prop45
280
     0
102
RTVSPost2010PropOp45
 70
     1
102
RTVSPost2010Prop46
 90
       50
102
RTVSPost2010PropOp46
 70
     1
102
RTVSPost2010Prop47
 90
       50
102
RTVSPost2010PropOp47
 70
     1
102
RTVSPost2010Prop48
 90
       50
102
RTVSPost2010PropOp48
 70
     1
102
RTVSPost2010Prop49
280
     0
102
RTVSPost2010PropOp49
 70
     1
102
RTVSPost2010Prop50
 90
       50
102
RTVSPost2010PropOp50
 70
     1
102
RTVSPost2010Prop51ColorIndex
 90
      256
102
RTVSPost2010Prop51ColorRGB
 90
-16777216
102
RTVSPost2010PropOp51
 70
     0
102
RTVSPost2010Prop52
140
1.0
102
RTVSPost2010PropOp52
 70
     0
102
RTVSPost2010Prop53
 90
        2
102
RTVSPost2010PropOp53
 70
     1
102
RTVSPost2010Prop54
  1
strokes_ogs.tif
102
RTVSPost2010PropOp54
 70
     1
102
RTVSPost2010Prop55
280
     0
102
RTVSPost2010PropOp55
 70
     1
102
RTVSPost2010Prop56
140
1.0
102
RTVSPost2010PropOp56
 70
     1
102
RTVSPost2010Prop57
140
1.0
102
RTVSPost2010PropOp57
 70
     1
  0
XRECORD
  5
119
102
{ACAD_REACTORS
330
118
102
}
330
118
100
AcDbXrecord
280
     1
102
RTVSPost2010Prop28
280
     0
102
RTVSPost2010PropOp28
 70
     1
102
RTVSPost2010Prop29
280
     1
102
RTVSPost2010PropOp29
 70
     1
102
RTVSPost2010Prop30
280
     1
102
RTVSPost2010PropOp30
 70
     1
102
RTVSPost2010Prop31
280
     0
102
RTVSPost2010PropOp31
 70
     1
102
RTVSPost2010Prop32
280
     0
102
RTVSPost2010PropOp32
 70
     1
102
RTVSPost2010Prop33
280
     0
102
RTVSPost2010PropOp33
 70
     1
102
RTVSPost2010Prop34
280
     0
102
RTVSPost2010PropOp34
 70
     1
102
RTVSPost2010Prop35
280
     0
102
RTVSPost2010PropOp35
 70
     1
102
RTVSPost2010Prop36
280
     0
102
RTVSPost2010PropOp36
 70
     1
102
RTVSPost2010Prop37
 90
       50
102
RTVSPost2010PropOp37
 70
     1
102
RTVSPost2010Prop38
140
0.0
102
RTVSPost2010PropOp38
 70
     1
102
RTVSPost2010Prop39
140
1.0
102
RTVSPost2010PropOp39
 70
     1
102
RTVSPost2010Prop40
 90
        0
102
RTVSPost2010PropOp40
 70
     1
102
RTVSPost2010Prop41ColorIndex
 90
       18
102
RTVSPost2010Prop41ColorRGB
 90
        0
102
RTVSPost2010PropOp41
 70
     1
102
RTVSPost2010Prop42
 90
       50
102
RTVSPost2010PropOp42
 70
     1
102
RTVSPost2010Prop43
 90
        3
102
RTVSPost2010PropOp43
 70
     1
102
RTVSPost2010Prop44ColorIndex
 90
        5
102
RTVSPost2010Prop44ColorRGB
 90
      255
102
RTVSPost2010PropOp44
 70
     1
102
RTVSPost2010Prop45
280
     0
102
RTVSPost2010PropOp45
 70
     1
102
RTVSPost2010Prop46
 90
       50
102
RTVSPost2010PropOp46
 70
     1
102
RTVSPost2010Prop47
 90
       50
102
RTVSPost2010PropOp47
 70
     1
102
RTVSPost2010Prop48
 90
       50
102
RTVSPost2010PropOp48
 70
     1
102
RTVSPost2010Prop49
280
     0
102
RTVSPost2010PropOp49
 70
     1
102
RTVSPost2010Prop50
 90
       50
102
RTVSPost2010PropOp50
 70
     1
102
RTVSPost2010Prop51ColorIndex
 90
      256
102
RTVSPost2010Prop51ColorRGB
 90
-16777216
102
RTVSPost2010PropOp51
 70
     0
102
RTVSPost2010Prop52
140
1.0
102
RTVSPost2010PropOp52
 70
     0
102
RTVSPost2010Prop53
 90
        2
102
RTVSPost2010PropOp53
 70
     1
102
RTVSPost2010Prop54
  1
strokes_ogs.tif
102
RTVSPost2010PropOp54
 70
     1
102
RTVSPost2010Prop55
280
     0
102
RTVSPost2010PropOp55
 70
     1
102
RTVSPost2010Prop56
140
1.0
102
RTVSPost2010PropOp56
 70
     1
102
RTVSPost2010Prop57
140
1.0
102
RTVSPost2010PropOp57
 70
     1
  0
XRECORD
  5
121
102
{ACAD_REACTORS
330
120
102
}
330
120
100
AcDbXrecord
280
     1
102
RTVSPost2010Prop28
280
     0
102
RTVSPost2010PropOp28
 70
     1
102
RTVSPost2010Prop29
280
     1
102
RTVSPost2010PropOp29
 70
     1
102
RTVSPost2010Prop30
280
     1
102
RTVSPost2010PropOp30
 70
     1
102
RTVSPost2010Prop31
280
     0
102
RTVSPost2010PropOp31
 70
     1
102
RTVSPost2010Prop32
280
     0
102
RTVSPost2010PropOp32
 70
     1
102
RTVSPost2010Prop33
280
     0
102
RTVSPost2010PropOp33
 70
     1
102
RTVSPost2010Prop34
280
     0
102
RTVSPost2010PropOp34
 70
     1
102
RTVSPost2010Prop35
280
     0
102
RTVSPost2010PropOp35
 70
     1
102
RTVSPost2010Prop36
280
     0
102
RTVSPost2010PropOp36
 70
     1
102
RTVSPost2010Prop37
 90
       50
102
RTVSPost2010PropOp37
 70
     1
102
RTVSPost2010Prop38
140
0.0
102
RTVSPost2010PropOp38
 70
     1
102
RTVSPost2010Prop39
140
1.0
102
RTVSPost2010PropOp39
 70
     1
102
RTVSPost2010Prop40
 90
        0
102
RTVSPost2010PropOp40
 70
     1
102
RTVSPost2010Prop41ColorIndex
 90
       18
102
RTVSPost2010Prop41ColorRGB
 90
        0
102
RTVSPost2010PropOp41
 70
     1
102
RTVSPost2010Prop42
 90
       50
102
RTVSPost2010PropOp42
 70
     1
102
RTVSPost2010Prop43
 90
        3
102
RTVSPost2010PropOp43
 70
     1
102
RTVSPost2010Prop44ColorIndex
 90
        5
102
RTVSPost2010Prop44ColorRGB
 90
      255
102
RTVSPost2010PropOp44
 70
     1
102
RTVSPost2010Prop45
280
     0
102
RTVSPost2010PropOp45
 70
     1
102
RTVSPost2010Prop46
 90
       50
102
RTVSPost2010PropOp46
 70
     1
102
RTVSPost2010Prop47
 90
       50
102
RTVSPost2010PropOp47
 70
     1
102
RTVSPost2010Prop48
 90
       50
102
RTVSPost2010PropOp48
 70
     1
102
RTVSPost2010Prop49
280
     0
102
RTVSPost2010PropOp49
 70
     1
102
RTVSPost2010Prop50
 90
       50
102
RTVSPost2010PropOp50
 70
     1
102
RTVSPost2010Prop51ColorIndex
 90
      256
102
RTVSPost2010Prop51ColorRGB
 90
-16777216
102
RTVSPost2010PropOp51
 70
     0
102
RTVSPost2010Prop52
140
1.0
102
RTVSPost2010PropOp52
 70
     0
102
RTVSPost2010Prop53
 90
        2
102
RTVSPost2010PropOp53
 70
     1
102
RTVSPost2010Prop54
  1
strokes_ogs.tif
102
RTVSPost2010PropOp54
 70
     1
102
RTVSPost2010Prop55
280
     0
102
RTVSPost2010PropOp55
 70
     1
102
RTVSPost2010Prop56
140
1.0
102
RTVSPost2010PropOp56
 70
     1
102
RTVSPost2010Prop57
140
1.0
102
RTVSPost2010PropOp57
 70
     1
  0
XRECORD
  5
13D
102
{ACAD_REACTORS
330
13C
102
}
330
13C
100
AcDbXrecord
280
     1
102
RTVSPost2010Prop28
280
     0
102
RTVSPost2010PropOp28
 70
     0
102
RTVSPost2010Prop29
280
     1
102
RTVSPost2010PropOp29
 70
     0
102
RTVSPost2010Prop30
280
     1
102
RTVSPost2010PropOp30
 70
     0
102
RTVSPost2010Prop31
280
     0
102
RTVSPost2010PropOp31
 70
     0
102
RTVSPost2010Prop32
280
     0
102
RTVSPost2010PropOp32
 70
     0
102
RTVSPost2010Prop33
280
     0
102
RTVSPost2010PropOp33
 70
     0
102
RTVSPost2010Prop34
280
     0
102
RTVSPost2010PropOp34
 70
     0
102
RTVSPost2010Prop35
280
     0
102
RTVSPost2010PropOp35
 70
     0
102
RTVSPost2010Prop36
280
     0
102
RTVSPost2010PropOp36
 70
     0
102
RTVSPost2010Prop37
 90
       50
102
RTVSPost2010PropOp37
 70
     0
102
RTVSPost2010Prop38
140
0.0
102
RTVSPost2010PropOp38
 70
     0
102
RTVSPost2010Prop39
140
1.0
102
RTVSPost2010PropOp39
 70
     0
102
RTVSPost2010Prop40
 90
        0
102
RTVSPost2010PropOp40
 70
     0
102
RTVSPost2010Prop41ColorIndex
 90
       18
102
RTVSPost2010Prop41ColorRGB
 90
        0
102
RTVSPost2010PropOp41
 70
     0
102
RTVSPost2010Prop42
 90
       50
102
RTVSPost2010PropOp42
 70
     0
102
RTVSPost2010Prop43
 90
        3
102
RTVSPost2010PropOp43
 70
     0
102
RTVSPost2010Prop44ColorIndex
 90
        5
102
RTVSPost2010Prop44ColorRGB
 90
      255
102
RTVSPost2010PropOp44
 70
     0
102
RTVSPost2010Prop45
280
     0
102
RTVSPost2010PropOp45
 70
     0
102
RTVSPost2010Prop46
 90
       50
102
RTVSPost2010PropOp46
 70
     0
102
RTVSPost2010Prop47
 90
       50
102
RTVSPost2010PropOp47
 70
     0
102
RTVSPost2010Prop48
 90
       50
102
RTVSPost2010PropOp48
 70
     0
102
RTVSPost2010Prop49
280
     0
102
RTVSPost2010PropOp49
 70
     0
102
RTVSPost2010Prop50
 90
       50
102
RTVSPost2010PropOp50
 70
     0
102
RTVSPost2010Prop51ColorIndex
 90
      256
102
RTVSPost2010Prop51ColorRGB
 90
-16777216
102
RTVSPost2010PropOp51
 70
     0
102
RTVSPost2010Prop52
140
1.0
102
RTVSPost2010PropOp52
 70
     0
102
RTVSPost2010Prop53
 90
        2
102
RTVSPost2010PropOp53
 70
     0
102
RTVSPost2010Prop54
  1
strokes_ogs.tif
102
RTVSPost2010PropOp54
 70
     0
102
RTVSPost2010Prop55
280
     0
102
RTVSPost2010PropOp55
 70
     0
102
RTVSPost2010Prop56
140
1.0
102
RTVSPost2010PropOp56
 70
     0
102
RTVSPost2010Prop57
140
1.0
102
RTVSPost2010PropOp57
 70
     0
  0
XRECORD
  5
12D
102
{ACAD_REACTORS
330
12C
102
}
330
12C
100
AcDbXrecord
280
     1
102
RTVSPost2010Prop28
280
     0
102
RTVSPost2010PropOp28
 70
     1
102
RTVSPost2010Prop29
280
     1
102
RTVSPost2010PropOp29
 70
     1
102
RTVSPost2010Prop30
280
     1
102
RTVSPost2010PropOp30
 70
     1
102
RTVSPost2010Prop31
280
     0
102
RTVSPost2010PropOp31
 70
     1
102
RTVSPost2010Prop32
280
     0
102
RTVSPost2010PropOp32
 70
     1
102
RTVSPost2010Prop33
280
     0
102
RTVSPost2010PropOp33
 70
     1
102
RTVSPost2010Prop34
280
     0
102
RTVSPost2010PropOp34
 70
     1
102
RTVSPost2010Prop35
280
     0
102
RTVSPost2010PropOp35
 70
     1
102
RTVSPost2010Prop36
280
     0
102
RTVSPost2010PropOp36
 70
     1
102
RTVSPost2010Prop37
 90
       50
102
RTVSPost2010PropOp37
 70
     1
102
RTVSPost2010Prop38
140
0.0
102
RTVSPost2010PropOp38
 70
     1
102
RTVSPost2010Prop39
140
1.0
102
RTVSPost2010PropOp39
 70
     1
102
RTVSPost2010Prop40
 90
        0
102
RTVSPost2010PropOp40
 70
     1
102
RTVSPost2010Prop41ColorIndex
 90
       18
102
RTVSPost2010Prop41ColorRGB
 90
        0
102
RTVSPost2010PropOp41
 70
     1
102
RTVSPost2010Prop42
 90
       50
102
RTVSPost2010PropOp42
 70
     1
102
RTVSPost2010Prop43
 90
        3
102
RTVSPost2010PropOp43
 70
     1
102
RTVSPost2010Prop44ColorIndex
 90
        5
102
RTVSPost2010Prop44ColorRGB
 90
      255
102
RTVSPost2010PropOp44
 70
     1
102
RTVSPost2010Prop45
280
     0
102
RTVSPost2010PropOp45
 70
     1
102
RTVSPost2010Prop46
 90
       50
102
RTVSPost2010PropOp46
 70
     1
102
RTVSPost2010Prop47
 90
       50
102
RTVSPost2010PropOp47
 70
     1
102
RTVSPost2010Prop48
 90
       50
102
RTVSPost2010PropOp48
 70
     1
102
RTVSPost2010Prop49
280
     0
102
RTVSPost2010PropOp49
 70
     1
102
RTVSPost2010Prop50
 90
       50
102
RTVSPost2010PropOp50
 70
     1
102
RTVSPost2010Prop51ColorIndex
 90
      256
102
RTVSPost2010Prop51ColorRGB
 90
-16777216
102
RTVSPost2010PropOp51
 70
     0
102
RTVSPost2010Prop52
140
1.0
102
RTVSPost2010PropOp52
 70
     0
102
RTVSPost2010Prop53
 90
        2
102
RTVSPost2010PropOp53
 70
     1
102
RTVSPost2010Prop54
  1
strokes_ogs.tif
102
RTVSPost2010PropOp54
 70
     1
102
RTVSPost2010Prop55
280
     0
102
RTVSPost2010PropOp55
 70
     1
102
RTVSPost2010Prop56
140
1.0
102
RTVSPost2010PropOp56
 70
     1
102
RTVSPost2010Prop57
140
1.0
102
RTVSPost2010PropOp57
 70
     1
  0
XRECORD
  5
13F
102
{ACAD_REACTORS
330
13E
102
}
330
13E
100
AcDbXrecord
280
     1
102
RTVSPost2010Prop28
280
     0
102
RTVSPost2010PropOp28
 70
     0
102
RTVSPost2010Prop29
280
     1
102
RTVSPost2010PropOp29
 70
     0
102
RTVSPost2010Prop30
280
     1
102
RTVSPost2010PropOp30
 70
     0
102
RTVSPost2010Prop31
280
     0
102
RTVSPost2010PropOp31
 70
     0
102
RTVSPost2010Prop32
280
     0
102
RTVSPost2010PropOp32
 70
     0
102
RTVSPost2010Prop33
280
     0
102
RTVSPost2010PropOp33
 70
     0
102
RTVSPost2010Prop34
280
     0
102
RTVSPost2010PropOp34
 70
     0
102
RTVSPost2010Prop35
280
     0
102
RTVSPost2010PropOp35
 70
     0
102
RTVSPost2010Prop36
280
     0
102
RTVSPost2010PropOp36
 70
     0
102
RTVSPost2010Prop37
 90
       50
102
RTVSPost2010PropOp37
 70
     0
102
RTVSPost2010Prop38
140
0.0
102
RTVSPost2010PropOp38
 70
     0
102
RTVSPost2010Prop39
140
1.0
102
RTVSPost2010PropOp39
 70
     0
102
RTVSPost2010Prop40
 90
        0
102
RTVSPost2010PropOp40
 70
     0
102
RTVSPost2010Prop41ColorIndex
 90
       18
102
RTVSPost2010Prop41ColorRGB
 90
        0
102
RTVSPost2010PropOp41
 70
     0
102
RTVSPost2010Prop42
 90
       50
102
RTVSPost2010PropOp42
 70
     0
102
RTVSPost2010Prop43
 90
        3
102
RTVSPost2010PropOp43
 70
     0
102
RTVSPost2010Prop44ColorIndex
 90
        5
102
RTVSPost2010Prop44ColorRGB
 90
      255
102
RTVSPost2010PropOp44
 70
     0
102
RTVSPost2010Prop45
280
     0
102
RTVSPost2010PropOp45
 70
     0
102
RTVSPost2010Prop46
 90
       50
102
RTVSPost2010PropOp46
 70
     0
102
RTVSPost2010Prop47
 90
       50
102
RTVSPost2010PropOp47
 70
     0
102
RTVSPost2010Prop48
 90
       50
102
RTVSPost2010PropOp48
 70
     0
102
RTVSPost2010Prop49
280
     0
102
RTVSPost2010PropOp49
 70
     0
102
RTVSPost2010Prop50
 90
       50
102
RTVSPost2010PropOp50
 70
     0
102
RTVSPost2010Prop51ColorIndex
 90
      256
102
RTVSPost2010Prop51ColorRGB
 90
-16777216
102
RTVSPost2010PropOp51
 70
     0
102
RTVSPost2010Prop52
140
1.0
102
RTVSPost2010PropOp52
 70
     0
102
RTVSPost2010Prop53
 90
        2
102
RTVSPost2010PropOp53
 70
     0
102
RTVSPost2010Prop54
  1
strokes_ogs.tif
102
RTVSPost2010PropOp54
 70
     0
102
RTVSPost2010Prop55
280
     0
102
RTVSPost2010PropOp55
 70
     0
102
RTVSPost2010Prop56
140
1.0
102
RTVSPost2010PropOp56
 70
     0
102
RTVSPost2010Prop57
140
1.0
102
RTVSPost2010PropOp57
 70
     0
  0
XRECORD
  5
125
102
{ACAD_REACTORS
330
124
102
}
330
124
100
AcDbXrecord
280
     1
102
RTVSPost2010Prop28
280
     0
102
RTVSPost2010PropOp28
 70
     1
102
RTVSPost2010Prop29
280
     1
102
RTVSPost2010PropOp29
 70
     1
102
RTVSPost2010Prop30
280
     1
102
RTVSPost2010PropOp30
 70
     1
102
RTVSPost2010Prop31
280
     0
102
RTVSPost2010PropOp31
 70
     1
102
RTVSPost2010Prop32
280
     0
102
RTVSPost2010PropOp32
 70
     1
102
RTVSPost2010Prop33
280
     0
102
RTVSPost2010PropOp33
 70
     1
102
RTVSPost2010Prop34
280
     0
102
RTVSPost2010PropOp34
 70
     1
102
RTVSPost2010Prop35
280
     0
102
RTVSPost2010PropOp35
 70
     1
102
RTVSPost2010Prop36
280
     0
102
RTVSPost2010PropOp36
 70
     1
102
RTVSPost2010Prop37
 90
       50
102
RTVSPost2010PropOp37
 70
     1
102
RTVSPost2010Prop38
140
0.0
102
RTVSPost2010PropOp38
 70
     1
102
RTVSPost2010Prop39
140
1.0
102
RTVSPost2010PropOp39
 70
     1
102
RTVSPost2010Prop40
 90
        0
102
RTVSPost2010PropOp40
 70
     1
102
RTVSPost2010Prop41ColorIndex
 90
       18
102
RTVSPost2010Prop41ColorRGB
 90
        0
102
RTVSPost2010PropOp41
 70
     1
102
RTVSPost2010Prop42
 90
       50
102
RTVSPost2010PropOp42
 70
     1
102
RTVSPost2010Prop43
 90
        3
102
RTVSPost2010PropOp43
 70
     1
102
RTVSPost2010Prop44ColorIndex
 90
        5
102
RTVSPost2010Prop44ColorRGB
 90
      255
102
RTVSPost2010PropOp44
 70
     1
102
RTVSPost2010Prop45
280
     0
102
RTVSPost2010PropOp45
 70
     1
102
RTVSPost2010Prop46
 90
       50
102
RTVSPost2010PropOp46
 70
     1
102
RTVSPost2010Prop47
 90
       50
102
RTVSPost2010PropOp47
 70
     1
102
RTVSPost2010Prop48
 90
       50
102
RTVSPost2010PropOp48
 70
     1
102
RTVSPost2010Prop49
280
     0
102
RTVSPost2010PropOp49
 70
     1
102
RTVSPost2010Prop50
 90
       50
102
RTVSPost2010PropOp50
 70
     1
102
RTVSPost2010Prop51ColorIndex
 90
      256
102
RTVSPost2010Prop51ColorRGB
 90
-16777216
102
RTVSPost2010PropOp51
 70
     0
102
RTVSPost2010Prop52
140
1.0
102
RTVSPost2010PropOp52
 70
     0
102
RTVSPost2010Prop53
 90
        2
102
RTVSPost2010PropOp53
 70
     1
102
RTVSPost2010Prop54
  1
strokes_ogs.tif
102
RTVSPost2010PropOp54
 70
     1
102
RTVSPost2010Prop55
280
     0
102
RTVSPost2010PropOp55
 70
     1
102
RTVSPost2010Prop56
140
1.0
102
RTVSPost2010PropOp56
 70
     1
102
RTVSPost2010Prop57
140
1.0
102
RTVSPost2010PropOp57
 70
     1
  0
XRECORD
  5
13B
102
{ACAD_REACTORS
330
13A
102
}
330
13A
100
AcDbXrecord
280
     1
102
RTVSPost2010Prop28
280
     0
102
RTVSPost2010PropOp28
 70
     1
102
RTVSPost2010Prop29
280
     1
102
RTVSPost2010PropOp29
 70
     1
102
RTVSPost2010Prop30
280
     1
102
RTVSPost2010PropOp30
 70
     1
102
RTVSPost2010Prop31
280
     0
102
RTVSPost2010PropOp31
 70
     1
102
RTVSPost2010Prop32
280
     0
102
RTVSPost2010PropOp32
 70
     1
102
RTVSPost2010Prop33
280
     0
102
RTVSPost2010PropOp33
 70
     1
102
RTVSPost2010Prop34
280
     0
102
RTVSPost2010PropOp34
 70
     1
102
RTVSPost2010Prop35
280
     0
102
RTVSPost2010PropOp35
 70
     1
102
RTVSPost2010Prop36
280
     0
102
RTVSPost2010PropOp36
 70
     1
102
RTVSPost2010Prop37
 90
       50
102
RTVSPost2010PropOp37
 70
     1
102
RTVSPost2010Prop38
140
0.0
102
RTVSPost2010PropOp38
 70
     1
102
RTVSPost2010Prop39
140
1.0
102
RTVSPost2010PropOp39
 70
     1
102
RTVSPost2010Prop40
 90
        0
102
RTVSPost2010PropOp40
 70
     1
102
RTVSPost2010Prop41ColorIndex
 90
       18
102
RTVSPost2010Prop41ColorRGB
 90
        0
102
RTVSPost2010PropOp41
 70
     1
102
RTVSPost2010Prop42
 90
       50
102
RTVSPost2010PropOp42
 70
     1
102
RTVSPost2010Prop43
 90
        3
102
RTVSPost2010PropOp43
 70
     1
102
RTVSPost2010Prop44ColorIndex
 90
        5
102
RTVSPost2010Prop44ColorRGB
 90
      255
102
RTVSPost2010PropOp44
 70
     1
102
RTVSPost2010Prop45
280
     0
102
RTVSPost2010PropOp45
 70
     1
102
RTVSPost2010Prop46
 90
       50
102
RTVSPost2010PropOp46
 70
     1
102
RTVSPost2010Prop47
 90
       50
102
RTVSPost2010PropOp47
 70
     1
102
RTVSPost2010Prop48
 90
       50
102
RTVSPost2010PropOp48
 70
     1
102
RTVSPost2010Prop49
280
     0
102
RTVSPost2010PropOp49
 70
     1
102
RTVSPost2010Prop50
 90
       50
102
RTVSPost2010PropOp50
 70
     1
102
RTVSPost2010Prop51ColorIndex
 90
      256
102
RTVSPost2010Prop51ColorRGB
 90
-16777216
102
RTVSPost2010PropOp51
 70
     0
102
RTVSPost2010Prop52
140
1.0
102
RTVSPost2010PropOp52
 70
     0
102
RTVSPost2010Prop53
 90
        2
102
RTVSPost2010PropOp53
 70
     1
102
RTVSPost2010Prop54
  1
strokes_ogs.tif
102
RTVSPost2010PropOp54
 70
     1
102
RTVSPost2010Prop55
280
     0
102
RTVSPost2010PropOp55
 70
     1
102
RTVSPost2010Prop56
140
1.0
102
RTVSPost2010PropOp56
 70
     1
102
RTVSPost2010Prop57
140
1.0
102
RTVSPost2010PropOp57
 70
     1
  0
XRECORD
  5
139
102
{ACAD_REACTORS
330
138
102
}
330
138
100
AcDbXrecord
280
     1
102
RTVSPost2010Prop28
280
     0
102
RTVSPost2010PropOp28
 70
     1
102
RTVSPost2010Prop29
280
     1
102
RTVSPost2010PropOp29
 70
     1
102
RTVSPost2010Prop30
280
     1
102
RTVSPost2010PropOp30
 70
     1
102
RTVSPost2010Prop31
280
     0
102
RTVSPost2010PropOp31
 70
     1
102
RTVSPost2010Prop32
280
     0
102
RTVSPost2010PropOp32
 70
     1
102
RTVSPost2010Prop33
280
     0
102
RTVSPost2010PropOp33
 70
     1
102
RTVSPost2010Prop34
280
     0
102
RTVSPost2010PropOp34
 70
     1
102
RTVSPost2010Prop35
280
     0
102
RTVSPost2010PropOp35
 70
     1
102
RTVSPost2010Prop36
280
     0
102
RTVSPost2010PropOp36
 70
     1
102
RTVSPost2010Prop37
 90
       50
102
RTVSPost2010PropOp37
 70
     1
102
RTVSPost2010Prop38
140
0.0
102
RTVSPost2010PropOp38
 70
     1
102
RTVSPost2010Prop39
140
1.0
102
RTVSPost2010PropOp39
 70
     1
102
RTVSPost2010Prop40
 90
        0
102
RTVSPost2010PropOp40
 70
     1
102
RTVSPost2010Prop41ColorIndex
 90
       18
102
RTVSPost2010Prop41ColorRGB
 90
        0
102
RTVSPost2010PropOp41
 70
     1
102
RTVSPost2010Prop42
 90
       50
102
RTVSPost2010PropOp42
 70
     1
102
RTVSPost2010Prop43
 90
        3
102
RTVSPost2010PropOp43
 70
     1
102
RTVSPost2010Prop44ColorIndex
 90
        5
102
RTVSPost2010Prop44ColorRGB
 90
      255
102
RTVSPost2010PropOp44
 70
     1
102
RTVSPost2010Prop45
280
     0
102
RTVSPost2010PropOp45
 70
     1
102
RTVSPost2010Prop46
 90
       50
102
RTVSPost2010PropOp46
 70
     1
102
RTVSPost2010Prop47
 90
       50
102
RTVSPost2010PropOp47
 70
     1
102
RTVSPost2010Prop48
 90
       50
102
RTVSPost2010PropOp48
 70
     1
102
RTVSPost2010Prop49
280
     0
102
RTVSPost2010PropOp49
 70
     1
102
RTVSPost2010Prop50
 90
       50
102
RTVSPost2010PropOp50
 70
     1
102
RTVSPost2010Prop51ColorIndex
 90
      256
102
RTVSPost2010Prop51ColorRGB
 90
-16777216
102
RTVSPost2010PropOp51
 70
     0
102
RTVSPost2010Prop52
140
1.0
102
RTVSPost2010PropOp52
 70
     0
102
RTVSPost2010Prop53
 90
        2
102
RTVSPost2010PropOp53
 70
     1
102
RTVSPost2010Prop54
  1
strokes_ogs.tif
102
RTVSPost2010PropOp54
 70
     1
102
RTVSPost2010Prop55
280
     0
102
RTVSPost2010PropOp55
 70
     1
102
RTVSPost2010Prop56
140
1.0
102
RTVSPost2010PropOp56
 70
     1
102
RTVSPost2010Prop57
140
1.0
102
RTVSPost2010PropOp57
 70
     1
  0
XRECORD
  5
133
102
{ACAD_REACTORS
330
132
102
}
330
132
100
AcDbXrecord
280
     1
102
RTVSPost2010Prop28
280
     0
102
RTVSPost2010PropOp28
 70
     1
102
RTVSPost2010Prop29
280
     1
102
RTVSPost2010PropOp29
 70
     1
102
RTVSPost2010Prop30
280
     1
102
RTVSPost2010PropOp30
 70
     1
102
RTVSPost2010Prop31
280
     0
102
RTVSPost2010PropOp31
 70
     1
102
RTVSPost2010Prop32
280
     0
102
RTVSPost2010PropOp32
 70
     1
102
RTVSPost2010Prop33
280
     0
102
RTVSPost2010PropOp33
 70
     1
102
RTVSPost2010Prop34
280
     0
102
RTVSPost2010PropOp34
 70
     1
102
RTVSPost2010Prop35
280
     0
102
RTVSPost2010PropOp35
 70
     1
102
RTVSPost2010Prop36
280
     0
102
RTVSPost2010PropOp36
 70
     1
102
RTVSPost2010Prop37
 90
       50
102
RTVSPost2010PropOp37
 70
     1
102
RTVSPost2010Prop38
140
0.0
102
RTVSPost2010PropOp38
 70
     1
102
RTVSPost2010Prop39
140
1.0
102
RTVSPost2010PropOp39
 70
     1
102
RTVSPost2010Prop40
 90
        0
102
RTVSPost2010PropOp40
 70
     1
102
RTVSPost2010Prop41ColorIndex
 90
       18
102
RTVSPost2010Prop41ColorRGB
 90
        0
102
RTVSPost2010PropOp41
 70
     1
102
RTVSPost2010Prop42
 90
       50
102
RTVSPost2010PropOp42
 70
     1
102
RTVSPost2010Prop43
 90
        3
102
RTVSPost2010PropOp43
 70
     1
102
RTVSPost2010Prop44ColorIndex
 90
        5
102
RTVSPost2010Prop44ColorRGB
 90
      255
102
RTVSPost2010PropOp44
 70
     1
102
RTVSPost2010Prop45
280
     0
102
RTVSPost2010PropOp45
 70
     1
102
RTVSPost2010Prop46
 90
       50
102
RTVSPost2010PropOp46
 70
     1
102
RTVSPost2010Prop47
 90
       50
102
RTVSPost2010PropOp47
 70
     1
102
RTVSPost2010Prop48
 90
       50
102
RTVSPost2010PropOp48
 70
     1
102
RTVSPost2010Prop49
280
     0
102
RTVSPost2010PropOp49
 70
     1
102
RTVSPost2010Prop50
 90
       50
102
RTVSPost2010PropOp50
 70
     1
102
RTVSPost2010Prop51ColorIndex
 90
      256
102
RTVSPost2010Prop51ColorRGB
 90
-16777216
102
RTVSPost2010PropOp51
 70
     0
102
RTVSPost2010Prop52
140
1.0
102
RTVSPost2010PropOp52
 70
     0
102
RTVSPost2010Prop53
 90
        2
102
RTVSPost2010PropOp53
 70
     1
102
RTVSPost2010Prop54
  1
strokes_ogs.tif
102
RTVSPost2010PropOp54
 70
     1
102
RTVSPost2010Prop55
280
     0
102
RTVSPost2010PropOp55
 70
     1
102
RTVSPost2010Prop56
140
1.0
102
RTVSPost2010PropOp56
 70
     1
102
RTVSPost2010Prop57
140
1.0
102
RTVSPost2010PropOp57
 70
     1
  0
XRECORD
  5
135
102
{ACAD_REACTORS
330
134
102
}
330
134
100
AcDbXrecord
280
     1
102
RTVSPost2010Prop28
280
     0
102
RTVSPost2010PropOp28
 70
     1
102
RTVSPost2010Prop29
280
     1
102
RTVSPost2010PropOp29
 70
     1
102
RTVSPost2010Prop30
280
     1
102
RTVSPost2010PropOp30
 70
     1
102
RTVSPost2010Prop31
280
     0
102
RTVSPost2010PropOp31
 70
     1
102
RTVSPost2010Prop32
280
     0
102
RTVSPost2010PropOp32
 70
     1
102
RTVSPost2010Prop33
280
     0
102
RTVSPost2010PropOp33
 70
     1
102
RTVSPost2010Prop34
280
     0
102
RTVSPost2010PropOp34
 70
     1
102
RTVSPost2010Prop35
280
     0
102
RTVSPost2010PropOp35
 70
     1
102
RTVSPost2010Prop36
280
     0
102
RTVSPost2010PropOp36
 70
     1
102
RTVSPost2010Prop37
 90
       50
102
RTVSPost2010PropOp37
 70
     1
102
RTVSPost2010Prop38
140
0.0
102
RTVSPost2010PropOp38
 70
     1
102
RTVSPost2010Prop39
140
1.0
102
RTVSPost2010PropOp39
 70
     1
102
RTVSPost2010Prop40
 90
        0
102
RTVSPost2010PropOp40
 70
     1
102
RTVSPost2010Prop41ColorIndex
 90
       18
102
RTVSPost2010Prop41ColorRGB
 90
        0
102
RTVSPost2010PropOp41
 70
     1
102
RTVSPost2010Prop42
 90
       50
102
RTVSPost2010PropOp42
 70
     1
102
RTVSPost2010Prop43
 90
        3
102
RTVSPost2010PropOp43
 70
     1
102
RTVSPost2010Prop44ColorIndex
 90
        5
102
RTVSPost2010Prop44ColorRGB
 90
      255
102
RTVSPost2010PropOp44
 70
     1
102
RTVSPost2010Prop45
280
     0
102
RTVSPost2010PropOp45
 70
     1
102
RTVSPost2010Prop46
 90
       50
102
RTVSPost2010PropOp46
 70
     1
102
RTVSPost2010Prop47
 90
       50
102
RTVSPost2010PropOp47
 70
     1
102
RTVSPost2010Prop48
 90
       50
102
RTVSPost2010PropOp48
 70
     1
102
RTVSPost2010Prop49
280
     0
102
RTVSPost2010PropOp49
 70
     1
102
RTVSPost2010Prop50
 90
       50
102
RTVSPost2010PropOp50
 70
     1
102
RTVSPost2010Prop51ColorIndex
 90
      256
102
RTVSPost2010Prop51ColorRGB
 90
-16777216
102
RTVSPost2010PropOp51
 70
     0
102
RTVSPost2010Prop52
140
1.0
102
RTVSPost2010PropOp52
 70
     0
102
RTVSPost2010Prop53
 90
        2
102
RTVSPost2010PropOp53
 70
     1
102
RTVSPost2010Prop54
  1
strokes_ogs.tif
102
RTVSPost2010PropOp54
 70
     1
102
RTVSPost2010Prop55
280
     0
102
RTVSPost2010PropOp55
 70
     1
102
RTVSPost2010Prop56
140
1.0
102
RTVSPost2010PropOp56
 70
     1
102
RTVSPost2010Prop57
140
1.0
102
RTVSPost2010PropOp57
 70
     1
  0
XRECORD
  5
12B
102
{ACAD_REACTORS
330
12A
102
}
330
12A
100
AcDbXrecord
280
     1
102
RTVSPost2010Prop28
280
     0
102
RTVSPost2010PropOp28
 70
     1
102
RTVSPost2010Prop29
280
     1
102
RTVSPost2010PropOp29
 70
     1
102
RTVSPost2010Prop30
280
     1
102
RTVSPost2010PropOp30
 70
     1
102
RTVSPost2010Prop31
280
     0
102
RTVSPost2010PropOp31
 70
     1
102
RTVSPost2010Prop32
280
     0
102
RTVSPost2010PropOp32
 70
     1
102
RTVSPost2010Prop33
280
     0
102
RTVSPost2010PropOp33
 70
     1
102
RTVSPost2010Prop34
280
     0
102
RTVSPost2010PropOp34
 70
     1
102
RTVSPost2010Prop35
280
     0
102
RTVSPost2010PropOp35
 70
     1
102
RTVSPost2010Prop36
280
     0
102
RTVSPost2010PropOp36
 70
     1
102
RTVSPost2010Prop37
 90
       50
102
RTVSPost2010PropOp37
 70
     1
102
RTVSPost2010Prop38
140
0.0
102
RTVSPost2010PropOp38
 70
     1
102
RTVSPost2010Prop39
140
1.0
102
RTVSPost2010PropOp39
 70
     1
102
RTVSPost2010Prop40
 90
        0
102
RTVSPost2010PropOp40
 70
     1
102
RTVSPost2010Prop41ColorIndex
 90
       18
102
RTVSPost2010Prop41ColorRGB
 90
        0
102
RTVSPost2010PropOp41
 70
     1
102
RTVSPost2010Prop42
 90
       50
102
RTVSPost2010PropOp42
 70
     1
102
RTVSPost2010Prop43
 90
        3
102
RTVSPost2010PropOp43
 70
     1
102
RTVSPost2010Prop44ColorIndex
 90
        5
102
RTVSPost2010Prop44ColorRGB
 90
      255
102
RTVSPost2010PropOp44
 70
     1
102
RTVSPost2010Prop45
280
     0
102
RTVSPost2010PropOp45
 70
     1
102
RTVSPost2010Prop46
 90
       50
102
RTVSPost2010PropOp46
 70
     1
102
RTVSPost2010Prop47
 90
       50
102
RTVSPost2010PropOp47
 70
     1
102
RTVSPost2010Prop48
 90
       50
102
RTVSPost2010PropOp48
 70
     1
102
RTVSPost2010Prop49
280
     0
102
RTVSPost2010PropOp49
 70
     1
102
RTVSPost2010Prop50
 90
       50
102
RTVSPost2010PropOp50
 70
     1
102
RTVSPost2010Prop51ColorIndex
 90
      256
102
RTVSPost2010Prop51ColorRGB
 90
-16777216
102
RTVSPost2010PropOp51
 70
     0
102
RTVSPost2010Prop52
140
1.0
102
RTVSPost2010PropOp52
 70
     0
102
RTVSPost2010Prop53
 90
        2
102
RTVSPost2010PropOp53
 70
     1
102
RTVSPost2010Prop54
  1
strokes_ogs.tif
102
RTVSPost2010PropOp54
 70
     1
102
RTVSPost2010Prop55
280
     0
102
RTVSPost2010PropOp55
 70
     1
102
RTVSPost2010Prop56
140
1.0
102
RTVSPost2010PropOp56
 70
     1
102
RTVSPost2010Prop57
140
1.0
102
RTVSPost2010PropOp57
 70
     1
  0
XRECORD
  5
11F
102
{ACAD_REACTORS
330
11E
102
}
330
11E
100
AcDbXrecord
280
     1
102
RTVSPost2010Prop28
280
     0
102
RTVSPost2010PropOp28
 70
     1
102
RTVSPost2010Prop29
280
     1
102
RTVSPost2010PropOp29
 70
     1
102
RTVSPost2010Prop30
280
     1
102
RTVSPost2010PropOp30
 70
     1
102
RTVSPost2010Prop31
280
     0
102
RTVSPost2010PropOp31
 70
     1
102
RTVSPost2010Prop32
280
     0
102
RTVSPost2010PropOp32
 70
     1
102
RTVSPost2010Prop33
280
     0
102
RTVSPost2010PropOp33
 70
     1
102
RTVSPost2010Prop34
280
     0
102
RTVSPost2010PropOp34
 70
     1
102
RTVSPost2010Prop35
280
     0
102
RTVSPost2010PropOp35
 70
     1
102
RTVSPost2010Prop36
280
     0
102
RTVSPost2010PropOp36
 70
     1
102
RTVSPost2010Prop37
 90
       50
102
RTVSPost2010PropOp37
 70
     1
102
RTVSPost2010Prop38
140
0.0
102
RTVSPost2010PropOp38
 70
     1
102
RTVSPost2010Prop39
140
1.0
102
RTVSPost2010PropOp39
 70
     1
102
RTVSPost2010Prop40
 90
        0
102
RTVSPost2010PropOp40
 70
     1
102
RTVSPost2010Prop41ColorIndex
 90
       18
102
RTVSPost2010Prop41ColorRGB
 90
        0
102
RTVSPost2010PropOp41
 70
     1
102
RTVSPost2010Prop42
 90
       50
102
RTVSPost2010PropOp42
 70
     1
102
RTVSPost2010Prop43
 90
        3
102
RTVSPost2010PropOp43
 70
     1
102
RTVSPost2010Prop44ColorIndex
 90
        5
102
RTVSPost2010Prop44ColorRGB
 90
      255
102
RTVSPost2010PropOp44
 70
     1
102
RTVSPost2010Prop45
280
     0
102
RTVSPost2010PropOp45
 70
     1
102
RTVSPost2010Prop46
 90
       50
102
RTVSPost2010PropOp46
 70
     1
102
RTVSPost2010Prop47
 90
       50
102
RTVSPost2010PropOp47
 70
     1
102
RTVSPost2010Prop48
 90
       50
102
RTVSPost2010PropOp48
 70
     1
102
RTVSPost2010Prop49
280
     0
102
RTVSPost2010PropOp49
 70
     1
102
RTVSPost2010Prop50
 90
       50
102
RTVSPost2010PropOp50
 70
     1
102
RTVSPost2010Prop51ColorIndex
 90
      256
102
RTVSPost2010Prop51ColorRGB
 90
-16777216
102
RTVSPost2010PropOp51
 70
     0
102
RTVSPost2010Prop52
140
1.0
102
RTVSPost2010PropOp52
 70
     0
102
RTVSPost2010Prop53
 90
        2
102
RTVSPost2010PropOp53
 70
     1
102
RTVSPost2010Prop54
  1
strokes_ogs.tif
102
RTVSPost2010PropOp54
 70
     1
102
RTVSPost2010Prop55
280
     0
102
RTVSPost2010PropOp55
 70
     1
102
RTVSPost2010Prop56
140
1.0
102
RTVSPost2010PropOp56
 70
     1
102
RTVSPost2010Prop57
140
1.0
102
RTVSPost2010PropOp57
 70
     1
  0
XRECORD
  5
137
102
{ACAD_REACTORS
330
136
102
}
330
136
100
AcDbXrecord
280
     1
102
RTVSPost2010Prop28
280
     0
102
RTVSPost2010PropOp28
 70
     1
102
RTVSPost2010Prop29
280
     1
102
RTVSPost2010PropOp29
 70
     1
102
RTVSPost2010Prop30
280
     1
102
RTVSPost2010PropOp30
 70
     1
102
RTVSPost2010Prop31
280
     0
102
RTVSPost2010PropOp31
 70
     1
102
RTVSPost2010Prop32
280
     0
102
RTVSPost2010PropOp32
 70
     1
102
RTVSPost2010Prop33
280
     0
102
RTVSPost2010PropOp33
 70
     1
102
RTVSPost2010Prop34
280
     0
102
RTVSPost2010PropOp34
 70
     1
102
RTVSPost2010Prop35
280
     0
102
RTVSPost2010PropOp35
 70
     1
102
RTVSPost2010Prop36
280
     0
102
RTVSPost2010PropOp36
 70
     1
102
RTVSPost2010Prop37
 90
       50
102
RTVSPost2010PropOp37
 70
     1
102
RTVSPost2010Prop38
140
0.0
102
RTVSPost2010PropOp38
 70
     1
102
RTVSPost2010Prop39
140
1.0
102
RTVSPost2010PropOp39
 70
     1
102
RTVSPost2010Prop40
 90
        0
102
RTVSPost2010PropOp40
 70
     1
102
RTVSPost2010Prop41ColorIndex
 90
       18
102
RTVSPost2010Prop41ColorRGB
 90
        0
102
RTVSPost2010PropOp41
 70
     1
102
RTVSPost2010Prop42
 90
       50
102
RTVSPost2010PropOp42
 70
     1
102
RTVSPost2010Prop43
 90
        3
102
RTVSPost2010PropOp43
 70
     1
102
RTVSPost2010Prop44ColorIndex
 90
        5
102
RTVSPost2010Prop44ColorRGB
 90
      255
102
RTVSPost2010PropOp44
 70
     1
102
RTVSPost2010Prop45
280
     0
102
RTVSPost2010PropOp45
 70
     1
102
RTVSPost2010Prop46
 90
       50
102
RTVSPost2010PropOp46
 70
     1
102
RTVSPost2010Prop47
 90
       50
102
RTVSPost2010PropOp47
 70
     1
102
RTVSPost2010Prop48
 90
       50
102
RTVSPost2010PropOp48
 70
     1
102
RTVSPost2010Prop49
280
     0
102
RTVSPost2010PropOp49
 70
     1
102
RTVSPost2010Prop50
 90
       50
102
RTVSPost2010PropOp50
 70
     1
102
RTVSPost2010Prop51ColorIndex
 90
      256
102
RTVSPost2010Prop51ColorRGB
 90
-16777216
102
RTVSPost2010PropOp51
 70
     0
102
RTVSPost2010Prop52
140
1.0
102
RTVSPost2010PropOp52
 70
     0
102
RTVSPost2010Prop53
 90
        2
102
RTVSPost2010PropOp53
 70
     1
102
RTVSPost2010Prop54
  1
strokes_ogs.tif
102
RTVSPost2010PropOp54
 70
     1
102
RTVSPost2010Prop55
280
     0
102
RTVSPost2010PropOp55
 70
     1
102
RTVSPost2010Prop56
140
1.0
102
RTVSPost2010PropOp56
 70
     1
102
RTVSPost2010Prop57
140
1.0
102
RTVSPost2010PropOp57
 70
     1
  0
ENDSEC
  0
EOF
