  0
SECTION
  2
HEADER
  9
$ACADVER
  1
AC1024
  9
$ACADMAINTVER
 70
     6
  9
$DWGCODEPAGE
  3
UNDEFINED
  9
$INSBASE
 10
0.0
 20
0.0
 30
0.0
  9
$EXTMIN
 10
1.000000000000000E+20
 20
1.000000000000000E+20
 30
1.000000000000000E+20
  9
$EXTMAX
 10
-1.000000000000000E+20
 20
-1.000000000000000E+20
 30
-1.000000000000000E+20
  9
$LIMMIN
 10
0.0
 20
0.0
  9
$LIMMAX
 10
12.0
 20
9.0
  9
$ORTHOMODE
 70
     0
  9
$REGENMODE
 70
     1
  9
$FILLMODE
 70
     1
  9
$QTEXTMODE
 70
     0
  9
$MIRRTEXT
 70
     1
  9
$LTSCALE
 40
1.0
  9
$ATTMODE
 70
     1
  9
$TEXTSIZE
 40
0.2
  9
$TRACEWID
 40
0.05
  9
$TEXTSTYLE
  7
Standard
  9
$CLAYER
  8
0
  9
$CELTYPE
  6
ByLayer
  9
$CECOLOR
 62
   256
  9
$CELTSCALE
 40
1.0
  9
$DISPSILH
 70
     0
  9
$DIMSCALE
 40
1.0
  9
$DIMASZ
 40
0.18
  9
$DIMEXO
 40
0.0625
  9
$DIMDLI
 40
0.38
  9
$DIMRND
 40
0.0
  9
$DIMDLE
 40
0.0
  9
$DIMEXE
 40
0.18
  9
$DIMTP
 40
0.0
  9
$DIMTM
 40
0.0
  9
$DIMTXT
 40
0.18
  9
$DIMCEN
 40
0.09
  9
$DIMTSZ
 40
0.0
  9
$DIMTOL
 70
     0
  9
$DIMLIM
 70
     0
  9
$DIMTIH
 70
     1
  9
$DIMTOH
 70
     1
  9
$DIMSE1
 70
     0
  9
$DIMSE2
 70
     0
  9
$DIMTAD
 70
     0
  9
$DIMZIN
 70
     0
  9
$DIMBLK
  1

  9
$DIMASO
 70
     1
  9
$DIMSHO
 70
     1
  9
$DIMPOST
  1

  9
$DIMAPOST
  1

  9
$DIMALT
 70
     0
  9
$DIMALTD
 70
     2
  9
$DIMALTF
 40
25.4
  9
$DIMLFAC
 40
1.0
  9
$DIMTOFL
 70
     0
  9
$DIMTVP
 40
0.0
  9
$DIMTIX
 70
     0
  9
$DIMSOXD
 70
     0
  9
$DIMSAH
 70
     0
  9
$DIMBLK1
  1

  9
$DIMBLK2
  1

  9
$DIMSTYLE
  2
Standard
  9
$DIMCLRD
 70
     0
  9
$DIMCLRE
 70
     0
  9
$DIMCLRT
 70
     0
  9
$DIMTFAC
 40
1.0
  9
$DIMGAP
 40
0.09
  9
$DIMJUST
 70
     0
  9
$DIMSD1
 70
     0
  9
$DIMSD2
 70
     0
  9
$DIMTOLJ
 70
     1
  9
$DIMTZIN
 70
     0
  9
$DIMALTZ
 70
     0
  9
$DIMALTTZ
 70
     0
  9
$DIMUPT
 70
     0
  9
$DIMDEC
 70
     4
  9
$DIMTDEC
 70
     4
  9
$DIMALTU
 70
     2
  9
$DIMALTTD
 70
     2
  9
$DIMTXSTY
  7
Standard
  9
$DIMAUNIT
 70
     0
  9
$DIMADEC
 70
     0
  9
$DIMALTRND
 40
0.0
  9
$DIMAZIN
 70
     0
  9
$DIMDSEP
 70
    46
  9
$DIMATFIT
 70
     3
  9
$DIMFRAC
 70
     0
  9
$DIMLDRBLK
  1

  9
$DIMLUNIT
 70
     2
  9
$DIMLWD
 70
    -2
  9
$DIMLWE
 70
    -2
  9
$DIMTMOVE
 70
     0
  9
$DIMFXL
 40
1.0
  9
$DIMFXLON
 70
     0
  9
$DIMJOGANG
 40
0.7853981633974483
  9
$DIMTFILL
 70
     0
  9
$DIMTFILLCLR
 70
     0
  9
$DIMARCSYM
 70
     0
  9
$DIMLTYPE
  6

  9
$DIMLTEX1
  6

  9
$DIMLTEX2
  6

  9
$DIMTXTDIRECTION
 70
     0
  9
$LUNITS
 70
     2
  9
$LUPREC
 70
     4
  9
$SKETCHINC
 40
0.1
  9
$FILLETRAD
 40
0.5
  9
$AUNITS
 70
     0
  9
$AUPREC
 70
     0
  9
$MENU
  1
.
  9
$ELEVATION
 40
0.0
  9
$PELEVATION
 40
0.0
  9
$THICKNESS
 40
0.0
  9
$LIMCHECK
 70
     0
  9
$CHAMFERA
 40
0.5
  9
$CHAMFERB
 40
0.5
  9
$CHAMFERC
 40
1.0
  9
$CHAMFERD
 40
0.0
  9
$SKPOLY
 70
     0
  9
$TDCREATE
 40
2457917.601400451
  9
$TDUCREATE
 40
2457917.226400463
  9
$TDUPDATE
 40
2457917.601400451
  9
$TDUUPDATE
 40
2457917.226400463
  9
$TDINDWG
 40
0.0000000116
  9
$TDUSRTIMER
 40
0.0000000116
  9
$USRTIMER
 70
     1
  9
$ANGBASE
 50
0.0
  9
$ANGDIR
 70
     0
  9
$PDMODE
 70
     0
  9
$PDSIZE
 40
0.0
  9
$PLINEWID
 40
0.0
  9
$SPLFRAME
 70
     0
  9
$SPLINETYPE
 70
     6
  9
$SPLINESEGS
 70
     8
  9
$HANDSEED
  5
114
  9
$SURFTAB1
 70
     6
  9
$SURFTAB2
 70
     6
  9
$SURFTYPE
 70
     6
  9
$SURFU
 70
     6
  9
$SURFV
 70
     6
  9
$UCSBASE
  2

  9
$UCSNAME
  2

  9
$UCSORG
 10
0.0
 20
0.0
 30
0.0
  9
$UCSXDIR
 10
1.0
 20
0.0
 30
0.0
  9
$UCSYDIR
 10
0.0
 20
1.0
 30
0.0
  9
$UCSORTHOREF
  2

  9
$UCSORTHOVIEW
 70
     0
  9
$UCSORGTOP
 10
0.0
 20
0.0
 30
0.0
  9
$UCSORGBOTTOM
 10
0.0
 20
0.0
 30
0.0
  9
$UCSORGLEFT
 10
0.0
 20
0.0
 30
0.0
  9
$UCSORGRIGHT
 10
0.0
 20
0.0
 30
0.0
  9
$UCSORGFRONT
 10
0.0
 20
0.0
 30
0.0
  9
$UCSORGBACK
 10
0.0
 20
0.0
 30
0.0
  9
$PUCSBASE
  2

  9
$PUCSNAME
  2

  9
$PUCSORG
 10
0.0
 20
0.0
 30
0.0
  9
$PUCSXDIR
 10
1.0
 20
0.0
 30
0.0
  9
$PUCSYDIR
 10
0.0
 20
1.0
 30
0.0
  9
$PUCSORTHOREF
  2

  9
$PUCSORTHOVIEW
 70
     0
  9
$PUCSORGTOP
 10
0.0
 20
0.0
 30
0.0
  9
$PUCSORGBOTTOM
 10
0.0
 20
0.0
 30
0.0
  9
$PUCSORGLEFT
 10
0.0
 20
0.0
 30
0.0
  9
$PUCSORGRIGHT
 10
0.0
 20
0.0
 30
0.0
  9
$PUCSORGFRONT
 10
0.0
 20
0.0
 30
0.0
  9
$PUCSORGBACK
 10
0.0
 20
0.0
 30
0.0
  9
$USERI1
 70
     0
  9
$USERI2
 70
     0
  9
$USERI3
 70
     0
  9
$USERI4
 70
     0
  9
$USERI5
 70
     0
  9
$USERR1
 40
0.0
  9
$USERR2
 40
0.0
  9
$USERR3
 40
0.0
  9
$USERR4
 40
0.0
  9
$USERR5
 40
0.0
  9
$WORLDVIEW
 70
     1
  9
$SHADEDGE
 70
     3
  9
$SHADEDIF
 70
    70
  9
$TILEMODE
 70
     1
  9
$MAXACTVP
 70
    64
  9
$PINSBASE
 10
0.0
 20
0.0
 30
0.0
  9
$PLIMCHECK
 70
     0
  9
$PEXTMIN
 10
1.000000000000000E+20
 20
1.000000000000000E+20
 30
1.000000000000000E+20
  9
$PEXTMAX
 10
-1.000000000000000E+20
 20
-1.000000000000000E+20
 30
-1.000000000000000E+20
  9
$PLIMMIN
 10
0.0
 20
0.0
  9
$PLIMMAX
 10
12.0
 20
9.0
  9
$UNITMODE
 70
     0
  9
$VISRETAIN
 70
     1
  9
$PLINEGEN
 70
     0
  9
$PSLTSCALE
 70
     1
  9
$TREEDEPTH
 70
  3020
  9
$CMLSTYLE
  2
Standard
  9
$CMLJUST
 70
     0
  9
$CMLSCALE
 40
1.0
  9
$PROXYGRAPHICS
 70
     1
  9
$MEASUREMENT
 70
     0
  9
$CELWEIGHT
370
    -1
  9
$ENDCAPS
280
     0
  9
$JOINSTYLE
280
     0
  9
$LWDISPLAY
290
     1
  9
$INSUNITS
 70
     1
  9
$HYPERLINKBASE
  1

  9
$STYLESHEET
  1

  9
$XEDIT
290
     1
  9
$CEPSNTYPE
380
     0
  9
$PSTYLEMODE
290
     1
  9
$FINGERPRINTGUID
  2
{0D3CA005-90B5-124D-EA89-E41FA54663E2}
  9
$VERSIONGUID
  2
{FAEB1C32-E019-11D5-929B-00C0DF256EC4}
  9
$EXTNAMES
290
     1
  9
$PSVPSCALE
 40
0.0
  9
$OLESTARTUP
290
     0
  9
$SORTENTS
280
   127
  9
$INDEXCTL
280
     0
  9
$HIDETEXT
280
     1
  9
$XCLIPFRAME
280
     2
  9
$HALOGAP
280
     0
  9
$OBSCOLOR
 70
   257
  9
$OBSLTYPE
280
     0
  9
$INTERSECTIONDISPLAY
280
     0
  9
$INTERSECTIONCOLOR
 70
   257
  9
$DIMASSOC
280
     2
  9
$PROJECTNAME
  1

  9
$CAMERADISPLAY
290
     0
  9
$LENSLENGTH
 40
50.0
  9
$CAMERAHEIGHT
 40
0.0
  9
$STEPSPERSEC
 40
2.0
  9
$STEPSIZE
 40
6.0
  9
$3DDWFPREC
 40
2.0
  9
$PSOLWIDTH
 40
0.25
  9
$PSOLHEIGHT
 40
4.0
  9
$LOFTANG1
 40
1.570796326794897
  9
$LOFTANG2
 40
1.570796326794897
  9
$LOFTMAG1
 40
0.0
  9
$LOFTMAG2
 40
0.0
  9
$LOFTPARAM
 70
     7
  9
$LOFTNORMALS
280
     1
  9
$LATITUDE
 40
37.795
  9
$LONGITUDE
 40
-122.394
  9
$NORTHDIRECTION
 40
0.0
  9
$TIMEZONE
 70
 -8000
  9
$LIGHTGLYPHDISPLAY
280
     1
  9
$TILEMODELIGHTSYNCH
280
     1
  9
$CMATERIAL
347
3C
  9
$SOLIDHIST
280
     1
  9
$SHOWHIST
280
     1
  9
$DWFFRAME
280
     2
  9
$DGNFRAME
280
     2
  9
$REALWORLDSCALE
290
     1
  9
$INTERFERECOLOR
 62
   256
  9
$CSHADOW
280
     0
  9
$SHADOWPLANELOCATION
 40
0.0
  0
ENDSEC
  0
SECTION
  2
CLASSES
  0
CLASS
  1
ACDBDICTIONARYWDFLT
  2
AcDbDictionaryWithDefault
  3
ObjectDBX Classes
 90
        0
 91
        4
280
     0
281
     0
  0
CLASS
  1
VISUALSTYLE
  2
AcDbVisualStyle
  3
ObjectDBX Classes
 90
     4095
 91
        4
280
     0
281
     0
  0
CLASS
  1
MATERIAL
  2
AcDbMaterial
  3
ObjectDBX Classes
 90
     1153
 91
        4
280
     0
281
     0
  0
CLASS
  1
SUN
  2
AcDbSun
  3
SCENEOE
 90
     1024
 91
        4
280
     0
281
     0
  0
ENDSEC
  0
SECTION
  2
TABLES
  0
TABLE
  2
VPORT
  5
8
330
0
100
AcDbSymbolTable
 70
     1
  0
VPORT
  5
29
330
8
100
AcDbSymbolTableRecord
100
AcDbViewportTableRecord
  2
*Active
 70
     0
 10
0.0
 20
0.0
 11
1.0
 21
1.0
 12
0.0
 22
0.0
 13
0.0
 23
0.0
 14
0.5
 24
0.5
 15
0.5
 25
0.5
 16
0.0
 26
0.0
 36
1.0
 17
105.0008280156501
 27
-148.4999710739862
 37
0.0
 40
296.9999421479724
 41
0.7070764206636528
 42
50.0
 43
0.0
 44
0.0
 50
0.0
 51
0.0
 71
     0
 72
   100
 73
     1
 74
     3
 75
     0
 76
     0
 77
     0
 78
     0
281
     0
 65
     1
110
0.0
120
0.0
130
0.0
111
1.0
121
0.0
131
0.0
112
0.0
122
1.0
132
0.0
 79
     0
146
0.0
 60
     3
 61
     5
292
     1
282
     1
141
0.0
142
0.0
 63
   250
361
3F
  0
ENDTAB
  0
TABLE
  2
LTYPE
  5
5
330
0
100
AcDbSymbolTable
 70
     1
  0
LTYPE
  5
14
330
5
100
AcDbSymbolTableRecord
100
AcDbLinetypeTableRecord
  2
ByBlock
 70
     0
  3

 72
    65
 73
     0
 40
0.0
  0
LTYPE
  5
15
330
5
100
AcDbSymbolTableRecord
100
AcDbLinetypeTableRecord
  2
ByLayer
 70
     0
  3

 72
    65
 73
     0
 40
0.0
  0
LTYPE
  5
16
330
5
100
AcDbSymbolTableRecord
100
AcDbLinetypeTableRecord
  2
Continuous
 70
     0
  3
Solid line
 72
    65
 73
     0
 40
0.0
  0
ENDTAB
  0
TABLE
  2
LAYER
  5
2
330
0
100
AcDbSymbolTable
 70
     2
  0
LAYER
  5
10
330
2
100
AcDbSymbolTableRecord
100
AcDbLayerTableRecord
  2
0
 70
     0
 62
     7
  6
Continuous
370
    -3
390
F
347
3E
  0
LAYER
  5
40
330
2
100
AcDbSymbolTableRecord
100
AcDbLayerTableRecord
  2
_U+30EC_U+30A4_U+30E4_U+30FC 1
 70
     0
 62
     7
  6
Continuous
370
    -3
390
F
347
3E
  0
ENDTAB
  0
TABLE
  2
STYLE
  5
3
330
0
100
AcDbSymbolTable
 70
     1
  0
STYLE
  5
11
330
3
100
AcDbSymbolTableRecord
100
AcDbTextStyleTableRecord
  2
Standard
 70
     0
 40
0.0
 41
1.0
 50
0.0
 71
     0
 42
0.2
  3
txt
  4

  0
ENDTAB
  0
TABLE
  2
VIEW
  5
6
330
0
100
AcDbSymbolTable
 70
     0
  0
ENDTAB
  0
TABLE
  2
UCS
  5
7
330
0
100
AcDbSymbolTable
 70
     0
  0
ENDTAB
  0
TABLE
  2
APPID
  5
9
330
0
100
AcDbSymbolTable
 70
     1
  0
APPID
  5
12
330
9
100
AcDbSymbolTableRecord
100
AcDbRegAppTableRecord
  2
ACAD
 70
     0
  0
ENDTAB
  0
TABLE
  2
DIMSTYLE
  5
A
330
0
100
AcDbSymbolTable
 70
     1
100
AcDbDimStyleTable
  0
DIMSTYLE
105
27
330
A
100
AcDbSymbolTableRecord
100
AcDbDimStyleTableRecord
  2
Standard
 70
     0
178
     0
340
11
  0
ENDTAB
  0
TABLE
  2
BLOCK_RECORD
  5
1
330
0
100
AcDbSymbolTable
 70
    12
  0
BLOCK_RECORD
  5
1F
330
1
100
AcDbSymbolTableRecord
100
AcDbBlockTableRecord
  2
*Model_Space
340
22
 70
     0
280
     1
281
     0
  0
BLOCK_RECORD
  5
1B
330
1
100
AcDbSymbolTableRecord
100
AcDbBlockTableRecord
  2
*Paper_Space
340
1E
 70
     0
280
     1
281
     0
  0
BLOCK_RECORD
  5
23
330
1
100
AcDbSymbolTableRecord
100
AcDbBlockTableRecord
  2
*Paper_Space0
340
26
 70
     0
280
     1
281
     0
  0
BLOCK_RECORD
  5
41
330
1
100
AcDbSymbolTableRecord
100
AcDbBlockTableRecord
  2
block 2
340
0
102
{BLKREFS
331
42
102
}
 70
     0
280
     1
281
     0
  0
BLOCK_RECORD
  5
6D
330
1
100
AcDbSymbolTableRecord
100
AcDbBlockTableRecord
  2
block 3
340
0
102
{BLKREFS
331
6E
102
}
 70
     0
280
     1
281
     0
  0
BLOCK_RECORD
  5
7D
330
1
100
AcDbSymbolTableRecord
100
AcDbBlockTableRecord
  2
block 4
340
0
102
{BLKREFS
331
7E
102
}
 70
     0
280
     1
281
     0
  0
BLOCK_RECORD
  5
83
330
1
100
AcDbSymbolTableRecord
100
AcDbBlockTableRecord
  2
block 5
340
0
102
{BLKREFS
331
84
102
}
 70
     0
280
     1
281
     0
  0
BLOCK_RECORD
  5
8F
330
1
100
AcDbSymbolTableRecord
100
AcDbBlockTableRecord
  2
block 6
340
0
102
{BLKREFS
331
90
102
}
 70
     0
280
     1
281
     0
  0
BLOCK_RECORD
  5
97
330
1
100
AcDbSymbolTableRecord
100
AcDbBlockTableRecord
  2
block 7
340
0
102
{BLKREFS
331
98
102
}
 70
     0
280
     1
281
     0
  0
BLOCK_RECORD
  5
AB
330
1
100
AcDbSymbolTableRecord
100
AcDbBlockTableRecord
  2
block 8
340
0
102
{BLKREFS
331
AC
102
}
 70
     0
280
     1
281
     0
  0
BLOCK_RECORD
  5
BC
330
1
100
AcDbSymbolTableRecord
100
AcDbBlockTableRecord
  2
block 9
340
0
102
{BLKREFS
331
BD
102
}
 70
     0
280
     1
281
     0
  0
BLOCK_RECORD
  5
CC
330
1
100
AcDbSymbolTableRecord
100
AcDbBlockTableRecord
  2
block 10
340
0
102
{BLKREFS
331
CD
102
}
 70
     0
280
     1
281
     0
  0
BLOCK_RECORD
  5
DE
330
1
100
AcDbSymbolTableRecord
100
AcDbBlockTableRecord
  2
block 11
340
0
102
{BLKREFS
331
DF
102
}
 70
     0
280
     1
281
     0
  0
BLOCK_RECORD
  5
EE
330
1
100
AcDbSymbolTableRecord
100
AcDbBlockTableRecord
  2
block 12
340
0
102
{BLKREFS
331
EF
102
}
 70
     0
280
     1
281
     0
  0
ENDTAB
  0
ENDSEC
  0
SECTION
  2
BLOCKS
  0
BLOCK
  5
20
330
1F
100
AcDbEntity
  8
0
100
AcDbBlockBegin
  2
*Model_Space
 70
     0
 10
0.0
 20
0.0
 30
0.0
  3
*Model_Space
  1

  0
ENDBLK
  5
21
330
1F
100
AcDbEntity
  8
0
100
AcDbBlockEnd
  0
BLOCK
  5
1C
330
1B
100
AcDbEntity
 67
     1
  8
0
100
AcDbBlockBegin
  2
*Paper_Space
 70
     0
 10
0.0
 20
0.0
 30
0.0
  3
*Paper_Space
  1

  0
ENDBLK
  5
1D
330
1B
100
AcDbEntity
 67
     1
  8
0
100
AcDbBlockEnd
  0
BLOCK
  5
24
330
23
100
AcDbEntity
  8
0
100
AcDbBlockBegin
  2
*Paper_Space0
 70
     0
 10
0.0
 20
0.0
 30
0.0
  3
*Paper_Space0
  1

  0
ENDBLK
  5
25
330
23
100
AcDbEntity
  8
0
100
AcDbBlockEnd
  0
BLOCK
  5
43
330
41
100
AcDbEntity
  8
0
100
AcDbBlockBegin
  2
block 2
 70
     0
 10
0.0
 20
0.0
 30
0.0
  3
block 2
  1

  0
POLYLINE
  5
45
330
41
100
AcDbEntity
  8
_U+30EC_U+30A4_U+30E4_U+30FC 1
 62
   179
420
  2234388
370
    25
100
AcDb2dPolyline
 66
     1
 10
0.0
 20
0.0
 30
0.0
  0
VERTEX
  5
46
330
45
100
AcDbEntity
  8
_U+30EC_U+30A4_U+30E4_U+30FC 1
 62
   179
420
  2234388
370
    25
100
AcDbVertex
100
AcDb2dVertex
 10
94.03337287878658
 20
-142.8784571865025
 30
0.0
  0
VERTEX
  5
47
330
45
100
AcDbEntity
  8
_U+30EC_U+30A4_U+30E4_U+30FC 1
 62
   179
420
  2234388
370
    25
100
AcDbVertex
100
AcDb2dVertex
 10
97.1334427996972
 20
-142.8784571865025
 30
0.0
  0
SEQEND
  5
48
330
45
100
AcDbEntity
  8
_U+30EC_U+30A4_U+30E4_U+30FC 1
 62
   179
420
  2234388
370
    25
  0
POLYLINE
  5
49
330
41
100
AcDbEntity
  8
_U+30EC_U+30A4_U+30E4_U+30FC 1
 62
   179
420
  2234388
370
    25
100
AcDb2dPolyline
 66
     1
 10
0.0
 20
0.0
 30
0.0
  0
VERTEX
  5
4A
330
49
100
AcDbEntity
  8
_U+30EC_U+30A4_U+30E4_U+30FC 1
 62
   179
420
  2234388
370
    25
100
AcDbVertex
100
AcDb2dVertex
 10
96.03341116109468
 20
-143.8785469084747
 30
0.0
  0
VERTEX
  5
4B
330
49
100
AcDbEntity
  8
_U+30EC_U+30A4_U+30E4_U+30FC 1
 62
   179
420
  2234388
370
    25
100
AcDbVertex
100
AcDb2dVertex
 10
96.03341116109468
 20
-156.4782874608803
 30
0.0
  0
SEQEND
  5
4C
330
49
100
AcDbEntity
  8
_U+30EC_U+30A4_U+30E4_U+30FC 1
 62
   179
420
  2234388
370
    25
  0
POLYLINE
  5
4D
330
41
100
AcDbEntity
  8
_U+30EC_U+30A4_U+30E4_U+30FC 1
 62
   179
420
  2234388
370
    25
100
AcDb2dPolyline
 66
     1
 10
0.0
 20
0.0
 30
0.0
  0
VERTEX
  5
4E
330
4D
100
AcDbEntity
  8
_U+30EC_U+30A4_U+30E4_U+30FC 1
 62
   179
420
  2234388
370
    25
100
AcDbVertex
100
AcDb2dVertex
 10
94.03337287878658
 20
-142.8784571865025
 30
0.0
  0
VERTEX
  5
4F
330
4D
100
AcDbEntity
  8
_U+30EC_U+30A4_U+30E4_U+30FC 1
 62
   179
420
  2234388
370
    25
100
AcDbVertex
100
AcDb2dVertex
 10
94.03337287878658
 20
-143.8785469084747
 30
0.0
  0
SEQEND
  5
50
330
4D
100
AcDbEntity
  8
_U+30EC_U+30A4_U+30E4_U+30FC 1
 62
   179
420
  2234388
370
    25
  0
POLYLINE
  5
51
330
41
100
AcDbEntity
  8
_U+30EC_U+30A4_U+30E4_U+30FC 1
 62
   179
420
  2234388
370
    25
100
AcDb2dPolyline
 66
     1
 10
0.0
 20
0.0
 30
0.0
  0
VERTEX
  5
52
330
51
100
AcDbEntity
  8
_U+30EC_U+30A4_U+30E4_U+30FC 1
 62
   179
420
  2234388
370
    25
100
AcDbVertex
100
AcDb2dVertex
 10
97.1334427996972
 20
-142.8784571865025
 30
0.0
  0
VERTEX
  5
53
330
51
100
AcDbEntity
  8
_U+30EC_U+30A4_U+30E4_U+30FC 1
 62
   179
420
  2234388
370
    25
100
AcDbVertex
100
AcDb2dVertex
 10
97.1334427996972
 20
-155.3786438500443
 30
0.0
  0
SEQEND
  5
54
330
51
100
AcDbEntity
  8
_U+30EC_U+30A4_U+30E4_U+30FC 1
 62
   179
420
  2234388
370
    25
  0
POLYLINE
  5
55
330
41
100
AcDbEntity
  8
_U+30EC_U+30A4_U+30E4_U+30FC 1
 62
   179
420
  2234388
370
    25
100
AcDb2dPolyline
 66
     1
 10
0.0
 20
0.0
 30
0.0
  0
VERTEX
  5
56
330
55
100
AcDbEntity
  8
_U+30EC_U+30A4_U+30E4_U+30FC 1
 62
   179
420
  2234388
370
    25
100
AcDbVertex
100
AcDb2dVertex
 10
113.0335954496061
 20
-155.3786438500443
 30
0.0
  0
VERTEX
  5
57
330
55
100
AcDbEntity
  8
_U+30EC_U+30A4_U+30E4_U+30FC 1
 62
   179
420
  2234388
370
    25
100
AcDbVertex
100
AcDb2dVertex
 10
113.0335954496061
 20
-155.7789407943888
 30
0.0
  0
SEQEND
  5
58
330
55
100
AcDbEntity
  8
_U+30EC_U+30A4_U+30E4_U+30FC 1
 62
   179
420
  2234388
370
    25
  0
POLYLINE
  5
59
330
41
100
AcDbEntity
  8
_U+30EC_U+30A4_U+30E4_U+30FC 1
 62
   179
420
  2234388
370
    25
100
AcDb2dPolyline
 66
     1
 10
0.0
 20
0.0
 30
0.0
  0
VERTEX
  5
5A
330
59
100
AcDbEntity
  8
_U+30EC_U+30A4_U+30E4_U+30FC 1
 62
   179
420
  2234388
370
    25
100
AcDbVertex
100
AcDb2dVertex
 10
97.1334427996972
 20
-155.3786438500443
 30
0.0
  0
VERTEX
  5
5B
330
59
100
AcDbEntity
  8
_U+30EC_U+30A4_U+30E4_U+30FC 1
 62
   179
420
  2234388
370
    25
100
AcDbVertex
100
AcDb2dVertex
 10
113.0335954496061
 20
-155.3786438500443
 30
0.0
  0
SEQEND
  5
5C
330
59
100
AcDbEntity
  8
_U+30EC_U+30A4_U+30E4_U+30FC 1
 62
   179
420
  2234388
370
    25
  0
POLYLINE
  5
5D
330
41
100
AcDbEntity
  8
_U+30EC_U+30A4_U+30E4_U+30FC 1
 62
   179
420
  2234388
370
    25
100
AcDb2dPolyline
 66
     1
 10
0.0
 20
0.0
 30
0.0
  0
VERTEX
  5
5E
330
5D
100
AcDbEntity
  8
_U+30EC_U+30A4_U+30E4_U+30FC 1
 62
   179
420
  2234388
370
    25
100
AcDbVertex
100
AcDb2dVertex
 10
113.0335954496061
 20
-155.7789407943888
 30
0.0
  0
VERTEX
  5
5F
330
5D
100
AcDbEntity
  8
_U+30EC_U+30A4_U+30E4_U+30FC 1
 62
   179
420
  2234388
370
    25
100
AcDbVertex
100
AcDb2dVertex
 10
96.03341116109468
 20
-156.4782874608803
 30
0.0
  0
SEQEND
  5
60
330
5D
100
AcDbEntity
  8
_U+30EC_U+30A4_U+30E4_U+30FC 1
 62
   179
420
  2234388
370
    25
  0
POLYLINE
  5
61
330
41
100
AcDbEntity
  8
_U+30EC_U+30A4_U+30E4_U+30FC 1
 62
   179
420
  2234388
370
    25
100
AcDb2dPolyline
 66
     1
 10
0.0
 20
0.0
 30
0.0
  0
VERTEX
  5
62
330
61
100
AcDbEntity
  8
_U+30EC_U+30A4_U+30E4_U+30FC 1
 62
   179
420
  2234388
370
    25
100
AcDbVertex
100
AcDb2dVertex
 10
94.03337287878658
 20
-143.8785469084747
 30
0.0
  0
VERTEX
  5
63
330
61
100
AcDbEntity
  8
_U+30EC_U+30A4_U+30E4_U+30FC 1
 62
   179
420
  2234388
370
    25
100
AcDbVertex
100
AcDb2dVertex
 10
96.03341116109468
 20
-143.8785469084747
 30
0.0
  0
SEQEND
  5
64
330
61
100
AcDbEntity
  8
_U+30EC_U+30A4_U+30E4_U+30FC 1
 62
   179
420
  2234388
370
    25
  0
SPLINE
  5
65
330
41
100
AcDbEntity
  8
_U+30EC_U+30A4_U+30E4_U+30FC 1
 62
   179
420
  2234388
370
     9
100
AcDbSpline
210
0.0
220
0.0
230
1.0
 70
    11
 71
     3
 72
    17
 73
    13
 74
     0
 42
0.0000000001
 43
0.0000000001
 12
1.0
 22
0.0
 32
0.0
 13
1.0
 23
0.0
 33
0.0
 40
0.0
 40
0.0
 40
0.0
 40
0.0
 40
1.0
 40
1.0
 40
1.0
 40
2.0
 40
2.0
 40
2.0
 40
3.0
 40
3.0
 40
3.0
 40
4.0
 40
4.0
 40
4.0
 40
4.0
 10
117.1339314561089
 20
-142.8784571865025
 30
0.0
 10
117.1339314561089
 20
-142.8233180198498
 30
0.0
 10
117.089163957251
 20
-142.7785505198609
 30
0.0
 10
117.0333221929638
 20
-142.7785505198609
 30
0.0
 10
116.9782153489704
 20
-142.7785505198609
 30
0.0
 10
116.9334125723357
 20
-142.8233180198498
 30
0.0
 10
116.9334125723357
 20
-142.8784571865025
 30
0.0
 10
116.9334125723357
 20
-142.9339138531556
 30
0.0
 10
116.9782153489704
 20
-142.9786813531441
 30
0.0
 10
117.0333221929638
 20
-142.9786813531441
 30
0.0
 10
117.089163957251
 20
-142.9786813531441
 30
0.0
 10
117.1339314561089
 20
-142.9339138531556
 30
0.0
 10
117.1339314561089
 20
-142.8784571865025
 30
0.0
  0
SPLINE
  5
66
330
41
100
AcDbEntity
  8
_U+30EC_U+30A4_U+30E4_U+30FC 1
 62
   179
420
  2234388
370
     9
100
AcDbSpline
210
0.0
220
0.0
230
1.0
 70
    11
 71
     3
 72
    17
 73
    13
 74
     0
 42
0.0000000001
 43
0.0000000001
 12
1.0
 22
0.0
 32
0.0
 13
1.0
 23
0.0
 33
0.0
 40
0.0
 40
0.0
 40
0.0
 40
0.0
 40
1.0
 40
1.0
 40
1.0
 40
2.0
 40
2.0
 40
2.0
 40
3.0
 40
3.0
 40
3.0
 40
4.0
 40
4.0
 40
4.0
 40
4.0
 10
117.1339314561089
 20
-155.3786438500443
 30
0.0
 10
117.1339314561089
 20
-155.3235046833912
 30
0.0
 10
117.089163957251
 20
-155.2787371834026
 30
0.0
 10
117.0333221929638
 20
-155.2787371834026
 30
0.0
 10
116.9782153489704
 20
-155.2787371834026
 30
0.0
 10
116.9334125723357
 20
-155.3235046833912
 30
0.0
 10
116.9334125723357
 20
-155.3786438500443
 30
0.0
 10
116.9334125723357
 20
-155.4337477389192
 30
0.0
 10
116.9782153489704
 20
-155.4785505166859
 30
0.0
 10
117.0333221929638
 20
-155.4785505166859
 30
0.0
 10
117.089163957251
 20
-155.4785505166859
 30
0.0
 10
117.1339314561089
 20
-155.4337477389192
 30
0.0
 10
117.1339314561089
 20
-155.3786438500443
 30
0.0
  0
SPLINE
  5
67
330
41
100
AcDbEntity
  8
_U+30EC_U+30A4_U+30E4_U+30FC 1
 62
   179
420
  2234388
370
     9
100
AcDbSpline
210
0.0
220
0.0
230
1.0
 70
    11
 71
     3
 72
    17
 73
    13
 74
     0
 42
0.0000000001
 43
0.0000000001
 12
1.0
 22
0.0
 32
0.0
 13
1.0
 23
0.0
 33
0.0
 40
0.0
 40
0.0
 40
0.0
 40
0.0
 40
1.0
 40
1.0
 40
1.0
 40
2.0
 40
2.0
 40
2.0
 40
3.0
 40
3.0
 40
3.0
 40
4.0
 40
4.0
 40
4.0
 40
4.0
 10
117.1339314561089
 20
-155.7789407943888
 30
0.0
 10
117.1339314561089
 20
-155.7231313499584
 30
0.0
 10
117.089163957251
 20
-155.6783638499692
 30
0.0
 10
117.0333221929638
 20
-155.6783638499692
 30
0.0
 10
116.9782153489704
 20
-155.6783638499692
 30
0.0
 10
116.9334125723357
 20
-155.7231313499584
 30
0.0
 10
116.9334125723357
 20
-155.7789407943888
 30
0.0
 10
116.9334125723357
 20
-155.8340799610413
 30
0.0
 10
116.9782153489704
 20
-155.8788474610305
 30
0.0
 10
117.0333221929638
 20
-155.8788474610305
 30
0.0
 10
117.089163957251
 20
-155.8788474610305
 30
0.0
 10
117.1339314561089
 20
-155.8340799610413
 30
0.0
 10
117.1339314561089
 20
-155.7789407943888
 30
0.0
  0
SPLINE
  5
68
330
41
100
AcDbEntity
  8
_U+30EC_U+30A4_U+30E4_U+30FC 1
 62
   179
420
  2234388
370
     9
100
AcDbSpline
210
0.0
220
0.0
230
1.0
 70
    11
 71
     3
 72
    17
 73
    13
 74
     0
 42
0.0000000001
 43
0.0000000001
 12
1.0
 22
0.0
 32
0.0
 13
1.0
 23
0.0
 33
0.0
 40
0.0
 40
0.0
 40
0.0
 40
0.0
 40
1.0
 40
1.0
 40
1.0
 40
2.0
 40
2.0
 40
2.0
 40
3.0
 40
3.0
 40
3.0
 40
4.0
 40
4.0
 40
4.0
 40
4.0
 10
113.1335021137239
 20
-160.4787521821027
 30
0.0
 10
113.1335021137239
 20
-160.4236130154496
 30
0.0
 10
113.0886993370891
 20
-160.3788455154611
 30
0.0
 10
113.0335954496061
 20
-160.3788455154611
 30
0.0
 10
112.9784562843461
 20
-160.3788455154611
 30
0.0
 10
112.9336916384334
 20
-160.4236130154496
 30
0.0
 10
112.9336916384334
 20
-160.4787521821027
 30
0.0
 10
112.9336916384334
 20
-160.5338560709776
 30
0.0
 10
112.9784562843461
 20
-160.5786588487443
 30
0.0
 10
113.0335954496061
 20
-160.5786588487443
 30
0.0
 10
113.0886993370891
 20
-160.5786588487443
 30
0.0
 10
113.1335021137239
 20
-160.5338560709776
 30
0.0
 10
113.1335021137239
 20
-160.4787521821027
 30
0.0
  0
SPLINE
  5
69
330
41
100
AcDbEntity
  8
_U+30EC_U+30A4_U+30E4_U+30FC 1
 62
   179
420
  2234388
370
     9
100
AcDbSpline
210
0.0
220
0.0
230
1.0
 70
    11
 71
     3
 72
    17
 73
    13
 74
     0
 42
0.0000000001
 43
0.0000000001
 12
1.0
 22
0.0
 32
0.0
 13
1.0
 23
0.0
 33
0.0
 40
0.0
 40
0.0
 40
0.0
 40
0.0
 40
1.0
 40
1.0
 40
1.0
 40
2.0
 40
2.0
 40
2.0
 40
3.0
 40
3.0
 40
3.0
 40
4.0
 40
4.0
 40
4.0
 40
4.0
 10
94.13359704289631
 20
-160.4787521821027
 30
0.0
 10
94.13359704289631
 20
-160.4236130154496
 30
0.0
 10
94.08882954403842
 20
-160.3788455154611
 30
0.0
 10
94.03337287878658
 20
-160.3788455154611
 30
0.0
 10
93.97788330983894
 20
-160.3788455154611
 30
0.0
 10
93.93346621466874
 20
-160.4236130154496
 30
0.0
 10
93.93346621466874
 20
-160.4787521821027
 30
0.0
 10
93.93346621466874
 20
-160.5338560709776
 30
0.0
 10
93.97788330983894
 20
-160.5786588487443
 30
0.0
 10
94.03337287878658
 20
-160.5786588487443
 30
0.0
 10
94.08882954403842
 20
-160.5786588487443
 30
0.0
 10
94.13359704289631
 20
-160.5338560709776
 30
0.0
 10
94.13359704289631
 20
-160.4787521821027
 30
0.0
  0
SPLINE
  5
6A
330
41
100
AcDbEntity
  8
_U+30EC_U+30A4_U+30E4_U+30FC 1
 62
   179
420
  2234388
370
     9
100
AcDbSpline
210
0.0
220
0.0
230
1.0
 70
    11
 71
     3
 72
    17
 73
    13
 74
     0
 42
0.0000000001
 43
0.0000000001
 12
1.0
 22
0.0
 32
0.0
 13
1.0
 23
0.0
 33
0.0
 40
0.0
 40
0.0
 40
0.0
 40
0.0
 40
1.0
 40
1.0
 40
1.0
 40
2.0
 40
2.0
 40
2.0
 40
3.0
 40
3.0
 40
3.0
 40
4.0
 40
4.0
 40
4.0
 40
4.0
 10
91.17601406279498
 20
-142.8784571865025
 30
0.0
 10
91.17601406279498
 20
-142.8233180198498
 30
0.0
 10
91.13121128616022
 20
-142.7785505198609
 30
0.0
 10
91.07610739867715
 20
-142.7785505198609
 30
0.0
 10
91.0209682334172
 20
-142.7785505198609
 30
0.0
 10
90.97620073455931
 20
-142.8233180198498
 30
0.0
 10
90.97620073455931
 20
-142.8784571865025
 30
0.0
 10
90.97620073455931
 20
-142.9339138531556
 30
0.0
 10
91.0209682334172
 20
-142.9786813531441
 30
0.0
 10
91.07610739867715
 20
-142.9786813531441
 30
0.0
 10
91.13121128616022
 20
-142.9786813531441
 30
0.0
 10
91.17601406279498
 20
-142.9339138531556
 30
0.0
 10
91.17601406279498
 20
-142.8784571865025
 30
0.0
  0
SPLINE
  5
6B
330
41
100
AcDbEntity
  8
_U+30EC_U+30A4_U+30E4_U+30FC 1
 62
   179
420
  2234388
370
     9
100
AcDbSpline
210
0.0
220
0.0
230
1.0
 70
    11
 71
     3
 72
    17
 73
    13
 74
     0
 42
0.0000000001
 43
0.0000000001
 12
1.0
 22
0.0
 32
0.0
 13
1.0
 23
0.0
 33
0.0
 40
0.0
 40
0.0
 40
0.0
 40
0.0
 40
1.0
 40
1.0
 40
1.0
 40
2.0
 40
2.0
 40
2.0
 40
3.0
 40
3.0
 40
3.0
 40
4.0
 40
4.0
 40
4.0
 40
4.0
 10
91.17601406279498
 20
-143.8785469084747
 30
0.0
 10
91.17601406279498
 20
-143.823090241822
 30
0.0
 10
91.13121128616022
 20
-143.7782874640553
 30
0.0
 10
91.07610739867715
 20
-143.7782874640553
 30
0.0
 10
91.0209682334172
 20
-143.7782874640553
 30
0.0
 10
90.97620073455931
 20
-143.823090241822
 30
0.0
 10
90.97620073455931
 20
-143.8785469084747
 30
0.0
 10
90.97620073455931
 20
-143.9340388529055
 30
0.0
 10
91.0209682334172
 20
-143.9784535751166
 30
0.0
 10
91.07610739867715
 20
-143.9784535751166
 30
0.0
 10
91.13121128616022
 20
-143.9784535751166
 30
0.0
 10
91.17601406279498
 20
-143.9340388529055
 30
0.0
 10
91.17601406279498
 20
-143.8785469084747
 30
0.0
  0
SPLINE
  5
6C
330
41
100
AcDbEntity
  8
_U+30EC_U+30A4_U+30E4_U+30FC 1
 62
   179
420
  2234388
370
     9
100
AcDbSpline
210
0.0
220
0.0
230
1.0
 70
    11
 71
     3
 72
    17
 73
    13
 74
     0
 42
0.0000000001
 43
0.0000000001
 12
1.0
 22
0.0
 32
0.0
 13
1.0
 23
0.0
 33
0.0
 40
0.0
 40
0.0
 40
0.0
 40
0.0
 40
1.0
 40
1.0
 40
1.0
 40
2.0
 40
2.0
 40
2.0
 40
3.0
 40
3.0
 40
3.0
 40
4.0
 40
4.0
 40
4.0
 40
4.0
 10
96.1336706029813
 20
-160.4787521821027
 30
0.0
 10
96.1336706029813
 20
-160.4236130154496
 30
0.0
 10
96.08886782634653
 20
-160.3788455154611
 30
0.0
 10
96.03341116109468
 20
-160.3788455154611
 30
0.0
 10
95.9783072736116
 20
-160.3788455154611
 30
0.0
 10
95.93350449697684
 20
-160.4236130154496
 30
0.0
 10
95.93350449697684
 20
-160.4787521821027
 30
0.0
 10
95.93350449697684
 20
-160.5338560709776
 30
0.0
 10
95.9783072736116
 20
-160.5786588487443
 30
0.0
 10
96.03341116109468
 20
-160.5786588487443
 30
0.0
 10
96.08886782634653
 20
-160.5786588487443
 30
0.0
 10
96.1336706029813
 20
-160.5338560709776
 30
0.0
 10
96.1336706029813
 20
-160.4787521821027
 30
0.0
  0
INSERT
  5
6E
330
41
100
AcDbEntity
  8
_U+30EC_U+30A4_U+30E4_U+30FC 1
100
AcDbBlockReference
  2
block 3
 10
0.0
 20
0.0
 30
0.0
  0
INSERT
  5
84
330
41
100
AcDbEntity
  8
_U+30EC_U+30A4_U+30E4_U+30FC 1
100
AcDbBlockReference
  2
block 5
 10
0.0
 20
0.0
 30
0.0
  0
INSERT
  5
98
330
41
100
AcDbEntity
  8
_U+30EC_U+30A4_U+30E4_U+30FC 1
100
AcDbBlockReference
  2
block 7
 10
0.0
 20
0.0
 30
0.0
  0
INSERT
  5
BD
330
41
100
AcDbEntity
  8
_U+30EC_U+30A4_U+30E4_U+30FC 1
100
AcDbBlockReference
  2
block 9
 10
0.0
 20
0.0
 30
0.0
  0
INSERT
  5
DF
330
41
100
AcDbEntity
  8
_U+30EC_U+30A4_U+30E4_U+30FC 1
100
AcDbBlockReference
  2
block 11
 10
0.0
 20
0.0
 30
0.0
  0
ENDBLK
  5
44
330
41
100
AcDbEntity
  8
0
100
AcDbBlockEnd
  0
BLOCK
  5
6F
330
6D
100
AcDbEntity
  8
0
100
AcDbBlockBegin
  2
block 3
 70
     0
 10
0.0
 20
0.0
 30
0.0
  3
block 3
  1

  0
POLYLINE
  5
71
330
6D
100
AcDbEntity
  8
_U+30EC_U+30A4_U+30E4_U+30FC 1
 62
   179
420
  2234388
370
     9
100
AcDb2dPolyline
 66
     1
 10
0.0
 20
0.0
 30
0.0
  0
VERTEX
  5
72
330
71
100
AcDbEntity
  8
_U+30EC_U+30A4_U+30E4_U+30FC 1
 62
   179
420
  2234388
370
     9
100
AcDbVertex
100
AcDb2dVertex
 10
94.03354926767096
 20
-160.4787521821027
 30
0.0
  0
VERTEX
  5
73
330
71
100
AcDbEntity
  8
_U+30EC_U+30A4_U+30E4_U+30FC 1
 62
   179
420
  2234388
370
     9
100
AcDbVertex
100
AcDb2dVertex
 10
96.03341116109468
 20
-160.4787521821027
 30
0.0
  0
SEQEND
  5
74
330
71
100
AcDbEntity
  8
_U+30EC_U+30A4_U+30E4_U+30FC 1
 62
   179
420
  2234388
370
     9
  0
POLYLINE
  5
75
330
6D
100
AcDbEntity
  8
_U+30EC_U+30A4_U+30E4_U+30FC 1
 62
   179
420
  2234388
370
     9
100
AcDb2dPolyline
 66
     1
 10
0.0
 20
0.0
 30
0.0
  0
VERTEX
  5
76
330
75
100
AcDbEntity
  8
_U+30EC_U+30A4_U+30E4_U+30FC 1
 62
   179
420
  2234388
370
     9
100
AcDbVertex
100
AcDb2dVertex
 10
94.03337287878658
 20
-146.518524130037
 30
0.0
  0
VERTEX
  5
77
330
75
100
AcDbEntity
  8
_U+30EC_U+30A4_U+30E4_U+30FC 1
 62
   179
420
  2234388
370
     9
100
AcDbVertex
100
AcDb2dVertex
 10
94.03337287878658
 20
-161.4785244040746
 30
0.0
  0
SEQEND
  5
78
330
75
100
AcDbEntity
  8
_U+30EC_U+30A4_U+30E4_U+30FC 1
 62
   179
420
  2234388
370
     9
  0
POLYLINE
  5
79
330
6D
100
AcDbEntity
  8
_U+30EC_U+30A4_U+30E4_U+30FC 1
 62
   179
420
  2234388
370
     9
100
AcDb2dPolyline
 66
     1
 10
0.0
 20
0.0
 30
0.0
  0
VERTEX
  5
7A
330
79
100
AcDbEntity
  8
_U+30EC_U+30A4_U+30E4_U+30FC 1
 62
   179
420
  2234388
370
     9
100
AcDbVertex
100
AcDb2dVertex
 10
96.03341116109468
 20
-159.0187107935784
 30
0.0
  0
VERTEX
  5
7B
330
79
100
AcDbEntity
  8
_U+30EC_U+30A4_U+30E4_U+30FC 1
 62
   179
420
  2234388
370
     9
100
AcDbVertex
100
AcDb2dVertex
 10
96.03341116109468
 20
-161.4785244040746
 30
0.0
  0
SEQEND
  5
7C
330
79
100
AcDbEntity
  8
_U+30EC_U+30A4_U+30E4_U+30FC 1
 62
   179
420
  2234388
370
     9
  0
INSERT
  5
7E
330
6D
100
AcDbEntity
  8
_U+30EC_U+30A4_U+30E4_U+30FC 1
100
AcDbBlockReference
  2
block 4
 10
0.0
 20
0.0
 30
0.0
  0
ENDBLK
  5
70
330
6D
100
AcDbEntity
  8
0
100
AcDbBlockEnd
  0
BLOCK
  5
7F
330
7D
100
AcDbEntity
  8
0
100
AcDbBlockBegin
  2
block 4
 70
     0
 10
0.0
 20
0.0
 30
0.0
  3
block 4
  1

  0
SPLINE
  5
81
330
7D
100
AcDbEntity
  8
_U+30EC_U+30A4_U+30E4_U+30FC 1
370
     0
100
AcDbSpline
210
0.0
220
0.0
230
1.0
 70
    11
 71
     3
 72
    44
 73
    40
 74
     0
 42
0.0000000001
 43
0.0000000001
 12
1.0
 22
0.0
 32
0.0
 13
1.0
 23
0.0
 33
0.0
 40
0.0
 40
0.0
 40
0.0
 40
0.0
 40
1.0
 40
1.0
 40
1.0
 40
2.0
 40
2.0
 40
2.0
 40
3.0
 40
3.0
 40
3.0
 40
4.0
 40
4.0
 40
4.0
 40
5.0
 40
5.0
 40
5.0
 40
6.0
 40
6.0
 40
6.0
 40
7.0
 40
7.0
 40
7.0
 40
8.0
 40
8.0
 40
8.0
 40
9.0
 40
9.0
 40
9.0
 40
10.0
 40
10.0
 40
10.0
 40
11.0
 40
11.0
 40
11.0
 40
12.0
 40
12.0
 40
12.0
 40
13.0
 40
13.0
 40
13.0
 40
13.0
 10
95.11340194019735
 20
-159.2509168438678
 30
0.0
 10
94.92771129354239
 20
-159.4097357457379
 30
0.0
 10
94.84830184260737
 20
-159.4838052986707
 30
0.0
 10
94.80678844201012
 20
-159.6274657804056
 30
0.0
 10
94.80678844201012
 20
-159.6274657804056
 30
0.0
 10
95.4704860872435
 20
-159.6274657804056
 30
0.0
 10
95.4704860872435
 20
-159.6274657804056
 30
0.0
 10
95.4704860872435
 20
-159.6274657804056
 30
0.0
 10
95.4704860872435
 20
-159.8327934713265
 30
0.0
 10
95.4704860872435
 20
-159.8327934713265
 30
0.0
 10
95.4704860872435
 20
-159.8327934713265
 30
0.0
 10
94.59405379579593
 20
-159.8327934713265
 30
0.0
 10
94.59405379579593
 20
-159.8327934713265
 30
0.0
 10
94.62109779535514
 20
-159.4751925599576
 30
0.0
 10
94.67708059699045
 20
-159.3969888924424
 30
0.0
 10
95.0052259419605
 20
-159.0986436234198
 30
0.0
 10
95.22347274095108
 20
-158.8998616139209
 30
0.0
 10
95.27928328781213
 20
-158.8319932328615
 30
0.0
 10
95.27928328781213
 20
-158.694533923
 30
0.0
 10
95.27928328781213
 20
-158.5760226383074
 30
0.0
 10
95.21796058817468
 20
-158.4451090098679
 30
0.0
 10
95.05035669281727
 20
-158.4451090098679
 30
0.0
 10
94.8284925435672
 20
-158.4451090098679
 30
0.0
 10
94.82125784304816
 20
-158.6755858978311
 30
0.0
 10
94.81764049278866
 20
-158.7920301252325
 30
0.0
 10
94.81764049278866
 20
-158.7920301252325
 30
0.0
 10
94.62643769335729
 20
-158.7920301252325
 30
0.0
 10
94.62643769335729
 20
-158.7920301252325
 30
0.0
 10
94.63367239387631
 20
-158.6649061018268
 30
0.0
 10
94.64280189691222
 20
-158.5529404985562
 30
0.0
 10
94.71118704229443
 20
-158.4344292138636
 30
0.0
 10
94.80506589426749
 20
-158.2735432547024
 30
0.0
 10
94.96371254136324
 20
-158.239781318947
 30
0.0
 10
95.06293129133844
 20
-158.239781318947
 30
0.0
 10
95.29909258685231
 20
-158.239781318947
 30
0.0
 10
95.47582598524563
 20
-158.4237494178593
 30
0.0
 10
95.47582598524563
 20
-158.6966009802911
 30
0.0
 10
95.47582598524563
 20
-158.9253553205117
 30
0.0
 10
95.37660723527044
 20
-159.0245740704869
 30
0.0
 10
95.11340194019735
 20
-159.2509168438678
 30
0.0
  0
HATCH
  5
82
330
7D
100
AcDbEntity
  8
_U+30EC_U+30A4_U+30E4_U+30FC 1
 62
   179
420
  2234388
100
AcDbHatch
 10
0.0
 20
0.0
 30
0.0
210
0.0
220
0.0
230
1.0
  2
SOLID
 70
     1
 71
     0
 91
        1
 92
        1
 93
        1
 72
     4
 94
        3
 73
     0
 74
     1
 95
       44
 96
       40
 40
0.0
 40
0.0
 40
0.0
 40
0.0
 40
1.0
 40
1.0
 40
1.0
 40
2.0
 40
2.0
 40
2.0
 40
3.0
 40
3.0
 40
3.0
 40
4.0
 40
4.0
 40
4.0
 40
5.0
 40
5.0
 40
5.0
 40
6.0
 40
6.0
 40
6.0
 40
7.0
 40
7.0
 40
7.0
 40
8.0
 40
8.0
 40
8.0
 40
9.0
 40
9.0
 40
9.0
 40
10.0
 40
10.0
 40
10.0
 40
11.0
 40
11.0
 40
11.0
 40
12.0
 40
12.0
 40
12.0
 40
13.0
 40
13.0
 40
13.0
 40
13.0
 10
95.11340194019735
 20
-159.2509168438678
 10
94.92771129354239
 20
-159.4097357457379
 10
94.84830184260737
 20
-159.4838052986707
 10
94.80678844201012
 20
-159.6274657804056
 10
94.80678844201012
 20
-159.6274657804056
 10
95.4704860872435
 20
-159.6274657804056
 10
95.4704860872435
 20
-159.6274657804056
 10
95.4704860872435
 20
-159.6274657804056
 10
95.4704860872435
 20
-159.8327934713265
 10
95.4704860872435
 20
-159.8327934713265
 10
95.4704860872435
 20
-159.8327934713265
 10
94.59405379579593
 20
-159.8327934713265
 10
94.59405379579593
 20
-159.8327934713265
 10
94.62109779535514
 20
-159.4751925599576
 10
94.67708059699045
 20
-159.3969888924424
 10
95.0052259419605
 20
-159.0986436234198
 10
95.22347274095108
 20
-158.8998616139209
 10
95.27928328781213
 20
-158.8319932328615
 10
95.27928328781213
 20
-158.694533923
 10
95.27928328781213
 20
-158.5760226383074
 10
95.21796058817468
 20
-158.4451090098679
 10
95.05035669281727
 20
-158.4451090098679
 10
94.8284925435672
 20
-158.4451090098679
 10
94.82125784304816
 20
-158.6755858978311
 10
94.81764049278866
 20
-158.7920301252325
 10
94.81764049278866
 20
-158.7920301252325
 10
94.62643769335729
 20
-158.7920301252325
 10
94.62643769335729
 20
-158.7920301252325
 10
94.63367239387631
 20
-158.6649061018268
 10
94.64280189691222
 20
-158.5529404985562
 10
94.71118704229443
 20
-158.4344292138636
 10
94.80506589426749
 20
-158.2735432547024
 10
94.96371254136324
 20
-158.239781318947
 10
95.06293129133844
 20
-158.239781318947
 10
95.29909258685231
 20
-158.239781318947
 10
95.47582598524563
 20
-158.4237494178593
 10
95.47582598524563
 20
-158.6966009802911
 10
95.47582598524563
 20
-158.9253553205117
 10
95.37660723527044
 20
-159.0245740704869
 10
95.11340194019735
 20
-159.2509168438678
 97
        0
 97
        0
 75
     2
 76
     1
 98
        0
  0
ENDBLK
  5
80
330
7D
100
AcDbEntity
  8
0
100
AcDbBlockEnd
  0
BLOCK
  5
85
330
83
100
AcDbEntity
  8
0
100
AcDbBlockBegin
  2
block 5
 70
     0
 10
0.0
 20
0.0
 30
0.0
  3
block 5
  1

  0
POLYLINE
  5
87
330
83
100
AcDbEntity
  8
_U+30EC_U+30A4_U+30E4_U+30FC 1
 62
   179
420
  2234388
370
     9
100
AcDb2dPolyline
 66
     1
 10
0.0
 20
0.0
 30
0.0
  0
VERTEX
  5
88
330
87
100
AcDbEntity
  8
_U+30EC_U+30A4_U+30E4_U+30FC 1
 62
   179
420
  2234388
370
     9
100
AcDbVertex
100
AcDb2dVertex
 10
96.03341116109468
 20
-160.4787521821027
 30
0.0
  0
VERTEX
  5
89
330
87
100
AcDbEntity
  8
_U+30EC_U+30A4_U+30E4_U+30FC 1
 62
   179
420
  2234388
370
     9
100
AcDbVertex
100
AcDb2dVertex
 10
113.0335954496061
 20
-160.4787521821027
 30
0.0
  0
SEQEND
  5
8A
330
87
100
AcDbEntity
  8
_U+30EC_U+30A4_U+30E4_U+30FC 1
 62
   179
420
  2234388
370
     9
  0
POLYLINE
  5
8B
330
83
100
AcDbEntity
  8
_U+30EC_U+30A4_U+30E4_U+30FC 1
 62
   179
420
  2234388
370
     9
100
AcDb2dPolyline
 66
     1
 10
0.0
 20
0.0
 30
0.0
  0
VERTEX
  5
8C
330
8B
100
AcDbEntity
  8
_U+30EC_U+30A4_U+30E4_U+30FC 1
 62
   179
420
  2234388
370
     9
100
AcDbVertex
100
AcDb2dVertex
 10
113.0335954496061
 20
-158.3186585715314
 30
0.0
  0
VERTEX
  5
8D
330
8B
100
AcDbEntity
  8
_U+30EC_U+30A4_U+30E4_U+30FC 1
 62
   179
420
  2234388
370
     9
100
AcDbVertex
100
AcDb2dVertex
 10
113.0335954496061
 20
-161.4785244040746
 30
0.0
  0
SEQEND
  5
8E
330
8B
100
AcDbEntity
  8
_U+30EC_U+30A4_U+30E4_U+30FC 1
 62
   179
420
  2234388
370
     9
  0
INSERT
  5
90
330
83
100
AcDbEntity
  8
_U+30EC_U+30A4_U+30E4_U+30FC 1
100
AcDbBlockReference
  2
block 6
 10
0.0
 20
0.0
 30
0.0
  0
ENDBLK
  5
86
330
83
100
AcDbEntity
  8
0
100
AcDbBlockEnd
  0
BLOCK
  5
91
330
8F
100
AcDbEntity
  8
0
100
AcDbBlockBegin
  2
block 6
 70
     0
 10
0.0
 20
0.0
 30
0.0
  3
block 6
  1

  0
SPLINE
  5
93
330
8F
100
AcDbEntity
  8
_U+30EC_U+30A4_U+30E4_U+30FC 1
370
     0
100
AcDbSpline
210
0.0
220
0.0
230
1.0
 70
    11
 71
     3
 72
    26
 73
    22
 74
     0
 42
0.0000000001
 43
0.0000000001
 12
1.0
 22
0.0
 32
0.0
 13
1.0
 23
0.0
 33
0.0
 40
0.0
 40
0.0
 40
0.0
 40
0.0
 40
1.0
 40
1.0
 40
1.0
 40
2.0
 40
2.0
 40
2.0
 40
3.0
 40
3.0
 40
3.0
 40
4.0
 40
4.0
 40
4.0
 40
5.0
 40
5.0
 40
5.0
 40
6.0
 40
6.0
 40
6.0
 40
7.0
 40
7.0
 40
7.0
 40
7.0
 10
103.9915852604604
 20
-159.8327934713265
 30
0.0
 10
103.9915852604604
 20
-159.8327934713265
 30
0.0
 10
103.9915852604604
 20
-158.728640368304
 30
0.0
 10
103.9915852604604
 20
-158.728640368304
 30
0.0
 10
103.9915852604604
 20
-158.728640368304
 30
0.0
 10
103.7101209593155
 20
-158.728640368304
 30
0.0
 10
103.7101209593155
 20
-158.728640368304
 30
0.0
 10
103.7101209593155
 20
-158.728640368304
 30
0.0
 10
103.7101209593155
 20
-158.5805012624382
 30
0.0
 10
103.7101209593155
 20
-158.5805012624382
 30
0.0
 10
103.9933078082031
 20
-158.5656873518516
 30
0.0
 10
104.0329264062834
 20
-158.4027343353993
 30
0.0
 10
104.0580756033258
 20
-158.288357165289
 30
0.0
 10
104.0580756033258
 20
-158.288357165289
 30
0.0
 10
104.1827880598918
 20
-158.288357165289
 30
0.0
 10
104.1827880598918
 20
-158.288357165289
 30
0.0
 10
104.1827880598918
 20
-158.288357165289
 30
0.0
 10
104.1827880598918
 20
-159.8327934713265
 30
0.0
 10
104.1827880598918
 20
-159.8327934713265
 30
0.0
 10
104.1827880598918
 20
-159.8327934713265
 30
0.0
 10
103.9915852604604
 20
-159.8327934713265
 30
0.0
 10
103.9915852604604
 20
-159.8327934713265
 30
0.0
  0
HATCH
  5
94
330
8F
100
AcDbEntity
  8
_U+30EC_U+30A4_U+30E4_U+30FC 1
 62
   179
420
  2234388
100
AcDbHatch
 10
0.0
 20
0.0
 30
0.0
210
0.0
220
0.0
230
1.0
  2
SOLID
 70
     1
 71
     0
 91
        1
 92
        1
 93
        1
 72
     4
 94
        3
 73
     0
 74
     1
 95
       26
 96
       22
 40
0.0
 40
0.0
 40
0.0
 40
0.0
 40
1.0
 40
1.0
 40
1.0
 40
2.0
 40
2.0
 40
2.0
 40
3.0
 40
3.0
 40
3.0
 40
4.0
 40
4.0
 40
4.0
 40
5.0
 40
5.0
 40
5.0
 40
6.0
 40
6.0
 40
6.0
 40
7.0
 40
7.0
 40
7.0
 40
7.0
 10
103.9915852604604
 20
-159.8327934713265
 10
103.9915852604604
 20
-159.8327934713265
 10
103.9915852604604
 20
-158.728640368304
 10
103.9915852604604
 20
-158.728640368304
 10
103.9915852604604
 20
-158.728640368304
 10
103.7101209593155
 20
-158.728640368304
 10
103.7101209593155
 20
-158.728640368304
 10
103.7101209593155
 20
-158.728640368304
 10
103.7101209593155
 20
-158.5805012624382
 10
103.7101209593155
 20
-158.5805012624382
 10
103.9933078082031
 20
-158.5656873518516
 10
104.0329264062834
 20
-158.4027343353993
 10
104.0580756033258
 20
-158.288357165289
 10
104.0580756033258
 20
-158.288357165289
 10
104.1827880598918
 20
-158.288357165289
 10
104.1827880598918
 20
-158.288357165289
 10
104.1827880598918
 20
-158.288357165289
 10
104.1827880598918
 20
-159.8327934713265
 10
104.1827880598918
 20
-159.8327934713265
 10
104.1827880598918
 20
-159.8327934713265
 10
103.9915852604604
 20
-159.8327934713265
 10
103.9915852604604
 20
-159.8327934713265
 97
        0
 97
        0
 75
     2
 76
     1
 98
        0
  0
SPLINE
  5
95
330
8F
100
AcDbEntity
  8
_U+30EC_U+30A4_U+30E4_U+30FC 1
370
     0
100
AcDbSpline
210
0.0
220
0.0
230
1.0
 70
    11
 71
     3
 72
    26
 73
    22
 74
     0
 42
0.0000000001
 43
0.0000000001
 12
1.0
 22
0.0
 32
0.0
 13
1.0
 23
0.0
 33
0.0
 40
0.0
 40
0.0
 40
0.0
 40
0.0
 40
1.0
 40
1.0
 40
1.0
 40
2.0
 40
2.0
 40
2.0
 40
3.0
 40
3.0
 40
3.0
 40
4.0
 40
4.0
 40
4.0
 40
5.0
 40
5.0
 40
5.0
 40
6.0
 40
6.0
 40
6.0
 40
7.0
 40
7.0
 40
7.0
 40
7.0
 10
104.9589680727186
 20
-159.8327934713265
 30
0.0
 10
104.9589680727186
 20
-159.8327934713265
 30
0.0
 10
104.757085477283
 20
-159.8327934713265
 30
0.0
 10
104.757085477283
 20
-159.8327934713265
 30
0.0
 10
104.77878957884
 20
-159.5237684062996
 30
0.0
 10
104.9427761239379
 20
-159.0056260453181
 30
0.0
 10
105.2890082202055
 20
-158.4998860280834
 30
0.0
 10
105.2890082202055
 20
-158.4998860280834
 30
0.0
 10
104.5748399261132
 20
-158.4998860280834
 30
0.0
 10
104.5748399261132
 20
-158.4998860280834
 30
0.0
 10
104.5748399261132
 20
-158.4998860280834
 30
0.0
 10
104.5748399261132
 20
-158.288357165289
 30
0.0
 10
104.5748399261132
 20
-158.288357165289
 30
0.0
 10
104.5748399261132
 20
-158.288357165289
 30
0.0
 10
105.4908908156412
 20
-158.288357165289
 30
0.0
 10
105.4908908156412
 20
-158.288357165289
 30
0.0
 10
105.4908908156412
 20
-158.288357165289
 30
0.0
 10
105.4908908156412
 20
-158.4998860280834
 30
0.0
 10
105.4908908156412
 20
-158.4998860280834
 30
0.0
 10
105.2152831768212
 20
-158.7899630679414
 30
0.0
 10
104.9879068747947
 20
-159.3821749818559
 30
0.0
 10
104.9589680727186
 20
-159.8327934713265
 30
0.0
  0
HATCH
  5
96
330
8F
100
AcDbEntity
  8
_U+30EC_U+30A4_U+30E4_U+30FC 1
 62
   179
420
  2234388
100
AcDbHatch
 10
0.0
 20
0.0
 30
0.0
210
0.0
220
0.0
230
1.0
  2
SOLID
 70
     1
 71
     0
 91
        1
 92
        1
 93
        1
 72
     4
 94
        3
 73
     0
 74
     1
 95
       26
 96
       22
 40
0.0
 40
0.0
 40
0.0
 40
0.0
 40
1.0
 40
1.0
 40
1.0
 40
2.0
 40
2.0
 40
2.0
 40
3.0
 40
3.0
 40
3.0
 40
4.0
 40
4.0
 40
4.0
 40
5.0
 40
5.0
 40
5.0
 40
6.0
 40
6.0
 40
6.0
 40
7.0
 40
7.0
 40
7.0
 40
7.0
 10
104.9589680727186
 20
-159.8327934713265
 10
104.9589680727186
 20
-159.8327934713265
 10
104.757085477283
 20
-159.8327934713265
 10
104.757085477283
 20
-159.8327934713265
 10
104.77878957884
 20
-159.5237684062996
 10
104.9427761239379
 20
-159.0056260453181
 10
105.2890082202055
 20
-158.4998860280834
 10
105.2890082202055
 20
-158.4998860280834
 10
104.5748399261132
 20
-158.4998860280834
 10
104.5748399261132
 20
-158.4998860280834
 10
104.5748399261132
 20
-158.4998860280834
 10
104.5748399261132
 20
-158.288357165289
 10
104.5748399261132
 20
-158.288357165289
 10
104.5748399261132
 20
-158.288357165289
 10
105.4908908156412
 20
-158.288357165289
 10
105.4908908156412
 20
-158.288357165289
 10
105.4908908156412
 20
-158.288357165289
 10
105.4908908156412
 20
-158.4998860280834
 10
105.4908908156412
 20
-158.4998860280834
 10
105.2152831768212
 20
-158.7899630679414
 10
104.9879068747947
 20
-159.3821749818559
 10
104.9589680727186
 20
-159.8327934713265
 97
        0
 97
        0
 75
     2
 76
     1
 98
        0
  0
ENDBLK
  5
92
330
8F
100
AcDbEntity
  8
0
100
AcDbBlockEnd
  0
BLOCK
  5
99
330
97
100
AcDbEntity
  8
0
100
AcDbBlockBegin
  2
block 7
 70
     0
 10
0.0
 20
0.0
 30
0.0
  3
block 7
  1

  0
POLYLINE
  5
9B
330
97
100
AcDbEntity
  8
_U+30EC_U+30A4_U+30E4_U+30FC 1
 62
   179
420
  2234388
370
     9
100
AcDb2dPolyline
 66
     1
 10
0.0
 20
0.0
 30
0.0
  0
VERTEX
  5
9C
330
9B
100
AcDbEntity
  8
_U+30EC_U+30A4_U+30E4_U+30FC 1
 62
   179
420
  2234388
370
     9
100
AcDbVertex
100
AcDb2dVertex
 10
91.07610739867715
 20
-142.8784571865025
 30
0.0
  0
VERTEX
  5
9D
330
9B
100
AcDbEntity
  8
_U+30EC_U+30A4_U+30E4_U+30FC 1
 62
   179
420
  2234388
370
     9
100
AcDbVertex
100
AcDb2dVertex
 10
91.07610739867715
 20
-141.8786849645303
 30
0.0
  0
SEQEND
  5
9E
330
9B
100
AcDbEntity
  8
_U+30EC_U+30A4_U+30E4_U+30FC 1
 62
   179
420
  2234388
370
     9
  0
POLYLINE
  5
9F
330
97
100
AcDbEntity
  8
_U+30EC_U+30A4_U+30E4_U+30FC 1
 62
   179
420
  2234388
370
     9
100
AcDb2dPolyline
 66
     1
 10
0.0
 20
0.0
 30
0.0
  0
VERTEX
  5
A0
330
9F
100
AcDbEntity
  8
_U+30EC_U+30A4_U+30E4_U+30FC 1
 62
   179
420
  2234388
370
     9
100
AcDbVertex
100
AcDb2dVertex
 10
91.07610739867715
 20
-142.8784571865025
 30
0.0
  0
VERTEX
  5
A1
330
9F
100
AcDbEntity
  8
_U+30EC_U+30A4_U+30E4_U+30FC 1
 62
   179
420
  2234388
370
     9
100
AcDbVertex
100
AcDb2dVertex
 10
91.07610739867715
 20
-144.8786719082247
 30
0.0
  0
SEQEND
  5
A2
330
9F
100
AcDbEntity
  8
_U+30EC_U+30A4_U+30E4_U+30FC 1
 62
   179
420
  2234388
370
     9
  0
POLYLINE
  5
A3
330
97
100
AcDbEntity
  8
_U+30EC_U+30A4_U+30E4_U+30FC 1
 62
   179
420
  2234388
370
     9
100
AcDb2dPolyline
 66
     1
 10
0.0
 20
0.0
 30
0.0
  0
VERTEX
  5
A4
330
A3
100
AcDbEntity
  8
_U+30EC_U+30A4_U+30E4_U+30FC 1
 62
   179
420
  2234388
370
     9
100
AcDbVertex
100
AcDb2dVertex
 10
92.53611347254039
 20
-142.8784571865025
 30
0.0
  0
VERTEX
  5
A5
330
A3
100
AcDbEntity
  8
_U+30EC_U+30A4_U+30E4_U+30FC 1
 62
   179
420
  2234388
370
     9
100
AcDbVertex
100
AcDb2dVertex
 10
90.07633520196124
 20
-142.8784571865025
 30
0.0
  0
SEQEND
  5
A6
330
A3
100
AcDbEntity
  8
_U+30EC_U+30A4_U+30E4_U+30FC 1
 62
   179
420
  2234388
370
     9
  0
POLYLINE
  5
A7
330
97
100
AcDbEntity
  8
_U+30EC_U+30A4_U+30E4_U+30FC 1
 62
   179
420
  2234388
370
     9
100
AcDb2dPolyline
 66
     1
 10
0.0
 20
0.0
 30
0.0
  0
VERTEX
  5
A8
330
A7
100
AcDbEntity
  8
_U+30EC_U+30A4_U+30E4_U+30FC 1
 62
   179
420
  2234388
370
     9
100
AcDbVertex
100
AcDb2dVertex
 10
92.53611347254039
 20
-143.8785469084747
 30
0.0
  0
VERTEX
  5
A9
330
A7
100
AcDbEntity
  8
_U+30EC_U+30A4_U+30E4_U+30FC 1
 62
   179
420
  2234388
370
     9
100
AcDbVertex
100
AcDb2dVertex
 10
90.07633520196124
 20
-143.8785469084747
 30
0.0
  0
SEQEND
  5
AA
330
A7
100
AcDbEntity
  8
_U+30EC_U+30A4_U+30E4_U+30FC 1
 62
   179
420
  2234388
370
     9
  0
INSERT
  5
AC
330
97
100
AcDbEntity
  8
_U+30EC_U+30A4_U+30E4_U+30FC 1
100
AcDbBlockReference
  2
block 8
 10
0.0
 20
0.0
 30
0.0
  0
ENDBLK
  5
9A
330
97
100
AcDbEntity
  8
0
100
AcDbBlockEnd
  0
BLOCK
  5
AD
330
AB
100
AcDbEntity
  8
0
100
AcDbBlockBegin
  2
block 8
 70
     0
 10
0.0
 20
0.0
 30
0.0
  3
block 8
  1

  0
SPLINE
  5
AF
330
AB
100
AcDbEntity
  8
_U+30EC_U+30A4_U+30E4_U+30FC 1
370
     0
100
AcDbSpline
210
0.0
220
0.0
230
1.0
 70
    11
 71
     3
 72
    26
 73
    22
 74
     0
 42
0.0000000001
 43
0.0000000001
 12
1.0
 22
0.0
 32
0.0
 13
1.0
 23
0.0
 33
0.0
 40
0.0
 40
0.0
 40
0.0
 40
0.0
 40
1.0
 40
1.0
 40
1.0
 40
2.0
 40
2.0
 40
2.0
 40
3.0
 40
3.0
 40
3.0
 40
4.0
 40
4.0
 40
4.0
 40
5.0
 40
5.0
 40
5.0
 40
6.0
 40
6.0
 40
6.0
 40
7.0
 40
7.0
 40
7.0
 40
7.0
 10
90.42996688277445
 20
-140.603648510856
 30
0.0
 10
90.42996688277445
 20
-140.603648510856
 30
0.0
 10
89.32581377975188
 20
-140.603648510856
 30
0.0
 10
89.32581377975188
 20
-140.603648510856
 30
0.0
 10
89.32581377975188
 20
-140.603648510856
 30
0.0
 10
89.32581377975188
 20
-140.885112812001
 30
0.0
 10
89.32581377975188
 20
-140.885112812001
 30
0.0
 10
89.32581377975188
 20
-140.885112812001
 30
0.0
 10
89.17767467388614
 20
-140.885112812001
 30
0.0
 10
89.17767467388614
 20
-140.885112812001
 30
0.0
 10
89.16286076329956
 20
-140.6019259631134
 30
0.0
 10
88.99990774684726
 20
-140.562307365033
 30
0.0
 10
88.88553057673695
 20
-140.5371581679907
 30
0.0
 10
88.88553057673695
 20
-140.5371581679907
 30
0.0
 10
88.88553057673695
 20
-140.4124457114247
 30
0.0
 10
88.88553057673695
 20
-140.4124457114247
 30
0.0
 10
88.88553057673695
 20
-140.4124457114247
 30
0.0
 10
90.42996688277445
 20
-140.4124457114247
 30
0.0
 10
90.42996688277445
 20
-140.4124457114247
 30
0.0
 10
90.42996688277445
 20
-140.4124457114247
 30
0.0
 10
90.42996688277445
 20
-140.603648510856
 30
0.0
 10
90.42996688277445
 20
-140.603648510856
 30
0.0
  0
HATCH
  5
B0
330
AB
100
AcDbEntity
  8
_U+30EC_U+30A4_U+30E4_U+30FC 1
 62
   179
420
  2234388
100
AcDbHatch
 10
0.0
 20
0.0
 30
0.0
210
0.0
220
0.0
230
1.0
  2
SOLID
 70
     1
 71
     0
 91
        1
 92
        1
 93
        1
 72
     4
 94
        3
 73
     0
 74
     1
 95
       26
 96
       22
 40
0.0
 40
0.0
 40
0.0
 40
0.0
 40
1.0
 40
1.0
 40
1.0
 40
2.0
 40
2.0
 40
2.0
 40
3.0
 40
3.0
 40
3.0
 40
4.0
 40
4.0
 40
4.0
 40
5.0
 40
5.0
 40
5.0
 40
6.0
 40
6.0
 40
6.0
 40
7.0
 40
7.0
 40
7.0
 40
7.0
 10
90.42996688277445
 20
-140.603648510856
 10
90.42996688277445
 20
-140.603648510856
 10
89.32581377975188
 20
-140.603648510856
 10
89.32581377975188
 20
-140.603648510856
 10
89.32581377975188
 20
-140.603648510856
 10
89.32581377975188
 20
-140.885112812001
 10
89.32581377975188
 20
-140.885112812001
 10
89.32581377975188
 20
-140.885112812001
 10
89.17767467388614
 20
-140.885112812001
 10
89.17767467388614
 20
-140.885112812001
 10
89.16286076329956
 20
-140.6019259631134
 10
88.99990774684726
 20
-140.562307365033
 10
88.88553057673695
 20
-140.5371581679907
 10
88.88553057673695
 20
-140.5371581679907
 10
88.88553057673695
 20
-140.4124457114247
 10
88.88553057673695
 20
-140.4124457114247
 10
88.88553057673695
 20
-140.4124457114247
 10
90.42996688277445
 20
-140.4124457114247
 10
90.42996688277445
 20
-140.4124457114247
 10
90.42996688277445
 20
-140.4124457114247
 10
90.42996688277445
 20
-140.603648510856
 10
90.42996688277445
 20
-140.603648510856
 97
        0
 97
        0
 75
     2
 76
     1
 98
        0
  0
POLYLINE
  5
B1
330
AB
100
AcDbEntity
  8
_U+30EC_U+30A4_U+30E4_U+30FC 1
370
     0
100
AcDb2dPolyline
 66
     1
 10
0.0
 20
0.0
 30
0.0
  0
VERTEX
  5
B2
330
B1
100
AcDbEntity
  8
_U+30EC_U+30A4_U+30E4_U+30FC 1
370
     0
100
AcDbVertex
100
AcDb2dVertex
 10
90.42996688277445
 20
-139.9356444962661
 30
0.0
  0
VERTEX
  5
B3
330
B1
100
AcDbEntity
  8
_U+30EC_U+30A4_U+30E4_U+30FC 1
370
     0
100
AcDbVertex
100
AcDb2dVertex
 10
90.1781304028027
 20
-139.9356444962661
 30
0.0
  0
VERTEX
  5
B4
330
B1
100
AcDbEntity
  8
_U+30EC_U+30A4_U+30E4_U+30FC 1
370
     0
100
AcDbVertex
100
AcDb2dVertex
 10
90.1781304028027
 20
-139.721015047535
 30
0.0
  0
VERTEX
  5
B5
330
B1
100
AcDbEntity
  8
_U+30EC_U+30A4_U+30E4_U+30FC 1
370
     0
100
AcDbVertex
100
AcDb2dVertex
 10
90.42996688277445
 20
-139.721015047535
 30
0.0
  0
VERTEX
  5
B6
330
B1
100
AcDbEntity
  8
_U+30EC_U+30A4_U+30E4_U+30FC 1
370
     0
100
AcDbVertex
100
AcDb2dVertex
 10
90.42996688277445
 20
-139.9356444962661
 30
0.0
  0
SEQEND
  5
B7
330
B1
100
AcDbEntity
  8
_U+30EC_U+30A4_U+30E4_U+30FC 1
370
     0
  0
HATCH
  5
B8
330
AB
100
AcDbEntity
  8
_U+30EC_U+30A4_U+30E4_U+30FC 1
 62
   179
420
  2234388
100
AcDbHatch
 10
0.0
 20
0.0
 30
0.0
210
0.0
220
0.0
230
1.0
  2
SOLID
 70
     1
 71
     0
 91
        1
 92
        1
 93
        4
 72
     1
 10
90.42996688277445
 20
-139.9356444962661
 11
90.1781304028027
 21
-139.9356444962661
 72
     1
 10
90.1781304028027
 20
-139.9356444962661
 11
90.1781304028027
 21
-139.721015047535
 72
     1
 10
90.1781304028027
 20
-139.721015047535
 11
90.42996688277445
 21
-139.721015047535
 72
     1
 10
90.42996688277445
 20
-139.721015047535
 11
90.42996688277445
 21
-139.9356444962661
 97
        0
 75
     2
 76
     1
 98
        0
  0
SPLINE
  5
B9
330
AB
100
AcDbEntity
  8
_U+30EC_U+30A4_U+30E4_U+30FC 1
370
     0
100
AcDbSpline
210
0.0
220
0.0
230
1.0
 70
    11
 71
     3
 72
    29
 73
    25
 74
     0
 42
0.0000000001
 43
0.0000000001
 12
1.0
 22
0.0
 32
0.0
 13
1.0
 23
0.0
 33
0.0
 40
0.0
 40
0.0
 40
0.0
 40
0.0
 40
1.0
 40
1.0
 40
1.0
 40
2.0
 40
2.0
 40
2.0
 40
3.0
 40
3.0
 40
3.0
 40
4.0
 40
4.0
 40
4.0
 40
5.0
 40
5.0
 40
5.0
 40
6.0
 40
6.0
 40
6.0
 40
7.0
 40
7.0
 40
7.0
 40
8.0
 40
8.0
 40
8.0
 40
8.0
 10
90.25219995573556
 20
-138.7546657639224
 30
0.0
 10
90.46166176123876
 20
-138.8466498133786
 30
0.0
 10
90.48060978640763
 20
-138.9944444096958
 30
0.0
 10
90.48060978640763
 20
-139.093663159671
 30
0.0
 10
90.48060978640763
 20
-139.230777959984
 30
0.0
 10
90.43410099735675
 20
-139.3513563019677
 30
0.0
 10
90.25219995573556
 20
-139.4326605554196
 30
0.0
 10
90.05755206081895
 20
-139.520854999842
 30
0.0
 10
89.82052949143376
 20
-139.5373914581712
 30
0.0
 10
89.65792098452997
 20
-139.5373914581712
 30
0.0
 10
89.51391599324653
 20
-139.5373914581712
 30
0.0
 10
89.26207951327476
 20
-139.5229220571332
 30
0.0
 10
89.06329750377584
 20
-139.4326605554196
 30
0.0
 10
88.86038137969463
 20
-139.3406765059634
 30
0.0
 10
88.83695473039494
 20
-139.2035617056505
 30
0.0
 10
88.83695473039494
 20
-139.093663159671
 30
0.0
 10
88.83695473039494
 20
-138.9582709071007
 30
0.0
 10
88.88139646215465
 20
-138.8356255078258
 30
0.0
 10
89.06329750377584
 20
-138.7546657639224
 30
0.0
 10
89.25587834140131
 20
-138.6699164149853
 30
0.0
 10
89.48428817207338
 20
-138.6499348611709
 30
0.0
 10
89.65792098452997
 20
-138.6499348611709
 30
0.0
 10
89.82914223014689
 20
-138.6499348611709
 30
0.0
 10
90.0596191181101
 20
-138.6681938672427
 30
0.0
 10
90.25219995573556
 20
-138.7546657639224
 30
0.0
  0
SPLINE
  5
BA
330
AB
100
AcDbEntity
  8
_U+30EC_U+30A4_U+30E4_U+30FC 1
370
     0
100
AcDbSpline
210
0.0
220
0.0
230
1.0
 70
    11
 71
     3
 72
    17
 73
    13
 74
     0
 42
0.0000000001
 43
0.0000000001
 12
1.0
 22
0.0
 32
0.0
 13
1.0
 23
0.0
 33
0.0
 40
0.0
 40
0.0
 40
0.0
 40
0.0
 40
1.0
 40
1.0
 40
1.0
 40
2.0
 40
2.0
 40
2.0
 40
3.0
 40
3.0
 40
3.0
 40
4.0
 40
4.0
 40
4.0
 40
4.0
 10
89.02953556802039
 20
-139.093663159671
 30
0.0
 10
89.02953556802039
 20
-139.3065700606595
 30
0.0
 10
89.31306692645646
 20
-139.3461886587398
 30
0.0
 10
89.65792098452997
 20
-139.3461886587398
 30
0.0
 10
89.97728133601262
 20
-139.3461886587398
 30
0.0
 10
90.28596189149101
 20
-139.3155273089211
 30
0.0
 10
90.28596189149101
 20
-139.093663159671
 30
0.0
 10
90.28596189149101
 20
-138.8824788064252
 30
0.0
 10
90.00484209989463
 20
-138.8411376606022
 30
0.0
 10
89.65792098452997
 20
-138.8411376606022
 30
0.0
 10
89.33821612349878
 20
-138.8411376606022
 30
0.0
 10
89.02953556802039
 20
-138.8735215581636
 30
0.0
 10
89.02953556802039
 20
-139.093663159671
 30
0.0
  0
HATCH
  5
BB
330
AB
100
AcDbEntity
  8
_U+30EC_U+30A4_U+30E4_U+30FC 1
 62
   179
420
  2234388
100
AcDbHatch
 10
0.0
 20
0.0
 30
0.0
210
0.0
220
0.0
230
1.0
  2
SOLID
 70
     1
 71
     0
 91
        2
 92
        1
 93
        1
 72
     4
 94
        3
 73
     0
 74
     1
 95
       29
 96
       25
 40
0.0
 40
0.0
 40
0.0
 40
0.0
 40
1.0
 40
1.0
 40
1.0
 40
2.0
 40
2.0
 40
2.0
 40
3.0
 40
3.0
 40
3.0
 40
4.0
 40
4.0
 40
4.0
 40
5.0
 40
5.0
 40
5.0
 40
6.0
 40
6.0
 40
6.0
 40
7.0
 40
7.0
 40
7.0
 40
8.0
 40
8.0
 40
8.0
 40
8.0
 10
90.25219995573556
 20
-138.7546657639224
 10
90.46166176123876
 20
-138.8466498133786
 10
90.48060978640763
 20
-138.9944444096958
 10
90.48060978640763
 20
-139.093663159671
 10
90.48060978640763
 20
-139.230777959984
 10
90.43410099735675
 20
-139.3513563019677
 10
90.25219995573556
 20
-139.4326605554196
 10
90.05755206081895
 20
-139.520854999842
 10
89.82052949143376
 20
-139.5373914581712
 10
89.65792098452997
 20
-139.5373914581712
 10
89.51391599324653
 20
-139.5373914581712
 10
89.26207951327476
 20
-139.5229220571332
 10
89.06329750377584
 20
-139.4326605554196
 10
88.86038137969463
 20
-139.3406765059634
 10
88.83695473039494
 20
-139.2035617056505
 10
88.83695473039494
 20
-139.093663159671
 10
88.83695473039494
 20
-138.9582709071007
 10
88.88139646215465
 20
-138.8356255078258
 10
89.06329750377584
 20
-138.7546657639224
 10
89.25587834140131
 20
-138.6699164149853
 10
89.48428817207338
 20
-138.6499348611709
 10
89.65792098452997
 20
-138.6499348611709
 10
89.82914223014689
 20
-138.6499348611709
 10
90.0596191181101
 20
-138.6681938672427
 10
90.25219995573556
 20
-138.7546657639224
 97
        0
 97
        0
 92
        1
 93
        1
 72
     4
 94
        3
 73
     0
 74
     1
 95
       17
 96
       13
 40
0.0
 40
0.0
 40
0.0
 40
0.0
 40
1.0
 40
1.0
 40
1.0
 40
2.0
 40
2.0
 40
2.0
 40
3.0
 40
3.0
 40
3.0
 40
4.0
 40
4.0
 40
4.0
 40
4.0
 10
89.02953556802039
 20
-139.093663159671
 10
89.02953556802039
 20
-139.3065700606595
 10
89.31306692645646
 20
-139.3461886587398
 10
89.65792098452997
 20
-139.3461886587398
 10
89.97728133601262
 20
-139.3461886587398
 10
90.28596189149101
 20
-139.3155273089211
 10
90.28596189149101
 20
-139.093663159671
 10
90.28596189149101
 20
-138.8824788064252
 10
90.00484209989463
 20
-138.8411376606022
 10
89.65792098452997
 20
-138.8411376606022
 10
89.33821612349878
 20
-138.8411376606022
 10
89.02953556802039
 20
-138.8735215581636
 10
89.02953556802039
 20
-139.093663159671
 97
        0
 97
        0
 75
     2
 76
     1
 98
        0
  0
ENDBLK
  5
AE
330
AB
100
AcDbEntity
  8
0
100
AcDbBlockEnd
  0
BLOCK
  5
BE
330
BC
100
AcDbEntity
  8
0
100
AcDbBlockBegin
  2
block 9
 70
     0
 10
0.0
 20
0.0
 30
0.0
  3
block 9
  1

  0
POLYLINE
  5
C0
330
BC
100
AcDbEntity
  8
_U+30EC_U+30A4_U+30E4_U+30FC 1
 62
   179
420
  2234388
370
     9
100
AcDb2dPolyline
 66
     1
 10
0.0
 20
0.0
 30
0.0
  0
VERTEX
  5
C1
330
C0
100
AcDbEntity
  8
_U+30EC_U+30A4_U+30E4_U+30FC 1
 62
   179
420
  2234388
370
     9
100
AcDbVertex
100
AcDb2dVertex
 10
117.0333221929638
 20
-142.8784571865025
 30
0.0
  0
VERTEX
  5
C2
330
C0
100
AcDbEntity
  8
_U+30EC_U+30A4_U+30E4_U+30FC 1
 62
   179
420
  2234388
370
     9
100
AcDbVertex
100
AcDb2dVertex
 10
117.0333221929638
 20
-155.3786438500443
 30
0.0
  0
SEQEND
  5
C3
330
C0
100
AcDbEntity
  8
_U+30EC_U+30A4_U+30E4_U+30FC 1
 62
   179
420
  2234388
370
     9
  0
POLYLINE
  5
C4
330
BC
100
AcDbEntity
  8
_U+30EC_U+30A4_U+30E4_U+30FC 1
 62
   179
420
  2234388
370
     9
100
AcDb2dPolyline
 66
     1
 10
0.0
 20
0.0
 30
0.0
  0
VERTEX
  5
C5
330
C4
100
AcDbEntity
  8
_U+30EC_U+30A4_U+30E4_U+30FC 1
 62
   179
420
  2234388
370
     9
100
AcDbVertex
100
AcDb2dVertex
 10
99.67351329045016
 20
-142.8784571865025
 30
0.0
  0
VERTEX
  5
C6
330
C4
100
AcDbEntity
  8
_U+30EC_U+30A4_U+30E4_U+30FC 1
 62
   179
420
  2234388
370
     9
100
AcDbVertex
100
AcDb2dVertex
 10
118.0337999704918
 20
-142.8784571865025
 30
0.0
  0
SEQEND
  5
C7
330
C4
100
AcDbEntity
  8
_U+30EC_U+30A4_U+30E4_U+30FC 1
 62
   179
420
  2234388
370
     9
  0
POLYLINE
  5
C8
330
BC
100
AcDbEntity
  8
_U+30EC_U+30A4_U+30E4_U+30FC 1
 62
   179
420
  2234388
370
     9
100
AcDb2dPolyline
 66
     1
 10
0.0
 20
0.0
 30
0.0
  0
VERTEX
  5
C9
330
C8
100
AcDbEntity
  8
_U+30EC_U+30A4_U+30E4_U+30FC 1
 62
   179
420
  2234388
370
     9
100
AcDbVertex
100
AcDb2dVertex
 10
115.5733131625903
 20
-155.3786438500443
 30
0.0
  0
VERTEX
  5
CA
330
C8
100
AcDbEntity
  8
_U+30EC_U+30A4_U+30E4_U+30FC 1
 62
   179
420
  2234388
370
     9
100
AcDbVertex
100
AcDb2dVertex
 10
118.0337999704918
 20
-155.3786438500443
 30
0.0
  0
SEQEND
  5
CB
330
C8
100
AcDbEntity
  8
_U+30EC_U+30A4_U+30E4_U+30FC 1
 62
   179
420
  2234388
370
     9
  0
INSERT
  5
CD
330
BC
100
AcDbEntity
  8
_U+30EC_U+30A4_U+30E4_U+30FC 1
100
AcDbBlockReference
  2
block 10
 10
0.0
 20
0.0
 30
0.0
  0
ENDBLK
  5
BF
330
BC
100
AcDbEntity
  8
0
100
AcDbBlockEnd
  0
BLOCK
  5
CE
330
CC
100
AcDbEntity
  8
0
100
AcDbBlockBegin
  2
block 10
 70
     0
 10
0.0
 20
0.0
 30
0.0
  3
block 10
  1

  0
SPLINE
  5
D0
330
CC
100
AcDbEntity
  8
_U+30EC_U+30A4_U+30E4_U+30FC 1
370
     0
100
AcDbSpline
210
0.0
220
0.0
230
1.0
 70
    11
 71
     3
 72
    26
 73
    22
 74
     0
 42
0.0000000001
 43
0.0000000001
 12
1.0
 22
0.0
 32
0.0
 13
1.0
 23
0.0
 33
0.0
 40
0.0
 40
0.0
 40
0.0
 40
0.0
 40
1.0
 40
1.0
 40
1.0
 40
2.0
 40
2.0
 40
2.0
 40
3.0
 40
3.0
 40
3.0
 40
4.0
 40
4.0
 40
4.0
 40
5.0
 40
5.0
 40
5.0
 40
6.0
 40
6.0
 40
6.0
 40
7.0
 40
7.0
 40
7.0
 40
7.0
 10
116.3873833259379
 20
-150.4046006568433
 30
0.0
 10
116.3873833259379
 20
-150.4046006568433
 30
0.0
 10
115.2832302229153
 20
-150.4046006568433
 30
0.0
 10
115.2832302229153
 20
-150.4046006568433
 30
0.0
 10
115.2832302229153
 20
-150.4046006568433
 30
0.0
 10
115.2832302229153
 20
-150.6860649579882
 30
0.0
 10
115.2832302229153
 20
-150.6860649579882
 30
0.0
 10
115.2832302229153
 20
-150.6860649579882
 30
0.0
 10
115.1350911170496
 20
-150.6860649579882
 30
0.0
 10
115.1350911170496
 20
-150.6860649579882
 30
0.0
 10
115.120277206463
 20
-150.4028781091007
 30
0.0
 10
114.9573241900107
 20
-150.3632595110203
 30
0.0
 10
114.8429470199004
 20
-150.338110313978
 30
0.0
 10
114.8429470199004
 20
-150.338110313978
 30
0.0
 10
114.8429470199004
 20
-150.2133978574119
 30
0.0
 10
114.8429470199004
 20
-150.2133978574119
 30
0.0
 10
114.8429470199004
 20
-150.2133978574119
 30
0.0
 10
116.3873833259379
 20
-150.2133978574119
 30
0.0
 10
116.3873833259379
 20
-150.2133978574119
 30
0.0
 10
116.3873833259379
 20
-150.2133978574119
 30
0.0
 10
116.3873833259379
 20
-150.4046006568433
 30
0.0
 10
116.3873833259379
 20
-150.4046006568433
 30
0.0
  0
HATCH
  5
D1
330
CC
100
AcDbEntity
  8
_U+30EC_U+30A4_U+30E4_U+30FC 1
 62
   179
420
  2234388
100
AcDbHatch
 10
0.0
 20
0.0
 30
0.0
210
0.0
220
0.0
230
1.0
  2
SOLID
 70
     1
 71
     0
 91
        1
 92
        1
 93
        1
 72
     4
 94
        3
 73
     0
 74
     1
 95
       26
 96
       22
 40
0.0
 40
0.0
 40
0.0
 40
0.0
 40
1.0
 40
1.0
 40
1.0
 40
2.0
 40
2.0
 40
2.0
 40
3.0
 40
3.0
 40
3.0
 40
4.0
 40
4.0
 40
4.0
 40
5.0
 40
5.0
 40
5.0
 40
6.0
 40
6.0
 40
6.0
 40
7.0
 40
7.0
 40
7.0
 40
7.0
 10
116.3873833259379
 20
-150.4046006568433
 10
116.3873833259379
 20
-150.4046006568433
 10
115.2832302229153
 20
-150.4046006568433
 10
115.2832302229153
 20
-150.4046006568433
 10
115.2832302229153
 20
-150.4046006568433
 10
115.2832302229153
 20
-150.6860649579882
 10
115.2832302229153
 20
-150.6860649579882
 10
115.2832302229153
 20
-150.6860649579882
 10
115.1350911170496
 20
-150.6860649579882
 10
115.1350911170496
 20
-150.6860649579882
 10
115.120277206463
 20
-150.4028781091007
 10
114.9573241900107
 20
-150.3632595110203
 10
114.8429470199004
 20
-150.338110313978
 10
114.8429470199004
 20
-150.338110313978
 10
114.8429470199004
 20
-150.2133978574119
 10
114.8429470199004
 20
-150.2133978574119
 10
114.8429470199004
 20
-150.2133978574119
 10
116.3873833259379
 20
-150.2133978574119
 10
116.3873833259379
 20
-150.2133978574119
 10
116.3873833259379
 20
-150.2133978574119
 10
116.3873833259379
 20
-150.4046006568433
 10
116.3873833259379
 20
-150.4046006568433
 97
        0
 97
        0
 75
     2
 76
     1
 98
        0
  0
SPLINE
  5
D2
330
CC
100
AcDbEntity
  8
_U+30EC_U+30A4_U+30E4_U+30FC 1
370
     0
100
AcDbSpline
210
0.0
220
0.0
230
1.0
 70
    11
 71
     3
 72
    44
 73
    40
 74
     0
 42
0.0000000001
 43
0.0000000001
 12
1.0
 22
0.0
 32
0.0
 13
1.0
 23
0.0
 33
0.0
 40
0.0
 40
0.0
 40
0.0
 40
0.0
 40
1.0
 40
1.0
 40
1.0
 40
2.0
 40
2.0
 40
2.0
 40
3.0
 40
3.0
 40
3.0
 40
4.0
 40
4.0
 40
4.0
 40
5.0
 40
5.0
 40
5.0
 40
6.0
 40
6.0
 40
6.0
 40
7.0
 40
7.0
 40
7.0
 40
8.0
 40
8.0
 40
8.0
 40
9.0
 40
9.0
 40
9.0
 40
10.0
 40
10.0
 40
10.0
 40
11.0
 40
11.0
 40
11.0
 40
12.0
 40
12.0
 40
12.0
 40
13.0
 40
13.0
 40
13.0
 40
13.0
 10
115.8055066984792
 20
-149.2821885477489
 30
0.0
 10
115.9643256003492
 20
-149.4678791944039
 30
0.0
 10
116.0383951532821
 20
-149.5471163905646
 30
0.0
 10
116.182055635017
 20
-149.5884575363876
 30
0.0
 10
116.182055635017
 20
-149.5884575363876
 30
0.0
 10
116.182055635017
 20
-148.9249321459285
 30
0.0
 10
116.182055635017
 20
-148.9249321459285
 30
0.0
 10
116.182055635017
 20
-148.9249321459285
 30
0.0
 10
116.3873833259379
 20
-148.9249321459285
 30
0.0
 10
116.3873833259379
 20
-148.9249321459285
 30
0.0
 10
116.3873833259379
 20
-148.9249321459285
 30
0.0
 10
116.3873833259379
 20
-149.8013644373761
 30
0.0
 10
116.3873833259379
 20
-149.8013644373761
 30
0.0
 10
116.0297824145689
 20
-149.7744926925911
 30
0.0
 10
115.9515787470538
 20
-149.7183376361815
 30
0.0
 10
115.6532334780311
 20
-149.3903645459858
 30
0.0
 10
115.4544514685322
 20
-149.1719454922209
 30
0.0
 10
115.3865830874728
 20
-149.1161349453599
 30
0.0
 10
115.2491237776113
 20
-149.1161349453599
 30
0.0
 10
115.1306124929187
 20
-149.1161349453599
 30
0.0
 10
114.9996988644792
 20
-149.1774576449973
 30
0.0
 10
114.9996988644792
 20
-149.345233795129
 30
0.0
 10
114.9996988644792
 20
-149.5670979443791
 30
0.0
 10
115.2301757524425
 20
-149.5743326448981
 30
0.0
 10
115.3466199798439
 20
-149.5777777403833
 30
0.0
 10
115.3466199798439
 20
-149.5777777403833
 30
0.0
 10
115.3466199798439
 20
-149.7689805398147
 30
0.0
 10
115.3466199798439
 20
-149.7689805398147
 30
0.0
 10
115.2194959564382
 20
-149.7617458392957
 30
0.0
 10
115.1075303531676
 20
-149.752788591034
 30
0.0
 10
114.989019068475
 20
-149.6842311908776
 30
0.0
 10
114.8281331093138
 20
-149.5905245936788
 30
0.0
 10
114.7943711735584
 20
-149.4317056918088
 30
0.0
 10
114.7943711735584
 20
-149.3324869418336
 30
0.0
 10
114.7943711735584
 20
-149.0961533915454
 30
0.0
 10
114.9783392724707
 20
-148.9194199931521
 30
0.0
 10
115.2511908349025
 20
-148.9194199931521
 30
0.0
 10
115.4799451751231
 20
-148.9194199931521
 30
0.0
 10
115.5791639250983
 20
-149.0186387431273
 30
0.0
 10
115.8055066984792
 20
-149.2821885477489
 30
0.0
  0
HATCH
  5
D3
330
CC
100
AcDbEntity
  8
_U+30EC_U+30A4_U+30E4_U+30FC 1
 62
   179
420
  2234388
100
AcDbHatch
 10
0.0
 20
0.0
 30
0.0
210
0.0
220
0.0
230
1.0
  2
SOLID
 70
     1
 71
     0
 91
        1
 92
        1
 93
        1
 72
     4
 94
        3
 73
     0
 74
     1
 95
       44
 96
       40
 40
0.0
 40
0.0
 40
0.0
 40
0.0
 40
1.0
 40
1.0
 40
1.0
 40
2.0
 40
2.0
 40
2.0
 40
3.0
 40
3.0
 40
3.0
 40
4.0
 40
4.0
 40
4.0
 40
5.0
 40
5.0
 40
5.0
 40
6.0
 40
6.0
 40
6.0
 40
7.0
 40
7.0
 40
7.0
 40
8.0
 40
8.0
 40
8.0
 40
9.0
 40
9.0
 40
9.0
 40
10.0
 40
10.0
 40
10.0
 40
11.0
 40
11.0
 40
11.0
 40
12.0
 40
12.0
 40
12.0
 40
13.0
 40
13.0
 40
13.0
 40
13.0
 10
115.8055066984792
 20
-149.2821885477489
 10
115.9643256003492
 20
-149.4678791944039
 10
116.0383951532821
 20
-149.5471163905646
 10
116.182055635017
 20
-149.5884575363876
 10
116.182055635017
 20
-149.5884575363876
 10
116.182055635017
 20
-148.9249321459285
 10
116.182055635017
 20
-148.9249321459285
 10
116.182055635017
 20
-148.9249321459285
 10
116.3873833259379
 20
-148.9249321459285
 10
116.3873833259379
 20
-148.9249321459285
 10
116.3873833259379
 20
-148.9249321459285
 10
116.3873833259379
 20
-149.8013644373761
 10
116.3873833259379
 20
-149.8013644373761
 10
116.0297824145689
 20
-149.7744926925911
 10
115.9515787470538
 20
-149.7183376361815
 10
115.6532334780311
 20
-149.3903645459858
 10
115.4544514685322
 20
-149.1719454922209
 10
115.3865830874728
 20
-149.1161349453599
 10
115.2491237776113
 20
-149.1161349453599
 10
115.1306124929187
 20
-149.1161349453599
 10
114.9996988644792
 20
-149.1774576449973
 10
114.9996988644792
 20
-149.345233795129
 10
114.9996988644792
 20
-149.5670979443791
 10
115.2301757524425
 20
-149.5743326448981
 10
115.3466199798439
 20
-149.5777777403833
 10
115.3466199798439
 20
-149.5777777403833
 10
115.3466199798439
 20
-149.7689805398147
 10
115.3466199798439
 20
-149.7689805398147
 10
115.2194959564382
 20
-149.7617458392957
 10
115.1075303531676
 20
-149.752788591034
 10
114.989019068475
 20
-149.6842311908776
 10
114.8281331093138
 20
-149.5905245936788
 10
114.7943711735584
 20
-149.4317056918088
 10
114.7943711735584
 20
-149.3324869418336
 10
114.7943711735584
 20
-149.0961533915454
 10
114.9783392724707
 20
-148.9194199931521
 10
115.2511908349025
 20
-148.9194199931521
 10
115.4799451751231
 20
-148.9194199931521
 10
115.5791639250983
 20
-149.0186387431273
 10
115.8055066984792
 20
-149.2821885477489
 97
        0
 97
        0
 75
     2
 76
     1
 98
        0
  0
POLYLINE
  5
D4
330
CC
100
AcDbEntity
  8
_U+30EC_U+30A4_U+30E4_U+30FC 1
370
     0
100
AcDb2dPolyline
 66
     1
 10
0.0
 20
0.0
 30
0.0
  0
VERTEX
  5
D5
330
D4
100
AcDbEntity
  8
_U+30EC_U+30A4_U+30E4_U+30FC 1
370
     0
100
AcDbVertex
100
AcDb2dVertex
 10
116.3873833259379
 20
-148.7347628751427
 30
0.0
  0
VERTEX
  5
D6
330
D4
100
AcDbEntity
  8
_U+30EC_U+30A4_U+30E4_U+30FC 1
370
     0
100
AcDbVertex
100
AcDb2dVertex
 10
116.1355468459661
 20
-148.7347628751427
 30
0.0
  0
VERTEX
  5
D7
330
D4
100
AcDbEntity
  8
_U+30EC_U+30A4_U+30E4_U+30FC 1
370
     0
100
AcDbVertex
100
AcDb2dVertex
 10
116.1355468459661
 20
-148.5201334264116
 30
0.0
  0
VERTEX
  5
D8
330
D4
100
AcDbEntity
  8
_U+30EC_U+30A4_U+30E4_U+30FC 1
370
     0
100
AcDbVertex
100
AcDb2dVertex
 10
116.3873833259379
 20
-148.5201334264116
 30
0.0
  0
VERTEX
  5
D9
330
D4
100
AcDbEntity
  8
_U+30EC_U+30A4_U+30E4_U+30FC 1
370
     0
100
AcDbVertex
100
AcDb2dVertex
 10
116.3873833259379
 20
-148.7347628751427
 30
0.0
  0
SEQEND
  5
DA
330
D4
100
AcDbEntity
  8
_U+30EC_U+30A4_U+30E4_U+30FC 1
370
     0
  0
HATCH
  5
DB
330
CC
100
AcDbEntity
  8
_U+30EC_U+30A4_U+30E4_U+30FC 1
 62
   179
420
  2234388
100
AcDbHatch
 10
0.0
 20
0.0
 30
0.0
210
0.0
220
0.0
230
1.0
  2
SOLID
 70
     1
 71
     0
 91
        1
 92
        1
 93
        4
 72
     1
 10
116.3873833259379
 20
-148.7347628751427
 11
116.1355468459661
 21
-148.7347628751427
 72
     1
 10
116.1355468459661
 20
-148.7347628751427
 11
116.1355468459661
 21
-148.5201334264116
 72
     1
 10
116.1355468459661
 20
-148.5201334264116
 11
116.3873833259379
 21
-148.5201334264116
 72
     1
 10
116.3873833259379
 20
-148.5201334264116
 11
116.3873833259379
 21
-148.7347628751427
 97
        0
 75
     2
 76
     1
 98
        0
  0
SPLINE
  5
DC
330
CC
100
AcDbEntity
  8
_U+30EC_U+30A4_U+30E4_U+30FC 1
370
     0
100
AcDbSpline
210
0.0
220
0.0
230
1.0
 70
    11
 71
     3
 72
    53
 73
    49
 74
     0
 42
0.0000000001
 43
0.0000000001
 12
1.0
 22
0.0
 32
0.0
 13
1.0
 23
0.0
 33
0.0
 40
0.0
 40
0.0
 40
0.0
 40
0.0
 40
1.0
 40
1.0
 40
1.0
 40
2.0
 40
2.0
 40
2.0
 40
3.0
 40
3.0
 40
3.0
 40
4.0
 40
4.0
 40
4.0
 40
5.0
 40
5.0
 40
5.0
 40
6.0
 40
6.0
 40
6.0
 40
7.0
 40
7.0
 40
7.0
 40
8.0
 40
8.0
 40
8.0
 40
9.0
 40
9.0
 40
9.0
 40
10.0
 40
10.0
 40
10.0
 40
11.0
 40
11.0
 40
11.0
 40
12.0
 40
12.0
 40
12.0
 40
13.0
 40
13.0
 40
13.0
 40
14.0
 40
14.0
 40
14.0
 40
15.0
 40
15.0
 40
15.0
 40
16.0
 40
16.0
 40
16.0
 40
16.0
 10
116.4380262295711
 20
-147.9089734873283
 30
0.0
 10
116.4380262295711
 20
-147.9758083397422
 30
0.0
 10
116.4211452616933
 20
-148.0622802364219
 30
0.0
 10
116.3577555047647
 20
-148.1487521331017
 30
0.0
 10
116.2478569587853
 20
-148.2965467294189
 30
0.0
 10
116.1165988207973
 20
-148.3148057354908
 30
0.0
 10
116.0087673321089
 20
-148.3309976842714
 30
0.0
 10
116.0087673321089
 20
-148.3309976842714
 30
0.0
 10
116.0087673321089
 20
-148.1415174325827
 30
0.0
 10
116.0087673321089
 20
-148.1415174325827
 30
0.0
 10
116.2075493416078
 20
-148.0946641339833
 30
0.0
 10
116.237177162781
 20
-147.9864881357464
 30
0.0
 10
116.237177162781
 20
-147.9072509395857
 30
0.0
 10
116.237177162781
 20
-147.7880506357961
 30
0.0
 10
116.1376139032573
 20
-147.6581705360021
 30
0.0
 10
115.9050699580029
 20
-147.6581705360021
 30
0.0
 10
115.6490993634488
 20
-147.6581705360021
 30
0.0
 10
115.5791639250983
 20
-147.8114772850957
 30
0.0
 10
115.5791639250983
 20
-147.9144856401047
 30
0.0
 10
115.5791639250983
 20
-147.9413573848897
 30
0.0
 10
115.5791639250983
 20
-148.0622802364219
 30
0.0
 10
115.7083550057951
 20
-148.1380723370974
 30
0.0
 10
115.7083550057951
 20
-148.1380723370974
 30
0.0
 10
115.6894069806263
 20
-148.2875894811573
 30
0.0
 10
115.6894069806263
 20
-148.2875894811573
 30
0.0
 10
115.6894069806263
 20
-148.2875894811573
 30
0.0
 10
114.8429470199004
 20
-148.1849256356968
 30
0.0
 10
114.8429470199004
 20
-148.1849256356968
 30
0.0
 10
114.8429470199004
 20
-148.1849256356968
 30
0.0
 10
114.8429470199004
 20
-147.5214002452377
 30
0.0
 10
114.8429470199004
 20
-147.5214002452377
 30
0.0
 10
114.8429470199004
 20
-147.5214002452377
 30
0.0
 10
115.037594914817
 20
-147.5214002452377
 30
0.0
 10
115.037594914817
 20
-147.5214002452377
 30
0.0
 10
115.037594914817
 20
-147.5214002452377
 30
0.0
 10
115.037594914817
 20
-148.0460882876413
 30
0.0
 10
115.037594914817
 20
-148.0460882876413
 30
0.0
 10
115.037594914817
 20
-148.0460882876413
 30
0.0
 10
115.4606526404057
 20
-148.1018988345023
 30
0.0
 10
115.4606526404057
 20
-148.1018988345023
 30
0.0
 10
115.4268907046502
 20
-148.0495333831265
 30
0.0
 10
115.3865830874728
 20
-147.9792534352274
 30
0.0
 10
115.3865830874728
 20
-147.8783121375096
 30
0.0
 10
115.3865830874728
 20
-147.6619601410359
 30
0.0
 10
115.5729627532248
 20
-147.4600775456003
 30
0.0
 10
115.886121932834
 20
-147.4600775456003
 30
0.0
 10
116.2034152270255
 20
-147.4600775456003
 30
0.0
 10
116.4380262295711
 20
-147.6509358354831
 30
0.0
 10
116.4380262295711
 20
-147.9089734873283
 30
0.0
  0
HATCH
  5
DD
330
CC
100
AcDbEntity
  8
_U+30EC_U+30A4_U+30E4_U+30FC 1
 62
   179
420
  2234388
100
AcDbHatch
 10
0.0
 20
0.0
 30
0.0
210
0.0
220
0.0
230
1.0
  2
SOLID
 70
     1
 71
     0
 91
        1
 92
        1
 93
        1
 72
     4
 94
        3
 73
     0
 74
     1
 95
       53
 96
       49
 40
0.0
 40
0.0
 40
0.0
 40
0.0
 40
1.0
 40
1.0
 40
1.0
 40
2.0
 40
2.0
 40
2.0
 40
3.0
 40
3.0
 40
3.0
 40
4.0
 40
4.0
 40
4.0
 40
5.0
 40
5.0
 40
5.0
 40
6.0
 40
6.0
 40
6.0
 40
7.0
 40
7.0
 40
7.0
 40
8.0
 40
8.0
 40
8.0
 40
9.0
 40
9.0
 40
9.0
 40
10.0
 40
10.0
 40
10.0
 40
11.0
 40
11.0
 40
11.0
 40
12.0
 40
12.0
 40
12.0
 40
13.0
 40
13.0
 40
13.0
 40
14.0
 40
14.0
 40
14.0
 40
15.0
 40
15.0
 40
15.0
 40
16.0
 40
16.0
 40
16.0
 40
16.0
 10
116.4380262295711
 20
-147.9089734873283
 10
116.4380262295711
 20
-147.9758083397422
 10
116.4211452616933
 20
-148.0622802364219
 10
116.3577555047647
 20
-148.1487521331017
 10
116.2478569587853
 20
-148.2965467294189
 10
116.1165988207973
 20
-148.3148057354908
 10
116.0087673321089
 20
-148.3309976842714
 10
116.0087673321089
 20
-148.3309976842714
 10
116.0087673321089
 20
-148.1415174325827
 10
116.0087673321089
 20
-148.1415174325827
 10
116.2075493416078
 20
-148.0946641339833
 10
116.237177162781
 20
-147.9864881357464
 10
116.237177162781
 20
-147.9072509395857
 10
116.237177162781
 20
-147.7880506357961
 10
116.1376139032573
 20
-147.6581705360021
 10
115.9050699580029
 20
-147.6581705360021
 10
115.6490993634488
 20
-147.6581705360021
 10
115.5791639250983
 20
-147.8114772850957
 10
115.5791639250983
 20
-147.9144856401047
 10
115.5791639250983
 20
-147.9413573848897
 10
115.5791639250983
 20
-148.0622802364219
 10
115.7083550057951
 20
-148.1380723370974
 10
115.7083550057951
 20
-148.1380723370974
 10
115.6894069806263
 20
-148.2875894811573
 10
115.6894069806263
 20
-148.2875894811573
 10
115.6894069806263
 20
-148.2875894811573
 10
114.8429470199004
 20
-148.1849256356968
 10
114.8429470199004
 20
-148.1849256356968
 10
114.8429470199004
 20
-148.1849256356968
 10
114.8429470199004
 20
-147.5214002452377
 10
114.8429470199004
 20
-147.5214002452377
 10
114.8429470199004
 20
-147.5214002452377
 10
115.037594914817
 20
-147.5214002452377
 10
115.037594914817
 20
-147.5214002452377
 10
115.037594914817
 20
-147.5214002452377
 10
115.037594914817
 20
-148.0460882876413
 10
115.037594914817
 20
-148.0460882876413
 10
115.037594914817
 20
-148.0460882876413
 10
115.4606526404057
 20
-148.1018988345023
 10
115.4606526404057
 20
-148.1018988345023
 10
115.4268907046502
 20
-148.0495333831265
 10
115.3865830874728
 20
-147.9792534352274
 10
115.3865830874728
 20
-147.8783121375096
 10
115.3865830874728
 20
-147.6619601410359
 10
115.5729627532248
 20
-147.4600775456003
 10
115.886121932834
 20
-147.4600775456003
 10
116.2034152270255
 20
-147.4600775456003
 10
116.4380262295711
 20
-147.6509358354831
 10
116.4380262295711
 20
-147.9089734873283
 97
        0
 97
        0
 75
     2
 76
     1
 98
        0
  0
ENDBLK
  5
CF
330
CC
100
AcDbEntity
  8
0
100
AcDbBlockEnd
  0
BLOCK
  5
E0
330
DE
100
AcDbEntity
  8
0
100
AcDbBlockBegin
  2
block 11
 70
     0
 10
0.0
 20
0.0
 30
0.0
  3
block 11
  1

  0
POLYLINE
  5
E2
330
DE
100
AcDbEntity
  8
_U+30EC_U+30A4_U+30E4_U+30FC 1
 62
   179
420
  2234388
370
     9
100
AcDb2dPolyline
 66
     1
 10
0.0
 20
0.0
 30
0.0
  0
VERTEX
  5
E3
330
E2
100
AcDbEntity
  8
_U+30EC_U+30A4_U+30E4_U+30FC 1
 62
   179
420
  2234388
370
     9
100
AcDbVertex
100
AcDb2dVertex
 10
117.0333221929638
 20
-155.7789407943888
 30
0.0
  0
VERTEX
  5
E4
330
E2
100
AcDbEntity
  8
_U+30EC_U+30A4_U+30E4_U+30FC 1
 62
   179
420
  2234388
370
     9
100
AcDbVertex
100
AcDb2dVertex
 10
117.0333221929638
 20
-156.7787130163607
 30
0.0
  0
SEQEND
  5
E5
330
E2
100
AcDbEntity
  8
_U+30EC_U+30A4_U+30E4_U+30FC 1
 62
   179
420
  2234388
370
     9
  0
POLYLINE
  5
E6
330
DE
100
AcDbEntity
  8
_U+30EC_U+30A4_U+30E4_U+30FC 1
 62
   179
420
  2234388
370
     9
100
AcDb2dPolyline
 66
     1
 10
0.0
 20
0.0
 30
0.0
  0
VERTEX
  5
E7
330
E6
100
AcDbEntity
  8
_U+30EC_U+30A4_U+30E4_U+30FC 1
 62
   179
420
  2234388
370
     9
100
AcDbVertex
100
AcDb2dVertex
 10
117.0333221929638
 20
-155.3786438500443
 30
0.0
  0
VERTEX
  5
E8
330
E6
100
AcDbEntity
  8
_U+30EC_U+30A4_U+30E4_U+30FC 1
 62
   179
420
  2234388
370
     9
100
AcDbVertex
100
AcDb2dVertex
 10
117.0333221929638
 20
-155.7789407943888
 30
0.0
  0
SEQEND
  5
E9
330
E6
100
AcDbEntity
  8
_U+30EC_U+30A4_U+30E4_U+30FC 1
 62
   179
420
  2234388
370
     9
  0
POLYLINE
  5
EA
330
DE
100
AcDbEntity
  8
_U+30EC_U+30A4_U+30E4_U+30FC 1
 62
   179
420
  2234388
370
     9
100
AcDb2dPolyline
 66
     1
 10
0.0
 20
0.0
 30
0.0
  0
VERTEX
  5
EB
330
EA
100
AcDbEntity
  8
_U+30EC_U+30A4_U+30E4_U+30FC 1
 62
   179
420
  2234388
370
     9
100
AcDbVertex
100
AcDb2dVertex
 10
115.5733131625903
 20
-155.7789407943888
 30
0.0
  0
VERTEX
  5
EC
330
EA
100
AcDbEntity
  8
_U+30EC_U+30A4_U+30E4_U+30FC 1
 62
   179
420
  2234388
370
     9
100
AcDbVertex
100
AcDb2dVertex
 10
118.0337999704918
 20
-155.7789407943888
 30
0.0
  0
SEQEND
  5
ED
330
EA
100
AcDbEntity
  8
_U+30EC_U+30A4_U+30E4_U+30FC 1
 62
   179
420
  2234388
370
     9
  0
INSERT
  5
EF
330
DE
100
AcDbEntity
  8
_U+30EC_U+30A4_U+30E4_U+30FC 1
100
AcDbBlockReference
  2
block 12
 10
0.0
 20
0.0
 30
0.0
  0
ENDBLK
  5
E1
330
DE
100
AcDbEntity
  8
0
100
AcDbBlockEnd
  0
BLOCK
  5
F0
330
EE
100
AcDbEntity
  8
0
100
AcDbBlockBegin
  2
block 12
 70
     0
 10
0.0
 20
0.0
 30
0.0
  3
block 12
  1

  0
SPLINE
  5
F2
330
EE
100
AcDbEntity
  8
_U+30EC_U+30A4_U+30E4_U+30FC 1
370
     0
100
AcDbSpline
210
0.0
220
0.0
230
1.0
 70
    11
 71
     3
 72
    29
 73
    25
 74
     0
 42
0.0000000001
 43
0.0000000001
 12
1.0
 22
0.0
 32
0.0
 13
1.0
 23
0.0
 33
0.0
 40
0.0
 40
0.0
 40
0.0
 40
0.0
 40
1.0
 40
1.0
 40
1.0
 40
2.0
 40
2.0
 40
2.0
 40
3.0
 40
3.0
 40
3.0
 40
4.0
 40
4.0
 40
4.0
 40
5.0
 40
5.0
 40
5.0
 40
6.0
 40
6.0
 40
6.0
 40
7.0
 40
7.0
 40
7.0
 40
8.0
 40
8.0
 40
8.0
 40
8.0
 10
120.443638750271
 20
-156.233702217886
 30
0.0
 10
120.6531005557742
 20
-156.3256862673422
 30
0.0
 10
120.6720485809431
 20
-156.4734808636594
 30
0.0
 10
120.6720485809431
 20
-156.5726996136346
 30
0.0
 10
120.6720485809431
 20
-156.7098144139476
 30
0.0
 10
120.6255397918922
 20
-156.8303927559313
 30
0.0
 10
120.443638750271
 20
-156.9116970093832
 30
0.0
 10
120.2489908553544
 20
-156.9998914538056
 30
0.0
 10
120.0119682859692
 20
-157.0164279121348
 30
0.0
 10
119.8493597790654
 20
-157.0164279121348
 30
0.0
 10
119.705354787782
 20
-157.0164279121348
 30
0.0
 10
119.4535183078102
 20
-157.0019585110967
 30
0.0
 10
119.2547362983113
 20
-156.9116970093832
 30
0.0
 10
119.0518201742301
 20
-156.819712959927
 30
0.0
 10
119.0283935249304
 20
-156.6825981596141
 30
0.0
 10
119.0283935249304
 20
-156.5726996136346
 30
0.0
 10
119.0283935249304
 20
-156.4373073610643
 30
0.0
 10
119.0728352566901
 20
-156.3146619617894
 30
0.0
 10
119.2547362983113
 20
-156.233702217886
 30
0.0
 10
119.4473171359368
 20
-156.1489528689489
 30
0.0
 10
119.6757269666088
 20
-156.1289713151344
 30
0.0
 10
119.8493597790654
 20
-156.1289713151344
 30
0.0
 10
120.0205810246824
 20
-156.1289713151344
 30
0.0
 10
120.2510579126456
 20
-156.1472303212063
 30
0.0
 10
120.443638750271
 20
-156.233702217886
 30
0.0
  0
SPLINE
  5
F3
330
EE
100
AcDbEntity
  8
_U+30EC_U+30A4_U+30E4_U+30FC 1
370
     0
100
AcDbSpline
210
0.0
220
0.0
230
1.0
 70
    11
 71
     3
 72
    17
 73
    13
 74
     0
 42
0.0000000001
 43
0.0000000001
 12
1.0
 22
0.0
 32
0.0
 13
1.0
 23
0.0
 33
0.0
 40
0.0
 40
0.0
 40
0.0
 40
0.0
 40
1.0
 40
1.0
 40
1.0
 40
2.0
 40
2.0
 40
2.0
 40
3.0
 40
3.0
 40
3.0
 40
4.0
 40
4.0
 40
4.0
 40
4.0
 10
119.2209743625559
 20
-156.5726996136346
 30
0.0
 10
119.2209743625559
 20
-156.7856065146231
 30
0.0
 10
119.5045057209919
 20
-156.8252251127034
 30
0.0
 10
119.8493597790654
 20
-156.8252251127034
 30
0.0
 10
120.1687201305481
 20
-156.8252251127034
 30
0.0
 10
120.4774006860265
 20
-156.7945637628847
 30
0.0
 10
120.4774006860265
 20
-156.5726996136346
 30
0.0
 10
120.4774006860265
 20
-156.3615152603888
 30
0.0
 10
120.1962808944301
 20
-156.3201741145658
 30
0.0
 10
119.8493597790654
 20
-156.3201741145658
 30
0.0
 10
119.5296549180343
 20
-156.3201741145658
 30
0.0
 10
119.2209743625559
 20
-156.3525580121271
 30
0.0
 10
119.2209743625559
 20
-156.5726996136346
 30
0.0
  0
HATCH
  5
F4
330
EE
100
AcDbEntity
  8
_U+30EC_U+30A4_U+30E4_U+30FC 1
 62
   179
420
  2234388
100
AcDbHatch
 10
0.0
 20
0.0
 30
0.0
210
0.0
220
0.0
230
1.0
  2
SOLID
 70
     1
 71
     0
 91
        2
 92
        1
 93
        1
 72
     4
 94
        3
 73
     0
 74
     1
 95
       29
 96
       25
 40
0.0
 40
0.0
 40
0.0
 40
0.0
 40
1.0
 40
1.0
 40
1.0
 40
2.0
 40
2.0
 40
2.0
 40
3.0
 40
3.0
 40
3.0
 40
4.0
 40
4.0
 40
4.0
 40
5.0
 40
5.0
 40
5.0
 40
6.0
 40
6.0
 40
6.0
 40
7.0
 40
7.0
 40
7.0
 40
8.0
 40
8.0
 40
8.0
 40
8.0
 10
120.443638750271
 20
-156.233702217886
 10
120.6531005557742
 20
-156.3256862673422
 10
120.6720485809431
 20
-156.4734808636594
 10
120.6720485809431
 20
-156.5726996136346
 10
120.6720485809431
 20
-156.7098144139476
 10
120.6255397918922
 20
-156.8303927559313
 10
120.443638750271
 20
-156.9116970093832
 10
120.2489908553544
 20
-156.9998914538056
 10
120.0119682859692
 20
-157.0164279121348
 10
119.8493597790654
 20
-157.0164279121348
 10
119.705354787782
 20
-157.0164279121348
 10
119.4535183078102
 20
-157.0019585110967
 10
119.2547362983113
 20
-156.9116970093832
 10
119.0518201742301
 20
-156.819712959927
 10
119.0283935249304
 20
-156.6825981596141
 10
119.0283935249304
 20
-156.5726996136346
 10
119.0283935249304
 20
-156.4373073610643
 10
119.0728352566901
 20
-156.3146619617894
 10
119.2547362983113
 20
-156.233702217886
 10
119.4473171359368
 20
-156.1489528689489
 10
119.6757269666088
 20
-156.1289713151344
 10
119.8493597790654
 20
-156.1289713151344
 10
120.0205810246824
 20
-156.1289713151344
 10
120.2510579126456
 20
-156.1472303212063
 10
120.443638750271
 20
-156.233702217886
 97
        0
 97
        0
 92
        1
 93
        1
 72
     4
 94
        3
 73
     0
 74
     1
 95
       17
 96
       13
 40
0.0
 40
0.0
 40
0.0
 40
0.0
 40
1.0
 40
1.0
 40
1.0
 40
2.0
 40
2.0
 40
2.0
 40
3.0
 40
3.0
 40
3.0
 40
4.0
 40
4.0
 40
4.0
 40
4.0
 10
119.2209743625559
 20
-156.5726996136346
 10
119.2209743625559
 20
-156.7856065146231
 10
119.5045057209919
 20
-156.8252251127034
 10
119.8493597790654
 20
-156.8252251127034
 10
120.1687201305481
 20
-156.8252251127034
 10
120.4774006860265
 20
-156.7945637628847
 10
120.4774006860265
 20
-156.5726996136346
 10
120.4774006860265
 20
-156.3615152603888
 10
120.1962808944301
 20
-156.3201741145658
 10
119.8493597790654
 20
-156.3201741145658
 10
119.5296549180343
 20
-156.3201741145658
 10
119.2209743625559
 20
-156.3525580121271
 10
119.2209743625559
 20
-156.5726996136346
 97
        0
 97
        0
 75
     2
 76
     1
 98
        0
  0
POLYLINE
  5
F5
330
EE
100
AcDbEntity
  8
_U+30EC_U+30A4_U+30E4_U+30FC 1
370
     0
100
AcDb2dPolyline
 66
     1
 10
0.0
 20
0.0
 30
0.0
  0
VERTEX
  5
F6
330
F5
100
AcDbEntity
  8
_U+30EC_U+30A4_U+30E4_U+30FC 1
370
     0
100
AcDbVertex
100
AcDb2dVertex
 10
120.6214056773099
 20
-155.9460367448677
 30
0.0
  0
VERTEX
  5
F7
330
F5
100
AcDbEntity
  8
_U+30EC_U+30A4_U+30E4_U+30FC 1
370
     0
100
AcDbVertex
100
AcDb2dVertex
 10
120.3695691973382
 20
-155.9460367448677
 30
0.0
  0
VERTEX
  5
F8
330
F5
100
AcDbEntity
  8
_U+30EC_U+30A4_U+30E4_U+30FC 1
370
     0
100
AcDbVertex
100
AcDb2dVertex
 10
120.3695691973382
 20
-155.7314072961366
 30
0.0
  0
VERTEX
  5
F9
330
F5
100
AcDbEntity
  8
_U+30EC_U+30A4_U+30E4_U+30FC 1
370
     0
100
AcDbVertex
100
AcDb2dVertex
 10
120.6214056773099
 20
-155.7314072961366
 30
0.0
  0
VERTEX
  5
FA
330
F5
100
AcDbEntity
  8
_U+30EC_U+30A4_U+30E4_U+30FC 1
370
     0
100
AcDbVertex
100
AcDb2dVertex
 10
120.6214056773099
 20
-155.9460367448677
 30
0.0
  0
SEQEND
  5
FB
330
F5
100
AcDbEntity
  8
_U+30EC_U+30A4_U+30E4_U+30FC 1
370
     0
  0
HATCH
  5
FC
330
EE
100
AcDbEntity
  8
_U+30EC_U+30A4_U+30E4_U+30FC 1
 62
   179
420
  2234388
100
AcDbHatch
 10
0.0
 20
0.0
 30
0.0
210
0.0
220
0.0
230
1.0
  2
SOLID
 70
     1
 71
     0
 91
        1
 92
        1
 93
        4
 72
     1
 10
120.6214056773099
 20
-155.9460367448677
 11
120.3695691973382
 21
-155.9460367448677
 72
     1
 10
120.3695691973382
 20
-155.9460367448677
 11
120.3695691973382
 21
-155.7314072961366
 72
     1
 10
120.3695691973382
 20
-155.7314072961366
 11
120.6214056773099
 21
-155.7314072961366
 72
     1
 10
120.6214056773099
 20
-155.7314072961366
 11
120.6214056773099
 21
-155.9460367448677
 97
        0
 75
     2
 76
     1
 98
        0
  0
POLYLINE
  5
FD
330
EE
100
AcDbEntity
  8
_U+30EC_U+30A4_U+30E4_U+30FC 1
370
     0
100
AcDb2dPolyline
 66
     1
 10
0.0
 20
0.0
 30
0.0
  0
VERTEX
  5
FE
330
FD
100
AcDbEntity
  8
_U+30EC_U+30A4_U+30E4_U+30FC 1
370
     0
100
AcDbVertex
100
AcDb2dVertex
 10
120.2744845619453
 20
-154.8208685593851
 30
0.0
  0
VERTEX
  5
FF
330
FD
100
AcDbEntity
  8
_U+30EC_U+30A4_U+30E4_U+30FC 1
370
     0
100
AcDbVertex
100
AcDb2dVertex
 10
120.6214056773099
 20
-154.8208685593851
 30
0.0
  0
VERTEX
  5
100
330
FD
100
AcDbEntity
  8
_U+30EC_U+30A4_U+30E4_U+30FC 1
370
     0
100
AcDbVertex
100
AcDb2dVertex
 10
120.6214056773099
 20
-155.00655920604
 30
0.0
  0
VERTEX
  5
101
330
FD
100
AcDbEntity
  8
_U+30EC_U+30A4_U+30E4_U+30FC 1
370
     0
100
AcDbVertex
100
AcDb2dVertex
 10
120.2744845619453
 20
-155.00655920604
 30
0.0
  0
VERTEX
  5
102
330
FD
100
AcDbEntity
  8
_U+30EC_U+30A4_U+30E4_U+30FC 1
370
     0
100
AcDbVertex
100
AcDb2dVertex
 10
120.2744845619453
 20
-155.5656982032961
 30
0.0
  0
VERTEX
  5
103
330
FD
100
AcDbEntity
  8
_U+30EC_U+30A4_U+30E4_U+30FC 1
370
     0
100
AcDbVertex
100
AcDb2dVertex
 10
120.0502088458555
 20
-155.5656982032961
 30
0.0
  0
VERTEX
  5
104
330
FD
100
AcDbEntity
  8
_U+30EC_U+30A4_U+30E4_U+30FC 1
370
     0
100
AcDbVertex
100
AcDb2dVertex
 10
119.0769693712724
 20
-154.9869221617741
 30
0.0
  0
VERTEX
  5
105
330
FD
100
AcDbEntity
  8
_U+30EC_U+30A4_U+30E4_U+30FC 1
370
     0
100
AcDbVertex
100
AcDb2dVertex
 10
119.0769693712724
 20
-154.8208685593851
 30
0.0
  0
VERTEX
  5
106
330
FD
100
AcDbEntity
  8
_U+30EC_U+30A4_U+30E4_U+30FC 1
370
     0
100
AcDbVertex
100
AcDb2dVertex
 10
120.0757025524464
 20
-154.8208685593851
 30
0.0
  0
VERTEX
  5
107
330
FD
100
AcDbEntity
  8
_U+30EC_U+30A4_U+30E4_U+30FC 1
370
     0
100
AcDbVertex
100
AcDb2dVertex
 10
120.0757025524464
 20
-154.6441351609917
 30
0.0
  0
VERTEX
  5
108
330
FD
100
AcDbEntity
  8
_U+30EC_U+30A4_U+30E4_U+30FC 1
370
     0
100
AcDbVertex
100
AcDb2dVertex
 10
120.2744845619453
 20
-154.6441351609917
 30
0.0
  0
VERTEX
  5
109
330
FD
100
AcDbEntity
  8
_U+30EC_U+30A4_U+30E4_U+30FC 1
370
     0
100
AcDbVertex
100
AcDb2dVertex
 10
120.2744845619453
 20
-154.8208685593851
 30
0.0
  0
SEQEND
  5
10A
330
FD
100
AcDbEntity
  8
_U+30EC_U+30A4_U+30E4_U+30FC 1
370
     0
  0
POLYLINE
  5
10B
330
EE
100
AcDbEntity
  8
_U+30EC_U+30A4_U+30E4_U+30FC 1
370
     0
100
AcDb2dPolyline
 66
     1
 10
0.0
 20
0.0
 30
0.0
  0
VERTEX
  5
10C
330
10B
100
AcDbEntity
  8
_U+30EC_U+30A4_U+30E4_U+30FC 1
370
     0
100
AcDbVertex
100
AcDb2dVertex
 10
119.4197563720548
 20
-155.00655920604
 30
0.0
  0
VERTEX
  5
10D
330
10B
100
AcDbEntity
  8
_U+30EC_U+30A4_U+30E4_U+30FC 1
370
     0
100
AcDbVertex
100
AcDb2dVertex
 10
120.0757025524464
 20
-155.3961995054218
 30
0.0
  0
VERTEX
  5
10E
330
10B
100
AcDbEntity
  8
_U+30EC_U+30A4_U+30E4_U+30FC 1
370
     0
100
AcDbVertex
100
AcDb2dVertex
 10
120.0757025524464
 20
-155.00655920604
 30
0.0
  0
VERTEX
  5
10F
330
10B
100
AcDbEntity
  8
_U+30EC_U+30A4_U+30E4_U+30FC 1
370
     0
100
AcDbVertex
100
AcDb2dVertex
 10
119.4197563720548
 20
-155.00655920604
 30
0.0
  0
SEQEND
  5
110
330
10B
100
AcDbEntity
  8
_U+30EC_U+30A4_U+30E4_U+30FC 1
370
     0
  0
HATCH
  5
111
330
EE
100
AcDbEntity
  8
_U+30EC_U+30A4_U+30E4_U+30FC 1
 62
   179
420
  2234388
100
AcDbHatch
 10
0.0
 20
0.0
 30
0.0
210
0.0
220
0.0
230
1.0
  2
SOLID
 70
     1
 71
     0
 91
        2
 92
        1
 93
       11
 72
     1
 10
120.2744845619453
 20
-154.8208685593851
 11
120.6214056773099
 21
-154.8208685593851
 72
     1
 10
120.6214056773099
 20
-154.8208685593851
 11
120.6214056773099
 21
-155.00655920604
 72
     1
 10
120.6214056773099
 20
-155.00655920604
 11
120.2744845619453
 21
-155.00655920604
 72
     1
 10
120.2744845619453
 20
-155.00655920604
 11
120.2744845619453
 21
-155.5656982032961
 72
     1
 10
120.2744845619453
 20
-155.5656982032961
 11
120.0502088458555
 21
-155.5656982032961
 72
     1
 10
120.0502088458555
 20
-155.5656982032961
 11
119.0769693712724
 21
-154.9869221617741
 72
     1
 10
119.0769693712724
 20
-154.9869221617741
 11
119.0769693712724
 21
-154.8208685593851
 72
     1
 10
119.0769693712724
 20
-154.8208685593851
 11
120.0757025524464
 21
-154.8208685593851
 72
     1
 10
120.0757025524464
 20
-154.8208685593851
 11
120.0757025524464
 21
-154.6441351609917
 72
     1
 10
120.0757025524464
 20
-154.6441351609917
 11
120.2744845619453
 21
-154.6441351609917
 72
     1
 10
120.2744845619453
 20
-154.6441351609917
 11
120.2744845619453
 21
-154.8208685593851
 97
        0
 92
        1
 93
        3
 72
     1
 10
119.4197563720548
 20
-155.00655920604
 11
120.0757025524464
 21
-155.3961995054218
 72
     1
 10
120.0757025524464
 20
-155.3961995054218
 11
120.0757025524464
 21
-155.00655920604
 72
     1
 10
120.0757025524464
 20
-155.00655920604
 11
119.4197563720548
 21
-155.00655920604
 97
        0
 75
     2
 76
     1
 98
        0
  0
ENDBLK
  5
F1
330
EE
100
AcDbEntity
  8
0
100
AcDbBlockEnd
  0
ENDSEC
  0
SECTION
  2
ENTITIES
  0
INSERT
  5
42
330
1F
100
AcDbEntity
  8
_U+30EC_U+30A4_U+30E4_U+30FC 1
100
AcDbBlockReference
  2
block 2
 10
0.0
 20
0.0
 30
0.0
  0
ENDSEC
  0
SECTION
  2
OBJECTS
  0
DICTIONARY
  5
C
330
0
100
AcDbDictionary
281
     1
  3
ACAD_GROUP
350
D
  3
ACAD_LAYOUT
350
1A
  3
ACAD_MATERIAL
350
3B
  3
ACAD_MLEADERSTYLE
350
113
  3
ACAD_MLINESTYLE
350
17
  3
ACAD_PLOTSETTINGS
350
19
  3
ACAD_PLOTSTYLENAME
350
E
  3
ACAD_TABLESTYLE
350
112
  3
ACAD_VISUALSTYLE
350
2A
  0
SUN
  5
3F
330
29
100
AcDbSun
 90
        1
290
     0
 63
     7
421
 16777215
 40
1.0
291
     1
 91
  2455826
 92
 54000000
292
     0
 70
     2
 71
   256
280
     1
  0
DICTIONARY
  5
D
102
{ACAD_REACTORS
330
C
102
}
330
C
100
AcDbDictionary
281
     1
  0
DICTIONARY
  5
1A
102
{ACAD_REACTORS
330
C
102
}
330
C
100
AcDbDictionary
281
     1
  3
Layout1
350
1E
  3
Layout2
350
26
  3
Model
350
22
  0
DICTIONARY
  5
3B
102
{ACAD_REACTORS
330
C
102
}
330
C
100
AcDbDictionary
281
     1
  3
ByBlock
350
3D
  3
ByLayer
350
3C
  3
Global
350
3E
  0
DICTIONARY
  5
113
102
{ACAD_REACTORS
330
C
102
}
330
C
100
AcDbDictionary
281
     1
  0
DICTIONARY
  5
17
102
{ACAD_REACTORS
330
C
102
}
330
C
100
AcDbDictionary
281
     1
  3
Standard
350
18
  0
DICTIONARY
  5
19
102
{ACAD_REACTORS
330
C
102
}
330
C
100
AcDbDictionary
281
     1
  0
ACDBDICTIONARYWDFLT
  5
E
102
{ACAD_REACTORS
330
C
102
}
330
C
100
AcDbDictionary
281
     1
  3
Normal
350
F
100
AcDbDictionaryWithDefault
340
F
  0
DICTIONARY
  5
112
102
{ACAD_REACTORS
330
C
102
}
330
C
100
AcDbDictionary
281
     1
  0
DICTIONARY
  5
2A
102
{ACAD_REACTORS
330
C
102
}
330
C
100
AcDbDictionary
281
     1
  3
2dWireframe
350
2F
  3
3D Hidden
350
31
  3
3dWireframe
350
30
  3
Basic
350
32
  3
Brighten
350
36
  3
ColorChange
350
3A
  3
Conceptual
350
34
  3
Dim
350
35
  3
Facepattern
350
39
  3
Flat
350
2B
  3
FlatWithEdges
350
2C
  3
Gouraud
350
2D
  3
GouraudWithEdges
350
2E
  3
Linepattern
350
38
  3
Realistic
350
33
  3
Thicken
350
37
  0
LAYOUT
  5
1E
102
{ACAD_REACTORS
330
1A
102
}
330
1A
100
AcDbPlotSettings
  1

  2
none_device
  4

  6

 40
0.0
 41
0.0
 42
0.0
 43
0.0
 44
0.0
 45
0.0
 46
0.0
 47
0.0
 48
0.0
 49
0.0
140
0.0
141
0.0
142
1.0
143
1.0
 70
   688
 72
     0
 73
     0
 74
     5
  7

 75
    16
 76
     0
 77
     2
 78
   300
147
1.0
148
0.0
149
0.0
100
AcDbLayout
  1
Layout1
 70
     1
 71
     1
 10
0.0
 20
0.0
 11
12.0
 21
9.0
 12
0.0
 22
0.0
 32
0.0
 14
1.000000000000000E+20
 24
1.000000000000000E+20
 34
1.000000000000000E+20
 15
-1.000000000000000E+20
 25
-1.000000000000000E+20
 35
-1.000000000000000E+20
146
0.0
 13
0.0
 23
0.0
 33
0.0
 16
1.0
 26
0.0
 36
0.0
 17
0.0
 27
1.0
 37
0.0
 76
     0
330
1B
  0
LAYOUT
  5
26
102
{ACAD_REACTORS
330
1A
102
}
330
1A
100
AcDbPlotSettings
  1

  2
none_device
  4

  6

 40
0.0
 41
0.0
 42
0.0
 43
0.0
 44
0.0
 45
0.0
 46
0.0
 47
0.0
 48
0.0
 49
0.0
140
0.0
141
0.0
142
1.0
143
1.0
 70
   688
 72
     0
 73
     0
 74
     5
  7

 75
    16
 76
     0
 77
     2
 78
   300
147
1.0
148
0.0
149
0.0
100
AcDbLayout
  1
Layout2
 70
     1
 71
     2
 10
0.0
 20
0.0
 11
0.0
 21
0.0
 12
0.0
 22
0.0
 32
0.0
 14
0.0
 24
0.0
 34
0.0
 15
0.0
 25
0.0
 35
0.0
146
0.0
 13
0.0
 23
0.0
 33
0.0
 16
1.0
 26
0.0
 36
0.0
 17
0.0
 27
1.0
 37
0.0
 76
     0
330
23
  0
LAYOUT
  5
22
102
{ACAD_REACTORS
330
1A
102
}
330
1A
100
AcDbPlotSettings
  1

  2
none_device
  4

  6

 40
0.0
 41
0.0
 42
0.0
 43
0.0
 44
0.0
 45
0.0
 46
0.0
 47
0.0
 48
0.0
 49
0.0
140
0.0
141
0.0
142
1.0
143
1.0
 70
  1712
 72
     0
 73
     0
 74
     0
  7

 75
     0
 76
     0
 77
     2
 78
   300
147
1.0
148
0.0
149
0.0
100
AcDbLayout
  1
Model
 70
     1
 71
     0
 10
0.0
 20
0.0
 11
12.0
 21
9.0
 12
0.0
 22
0.0
 32
0.0
 14
1.000000000000000E+20
 24
1.000000000000000E+20
 34
1.000000000000000E+20
 15
-1.000000000000000E+20
 25
-1.000000000000000E+20
 35
-1.000000000000000E+20
146
0.0
 13
0.0
 23
0.0
 33
0.0
 16
1.0
 26
0.0
 36
0.0
 17
0.0
 27
1.0
 37
0.0
 76
     0
330
1F
331
29
  0
MATERIAL
  5
3D
102
{ACAD_REACTORS
330
3B
102
}
330
3B
100
AcDbMaterial
  1
ByBlock
 72
     1
 94
      127
  0
MATERIAL
  5
3C
102
{ACAD_REACTORS
330
3B
102
}
330
3B
100
AcDbMaterial
  1
ByLayer
 72
     1
 94
      127
  0
MATERIAL
  5
3E
102
{ACAD_REACTORS
330
3B
102
}
330
3B
100
AcDbMaterial
  1
Global
 72
     1
 94
      127
  0
MLINESTYLE
  5
18
102
{ACAD_REACTORS
330
17
102
}
330
17
100
AcDbMlineStyle
  2
Standard
 70
     0
  3

 62
   256
 51
90.0
 52
90.0
 71
     2
 49
0.5
 62
   256
  6
BYLAYER
 49
-0.5
 62
   256
  6
BYLAYER
  0
ACDBPLACEHOLDER
  5
F
102
{ACAD_REACTORS
330
E
102
}
330
E
  0
VISUALSTYLE
  5
2F
102
{ACAD_REACTORS
330
2A
102
}
330
2A
100
AcDbVisualStyle
  2
2dWireframe
 70
     4
177
     2
291
     0
 71
     0
176
     1
 72
     2
176
     1
 73
     0
176
     1
 90
        0
176
     1
 40
-0.6
176
     1
 41
-30.0
176
     1
 62
     5
 63
     7
421
 16777215
176
     1
 74
     1
176
     1
 91
        4
176
     1
 64
     7
176
     1
 65
   257
176
     1
 75
     1
176
     1
175
     1
176
     1
 42
1.0
176
     1
 92
        0
176
     1
 66
   257
176
     1
 43
1.0
176
     1
 76
     1
176
     1
 77
     6
176
     1
 78
     2
176
     1
 67
     7
176
     1
 79
     5
176
     1
170
     0
176
     1
171
     0
176
     1
290
     0
176
     1
 93
        1
176
     1
 44
0.0
176
     1
173
     0
176
     1
  0
VISUALSTYLE
  5
31
102
{ACAD_REACTORS
330
2A
102
}
330
2A
100
AcDbVisualStyle
  2
3D Hidden
 70
     6
177
     2
291
     0
 71
     1
176
     1
 72
     2
176
     1
 73
     2
176
     1
 90
        0
176
     1
 40
-0.6
176
     1
 41
-30.0
176
     1
 62
     5
 63
     7
421
 16777215
176
     1
 74
     2
176
     1
 91
        2
176
     1
 64
     7
176
     1
 65
   257
176
     1
 75
     2
176
     1
175
     1
176
     1
 42
40.0
176
     1
 92
        0
176
     1
 66
   257
176
     1
 43
1.0
176
     1
 76
     1
176
     1
 77
     6
176
     1
 78
     2
176
     1
 67
     7
176
     1
 79
     3
176
     1
170
     0
176
     1
171
     0
176
     1
290
     0
176
     1
 93
        1
176
     1
 44
0.0
176
     1
173
     0
176
     1
  0
VISUALSTYLE
  5
30
102
{ACAD_REACTORS
330
2A
102
}
330
2A
100
AcDbVisualStyle
  2
3dWireframe
 70
     5
177
     2
291
     0
 71
     0
176
     1
 72
     2
176
     1
 73
     0
176
     1
 90
        0
176
     1
 40
-0.6
176
     1
 41
-30.0
176
     1
 62
     5
 63
     7
421
 16777215
176
     1
 74
     1
176
     1
 91
        4
176
     1
 64
     7
176
     1
 65
   257
176
     1
 75
     1
176
     1
175
     1
176
     1
 42
1.0
176
     1
 92
        0
176
     1
 66
   257
176
     1
 43
1.0
176
     1
 76
     1
176
     1
 77
     6
176
     1
 78
     2
176
     1
 67
     7
176
     1
 79
     5
176
     1
170
     0
176
     1
171
     0
176
     1
290
     0
176
     1
 93
        1
176
     1
 44
0.0
176
     1
173
     0
176
     1
  0
VISUALSTYLE
  5
32
102
{ACAD_REACTORS
330
2A
102
}
330
2A
100
AcDbVisualStyle
  2
Basic
 70
     7
177
     2
291
     1
 71
     1
176
     1
 72
     0
176
     1
 73
     1
176
     1
 90
        0
176
     1
 40
-0.6
176
     1
 41
-30.0
176
     1
 62
     5
 63
     7
421
 16777215
176
     1
 74
     0
176
     1
 91
        4
176
     1
 64
     7
176
     1
 65
   257
176
     1
 75
     1
176
     1
175
     1
176
     1
 42
1.0
176
     1
 92
        8
176
     1
 66
     7
176
     1
 43
1.0
176
     1
 76
     1
176
     1
 77
     6
176
     1
 78
     2
176
     1
 67
     7
176
     1
 79
     5
176
     1
170
     0
176
     1
171
     0
176
     1
290
     0
176
     1
 93
        1
176
     1
 44
0.0
176
     1
173
     0
176
     1
  0
VISUALSTYLE
  5
36
102
{ACAD_REACTORS
330
2A
102
}
330
2A
100
AcDbVisualStyle
  2
Brighten
 70
    12
177
     2
291
     1
 71
     2
176
     1
 72
     2
176
     1
 73
     0
176
     1
 90
        0
176
     1
 40
-0.6
176
     1
 41
-30.0
176
     1
 62
     5
 63
     7
421
 16777215
176
     1
 74
     1
176
     1
 91
        4
176
     1
 64
     7
176
     1
 65
   257
176
     1
 75
     1
176
     1
175
     1
176
     1
 42
1.0
176
     1
 92
        8
176
     1
 66
     7
176
     1
 43
1.0
176
     1
 76
     1
176
     1
 77
     6
176
     1
 78
     2
176
     1
 67
     7
176
     1
 79
     5
176
     1
170
     0
176
     1
171
     0
176
     1
290
     0
176
     1
 93
        1
176
     1
 44
50.0
176
     1
173
     0
176
     1
  0
VISUALSTYLE
  5
3A
102
{ACAD_REACTORS
330
2A
102
}
330
2A
100
AcDbVisualStyle
  2
ColorChange
 70
    16
177
     2
291
     1
 71
     2
176
     1
 72
     2
176
     1
 73
     3
176
     1
 90
        0
176
     1
 40
-0.6
176
     1
 41
-30.0
176
     1
 62
     5
 63
     8
421
  8421504
176
     1
 74
     1
176
     1
 91
        4
176
     1
 64
     7
176
     1
 65
   257
176
     1
 75
     1
176
     1
175
     1
176
     1
 42
1.0
176
     1
 92
        8
176
     1
 66
     8
424
  8421504
176
     1
 43
1.0
176
     1
 76
     1
176
     1
 77
     6
176
     1
 78
     2
176
     1
 67
     7
176
     1
 79
     5
176
     1
170
     0
176
     1
171
     0
176
     1
290
     0
176
     1
 93
        1
176
     1
 44
0.0
176
     1
173
     0
176
     1
  0
VISUALSTYLE
  5
34
102
{ACAD_REACTORS
330
2A
102
}
330
2A
100
AcDbVisualStyle
  2
Conceptual
 70
     9
177
     2
291
     0
 71
     3
176
     1
 72
     2
176
     1
 73
     0
176
     1
 90
        0
176
     1
 40
-0.6
176
     1
 41
-30.0
176
     1
 62
     5
 63
     7
421
 16777215
176
     1
 74
     2
176
     1
 91
        2
176
     1
 64
     7
176
     1
 65
   257
176
     1
 75
     1
176
     1
175
     1
176
     1
 42
40.0
176
     1
 92
        8
176
     1
 66
     7
176
     1
 43
1.0
176
     1
 76
     1
176
     1
 77
     6
176
     1
 78
     2
176
     1
 67
     7
176
     1
 79
     3
176
     1
170
     0
176
     1
171
     0
176
     1
290
     0
176
     1
 93
        1
176
     1
 44
0.0
176
     1
173
     0
176
     1
  0
VISUALSTYLE
  5
35
102
{ACAD_REACTORS
330
2A
102
}
330
2A
100
AcDbVisualStyle
  2
Dim
 70
    11
177
     2
291
     1
 71
     2
176
     1
 72
     2
176
     1
 73
     0
176
     1
 90
        0
176
     1
 40
-0.6
176
     1
 41
-30.0
176
     1
 62
     5
 63
     7
421
 16777215
176
     1
 74
     1
176
     1
 91
        4
176
     1
 64
     7
176
     1
 65
   257
176
     1
 75
     1
176
     1
175
     1
176
     1
 42
1.0
176
     1
 92
        8
176
     1
 66
     7
176
     1
 43
1.0
176
     1
 76
     1
176
     1
 77
     6
176
     1
 78
     2
176
     1
 67
     7
176
     1
 79
     5
176
     1
170
     0
176
     1
171
     0
176
     1
290
     0
176
     1
 93
        1
176
     1
 44
-50.0
176
     1
173
     0
176
     1
  0
VISUALSTYLE
  5
39
102
{ACAD_REACTORS
330
2A
102
}
330
2A
100
AcDbVisualStyle
  2
Facepattern
 70
    15
177
     2
291
     1
 71
     2
176
     1
 72
     2
176
     1
 73
     0
176
     1
 90
        0
176
     1
 40
-0.6
176
     1
 41
-30.0
176
     1
 62
     5
 63
     7
421
 16777215
176
     1
 74
     1
176
     1
 91
        4
176
     1
 64
     7
176
     1
 65
   257
176
     1
 75
     1
176
     1
175
     1
176
     1
 42
1.0
176
     1
 92
        8
176
     1
 66
     7
176
     1
 43
1.0
176
     1
 76
     1
176
     1
 77
     6
176
     1
 78
     2
176
     1
 67
     7
176
     1
 79
     5
176
     1
170
     0
176
     1
171
     0
176
     1
290
     0
176
     1
 93
        1
176
     1
 44
0.0
176
     1
173
     0
176
     1
  0
VISUALSTYLE
  5
2B
102
{ACAD_REACTORS
330
2A
102
}
330
2A
100
AcDbVisualStyle
  2
Flat
 70
     0
177
     2
291
     1
 71
     2
176
     1
 72
     1
176
     1
 73
     1
176
     1
 90
        2
176
     1
 40
-0.6
176
     1
 41
30.0
176
     1
 62
     5
 63
     7
421
 16777215
176
     1
 74
     0
176
     1
 91
        4
176
     1
 64
     7
176
     1
 65
   257
176
     1
 75
     1
176
     1
175
     1
176
     1
 42
1.0
176
     1
 92
        8
176
     1
 66
     7
176
     1
 43
1.0
176
     1
 76
     1
176
     1
 77
     6
176
     1
 78
     2
176
     1
 67
     7
176
     1
 79
     5
176
     1
170
     0
176
     1
171
     0
176
     1
290
     0
176
     1
 93
       13
176
     1
 44
0.0
176
     1
173
     0
176
     1
  0
VISUALSTYLE
  5
2C
102
{ACAD_REACTORS
330
2A
102
}
330
2A
100
AcDbVisualStyle
  2
FlatWithEdges
 70
     1
177
     2
291
     1
 71
     2
176
     1
 72
     1
176
     1
 73
     1
176
     1
 90
        2
176
     1
 40
-0.6
176
     1
 41
30.0
176
     1
 62
     5
 63
     7
421
 16777215
176
     1
 74
     1
176
     1
 91
        4
176
     1
 64
     7
176
     1
 65
   257
176
     1
 75
     1
176
     1
175
     1
176
     1
 42
1.0
176
     1
 92
        0
176
     1
 66
   257
176
     1
 43
1.0
176
     1
 76
     1
176
     1
 77
     6
176
     1
 78
     2
176
     1
 67
     7
176
     1
 79
     5
176
     1
170
     0
176
     1
171
     0
176
     1
290
     0
176
     1
 93
       13
176
     1
 44
0.0
176
     1
173
     0
176
     1
  0
VISUALSTYLE
  5
2D
102
{ACAD_REACTORS
330
2A
102
}
330
2A
100
AcDbVisualStyle
  2
Gouraud
 70
     2
177
     2
291
     1
 71
     2
176
     1
 72
     2
176
     1
 73
     1
176
     1
 90
        2
176
     1
 40
-0.6
176
     1
 41
30.0
176
     1
 62
     5
 63
     7
421
 16777215
176
     1
 74
     0
176
     1
 91
        4
176
     1
 64
     7
176
     1
 65
   257
176
     1
 75
     1
176
     1
175
     1
176
     1
 42
1.0
176
     1
 92
        0
176
     1
 66
     7
176
     1
 43
1.0
176
     1
 76
     1
176
     1
 77
     6
176
     1
 78
     2
176
     1
 67
     7
176
     1
 79
     5
176
     1
170
     0
176
     1
171
     0
176
     1
290
     0
176
     1
 93
       13
176
     1
 44
0.0
176
     1
173
     0
176
     1
  0
VISUALSTYLE
  5
2E
102
{ACAD_REACTORS
330
2A
102
}
330
2A
100
AcDbVisualStyle
  2
GouraudWithEdges
 70
     3
177
     2
291
     1
 71
     2
176
     1
 72
     2
176
     1
 73
     1
176
     1
 90
        2
176
     1
 40
-0.6
176
     1
 41
30.0
176
     1
 62
     5
 63
     7
421
 16777215
176
     1
 74
     1
176
     1
 91
        4
176
     1
 64
     7
176
     1
 65
   257
176
     1
 75
     1
176
     1
175
     1
176
     1
 42
1.0
176
     1
 92
        0
176
     1
 66
   257
176
     1
 43
1.0
176
     1
 76
     1
176
     1
 77
     6
176
     1
 78
     2
176
     1
 67
     7
176
     1
 79
     5
176
     1
170
     0
176
     1
171
     0
176
     1
290
     0
176
     1
 93
       13
176
     1
 44
0.0
176
     1
173
     0
176
     1
  0
VISUALSTYLE
  5
38
102
{ACAD_REACTORS
330
2A
102
}
330
2A
100
AcDbVisualStyle
  2
Linepattern
 70
    14
177
     2
291
     1
 71
     2
176
     1
 72
     2
176
     1
 73
     0
176
     1
 90
        0
176
     1
 40
-0.6
176
     1
 41
-30.0
176
     1
 62
     5
 63
     7
421
 16777215
176
     1
 74
     1
176
     1
 91
        4
176
     1
 64
     7
176
     1
 65
   257
176
     1
 75
     7
176
     1
175
     7
176
     1
 42
1.0
176
     1
 92
        8
176
     1
 66
     7
176
     1
 43
1.0
176
     1
 76
     1
176
     1
 77
     6
176
     1
 78
     2
176
     1
 67
     7
176
     1
 79
     5
176
     1
170
     0
176
     1
171
     0
176
     1
290
     0
176
     1
 93
        1
176
     1
 44
0.0
176
     1
173
     0
176
     1
  0
VISUALSTYLE
  5
33
102
{ACAD_REACTORS
330
2A
102
}
330
2A
100
AcDbVisualStyle
  2
Realistic
 70
     8
177
     2
291
     0
 71
     2
176
     1
 72
     2
176
     1
 73
     0
176
     1
 90
        0
176
     1
 40
-0.6
176
     1
 41
-30.0
176
     1
 62
     5
 63
     7
421
 16777215
176
     1
 74
     1
176
     1
 91
        0
176
     1
 64
     7
176
     1
 65
   257
176
     1
 75
     1
176
     1
175
     1
176
     1
 42
1.0
176
     1
 92
        8
176
     1
 66
     8
424
  7895160
176
     1
 43
1.0
176
     1
 76
     1
176
     1
 77
     6
176
     1
 78
     2
176
     1
 67
     7
176
     1
 79
     5
176
     1
170
     0
176
     1
171
     0
176
     1
290
     0
176
     1
 93
       13
176
     1
 44
0.0
176
     1
173
     0
176
     1
  0
VISUALSTYLE
  5
37
102
{ACAD_REACTORS
330
2A
102
}
330
2A
100
AcDbVisualStyle
  2
Thicken
 70
    13
177
     2
291
     1
 71
     2
176
     1
 72
     2
176
     1
 73
     0
176
     1
 90
        0
176
     1
 40
-0.6
176
     1
 41
-30.0
176
     1
 62
     5
 63
     7
421
 16777215
176
     1
 74
     1
176
     1
 91
        4
176
     1
 64
     7
176
     1
 65
   257
176
     1
 75
     1
176
     1
175
     1
176
     1
 42
1.0
176
     1
 92
       12
176
     1
 66
     7
176
     1
 43
1.0
176
     1
 76
     1
176
     1
 77
     6
176
     1
 78
     2
176
     1
 67
     7
176
     1
 79
     5
176
     1
170
     0
176
     1
171
     0
176
     1
290
     0
176
     1
 93
        1
176
     1
 44
0.0
176
     1
173
     0
176
     1
  0
ENDSEC
  0
EOF
