  0
SECTION
  2
HEADER
  9
$ACADVER
  1
AC1024
  9
$ACADMAINTVER
 70
     6
  9
$DWGCODEPAGE
  3
UNDEFINED
  9
$INSBASE
 10
0.0
 20
0.0
 30
0.0
  9
$EXTMIN
 10
1.000000000000000E+20
 20
1.000000000000000E+20
 30
1.000000000000000E+20
  9
$EXTMAX
 10
-1.000000000000000E+20
 20
-1.000000000000000E+20
 30
-1.000000000000000E+20
  9
$LIMMIN
 10
0.0
 20
0.0
  9
$LIMMAX
 10
12.0
 20
9.0
  9
$ORTHOMODE
 70
     0
  9
$REGENMODE
 70
     1
  9
$FILLMODE
 70
     1
  9
$QTEXTMODE
 70
     0
  9
$MIRRTEXT
 70
     1
  9
$LTSCALE
 40
1.0
  9
$ATTMODE
 70
     1
  9
$TEXTSIZE
 40
0.2
  9
$TRACEWID
 40
0.05
  9
$TEXTSTYLE
  7
Standard
  9
$CLAYER
  8
0
  9
$CELTYPE
  6
ByLayer
  9
$CECOLOR
 62
   256
  9
$CELTSCALE
 40
1.0
  9
$DISPSILH
 70
     0
  9
$DIMSCALE
 40
1.0
  9
$DIMASZ
 40
0.18
  9
$DIMEXO
 40
0.0625
  9
$DIMDLI
 40
0.38
  9
$DIMRND
 40
0.0
  9
$DIMDLE
 40
0.0
  9
$DIMEXE
 40
0.18
  9
$DIMTP
 40
0.0
  9
$DIMTM
 40
0.0
  9
$DIMTXT
 40
0.18
  9
$DIMCEN
 40
0.09
  9
$DIMTSZ
 40
0.0
  9
$DIMTOL
 70
     0
  9
$DIMLIM
 70
     0
  9
$DIMTIH
 70
     1
  9
$DIMTOH
 70
     1
  9
$DIMSE1
 70
     0
  9
$DIMSE2
 70
     0
  9
$DIMTAD
 70
     0
  9
$DIMZIN
 70
     0
  9
$DIMBLK
  1

  9
$DIMASO
 70
     1
  9
$DIMSHO
 70
     1
  9
$DIMPOST
  1

  9
$DIMAPOST
  1

  9
$DIMALT
 70
     0
  9
$DIMALTD
 70
     2
  9
$DIMALTF
 40
25.4
  9
$DIMLFAC
 40
1.0
  9
$DIMTOFL
 70
     0
  9
$DIMTVP
 40
0.0
  9
$DIMTIX
 70
     0
  9
$DIMSOXD
 70
     0
  9
$DIMSAH
 70
     0
  9
$DIMBLK1
  1

  9
$DIMBLK2
  1

  9
$DIMSTYLE
  2
Standard
  9
$DIMCLRD
 70
     0
  9
$DIMCLRE
 70
     0
  9
$DIMCLRT
 70
     0
  9
$DIMTFAC
 40
1.0
  9
$DIMGAP
 40
0.09
  9
$DIMJUST
 70
     0
  9
$DIMSD1
 70
     0
  9
$DIMSD2
 70
     0
  9
$DIMTOLJ
 70
     1
  9
$DIMTZIN
 70
     0
  9
$DIMALTZ
 70
     0
  9
$DIMALTTZ
 70
     0
  9
$DIMUPT
 70
     0
  9
$DIMDEC
 70
     4
  9
$DIMTDEC
 70
     4
  9
$DIMALTU
 70
     2
  9
$DIMALTTD
 70
     2
  9
$DIMTXSTY
  7
Standard
  9
$DIMAUNIT
 70
     0
  9
$DIMADEC
 70
     0
  9
$DIMALTRND
 40
0.0
  9
$DIMAZIN
 70
     0
  9
$DIMDSEP
 70
    46
  9
$DIMATFIT
 70
     3
  9
$DIMFRAC
 70
     0
  9
$DIMLDRBLK
  1

  9
$DIMLUNIT
 70
     2
  9
$DIMLWD
 70
    -2
  9
$DIMLWE
 70
    -2
  9
$DIMTMOVE
 70
     0
  9
$DIMFXL
 40
1.0
  9
$DIMFXLON
 70
     0
  9
$DIMJOGANG
 40
0.7853981633974483
  9
$DIMTFILL
 70
     0
  9
$DIMTFILLCLR
 70
     0
  9
$DIMARCSYM
 70
     0
  9
$DIMLTYPE
  6

  9
$DIMLTEX1
  6

  9
$DIMLTEX2
  6

  9
$DIMTXTDIRECTION
 70
     0
  9
$LUNITS
 70
     2
  9
$LUPREC
 70
     4
  9
$SKETCHINC
 40
0.1
  9
$FILLETRAD
 40
0.5
  9
$AUNITS
 70
     0
  9
$AUPREC
 70
     0
  9
$MENU
  1
.
  9
$ELEVATION
 40
0.0
  9
$PELEVATION
 40
0.0
  9
$THICKNESS
 40
0.0
  9
$LIMCHECK
 70
     0
  9
$CHAMFERA
 40
0.5
  9
$CHAMFERB
 40
0.5
  9
$CHAMFERC
 40
1.0
  9
$CHAMFERD
 40
0.0
  9
$SKPOLY
 70
     0
  9
$TDCREATE
 40
2457917.601377315
  9
$TDUCREATE
 40
2457917.226377315
  9
$TDUPDATE
 40
2457917.601377315
  9
$TDUUPDATE
 40
2457917.226377315
  9
$TDINDWG
 40
0.0000000116
  9
$TDUSRTIMER
 40
0.0000000116
  9
$USRTIMER
 70
     1
  9
$ANGBASE
 50
0.0
  9
$ANGDIR
 70
     0
  9
$PDMODE
 70
     0
  9
$PDSIZE
 40
0.0
  9
$PLINEWID
 40
0.0
  9
$SPLFRAME
 70
     0
  9
$SPLINETYPE
 70
     6
  9
$SPLINESEGS
 70
     8
  9
$HANDSEED
  5
113
  9
$SURFTAB1
 70
     6
  9
$SURFTAB2
 70
     6
  9
$SURFTYPE
 70
     6
  9
$SURFU
 70
     6
  9
$SURFV
 70
     6
  9
$UCSBASE
  2

  9
$UCSNAME
  2

  9
$UCSORG
 10
0.0
 20
0.0
 30
0.0
  9
$UCSXDIR
 10
1.0
 20
0.0
 30
0.0
  9
$UCSYDIR
 10
0.0
 20
1.0
 30
0.0
  9
$UCSORTHOREF
  2

  9
$UCSORTHOVIEW
 70
     0
  9
$UCSORGTOP
 10
0.0
 20
0.0
 30
0.0
  9
$UCSORGBOTTOM
 10
0.0
 20
0.0
 30
0.0
  9
$UCSORGLEFT
 10
0.0
 20
0.0
 30
0.0
  9
$UCSORGRIGHT
 10
0.0
 20
0.0
 30
0.0
  9
$UCSORGFRONT
 10
0.0
 20
0.0
 30
0.0
  9
$UCSORGBACK
 10
0.0
 20
0.0
 30
0.0
  9
$PUCSBASE
  2

  9
$PUCSNAME
  2

  9
$PUCSORG
 10
0.0
 20
0.0
 30
0.0
  9
$PUCSXDIR
 10
1.0
 20
0.0
 30
0.0
  9
$PUCSYDIR
 10
0.0
 20
1.0
 30
0.0
  9
$PUCSORTHOREF
  2

  9
$PUCSORTHOVIEW
 70
     0
  9
$PUCSORGTOP
 10
0.0
 20
0.0
 30
0.0
  9
$PUCSORGBOTTOM
 10
0.0
 20
0.0
 30
0.0
  9
$PUCSORGLEFT
 10
0.0
 20
0.0
 30
0.0
  9
$PUCSORGRIGHT
 10
0.0
 20
0.0
 30
0.0
  9
$PUCSORGFRONT
 10
0.0
 20
0.0
 30
0.0
  9
$PUCSORGBACK
 10
0.0
 20
0.0
 30
0.0
  9
$USERI1
 70
     0
  9
$USERI2
 70
     0
  9
$USERI3
 70
     0
  9
$USERI4
 70
     0
  9
$USERI5
 70
     0
  9
$USERR1
 40
0.0
  9
$USERR2
 40
0.0
  9
$USERR3
 40
0.0
  9
$USERR4
 40
0.0
  9
$USERR5
 40
0.0
  9
$WORLDVIEW
 70
     1
  9
$SHADEDGE
 70
     3
  9
$SHADEDIF
 70
    70
  9
$TILEMODE
 70
     1
  9
$MAXACTVP
 70
    64
  9
$PINSBASE
 10
0.0
 20
0.0
 30
0.0
  9
$PLIMCHECK
 70
     0
  9
$PEXTMIN
 10
1.000000000000000E+20
 20
1.000000000000000E+20
 30
1.000000000000000E+20
  9
$PEXTMAX
 10
-1.000000000000000E+20
 20
-1.000000000000000E+20
 30
-1.000000000000000E+20
  9
$PLIMMIN
 10
0.0
 20
0.0
  9
$PLIMMAX
 10
12.0
 20
9.0
  9
$UNITMODE
 70
     0
  9
$VISRETAIN
 70
     1
  9
$PLINEGEN
 70
     0
  9
$PSLTSCALE
 70
     1
  9
$TREEDEPTH
 70
  3020
  9
$CMLSTYLE
  2
Standard
  9
$CMLJUST
 70
     0
  9
$CMLSCALE
 40
1.0
  9
$PROXYGRAPHICS
 70
     1
  9
$MEASUREMENT
 70
     0
  9
$CELWEIGHT
370
    -1
  9
$ENDCAPS
280
     0
  9
$JOINSTYLE
280
     0
  9
$LWDISPLAY
290
     1
  9
$INSUNITS
 70
     1
  9
$HYPERLINKBASE
  1

  9
$STYLESHEET
  1

  9
$XEDIT
290
     1
  9
$CEPSNTYPE
380
     0
  9
$PSTYLEMODE
290
     1
  9
$FINGERPRINTGUID
  2
{38678107-861B-B05F-466D-09916F15BD2A}
  9
$VERSIONGUID
  2
{FAEB1C32-E019-11D5-929B-00C0DF256EC4}
  9
$EXTNAMES
290
     1
  9
$PSVPSCALE
 40
0.0
  9
$OLESTARTUP
290
     0
  9
$SORTENTS
280
   127
  9
$INDEXCTL
280
     0
  9
$HIDETEXT
280
     1
  9
$XCLIPFRAME
280
     2
  9
$HALOGAP
280
     0
  9
$OBSCOLOR
 70
   257
  9
$OBSLTYPE
280
     0
  9
$INTERSECTIONDISPLAY
280
     0
  9
$INTERSECTIONCOLOR
 70
   257
  9
$DIMASSOC
280
     2
  9
$PROJECTNAME
  1

  9
$CAMERADISPLAY
290
     0
  9
$LENSLENGTH
 40
50.0
  9
$CAMERAHEIGHT
 40
0.0
  9
$STEPSPERSEC
 40
2.0
  9
$STEPSIZE
 40
6.0
  9
$3DDWFPREC
 40
2.0
  9
$PSOLWIDTH
 40
0.25
  9
$PSOLHEIGHT
 40
4.0
  9
$LOFTANG1
 40
1.570796326794897
  9
$LOFTANG2
 40
1.570796326794897
  9
$LOFTMAG1
 40
0.0
  9
$LOFTMAG2
 40
0.0
  9
$LOFTPARAM
 70
     7
  9
$LOFTNORMALS
280
     1
  9
$LATITUDE
 40
37.795
  9
$LONGITUDE
 40
-122.394
  9
$NORTHDIRECTION
 40
0.0
  9
$TIMEZONE
 70
 -8000
  9
$LIGHTGLYPHDISPLAY
280
     1
  9
$TILEMODELIGHTSYNCH
280
     1
  9
$CMATERIAL
347
3C
  9
$SOLIDHIST
280
     1
  9
$SHOWHIST
280
     1
  9
$DWFFRAME
280
     2
  9
$DGNFRAME
280
     2
  9
$REALWORLDSCALE
290
     1
  9
$INTERFERECOLOR
 62
   256
  9
$CSHADOW
280
     0
  9
$SHADOWPLANELOCATION
 40
0.0
  0
ENDSEC
  0
SECTION
  2
CLASSES
  0
CLASS
  1
ACDBDICTIONARYWDFLT
  2
AcDbDictionaryWithDefault
  3
ObjectDBX Classes
 90
        0
 91
        4
280
     0
281
     0
  0
CLASS
  1
VISUALSTYLE
  2
AcDbVisualStyle
  3
ObjectDBX Classes
 90
     4095
 91
        4
280
     0
281
     0
  0
CLASS
  1
MATERIAL
  2
AcDbMaterial
  3
ObjectDBX Classes
 90
     1153
 91
        4
280
     0
281
     0
  0
CLASS
  1
SUN
  2
AcDbSun
  3
SCENEOE
 90
     1024
 91
        4
280
     0
281
     0
  0
ENDSEC
  0
SECTION
  2
TABLES
  0
TABLE
  2
VPORT
  5
8
330
0
100
AcDbSymbolTable
 70
     1
  0
VPORT
  5
29
330
8
100
AcDbSymbolTableRecord
100
AcDbViewportTableRecord
  2
*Active
 70
     0
 10
0.0
 20
0.0
 11
1.0
 21
1.0
 12
0.0
 22
0.0
 13
0.0
 23
0.0
 14
0.5
 24
0.5
 15
0.5
 25
0.5
 16
0.0
 26
0.0
 36
1.0
 17
105.0008280156501
 27
-148.4999710739862
 37
0.0
 40
296.9999421479724
 41
0.7070764206636528
 42
50.0
 43
0.0
 44
0.0
 50
0.0
 51
0.0
 71
     0
 72
   100
 73
     1
 74
     3
 75
     0
 76
     0
 77
     0
 78
     0
281
     0
 65
     1
110
0.0
120
0.0
130
0.0
111
1.0
121
0.0
131
0.0
112
0.0
122
1.0
132
0.0
 79
     0
146
0.0
 60
     3
 61
     5
292
     1
282
     1
141
0.0
142
0.0
 63
   250
361
3F
  0
ENDTAB
  0
TABLE
  2
LTYPE
  5
5
330
0
100
AcDbSymbolTable
 70
     1
  0
LTYPE
  5
14
330
5
100
AcDbSymbolTableRecord
100
AcDbLinetypeTableRecord
  2
ByBlock
 70
     0
  3

 72
    65
 73
     0
 40
0.0
  0
LTYPE
  5
15
330
5
100
AcDbSymbolTableRecord
100
AcDbLinetypeTableRecord
  2
ByLayer
 70
     0
  3

 72
    65
 73
     0
 40
0.0
  0
LTYPE
  5
16
330
5
100
AcDbSymbolTableRecord
100
AcDbLinetypeTableRecord
  2
Continuous
 70
     0
  3
Solid line
 72
    65
 73
     0
 40
0.0
  0
ENDTAB
  0
TABLE
  2
LAYER
  5
2
330
0
100
AcDbSymbolTable
 70
     2
  0
LAYER
  5
10
330
2
100
AcDbSymbolTableRecord
100
AcDbLayerTableRecord
  2
0
 70
     0
 62
     7
  6
Continuous
370
    -3
390
F
347
3E
  0
LAYER
  5
40
330
2
100
AcDbSymbolTableRecord
100
AcDbLayerTableRecord
  2
_U+30EC_U+30A4_U+30E4_U+30FC 1
 70
     0
 62
     7
  6
Continuous
370
    -3
390
F
347
3E
  0
ENDTAB
  0
TABLE
  2
STYLE
  5
3
330
0
100
AcDbSymbolTable
 70
     1
  0
STYLE
  5
11
330
3
100
AcDbSymbolTableRecord
100
AcDbTextStyleTableRecord
  2
Standard
 70
     0
 40
0.0
 41
1.0
 50
0.0
 71
     0
 42
0.2
  3
txt
  4

  0
ENDTAB
  0
TABLE
  2
VIEW
  5
6
330
0
100
AcDbSymbolTable
 70
     0
  0
ENDTAB
  0
TABLE
  2
UCS
  5
7
330
0
100
AcDbSymbolTable
 70
     0
  0
ENDTAB
  0
TABLE
  2
APPID
  5
9
330
0
100
AcDbSymbolTable
 70
     1
  0
APPID
  5
12
330
9
100
AcDbSymbolTableRecord
100
AcDbRegAppTableRecord
  2
ACAD
 70
     0
  0
ENDTAB
  0
TABLE
  2
DIMSTYLE
  5
A
330
0
100
AcDbSymbolTable
 70
     1
100
AcDbDimStyleTable
  0
DIMSTYLE
105
27
330
A
100
AcDbSymbolTableRecord
100
AcDbDimStyleTableRecord
  2
Standard
 70
     0
178
     0
340
11
  0
ENDTAB
  0
TABLE
  2
BLOCK_RECORD
  5
1
330
0
100
AcDbSymbolTable
 70
    12
  0
BLOCK_RECORD
  5
1F
330
1
100
AcDbSymbolTableRecord
100
AcDbBlockTableRecord
  2
*Model_Space
340
22
 70
     0
280
     1
281
     0
  0
BLOCK_RECORD
  5
1B
330
1
100
AcDbSymbolTableRecord
100
AcDbBlockTableRecord
  2
*Paper_Space
340
1E
 70
     0
280
     1
281
     0
  0
BLOCK_RECORD
  5
23
330
1
100
AcDbSymbolTableRecord
100
AcDbBlockTableRecord
  2
*Paper_Space0
340
26
 70
     0
280
     1
281
     0
  0
BLOCK_RECORD
  5
41
330
1
100
AcDbSymbolTableRecord
100
AcDbBlockTableRecord
  2
block 2
340
0
102
{BLKREFS
331
42
102
}
 70
     0
280
     1
281
     0
  0
BLOCK_RECORD
  5
6D
330
1
100
AcDbSymbolTableRecord
100
AcDbBlockTableRecord
  2
block 3
340
0
102
{BLKREFS
331
6E
102
}
 70
     0
280
     1
281
     0
  0
BLOCK_RECORD
  5
7D
330
1
100
AcDbSymbolTableRecord
100
AcDbBlockTableRecord
  2
block 4
340
0
102
{BLKREFS
331
7E
102
}
 70
     0
280
     1
281
     0
  0
BLOCK_RECORD
  5
83
330
1
100
AcDbSymbolTableRecord
100
AcDbBlockTableRecord
  2
block 5
340
0
102
{BLKREFS
331
84
102
}
 70
     0
280
     1
281
     0
  0
BLOCK_RECORD
  5
8F
330
1
100
AcDbSymbolTableRecord
100
AcDbBlockTableRecord
  2
block 6
340
0
102
{BLKREFS
331
90
102
}
 70
     0
280
     1
281
     0
  0
BLOCK_RECORD
  5
97
330
1
100
AcDbSymbolTableRecord
100
AcDbBlockTableRecord
  2
block 7
340
0
102
{BLKREFS
331
98
102
}
 70
     0
280
     1
281
     0
  0
BLOCK_RECORD
  5
AB
330
1
100
AcDbSymbolTableRecord
100
AcDbBlockTableRecord
  2
block 8
340
0
102
{BLKREFS
331
AC
102
}
 70
     0
280
     1
281
     0
  0
BLOCK_RECORD
  5
BC
330
1
100
AcDbSymbolTableRecord
100
AcDbBlockTableRecord
  2
block 9
340
0
102
{BLKREFS
331
BD
102
}
 70
     0
280
     1
281
     0
  0
BLOCK_RECORD
  5
CC
330
1
100
AcDbSymbolTableRecord
100
AcDbBlockTableRecord
  2
block 10
340
0
102
{BLKREFS
331
CD
102
}
 70
     0
280
     1
281
     0
  0
BLOCK_RECORD
  5
DD
330
1
100
AcDbSymbolTableRecord
100
AcDbBlockTableRecord
  2
block 11
340
0
102
{BLKREFS
331
DE
102
}
 70
     0
280
     1
281
     0
  0
BLOCK_RECORD
  5
ED
330
1
100
AcDbSymbolTableRecord
100
AcDbBlockTableRecord
  2
block 12
340
0
102
{BLKREFS
331
EE
102
}
 70
     0
280
     1
281
     0
  0
ENDTAB
  0
ENDSEC
  0
SECTION
  2
BLOCKS
  0
BLOCK
  5
20
330
1F
100
AcDbEntity
  8
0
100
AcDbBlockBegin
  2
*Model_Space
 70
     0
 10
0.0
 20
0.0
 30
0.0
  3
*Model_Space
  1

  0
ENDBLK
  5
21
330
1F
100
AcDbEntity
  8
0
100
AcDbBlockEnd
  0
BLOCK
  5
1C
330
1B
100
AcDbEntity
 67
     1
  8
0
100
AcDbBlockBegin
  2
*Paper_Space
 70
     0
 10
0.0
 20
0.0
 30
0.0
  3
*Paper_Space
  1

  0
ENDBLK
  5
1D
330
1B
100
AcDbEntity
 67
     1
  8
0
100
AcDbBlockEnd
  0
BLOCK
  5
24
330
23
100
AcDbEntity
  8
0
100
AcDbBlockBegin
  2
*Paper_Space0
 70
     0
 10
0.0
 20
0.0
 30
0.0
  3
*Paper_Space0
  1

  0
ENDBLK
  5
25
330
23
100
AcDbEntity
  8
0
100
AcDbBlockEnd
  0
BLOCK
  5
43
330
41
100
AcDbEntity
  8
0
100
AcDbBlockBegin
  2
block 2
 70
     0
 10
0.0
 20
0.0
 30
0.0
  3
block 2
  1

  0
POLYLINE
  5
45
330
41
100
AcDbEntity
  8
_U+30EC_U+30A4_U+30E4_U+30FC 1
 62
   179
420
  2234388
370
    25
100
AcDb2dPolyline
 66
     1
 10
0.0
 20
0.0
 30
0.0
  0
VERTEX
  5
46
330
45
100
AcDbEntity
  8
_U+30EC_U+30A4_U+30E4_U+30FC 1
 62
   179
420
  2234388
370
    25
100
AcDbVertex
100
AcDb2dVertex
 10
94.022860101277
 20
-144.4232357972277
 30
0.0
  0
VERTEX
  5
47
330
45
100
AcDbEntity
  8
_U+30EC_U+30A4_U+30E4_U+30FC 1
 62
   179
420
  2234388
370
    25
100
AcDbVertex
100
AcDb2dVertex
 10
97.11379307797628
 20
-144.4232357972277
 30
0.0
  0
SEQEND
  5
48
330
45
100
AcDbEntity
  8
_U+30EC_U+30A4_U+30E4_U+30FC 1
 62
   179
420
  2234388
370
    25
  0
POLYLINE
  5
49
330
41
100
AcDbEntity
  8
_U+30EC_U+30A4_U+30E4_U+30FC 1
 62
   179
420
  2234388
370
    25
100
AcDb2dPolyline
 66
     1
 10
0.0
 20
0.0
 30
0.0
  0
VERTEX
  5
4A
330
49
100
AcDbEntity
  8
_U+30EC_U+30A4_U+30E4_U+30FC 1
 62
   179
420
  2234388
370
    25
100
AcDbVertex
100
AcDb2dVertex
 10
96.01376386488543
 20
-145.4230080191999
 30
0.0
  0
VERTEX
  5
4B
330
49
100
AcDbEntity
  8
_U+30EC_U+30A4_U+30E4_U+30FC 1
 62
   179
420
  2234388
370
    25
100
AcDbVertex
100
AcDb2dVertex
 10
96.01376386488543
 20
-155.0227616279112
 30
0.0
  0
SEQEND
  5
4C
330
49
100
AcDbEntity
  8
_U+30EC_U+30A4_U+30E4_U+30FC 1
 62
   179
420
  2234388
370
    25
  0
POLYLINE
  5
4D
330
41
100
AcDbEntity
  8
_U+30EC_U+30A4_U+30E4_U+30FC 1
 62
   179
420
  2234388
370
    25
100
AcDb2dPolyline
 66
     1
 10
0.0
 20
0.0
 30
0.0
  0
VERTEX
  5
4E
330
4D
100
AcDbEntity
  8
_U+30EC_U+30A4_U+30E4_U+30FC 1
 62
   179
420
  2234388
370
    25
100
AcDbVertex
100
AcDb2dVertex
 10
94.022860101277
 20
-145.4230080191999
 30
0.0
  0
VERTEX
  5
4F
330
4D
100
AcDbEntity
  8
_U+30EC_U+30A4_U+30E4_U+30FC 1
 62
   179
420
  2234388
370
    25
100
AcDbVertex
100
AcDb2dVertex
 10
96.01376386488543
 20
-145.4230080191999
 30
0.0
  0
SEQEND
  5
50
330
4D
100
AcDbEntity
  8
_U+30EC_U+30A4_U+30E4_U+30FC 1
 62
   179
420
  2234388
370
    25
  0
POLYLINE
  5
51
330
41
100
AcDbEntity
  8
_U+30EC_U+30A4_U+30E4_U+30FC 1
 62
   179
420
  2234388
370
    25
100
AcDb2dPolyline
 66
     1
 10
0.0
 20
0.0
 30
0.0
  0
VERTEX
  5
52
330
51
100
AcDbEntity
  8
_U+30EC_U+30A4_U+30E4_U+30FC 1
 62
   179
420
  2234388
370
    25
100
AcDbVertex
100
AcDb2dVertex
 10
94.022860101277
 20
-144.4232357972277
 30
0.0
  0
VERTEX
  5
53
330
51
100
AcDbEntity
  8
_U+30EC_U+30A4_U+30E4_U+30FC 1
 62
   179
420
  2234388
370
    25
100
AcDbVertex
100
AcDb2dVertex
 10
94.022860101277
 20
-145.4230080191999
 30
0.0
  0
SEQEND
  5
54
330
51
100
AcDbEntity
  8
_U+30EC_U+30A4_U+30E4_U+30FC 1
 62
   179
420
  2234388
370
    25
  0
POLYLINE
  5
55
330
41
100
AcDbEntity
  8
_U+30EC_U+30A4_U+30E4_U+30FC 1
 62
   179
420
  2234388
370
    25
100
AcDb2dPolyline
 66
     1
 10
0.0
 20
0.0
 30
0.0
  0
VERTEX
  5
56
330
55
100
AcDbEntity
  8
_U+30EC_U+30A4_U+30E4_U+30FC 1
 62
   179
420
  2234388
370
    25
100
AcDbVertex
100
AcDb2dVertex
 10
97.11379307797628
 20
-144.4232357972277
 30
0.0
  0
VERTEX
  5
57
330
55
100
AcDbEntity
  8
_U+30EC_U+30A4_U+30E4_U+30FC 1
 62
   179
420
  2234388
370
    25
100
AcDbVertex
100
AcDb2dVertex
 10
97.11379307797628
 20
-153.923082739297
 30
0.0
  0
SEQEND
  5
58
330
55
100
AcDbEntity
  8
_U+30EC_U+30A4_U+30E4_U+30FC 1
 62
   179
420
  2234388
370
    25
  0
POLYLINE
  5
59
330
41
100
AcDbEntity
  8
_U+30EC_U+30A4_U+30E4_U+30FC 1
 62
   179
420
  2234388
370
    25
100
AcDb2dPolyline
 66
     1
 10
0.0
 20
0.0
 30
0.0
  0
VERTEX
  5
5A
330
59
100
AcDbEntity
  8
_U+30EC_U+30A4_U+30E4_U+30FC 1
 62
   179
420
  2234388
370
    25
100
AcDbVertex
100
AcDb2dVertex
 10
113.0139457278852
 20
-153.923082739297
 30
0.0
  0
VERTEX
  5
5B
330
59
100
AcDbEntity
  8
_U+30EC_U+30A4_U+30E4_U+30FC 1
 62
   179
420
  2234388
370
    25
100
AcDbVertex
100
AcDb2dVertex
 10
113.0139457278852
 20
-154.3233796836415
 30
0.0
  0
SEQEND
  5
5C
330
59
100
AcDbEntity
  8
_U+30EC_U+30A4_U+30E4_U+30FC 1
 62
   179
420
  2234388
370
    25
  0
POLYLINE
  5
5D
330
41
100
AcDbEntity
  8
_U+30EC_U+30A4_U+30E4_U+30FC 1
 62
   179
420
  2234388
370
    25
100
AcDb2dPolyline
 66
     1
 10
0.0
 20
0.0
 30
0.0
  0
VERTEX
  5
5E
330
5D
100
AcDbEntity
  8
_U+30EC_U+30A4_U+30E4_U+30FC 1
 62
   179
420
  2234388
370
    25
100
AcDbVertex
100
AcDb2dVertex
 10
97.11379307797628
 20
-153.923082739297
 30
0.0
  0
VERTEX
  5
5F
330
5D
100
AcDbEntity
  8
_U+30EC_U+30A4_U+30E4_U+30FC 1
 62
   179
420
  2234388
370
    25
100
AcDbVertex
100
AcDb2dVertex
 10
113.0139457278852
 20
-153.923082739297
 30
0.0
  0
SEQEND
  5
60
330
5D
100
AcDbEntity
  8
_U+30EC_U+30A4_U+30E4_U+30FC 1
 62
   179
420
  2234388
370
    25
  0
POLYLINE
  5
61
330
41
100
AcDbEntity
  8
_U+30EC_U+30A4_U+30E4_U+30FC 1
 62
   179
420
  2234388
370
    25
100
AcDb2dPolyline
 66
     1
 10
0.0
 20
0.0
 30
0.0
  0
VERTEX
  5
62
330
61
100
AcDbEntity
  8
_U+30EC_U+30A4_U+30E4_U+30FC 1
 62
   179
420
  2234388
370
    25
100
AcDbVertex
100
AcDb2dVertex
 10
113.0139457278852
 20
-154.3233796836415
 30
0.0
  0
VERTEX
  5
63
330
61
100
AcDbEntity
  8
_U+30EC_U+30A4_U+30E4_U+30FC 1
 62
   179
420
  2234388
370
    25
100
AcDbVertex
100
AcDb2dVertex
 10
96.01376386488543
 20
-155.0227616279112
 30
0.0
  0
SEQEND
  5
64
330
61
100
AcDbEntity
  8
_U+30EC_U+30A4_U+30E4_U+30FC 1
 62
   179
420
  2234388
370
    25
  0
SPLINE
  5
65
330
41
100
AcDbEntity
  8
_U+30EC_U+30A4_U+30E4_U+30FC 1
 62
   179
420
  2234388
370
     9
100
AcDbSpline
210
0.0
220
0.0
230
1.0
 70
    11
 71
     3
 72
    17
 73
    13
 74
     0
 42
0.0000000001
 43
0.0000000001
 12
1.0
 22
0.0
 32
0.0
 13
1.0
 23
0.0
 33
0.0
 40
0.0
 40
0.0
 40
0.0
 40
0.0
 40
1.0
 40
1.0
 40
1.0
 40
2.0
 40
2.0
 40
2.0
 40
3.0
 40
3.0
 40
3.0
 40
4.0
 40
4.0
 40
4.0
 40
4.0
 10
117.114281734388
 20
-144.4232357972277
 30
0.0
 10
117.114281734388
 20
-144.3680966305746
 30
0.0
 10
117.0695142355301
 20
-144.3233291305857
 30
0.0
 10
117.0137047925095
 20
-144.3233291305857
 30
0.0
 10
116.9585656272495
 20
-144.3233291305857
 30
0.0
 10
116.9137981283916
 20
-144.3680966305746
 30
0.0
 10
116.9137981283916
 20
-144.4232357972277
 30
0.0
 10
116.9137981283916
 20
-144.4783396861026
 30
0.0
 10
116.9585656272495
 20
-144.5231424638693
 30
0.0
 10
117.0137047925095
 20
-144.5231424638693
 30
0.0
 10
117.0695142355301
 20
-144.5231424638693
 30
0.0
 10
117.114281734388
 20
-144.4783396861026
 30
0.0
 10
117.114281734388
 20
-144.4232357972277
 30
0.0
  0
SPLINE
  5
66
330
41
100
AcDbEntity
  8
_U+30EC_U+30A4_U+30E4_U+30FC 1
 62
   179
420
  2234388
370
     9
100
AcDbSpline
210
0.0
220
0.0
230
1.0
 70
    11
 71
     3
 72
    17
 73
    13
 74
     0
 42
0.0000000001
 43
0.0000000001
 12
1.0
 22
0.0
 32
0.0
 13
1.0
 23
0.0
 33
0.0
 40
0.0
 40
0.0
 40
0.0
 40
0.0
 40
1.0
 40
1.0
 40
1.0
 40
2.0
 40
2.0
 40
2.0
 40
3.0
 40
3.0
 40
3.0
 40
4.0
 40
4.0
 40
4.0
 40
4.0
 10
117.114281734388
 20
-153.923082739297
 30
0.0
 10
117.114281734388
 20
-153.8679435726439
 30
0.0
 10
117.0695142355301
 20
-153.8231760726553
 30
0.0
 10
117.0137047925095
 20
-153.8231760726553
 30
0.0
 10
116.9585656272495
 20
-153.8231760726553
 30
0.0
 10
116.9137981283916
 20
-153.8679435726439
 30
0.0
 10
116.9137981283916
 20
-153.923082739297
 30
0.0
 10
116.9137981283916
 20
-153.9781866281719
 30
0.0
 10
116.9585656272495
 20
-154.0229894059386
 30
0.0
 10
117.0137047925095
 20
-154.0229894059386
 30
0.0
 10
117.0695142355301
 20
-154.0229894059386
 30
0.0
 10
117.114281734388
 20
-153.9781866281719
 30
0.0
 10
117.114281734388
 20
-153.923082739297
 30
0.0
  0
SPLINE
  5
67
330
41
100
AcDbEntity
  8
_U+30EC_U+30A4_U+30E4_U+30FC 1
 62
   179
420
  2234388
370
     9
100
AcDbSpline
210
0.0
220
0.0
230
1.0
 70
    11
 71
     3
 72
    17
 73
    13
 74
     0
 42
0.0000000001
 43
0.0000000001
 12
1.0
 22
0.0
 32
0.0
 13
1.0
 23
0.0
 33
0.0
 40
0.0
 40
0.0
 40
0.0
 40
0.0
 40
1.0
 40
1.0
 40
1.0
 40
2.0
 40
2.0
 40
2.0
 40
3.0
 40
3.0
 40
3.0
 40
4.0
 40
4.0
 40
4.0
 40
4.0
 10
117.114281734388
 20
-154.3233796836415
 30
0.0
 10
117.114281734388
 20
-154.2675702392111
 30
0.0
 10
117.0695142355301
 20
-154.2228027392219
 30
0.0
 10
117.0137047925095
 20
-154.2228027392219
 30
0.0
 10
116.9585656272495
 20
-154.2228027392219
 30
0.0
 10
116.9137981283916
 20
-154.2675702392111
 30
0.0
 10
116.9137981283916
 20
-154.3233796836415
 30
0.0
 10
116.9137981283916
 20
-154.378518850294
 30
0.0
 10
116.9585656272495
 20
-154.4233216280607
 30
0.0
 10
117.0137047925095
 20
-154.4233216280607
 30
0.0
 10
117.0695142355301
 20
-154.4233216280607
 30
0.0
 10
117.114281734388
 20
-154.378518850294
 30
0.0
 10
117.114281734388
 20
-154.3233796836415
 30
0.0
  0
SPLINE
  5
68
330
41
100
AcDbEntity
  8
_U+30EC_U+30A4_U+30E4_U+30FC 1
 62
   179
420
  2234388
370
     9
100
AcDbSpline
210
0.0
220
0.0
230
1.0
 70
    11
 71
     3
 72
    17
 73
    13
 74
     0
 42
0.0000000001
 43
0.0000000001
 12
1.0
 22
0.0
 32
0.0
 13
1.0
 23
0.0
 33
0.0
 40
0.0
 40
0.0
 40
0.0
 40
0.0
 40
1.0
 40
1.0
 40
1.0
 40
2.0
 40
2.0
 40
2.0
 40
3.0
 40
3.0
 40
3.0
 40
4.0
 40
4.0
 40
4.0
 40
4.0
 10
113.113852392003
 20
-159.0231910713554
 30
0.0
 10
113.113852392003
 20
-158.9680871824805
 30
0.0
 10
113.0690496153682
 20
-158.9232844047138
 30
0.0
 10
113.0139457278852
 20
-158.9232844047138
 30
0.0
 10
112.9588065626252
 20
-158.9232844047138
 30
0.0
 10
112.9140390637673
 20
-158.9680871824805
 30
0.0
 10
112.9140390637673
 20
-159.0231910713554
 30
0.0
 10
112.9140390637673
 20
-159.0783302380085
 30
0.0
 10
112.9588065626252
 20
-159.1230977379971
 30
0.0
 10
113.0139457278852
 20
-159.1230977379971
 30
0.0
 10
113.0690496153682
 20
-159.1230977379971
 30
0.0
 10
113.113852392003
 20
-159.0783302380085
 30
0.0
 10
113.113852392003
 20
-159.0231910713554
 30
0.0
  0
SPLINE
  5
69
330
41
100
AcDbEntity
  8
_U+30EC_U+30A4_U+30E4_U+30FC 1
 62
   179
420
  2234388
370
     9
100
AcDbSpline
210
0.0
220
0.0
230
1.0
 70
    11
 71
     3
 72
    17
 73
    13
 74
     0
 42
0.0000000001
 43
0.0000000001
 12
1.0
 22
0.0
 32
0.0
 13
1.0
 23
0.0
 33
0.0
 40
0.0
 40
0.0
 40
0.0
 40
0.0
 40
1.0
 40
1.0
 40
1.0
 40
2.0
 40
2.0
 40
2.0
 40
3.0
 40
3.0
 40
3.0
 40
4.0
 40
4.0
 40
4.0
 40
4.0
 10
94.12068537655905
 20
-159.0231910713554
 30
0.0
 10
94.12068537655905
 20
-158.9680871824805
 30
0.0
 10
94.07591787770116
 20
-158.9232844047138
 30
0.0
 10
94.02010843468054
 20
-158.9232844047138
 30
0.0
 10
93.96496926942058
 20
-158.9232844047138
 30
0.0
 10
93.9202017705627
 20
-158.9680871824805
 30
0.0
 10
93.9202017705627
 20
-159.0231910713554
 30
0.0
 10
93.9202017705627
 20
-159.0783302380085
 30
0.0
 10
93.96496926942058
 20
-159.1230977379971
 30
0.0
 10
94.02010843468054
 20
-159.1230977379971
 30
0.0
 10
94.07591787770116
 20
-159.1230977379971
 30
0.0
 10
94.12068537655905
 20
-159.0783302380085
 30
0.0
 10
94.12068537655905
 20
-159.0231910713554
 30
0.0
  0
SPLINE
  5
6A
330
41
100
AcDbEntity
  8
_U+30EC_U+30A4_U+30E4_U+30FC 1
 62
   179
420
  2234388
370
     9
100
AcDbSpline
210
0.0
220
0.0
230
1.0
 70
    11
 71
     3
 72
    17
 73
    13
 74
     0
 42
0.0000000001
 43
0.0000000001
 12
1.0
 22
0.0
 32
0.0
 13
1.0
 23
0.0
 33
0.0
 40
0.0
 40
0.0
 40
0.0
 40
0.0
 40
1.0
 40
1.0
 40
1.0
 40
2.0
 40
2.0
 40
2.0
 40
3.0
 40
3.0
 40
3.0
 40
4.0
 40
4.0
 40
4.0
 40
4.0
 10
91.18063545156596
 20
-144.4232357972277
 30
0.0
 10
91.18063545156596
 20
-144.3680966305746
 30
0.0
 10
91.13586795270808
 20
-144.3233291305857
 30
0.0
 10
91.08072878744814
 20
-144.3233291305857
 30
0.0
 10
91.02562489996507
 20
-144.3233291305857
 30
0.0
 10
90.9808221233303
 20
-144.3680966305746
 30
0.0
 10
90.9808221233303
 20
-144.4232357972277
 30
0.0
 10
90.9808221233303
 20
-144.4783396861026
 30
0.0
 10
91.02562489996507
 20
-144.5231424638693
 30
0.0
 10
91.08072878744814
 20
-144.5231424638693
 30
0.0
 10
91.13586795270808
 20
-144.5231424638693
 30
0.0
 10
91.18063545156596
 20
-144.4783396861026
 30
0.0
 10
91.18063545156596
 20
-144.4232357972277
 30
0.0
  0
SPLINE
  5
6B
330
41
100
AcDbEntity
  8
_U+30EC_U+30A4_U+30E4_U+30FC 1
 62
   179
420
  2234388
370
     9
100
AcDbSpline
210
0.0
220
0.0
230
1.0
 70
    11
 71
     3
 72
    17
 73
    13
 74
     0
 42
0.0000000001
 43
0.0000000001
 12
1.0
 22
0.0
 32
0.0
 13
1.0
 23
0.0
 33
0.0
 40
0.0
 40
0.0
 40
0.0
 40
0.0
 40
1.0
 40
1.0
 40
1.0
 40
2.0
 40
2.0
 40
2.0
 40
3.0
 40
3.0
 40
3.0
 40
4.0
 40
4.0
 40
4.0
 40
4.0
 10
91.18063545156596
 20
-145.4230080191999
 30
0.0
 10
91.18063545156596
 20
-145.3678688525468
 30
0.0
 10
91.13586795270808
 20
-145.3231013525583
 30
0.0
 10
91.08072878744814
 20
-145.3231013525583
 30
0.0
 10
91.02562489996507
 20
-145.3231013525583
 30
0.0
 10
90.9808221233303
 20
-145.3678688525468
 30
0.0
 10
90.9808221233303
 20
-145.4230080191999
 30
0.0
 10
90.9808221233303
 20
-145.4781119080748
 30
0.0
 10
91.02562489996507
 20
-145.5229146858415
 30
0.0
 10
91.08072878744814
 20
-145.5229146858415
 30
0.0
 10
91.13586795270808
 20
-145.5229146858415
 30
0.0
 10
91.18063545156596
 20
-145.4781119080748
 30
0.0
 10
91.18063545156596
 20
-145.4230080191999
 30
0.0
  0
SPLINE
  5
6C
330
41
100
AcDbEntity
  8
_U+30EC_U+30A4_U+30E4_U+30FC 1
 62
   179
420
  2234388
370
     9
100
AcDbSpline
210
0.0
220
0.0
230
1.0
 70
    11
 71
     3
 72
    17
 73
    13
 74
     0
 42
0.0000000001
 43
0.0000000001
 12
1.0
 22
0.0
 32
0.0
 13
1.0
 23
0.0
 33
0.0
 40
0.0
 40
0.0
 40
0.0
 40
0.0
 40
1.0
 40
1.0
 40
1.0
 40
2.0
 40
2.0
 40
2.0
 40
3.0
 40
3.0
 40
3.0
 40
4.0
 40
4.0
 40
4.0
 40
4.0
 10
96.11402088126037
 20
-159.0231910713554
 30
0.0
 10
96.11402088126037
 20
-158.9680871824805
 30
0.0
 10
96.0692533824025
 20
-158.9232844047138
 30
0.0
 10
96.01376386488543
 20
-158.9232844047138
 30
0.0
 10
95.9586575518907
 20
-158.9232844047138
 30
0.0
 10
95.91385477525593
 20
-158.9680871824805
 30
0.0
 10
95.91385477525593
 20
-159.0231910713554
 30
0.0
 10
95.91385477525593
 20
-159.0783302380085
 30
0.0
 10
95.9586575518907
 20
-159.1230977379971
 30
0.0
 10
96.01376386488543
 20
-159.1230977379971
 30
0.0
 10
96.0692533824025
 20
-159.1230977379971
 30
0.0
 10
96.11402088126037
 20
-159.0783302380085
 30
0.0
 10
96.11402088126037
 20
-159.0231910713554
 30
0.0
  0
INSERT
  5
6E
330
41
100
AcDbEntity
  8
_U+30EC_U+30A4_U+30E4_U+30FC 1
100
AcDbBlockReference
  2
block 3
 10
0.0
 20
0.0
 30
0.0
  0
INSERT
  5
84
330
41
100
AcDbEntity
  8
_U+30EC_U+30A4_U+30E4_U+30FC 1
100
AcDbBlockReference
  2
block 5
 10
0.0
 20
0.0
 30
0.0
  0
INSERT
  5
98
330
41
100
AcDbEntity
  8
_U+30EC_U+30A4_U+30E4_U+30FC 1
100
AcDbBlockReference
  2
block 7
 10
0.0
 20
0.0
 30
0.0
  0
INSERT
  5
BD
330
41
100
AcDbEntity
  8
_U+30EC_U+30A4_U+30E4_U+30FC 1
100
AcDbBlockReference
  2
block 9
 10
0.0
 20
0.0
 30
0.0
  0
INSERT
  5
DE
330
41
100
AcDbEntity
  8
_U+30EC_U+30A4_U+30E4_U+30FC 1
100
AcDbBlockReference
  2
block 11
 10
0.0
 20
0.0
 30
0.0
  0
ENDBLK
  5
44
330
41
100
AcDbEntity
  8
0
100
AcDbBlockEnd
  0
BLOCK
  5
6F
330
6D
100
AcDbEntity
  8
0
100
AcDbBlockBegin
  2
block 3
 70
     0
 10
0.0
 20
0.0
 30
0.0
  3
block 3
  1

  0
POLYLINE
  5
71
330
6D
100
AcDbEntity
  8
_U+30EC_U+30A4_U+30E4_U+30FC 1
 62
   179
420
  2234388
370
     9
100
AcDb2dPolyline
 66
     1
 10
0.0
 20
0.0
 30
0.0
  0
VERTEX
  5
72
330
71
100
AcDbEntity
  8
_U+30EC_U+30A4_U+30E4_U+30FC 1
 62
   179
420
  2234388
370
     9
100
AcDbVertex
100
AcDb2dVertex
 10
94.02042593467243
 20
-159.0231910713554
 30
0.0
  0
VERTEX
  5
73
330
71
100
AcDbEntity
  8
_U+30EC_U+30A4_U+30E4_U+30FC 1
 62
   179
420
  2234388
370
     9
100
AcDbVertex
100
AcDb2dVertex
 10
96.01376386488543
 20
-159.0231910713554
 30
0.0
  0
SEQEND
  5
74
330
71
100
AcDbEntity
  8
_U+30EC_U+30A4_U+30E4_U+30FC 1
 62
   179
420
  2234388
370
     9
  0
POLYLINE
  5
75
330
6D
100
AcDbEntity
  8
_U+30EC_U+30A4_U+30E4_U+30FC 1
 62
   179
420
  2234388
370
     9
100
AcDb2dPolyline
 66
     1
 10
0.0
 20
0.0
 30
0.0
  0
VERTEX
  5
76
330
75
100
AcDbEntity
  8
_U+30EC_U+30A4_U+30E4_U+30FC 1
 62
   179
420
  2234388
370
     9
100
AcDbVertex
100
AcDb2dVertex
 10
94.02010843468054
 20
-148.0633027407621
 30
0.0
  0
VERTEX
  5
77
330
75
100
AcDbEntity
  8
_U+30EC_U+30A4_U+30E4_U+30FC 1
 62
   179
420
  2234388
370
     9
100
AcDbVertex
100
AcDb2dVertex
 10
94.02010843468054
 20
-160.0229632933273
 30
0.0
  0
SEQEND
  5
78
330
75
100
AcDbEntity
  8
_U+30EC_U+30A4_U+30E4_U+30FC 1
 62
   179
420
  2234388
370
     9
  0
POLYLINE
  5
79
330
6D
100
AcDbEntity
  8
_U+30EC_U+30A4_U+30E4_U+30FC 1
 62
   179
420
  2234388
370
     9
100
AcDb2dPolyline
 66
     1
 10
0.0
 20
0.0
 30
0.0
  0
VERTEX
  5
7A
330
79
100
AcDbEntity
  8
_U+30EC_U+30A4_U+30E4_U+30FC 1
 62
   179
420
  2234388
370
     9
100
AcDbVertex
100
AcDb2dVertex
 10
96.01376386488543
 20
-157.5631496828317
 30
0.0
  0
VERTEX
  5
7B
330
79
100
AcDbEntity
  8
_U+30EC_U+30A4_U+30E4_U+30FC 1
 62
   179
420
  2234388
370
     9
100
AcDbVertex
100
AcDb2dVertex
 10
96.01376386488543
 20
-160.0229632933273
 30
0.0
  0
SEQEND
  5
7C
330
79
100
AcDbEntity
  8
_U+30EC_U+30A4_U+30E4_U+30FC 1
 62
   179
420
  2234388
370
     9
  0
INSERT
  5
7E
330
6D
100
AcDbEntity
  8
_U+30EC_U+30A4_U+30E4_U+30FC 1
100
AcDbBlockReference
  2
block 4
 10
0.0
 20
0.0
 30
0.0
  0
ENDBLK
  5
70
330
6D
100
AcDbEntity
  8
0
100
AcDbBlockEnd
  0
BLOCK
  5
7F
330
7D
100
AcDbEntity
  8
0
100
AcDbBlockBegin
  2
block 4
 70
     0
 10
0.0
 20
0.0
 30
0.0
  3
block 4
  1

  0
SPLINE
  5
81
330
7D
100
AcDbEntity
  8
_U+30EC_U+30A4_U+30E4_U+30FC 1
370
     0
100
AcDbSpline
210
0.0
220
0.0
230
1.0
 70
    11
 71
     3
 72
    44
 73
    40
 74
     0
 42
0.0000000001
 43
0.0000000001
 12
1.0
 22
0.0
 32
0.0
 13
1.0
 23
0.0
 33
0.0
 40
0.0
 40
0.0
 40
0.0
 40
0.0
 40
1.0
 40
1.0
 40
1.0
 40
2.0
 40
2.0
 40
2.0
 40
3.0
 40
3.0
 40
3.0
 40
4.0
 40
4.0
 40
4.0
 40
5.0
 40
5.0
 40
5.0
 40
6.0
 40
6.0
 40
6.0
 40
7.0
 40
7.0
 40
7.0
 40
8.0
 40
8.0
 40
8.0
 40
9.0
 40
9.0
 40
9.0
 40
10.0
 40
10.0
 40
10.0
 40
11.0
 40
11.0
 40
11.0
 40
12.0
 40
12.0
 40
12.0
 40
13.0
 40
13.0
 40
13.0
 40
13.0
 10
95.09686548186815
 20
-157.7953640013498
 30
0.0
 10
94.91117483521319
 20
-157.9541829032198
 30
0.0
 10
94.83176538427817
 20
-158.0282524561527
 30
0.0
 10
94.79025198368092
 20
-158.1719129378876
 30
0.0
 10
94.79025198368092
 20
-158.1719129378876
 30
0.0
 10
95.4539496289143
 20
-158.1719129378876
 30
0.0
 10
95.4539496289143
 20
-158.1719129378876
 30
0.0
 10
95.4539496289143
 20
-158.1719129378876
 30
0.0
 10
95.4539496289143
 20
-158.3772406288085
 30
0.0
 10
95.4539496289143
 20
-158.3772406288085
 30
0.0
 10
95.4539496289143
 20
-158.3772406288085
 30
0.0
 10
94.57751733746673
 20
-158.3772406288085
 30
0.0
 10
94.57751733746673
 20
-158.3772406288085
 30
0.0
 10
94.60456133702594
 20
-158.0196397174395
 30
0.0
 10
94.66054413866125
 20
-157.9414360499244
 30
0.0
 10
94.9886894836313
 20
-157.6430907809017
 30
0.0
 10
95.20693628262188
 20
-157.4443087714028
 30
0.0
 10
95.26274682948294
 20
-157.3764403903434
 30
0.0
 10
95.26274682948294
 20
-157.2389810804819
 30
0.0
 10
95.26274682948294
 20
-157.1204697957893
 30
0.0
 10
95.20142412984548
 20
-156.9895561673498
 30
0.0
 10
95.03382023448808
 20
-156.9895561673498
 30
0.0
 10
94.81195608523798
 20
-156.9895561673498
 30
0.0
 10
94.80472138471896
 20
-157.2200330553131
 30
0.0
 10
94.80110403445946
 20
-157.3364772827145
 30
0.0
 10
94.80110403445946
 20
-157.3364772827145
 30
0.0
 10
94.60990123502809
 20
-157.3364772827145
 30
0.0
 10
94.60990123502809
 20
-157.3364772827145
 30
0.0
 10
94.61713593554711
 20
-157.2093532593088
 30
0.0
 10
94.62626543858302
 20
-157.0973876560382
 30
0.0
 10
94.69465058396523
 20
-156.9788763713456
 30
0.0
 10
94.78852943593829
 20
-156.8179904121844
 30
0.0
 10
94.94717608303404
 20
-156.784228476429
 30
0.0
 10
95.04639483300924
 20
-156.784228476429
 30
0.0
 10
95.28255612852311
 20
-156.784228476429
 30
0.0
 10
95.45928952691644
 20
-156.9681965753413
 30
0.0
 10
95.45928952691644
 20
-157.2410481377731
 30
0.0
 10
95.45928952691644
 20
-157.4698024779937
 30
0.0
 10
95.36007077694124
 20
-157.5690212279689
 30
0.0
 10
95.09686548186815
 20
-157.7953640013498
 30
0.0
  0
HATCH
  5
82
330
7D
100
AcDbEntity
  8
_U+30EC_U+30A4_U+30E4_U+30FC 1
 62
   179
420
  2234388
100
AcDbHatch
 10
0.0
 20
0.0
 30
0.0
210
0.0
220
0.0
230
1.0
  2
SOLID
 70
     1
 71
     0
 91
        1
 92
        1
 93
        1
 72
     4
 94
        3
 73
     0
 74
     1
 95
       44
 96
       40
 40
0.0
 40
0.0
 40
0.0
 40
0.0
 40
1.0
 40
1.0
 40
1.0
 40
2.0
 40
2.0
 40
2.0
 40
3.0
 40
3.0
 40
3.0
 40
4.0
 40
4.0
 40
4.0
 40
5.0
 40
5.0
 40
5.0
 40
6.0
 40
6.0
 40
6.0
 40
7.0
 40
7.0
 40
7.0
 40
8.0
 40
8.0
 40
8.0
 40
9.0
 40
9.0
 40
9.0
 40
10.0
 40
10.0
 40
10.0
 40
11.0
 40
11.0
 40
11.0
 40
12.0
 40
12.0
 40
12.0
 40
13.0
 40
13.0
 40
13.0
 40
13.0
 10
95.09686548186815
 20
-157.7953640013498
 10
94.91117483521319
 20
-157.9541829032198
 10
94.83176538427817
 20
-158.0282524561527
 10
94.79025198368092
 20
-158.1719129378876
 10
94.79025198368092
 20
-158.1719129378876
 10
95.4539496289143
 20
-158.1719129378876
 10
95.4539496289143
 20
-158.1719129378876
 10
95.4539496289143
 20
-158.1719129378876
 10
95.4539496289143
 20
-158.3772406288085
 10
95.4539496289143
 20
-158.3772406288085
 10
95.4539496289143
 20
-158.3772406288085
 10
94.57751733746673
 20
-158.3772406288085
 10
94.57751733746673
 20
-158.3772406288085
 10
94.60456133702594
 20
-158.0196397174395
 10
94.66054413866125
 20
-157.9414360499244
 10
94.9886894836313
 20
-157.6430907809017
 10
95.20693628262188
 20
-157.4443087714028
 10
95.26274682948294
 20
-157.3764403903434
 10
95.26274682948294
 20
-157.2389810804819
 10
95.26274682948294
 20
-157.1204697957893
 10
95.20142412984548
 20
-156.9895561673498
 10
95.03382023448808
 20
-156.9895561673498
 10
94.81195608523798
 20
-156.9895561673498
 10
94.80472138471896
 20
-157.2200330553131
 10
94.80110403445946
 20
-157.3364772827145
 10
94.80110403445946
 20
-157.3364772827145
 10
94.60990123502809
 20
-157.3364772827145
 10
94.60990123502809
 20
-157.3364772827145
 10
94.61713593554711
 20
-157.2093532593088
 10
94.62626543858302
 20
-157.0973876560382
 10
94.69465058396523
 20
-156.9788763713456
 10
94.78852943593829
 20
-156.8179904121844
 10
94.94717608303404
 20
-156.784228476429
 10
95.04639483300924
 20
-156.784228476429
 10
95.28255612852311
 20
-156.784228476429
 10
95.45928952691644
 20
-156.9681965753413
 10
95.45928952691644
 20
-157.2410481377731
 10
95.45928952691644
 20
-157.4698024779937
 10
95.36007077694124
 20
-157.5690212279689
 10
95.09686548186815
 20
-157.7953640013498
 97
        0
 97
        0
 75
     2
 76
     1
 98
        0
  0
ENDBLK
  5
80
330
7D
100
AcDbEntity
  8
0
100
AcDbBlockEnd
  0
BLOCK
  5
85
330
83
100
AcDbEntity
  8
0
100
AcDbBlockBegin
  2
block 5
 70
     0
 10
0.0
 20
0.0
 30
0.0
  3
block 5
  1

  0
POLYLINE
  5
87
330
83
100
AcDbEntity
  8
_U+30EC_U+30A4_U+30E4_U+30FC 1
 62
   179
420
  2234388
370
     9
100
AcDb2dPolyline
 66
     1
 10
0.0
 20
0.0
 30
0.0
  0
VERTEX
  5
88
330
87
100
AcDbEntity
  8
_U+30EC_U+30A4_U+30E4_U+30FC 1
 62
   179
420
  2234388
370
     9
100
AcDbVertex
100
AcDb2dVertex
 10
96.01376386488543
 20
-159.0231910713554
 30
0.0
  0
VERTEX
  5
89
330
87
100
AcDbEntity
  8
_U+30EC_U+30A4_U+30E4_U+30FC 1
 62
   179
420
  2234388
370
     9
100
AcDbVertex
100
AcDb2dVertex
 10
113.0139457278852
 20
-159.0231910713554
 30
0.0
  0
SEQEND
  5
8A
330
87
100
AcDbEntity
  8
_U+30EC_U+30A4_U+30E4_U+30FC 1
 62
   179
420
  2234388
370
     9
  0
POLYLINE
  5
8B
330
83
100
AcDbEntity
  8
_U+30EC_U+30A4_U+30E4_U+30FC 1
 62
   179
420
  2234388
370
     9
100
AcDb2dPolyline
 66
     1
 10
0.0
 20
0.0
 30
0.0
  0
VERTEX
  5
8C
330
8B
100
AcDbEntity
  8
_U+30EC_U+30A4_U+30E4_U+30FC 1
 62
   179
420
  2234388
370
     9
100
AcDbVertex
100
AcDb2dVertex
 10
113.0139457278852
 20
-156.8631327385622
 30
0.0
  0
VERTEX
  5
8D
330
8B
100
AcDbEntity
  8
_U+30EC_U+30A4_U+30E4_U+30FC 1
 62
   179
420
  2234388
370
     9
100
AcDbVertex
100
AcDb2dVertex
 10
113.0139457278852
 20
-160.0229632933273
 30
0.0
  0
SEQEND
  5
8E
330
8B
100
AcDbEntity
  8
_U+30EC_U+30A4_U+30E4_U+30FC 1
 62
   179
420
  2234388
370
     9
  0
INSERT
  5
90
330
83
100
AcDbEntity
  8
_U+30EC_U+30A4_U+30E4_U+30FC 1
100
AcDbBlockReference
  2
block 6
 10
0.0
 20
0.0
 30
0.0
  0
ENDBLK
  5
86
330
83
100
AcDbEntity
  8
0
100
AcDbBlockEnd
  0
BLOCK
  5
91
330
8F
100
AcDbEntity
  8
0
100
AcDbBlockBegin
  2
block 6
 70
     0
 10
0.0
 20
0.0
 30
0.0
  3
block 6
  1

  0
SPLINE
  5
93
330
8F
100
AcDbEntity
  8
_U+30EC_U+30A4_U+30E4_U+30FC 1
370
     0
100
AcDbSpline
210
0.0
220
0.0
230
1.0
 70
    11
 71
     3
 72
    26
 73
    22
 74
     0
 42
0.0000000001
 43
0.0000000001
 12
1.0
 22
0.0
 32
0.0
 13
1.0
 23
0.0
 33
0.0
 40
0.0
 40
0.0
 40
0.0
 40
0.0
 40
1.0
 40
1.0
 40
1.0
 40
2.0
 40
2.0
 40
2.0
 40
3.0
 40
3.0
 40
3.0
 40
4.0
 40
4.0
 40
4.0
 40
5.0
 40
5.0
 40
5.0
 40
6.0
 40
6.0
 40
6.0
 40
7.0
 40
7.0
 40
7.0
 40
7.0
 10
103.9719482161945
 20
-158.3772406288085
 30
0.0
 10
103.9719482161945
 20
-158.3772406288085
 30
0.0
 10
103.9719482161945
 20
-157.2730875257859
 30
0.0
 10
103.9719482161945
 20
-157.2730875257859
 30
0.0
 10
103.9719482161945
 20
-157.2730875257859
 30
0.0
 10
103.6904839150496
 20
-157.2730875257859
 30
0.0
 10
103.6904839150496
 20
-157.2730875257859
 30
0.0
 10
103.6904839150496
 20
-157.2730875257859
 30
0.0
 10
103.6904839150496
 20
-157.1249484199202
 30
0.0
 10
103.6904839150496
 20
-157.1249484199202
 30
0.0
 10
103.9736707639371
 20
-157.1101345093336
 30
0.0
 10
104.0132893620175
 20
-156.9471814928813
 30
0.0
 10
104.0384385590598
 20
-156.832804322771
 30
0.0
 10
104.0384385590598
 20
-156.832804322771
 30
0.0
 10
104.1631510156259
 20
-156.832804322771
 30
0.0
 10
104.1631510156259
 20
-156.832804322771
 30
0.0
 10
104.1631510156259
 20
-156.832804322771
 30
0.0
 10
104.1631510156259
 20
-158.3772406288085
 30
0.0
 10
104.1631510156259
 20
-158.3772406288085
 30
0.0
 10
104.1631510156259
 20
-158.3772406288085
 30
0.0
 10
103.9719482161945
 20
-158.3772406288085
 30
0.0
 10
103.9719482161945
 20
-158.3772406288085
 30
0.0
  0
HATCH
  5
94
330
8F
100
AcDbEntity
  8
_U+30EC_U+30A4_U+30E4_U+30FC 1
 62
   179
420
  2234388
100
AcDbHatch
 10
0.0
 20
0.0
 30
0.0
210
0.0
220
0.0
230
1.0
  2
SOLID
 70
     1
 71
     0
 91
        1
 92
        1
 93
        1
 72
     4
 94
        3
 73
     0
 74
     1
 95
       26
 96
       22
 40
0.0
 40
0.0
 40
0.0
 40
0.0
 40
1.0
 40
1.0
 40
1.0
 40
2.0
 40
2.0
 40
2.0
 40
3.0
 40
3.0
 40
3.0
 40
4.0
 40
4.0
 40
4.0
 40
5.0
 40
5.0
 40
5.0
 40
6.0
 40
6.0
 40
6.0
 40
7.0
 40
7.0
 40
7.0
 40
7.0
 10
103.9719482161945
 20
-158.3772406288085
 10
103.9719482161945
 20
-158.3772406288085
 10
103.9719482161945
 20
-157.2730875257859
 10
103.9719482161945
 20
-157.2730875257859
 10
103.9719482161945
 20
-157.2730875257859
 10
103.6904839150496
 20
-157.2730875257859
 10
103.6904839150496
 20
-157.2730875257859
 10
103.6904839150496
 20
-157.2730875257859
 10
103.6904839150496
 20
-157.1249484199202
 10
103.6904839150496
 20
-157.1249484199202
 10
103.9736707639371
 20
-157.1101345093336
 10
104.0132893620175
 20
-156.9471814928813
 10
104.0384385590598
 20
-156.832804322771
 10
104.0384385590598
 20
-156.832804322771
 10
104.1631510156259
 20
-156.832804322771
 10
104.1631510156259
 20
-156.832804322771
 10
104.1631510156259
 20
-156.832804322771
 10
104.1631510156259
 20
-158.3772406288085
 10
104.1631510156259
 20
-158.3772406288085
 10
104.1631510156259
 20
-158.3772406288085
 10
103.9719482161945
 20
-158.3772406288085
 10
103.9719482161945
 20
-158.3772406288085
 97
        0
 97
        0
 75
     2
 76
     1
 98
        0
  0
SPLINE
  5
95
330
8F
100
AcDbEntity
  8
_U+30EC_U+30A4_U+30E4_U+30FC 1
370
     0
100
AcDbSpline
210
0.0
220
0.0
230
1.0
 70
    11
 71
     3
 72
    26
 73
    22
 74
     0
 42
0.0000000001
 43
0.0000000001
 12
1.0
 22
0.0
 32
0.0
 13
1.0
 23
0.0
 33
0.0
 40
0.0
 40
0.0
 40
0.0
 40
0.0
 40
1.0
 40
1.0
 40
1.0
 40
2.0
 40
2.0
 40
2.0
 40
3.0
 40
3.0
 40
3.0
 40
4.0
 40
4.0
 40
4.0
 40
5.0
 40
5.0
 40
5.0
 40
6.0
 40
6.0
 40
6.0
 40
7.0
 40
7.0
 40
7.0
 40
7.0
 10
104.9393310284527
 20
-158.3772406288085
 30
0.0
 10
104.9393310284527
 20
-158.3772406288085
 30
0.0
 10
104.737448433017
 20
-158.3772406288085
 30
0.0
 10
104.737448433017
 20
-158.3772406288085
 30
0.0
 10
104.7591525345741
 20
-158.0682155637816
 30
0.0
 10
104.923139079672
 20
-157.5500732028
 30
0.0
 10
105.2693711759396
 20
-157.0443331855653
 30
0.0
 10
105.2693711759396
 20
-157.0443331855653
 30
0.0
 10
104.5552028818473
 20
-157.0443331855653
 30
0.0
 10
104.5552028818473
 20
-157.0443331855653
 30
0.0
 10
104.5552028818473
 20
-157.0443331855653
 30
0.0
 10
104.5552028818473
 20
-156.832804322771
 30
0.0
 10
104.5552028818473
 20
-156.832804322771
 30
0.0
 10
104.5552028818473
 20
-156.832804322771
 30
0.0
 10
105.4712537713752
 20
-156.832804322771
 30
0.0
 10
105.4712537713752
 20
-156.832804322771
 30
0.0
 10
105.4712537713752
 20
-156.832804322771
 30
0.0
 10
105.4712537713752
 20
-157.0443331855653
 30
0.0
 10
105.4712537713752
 20
-157.0443331855653
 30
0.0
 10
105.1956461325553
 20
-157.3344102254233
 30
0.0
 10
104.9682698305288
 20
-157.9266221393378
 30
0.0
 10
104.9393310284527
 20
-158.3772406288085
 30
0.0
  0
HATCH
  5
96
330
8F
100
AcDbEntity
  8
_U+30EC_U+30A4_U+30E4_U+30FC 1
 62
   179
420
  2234388
100
AcDbHatch
 10
0.0
 20
0.0
 30
0.0
210
0.0
220
0.0
230
1.0
  2
SOLID
 70
     1
 71
     0
 91
        1
 92
        1
 93
        1
 72
     4
 94
        3
 73
     0
 74
     1
 95
       26
 96
       22
 40
0.0
 40
0.0
 40
0.0
 40
0.0
 40
1.0
 40
1.0
 40
1.0
 40
2.0
 40
2.0
 40
2.0
 40
3.0
 40
3.0
 40
3.0
 40
4.0
 40
4.0
 40
4.0
 40
5.0
 40
5.0
 40
5.0
 40
6.0
 40
6.0
 40
6.0
 40
7.0
 40
7.0
 40
7.0
 40
7.0
 10
104.9393310284527
 20
-158.3772406288085
 10
104.9393310284527
 20
-158.3772406288085
 10
104.737448433017
 20
-158.3772406288085
 10
104.737448433017
 20
-158.3772406288085
 10
104.7591525345741
 20
-158.0682155637816
 10
104.923139079672
 20
-157.5500732028
 10
105.2693711759396
 20
-157.0443331855653
 10
105.2693711759396
 20
-157.0443331855653
 10
104.5552028818473
 20
-157.0443331855653
 10
104.5552028818473
 20
-157.0443331855653
 10
104.5552028818473
 20
-157.0443331855653
 10
104.5552028818473
 20
-156.832804322771
 10
104.5552028818473
 20
-156.832804322771
 10
104.5552028818473
 20
-156.832804322771
 10
105.4712537713752
 20
-156.832804322771
 10
105.4712537713752
 20
-156.832804322771
 10
105.4712537713752
 20
-156.832804322771
 10
105.4712537713752
 20
-157.0443331855653
 10
105.4712537713752
 20
-157.0443331855653
 10
105.1956461325553
 20
-157.3344102254233
 10
104.9682698305288
 20
-157.9266221393378
 10
104.9393310284527
 20
-158.3772406288085
 97
        0
 97
        0
 75
     2
 76
     1
 98
        0
  0
ENDBLK
  5
92
330
8F
100
AcDbEntity
  8
0
100
AcDbBlockEnd
  0
BLOCK
  5
99
330
97
100
AcDbEntity
  8
0
100
AcDbBlockBegin
  2
block 7
 70
     0
 10
0.0
 20
0.0
 30
0.0
  3
block 7
  1

  0
POLYLINE
  5
9B
330
97
100
AcDbEntity
  8
_U+30EC_U+30A4_U+30E4_U+30FC 1
 62
   179
420
  2234388
370
     9
100
AcDb2dPolyline
 66
     1
 10
0.0
 20
0.0
 30
0.0
  0
VERTEX
  5
9C
330
9B
100
AcDbEntity
  8
_U+30EC_U+30A4_U+30E4_U+30FC 1
 62
   179
420
  2234388
370
     9
100
AcDbVertex
100
AcDb2dVertex
 10
91.08072878744814
 20
-144.4232357972277
 30
0.0
  0
VERTEX
  5
9D
330
9B
100
AcDbEntity
  8
_U+30EC_U+30A4_U+30E4_U+30FC 1
 62
   179
420
  2234388
370
     9
100
AcDbVertex
100
AcDb2dVertex
 10
91.08072878744814
 20
-143.4231107974777
 30
0.0
  0
SEQEND
  5
9E
330
9B
100
AcDbEntity
  8
_U+30EC_U+30A4_U+30E4_U+30FC 1
 62
   179
420
  2234388
370
     9
  0
POLYLINE
  5
9F
330
97
100
AcDbEntity
  8
_U+30EC_U+30A4_U+30E4_U+30FC 1
 62
   179
420
  2234388
370
     9
100
AcDb2dPolyline
 66
     1
 10
0.0
 20
0.0
 30
0.0
  0
VERTEX
  5
A0
330
9F
100
AcDbEntity
  8
_U+30EC_U+30A4_U+30E4_U+30FC 1
 62
   179
420
  2234388
370
     9
100
AcDbVertex
100
AcDb2dVertex
 10
91.08072878744814
 20
-144.4232357972277
 30
0.0
  0
VERTEX
  5
A1
330
9F
100
AcDbEntity
  8
_U+30EC_U+30A4_U+30E4_U+30FC 1
 62
   179
420
  2234388
370
     9
100
AcDbVertex
100
AcDb2dVertex
 10
91.08072878744814
 20
-146.4227449633943
 30
0.0
  0
SEQEND
  5
A2
330
9F
100
AcDbEntity
  8
_U+30EC_U+30A4_U+30E4_U+30FC 1
 62
   179
420
  2234388
370
     9
  0
POLYLINE
  5
A3
330
97
100
AcDbEntity
  8
_U+30EC_U+30A4_U+30E4_U+30FC 1
 62
   179
420
  2234388
370
     9
100
AcDb2dPolyline
 66
     1
 10
0.0
 20
0.0
 30
0.0
  0
VERTEX
  5
A4
330
A3
100
AcDbEntity
  8
_U+30EC_U+30A4_U+30E4_U+30FC 1
 62
   179
420
  2234388
370
     9
100
AcDbVertex
100
AcDb2dVertex
 10
92.54077013908827
 20
-144.4232357972277
 30
0.0
  0
VERTEX
  5
A5
330
A3
100
AcDbEntity
  8
_U+30EC_U+30A4_U+30E4_U+30FC 1
 62
   179
420
  2234388
370
     9
100
AcDbVertex
100
AcDb2dVertex
 10
90.0809918685091
 20
-144.4232357972277
 30
0.0
  0
SEQEND
  5
A6
330
A3
100
AcDbEntity
  8
_U+30EC_U+30A4_U+30E4_U+30FC 1
 62
   179
420
  2234388
370
     9
  0
POLYLINE
  5
A7
330
97
100
AcDbEntity
  8
_U+30EC_U+30A4_U+30E4_U+30FC 1
 62
   179
420
  2234388
370
     9
100
AcDb2dPolyline
 66
     1
 10
0.0
 20
0.0
 30
0.0
  0
VERTEX
  5
A8
330
A7
100
AcDbEntity
  8
_U+30EC_U+30A4_U+30E4_U+30FC 1
 62
   179
420
  2234388
370
     9
100
AcDbVertex
100
AcDb2dVertex
 10
92.54077013908827
 20
-145.4230080191999
 30
0.0
  0
VERTEX
  5
A9
330
A7
100
AcDbEntity
  8
_U+30EC_U+30A4_U+30E4_U+30FC 1
 62
   179
420
  2234388
370
     9
100
AcDbVertex
100
AcDb2dVertex
 10
90.0809918685091
 20
-145.4230080191999
 30
0.0
  0
SEQEND
  5
AA
330
A7
100
AcDbEntity
  8
_U+30EC_U+30A4_U+30E4_U+30FC 1
 62
   179
420
  2234388
370
     9
  0
INSERT
  5
AC
330
97
100
AcDbEntity
  8
_U+30EC_U+30A4_U+30E4_U+30FC 1
100
AcDbBlockReference
  2
block 8
 10
0.0
 20
0.0
 30
0.0
  0
ENDBLK
  5
9A
330
97
100
AcDbEntity
  8
0
100
AcDbBlockEnd
  0
BLOCK
  5
AD
330
AB
100
AcDbEntity
  8
0
100
AcDbBlockBegin
  2
block 8
 70
     0
 10
0.0
 20
0.0
 30
0.0
  3
block 8
  1

  0
SPLINE
  5
AF
330
AB
100
AcDbEntity
  8
_U+30EC_U+30A4_U+30E4_U+30FC 1
370
     0
100
AcDbSpline
210
0.0
220
0.0
230
1.0
 70
    11
 71
     3
 72
    26
 73
    22
 74
     0
 42
0.0000000001
 43
0.0000000001
 12
1.0
 22
0.0
 32
0.0
 13
1.0
 23
0.0
 33
0.0
 40
0.0
 40
0.0
 40
0.0
 40
0.0
 40
1.0
 40
1.0
 40
1.0
 40
2.0
 40
2.0
 40
2.0
 40
3.0
 40
3.0
 40
3.0
 40
4.0
 40
4.0
 40
4.0
 40
5.0
 40
5.0
 40
5.0
 40
6.0
 40
6.0
 40
6.0
 40
7.0
 40
7.0
 40
7.0
 40
7.0
 10
90.4347900164538
 20
-142.1766791094211
 30
0.0
 10
90.4347900164538
 20
-142.1766791094211
 30
0.0
 10
89.33063691343123
 20
-142.1766791094211
 30
0.0
 10
89.33063691343123
 20
-142.1766791094211
 30
0.0
 10
89.33063691343123
 20
-142.1766791094211
 30
0.0
 10
89.33063691343123
 20
-142.458143410566
 30
0.0
 10
89.33063691343123
 20
-142.458143410566
 30
0.0
 10
89.33063691343123
 20
-142.458143410566
 30
0.0
 10
89.1824978075655
 20
-142.458143410566
 30
0.0
 10
89.1824978075655
 20
-142.458143410566
 30
0.0
 10
89.16768389697891
 20
-142.1749565616785
 30
0.0
 10
89.0047308805266
 20
-142.1353379635981
 30
0.0
 10
88.8903537104163
 20
-142.1101887665558
 30
0.0
 10
88.8903537104163
 20
-142.1101887665558
 30
0.0
 10
88.8903537104163
 20
-141.9854763099897
 30
0.0
 10
88.8903537104163
 20
-141.9854763099897
 30
0.0
 10
88.8903537104163
 20
-141.9854763099897
 30
0.0
 10
90.4347900164538
 20
-141.9854763099897
 30
0.0
 10
90.4347900164538
 20
-141.9854763099897
 30
0.0
 10
90.4347900164538
 20
-141.9854763099897
 30
0.0
 10
90.4347900164538
 20
-142.1766791094211
 30
0.0
 10
90.4347900164538
 20
-142.1766791094211
 30
0.0
  0
HATCH
  5
B0
330
AB
100
AcDbEntity
  8
_U+30EC_U+30A4_U+30E4_U+30FC 1
 62
   179
420
  2234388
100
AcDbHatch
 10
0.0
 20
0.0
 30
0.0
210
0.0
220
0.0
230
1.0
  2
SOLID
 70
     1
 71
     0
 91
        1
 92
        1
 93
        1
 72
     4
 94
        3
 73
     0
 74
     1
 95
       26
 96
       22
 40
0.0
 40
0.0
 40
0.0
 40
0.0
 40
1.0
 40
1.0
 40
1.0
 40
2.0
 40
2.0
 40
2.0
 40
3.0
 40
3.0
 40
3.0
 40
4.0
 40
4.0
 40
4.0
 40
5.0
 40
5.0
 40
5.0
 40
6.0
 40
6.0
 40
6.0
 40
7.0
 40
7.0
 40
7.0
 40
7.0
 10
90.4347900164538
 20
-142.1766791094211
 10
90.4347900164538
 20
-142.1766791094211
 10
89.33063691343123
 20
-142.1766791094211
 10
89.33063691343123
 20
-142.1766791094211
 10
89.33063691343123
 20
-142.1766791094211
 10
89.33063691343123
 20
-142.458143410566
 10
89.33063691343123
 20
-142.458143410566
 10
89.33063691343123
 20
-142.458143410566
 10
89.1824978075655
 20
-142.458143410566
 10
89.1824978075655
 20
-142.458143410566
 10
89.16768389697891
 20
-142.1749565616785
 10
89.0047308805266
 20
-142.1353379635981
 10
88.8903537104163
 20
-142.1101887665558
 10
88.8903537104163
 20
-142.1101887665558
 10
88.8903537104163
 20
-141.9854763099897
 10
88.8903537104163
 20
-141.9854763099897
 10
88.8903537104163
 20
-141.9854763099897
 10
90.4347900164538
 20
-141.9854763099897
 10
90.4347900164538
 20
-141.9854763099897
 10
90.4347900164538
 20
-141.9854763099897
 10
90.4347900164538
 20
-142.1766791094211
 10
90.4347900164538
 20
-142.1766791094211
 97
        0
 97
        0
 75
     2
 76
     1
 98
        0
  0
POLYLINE
  5
B1
330
AB
100
AcDbEntity
  8
_U+30EC_U+30A4_U+30E4_U+30FC 1
370
     0
100
AcDb2dPolyline
 66
     1
 10
0.0
 20
0.0
 30
0.0
  0
VERTEX
  5
B2
330
B1
100
AcDbEntity
  8
_U+30EC_U+30A4_U+30E4_U+30FC 1
370
     0
100
AcDbVertex
100
AcDb2dVertex
 10
90.4347900164538
 20
-141.5086750948312
 30
0.0
  0
VERTEX
  5
B3
330
B1
100
AcDbEntity
  8
_U+30EC_U+30A4_U+30E4_U+30FC 1
370
     0
100
AcDbVertex
100
AcDb2dVertex
 10
90.18295353648205
 20
-141.5086750948312
 30
0.0
  0
VERTEX
  5
B4
330
B1
100
AcDbEntity
  8
_U+30EC_U+30A4_U+30E4_U+30FC 1
370
     0
100
AcDbVertex
100
AcDb2dVertex
 10
90.18295353648205
 20
-141.2940456461001
 30
0.0
  0
VERTEX
  5
B5
330
B1
100
AcDbEntity
  8
_U+30EC_U+30A4_U+30E4_U+30FC 1
370
     0
100
AcDbVertex
100
AcDb2dVertex
 10
90.4347900164538
 20
-141.2940456461001
 30
0.0
  0
VERTEX
  5
B6
330
B1
100
AcDbEntity
  8
_U+30EC_U+30A4_U+30E4_U+30FC 1
370
     0
100
AcDbVertex
100
AcDb2dVertex
 10
90.4347900164538
 20
-141.5086750948312
 30
0.0
  0
SEQEND
  5
B7
330
B1
100
AcDbEntity
  8
_U+30EC_U+30A4_U+30E4_U+30FC 1
370
     0
  0
HATCH
  5
B8
330
AB
100
AcDbEntity
  8
_U+30EC_U+30A4_U+30E4_U+30FC 1
 62
   179
420
  2234388
100
AcDbHatch
 10
0.0
 20
0.0
 30
0.0
210
0.0
220
0.0
230
1.0
  2
SOLID
 70
     1
 71
     0
 91
        1
 92
        1
 93
        4
 72
     1
 10
90.4347900164538
 20
-141.5086750948312
 11
90.18295353648205
 21
-141.5086750948312
 72
     1
 10
90.18295353648205
 20
-141.5086750948312
 11
90.18295353648205
 21
-141.2940456461001
 72
     1
 10
90.18295353648205
 20
-141.2940456461001
 11
90.4347900164538
 21
-141.2940456461001
 72
     1
 10
90.4347900164538
 20
-141.2940456461001
 11
90.4347900164538
 21
-141.5086750948312
 97
        0
 75
     2
 76
     1
 98
        0
  0
SPLINE
  5
B9
330
AB
100
AcDbEntity
  8
_U+30EC_U+30A4_U+30E4_U+30FC 1
370
     0
100
AcDbSpline
210
0.0
220
0.0
230
1.0
 70
    11
 71
     3
 72
    29
 73
    25
 74
     0
 42
0.0000000001
 43
0.0000000001
 12
1.0
 22
0.0
 32
0.0
 13
1.0
 23
0.0
 33
0.0
 40
0.0
 40
0.0
 40
0.0
 40
0.0
 40
1.0
 40
1.0
 40
1.0
 40
2.0
 40
2.0
 40
2.0
 40
3.0
 40
3.0
 40
3.0
 40
4.0
 40
4.0
 40
4.0
 40
5.0
 40
5.0
 40
5.0
 40
6.0
 40
6.0
 40
6.0
 40
7.0
 40
7.0
 40
7.0
 40
8.0
 40
8.0
 40
8.0
 40
8.0
 10
90.25702308941491
 20
-140.3276963624875
 30
0.0
 10
90.46648489491811
 20
-140.4196804119437
 30
0.0
 10
90.48543292008698
 20
-140.5674750082609
 30
0.0
 10
90.48543292008698
 20
-140.6666937582361
 30
0.0
 10
90.48543292008698
 20
-140.8038085585491
 30
0.0
 10
90.4389241310361
 20
-140.9243869005328
 30
0.0
 10
90.25702308941491
 20
-141.0056911539847
 30
0.0
 10
90.0623751944983
 20
-141.0938855984071
 30
0.0
 10
89.82535262511311
 20
-141.1104220567363
 30
0.0
 10
89.66274411820932
 20
-141.1104220567363
 30
0.0
 10
89.51873912692588
 20
-141.1104220567363
 30
0.0
 10
89.26690264695411
 20
-141.0959526556982
 30
0.0
 10
89.0681206374552
 20
-141.0056911539847
 30
0.0
 10
88.86520451337398
 20
-140.9137071045285
 30
0.0
 10
88.84177786407429
 20
-140.7765923042156
 30
0.0
 10
88.84177786407429
 20
-140.6666937582361
 30
0.0
 10
88.84177786407429
 20
-140.5313015056658
 30
0.0
 10
88.886219595834
 20
-140.4086561063909
 30
0.0
 10
89.0681206374552
 20
-140.3276963624875
 30
0.0
 10
89.26070147508067
 20
-140.2429470135504
 30
0.0
 10
89.48911130575273
 20
-140.2229654597359
 30
0.0
 10
89.66274411820932
 20
-140.2229654597359
 30
0.0
 10
89.83396536382624
 20
-140.2229654597359
 30
0.0
 10
90.06444225178944
 20
-140.2412244658078
 30
0.0
 10
90.25702308941491
 20
-140.3276963624875
 30
0.0
  0
SPLINE
  5
BA
330
AB
100
AcDbEntity
  8
_U+30EC_U+30A4_U+30E4_U+30FC 1
370
     0
100
AcDbSpline
210
0.0
220
0.0
230
1.0
 70
    11
 71
     3
 72
    17
 73
    13
 74
     0
 42
0.0000000001
 43
0.0000000001
 12
1.0
 22
0.0
 32
0.0
 13
1.0
 23
0.0
 33
0.0
 40
0.0
 40
0.0
 40
0.0
 40
0.0
 40
1.0
 40
1.0
 40
1.0
 40
2.0
 40
2.0
 40
2.0
 40
3.0
 40
3.0
 40
3.0
 40
4.0
 40
4.0
 40
4.0
 40
4.0
 10
89.03435870169974
 20
-140.6666937582361
 30
0.0
 10
89.03435870169974
 20
-140.8796006592246
 30
0.0
 10
89.31789006013581
 20
-140.9192192573049
 30
0.0
 10
89.66274411820932
 20
-140.9192192573049
 30
0.0
 10
89.98210446969198
 20
-140.9192192573049
 30
0.0
 10
90.29078502517036
 20
-140.8885579074862
 30
0.0
 10
90.29078502517036
 20
-140.6666937582361
 30
0.0
 10
90.29078502517036
 20
-140.4555094049903
 30
0.0
 10
90.00966523357398
 20
-140.4141682591673
 30
0.0
 10
89.66274411820932
 20
-140.4141682591673
 30
0.0
 10
89.34303925717813
 20
-140.4141682591673
 30
0.0
 10
89.03435870169974
 20
-140.4465521567286
 30
0.0
 10
89.03435870169974
 20
-140.6666937582361
 30
0.0
  0
HATCH
  5
BB
330
AB
100
AcDbEntity
  8
_U+30EC_U+30A4_U+30E4_U+30FC 1
 62
   179
420
  2234388
100
AcDbHatch
 10
0.0
 20
0.0
 30
0.0
210
0.0
220
0.0
230
1.0
  2
SOLID
 70
     1
 71
     0
 91
        2
 92
        1
 93
        1
 72
     4
 94
        3
 73
     0
 74
     1
 95
       29
 96
       25
 40
0.0
 40
0.0
 40
0.0
 40
0.0
 40
1.0
 40
1.0
 40
1.0
 40
2.0
 40
2.0
 40
2.0
 40
3.0
 40
3.0
 40
3.0
 40
4.0
 40
4.0
 40
4.0
 40
5.0
 40
5.0
 40
5.0
 40
6.0
 40
6.0
 40
6.0
 40
7.0
 40
7.0
 40
7.0
 40
8.0
 40
8.0
 40
8.0
 40
8.0
 10
90.25702308941491
 20
-140.3276963624875
 10
90.46648489491811
 20
-140.4196804119437
 10
90.48543292008698
 20
-140.5674750082609
 10
90.48543292008698
 20
-140.6666937582361
 10
90.48543292008698
 20
-140.8038085585491
 10
90.4389241310361
 20
-140.9243869005328
 10
90.25702308941491
 20
-141.0056911539847
 10
90.0623751944983
 20
-141.0938855984071
 10
89.82535262511311
 20
-141.1104220567363
 10
89.66274411820932
 20
-141.1104220567363
 10
89.51873912692588
 20
-141.1104220567363
 10
89.26690264695411
 20
-141.0959526556982
 10
89.0681206374552
 20
-141.0056911539847
 10
88.86520451337398
 20
-140.9137071045285
 10
88.84177786407429
 20
-140.7765923042156
 10
88.84177786407429
 20
-140.6666937582361
 10
88.84177786407429
 20
-140.5313015056658
 10
88.886219595834
 20
-140.4086561063909
 10
89.0681206374552
 20
-140.3276963624875
 10
89.26070147508067
 20
-140.2429470135504
 10
89.48911130575273
 20
-140.2229654597359
 10
89.66274411820932
 20
-140.2229654597359
 10
89.83396536382624
 20
-140.2229654597359
 10
90.06444225178944
 20
-140.2412244658078
 10
90.25702308941491
 20
-140.3276963624875
 97
        0
 97
        0
 92
        1
 93
        1
 72
     4
 94
        3
 73
     0
 74
     1
 95
       17
 96
       13
 40
0.0
 40
0.0
 40
0.0
 40
0.0
 40
1.0
 40
1.0
 40
1.0
 40
2.0
 40
2.0
 40
2.0
 40
3.0
 40
3.0
 40
3.0
 40
4.0
 40
4.0
 40
4.0
 40
4.0
 10
89.03435870169974
 20
-140.6666937582361
 10
89.03435870169974
 20
-140.8796006592246
 10
89.31789006013581
 20
-140.9192192573049
 10
89.66274411820932
 20
-140.9192192573049
 10
89.98210446969198
 20
-140.9192192573049
 10
90.29078502517036
 20
-140.8885579074862
 10
90.29078502517036
 20
-140.6666937582361
 10
90.29078502517036
 20
-140.4555094049903
 10
90.00966523357398
 20
-140.4141682591673
 10
89.66274411820932
 20
-140.4141682591673
 10
89.34303925717813
 20
-140.4141682591673
 10
89.03435870169974
 20
-140.4465521567286
 10
89.03435870169974
 20
-140.6666937582361
 97
        0
 97
        0
 75
     2
 76
     1
 98
        0
  0
ENDBLK
  5
AE
330
AB
100
AcDbEntity
  8
0
100
AcDbBlockEnd
  0
BLOCK
  5
BE
330
BC
100
AcDbEntity
  8
0
100
AcDbBlockBegin
  2
block 9
 70
     0
 10
0.0
 20
0.0
 30
0.0
  3
block 9
  1

  0
POLYLINE
  5
C0
330
BC
100
AcDbEntity
  8
_U+30EC_U+30A4_U+30E4_U+30FC 1
 62
   179
420
  2234388
370
     9
100
AcDb2dPolyline
 66
     1
 10
0.0
 20
0.0
 30
0.0
  0
VERTEX
  5
C1
330
C0
100
AcDbEntity
  8
_U+30EC_U+30A4_U+30E4_U+30FC 1
 62
   179
420
  2234388
370
     9
100
AcDbVertex
100
AcDb2dVertex
 10
117.0137047925095
 20
-144.4232357972277
 30
0.0
  0
VERTEX
  5
C2
330
C0
100
AcDbEntity
  8
_U+30EC_U+30A4_U+30E4_U+30FC 1
 62
   179
420
  2234388
370
     9
100
AcDbVertex
100
AcDb2dVertex
 10
117.0137047925095
 20
-153.923082739297
 30
0.0
  0
SEQEND
  5
C3
330
C0
100
AcDbEntity
  8
_U+30EC_U+30A4_U+30E4_U+30FC 1
 62
   179
420
  2234388
370
     9
  0
POLYLINE
  5
C4
330
BC
100
AcDbEntity
  8
_U+30EC_U+30A4_U+30E4_U+30FC 1
 62
   179
420
  2234388
370
     9
100
AcDb2dPolyline
 66
     1
 10
0.0
 20
0.0
 30
0.0
  0
VERTEX
  5
C5
330
C4
100
AcDbEntity
  8
_U+30EC_U+30A4_U+30E4_U+30FC 1
 62
   179
420
  2234388
370
     9
100
AcDbVertex
100
AcDb2dVertex
 10
99.65386356872925
 20
-144.4232357972277
 30
0.0
  0
VERTEX
  5
C6
330
C4
100
AcDbEntity
  8
_U+30EC_U+30A4_U+30E4_U+30FC 1
 62
   179
420
  2234388
370
     9
100
AcDbVertex
100
AcDb2dVertex
 10
118.014147266986
 20
-144.4232357972277
 30
0.0
  0
SEQEND
  5
C7
330
C4
100
AcDbEntity
  8
_U+30EC_U+30A4_U+30E4_U+30FC 1
 62
   179
420
  2234388
370
     9
  0
POLYLINE
  5
C8
330
BC
100
AcDbEntity
  8
_U+30EC_U+30A4_U+30E4_U+30FC 1
 62
   179
420
  2234388
370
     9
100
AcDb2dPolyline
 66
     1
 10
0.0
 20
0.0
 30
0.0
  0
VERTEX
  5
C9
330
C8
100
AcDbEntity
  8
_U+30EC_U+30A4_U+30E4_U+30FC 1
 62
   179
420
  2234388
370
     9
100
AcDbVertex
100
AcDb2dVertex
 10
115.5536634408693
 20
-153.923082739297
 30
0.0
  0
VERTEX
  5
CA
330
C8
100
AcDbEntity
  8
_U+30EC_U+30A4_U+30E4_U+30FC 1
 62
   179
420
  2234388
370
     9
100
AcDbVertex
100
AcDb2dVertex
 10
118.014147266986
 20
-153.923082739297
 30
0.0
  0
SEQEND
  5
CB
330
C8
100
AcDbEntity
  8
_U+30EC_U+30A4_U+30E4_U+30FC 1
 62
   179
420
  2234388
370
     9
  0
INSERT
  5
CD
330
BC
100
AcDbEntity
  8
_U+30EC_U+30A4_U+30E4_U+30FC 1
100
AcDbBlockReference
  2
block 10
 10
0.0
 20
0.0
 30
0.0
  0
ENDBLK
  5
BF
330
BC
100
AcDbEntity
  8
0
100
AcDbBlockEnd
  0
BLOCK
  5
CE
330
CC
100
AcDbEntity
  8
0
100
AcDbBlockBegin
  2
block 10
 70
     0
 10
0.0
 20
0.0
 30
0.0
  3
block 10
  1

  0
SPLINE
  5
D0
330
CC
100
AcDbEntity
  8
_U+30EC_U+30A4_U+30E4_U+30FC 1
370
     0
100
AcDbSpline
210
0.0
220
0.0
230
1.0
 70
    11
 71
     3
 72
    32
 73
    28
 74
     0
 42
0.0000000001
 43
0.0000000001
 12
1.0
 22
0.0
 32
0.0
 13
1.0
 23
0.0
 33
0.0
 40
0.0
 40
0.0
 40
0.0
 40
0.0
 40
1.0
 40
1.0
 40
1.0
 40
2.0
 40
2.0
 40
2.0
 40
3.0
 40
3.0
 40
3.0
 40
4.0
 40
4.0
 40
4.0
 40
5.0
 40
5.0
 40
5.0
 40
6.0
 40
6.0
 40
6.0
 40
7.0
 40
7.0
 40
7.0
 40
8.0
 40
8.0
 40
8.0
 40
9.0
 40
9.0
 40
9.0
 40
9.0
 10
116.4183891853051
 20
-149.9433023713684
 30
0.0
 10
116.4183891853051
 20
-150.0910969676856
 30
0.0
 10
116.3487982565031
 20
-150.3002142636402
 30
0.0
 10
116.016691051725
 20
-150.3325981612016
 30
0.0
 10
116.016691051725
 20
-150.3325981612016
 30
0.0
 10
116.016691051725
 20
-150.1503526100319
 30
0.0
 10
116.016691051725
 20
-150.1503526100319
 30
0.0
 10
116.0759466940713
 20
-150.1413953617702
 30
0.0
 10
116.2237412903885
 20
-150.1145236169853
 30
0.0
 10
116.2237412903885
 20
-149.9412353140772
 30
0.0
 10
116.2237412903885
 20
-149.6924994200422
 30
0.0
 10
115.8940456524501
 20
-149.6601155224808
 30
0.0
 10
115.6887179615292
 20
-149.649091216928
 30
0.0
 10
115.7689886863355
 20
-149.7266058653461
 30
0.0
 10
115.8261772713907
 20
-149.7844834694983
 30
0.0
 10
115.8261772713907
 20
-149.9395127663346
 30
0.0
 10
115.8261772713907
 20
-150.0928195154282
 30
0.0
 10
115.7204128399935
 20
-150.3508571672734
 30
0.0
 10
115.3142360822826
 20
-150.3508571672734
 30
0.0
 10
114.9948757307999
 20
-150.3508571672734
 30
0.0
 10
114.7747341292924
 20
-150.1810139598506
 30
0.0
 10
114.7747341292924
 20
-149.9105739642585
 30
0.0
 10
114.7747341292924
 20
-149.4723578185347
 30
0.0
 10
115.3290499928691
 20
-149.4634005702731
 30
0.0
 10
115.5426459129546
 20
-149.4634005702731
 30
0.0
 10
115.7731228009178
 20
-149.4634005702731
 30
0.0
 10
116.4183891853051
 20
-149.4795925190537
 30
0.0
 10
116.4183891853051
 20
-149.9433023713684
 30
0.0
  0
SPLINE
  5
D1
330
CC
100
AcDbEntity
  8
_U+30EC_U+30A4_U+30E4_U+30FC 1
370
     0
100
AcDbSpline
210
0.0
220
0.0
230
1.0
 70
    11
 71
     3
 72
    17
 73
    13
 74
     0
 42
0.0000000001
 43
0.0000000001
 12
1.0
 22
0.0
 32
0.0
 13
1.0
 23
0.0
 33
0.0
 40
0.0
 40
0.0
 40
0.0
 40
0.0
 40
1.0
 40
1.0
 40
1.0
 40
2.0
 40
2.0
 40
2.0
 40
3.0
 40
3.0
 40
3.0
 40
4.0
 40
4.0
 40
4.0
 40
4.0
 10
114.9673149669179
 20
-149.9088514165159
 30
0.0
 10
114.9673149669179
 20
-150.0097927142337
 30
0.0
 10
115.024503551973
 20
-150.1596543678421
 30
0.0
 10
115.3101019677003
 20
-150.1596543678421
 30
0.0
 10
115.5364447410812
 20
-150.1596543678421
 30
0.0
 10
115.6315293764741
 20
-150.0404540640524
 30
0.0
 10
115.6315293764741
 20
-149.9250433652965
 30
0.0
 10
115.6315293764741
 20
-149.7014566683038
 30
0.0
 10
115.4220675709709
 20
-149.6690727707425
 30
0.0
 10
115.3056233435694
 20
-149.6690727707425
 30
0.0
 10
115.1302679833702
 20
-149.6690727707425
 30
0.0
 10
114.9673149669179
 20
-149.7500325146458
 30
0.0
 10
114.9673149669179
 20
-149.9088514165159
 30
0.0
  0
HATCH
  5
D2
330
CC
100
AcDbEntity
  8
_U+30EC_U+30A4_U+30E4_U+30FC 1
 62
   179
420
  2234388
100
AcDbHatch
 10
0.0
 20
0.0
 30
0.0
210
0.0
220
0.0
230
1.0
  2
SOLID
 70
     1
 71
     0
 91
        2
 92
        1
 93
        1
 72
     4
 94
        3
 73
     0
 74
     1
 95
       32
 96
       28
 40
0.0
 40
0.0
 40
0.0
 40
0.0
 40
1.0
 40
1.0
 40
1.0
 40
2.0
 40
2.0
 40
2.0
 40
3.0
 40
3.0
 40
3.0
 40
4.0
 40
4.0
 40
4.0
 40
5.0
 40
5.0
 40
5.0
 40
6.0
 40
6.0
 40
6.0
 40
7.0
 40
7.0
 40
7.0
 40
8.0
 40
8.0
 40
8.0
 40
9.0
 40
9.0
 40
9.0
 40
9.0
 10
116.4183891853051
 20
-149.9433023713684
 10
116.4183891853051
 20
-150.0910969676856
 10
116.3487982565031
 20
-150.3002142636402
 10
116.016691051725
 20
-150.3325981612016
 10
116.016691051725
 20
-150.3325981612016
 10
116.016691051725
 20
-150.1503526100319
 10
116.016691051725
 20
-150.1503526100319
 10
116.0759466940713
 20
-150.1413953617702
 10
116.2237412903885
 20
-150.1145236169853
 10
116.2237412903885
 20
-149.9412353140772
 10
116.2237412903885
 20
-149.6924994200422
 10
115.8940456524501
 20
-149.6601155224808
 10
115.6887179615292
 20
-149.649091216928
 10
115.7689886863355
 20
-149.7266058653461
 10
115.8261772713907
 20
-149.7844834694983
 10
115.8261772713907
 20
-149.9395127663346
 10
115.8261772713907
 20
-150.0928195154282
 10
115.7204128399935
 20
-150.3508571672734
 10
115.3142360822826
 20
-150.3508571672734
 10
114.9948757307999
 20
-150.3508571672734
 10
114.7747341292924
 20
-150.1810139598506
 10
114.7747341292924
 20
-149.9105739642585
 10
114.7747341292924
 20
-149.4723578185347
 10
115.3290499928691
 20
-149.4634005702731
 10
115.5426459129546
 20
-149.4634005702731
 10
115.7731228009178
 20
-149.4634005702731
 10
116.4183891853051
 20
-149.4795925190537
 10
116.4183891853051
 20
-149.9433023713684
 97
        0
 97
        0
 92
        1
 93
        1
 72
     4
 94
        3
 73
     0
 74
     1
 95
       17
 96
       13
 40
0.0
 40
0.0
 40
0.0
 40
0.0
 40
1.0
 40
1.0
 40
1.0
 40
2.0
 40
2.0
 40
2.0
 40
3.0
 40
3.0
 40
3.0
 40
4.0
 40
4.0
 40
4.0
 40
4.0
 10
114.9673149669179
 20
-149.9088514165159
 10
114.9673149669179
 20
-150.0097927142337
 10
115.024503551973
 20
-150.1596543678421
 10
115.3101019677003
 20
-150.1596543678421
 10
115.5364447410812
 20
-150.1596543678421
 10
115.6315293764741
 20
-150.0404540640524
 10
115.6315293764741
 20
-149.9250433652965
 10
115.6315293764741
 20
-149.7014566683038
 10
115.4220675709709
 20
-149.6690727707425
 10
115.3056233435694
 20
-149.6690727707425
 10
115.1302679833702
 20
-149.6690727707425
 10
114.9673149669179
 20
-149.7500325146458
 10
114.9673149669179
 20
-149.9088514165159
 97
        0
 97
        0
 75
     2
 76
     1
 98
        0
  0
POLYLINE
  5
D3
330
CC
100
AcDbEntity
  8
_U+30EC_U+30A4_U+30E4_U+30FC 1
370
     0
100
AcDb2dPolyline
 66
     1
 10
0.0
 20
0.0
 30
0.0
  0
VERTEX
  5
D4
330
D3
100
AcDbEntity
  8
_U+30EC_U+30A4_U+30E4_U+30FC 1
370
     0
100
AcDbVertex
100
AcDb2dVertex
 10
116.367746281672
 20
-149.2804660000063
 30
0.0
  0
VERTEX
  5
D5
330
D3
100
AcDbEntity
  8
_U+30EC_U+30A4_U+30E4_U+30FC 1
370
     0
100
AcDbVertex
100
AcDb2dVertex
 10
116.1159098017002
 20
-149.2804660000063
 30
0.0
  0
VERTEX
  5
D6
330
D3
100
AcDbEntity
  8
_U+30EC_U+30A4_U+30E4_U+30FC 1
370
     0
100
AcDbVertex
100
AcDb2dVertex
 10
116.1159098017002
 20
-149.0658365512752
 30
0.0
  0
VERTEX
  5
D7
330
D3
100
AcDbEntity
  8
_U+30EC_U+30A4_U+30E4_U+30FC 1
370
     0
100
AcDbVertex
100
AcDb2dVertex
 10
116.367746281672
 20
-149.0658365512752
 30
0.0
  0
VERTEX
  5
D8
330
D3
100
AcDbEntity
  8
_U+30EC_U+30A4_U+30E4_U+30FC 1
370
     0
100
AcDbVertex
100
AcDb2dVertex
 10
116.367746281672
 20
-149.2804660000063
 30
0.0
  0
SEQEND
  5
D9
330
D3
100
AcDbEntity
  8
_U+30EC_U+30A4_U+30E4_U+30FC 1
370
     0
  0
HATCH
  5
DA
330
CC
100
AcDbEntity
  8
_U+30EC_U+30A4_U+30E4_U+30FC 1
 62
   179
420
  2234388
100
AcDbHatch
 10
0.0
 20
0.0
 30
0.0
210
0.0
220
0.0
230
1.0
  2
SOLID
 70
     1
 71
     0
 91
        1
 92
        1
 93
        4
 72
     1
 10
116.367746281672
 20
-149.2804660000063
 11
116.1159098017002
 21
-149.2804660000063
 72
     1
 10
116.1159098017002
 20
-149.2804660000063
 11
116.1159098017002
 21
-149.0658365512752
 72
     1
 10
116.1159098017002
 20
-149.0658365512752
 11
116.367746281672
 21
-149.0658365512752
 72
     1
 10
116.367746281672
 20
-149.0658365512752
 11
116.367746281672
 21
-149.2804660000063
 97
        0
 75
     2
 76
     1
 98
        0
  0
SPLINE
  5
DB
330
CC
100
AcDbEntity
  8
_U+30EC_U+30A4_U+30E4_U+30FC 1
370
     0
100
AcDbSpline
210
0.0
220
0.0
230
1.0
 70
    11
 71
     3
 72
    53
 73
    49
 74
     0
 42
0.0000000001
 43
0.0000000001
 12
1.0
 22
0.0
 32
0.0
 13
1.0
 23
0.0
 33
0.0
 40
0.0
 40
0.0
 40
0.0
 40
0.0
 40
1.0
 40
1.0
 40
1.0
 40
2.0
 40
2.0
 40
2.0
 40
3.0
 40
3.0
 40
3.0
 40
4.0
 40
4.0
 40
4.0
 40
5.0
 40
5.0
 40
5.0
 40
6.0
 40
6.0
 40
6.0
 40
7.0
 40
7.0
 40
7.0
 40
8.0
 40
8.0
 40
8.0
 40
9.0
 40
9.0
 40
9.0
 40
10.0
 40
10.0
 40
10.0
 40
11.0
 40
11.0
 40
11.0
 40
12.0
 40
12.0
 40
12.0
 40
13.0
 40
13.0
 40
13.0
 40
14.0
 40
14.0
 40
14.0
 40
15.0
 40
15.0
 40
15.0
 40
16.0
 40
16.0
 40
16.0
 40
16.0
 10
116.4183891853051
 20
-148.4546766121919
 30
0.0
 10
116.4183891853051
 20
-148.5215114646057
 30
0.0
 10
116.4015082174274
 20
-148.6079833612855
 30
0.0
 10
116.3381184604988
 20
-148.6944552579653
 30
0.0
 10
116.2282199145193
 20
-148.8422498542825
 30
0.0
 10
116.0969617765313
 20
-148.8605088603543
 30
0.0
 10
115.989130287843
 20
-148.876700809135
 30
0.0
 10
115.989130287843
 20
-148.876700809135
 30
0.0
 10
115.989130287843
 20
-148.6872205574463
 30
0.0
 10
115.989130287843
 20
-148.6872205574463
 30
0.0
 10
116.1879122973419
 20
-148.6403672588469
 30
0.0
 10
116.2175401185151
 20
-148.53219126061
 30
0.0
 10
116.2175401185151
 20
-148.4529540644493
 30
0.0
 10
116.2175401185151
 20
-148.3337537606596
 30
0.0
 10
116.1179768589913
 20
-148.2038736608657
 30
0.0
 10
115.885432913737
 20
-148.2038736608657
 30
0.0
 10
115.6294623191829
 20
-148.2038736608657
 30
0.0
 10
115.5595268808324
 20
-148.3571804099593
 30
0.0
 10
115.5595268808324
 20
-148.4601887649683
 30
0.0
 10
115.5595268808324
 20
-148.4870605097532
 30
0.0
 10
115.5595268808324
 20
-148.6079833612855
 30
0.0
 10
115.6887179615292
 20
-148.683775461961
 30
0.0
 10
115.6887179615292
 20
-148.683775461961
 30
0.0
 10
115.6697699363603
 20
-148.8332926060208
 30
0.0
 10
115.6697699363603
 20
-148.8332926060208
 30
0.0
 10
115.6697699363603
 20
-148.8332926060208
 30
0.0
 10
114.8233099756345
 20
-148.7306287605604
 30
0.0
 10
114.8233099756345
 20
-148.7306287605604
 30
0.0
 10
114.8233099756345
 20
-148.7306287605604
 30
0.0
 10
114.8233099756345
 20
-148.0671033701013
 30
0.0
 10
114.8233099756345
 20
-148.0671033701013
 30
0.0
 10
114.8233099756345
 20
-148.0671033701013
 30
0.0
 10
115.0179578705511
 20
-148.0671033701013
 30
0.0
 10
115.0179578705511
 20
-148.0671033701013
 30
0.0
 10
115.0179578705511
 20
-148.0671033701013
 30
0.0
 10
115.0179578705511
 20
-148.5917914125048
 30
0.0
 10
115.0179578705511
 20
-148.5917914125048
 30
0.0
 10
115.0179578705511
 20
-148.5917914125048
 30
0.0
 10
115.4410155961397
 20
-148.6476019593659
 30
0.0
 10
115.4410155961397
 20
-148.6476019593659
 30
0.0
 10
115.4072536603843
 20
-148.5952365079901
 30
0.0
 10
115.3669460432069
 20
-148.524956560091
 30
0.0
 10
115.3669460432069
 20
-148.4240152623732
 30
0.0
 10
115.3669460432069
 20
-148.2076632658995
 30
0.0
 10
115.5533257089589
 20
-148.0057806704638
 30
0.0
 10
115.8664848885681
 20
-148.0057806704638
 30
0.0
 10
116.1837781827596
 20
-148.0057806704638
 30
0.0
 10
116.4183891853051
 20
-148.1966389603467
 30
0.0
 10
116.4183891853051
 20
-148.4546766121919
 30
0.0
  0
HATCH
  5
DC
330
CC
100
AcDbEntity
  8
_U+30EC_U+30A4_U+30E4_U+30FC 1
 62
   179
420
  2234388
100
AcDbHatch
 10
0.0
 20
0.0
 30
0.0
210
0.0
220
0.0
230
1.0
  2
SOLID
 70
     1
 71
     0
 91
        1
 92
        1
 93
        1
 72
     4
 94
        3
 73
     0
 74
     1
 95
       53
 96
       49
 40
0.0
 40
0.0
 40
0.0
 40
0.0
 40
1.0
 40
1.0
 40
1.0
 40
2.0
 40
2.0
 40
2.0
 40
3.0
 40
3.0
 40
3.0
 40
4.0
 40
4.0
 40
4.0
 40
5.0
 40
5.0
 40
5.0
 40
6.0
 40
6.0
 40
6.0
 40
7.0
 40
7.0
 40
7.0
 40
8.0
 40
8.0
 40
8.0
 40
9.0
 40
9.0
 40
9.0
 40
10.0
 40
10.0
 40
10.0
 40
11.0
 40
11.0
 40
11.0
 40
12.0
 40
12.0
 40
12.0
 40
13.0
 40
13.0
 40
13.0
 40
14.0
 40
14.0
 40
14.0
 40
15.0
 40
15.0
 40
15.0
 40
16.0
 40
16.0
 40
16.0
 40
16.0
 10
116.4183891853051
 20
-148.4546766121919
 10
116.4183891853051
 20
-148.5215114646057
 10
116.4015082174274
 20
-148.6079833612855
 10
116.3381184604988
 20
-148.6944552579653
 10
116.2282199145193
 20
-148.8422498542825
 10
116.0969617765313
 20
-148.8605088603543
 10
115.989130287843
 20
-148.876700809135
 10
115.989130287843
 20
-148.876700809135
 10
115.989130287843
 20
-148.6872205574463
 10
115.989130287843
 20
-148.6872205574463
 10
116.1879122973419
 20
-148.6403672588469
 10
116.2175401185151
 20
-148.53219126061
 10
116.2175401185151
 20
-148.4529540644493
 10
116.2175401185151
 20
-148.3337537606596
 10
116.1179768589913
 20
-148.2038736608657
 10
115.885432913737
 20
-148.2038736608657
 10
115.6294623191829
 20
-148.2038736608657
 10
115.5595268808324
 20
-148.3571804099593
 10
115.5595268808324
 20
-148.4601887649683
 10
115.5595268808324
 20
-148.4870605097532
 10
115.5595268808324
 20
-148.6079833612855
 10
115.6887179615292
 20
-148.683775461961
 10
115.6887179615292
 20
-148.683775461961
 10
115.6697699363603
 20
-148.8332926060208
 10
115.6697699363603
 20
-148.8332926060208
 10
115.6697699363603
 20
-148.8332926060208
 10
114.8233099756345
 20
-148.7306287605604
 10
114.8233099756345
 20
-148.7306287605604
 10
114.8233099756345
 20
-148.7306287605604
 10
114.8233099756345
 20
-148.0671033701013
 10
114.8233099756345
 20
-148.0671033701013
 10
114.8233099756345
 20
-148.0671033701013
 10
115.0179578705511
 20
-148.0671033701013
 10
115.0179578705511
 20
-148.0671033701013
 10
115.0179578705511
 20
-148.0671033701013
 10
115.0179578705511
 20
-148.5917914125048
 10
115.0179578705511
 20
-148.5917914125048
 10
115.0179578705511
 20
-148.5917914125048
 10
115.4410155961397
 20
-148.6476019593659
 10
115.4410155961397
 20
-148.6476019593659
 10
115.4072536603843
 20
-148.5952365079901
 10
115.3669460432069
 20
-148.524956560091
 10
115.3669460432069
 20
-148.4240152623732
 10
115.3669460432069
 20
-148.2076632658995
 10
115.5533257089589
 20
-148.0057806704638
 10
115.8664848885681
 20
-148.0057806704638
 10
116.1837781827596
 20
-148.0057806704638
 10
116.4183891853051
 20
-148.1966389603467
 10
116.4183891853051
 20
-148.4546766121919
 97
        0
 97
        0
 75
     2
 76
     1
 98
        0
  0
ENDBLK
  5
CF
330
CC
100
AcDbEntity
  8
0
100
AcDbBlockEnd
  0
BLOCK
  5
DF
330
DD
100
AcDbEntity
  8
0
100
AcDbBlockBegin
  2
block 11
 70
     0
 10
0.0
 20
0.0
 30
0.0
  3
block 11
  1

  0
POLYLINE
  5
E1
330
DD
100
AcDbEntity
  8
_U+30EC_U+30A4_U+30E4_U+30FC 1
 62
   179
420
  2234388
370
     9
100
AcDb2dPolyline
 66
     1
 10
0.0
 20
0.0
 30
0.0
  0
VERTEX
  5
E2
330
E1
100
AcDbEntity
  8
_U+30EC_U+30A4_U+30E4_U+30FC 1
 62
   179
420
  2234388
370
     9
100
AcDbVertex
100
AcDb2dVertex
 10
117.0137047925095
 20
-154.3233796836415
 30
0.0
  0
VERTEX
  5
E3
330
E1
100
AcDbEntity
  8
_U+30EC_U+30A4_U+30E4_U+30FC 1
 62
   179
420
  2234388
370
     9
100
AcDbVertex
100
AcDb2dVertex
 10
117.0137047925095
 20
-155.3231519056134
 30
0.0
  0
SEQEND
  5
E4
330
E1
100
AcDbEntity
  8
_U+30EC_U+30A4_U+30E4_U+30FC 1
 62
   179
420
  2234388
370
     9
  0
POLYLINE
  5
E5
330
DD
100
AcDbEntity
  8
_U+30EC_U+30A4_U+30E4_U+30FC 1
 62
   179
420
  2234388
370
     9
100
AcDb2dPolyline
 66
     1
 10
0.0
 20
0.0
 30
0.0
  0
VERTEX
  5
E6
330
E5
100
AcDbEntity
  8
_U+30EC_U+30A4_U+30E4_U+30FC 1
 62
   179
420
  2234388
370
     9
100
AcDbVertex
100
AcDb2dVertex
 10
117.0137047925095
 20
-153.923082739297
 30
0.0
  0
VERTEX
  5
E7
330
E5
100
AcDbEntity
  8
_U+30EC_U+30A4_U+30E4_U+30FC 1
 62
   179
420
  2234388
370
     9
100
AcDbVertex
100
AcDb2dVertex
 10
117.0137047925095
 20
-154.3233796836415
 30
0.0
  0
SEQEND
  5
E8
330
E5
100
AcDbEntity
  8
_U+30EC_U+30A4_U+30E4_U+30FC 1
 62
   179
420
  2234388
370
     9
  0
POLYLINE
  5
E9
330
DD
100
AcDbEntity
  8
_U+30EC_U+30A4_U+30E4_U+30FC 1
 62
   179
420
  2234388
370
     9
100
AcDb2dPolyline
 66
     1
 10
0.0
 20
0.0
 30
0.0
  0
VERTEX
  5
EA
330
E9
100
AcDbEntity
  8
_U+30EC_U+30A4_U+30E4_U+30FC 1
 62
   179
420
  2234388
370
     9
100
AcDbVertex
100
AcDb2dVertex
 10
115.5536634408693
 20
-154.3233796836415
 30
0.0
  0
VERTEX
  5
EB
330
E9
100
AcDbEntity
  8
_U+30EC_U+30A4_U+30E4_U+30FC 1
 62
   179
420
  2234388
370
     9
100
AcDbVertex
100
AcDb2dVertex
 10
118.014147266986
 20
-154.3233796836415
 30
0.0
  0
SEQEND
  5
EC
330
E9
100
AcDbEntity
  8
_U+30EC_U+30A4_U+30E4_U+30FC 1
 62
   179
420
  2234388
370
     9
  0
INSERT
  5
EE
330
DD
100
AcDbEntity
  8
_U+30EC_U+30A4_U+30E4_U+30FC 1
100
AcDbBlockReference
  2
block 12
 10
0.0
 20
0.0
 30
0.0
  0
ENDBLK
  5
E0
330
DD
100
AcDbEntity
  8
0
100
AcDbBlockEnd
  0
BLOCK
  5
EF
330
ED
100
AcDbEntity
  8
0
100
AcDbBlockBegin
  2
block 12
 70
     0
 10
0.0
 20
0.0
 30
0.0
  3
block 12
  1

  0
SPLINE
  5
F1
330
ED
100
AcDbEntity
  8
_U+30EC_U+30A4_U+30E4_U+30FC 1
370
     0
100
AcDbSpline
210
0.0
220
0.0
230
1.0
 70
    11
 71
     3
 72
    29
 73
    25
 74
     0
 42
0.0000000001
 43
0.0000000001
 12
1.0
 22
0.0
 32
0.0
 13
1.0
 23
0.0
 33
0.0
 40
0.0
 40
0.0
 40
0.0
 40
0.0
 40
1.0
 40
1.0
 40
1.0
 40
2.0
 40
2.0
 40
2.0
 40
3.0
 40
3.0
 40
3.0
 40
4.0
 40
4.0
 40
4.0
 40
5.0
 40
5.0
 40
5.0
 40
6.0
 40
6.0
 40
6.0
 40
7.0
 40
7.0
 40
7.0
 40
8.0
 40
8.0
 40
8.0
 40
8.0
 10
120.6589572180992
 20
-154.6610161288695
 30
0.0
 10
120.8684190236023
 20
-154.7530001783256
 30
0.0
 10
120.8873670487712
 20
-154.9007947746429
 30
0.0
 10
120.8873670487712
 20
-155.0000135246181
 30
0.0
 10
120.8873670487712
 20
-155.137128324931
 30
0.0
 10
120.8408582597203
 20
-155.2577066669147
 30
0.0
 10
120.6589572180992
 20
-155.3390109203666
 30
0.0
 10
120.4643093231825
 20
-155.427205364789
 30
0.0
 10
120.2276312633459
 20
-155.4433973135697
 30
0.0
 10
120.0646782468936
 20
-155.4433973135697
 30
0.0
 10
119.9206732556101
 20
-155.4433973135697
 30
0.0
 10
119.6688367756384
 20
-155.4292724220802
 30
0.0
 10
119.4700547661394
 20
-155.3390109203666
 30
0.0
 10
119.2671386420582
 20
-155.2470268709105
 30
0.0
 10
119.2437119927585
 20
-155.1099120705975
 30
0.0
 10
119.2437119927585
 20
-155.0000135246181
 30
0.0
 10
119.2437119927585
 20
-154.8646212720477
 30
0.0
 10
119.2881537245182
 20
-154.7419758727729
 30
0.0
 10
119.4700547661394
 20
-154.6610161288695
 30
0.0
 10
119.6626356037649
 20
-154.5762667799323
 30
0.0
 10
119.891045434437
 20
-154.5562852261179
 30
0.0
 10
120.0646782468936
 20
-154.5562852261179
 30
0.0
 10
120.2358994925105
 20
-154.5562852261179
 30
0.0
 10
120.4663763804737
 20
-154.5745442321897
 30
0.0
 10
120.6589572180992
 20
-154.6610161288695
 30
0.0
  0
SPLINE
  5
F2
330
ED
100
AcDbEntity
  8
_U+30EC_U+30A4_U+30E4_U+30FC 1
370
     0
100
AcDbSpline
210
0.0
220
0.0
230
1.0
 70
    11
 71
     3
 72
    17
 73
    13
 74
     0
 42
0.0000000001
 43
0.0000000001
 12
1.0
 22
0.0
 32
0.0
 13
1.0
 23
0.0
 33
0.0
 40
0.0
 40
0.0
 40
0.0
 40
0.0
 40
1.0
 40
1.0
 40
1.0
 40
2.0
 40
2.0
 40
2.0
 40
3.0
 40
3.0
 40
3.0
 40
4.0
 40
4.0
 40
4.0
 40
4.0
 10
119.436292830384
 20
-155.0000135246181
 30
0.0
 10
119.436292830384
 20
-155.212575916058
 30
0.0
 10
119.7198241888201
 20
-155.2525390236869
 30
0.0
 10
120.0646782468936
 20
-155.2525390236869
 30
0.0
 10
120.3840385983762
 20
-155.2525390236869
 30
0.0
 10
120.6927191538546
 20
-155.2218776738681
 30
0.0
 10
120.6927191538546
 20
-155.0000135246181
 30
0.0
 10
120.6927191538546
 20
-154.7888291713722
 30
0.0
 10
120.4115993622582
 20
-154.7474880255492
 30
0.0
 10
120.0646782468936
 20
-154.7474880255492
 30
0.0
 10
119.7449733858624
 20
-154.7474880255492
 30
0.0
 10
119.436292830384
 20
-154.7798719231106
 30
0.0
 10
119.436292830384
 20
-155.0000135246181
 30
0.0
  0
HATCH
  5
F3
330
ED
100
AcDbEntity
  8
_U+30EC_U+30A4_U+30E4_U+30FC 1
 62
   179
420
  2234388
100
AcDbHatch
 10
0.0
 20
0.0
 30
0.0
210
0.0
220
0.0
230
1.0
  2
SOLID
 70
     1
 71
     0
 91
        2
 92
        1
 93
        1
 72
     4
 94
        3
 73
     0
 74
     1
 95
       29
 96
       25
 40
0.0
 40
0.0
 40
0.0
 40
0.0
 40
1.0
 40
1.0
 40
1.0
 40
2.0
 40
2.0
 40
2.0
 40
3.0
 40
3.0
 40
3.0
 40
4.0
 40
4.0
 40
4.0
 40
5.0
 40
5.0
 40
5.0
 40
6.0
 40
6.0
 40
6.0
 40
7.0
 40
7.0
 40
7.0
 40
8.0
 40
8.0
 40
8.0
 40
8.0
 10
120.6589572180992
 20
-154.6610161288695
 10
120.8684190236023
 20
-154.7530001783256
 10
120.8873670487712
 20
-154.9007947746429
 10
120.8873670487712
 20
-155.0000135246181
 10
120.8873670487712
 20
-155.137128324931
 10
120.8408582597203
 20
-155.2577066669147
 10
120.6589572180992
 20
-155.3390109203666
 10
120.4643093231825
 20
-155.427205364789
 10
120.2276312633459
 20
-155.4433973135697
 10
120.0646782468936
 20
-155.4433973135697
 10
119.9206732556101
 20
-155.4433973135697
 10
119.6688367756384
 20
-155.4292724220802
 10
119.4700547661394
 20
-155.3390109203666
 10
119.2671386420582
 20
-155.2470268709105
 10
119.2437119927585
 20
-155.1099120705975
 10
119.2437119927585
 20
-155.0000135246181
 10
119.2437119927585
 20
-154.8646212720477
 10
119.2881537245182
 20
-154.7419758727729
 10
119.4700547661394
 20
-154.6610161288695
 10
119.6626356037649
 20
-154.5762667799323
 10
119.891045434437
 20
-154.5562852261179
 10
120.0646782468936
 20
-154.5562852261179
 10
120.2358994925105
 20
-154.5562852261179
 10
120.4663763804737
 20
-154.5745442321897
 10
120.6589572180992
 20
-154.6610161288695
 97
        0
 97
        0
 92
        1
 93
        1
 72
     4
 94
        3
 73
     0
 74
     1
 95
       17
 96
       13
 40
0.0
 40
0.0
 40
0.0
 40
0.0
 40
1.0
 40
1.0
 40
1.0
 40
2.0
 40
2.0
 40
2.0
 40
3.0
 40
3.0
 40
3.0
 40
4.0
 40
4.0
 40
4.0
 40
4.0
 10
119.436292830384
 20
-155.0000135246181
 10
119.436292830384
 20
-155.212575916058
 10
119.7198241888201
 20
-155.2525390236869
 10
120.0646782468936
 20
-155.2525390236869
 10
120.3840385983762
 20
-155.2525390236869
 10
120.6927191538546
 20
-155.2218776738681
 10
120.6927191538546
 20
-155.0000135246181
 10
120.6927191538546
 20
-154.7888291713722
 10
120.4115993622582
 20
-154.7474880255492
 10
120.0646782468936
 20
-154.7474880255492
 10
119.7449733858624
 20
-154.7474880255492
 10
119.436292830384
 20
-154.7798719231106
 10
119.436292830384
 20
-155.0000135246181
 97
        0
 97
        0
 75
     2
 76
     1
 98
        0
  0
POLYLINE
  5
F4
330
ED
100
AcDbEntity
  8
_U+30EC_U+30A4_U+30E4_U+30FC 1
370
     0
100
AcDb2dPolyline
 66
     1
 10
0.0
 20
0.0
 30
0.0
  0
VERTEX
  5
F5
330
F4
100
AcDbEntity
  8
_U+30EC_U+30A4_U+30E4_U+30FC 1
370
     0
100
AcDbVertex
100
AcDb2dVertex
 10
120.836724145138
 20
-154.3733506558511
 30
0.0
  0
VERTEX
  5
F6
330
F4
100
AcDbEntity
  8
_U+30EC_U+30A4_U+30E4_U+30FC 1
370
     0
100
AcDbVertex
100
AcDb2dVertex
 10
120.5848876651663
 20
-154.3733506558511
 30
0.0
  0
VERTEX
  5
F7
330
F4
100
AcDbEntity
  8
_U+30EC_U+30A4_U+30E4_U+30FC 1
370
     0
100
AcDbVertex
100
AcDb2dVertex
 10
120.5848876651663
 20
-154.15872120712
 30
0.0
  0
VERTEX
  5
F8
330
F4
100
AcDbEntity
  8
_U+30EC_U+30A4_U+30E4_U+30FC 1
370
     0
100
AcDbVertex
100
AcDb2dVertex
 10
120.836724145138
 20
-154.15872120712
 30
0.0
  0
VERTEX
  5
F9
330
F4
100
AcDbEntity
  8
_U+30EC_U+30A4_U+30E4_U+30FC 1
370
     0
100
AcDbVertex
100
AcDb2dVertex
 10
120.836724145138
 20
-154.3733506558511
 30
0.0
  0
SEQEND
  5
FA
330
F4
100
AcDbEntity
  8
_U+30EC_U+30A4_U+30E4_U+30FC 1
370
     0
  0
HATCH
  5
FB
330
ED
100
AcDbEntity
  8
_U+30EC_U+30A4_U+30E4_U+30FC 1
 62
   179
420
  2234388
100
AcDbHatch
 10
0.0
 20
0.0
 30
0.0
210
0.0
220
0.0
230
1.0
  2
SOLID
 70
     1
 71
     0
 91
        1
 92
        1
 93
        4
 72
     1
 10
120.836724145138
 20
-154.3733506558511
 11
120.5848876651663
 21
-154.3733506558511
 72
     1
 10
120.5848876651663
 20
-154.3733506558511
 11
120.5848876651663
 21
-154.15872120712
 72
     1
 10
120.5848876651663
 20
-154.15872120712
 11
120.836724145138
 21
-154.15872120712
 72
     1
 10
120.836724145138
 20
-154.15872120712
 11
120.836724145138
 21
-154.3733506558511
 97
        0
 75
     2
 76
     1
 98
        0
  0
POLYLINE
  5
FC
330
ED
100
AcDbEntity
  8
_U+30EC_U+30A4_U+30E4_U+30FC 1
370
     0
100
AcDb2dPolyline
 66
     1
 10
0.0
 20
0.0
 30
0.0
  0
VERTEX
  5
FD
330
FC
100
AcDbEntity
  8
_U+30EC_U+30A4_U+30E4_U+30FC 1
370
     0
100
AcDbVertex
100
AcDb2dVertex
 10
120.4898030297734
 20
-153.2481824703685
 30
0.0
  0
VERTEX
  5
FE
330
FC
100
AcDbEntity
  8
_U+30EC_U+30A4_U+30E4_U+30FC 1
370
     0
100
AcDbVertex
100
AcDb2dVertex
 10
120.836724145138
 20
-153.2481824703685
 30
0.0
  0
VERTEX
  5
FF
330
FC
100
AcDbEntity
  8
_U+30EC_U+30A4_U+30E4_U+30FC 1
370
     0
100
AcDbVertex
100
AcDb2dVertex
 10
120.836724145138
 20
-153.4338731170235
 30
0.0
  0
VERTEX
  5
100
330
FC
100
AcDbEntity
  8
_U+30EC_U+30A4_U+30E4_U+30FC 1
370
     0
100
AcDbVertex
100
AcDb2dVertex
 10
120.4898030297734
 20
-153.4338731170235
 30
0.0
  0
VERTEX
  5
101
330
FC
100
AcDbEntity
  8
_U+30EC_U+30A4_U+30E4_U+30FC 1
370
     0
100
AcDbVertex
100
AcDb2dVertex
 10
120.4898030297734
 20
-153.9930121142795
 30
0.0
  0
VERTEX
  5
102
330
FC
100
AcDbEntity
  8
_U+30EC_U+30A4_U+30E4_U+30FC 1
370
     0
100
AcDbVertex
100
AcDb2dVertex
 10
120.2655273136836
 20
-153.9930121142795
 30
0.0
  0
VERTEX
  5
103
330
FC
100
AcDbEntity
  8
_U+30EC_U+30A4_U+30E4_U+30FC 1
370
     0
100
AcDbVertex
100
AcDb2dVertex
 10
119.2922878391005
 20
-153.4142360727575
 30
0.0
  0
VERTEX
  5
104
330
FC
100
AcDbEntity
  8
_U+30EC_U+30A4_U+30E4_U+30FC 1
370
     0
100
AcDbVertex
100
AcDb2dVertex
 10
119.2922878391005
 20
-153.2481824703685
 30
0.0
  0
VERTEX
  5
105
330
FC
100
AcDbEntity
  8
_U+30EC_U+30A4_U+30E4_U+30FC 1
370
     0
100
AcDbVertex
100
AcDb2dVertex
 10
120.2910210202745
 20
-153.2481824703685
 30
0.0
  0
VERTEX
  5
106
330
FC
100
AcDbEntity
  8
_U+30EC_U+30A4_U+30E4_U+30FC 1
370
     0
100
AcDbVertex
100
AcDb2dVertex
 10
120.2910210202745
 20
-153.0714490719752
 30
0.0
  0
VERTEX
  5
107
330
FC
100
AcDbEntity
  8
_U+30EC_U+30A4_U+30E4_U+30FC 1
370
     0
100
AcDbVertex
100
AcDb2dVertex
 10
120.4898030297734
 20
-153.0714490719752
 30
0.0
  0
VERTEX
  5
108
330
FC
100
AcDbEntity
  8
_U+30EC_U+30A4_U+30E4_U+30FC 1
370
     0
100
AcDbVertex
100
AcDb2dVertex
 10
120.4898030297734
 20
-153.2481824703685
 30
0.0
  0
SEQEND
  5
109
330
FC
100
AcDbEntity
  8
_U+30EC_U+30A4_U+30E4_U+30FC 1
370
     0
  0
POLYLINE
  5
10A
330
ED
100
AcDbEntity
  8
_U+30EC_U+30A4_U+30E4_U+30FC 1
370
     0
100
AcDb2dPolyline
 66
     1
 10
0.0
 20
0.0
 30
0.0
  0
VERTEX
  5
10B
330
10A
100
AcDbEntity
  8
_U+30EC_U+30A4_U+30E4_U+30FC 1
370
     0
100
AcDbVertex
100
AcDb2dVertex
 10
119.6350748398829
 20
-153.4338731170235
 30
0.0
  0
VERTEX
  5
10C
330
10A
100
AcDbEntity
  8
_U+30EC_U+30A4_U+30E4_U+30FC 1
370
     0
100
AcDbVertex
100
AcDb2dVertex
 10
120.2910210202745
 20
-153.8235134164052
 30
0.0
  0
VERTEX
  5
10D
330
10A
100
AcDbEntity
  8
_U+30EC_U+30A4_U+30E4_U+30FC 1
370
     0
100
AcDbVertex
100
AcDb2dVertex
 10
120.2910210202745
 20
-153.4338731170235
 30
0.0
  0
VERTEX
  5
10E
330
10A
100
AcDbEntity
  8
_U+30EC_U+30A4_U+30E4_U+30FC 1
370
     0
100
AcDbVertex
100
AcDb2dVertex
 10
119.6350748398829
 20
-153.4338731170235
 30
0.0
  0
SEQEND
  5
10F
330
10A
100
AcDbEntity
  8
_U+30EC_U+30A4_U+30E4_U+30FC 1
370
     0
  0
HATCH
  5
110
330
ED
100
AcDbEntity
  8
_U+30EC_U+30A4_U+30E4_U+30FC 1
 62
   179
420
  2234388
100
AcDbHatch
 10
0.0
 20
0.0
 30
0.0
210
0.0
220
0.0
230
1.0
  2
SOLID
 70
     1
 71
     0
 91
        2
 92
        1
 93
       11
 72
     1
 10
120.4898030297734
 20
-153.2481824703685
 11
120.836724145138
 21
-153.2481824703685
 72
     1
 10
120.836724145138
 20
-153.2481824703685
 11
120.836724145138
 21
-153.4338731170235
 72
     1
 10
120.836724145138
 20
-153.4338731170235
 11
120.4898030297734
 21
-153.4338731170235
 72
     1
 10
120.4898030297734
 20
-153.4338731170235
 11
120.4898030297734
 21
-153.9930121142795
 72
     1
 10
120.4898030297734
 20
-153.9930121142795
 11
120.2655273136836
 21
-153.9930121142795
 72
     1
 10
120.2655273136836
 20
-153.9930121142795
 11
119.2922878391005
 21
-153.4142360727575
 72
     1
 10
119.2922878391005
 20
-153.4142360727575
 11
119.2922878391005
 21
-153.2481824703685
 72
     1
 10
119.2922878391005
 20
-153.2481824703685
 11
120.2910210202745
 21
-153.2481824703685
 72
     1
 10
120.2910210202745
 20
-153.2481824703685
 11
120.2910210202745
 21
-153.0714490719752
 72
     1
 10
120.2910210202745
 20
-153.0714490719752
 11
120.4898030297734
 21
-153.0714490719752
 72
     1
 10
120.4898030297734
 20
-153.0714490719752
 11
120.4898030297734
 21
-153.2481824703685
 97
        0
 92
        1
 93
        3
 72
     1
 10
119.6350748398829
 20
-153.4338731170235
 11
120.2910210202745
 21
-153.8235134164052
 72
     1
 10
120.2910210202745
 20
-153.8235134164052
 11
120.2910210202745
 21
-153.4338731170235
 72
     1
 10
120.2910210202745
 20
-153.4338731170235
 11
119.6350748398829
 21
-153.4338731170235
 97
        0
 75
     2
 76
     1
 98
        0
  0
ENDBLK
  5
F0
330
ED
100
AcDbEntity
  8
0
100
AcDbBlockEnd
  0
ENDSEC
  0
SECTION
  2
ENTITIES
  0
INSERT
  5
42
330
1F
100
AcDbEntity
  8
_U+30EC_U+30A4_U+30E4_U+30FC 1
100
AcDbBlockReference
  2
block 2
 10
0.0
 20
0.0
 30
0.0
  0
ENDSEC
  0
SECTION
  2
OBJECTS
  0
DICTIONARY
  5
C
330
0
100
AcDbDictionary
281
     1
  3
ACAD_GROUP
350
D
  3
ACAD_LAYOUT
350
1A
  3
ACAD_MATERIAL
350
3B
  3
ACAD_MLEADERSTYLE
350
112
  3
ACAD_MLINESTYLE
350
17
  3
ACAD_PLOTSETTINGS
350
19
  3
ACAD_PLOTSTYLENAME
350
E
  3
ACAD_TABLESTYLE
350
111
  3
ACAD_VISUALSTYLE
350
2A
  0
SUN
  5
3F
330
29
100
AcDbSun
 90
        1
290
     0
 63
     7
421
 16777215
 40
1.0
291
     1
 91
  2455826
 92
 54000000
292
     0
 70
     2
 71
   256
280
     1
  0
DICTIONARY
  5
D
102
{ACAD_REACTORS
330
C
102
}
330
C
100
AcDbDictionary
281
     1
  0
DICTIONARY
  5
1A
102
{ACAD_REACTORS
330
C
102
}
330
C
100
AcDbDictionary
281
     1
  3
Layout1
350
1E
  3
Layout2
350
26
  3
Model
350
22
  0
DICTIONARY
  5
3B
102
{ACAD_REACTORS
330
C
102
}
330
C
100
AcDbDictionary
281
     1
  3
ByBlock
350
3D
  3
ByLayer
350
3C
  3
Global
350
3E
  0
DICTIONARY
  5
112
102
{ACAD_REACTORS
330
C
102
}
330
C
100
AcDbDictionary
281
     1
  0
DICTIONARY
  5
17
102
{ACAD_REACTORS
330
C
102
}
330
C
100
AcDbDictionary
281
     1
  3
Standard
350
18
  0
DICTIONARY
  5
19
102
{ACAD_REACTORS
330
C
102
}
330
C
100
AcDbDictionary
281
     1
  0
ACDBDICTIONARYWDFLT
  5
E
102
{ACAD_REACTORS
330
C
102
}
330
C
100
AcDbDictionary
281
     1
  3
Normal
350
F
100
AcDbDictionaryWithDefault
340
F
  0
DICTIONARY
  5
111
102
{ACAD_REACTORS
330
C
102
}
330
C
100
AcDbDictionary
281
     1
  0
DICTIONARY
  5
2A
102
{ACAD_REACTORS
330
C
102
}
330
C
100
AcDbDictionary
281
     1
  3
2dWireframe
350
2F
  3
3D Hidden
350
31
  3
3dWireframe
350
30
  3
Basic
350
32
  3
Brighten
350
36
  3
ColorChange
350
3A
  3
Conceptual
350
34
  3
Dim
350
35
  3
Facepattern
350
39
  3
Flat
350
2B
  3
FlatWithEdges
350
2C
  3
Gouraud
350
2D
  3
GouraudWithEdges
350
2E
  3
Linepattern
350
38
  3
Realistic
350
33
  3
Thicken
350
37
  0
LAYOUT
  5
1E
102
{ACAD_REACTORS
330
1A
102
}
330
1A
100
AcDbPlotSettings
  1

  2
none_device
  4

  6

 40
0.0
 41
0.0
 42
0.0
 43
0.0
 44
0.0
 45
0.0
 46
0.0
 47
0.0
 48
0.0
 49
0.0
140
0.0
141
0.0
142
1.0
143
1.0
 70
   688
 72
     0
 73
     0
 74
     5
  7

 75
    16
 76
     0
 77
     2
 78
   300
147
1.0
148
0.0
149
0.0
100
AcDbLayout
  1
Layout1
 70
     1
 71
     1
 10
0.0
 20
0.0
 11
12.0
 21
9.0
 12
0.0
 22
0.0
 32
0.0
 14
1.000000000000000E+20
 24
1.000000000000000E+20
 34
1.000000000000000E+20
 15
-1.000000000000000E+20
 25
-1.000000000000000E+20
 35
-1.000000000000000E+20
146
0.0
 13
0.0
 23
0.0
 33
0.0
 16
1.0
 26
0.0
 36
0.0
 17
0.0
 27
1.0
 37
0.0
 76
     0
330
1B
  0
LAYOUT
  5
26
102
{ACAD_REACTORS
330
1A
102
}
330
1A
100
AcDbPlotSettings
  1

  2
none_device
  4

  6

 40
0.0
 41
0.0
 42
0.0
 43
0.0
 44
0.0
 45
0.0
 46
0.0
 47
0.0
 48
0.0
 49
0.0
140
0.0
141
0.0
142
1.0
143
1.0
 70
   688
 72
     0
 73
     0
 74
     5
  7

 75
    16
 76
     0
 77
     2
 78
   300
147
1.0
148
0.0
149
0.0
100
AcDbLayout
  1
Layout2
 70
     1
 71
     2
 10
0.0
 20
0.0
 11
0.0
 21
0.0
 12
0.0
 22
0.0
 32
0.0
 14
0.0
 24
0.0
 34
0.0
 15
0.0
 25
0.0
 35
0.0
146
0.0
 13
0.0
 23
0.0
 33
0.0
 16
1.0
 26
0.0
 36
0.0
 17
0.0
 27
1.0
 37
0.0
 76
     0
330
23
  0
LAYOUT
  5
22
102
{ACAD_REACTORS
330
1A
102
}
330
1A
100
AcDbPlotSettings
  1

  2
none_device
  4

  6

 40
0.0
 41
0.0
 42
0.0
 43
0.0
 44
0.0
 45
0.0
 46
0.0
 47
0.0
 48
0.0
 49
0.0
140
0.0
141
0.0
142
1.0
143
1.0
 70
  1712
 72
     0
 73
     0
 74
     0
  7

 75
     0
 76
     0
 77
     2
 78
   300
147
1.0
148
0.0
149
0.0
100
AcDbLayout
  1
Model
 70
     1
 71
     0
 10
0.0
 20
0.0
 11
12.0
 21
9.0
 12
0.0
 22
0.0
 32
0.0
 14
1.000000000000000E+20
 24
1.000000000000000E+20
 34
1.000000000000000E+20
 15
-1.000000000000000E+20
 25
-1.000000000000000E+20
 35
-1.000000000000000E+20
146
0.0
 13
0.0
 23
0.0
 33
0.0
 16
1.0
 26
0.0
 36
0.0
 17
0.0
 27
1.0
 37
0.0
 76
     0
330
1F
331
29
  0
MATERIAL
  5
3D
102
{ACAD_REACTORS
330
3B
102
}
330
3B
100
AcDbMaterial
  1
ByBlock
 72
     1
 94
      127
  0
MATERIAL
  5
3C
102
{ACAD_REACTORS
330
3B
102
}
330
3B
100
AcDbMaterial
  1
ByLayer
 72
     1
 94
      127
  0
MATERIAL
  5
3E
102
{ACAD_REACTORS
330
3B
102
}
330
3B
100
AcDbMaterial
  1
Global
 72
     1
 94
      127
  0
MLINESTYLE
  5
18
102
{ACAD_REACTORS
330
17
102
}
330
17
100
AcDbMlineStyle
  2
Standard
 70
     0
  3

 62
   256
 51
90.0
 52
90.0
 71
     2
 49
0.5
 62
   256
  6
BYLAYER
 49
-0.5
 62
   256
  6
BYLAYER
  0
ACDBPLACEHOLDER
  5
F
102
{ACAD_REACTORS
330
E
102
}
330
E
  0
VISUALSTYLE
  5
2F
102
{ACAD_REACTORS
330
2A
102
}
330
2A
100
AcDbVisualStyle
  2
2dWireframe
 70
     4
177
     2
291
     0
 71
     0
176
     1
 72
     2
176
     1
 73
     0
176
     1
 90
        0
176
     1
 40
-0.6
176
     1
 41
-30.0
176
     1
 62
     5
 63
     7
421
 16777215
176
     1
 74
     1
176
     1
 91
        4
176
     1
 64
     7
176
     1
 65
   257
176
     1
 75
     1
176
     1
175
     1
176
     1
 42
1.0
176
     1
 92
        0
176
     1
 66
   257
176
     1
 43
1.0
176
     1
 76
     1
176
     1
 77
     6
176
     1
 78
     2
176
     1
 67
     7
176
     1
 79
     5
176
     1
170
     0
176
     1
171
     0
176
     1
290
     0
176
     1
 93
        1
176
     1
 44
0.0
176
     1
173
     0
176
     1
  0
VISUALSTYLE
  5
31
102
{ACAD_REACTORS
330
2A
102
}
330
2A
100
AcDbVisualStyle
  2
3D Hidden
 70
     6
177
     2
291
     0
 71
     1
176
     1
 72
     2
176
     1
 73
     2
176
     1
 90
        0
176
     1
 40
-0.6
176
     1
 41
-30.0
176
     1
 62
     5
 63
     7
421
 16777215
176
     1
 74
     2
176
     1
 91
        2
176
     1
 64
     7
176
     1
 65
   257
176
     1
 75
     2
176
     1
175
     1
176
     1
 42
40.0
176
     1
 92
        0
176
     1
 66
   257
176
     1
 43
1.0
176
     1
 76
     1
176
     1
 77
     6
176
     1
 78
     2
176
     1
 67
     7
176
     1
 79
     3
176
     1
170
     0
176
     1
171
     0
176
     1
290
     0
176
     1
 93
        1
176
     1
 44
0.0
176
     1
173
     0
176
     1
  0
VISUALSTYLE
  5
30
102
{ACAD_REACTORS
330
2A
102
}
330
2A
100
AcDbVisualStyle
  2
3dWireframe
 70
     5
177
     2
291
     0
 71
     0
176
     1
 72
     2
176
     1
 73
     0
176
     1
 90
        0
176
     1
 40
-0.6
176
     1
 41
-30.0
176
     1
 62
     5
 63
     7
421
 16777215
176
     1
 74
     1
176
     1
 91
        4
176
     1
 64
     7
176
     1
 65
   257
176
     1
 75
     1
176
     1
175
     1
176
     1
 42
1.0
176
     1
 92
        0
176
     1
 66
   257
176
     1
 43
1.0
176
     1
 76
     1
176
     1
 77
     6
176
     1
 78
     2
176
     1
 67
     7
176
     1
 79
     5
176
     1
170
     0
176
     1
171
     0
176
     1
290
     0
176
     1
 93
        1
176
     1
 44
0.0
176
     1
173
     0
176
     1
  0
VISUALSTYLE
  5
32
102
{ACAD_REACTORS
330
2A
102
}
330
2A
100
AcDbVisualStyle
  2
Basic
 70
     7
177
     2
291
     1
 71
     1
176
     1
 72
     0
176
     1
 73
     1
176
     1
 90
        0
176
     1
 40
-0.6
176
     1
 41
-30.0
176
     1
 62
     5
 63
     7
421
 16777215
176
     1
 74
     0
176
     1
 91
        4
176
     1
 64
     7
176
     1
 65
   257
176
     1
 75
     1
176
     1
175
     1
176
     1
 42
1.0
176
     1
 92
        8
176
     1
 66
     7
176
     1
 43
1.0
176
     1
 76
     1
176
     1
 77
     6
176
     1
 78
     2
176
     1
 67
     7
176
     1
 79
     5
176
     1
170
     0
176
     1
171
     0
176
     1
290
     0
176
     1
 93
        1
176
     1
 44
0.0
176
     1
173
     0
176
     1
  0
VISUALSTYLE
  5
36
102
{ACAD_REACTORS
330
2A
102
}
330
2A
100
AcDbVisualStyle
  2
Brighten
 70
    12
177
     2
291
     1
 71
     2
176
     1
 72
     2
176
     1
 73
     0
176
     1
 90
        0
176
     1
 40
-0.6
176
     1
 41
-30.0
176
     1
 62
     5
 63
     7
421
 16777215
176
     1
 74
     1
176
     1
 91
        4
176
     1
 64
     7
176
     1
 65
   257
176
     1
 75
     1
176
     1
175
     1
176
     1
 42
1.0
176
     1
 92
        8
176
     1
 66
     7
176
     1
 43
1.0
176
     1
 76
     1
176
     1
 77
     6
176
     1
 78
     2
176
     1
 67
     7
176
     1
 79
     5
176
     1
170
     0
176
     1
171
     0
176
     1
290
     0
176
     1
 93
        1
176
     1
 44
50.0
176
     1
173
     0
176
     1
  0
VISUALSTYLE
  5
3A
102
{ACAD_REACTORS
330
2A
102
}
330
2A
100
AcDbVisualStyle
  2
ColorChange
 70
    16
177
     2
291
     1
 71
     2
176
     1
 72
     2
176
     1
 73
     3
176
     1
 90
        0
176
     1
 40
-0.6
176
     1
 41
-30.0
176
     1
 62
     5
 63
     8
421
  8421504
176
     1
 74
     1
176
     1
 91
        4
176
     1
 64
     7
176
     1
 65
   257
176
     1
 75
     1
176
     1
175
     1
176
     1
 42
1.0
176
     1
 92
        8
176
     1
 66
     8
424
  8421504
176
     1
 43
1.0
176
     1
 76
     1
176
     1
 77
     6
176
     1
 78
     2
176
     1
 67
     7
176
     1
 79
     5
176
     1
170
     0
176
     1
171
     0
176
     1
290
     0
176
     1
 93
        1
176
     1
 44
0.0
176
     1
173
     0
176
     1
  0
VISUALSTYLE
  5
34
102
{ACAD_REACTORS
330
2A
102
}
330
2A
100
AcDbVisualStyle
  2
Conceptual
 70
     9
177
     2
291
     0
 71
     3
176
     1
 72
     2
176
     1
 73
     0
176
     1
 90
        0
176
     1
 40
-0.6
176
     1
 41
-30.0
176
     1
 62
     5
 63
     7
421
 16777215
176
     1
 74
     2
176
     1
 91
        2
176
     1
 64
     7
176
     1
 65
   257
176
     1
 75
     1
176
     1
175
     1
176
     1
 42
40.0
176
     1
 92
        8
176
     1
 66
     7
176
     1
 43
1.0
176
     1
 76
     1
176
     1
 77
     6
176
     1
 78
     2
176
     1
 67
     7
176
     1
 79
     3
176
     1
170
     0
176
     1
171
     0
176
     1
290
     0
176
     1
 93
        1
176
     1
 44
0.0
176
     1
173
     0
176
     1
  0
VISUALSTYLE
  5
35
102
{ACAD_REACTORS
330
2A
102
}
330
2A
100
AcDbVisualStyle
  2
Dim
 70
    11
177
     2
291
     1
 71
     2
176
     1
 72
     2
176
     1
 73
     0
176
     1
 90
        0
176
     1
 40
-0.6
176
     1
 41
-30.0
176
     1
 62
     5
 63
     7
421
 16777215
176
     1
 74
     1
176
     1
 91
        4
176
     1
 64
     7
176
     1
 65
   257
176
     1
 75
     1
176
     1
175
     1
176
     1
 42
1.0
176
     1
 92
        8
176
     1
 66
     7
176
     1
 43
1.0
176
     1
 76
     1
176
     1
 77
     6
176
     1
 78
     2
176
     1
 67
     7
176
     1
 79
     5
176
     1
170
     0
176
     1
171
     0
176
     1
290
     0
176
     1
 93
        1
176
     1
 44
-50.0
176
     1
173
     0
176
     1
  0
VISUALSTYLE
  5
39
102
{ACAD_REACTORS
330
2A
102
}
330
2A
100
AcDbVisualStyle
  2
Facepattern
 70
    15
177
     2
291
     1
 71
     2
176
     1
 72
     2
176
     1
 73
     0
176
     1
 90
        0
176
     1
 40
-0.6
176
     1
 41
-30.0
176
     1
 62
     5
 63
     7
421
 16777215
176
     1
 74
     1
176
     1
 91
        4
176
     1
 64
     7
176
     1
 65
   257
176
     1
 75
     1
176
     1
175
     1
176
     1
 42
1.0
176
     1
 92
        8
176
     1
 66
     7
176
     1
 43
1.0
176
     1
 76
     1
176
     1
 77
     6
176
     1
 78
     2
176
     1
 67
     7
176
     1
 79
     5
176
     1
170
     0
176
     1
171
     0
176
     1
290
     0
176
     1
 93
        1
176
     1
 44
0.0
176
     1
173
     0
176
     1
  0
VISUALSTYLE
  5
2B
102
{ACAD_REACTORS
330
2A
102
}
330
2A
100
AcDbVisualStyle
  2
Flat
 70
     0
177
     2
291
     1
 71
     2
176
     1
 72
     1
176
     1
 73
     1
176
     1
 90
        2
176
     1
 40
-0.6
176
     1
 41
30.0
176
     1
 62
     5
 63
     7
421
 16777215
176
     1
 74
     0
176
     1
 91
        4
176
     1
 64
     7
176
     1
 65
   257
176
     1
 75
     1
176
     1
175
     1
176
     1
 42
1.0
176
     1
 92
        8
176
     1
 66
     7
176
     1
 43
1.0
176
     1
 76
     1
176
     1
 77
     6
176
     1
 78
     2
176
     1
 67
     7
176
     1
 79
     5
176
     1
170
     0
176
     1
171
     0
176
     1
290
     0
176
     1
 93
       13
176
     1
 44
0.0
176
     1
173
     0
176
     1
  0
VISUALSTYLE
  5
2C
102
{ACAD_REACTORS
330
2A
102
}
330
2A
100
AcDbVisualStyle
  2
FlatWithEdges
 70
     1
177
     2
291
     1
 71
     2
176
     1
 72
     1
176
     1
 73
     1
176
     1
 90
        2
176
     1
 40
-0.6
176
     1
 41
30.0
176
     1
 62
     5
 63
     7
421
 16777215
176
     1
 74
     1
176
     1
 91
        4
176
     1
 64
     7
176
     1
 65
   257
176
     1
 75
     1
176
     1
175
     1
176
     1
 42
1.0
176
     1
 92
        0
176
     1
 66
   257
176
     1
 43
1.0
176
     1
 76
     1
176
     1
 77
     6
176
     1
 78
     2
176
     1
 67
     7
176
     1
 79
     5
176
     1
170
     0
176
     1
171
     0
176
     1
290
     0
176
     1
 93
       13
176
     1
 44
0.0
176
     1
173
     0
176
     1
  0
VISUALSTYLE
  5
2D
102
{ACAD_REACTORS
330
2A
102
}
330
2A
100
AcDbVisualStyle
  2
Gouraud
 70
     2
177
     2
291
     1
 71
     2
176
     1
 72
     2
176
     1
 73
     1
176
     1
 90
        2
176
     1
 40
-0.6
176
     1
 41
30.0
176
     1
 62
     5
 63
     7
421
 16777215
176
     1
 74
     0
176
     1
 91
        4
176
     1
 64
     7
176
     1
 65
   257
176
     1
 75
     1
176
     1
175
     1
176
     1
 42
1.0
176
     1
 92
        0
176
     1
 66
     7
176
     1
 43
1.0
176
     1
 76
     1
176
     1
 77
     6
176
     1
 78
     2
176
     1
 67
     7
176
     1
 79
     5
176
     1
170
     0
176
     1
171
     0
176
     1
290
     0
176
     1
 93
       13
176
     1
 44
0.0
176
     1
173
     0
176
     1
  0
VISUALSTYLE
  5
2E
102
{ACAD_REACTORS
330
2A
102
}
330
2A
100
AcDbVisualStyle
  2
GouraudWithEdges
 70
     3
177
     2
291
     1
 71
     2
176
     1
 72
     2
176
     1
 73
     1
176
     1
 90
        2
176
     1
 40
-0.6
176
     1
 41
30.0
176
     1
 62
     5
 63
     7
421
 16777215
176
     1
 74
     1
176
     1
 91
        4
176
     1
 64
     7
176
     1
 65
   257
176
     1
 75
     1
176
     1
175
     1
176
     1
 42
1.0
176
     1
 92
        0
176
     1
 66
   257
176
     1
 43
1.0
176
     1
 76
     1
176
     1
 77
     6
176
     1
 78
     2
176
     1
 67
     7
176
     1
 79
     5
176
     1
170
     0
176
     1
171
     0
176
     1
290
     0
176
     1
 93
       13
176
     1
 44
0.0
176
     1
173
     0
176
     1
  0
VISUALSTYLE
  5
38
102
{ACAD_REACTORS
330
2A
102
}
330
2A
100
AcDbVisualStyle
  2
Linepattern
 70
    14
177
     2
291
     1
 71
     2
176
     1
 72
     2
176
     1
 73
     0
176
     1
 90
        0
176
     1
 40
-0.6
176
     1
 41
-30.0
176
     1
 62
     5
 63
     7
421
 16777215
176
     1
 74
     1
176
     1
 91
        4
176
     1
 64
     7
176
     1
 65
   257
176
     1
 75
     7
176
     1
175
     7
176
     1
 42
1.0
176
     1
 92
        8
176
     1
 66
     7
176
     1
 43
1.0
176
     1
 76
     1
176
     1
 77
     6
176
     1
 78
     2
176
     1
 67
     7
176
     1
 79
     5
176
     1
170
     0
176
     1
171
     0
176
     1
290
     0
176
     1
 93
        1
176
     1
 44
0.0
176
     1
173
     0
176
     1
  0
VISUALSTYLE
  5
33
102
{ACAD_REACTORS
330
2A
102
}
330
2A
100
AcDbVisualStyle
  2
Realistic
 70
     8
177
     2
291
     0
 71
     2
176
     1
 72
     2
176
     1
 73
     0
176
     1
 90
        0
176
     1
 40
-0.6
176
     1
 41
-30.0
176
     1
 62
     5
 63
     7
421
 16777215
176
     1
 74
     1
176
     1
 91
        0
176
     1
 64
     7
176
     1
 65
   257
176
     1
 75
     1
176
     1
175
     1
176
     1
 42
1.0
176
     1
 92
        8
176
     1
 66
     8
424
  7895160
176
     1
 43
1.0
176
     1
 76
     1
176
     1
 77
     6
176
     1
 78
     2
176
     1
 67
     7
176
     1
 79
     5
176
     1
170
     0
176
     1
171
     0
176
     1
290
     0
176
     1
 93
       13
176
     1
 44
0.0
176
     1
173
     0
176
     1
  0
VISUALSTYLE
  5
37
102
{ACAD_REACTORS
330
2A
102
}
330
2A
100
AcDbVisualStyle
  2
Thicken
 70
    13
177
     2
291
     1
 71
     2
176
     1
 72
     2
176
     1
 73
     0
176
     1
 90
        0
176
     1
 40
-0.6
176
     1
 41
-30.0
176
     1
 62
     5
 63
     7
421
 16777215
176
     1
 74
     1
176
     1
 91
        4
176
     1
 64
     7
176
     1
 65
   257
176
     1
 75
     1
176
     1
175
     1
176
     1
 42
1.0
176
     1
 92
       12
176
     1
 66
     7
176
     1
 43
1.0
176
     1
 76
     1
176
     1
 77
     6
176
     1
 78
     2
176
     1
 67
     7
176
     1
 79
     5
176
     1
170
     0
176
     1
171
     0
176
     1
290
     0
176
     1
 93
        1
176
     1
 44
0.0
176
     1
173
     0
176
     1
  0
ENDSEC
  0
EOF
