  0
SECTION
  2
HEADER
  9
$ACADVER
  1
AC1024
  9
$ACADMAINTVER
 70
   226
  9
$DWGCODEPAGE
  3
ANSI_932
  9
$INSBASE
 10
0.0
 20
0.0
 30
0.0
  9
$EXTMIN
 10
1.000000000000000E+20
 20
1.000000000000000E+20
 30
1.000000000000000E+20
  9
$EXTMAX
 10
-1.000000000000000E+20
 20
-1.000000000000000E+20
 30
-1.000000000000000E+20
  9
$LIMMIN
 10
0.0
 20
0.0
  9
$LIMMAX
 10
12.0
 20
9.0
  9
$ORTHOMODE
 70
     0
  9
$REGENMODE
 70
     1
  9
$FILLMODE
 70
     1
  9
$QTEXTMODE
 70
     0
  9
$MIRRTEXT
 70
     0
  9
$LTSCALE
 40
1.0
  9
$ATTMODE
 70
     1
  9
$TEXTSIZE
 40
0.2
  9
$TRACEWID
 40
0.05
  9
$TEXTSTYLE
  7
Standard
  9
$CLAYER
  8
0
  9
$CELTYPE
  6
ByLayer
  9
$CECOLOR
 62
   256
  9
$CELTSCALE
 40
1.0
  9
$DISPSILH
 70
     0
  9
$DIMSCALE
 40
1.0
  9
$DIMASZ
 40
0.18
  9
$DIMEXO
 40
0.0625
  9
$DIMDLI
 40
0.38
  9
$DIMRND
 40
0.0
  9
$DIMDLE
 40
0.0
  9
$DIMEXE
 40
0.18
  9
$DIMTP
 40
0.0
  9
$DIMTM
 40
0.0
  9
$DIMTXT
 40
0.18
  9
$DIMCEN
 40
0.09
  9
$DIMTSZ
 40
0.0
  9
$DIMTOL
 70
     0
  9
$DIMLIM
 70
     0
  9
$DIMTIH
 70
     1
  9
$DIMTOH
 70
     1
  9
$DIMSE1
 70
     0
  9
$DIMSE2
 70
     0
  9
$DIMTAD
 70
     0
  9
$DIMZIN
 70
     0
  9
$DIMBLK
  1

  9
$DIMASO
 70
     1
  9
$DIMSHO
 70
     1
  9
$DIMPOST
  1

  9
$DIMAPOST
  1

  9
$DIMALT
 70
     0
  9
$DIMALTD
 70
     2
  9
$DIMALTF
 40
25.4
  9
$DIMLFAC
 40
1.0
  9
$DIMTOFL
 70
     0
  9
$DIMTVP
 40
0.0
  9
$DIMTIX
 70
     0
  9
$DIMSOXD
 70
     0
  9
$DIMSAH
 70
     0
  9
$DIMBLK1
  1

  9
$DIMBLK2
  1

  9
$DIMSTYLE
  2
Standard
  9
$DIMCLRD
 70
     0
  9
$DIMCLRE
 70
     0
  9
$DIMCLRT
 70
     0
  9
$DIMTFAC
 40
1.0
  9
$DIMGAP
 40
0.09
  9
$DIMJUST
 70
     0
  9
$DIMSD1
 70
     0
  9
$DIMSD2
 70
     0
  9
$DIMTOLJ
 70
     1
  9
$DIMTZIN
 70
     0
  9
$DIMALTZ
 70
     0
  9
$DIMALTTZ
 70
     0
  9
$DIMUPT
 70
     0
  9
$DIMDEC
 70
     4
  9
$DIMTDEC
 70
     4
  9
$DIMALTU
 70
     2
  9
$DIMALTTD
 70
     2
  9
$DIMTXSTY
  7
Standard
  9
$DIMAUNIT
 70
     0
  9
$DIMADEC
 70
     0
  9
$DIMALTRND
 40
0.0
  9
$DIMAZIN
 70
     0
  9
$DIMDSEP
 70
    46
  9
$DIMATFIT
 70
     3
  9
$DIMFRAC
 70
     0
  9
$DIMLDRBLK
  1

  9
$DIMLUNIT
 70
     2
  9
$DIMLWD
 70
    -2
  9
$DIMLWE
 70
    -2
  9
$DIMTMOVE
 70
     0
  9
$DIMFXL
 40
1.0
  9
$DIMFXLON
 70
     0
  9
$DIMJOGANG
 40
0.7853981633974483
  9
$DIMTFILL
 70
     0
  9
$DIMTFILLCLR
 70
     0
  9
$DIMARCSYM
 70
     0
  9
$DIMLTYPE
  6

  9
$DIMLTEX1
  6

  9
$DIMLTEX2
  6

  9
$DIMTXTDIRECTION
 70
     0
  9
$LUNITS
 70
     2
  9
$LUPREC
 70
     4
  9
$SKETCHINC
 40
0.1
  9
$FILLETRAD
 40
0.0
  9
$AUNITS
 70
     0
  9
$AUPREC
 70
     0
  9
$MENU
  1
.
  9
$ELEVATION
 40
0.0
  9
$PELEVATION
 40
0.0
  9
$THICKNESS
 40
0.0
  9
$LIMCHECK
 70
     0
  9
$CHAMFERA
 40
0.0
  9
$CHAMFERB
 40
0.0
  9
$CHAMFERC
 40
0.0
  9
$CHAMFERD
 40
0.0
  9
$SKPOLY
 70
     0
  9
$TDCREATE
 40
2459569.503726852
  9
$TDUCREATE
 40
2459569.128726851
  9
$TDUPDATE
 40
2459569.503726852
  9
$TDUUPDATE
 40
2459569.128726851
  9
$TDINDWG
 40
0.0000000000
  9
$TDUSRTIMER
 40
0.0000000000
  9
$USRTIMER
 70
     1
  9
$ANGBASE
 50
0.0
  9
$ANGDIR
 70
     0
  9
$PDMODE
 70
     0
  9
$PDSIZE
 40
0.0
  9
$PLINEWID
 40
0.0
  9
$SPLFRAME
 70
     0
  9
$SPLINETYPE
 70
     6
  9
$SPLINESEGS
 70
     8
  9
$HANDSEED
  5
163
  9
$SURFTAB1
 70
     6
  9
$SURFTAB2
 70
     6
  9
$SURFTYPE
 70
     6
  9
$SURFU
 70
     6
  9
$SURFV
 70
     6
  9
$UCSBASE
  2

  9
$UCSNAME
  2

  9
$UCSORG
 10
0.0
 20
0.0
 30
0.0
  9
$UCSXDIR
 10
1.0
 20
0.0
 30
0.0
  9
$UCSYDIR
 10
0.0
 20
1.0
 30
0.0
  9
$UCSORTHOREF
  2

  9
$UCSORTHOVIEW
 70
     0
  9
$UCSORGTOP
 10
0.0
 20
0.0
 30
0.0
  9
$UCSORGBOTTOM
 10
0.0
 20
0.0
 30
0.0
  9
$UCSORGLEFT
 10
0.0
 20
0.0
 30
0.0
  9
$UCSORGRIGHT
 10
0.0
 20
0.0
 30
0.0
  9
$UCSORGFRONT
 10
0.0
 20
0.0
 30
0.0
  9
$UCSORGBACK
 10
0.0
 20
0.0
 30
0.0
  9
$PUCSBASE
  2

  9
$PUCSNAME
  2

  9
$PUCSORG
 10
0.0
 20
0.0
 30
0.0
  9
$PUCSXDIR
 10
1.0
 20
0.0
 30
0.0
  9
$PUCSYDIR
 10
0.0
 20
1.0
 30
0.0
  9
$PUCSORTHOREF
  2

  9
$PUCSORTHOVIEW
 70
     0
  9
$PUCSORGTOP
 10
0.0
 20
0.0
 30
0.0
  9
$PUCSORGBOTTOM
 10
0.0
 20
0.0
 30
0.0
  9
$PUCSORGLEFT
 10
0.0
 20
0.0
 30
0.0
  9
$PUCSORGRIGHT
 10
0.0
 20
0.0
 30
0.0
  9
$PUCSORGFRONT
 10
0.0
 20
0.0
 30
0.0
  9
$PUCSORGBACK
 10
0.0
 20
0.0
 30
0.0
  9
$USERI1
 70
     0
  9
$USERI2
 70
     0
  9
$USERI3
 70
     0
  9
$USERI4
 70
     0
  9
$USERI5
 70
     0
  9
$USERR1
 40
0.0
  9
$USERR2
 40
0.0
  9
$USERR3
 40
0.0
  9
$USERR4
 40
0.0
  9
$USERR5
 40
0.0
  9
$WORLDVIEW
 70
     1
  9
$SHADEDGE
 70
     3
  9
$SHADEDIF
 70
    70
  9
$TILEMODE
 70
     1
  9
$MAXACTVP
 70
    64
  9
$PINSBASE
 10
0.0
 20
0.0
 30
0.0
  9
$PLIMCHECK
 70
     0
  9
$PEXTMIN
 10
1.000000000000000E+20
 20
1.000000000000000E+20
 30
1.000000000000000E+20
  9
$PEXTMAX
 10
-1.000000000000000E+20
 20
-1.000000000000000E+20
 30
-1.000000000000000E+20
  9
$PLIMMIN
 10
0.0
 20
0.0
  9
$PLIMMAX
 10
12.0
 20
9.0
  9
$UNITMODE
 70
     0
  9
$VISRETAIN
 70
     1
  9
$PLINEGEN
 70
     0
  9
$PSLTSCALE
 70
     1
  9
$TREEDEPTH
 70
  3020
  9
$CMLSTYLE
  2
Standard
  9
$CMLJUST
 70
     0
  9
$CMLSCALE
 40
1.0
  9
$PROXYGRAPHICS
 70
     1
  9
$MEASUREMENT
 70
     0
  9
$CELWEIGHT
370
    -1
  9
$ENDCAPS
280
     0
  9
$JOINSTYLE
280
     0
  9
$LWDISPLAY
290
     1
  9
$INSUNITS
 70
     4
  9
$HYPERLINKBASE
  1

  9
$STYLESHEET
  1

  9
$XEDIT
290
     1
  9
$CEPSNTYPE
380
     0
  9
$PSTYLEMODE
290
     1
  9
$FINGERPRINTGUID
  2
{FC6BAA59-A321-C449-93BE-3AC9750A2F38}
  9
$VERSIONGUID
  2
{26085DE4-C949-AA47-B6EB-0C975A67755A}
  9
$EXTNAMES
290
     1
  9
$PSVPSCALE
 40
0.0
  9
$OLESTARTUP
290
     0
  9
$SORTENTS
280
   127
  9
$INDEXCTL
280
     0
  9
$HIDETEXT
280
     1
  9
$XCLIPFRAME
280
     2
  9
$HALOGAP
280
     0
  9
$OBSCOLOR
 70
   257
  9
$OBSLTYPE
280
     0
  9
$INTERSECTIONDISPLAY
280
     0
  9
$INTERSECTIONCOLOR
 70
   257
  9
$DIMASSOC
280
     2
  9
$PROJECTNAME
  1

  9
$CAMERADISPLAY
290
     0
  9
$LENSLENGTH
 40
50.0
  9
$CAMERAHEIGHT
 40
0.0
  9
$STEPSPERSEC
 40
2.0
  9
$STEPSIZE
 40
6.0
  9
$3DDWFPREC
 40
2.0
  9
$PSOLWIDTH
 40
0.25
  9
$PSOLHEIGHT
 40
4.0
  9
$LOFTANG1
 40
1.570796326794896
  9
$LOFTANG2
 40
1.570796326794896
  9
$LOFTMAG1
 40
0.0
  9
$LOFTMAG2
 40
0.0
  9
$LOFTPARAM
 70
     7
  9
$LOFTNORMALS
280
     1
  9
$LATITUDE
 40
37.795
  9
$LONGITUDE
 40
-122.394
  9
$NORTHDIRECTION
 40
0.0
  9
$TIMEZONE
 70
 -8000
  9
$LIGHTGLYPHDISPLAY
280
     1
  9
$TILEMODELIGHTSYNCH
280
     1
  9
$CMATERIAL
347
11
  9
$SOLIDHIST
280
     0
  9
$SHOWHIST
280
     1
  9
$DWFFRAME
280
     2
  9
$DGNFRAME
280
     0
  9
$REALWORLDSCALE
290
     1
  9
$INTERFERECOLOR
 62
     1
  9
$INTERFEREOBJVS
345
33
  9
$INTERFEREVPVS
346
30
  9
$CSHADOW
280
     0
  9
$SHADOWPLANELOCATION
 40
0.0
  0
ENDSEC
  0
SECTION
  2
CLASSES
  0
CLASS
  1
ACDBDICTIONARYWDFLT
  2
AcDbDictionaryWithDefault
  3
ObjectDBX Classes
 90
        0
 91
        1
280
     0
281
     0
  0
CLASS
  1
MATERIAL
  2
AcDbMaterial
  3
ObjectDBX Classes
 90
     1153
 91
        3
280
     0
281
     0
  0
CLASS
  1
VISUALSTYLE
  2
AcDbVisualStyle
  3
ObjectDBX Classes
 90
     4095
 91
       24
280
     0
281
     0
  0
CLASS
  1
SCALE
  2
AcDbScale
  3
ObjectDBX Classes
 90
     1153
 91
       17
280
     0
281
     0
  0
CLASS
  1
TABLESTYLE
  2
AcDbTableStyle
  3
ObjectDBX Classes
 90
     4095
 91
        1
280
     0
281
     0
  0
CLASS
  1
MLEADERSTYLE
  2
AcDbMLeaderStyle
  3
ACDB_MLEADERSTYLE_CLASS
 90
     4095
 91
        1
280
     0
281
     0
  0
CLASS
  1
ACDBSECTIONVIEWSTYLE
  2
AcDbSectionViewStyle
  3
ObjectDBX Classes
 90
     1025
 91
        1
280
     0
281
     0
  0
CLASS
  1
ACDBDETAILVIEWSTYLE
  2
AcDbDetailViewStyle
  3
ObjectDBX Classes
 90
     1025
 91
        1
280
     0
281
     0
  0
CLASS
  1
DICTIONARYVAR
  2
AcDbDictionaryVar
  3
ObjectDBX Classes
 90
        0
 91
        5
280
     0
281
     0
  0
CLASS
  1
CELLSTYLEMAP
  2
AcDbCellStyleMap
  3
ObjectDBX Classes
 90
     1152
 91
        1
280
     0
281
     0
  0
ENDSEC
  0
SECTION
  2
TABLES
  0
TABLE
  2
VPORT
  5
8
330
0
100
AcDbSymbolTable
 70
     1
  0
VPORT
  5
57
330
8
100
AcDbSymbolTableRecord
100
AcDbViewportTableRecord
  2
*Active
 70
     0
 10
0.0
 20
0.0
 11
1.0
 21
1.0
 12
0.0
 22
0.0
 13
0.0
 23
0.0
 14
1.0
 24
1.0
 15
0.0
 25
0.0
 16
0.0
 26
0.0
 36
1.0
 17
104.9999999737534
 27
-148.4999999628701
 37
0.0
 40
302.939999924255
 41
0.7070707070707534
 42
50.0
 43
0.0
 44
0.0
 50
0.0
 51
0.0
 71
     0
 72
   100
 73
     1
 74
     0
 75
     1
 76
     0
 77
     0
 78
     0
281
     0
 65
     1
110
0.0
120
0.0
130
0.0
111
1.0
121
0.0
131
0.0
112
0.0
122
1.0
132
0.0
 79
     0
146
0.0
 60
     3
 61
     5
292
     1
282
     1
141
0.0
142
0.0
 63
   250
421
  3355443
  0
ENDTAB
  0
TABLE
  2
LTYPE
  5
5
330
0
100
AcDbSymbolTable
 70
     2
  0
LTYPE
  5
5B
330
5
100
AcDbSymbolTableRecord
100
AcDbLinetypeTableRecord
  2
ByBlock
 70
     0
  3

 72
    65
 73
     0
 40
0.0
  0
LTYPE
  5
5C
330
5
100
AcDbSymbolTableRecord
100
AcDbLinetypeTableRecord
  2
ByLayer
 70
     0
  3

 72
    65
 73
     0
 40
0.0
  0
LTYPE
  5
5D
330
5
100
AcDbSymbolTableRecord
100
AcDbLinetypeTableRecord
  2
Continuous
 70
     0
  3
Solid line
 72
    65
 73
     0
 40
0.0
  0
LTYPE
  5
FD
330
5
100
AcDbSymbolTableRecord
100
AcDbLinetypeTableRecord
  2
AI-Linetype-0
 70
     0
  3
Adobe Illustrator Linetype No. 0
 72
    65
 73
     2
 40
1.411111110758333
 49
0.7055555553791667
 74
     0
 49
-0.7055555553791667
 74
     0
  0
ENDTAB
  0
TABLE
  2
LAYER
  5
2
330
0
100
AcDbSymbolTable
 70
     2
  0
LAYER
  5
54
330
2
100
AcDbSymbolTableRecord
100
AcDbLayerTableRecord
  2
0
 70
     0
 62
     7
  6
Continuous
370
    -3
390
F
347
21
  0
LAYER
  5
78
330
2
100
AcDbSymbolTableRecord
100
AcDbLayerTableRecord
  2
レイヤー 1
 70
     0
 62
     7
  6
Continuous
370
     0
390
F
347
21
  0
ENDTAB
  0
TABLE
  2
STYLE
  5
3
330
0
100
AcDbSymbolTable
 70
     2
  0
STYLE
  5
55
330
3
100
AcDbSymbolTableRecord
100
AcDbTextStyleTableRecord
  2
Standard
 70
     0
 40
0.0
 41
1.0
 50
0.0
 71
     0
 42
0.2
  3
txt
  4

  0
STYLE
  5
5A
330
3
100
AcDbSymbolTableRecord
100
AcDbTextStyleTableRecord
  2
Annotative
 70
     0
 40
0.0
 41
1.0
 50
0.0
 71
     0
 42
0.2
  3
txt
  4

1001
AcadAnnotative
1000
AnnotativeData
1002
{
1070
     1
1070
     1
1002
}
  0
ENDTAB
  0
TABLE
  2
VIEW
  5
6
330
0
100
AcDbSymbolTable
 70
     0
  0
ENDTAB
  0
TABLE
  2
UCS
  5
7
330
0
100
AcDbSymbolTable
 70
     0
  0
ENDTAB
  0
TABLE
  2
APPID
  5
9
330
0
100
AcDbSymbolTable
 70
     2
  0
APPID
  5
56
330
9
100
AcDbSymbolTableRecord
100
AcDbRegAppTableRecord
  2
ACAD
 70
     0
  0
APPID
  5
5E
330
9
100
AcDbSymbolTableRecord
100
AcDbRegAppTableRecord
  2
AcadAnnotative
 70
     0
  0
ENDTAB
  0
TABLE
  2
DIMSTYLE
  5
A
330
0
100
AcDbSymbolTable
 70
     2
100
AcDbDimStyleTable
 71
     0
  0
DIMSTYLE
105
58
330
A
100
AcDbSymbolTableRecord
100
AcDbDimStyleTableRecord
  2
Standard
 70
     0
340
55
  0
DIMSTYLE
105
59
330
A
100
AcDbSymbolTableRecord
100
AcDbDimStyleTableRecord
  2
Annotative
 70
     0
340
55
1001
AcadAnnotative
1000
AnnotativeData
1002
{
1070
     1
1070
     1
1002
}
  0
ENDTAB
  0
TABLE
  2
BLOCK_RECORD
  5
1
330
0
100
AcDbSymbolTable
 70
    14
  0
BLOCK_RECORD
  5
70
330
1
100
AcDbSymbolTableRecord
100
AcDbBlockTableRecord
  2
*Model_Space
340
73
 70
     0
280
     1
281
     0
  0
BLOCK_RECORD
  5
6C
330
1
100
AcDbSymbolTableRecord
100
AcDbBlockTableRecord
  2
*Paper_Space
340
6F
 70
     0
280
     1
281
     0
  0
BLOCK_RECORD
  5
74
330
1
100
AcDbSymbolTableRecord
100
AcDbBlockTableRecord
  2
*Paper_Space0
340
77
 70
     0
280
     1
281
     0
  0
BLOCK_RECORD
  5
79
330
1
100
AcDbSymbolTableRecord
100
AcDbBlockTableRecord
  2
Block_0
340
0
102
{BLKREFS
331
7A
102
}
 70
     0
280
     1
281
     0
  0
BLOCK_RECORD
  5
B8
330
1
100
AcDbSymbolTableRecord
100
AcDbBlockTableRecord
  2
Block_1
340
0
102
{BLKREFS
331
B9
102
}
 70
     0
280
     1
281
     0
  0
BLOCK_RECORD
  5
BC
330
1
100
AcDbSymbolTableRecord
100
AcDbBlockTableRecord
  2
Block_2
340
0
102
{BLKREFS
331
BD
102
}
 70
     0
280
     1
281
     0
  0
BLOCK_RECORD
  5
C9
330
1
100
AcDbSymbolTableRecord
100
AcDbBlockTableRecord
  2
Block_3
340
0
102
{BLKREFS
331
CA
102
}
 70
     0
280
     1
281
     0
  0
BLOCK_RECORD
  5
CD
330
1
100
AcDbSymbolTableRecord
100
AcDbBlockTableRecord
  2
Block_4
340
0
102
{BLKREFS
331
CE
102
}
 70
     0
280
     1
281
     0
  0
BLOCK_RECORD
  5
D7
330
1
100
AcDbSymbolTableRecord
100
AcDbBlockTableRecord
  2
Block_5
340
0
102
{BLKREFS
331
D8
102
}
 70
     0
280
     1
281
     0
  0
BLOCK_RECORD
  5
E0
330
1
100
AcDbSymbolTableRecord
100
AcDbBlockTableRecord
  2
Block_6
340
0
102
{BLKREFS
331
E1
102
}
 70
     0
280
     1
281
     0
  0
BLOCK_RECORD
  5
EC
330
1
100
AcDbSymbolTableRecord
100
AcDbBlockTableRecord
  2
Block_7
340
0
102
{BLKREFS
331
ED
102
}
 70
     0
280
     1
281
     0
  0
BLOCK_RECORD
  5
F6
330
1
100
AcDbSymbolTableRecord
100
AcDbBlockTableRecord
  2
Block_8
340
0
102
{BLKREFS
331
F7
102
}
 70
     0
280
     1
281
     0
  0
BLOCK_RECORD
  5
FE
330
1
100
AcDbSymbolTableRecord
100
AcDbBlockTableRecord
  2
Block_9
340
0
102
{BLKREFS
331
FF
102
}
 70
     0
280
     1
281
     0
  0
BLOCK_RECORD
  5
102
330
1
100
AcDbSymbolTableRecord
100
AcDbBlockTableRecord
  2
Block_10
340
0
102
{BLKREFS
331
103
102
}
 70
     0
280
     1
281
     0
  0
BLOCK_RECORD
  5
109
330
1
100
AcDbSymbolTableRecord
100
AcDbBlockTableRecord
  2
Block_11
340
0
102
{BLKREFS
331
10A
102
}
 70
     0
280
     1
281
     0
  0
BLOCK_RECORD
  5
10D
330
1
100
AcDbSymbolTableRecord
100
AcDbBlockTableRecord
  2
Block_12
340
0
102
{BLKREFS
331
10E
102
}
 70
     0
280
     1
281
     0
  0
ENDTAB
  0
ENDSEC
  0
SECTION
  2
BLOCKS
  0
BLOCK
  5
71
330
70
100
AcDbEntity
  8
0
100
AcDbBlockBegin
  2
*Model_Space
 70
     0
 10
0.0
 20
0.0
 30
0.0
  3
*Model_Space
  1

  0
ENDBLK
  5
72
330
70
100
AcDbEntity
  8
0
100
AcDbBlockEnd
  0
BLOCK
  5
6D
330
6C
100
AcDbEntity
 67
     1
  8
0
100
AcDbBlockBegin
  2
*Paper_Space
 70
     0
 10
0.0
 20
0.0
 30
0.0
  3
*Paper_Space
  1

  0
ENDBLK
  5
6E
330
6C
100
AcDbEntity
 67
     1
  8
0
100
AcDbBlockEnd
  0
BLOCK
  5
75
330
74
100
AcDbEntity
 67
     1
  8
0
100
AcDbBlockBegin
  2
*Paper_Space0
 70
     0
 10
0.0
 20
0.0
 30
0.0
  3
*Paper_Space0
  1

  0
ENDBLK
  5
76
330
74
100
AcDbEntity
 67
     1
  8
0
100
AcDbBlockEnd
  0
BLOCK
  5
7B
330
79
100
AcDbEntity
  8
0
100
AcDbBlockBegin
  2
Block_0
 70
     0
 10
0.0
 20
0.0
 30
0.0
  3
Block_0
  1

  0
LINE
  5
7D
330
79
100
AcDbEntity
  8
レイヤー 1
 62
   250
420
  2299925
370
    25
100
AcDbLine
 10
120.3770628299688
 20
-152.6573181390406
 30
0.0
 11
112.3771945137163
 21
-152.6573181390406
 31
0.0
  0
LINE
  5
7E
330
79
100
AcDbEntity
  8
レイヤー 1
 62
   250
420
  2299925
370
    25
100
AcDbLine
 10
92.37564493323272
 20
-147.1572303626376
 30
0.0
 11
92.37564493323272
 21
-147.6574339736234
 31
0.0
  0
LINE
  5
7F
330
79
100
AcDbEntity
  8
レイヤー 1
 62
   250
420
  2299925
370
    25
100
AcDbLine
 10
112.3771945137163
 20
-147.6574339736234
 30
0.0
 11
92.37564493323272
 21
-147.6574339736234
 31
0.0
  0
LINE
  5
80
330
79
100
AcDbEntity
  8
レイヤー 1
 62
   250
420
  2299925
370
    25
100
AcDbLine
 10
92.37564493323272
 20
-147.1572303626376
 30
0.0
 11
92.88967742011896
 21
-147.5392886958753
 31
0.0
  0
LINE
  5
81
330
79
100
AcDbEntity
  8
レイヤー 1
 62
   250
420
  2299925
370
    25
100
AcDbLine
 10
92.88967742011896
 20
-147.5392886958753
 30
0.0
 11
93.37474685218827
 21
-147.1217409182021
 31
0.0
  0
LINE
  5
82
330
79
100
AcDbEntity
  8
レイヤー 1
 62
   250
420
  2299925
370
    25
100
AcDbLine
 10
93.88874406129733
 20
-147.5037992514398
 30
0.0
 11
94.37451904890417
 21
-147.0858986959885
 31
0.0
  0
LINE
  5
83
330
79
100
AcDbEntity
  8
レイヤー 1
 62
   250
420
  2299925
370
    25
100
AcDbLine
 10
93.37474685218827
 20
-147.1217409182021
 30
0.0
 11
93.88874406129733
 21
-147.5037992514398
 31
0.0
  0
LINE
  5
84
330
79
100
AcDbEntity
  8
レイヤー 1
 62
   250
420
  2299925
370
    25
100
AcDbLine
 10
94.37451904890417
 20
-147.0858986959885
 30
0.0
 11
94.88851625801324
 21
-147.4679570292265
 31
0.0
  0
LINE
  5
85
330
79
100
AcDbEntity
  8
レイヤー 1
 62
   250
420
  2299925
370
    25
100
AcDbLine
 10
94.88851625801324
 20
-147.4679570292265
 30
0.0
 11
95.37358569008253
 21
-147.050409251553
 31
0.0
  0
LINE
  5
86
330
79
100
AcDbEntity
  8
レイヤー 1
 62
   250
420
  2299925
370
    25
100
AcDbLine
 10
95.37358569008253
 20
-147.050409251553
 30
0.0
 11
95.88758289919191
 21
-147.4321500847911
 31
0.0
  0
LINE
  5
87
330
79
100
AcDbEntity
  8
レイヤー 1
 62
   250
420
  2299925
370
    25
100
AcDbLine
 10
95.88758289919191
 20
-147.4321500847911
 30
0.0
 11
96.37300510902967
 21
-147.0146023071176
 31
0.0
  0
LINE
  5
88
330
79
100
AcDbEntity
  8
レイヤー 1
 62
   250
420
  2299925
370
    25
100
AcDbLine
 10
96.37300510902967
 20
-147.0146023071176
 30
0.0
 11
96.88700231813871
 21
-147.3963078625779
 31
0.0
  0
LINE
  5
89
330
79
100
AcDbEntity
  8
レイヤー 1
 62
   250
420
  2299925
370
    25
100
AcDbLine
 10
96.88700231813871
 20
-147.3963078625779
 30
0.0
 11
97.3724245279768
 21
-146.9787600849044
 31
0.0
  0
LINE
  5
8A
330
79
100
AcDbEntity
  8
レイヤー 1
 62
   250
420
  2299925
370
    25
100
AcDbLine
 10
97.3724245279768
 20
-146.9787600849044
 30
0.0
 11
97.88642173708586
 21
-147.360818418142
 31
0.0
  0
LINE
  5
8B
330
79
100
AcDbEntity
  8
レイヤー 1
 62
   250
420
  2299925
370
    25
100
AcDbLine
 10
97.88642173708586
 20
-147.360818418142
 30
0.0
 11
98.37184394692393
 21
-146.9432706404689
 31
0.0
  0
LINE
  5
8C
330
79
100
AcDbEntity
  8
レイヤー 1
 62
   250
420
  2299925
370
    25
100
AcDbLine
 10
98.37184394692393
 20
-146.9432706404689
 30
0.0
 11
98.88552365604109
 21
-147.3253289737066
 31
0.0
  0
LINE
  5
8D
330
79
100
AcDbEntity
  8
レイヤー 1
 62
   250
420
  2299925
370
    25
100
AcDbLine
 10
98.88552365604109
 20
-147.3253289737066
 30
0.0
 11
99.37126336587105
 21
-146.9074284182556
 31
0.0
  0
LINE
  5
8E
330
79
100
AcDbEntity
  8
レイヤー 1
 62
   250
420
  2299925
370
    25
100
AcDbLine
 10
99.88529585275731
 20
-147.2895220292712
 30
0.0
 11
100.3703652848263
 21
-146.8719742515977
 31
0.0
  0
LINE
  5
8F
330
79
100
AcDbEntity
  8
レイヤー 1
 62
   250
420
  2299925
370
    25
100
AcDbLine
 10
99.37126336587105
 20
-146.9074284182556
 30
0.0
 11
99.88529585275731
 21
-147.2895220292712
 31
0.0
  0
LINE
  5
90
330
79
100
AcDbEntity
  8
レイヤー 1
 62
   250
420
  2299925
370
    25
100
AcDbLine
 10
100.3703652848263
 20
-146.8719742515977
 30
0.0
 11
100.8843624939353
 21
-147.2536798070579
 31
0.0
  0
LINE
  5
91
330
79
100
AcDbEntity
  8
レイヤー 1
 62
   250
420
  2299925
370
    25
100
AcDbLine
 10
100.8843624939353
 20
-147.2536798070579
 30
0.0
 11
101.3701022037653
 21
-146.8361320293844
 31
0.0
  0
LINE
  5
92
330
79
100
AcDbEntity
  8
レイヤー 1
 62
   250
420
  2299925
370
    25
100
AcDbLine
 10
101.8841346906512
 20
-147.2178375848447
 30
0.0
 11
102.3692041227205
 21
-146.8002898071712
 31
0.0
  0
LINE
  5
93
330
79
100
AcDbEntity
  8
レイヤー 1
 62
   250
420
  2299925
370
    25
100
AcDbLine
 10
101.3701022037653
 20
-146.8361320293844
 30
0.0
 11
101.8841346906512
 21
-147.2178375848447
 31
0.0
  0
LINE
  5
94
330
79
100
AcDbEntity
  8
レイヤー 1
 62
   250
420
  2299925
370
    25
100
AcDbLine
 10
102.8832013318296
 20
-147.1823481404089
 30
0.0
 11
103.3689763194364
 21
-146.7648356405129
 31
0.0
  0
LINE
  5
95
330
79
100
AcDbEntity
  8
レイヤー 1
 62
   250
420
  2299925
370
    25
100
AcDbLine
 10
102.3692041227205
 20
-146.8002898071712
 30
0.0
 11
102.8832013318296
 21
-147.1823481404089
 31
0.0
  0
LINE
  5
96
330
79
100
AcDbEntity
  8
レイヤー 1
 62
   250
420
  2299925
370
    25
100
AcDbLine
 10
103.3689763194364
 20
-146.7648356405129
 30
0.0
 11
103.8829735285455
 21
-147.1468939737512
 31
0.0
  0
LINE
  5
97
330
79
100
AcDbEntity
  8
レイヤー 1
 62
   250
420
  2299925
370
    25
100
AcDbLine
 10
103.8829735285455
 20
-147.1468939737512
 30
0.0
 11
104.3680429606148
 21
-146.7289934183003
 31
0.0
  0
LINE
  5
98
330
79
100
AcDbEntity
  8
レイヤー 1
 62
   250
420
  2299925
370
    25
100
AcDbLine
 10
104.3680429606148
 20
-146.7289934183003
 30
0.0
 11
104.8820401697238
 21
-147.111051751538
 31
0.0
  0
LINE
  5
99
330
79
100
AcDbEntity
  8
レイヤー 1
 62
   250
420
  2299925
370
    25
100
AcDbLine
 10
104.8820401697238
 20
-147.111051751538
 30
0.0
 11
105.3671096017931
 21
-146.6935039738645
 31
0.0
  0
LINE
  5
9A
330
79
100
AcDbEntity
  8
レイヤー 1
 62
   250
420
  2299925
370
    25
100
AcDbLine
 10
105.3671096017931
 20
-146.6935039738645
 30
0.0
 11
105.8811068109025
 21
-147.0752095293247
 31
0.0
  0
LINE
  5
9B
330
79
100
AcDbEntity
  8
レイヤー 1
 62
   250
420
  2299925
370
    25
100
AcDbLine
 10
105.8811068109025
 20
-147.0752095293247
 30
0.0
 11
106.3668817985094
 21
-146.6576617516512
 31
0.0
  0
LINE
  5
9C
330
79
100
AcDbEntity
  8
レイヤー 1
 62
   250
420
  2299925
370
    25
100
AcDbLine
 10
106.3668817985094
 20
-146.6576617516512
 30
0.0
 11
106.8808790076184
 21
-147.0394025848893
 31
0.0
  0
LINE
  5
9D
330
79
100
AcDbEntity
  8
レイヤー 1
 62
   250
420
  2299925
370
    25
100
AcDbLine
 10
106.8808790076184
 20
-147.0394025848893
 30
0.0
 11
107.3659484396877
 21
-146.6218548072158
 31
0.0
  0
LINE
  5
9E
330
79
100
AcDbEntity
  8
レイヤー 1
 62
   250
420
  2299925
370
    25
100
AcDbLine
 10
107.3659484396877
 20
-146.6218548072158
 30
0.0
 11
107.8799834037296
 21
-147.0039131404535
 31
0.0
  0
LINE
  5
9F
330
79
100
AcDbEntity
  8
レイヤー 1
 62
   250
420
  2299925
370
    25
100
AcDbLine
 10
107.8799834037296
 20
-147.0039131404535
 30
0.0
 11
108.3657206364036
 21
-146.5863653627803
 31
0.0
  0
LINE
  5
A0
330
79
100
AcDbEntity
  8
レイヤー 1
 62
   250
420
  2299925
370
    25
100
AcDbLine
 10
108.3657206364036
 20
-146.5863653627803
 30
0.0
 11
108.8797178455127
 21
-146.968423696018
 31
0.0
  0
LINE
  5
A1
330
79
100
AcDbEntity
  8
レイヤー 1
 62
   250
420
  2299925
370
    25
100
AcDbLine
 10
108.8797178455127
 20
-146.968423696018
 30
0.0
 11
109.364787277582
 21
-146.5505231405671
 31
0.0
  0
LINE
  5
A2
330
79
100
AcDbEntity
  8
レイヤー 1
 62
   250
420
  2299925
370
    25
100
AcDbLine
 10
109.364787277582
 20
-146.5505231405671
 30
0.0
 11
109.8788222921192
 21
-146.9325814738048
 31
0.0
  0
LINE
  5
A3
330
79
100
AcDbEntity
  8
レイヤー 1
 62
   250
420
  2299925
370
    25
100
AcDbLine
 10
109.8788222921192
 20
-146.9325814738048
 30
0.0
 11
110.3645594742979
 21
-146.5150336961313
 31
0.0
  0
LINE
  5
A4
330
79
100
AcDbEntity
  8
レイヤー 1
 62
   250
420
  2299925
370
    25
100
AcDbLine
 10
110.3645594742979
 20
-146.5150336961313
 30
0.0
 11
110.8785945140911
 21
-146.8967745293694
 31
0.0
  0
LINE
  5
A5
330
79
100
AcDbEntity
  8
レイヤー 1
 62
   250
420
  2299925
370
    25
100
AcDbLine
 10
110.8785945140911
 20
-146.8967745293694
 30
0.0
 11
111.3636639584142
 21
-146.4792267516958
 31
0.0
  0
LINE
  5
A6
330
79
100
AcDbEntity
  8
レイヤー 1
 62
   250
420
  2299925
370
    25
100
AcDbLine
 10
111.3636639584142
 20
-146.4792267516958
 30
0.0
 11
111.8776611805081
 21
-146.8609323071561
 31
0.0
  0
LINE
  5
A7
330
79
100
AcDbEntity
  8
レイヤー 1
 62
   250
420
  2299925
370
    25
100
AcDbLine
 10
111.8776611805081
 20
-146.8609323071561
 30
0.0
 11
112.3633983121921
 21
-146.4433845294826
 31
0.0
  0
LINE
  5
A8
330
79
100
AcDbEntity
  8
レイヤー 1
 62
   250
420
  2299925
370
    25
100
AcDbLine
 10
112.4374334025908
 20
-146.3951598072724
 30
0.0
 11
113.3769667356888
 21
-146.3951598072724
 31
0.0
  0
LINE
  5
A9
330
79
100
AcDbEntity
  8
レイヤー 1
 62
   250
420
  2299925
370
    25
100
AcDbLine
 10
113.3769667356888
 20
-146.3951598072724
 30
0.0
 11
113.3769667356888
 21
-151.6571931392903
 31
0.0
  0
LINE
  5
AA
330
79
100
AcDbEntity
  8
レイヤー 1
 62
   250
420
  2299925
370
    25
100
AcDbLine
 10
112.3771945137163
 20
-147.6574339736234
 30
0.0
 11
112.3771945137163
 21
-152.6573181390406
 31
0.0
  0
LINE
  5
AB
330
79
100
AcDbEntity
  8
レイヤー 1
 62
   250
420
  2299925
370
    25
100
AcDbLine
 10
119.3765850777153
 20
-151.6571931392903
 30
0.0
 11
113.3769667356888
 21
-151.6571931392903
 31
0.0
  0
LINE
  5
AC
330
79
100
AcDbEntity
  8
レイヤー 1
 62
   250
420
  2299925
370
    25
100
AcDbLine
 10
119.3765850777153
 20
-146.3951598072724
 30
0.0
 11
119.3765850777153
 21
-151.6571931392903
 31
0.0
  0
LINE
  5
AD
330
79
100
AcDbEntity
  8
レイヤー 1
 62
   250
420
  2299925
370
    25
100
AcDbLine
 10
120.3770628299688
 20
-146.3951598072724
 30
0.0
 11
120.3770628299688
 21
-152.6573181390406
 31
0.0
  0
SPLINE
  5
AE
330
79
100
AcDbEntity
  8
レイヤー 1
 62
   250
420
  2299925
370
     9
100
AcDbSpline
210
0.0
220
0.0
230
1.0
 70
     9
 71
     3
 72
    17
 73
    13
 74
     0
 42
0.0000000001
 43
0.0000000001
 40
0.0
 40
0.0
 40
0.0
 40
0.0
 40
1.0
 40
1.0
 40
1.0
 40
2.0
 40
2.0
 40
2.0
 40
3.0
 40
3.0
 40
3.0
 40
4.0
 40
4.0
 40
4.0
 40
4.0
 10
92.47555159735087
 20
-142.3954006416052
 30
0.0
 10
92.47555159735087
 20
-142.3399439749529
 30
0.0
 10
92.43078618536982
 20
-142.2951411971865
 30
0.0
 10
92.37564493323272
 20
-142.2951411971865
 30
0.0
 10
92.32054104574997
 20
-142.2951411971865
 30
0.0
 10
92.2757382691152
 20
-142.3399439749529
 30
0.0
 10
92.2757382691152
 20
-142.3954006416052
 30
0.0
 10
92.2757382691152
 20
-142.4505398082586
 30
0.0
 10
92.32054104574997
 20
-142.4953073082475
 30
0.0
 10
92.37564493323272
 20
-142.4953073082475
 30
0.0
 10
92.43078618536982
 20
-142.4953073082475
 30
0.0
 10
92.47555159735087
 20
-142.4505398082586
 30
0.0
 10
92.47555159735087
 20
-142.3954006416052
 30
0.0
  0
SPLINE
  5
AF
330
79
100
AcDbEntity
  8
レイヤー 1
 62
   250
420
  2299925
370
     9
100
AcDbSpline
210
0.0
220
0.0
230
1.0
 70
     9
 71
     3
 72
    17
 73
    13
 74
     0
 42
0.0000000001
 43
0.0000000001
 40
0.0
 40
0.0
 40
0.0
 40
0.0
 40
1.0
 40
1.0
 40
1.0
 40
2.0
 40
2.0
 40
2.0
 40
3.0
 40
3.0
 40
3.0
 40
4.0
 40
4.0
 40
4.0
 40
4.0
 10
88.47582781050343
 20
-147.1572303626376
 30
0.0
 10
88.47582781050343
 20
-147.1020911959845
 30
0.0
 10
88.43102503386868
 20
-147.0573236959959
 30
0.0
 10
88.37556836861683
 20
-147.0573236959959
 30
0.0
 10
88.32042920335688
 20
-147.0573236959959
 30
0.0
 10
88.27566170449898
 20
-147.1020911959845
 30
0.0
 10
88.27566170449898
 20
-147.1572303626376
 30
0.0
 10
88.27566170449898
 20
-147.2123342515125
 30
0.0
 10
88.32042920335688
 20
-147.2571370292792
 30
0.0
 10
88.37556836861683
 20
-147.2571370292792
 30
0.0
 10
88.43102503386868
 20
-147.2571370292792
 30
0.0
 10
88.47582781050343
 20
-147.2123342515125
 30
0.0
 10
88.47582781050343
 20
-147.1572303626376
 30
0.0
  0
SPLINE
  5
B0
330
79
100
AcDbEntity
  8
レイヤー 1
 62
   250
420
  2299925
370
     9
100
AcDbSpline
210
0.0
220
0.0
230
1.0
 70
     9
 71
     3
 72
    17
 73
    13
 74
     0
 42
0.0000000001
 43
0.0000000001
 40
0.0
 40
0.0
 40
0.0
 40
0.0
 40
1.0
 40
1.0
 40
1.0
 40
2.0
 40
2.0
 40
2.0
 40
3.0
 40
3.0
 40
3.0
 40
4.0
 40
4.0
 40
4.0
 40
4.0
 10
88.47582781050343
 20
-147.6574339736234
 30
0.0
 10
88.47582781050343
 20
-147.6023300847485
 30
0.0
 10
88.43102503386868
 20
-147.5575273069818
 30
0.0
 10
88.37556836861683
 20
-147.5575273069818
 30
0.0
 10
88.32042920335688
 20
-147.5575273069818
 30
0.0
 10
88.27566170449898
 20
-147.6023300847485
 30
0.0
 10
88.27566170449898
 20
-147.6574339736234
 30
0.0
 10
88.27566170449898
 20
-147.7125731402765
 30
0.0
 10
88.32042920335688
 20
-147.7573406402651
 30
0.0
 10
88.37556836861683
 20
-147.7573406402651
 30
0.0
 10
88.43102503386868
 20
-147.7573406402651
 30
0.0
 10
88.47582781050343
 20
-147.7125731402765
 30
0.0
 10
88.47582781050343
 20
-147.6574339736234
 30
0.0
  0
SPLINE
  5
B1
330
79
100
AcDbEntity
  8
レイヤー 1
 62
   250
420
  2299925
370
     9
100
AcDbSpline
210
0.0
220
0.0
230
1.0
 70
     9
 71
     3
 72
    17
 73
    13
 74
     0
 42
0.0000000001
 43
0.0000000001
 40
0.0
 40
0.0
 40
0.0
 40
0.0
 40
1.0
 40
1.0
 40
1.0
 40
2.0
 40
2.0
 40
2.0
 40
3.0
 40
3.0
 40
3.0
 40
4.0
 40
4.0
 40
4.0
 40
4.0
 10
88.47582781050343
 20
-152.6573181390406
 30
0.0
 10
88.47582781050343
 20
-152.6021789723869
 30
0.0
 10
88.43102503386868
 20
-152.5574114723984
 30
0.0
 10
88.37556836861683
 20
-152.5574114723984
 30
0.0
 10
88.32042920335688
 20
-152.5574114723984
 30
0.0
 10
88.27566170449898
 20
-152.6021789723869
 30
0.0
 10
88.27566170449898
 20
-152.6573181390406
 30
0.0
 10
88.27566170449898
 20
-152.7124220279149
 30
0.0
 10
88.32042920335688
 20
-152.7572248056816
 30
0.0
 10
88.37556836861683
 20
-152.7572248056816
 30
0.0
 10
88.43102503386868
 20
-152.7572248056816
 30
0.0
 10
88.47582781050343
 20
-152.7124220279149
 30
0.0
 10
88.47582781050343
 20
-152.6573181390406
 30
0.0
  0
SPLINE
  5
B2
330
79
100
AcDbEntity
  8
レイヤー 1
 62
   250
420
  2299925
370
     9
100
AcDbSpline
210
0.0
220
0.0
230
1.0
 70
     9
 71
     3
 72
    17
 73
    13
 74
     0
 42
0.0000000001
 43
0.0000000001
 40
0.0
 40
0.0
 40
0.0
 40
0.0
 40
1.0
 40
1.0
 40
1.0
 40
2.0
 40
2.0
 40
2.0
 40
3.0
 40
3.0
 40
3.0
 40
4.0
 40
4.0
 40
4.0
 40
4.0
 10
113.4768707837851
 20
-142.3954006416052
 30
0.0
 10
113.4768707837851
 20
-142.3399439749529
 30
0.0
 10
113.4320680071503
 20
-142.2951411971865
 30
0.0
 10
113.3769667356888
 20
-142.2951411971865
 30
0.0
 10
113.3218249544073
 20
-142.2951411971865
 30
0.0
 10
113.2770574555494
 20
-142.3399439749529
 30
0.0
 10
113.2770574555494
 20
-142.3954006416052
 30
0.0
 10
113.2770574555494
 20
-142.4505398082586
 30
0.0
 10
113.3218249544073
 20
-142.4953073082475
 30
0.0
 10
113.3769667356888
 20
-142.4953073082475
 30
0.0
 10
113.4320680071503
 20
-142.4953073082475
 30
0.0
 10
113.4768707837851
 20
-142.4505398082586
 30
0.0
 10
113.4768707837851
 20
-142.3954006416052
 30
0.0
  0
SPLINE
  5
B3
330
79
100
AcDbEntity
  8
レイヤー 1
 62
   250
420
  2299925
370
     9
100
AcDbSpline
210
0.0
220
0.0
230
1.0
 70
     9
 71
     3
 72
    17
 73
    13
 74
     0
 42
0.0000000001
 43
0.0000000001
 40
0.0
 40
0.0
 40
0.0
 40
0.0
 40
1.0
 40
1.0
 40
1.0
 40
2.0
 40
2.0
 40
2.0
 40
3.0
 40
3.0
 40
3.0
 40
4.0
 40
4.0
 40
4.0
 40
4.0
 10
119.4764945119414
 20
-142.3954006416052
 30
0.0
 10
119.4764945119414
 20
-142.3399439749529
 30
0.0
 10
119.4317242429752
 20
-142.2951411971865
 30
0.0
 10
119.3765850777153
 20
-142.2951411971865
 30
0.0
 10
119.3214811902322
 20
-142.2951411971865
 30
0.0
 10
119.2766784135975
 20
-142.3399439749529
 30
0.0
 10
119.2766784135975
 20
-142.3954006416052
 30
0.0
 10
119.2766784135975
 20
-142.4505398082586
 30
0.0
 10
119.3214811902322
 20
-142.4953073082475
 30
0.0
 10
119.3765850777153
 20
-142.4953073082475
 30
0.0
 10
119.4317242429752
 20
-142.4953073082475
 30
0.0
 10
119.4764945119414
 20
-142.4505398082586
 30
0.0
 10
119.4764945119414
 20
-142.3954006416052
 30
0.0
  0
LINE
  5
B4
330
79
100
AcDbEntity
  8
レイヤー 1
 62
   250
420
  2299925
370
     9
100
AcDbLine
 10
88.37556836861683
 20
-147.1572303626376
 30
0.0
 11
88.37556836861683
 21
-141.8993245306187
 31
0.0
  0
LINE
  5
B5
330
79
100
AcDbEntity
  8
レイヤー 1
 62
   250
420
  2299925
370
     9
100
AcDbLine
 10
88.37556836861683
 20
-147.1572303626376
 30
0.0
 11
88.37556836861683
 21
-147.6574339736234
 31
0.0
  0
LINE
  5
B6
330
79
100
AcDbEntity
  8
レイヤー 1
 62
   250
420
  2299925
370
     9
100
AcDbLine
 10
89.83557444248008
 20
-147.1572303626376
 30
0.0
 11
87.37544339413213
 21
-147.1572303626376
 31
0.0
  0
LINE
  5
B7
330
79
100
AcDbEntity
  8
レイヤー 1
 62
   250
420
  2299925
370
     9
100
AcDbLine
 10
89.83557444248008
 20
-147.6574339736234
 30
0.0
 11
87.37544339413213
 21
-147.6574339736234
 31
0.0
  0
INSERT
  5
B9
330
79
100
AcDbEntity
  8
レイヤー 1
100
AcDbBlockReference
  2
Block_1
 10
0.0
 20
0.0
 30
0.0
  0
LINE
  5
C7
330
79
100
AcDbEntity
  8
レイヤー 1
 62
   250
420
  2299925
370
     9
100
AcDbLine
 10
92.37564493323272
 20
-142.3954006416052
 30
0.0
 11
113.3769667356888
 21
-142.3954006416052
 31
0.0
  0
LINE
  5
C8
330
79
100
AcDbEntity
  8
レイヤー 1
 62
   250
420
  2299925
370
     9
100
AcDbLine
 10
92.37564493323272
 20
-144.6174773077169
 30
0.0
 11
92.37564493323272
 21
-141.3952756418559
 31
0.0
  0
INSERT
  5
CA
330
79
100
AcDbEntity
  8
レイヤー 1
100
AcDbBlockReference
  2
Block_3
 10
0.0
 20
0.0
 30
0.0
  0
LINE
  5
D5
330
79
100
AcDbEntity
  8
レイヤー 1
 62
   250
420
  2299925
370
     9
100
AcDbLine
 10
88.37556836861683
 20
-147.6574339736234
 30
0.0
 11
88.37556836861683
 21
-152.6573181390406
 31
0.0
  0
LINE
  5
D6
330
79
100
AcDbEntity
  8
レイヤー 1
 62
   250
420
  2299925
370
     9
100
AcDbLine
 10
109.8374742099672
 20
-152.6573181390406
 30
0.0
 11
87.37544339413213
 21
-152.6573181390406
 31
0.0
  0
INSERT
  5
D8
330
79
100
AcDbEntity
  8
レイヤー 1
100
AcDbBlockReference
  2
Block_5
 10
0.0
 20
0.0
 30
0.0
  0
LINE
  5
DD
330
79
100
AcDbEntity
  8
レイヤー 1
 62
   250
420
  2299925
370
     9
100
AcDbLine
 10
113.3769667356888
 20
-142.3954006416052
 30
0.0
 11
119.3765850777153
 21
-142.3954006416052
 31
0.0
  0
LINE
  5
DE
330
79
100
AcDbEntity
  8
レイヤー 1
 62
   250
420
  2299925
370
     9
100
AcDbLine
 10
113.3769667356888
 20
-143.8554420301296
 30
0.0
 11
113.3769667356888
 21
-141.3952756418559
 31
0.0
  0
LINE
  5
DF
330
79
100
AcDbEntity
  8
レイヤー 1
 62
   250
420
  2299925
370
     9
100
AcDbLine
 10
119.3765850777153
 20
-143.8554420301296
 30
0.0
 11
119.3765850777153
 21
-141.3952756418559
 31
0.0
  0
INSERT
  5
E1
330
79
100
AcDbEntity
  8
レイヤー 1
100
AcDbBlockReference
  2
Block_6
 10
0.0
 20
0.0
 30
0.0
  0
SPLINE
  5
E7
330
79
100
AcDbEntity
  8
レイヤー 1
 62
   250
420
  2299925
370
     9
100
AcDbSpline
210
0.0
220
0.0
230
1.0
 70
     9
 71
     3
 72
    17
 73
    13
 74
     0
 42
0.0000000001
 43
0.0000000001
 40
0.0
 40
0.0
 40
0.0
 40
0.0
 40
1.0
 40
1.0
 40
1.0
 40
2.0
 40
2.0
 40
2.0
 40
3.0
 40
3.0
 40
3.0
 40
4.0
 40
4.0
 40
4.0
 40
4.0
 10
112.4770985870692
 20
-156.7707423046786
 30
0.0
 10
112.4770985870692
 20
-156.7156384158037
 30
0.0
 10
112.4316255326738
 20
-156.670835638037
 30
0.0
 10
112.3765216451907
 20
-156.670835638037
 30
0.0
 10
112.3213824799307
 20
-156.670835638037
 30
0.0
 10
112.2766149810728
 20
-156.7156384158037
 30
0.0
 10
112.2766149810728
 20
-156.7707423046786
 30
0.0
 10
112.2766149810728
 20
-156.8258814713317
 30
0.0
 10
112.3213824799307
 20
-156.8706489713203
 30
0.0
 10
112.3765216451907
 20
-156.8706489713203
 30
0.0
 10
112.4316255326738
 20
-156.8706489713203
 30
0.0
 10
112.4770985870692
 20
-156.8258814713317
 30
0.0
 10
112.4770985870692
 20
-156.7707423046786
 30
0.0
  0
SPLINE
  5
E8
330
79
100
AcDbEntity
  8
レイヤー 1
 62
   250
420
  2299925
370
     9
100
AcDbSpline
210
0.0
220
0.0
230
1.0
 70
     9
 71
     3
 72
    17
 73
    13
 74
     0
 42
0.0000000001
 43
0.0000000001
 40
0.0
 40
0.0
 40
0.0
 40
0.0
 40
1.0
 40
1.0
 40
1.0
 40
2.0
 40
2.0
 40
2.0
 40
3.0
 40
3.0
 40
3.0
 40
4.0
 40
4.0
 40
4.0
 40
4.0
 10
120.4769722894688
 20
-156.7707423046786
 30
0.0
 10
120.4769722894688
 20
-156.7156384158037
 30
0.0
 10
120.4321695117021
 20
-156.670835638037
 30
0.0
 10
120.3770628299688
 20
-156.670835638037
 30
0.0
 10
120.3212533869481
 20
-156.670835638037
 30
0.0
 10
120.2771561658509
 20
-156.7156384158037
 30
0.0
 10
120.2771561658509
 20
-156.7707423046786
 30
0.0
 10
120.2771561658509
 20
-156.8258814713317
 30
0.0
 10
120.3212533869481
 20
-156.8706489713203
 30
0.0
 10
120.3770628299688
 20
-156.8706489713203
 30
0.0
 10
120.4321695117021
 20
-156.8706489713203
 30
0.0
 10
120.4769722894688
 20
-156.8258814713317
 30
0.0
 10
120.4769722894688
 20
-156.7707423046786
 30
0.0
  0
LINE
  5
E9
330
79
100
AcDbEntity
  8
レイヤー 1
 62
   250
420
  2299925
370
     9
100
AcDbLine
 10
120.3770628299688
 20
-156.7707423046786
 30
0.0
 11
112.3765216451907
 21
-156.7707423046786
 31
0.0
  0
LINE
  5
EA
330
79
100
AcDbEntity
  8
レイヤー 1
 62
   250
420
  2299925
370
     9
100
AcDbLine
 10
120.3770628299688
 20
-155.3107361939324
 30
0.0
 11
120.3770628299688
 21
-157.7708673044289
 31
0.0
  0
LINE
  5
EB
330
79
100
AcDbEntity
  8
レイヤー 1
 62
   250
420
  2299925
370
     9
100
AcDbLine
 10
112.3765216451907
 20
-155.3107361939324
 30
0.0
 11
112.3765216451907
 21
-157.7708673044289
 31
0.0
  0
INSERT
  5
ED
330
79
100
AcDbEntity
  8
レイヤー 1
100
AcDbBlockReference
  2
Block_7
 10
0.0
 20
0.0
 30
0.0
  0
LINE
  5
F4
330
79
100
AcDbEntity
  8
レイヤー 1
 62
   250
420
  2299925
370
    25
100
AcDbLine
 10
120.3770628299688
 20
-146.3951598072724
 30
0.0
 11
119.3765850777153
 21
-146.3951598072724
 31
0.0
  0
LINE
  5
F5
330
79
100
AcDbEntity
  8
レイヤー 1
 62
   250
420
  2299925
370
     9
100
AcDbLine
 10
117.3184795746664
 20
-150.3025970285179
 30
0.0
 11
125.3187032594526
 21
-150.3025970285179
 31
0.0
  0
INSERT
  5
F7
330
79
100
AcDbEntity
  8
レイヤー 1
100
AcDbBlockReference
  2
Block_8
 10
0.0
 20
0.0
 30
0.0
  0
LINE
  5
FC
330
79
100
AcDbEntity
  8
レイヤー 1
  6
AI-Linetype-0
 62
   154
420
    23468
370
    25
100
AcDbLine
 10
92.37564493323272
 20
-148.5328520289604
 30
0.0
 11
102.3753777336741
 21
-148.5328520289604
 31
0.0
  0
INSERT
  5
FF
330
79
100
AcDbEntity
  8
レイヤー 1
100
AcDbBlockReference
  2
Block_9
 10
0.0
 20
0.0
 30
0.0
  0
ENDBLK
  5
7C
330
79
100
AcDbEntity
  8
0
100
AcDbBlockEnd
  0
BLOCK
  5
BA
330
B8
100
AcDbEntity
  8
0
100
AcDbBlockBegin
  2
Block_1
 70
     0
 10
0.0
 20
0.0
 30
0.0
  3
Block_1
  1

  0
INSERT
  5
BD
330
B8
100
AcDbEntity
  8
レイヤー 1
100
AcDbBlockReference
  2
Block_2
 10
0.0
 20
0.0
 30
0.0
  0
ENDBLK
  5
BB
330
B8
100
AcDbEntity
  8
0
100
AcDbBlockEnd
  0
BLOCK
  5
BE
330
BC
100
AcDbEntity
  8
0
100
AcDbBlockBegin
  2
Block_2
 70
     0
 10
0.0
 20
0.0
 30
0.0
  3
Block_2
  1

  0
SPLINE
  5
C0
330
BC
100
AcDbEntity
  8
レイヤー 1
100
AcDbSpline
210
0.0
220
0.0
230
1.0
 70
     9
 71
     3
 72
    17
 73
    13
 74
     0
 42
0.0000000001
 43
0.0000000001
 40
0.0
 40
0.0
 40
0.0
 40
0.0
 40
1.0
 40
1.0
 40
1.0
 40
2.0
 40
2.0
 40
2.0
 40
3.0
 40
3.0
 40
3.0
 40
4.0
 40
4.0
 40
4.0
 40
4.0
 10
85.53104110274919
 20
-148.2712252776023
 30
0.0
 10
85.53104110274919
 20
-148.5209947002829
 30
0.0
 10
85.814400206411
 20
-148.5675034893338
 30
0.0
 10
86.1592542644845
 20
-148.5675034893338
 30
0.0
 10
86.47878687074141
 20
-148.5675034893338
 30
0.0
 10
86.78763968099406
 20
-148.5313299867387
 30
0.0
 10
86.78763968099406
 20
-148.2712252776023
 30
0.0
 10
86.78763968099406
 20
-148.0235229122128
 30
0.0
 10
86.50617537984915
 20
-147.9749470658708
 30
0.0
 10
86.1592542644845
 20
-147.9749470658708
 30
0.0
 10
85.83989391300184
 20
-147.9749470658708
 30
0.0
 10
85.53104110274919
 20
-148.0131876257571
 30
0.0
 10
85.53104110274919
 20
-148.2712252776023
 30
0.0
  0
SPLINE
  5
C1
330
BC
100
AcDbEntity
  8
レイヤー 1
100
AcDbSpline
210
0.0
220
0.0
230
1.0
 70
     9
 71
     3
 72
    29
 73
    25
 74
     0
 42
0.0000000001
 43
0.0000000001
 40
0.0
 40
0.0
 40
0.0
 40
0.0
 40
1.0
 40
1.0
 40
1.0
 40
2.0
 40
2.0
 40
2.0
 40
3.0
 40
3.0
 40
3.0
 40
4.0
 40
4.0
 40
4.0
 40
5.0
 40
5.0
 40
5.0
 40
6.0
 40
6.0
 40
6.0
 40
7.0
 40
7.0
 40
7.0
 40
8.0
 40
8.0
 40
8.0
 40
8.0
 10
86.75370549046435
 20
-147.873316749056
 30
0.0
 10
86.96316729596755
 20
-147.9814927472928
 30
0.0
 10
86.98228757591067
 20
-148.1547810502009
 30
0.0
 10
86.98228757591067
 20
-148.2712252776023
 30
0.0
 10
86.98228757591067
 20
-148.4321112367635
 30
0.0
 10
86.93577878685982
 20
-148.5737046612072
 30
0.0
 10
86.75370549046435
 20
-148.6687892966002
 30
0.0
 10
86.559229850322
 20
-148.7724866707062
 30
0.0
 10
86.32220728093681
 20
-148.7917792054236
 30
0.0
 10
86.1592542644845
 20
-148.7917792054236
 30
0.0
 10
86.01542152797533
 20
-148.7917792054236
 30
0.0
 10
85.76375730277781
 20
-148.7745537279973
 30
0.0
 10
85.56480303850463
 20
-148.6687892966002
 30
0.0
 10
85.36171465964915
 20
-148.5609578079118
 30
0.0
 10
85.33846026512373
 20
-148.4000718487506
 30
0.0
 10
85.33846026512373
 20
-148.2712252776023
 30
0.0
 10
85.33846026512373
 20
-148.1124063757323
 30
0.0
 10
85.38290199688345
 20
-147.9687458939974
 30
0.0
 10
85.56480303850463
 20
-147.873316749056
 30
0.0
 10
85.75738387613011
 20
-147.7740979990808
 30
0.0
 10
85.98579370680218
 20
-147.7506713497811
 30
0.0
 10
86.1592542644845
 20
-147.7506713497811
 30
0.0
 10
86.33064776487568
 20
-147.7506713497811
 30
0.0
 10
86.56129690761316
 20
-147.7720309417896
 30
0.0
 10
86.75370549046435
 20
-147.873316749056
 30
0.0
  0
HATCH
  5
C2
330
BC
100
AcDbEntity
  8
レイヤー 1
 62
   250
420
  2299925
440
 33554687
100
AcDbHatch
 10
0.0
 20
0.0
 30
0.0
210
0.0
220
0.0
230
1.0
  2
SOLID
 70
     1
 71
     1
 91
        2
 92
        1
 93
        1
 72
     4
 94
        3
 73
     0
 74
     0
 95
       17
 96
       13
 40
0.0
 40
0.0
 40
0.0
 40
0.0
 40
1.0
 40
1.0
 40
1.0
 40
2.0
 40
2.0
 40
2.0
 40
3.0
 40
3.0
 40
3.0
 40
4.0
 40
4.0
 40
4.0
 40
4.0
 10
85.53104110274919
 20
-148.2712252776023
 10
85.53104110274919
 20
-148.5209947002829
 10
85.814400206411
 20
-148.5675034893338
 10
86.1592542644845
 20
-148.5675034893338
 10
86.47878687074141
 20
-148.5675034893338
 10
86.78763968099406
 20
-148.5313299867387
 10
86.78763968099406
 20
-148.2712252776023
 10
86.78763968099406
 20
-148.0235229122128
 10
86.50617537984915
 20
-147.9749470658708
 10
86.1592542644845
 20
-147.9749470658708
 10
85.83989391300184
 20
-147.9749470658708
 10
85.53104110274919
 20
-148.0131876257571
 10
85.53104110274919
 20
-148.2712252776023
 97
        0
 97
        1
330
C0
 92
        1
 93
        1
 72
     4
 94
        3
 73
     0
 74
     0
 95
       29
 96
       25
 40
0.0
 40
0.0
 40
0.0
 40
0.0
 40
1.0
 40
1.0
 40
1.0
 40
2.0
 40
2.0
 40
2.0
 40
3.0
 40
3.0
 40
3.0
 40
4.0
 40
4.0
 40
4.0
 40
5.0
 40
5.0
 40
5.0
 40
6.0
 40
6.0
 40
6.0
 40
7.0
 40
7.0
 40
7.0
 40
8.0
 40
8.0
 40
8.0
 40
8.0
 10
86.75370549046435
 20
-147.873316749056
 10
86.96316729596755
 20
-147.9814927472928
 10
86.98228757591067
 20
-148.1547810502009
 10
86.98228757591067
 20
-148.2712252776023
 10
86.98228757591067
 20
-148.4321112367635
 10
86.93577878685982
 20
-148.5737046612072
 10
86.75370549046435
 20
-148.6687892966002
 10
86.559229850322
 20
-148.7724866707062
 10
86.32220728093681
 20
-148.7917792054236
 10
86.1592542644845
 20
-148.7917792054236
 10
86.01542152797533
 20
-148.7917792054236
 10
85.76375730277781
 20
-148.7745537279973
 10
85.56480303850463
 20
-148.6687892966002
 10
85.36171465964915
 20
-148.5609578079118
 10
85.33846026512373
 20
-148.4000718487506
 10
85.33846026512373
 20
-148.2712252776023
 10
85.33846026512373
 20
-148.1124063757323
 10
85.38290199688345
 20
-147.9687458939974
 10
85.56480303850463
 20
-147.873316749056
 10
85.75738387613011
 20
-147.7740979990808
 10
85.98579370680218
 20
-147.7506713497811
 10
86.1592542644845
 20
-147.7506713497811
 10
86.33064776487568
 20
-147.7506713497811
 10
86.56129690761316
 20
-147.7720309417896
 10
86.75370549046435
 20
-147.873316749056
 97
        0
 97
        1
330
C1
 75
     2
 76
     1
 98
        1
 10
0.0
 20
0.0
450
        0
451
        0
460
0.0
461
0.0
452
        0
462
0.0
453
        0
470

  0
SPLINE
  5
C3
330
BC
100
AcDbEntity
  8
レイヤー 1
100
AcDbSpline
210
0.0
220
0.0
230
1.0
 70
    11
 71
     3
 72
    17
 73
    13
 74
     0
 42
0.0000000001
 43
0.0000000001
 40
0.0
 40
0.0
 40
0.0
 40
0.0
 40
1.0
 40
1.0
 40
1.0
 40
2.0
 40
2.0
 40
2.0
 40
3.0
 40
3.0
 40
3.0
 40
4.0
 40
4.0
 40
4.0
 40
4.0
 10
86.93147241750324
 20
-147.5343193533074
 30
0.0
 10
86.93147241750324
 20
-147.5343193533074
 30
0.0
 10
86.67980819230574
 20
-147.5343193533074
 30
0.0
 10
86.67980819230574
 20
-147.5343193533074
 30
0.0
 10
86.67980819230574
 20
-147.5343193533074
 30
0.0
 10
86.67980819230574
 20
-147.2824828733356
 30
0.0
 10
86.67980819230574
 20
-147.2824828733356
 30
0.0
 10
86.67980819230574
 20
-147.2824828733356
 30
0.0
 10
86.93147241750324
 20
-147.2824828733356
 30
0.0
 10
86.93147241750324
 20
-147.2824828733356
 30
0.0
 10
86.93147241750324
 20
-147.2824828733356
 30
0.0
 10
86.93147241750324
 20
-147.5343193533074
 30
0.0
 10
86.93147241750324
 20
-147.5343193533074
 30
0.0
  0
HATCH
  5
C4
330
BC
100
AcDbEntity
  8
レイヤー 1
 62
   250
420
  2299925
440
 33554687
100
AcDbHatch
 10
0.0
 20
0.0
 30
0.0
210
0.0
220
0.0
230
1.0
  2
SOLID
 70
     1
 71
     1
 91
        1
 92
        1
 93
        1
 72
     4
 94
        3
 73
     0
 74
     0
 95
       17
 96
       13
 40
0.0
 40
0.0
 40
0.0
 40
0.0
 40
1.0
 40
1.0
 40
1.0
 40
2.0
 40
2.0
 40
2.0
 40
3.0
 40
3.0
 40
3.0
 40
4.0
 40
4.0
 40
4.0
 40
4.0
 10
86.93147241750324
 20
-147.5343193533074
 10
86.93147241750324
 20
-147.5343193533074
 10
86.67980819230574
 20
-147.5343193533074
 10
86.67980819230574
 20
-147.5343193533074
 10
86.67980819230574
 20
-147.5343193533074
 10
86.67980819230574
 20
-147.2824828733356
 10
86.67980819230574
 20
-147.2824828733356
 10
86.67980819230574
 20
-147.2824828733356
 10
86.93147241750324
 20
-147.2824828733356
 10
86.93147241750324
 20
-147.2824828733356
 10
86.93147241750324
 20
-147.2824828733356
 10
86.93147241750324
 20
-147.5343193533074
 10
86.93147241750324
 20
-147.5343193533074
 97
        0
 97
        1
330
C3
 75
     2
 76
     1
 98
        1
 10
0.0
 20
0.0
450
        0
451
        0
460
0.0
461
0.0
452
        0
462
0.0
453
        0
470

  0
SPLINE
  5
C5
330
BC
100
AcDbEntity
  8
レイヤー 1
100
AcDbSpline
210
0.0
220
0.0
230
1.0
 70
     9
 71
     3
 72
    53
 73
    49
 74
     0
 42
0.0000000001
 43
0.0000000001
 40
0.0
 40
0.0
 40
0.0
 40
0.0
 40
1.0
 40
1.0
 40
1.0
 40
2.0
 40
2.0
 40
2.0
 40
3.0
 40
3.0
 40
3.0
 40
4.0
 40
4.0
 40
4.0
 40
5.0
 40
5.0
 40
5.0
 40
6.0
 40
6.0
 40
6.0
 40
7.0
 40
7.0
 40
7.0
 40
8.0
 40
8.0
 40
8.0
 40
9.0
 40
9.0
 40
9.0
 40
10.0
 40
10.0
 40
10.0
 40
11.0
 40
11.0
 40
11.0
 40
12.0
 40
12.0
 40
12.0
 40
13.0
 40
13.0
 40
13.0
 40
14.0
 40
14.0
 40
14.0
 40
15.0
 40
15.0
 40
15.0
 40
16.0
 40
16.0
 40
16.0
 40
16.0
 10
86.98228757591067
 20
-146.5652139933066
 30
0.0
 10
86.98228757591067
 20
-146.6434176608218
 30
0.0
 10
86.96540660803297
 20
-146.7450479776366
 30
0.0
 10
86.90184459633009
 20
-146.8466782944515
 30
0.0
 10
86.79177379557636
 20
-147.0199665973596
 30
0.0
 10
86.66068791236261
 20
-147.0413261893681
 30
0.0
 10
86.55285642367429
 20
-147.060274214537
 30
0.0
 10
86.55285642367429
 20
-147.060274214537
 30
0.0
 10
86.55285642367429
 20
-146.8380655557384
 30
0.0
 10
86.55285642367429
 20
-146.8380655557384
 30
0.0
 10
86.75163843317319
 20
-146.7832885375229
 30
0.0
 10
86.78126625434634
 20
-146.6561645141172
 30
0.0
 10
86.78126625434634
 20
-146.5631469360154
 30
0.0
 10
86.78126625434634
 20
-146.4236205688628
 30
0.0
 10
86.68187524959689
 20
-146.2713473484148
 30
0.0
 10
86.44915904956826
 20
-146.2713473484148
 30
0.0
 10
86.19318845501421
 20
-146.2713473484148
 30
0.0
 10
86.12342527143789
 20
-146.4511813327448
 30
0.0
 10
86.12342527143789
 20
-146.5717596747285
 30
0.0
 10
86.12342527143789
 20
-146.6034545531929
 30
0.0
 10
86.12342527143789
 20
-146.7450479776366
 30
0.0
 10
86.25244409736051
 20
-146.8339314411561
 30
0.0
 10
86.25244409736051
 20
-146.8339314411561
 30
0.0
 10
86.23332381741738
 20
-147.0096313109038
 30
0.0
 10
86.23332381741738
 20
-147.0096313109038
 30
0.0
 10
86.23332381741738
 20
-147.0096313109038
 30
0.0
 10
85.38720836623999
 20
-146.8890529689201
 30
0.0
 10
85.38720836623999
 20
-146.8890529689201
 30
0.0
 10
85.38720836623999
 20
-146.8890529689201
 30
0.0
 10
85.38720836623999
 20
-146.1104613892536
 30
0.0
 10
85.38720836623999
 20
-146.1104613892536
 30
0.0
 10
85.38720836623999
 20
-146.1104613892536
 30
0.0
 10
85.58185626115662
 20
-146.1104613892536
 30
0.0
 10
85.58185626115662
 20
-146.1104613892536
 30
0.0
 10
85.58185626115662
 20
-146.1104613892536
 30
0.0
 10
85.58185626115662
 20
-146.7260999524678
 30
0.0
 10
85.58185626115662
 20
-146.7260999524678
 30
0.0
 10
85.58185626115662
 20
-146.7260999524678
 30
0.0
 10
86.00491398674531
 20
-146.7915567666875
 30
0.0
 10
86.00491398674531
 20
-146.7915567666875
 30
0.0
 10
85.97097979621558
 20
-146.73023406705
 30
0.0
 10
85.93084443381242
 20
-146.6478962849526
 30
0.0
 10
85.93084443381242
 20
-146.52938500026
 30
0.0
 10
85.93084443381242
 20
-146.2754814629971
 30
0.0
 10
86.11705184479019
 20
-146.0384588936119
 30
0.0
 10
86.43003876962513
 20
-146.0384588936119
 30
0.0
 10
86.7475043185909
 20
-146.0384588936119
 30
0.0
 10
86.98228757591067
 20
-146.2627346097017
 30
0.0
 10
86.98228757591067
 20
-146.5652139933066
 30
0.0
  0
HATCH
  5
C6
330
BC
100
AcDbEntity
  8
レイヤー 1
 62
   250
420
  2299925
440
 33554687
100
AcDbHatch
 10
0.0
 20
0.0
 30
0.0
210
0.0
220
0.0
230
1.0
  2
SOLID
 70
     1
 71
     1
 91
        1
 92
        1
 93
        1
 72
     4
 94
        3
 73
     0
 74
     0
 95
       53
 96
       49
 40
0.0
 40
0.0
 40
0.0
 40
0.0
 40
1.0
 40
1.0
 40
1.0
 40
2.0
 40
2.0
 40
2.0
 40
3.0
 40
3.0
 40
3.0
 40
4.0
 40
4.0
 40
4.0
 40
5.0
 40
5.0
 40
5.0
 40
6.0
 40
6.0
 40
6.0
 40
7.0
 40
7.0
 40
7.0
 40
8.0
 40
8.0
 40
8.0
 40
9.0
 40
9.0
 40
9.0
 40
10.0
 40
10.0
 40
10.0
 40
11.0
 40
11.0
 40
11.0
 40
12.0
 40
12.0
 40
12.0
 40
13.0
 40
13.0
 40
13.0
 40
14.0
 40
14.0
 40
14.0
 40
15.0
 40
15.0
 40
15.0
 40
16.0
 40
16.0
 40
16.0
 40
16.0
 10
86.98228757591067
 20
-146.5652139933066
 10
86.98228757591067
 20
-146.6434176608218
 10
86.96540660803297
 20
-146.7450479776366
 10
86.90184459633009
 20
-146.8466782944515
 10
86.79177379557636
 20
-147.0199665973596
 10
86.66068791236261
 20
-147.0413261893681
 10
86.55285642367429
 20
-147.060274214537
 10
86.55285642367429
 20
-147.060274214537
 10
86.55285642367429
 20
-146.8380655557384
 10
86.55285642367429
 20
-146.8380655557384
 10
86.75163843317319
 20
-146.7832885375229
 10
86.78126625434634
 20
-146.6561645141172
 10
86.78126625434634
 20
-146.5631469360154
 10
86.78126625434634
 20
-146.4236205688628
 10
86.68187524959689
 20
-146.2713473484148
 10
86.44915904956826
 20
-146.2713473484148
 10
86.19318845501421
 20
-146.2713473484148
 10
86.12342527143789
 20
-146.4511813327448
 10
86.12342527143789
 20
-146.5717596747285
 10
86.12342527143789
 20
-146.6034545531929
 10
86.12342527143789
 20
-146.7450479776366
 10
86.25244409736051
 20
-146.8339314411561
 10
86.25244409736051
 20
-146.8339314411561
 10
86.23332381741738
 20
-147.0096313109038
 10
86.23332381741738
 20
-147.0096313109038
 10
86.23332381741738
 20
-147.0096313109038
 10
85.38720836623999
 20
-146.8890529689201
 10
85.38720836623999
 20
-146.8890529689201
 10
85.38720836623999
 20
-146.8890529689201
 10
85.38720836623999
 20
-146.1104613892536
 10
85.38720836623999
 20
-146.1104613892536
 10
85.38720836623999
 20
-146.1104613892536
 10
85.58185626115662
 20
-146.1104613892536
 10
85.58185626115662
 20
-146.1104613892536
 10
85.58185626115662
 20
-146.1104613892536
 10
85.58185626115662
 20
-146.7260999524678
 10
85.58185626115662
 20
-146.7260999524678
 10
85.58185626115662
 20
-146.7260999524678
 10
86.00491398674531
 20
-146.7915567666875
 10
86.00491398674531
 20
-146.7915567666875
 10
85.97097979621558
 20
-146.73023406705
 10
85.93084443381242
 20
-146.6478962849526
 10
85.93084443381242
 20
-146.52938500026
 10
85.93084443381242
 20
-146.2754814629971
 10
86.11705184479019
 20
-146.0384588936119
 10
86.43003876962513
 20
-146.0384588936119
 10
86.7475043185909
 20
-146.0384588936119
 10
86.98228757591067
 20
-146.2627346097017
 10
86.98228757591067
 20
-146.5652139933066
 97
        0
 97
        1
330
C5
 75
     2
 76
     1
 98
        1
 10
0.0
 20
0.0
450
        0
451
        0
460
0.0
461
0.0
452
        0
462
0.0
453
        0
470

  0
ENDBLK
  5
BF
330
BC
100
AcDbEntity
  8
0
100
AcDbBlockEnd
  0
BLOCK
  5
CB
330
C9
100
AcDbEntity
  8
0
100
AcDbBlockBegin
  2
Block_3
 70
     0
 10
0.0
 20
0.0
 30
0.0
  3
Block_3
  1

  0
INSERT
  5
CE
330
C9
100
AcDbEntity
  8
レイヤー 1
100
AcDbBlockReference
  2
Block_4
 10
0.0
 20
0.0
 30
0.0
  0
ENDBLK
  5
CC
330
C9
100
AcDbEntity
  8
0
100
AcDbBlockEnd
  0
BLOCK
  5
CF
330
CD
100
AcDbEntity
  8
0
100
AcDbBlockBegin
  2
Block_4
 70
     0
 10
0.0
 20
0.0
 30
0.0
  3
Block_4
  1

  0
SPLINE
  5
D1
330
CD
100
AcDbEntity
  8
レイヤー 1
100
AcDbSpline
210
0.0
220
0.0
230
1.0
 70
     9
 71
     3
 72
    44
 73
    40
 74
     0
 42
0.0000000001
 43
0.0000000001
 40
0.0
 40
0.0
 40
0.0
 40
0.0
 40
1.0
 40
1.0
 40
1.0
 40
2.0
 40
2.0
 40
2.0
 40
3.0
 40
3.0
 40
3.0
 40
4.0
 40
4.0
 40
4.0
 40
5.0
 40
5.0
 40
5.0
 40
6.0
 40
6.0
 40
6.0
 40
7.0
 40
7.0
 40
7.0
 40
8.0
 40
8.0
 40
8.0
 40
9.0
 40
9.0
 40
9.0
 40
10.0
 40
10.0
 40
10.0
 40
11.0
 40
11.0
 40
11.0
 40
12.0
 40
12.0
 40
12.0
 40
13.0
 40
13.0
 40
13.0
 40
13.0
 10
102.3801418472348
 20
-141.1016370632489
 30
0.0
 10
102.1622395577927
 20
-141.2602837103446
 30
0.0
 10
102.0690497249167
 20
-141.3343532632775
 30
0.0
 10
102.0204738785747
 20
-141.4781859997867
 30
0.0
 10
102.0204738785747
 20
-141.4781859997867
 30
0.0
 10
102.7988932034669
 20
-141.4781859997867
 30
0.0
 10
102.7988932034669
 20
-141.4781859997867
 30
0.0
 10
102.7988932034669
 20
-141.4781859997867
 30
0.0
 10
102.7988932034669
 20
-141.6833414359333
 30
0.0
 10
102.7988932034669
 20
-141.6833414359333
 30
0.0
 10
102.7988932034669
 20
-141.6833414359333
 30
0.0
 10
101.7708767106684
 20
-141.6833414359333
 30
0.0
 10
101.7708767106684
 20
-141.6833414359333
 30
0.0
 10
101.8025715891327
 20
-141.3257405245644
 30
0.0
 10
101.8680284033524
 20
-141.2475368570492
 30
0.0
 10
102.2531900786033
 20
-140.9491915880266
 30
0.0
 10
102.5091606731574
 20
-140.7504095785277
 30
0.0
 10
102.5746174873771
 20
-140.6827134522425
 30
0.0
 10
102.5746174873771
 20
-140.545254142381
 30
0.0
 10
102.5746174873771
 20
-140.4267428576884
 30
0.0
 10
102.5027872465097
 20
-140.2954847197004
 30
0.0
 10
102.3060722943019
 20
-140.2954847197004
 30
0.0
 10
102.0457953303913
 20
-140.2954847197004
 30
0.0
 10
102.0373548464524
 20
-140.5261338624379
 30
0.0
 10
102.0330484770959
 20
-140.6425780898393
 30
0.0
 10
102.0330484770959
 20
-140.6425780898393
 30
0.0
 10
101.8089450157804
 20
-140.6425780898393
 30
0.0
 10
101.8089450157804
 20
-140.6425780898393
 30
0.0
 10
101.8173854997192
 20
-140.5156263212079
 30
0.0
 10
101.8278930409493
 20
-140.403488463163
 30
0.0
 10
101.9083360205298
 20
-140.2849771784704
 30
0.0
 10
102.0182345665093
 20
-140.1242634740835
 30
0.0
 10
102.2044419774871
 20
-140.0903292835538
 30
0.0
 10
102.3208862048885
 20
-140.0903292835538
 30
0.0
 10
102.5980441366769
 20
-140.0903292835538
 30
0.0
 10
102.8052666301146
 20
-140.2744696372404
 30
0.0
 10
102.8052666301146
 20
-140.5473211996722
 30
0.0
 10
102.8052666301146
 20
-140.7757310303443
 30
0.0
 10
102.6889946574875
 20
-140.8752942898679
 30
0.0
 10
102.3801418472348
 20
-141.1016370632489
 30
0.0
  0
HATCH
  5
D2
330
CD
100
AcDbEntity
  8
レイヤー 1
 62
   250
420
  2299925
440
 33554687
100
AcDbHatch
 10
0.0
 20
0.0
 30
0.0
210
0.0
220
0.0
230
1.0
  2
SOLID
 70
     1
 71
     1
 91
        1
 92
        1
 93
        1
 72
     4
 94
        3
 73
     0
 74
     0
 95
       44
 96
       40
 40
0.0
 40
0.0
 40
0.0
 40
0.0
 40
1.0
 40
1.0
 40
1.0
 40
2.0
 40
2.0
 40
2.0
 40
3.0
 40
3.0
 40
3.0
 40
4.0
 40
4.0
 40
4.0
 40
5.0
 40
5.0
 40
5.0
 40
6.0
 40
6.0
 40
6.0
 40
7.0
 40
7.0
 40
7.0
 40
8.0
 40
8.0
 40
8.0
 40
9.0
 40
9.0
 40
9.0
 40
10.0
 40
10.0
 40
10.0
 40
11.0
 40
11.0
 40
11.0
 40
12.0
 40
12.0
 40
12.0
 40
13.0
 40
13.0
 40
13.0
 40
13.0
 10
102.3801418472348
 20
-141.1016370632489
 10
102.1622395577927
 20
-141.2602837103446
 10
102.0690497249167
 20
-141.3343532632775
 10
102.0204738785747
 20
-141.4781859997867
 10
102.0204738785747
 20
-141.4781859997867
 10
102.7988932034669
 20
-141.4781859997867
 10
102.7988932034669
 20
-141.4781859997867
 10
102.7988932034669
 20
-141.4781859997867
 10
102.7988932034669
 20
-141.6833414359333
 10
102.7988932034669
 20
-141.6833414359333
 10
102.7988932034669
 20
-141.6833414359333
 10
101.7708767106684
 20
-141.6833414359333
 10
101.7708767106684
 20
-141.6833414359333
 10
101.8025715891327
 20
-141.3257405245644
 10
101.8680284033524
 20
-141.2475368570492
 10
102.2531900786033
 20
-140.9491915880266
 10
102.5091606731574
 20
-140.7504095785277
 10
102.5746174873771
 20
-140.6827134522425
 10
102.5746174873771
 20
-140.545254142381
 10
102.5746174873771
 20
-140.4267428576884
 10
102.5027872465097
 20
-140.2954847197004
 10
102.3060722943019
 20
-140.2954847197004
 10
102.0457953303913
 20
-140.2954847197004
 10
102.0373548464524
 20
-140.5261338624379
 10
102.0330484770959
 20
-140.6425780898393
 10
102.0330484770959
 20
-140.6425780898393
 10
101.8089450157804
 20
-140.6425780898393
 10
101.8089450157804
 20
-140.6425780898393
 10
101.8173854997192
 20
-140.5156263212079
 10
101.8278930409493
 20
-140.403488463163
 10
101.9083360205298
 20
-140.2849771784704
 10
102.0182345665093
 20
-140.1242634740835
 10
102.2044419774871
 20
-140.0903292835538
 10
102.3208862048885
 20
-140.0903292835538
 10
102.5980441366769
 20
-140.0903292835538
 10
102.8052666301146
 20
-140.2744696372404
 10
102.8052666301146
 20
-140.5473211996722
 10
102.8052666301146
 20
-140.7757310303443
 10
102.6889946574875
 20
-140.8752942898679
 10
102.3801418472348
 20
-141.1016370632489
 97
        0
 97
        1
330
D1
 75
     2
 76
     1
 98
        1
 10
0.0
 20
0.0
450
        0
451
        0
460
0.0
461
0.0
452
        0
462
0.0
453
        0
470

  0
SPLINE
  5
D3
330
CD
100
AcDbEntity
  8
レイヤー 1
100
AcDbSpline
210
0.0
220
0.0
230
1.0
 70
    11
 71
     3
 72
    26
 73
    22
 74
     0
 42
0.0000000001
 43
0.0000000001
 40
0.0
 40
0.0
 40
0.0
 40
0.0
 40
1.0
 40
1.0
 40
1.0
 40
2.0
 40
2.0
 40
2.0
 40
3.0
 40
3.0
 40
3.0
 40
4.0
 40
4.0
 40
4.0
 40
5.0
 40
5.0
 40
5.0
 40
6.0
 40
6.0
 40
6.0
 40
7.0
 40
7.0
 40
7.0
 40
7.0
 10
103.4152207857781
 20
-141.6833414359333
 30
0.0
 10
103.4152207857781
 20
-141.6833414359333
 30
0.0
 10
103.4152207857781
 20
-140.5790160781365
 30
0.0
 10
103.4152207857781
 20
-140.5790160781365
 30
0.0
 10
103.4152207857781
 20
-140.5790160781365
 30
0.0
 10
103.0851806382912
 20
-140.5790160781365
 30
0.0
 10
103.0851806382912
 20
-140.5790160781365
 30
0.0
 10
103.0851806382912
 20
-140.5790160781365
 30
0.0
 10
103.0851806382912
 20
-140.4308769722707
 30
0.0
 10
103.0851806382912
 20
-140.4308769722707
 30
0.0
 10
103.4172878430693
 20
-140.4162353164584
 30
0.0
 10
103.4637966321201
 20
-140.2532823000061
 30
0.0
 10
103.4934244532933
 20
-140.1390773846701
 30
0.0
 10
103.4934244532933
 20
-140.1390773846701
 30
0.0
 10
103.6394965018679
 20
-140.1390773846701
 30
0.0
 10
103.6394965018679
 20
-140.1390773846701
 30
0.0
 10
103.6394965018679
 20
-140.1390773846701
 30
0.0
 10
103.6394965018679
 20
-141.6833414359333
 30
0.0
 10
103.6394965018679
 20
-141.6833414359333
 30
0.0
 10
103.6394965018679
 20
-141.6833414359333
 30
0.0
 10
103.4152207857781
 20
-141.6833414359333
 30
0.0
 10
103.4152207857781
 20
-141.6833414359333
 30
0.0
  0
HATCH
  5
D4
330
CD
100
AcDbEntity
  8
レイヤー 1
 62
   250
420
  2299925
440
 33554687
100
AcDbHatch
 10
0.0
 20
0.0
 30
0.0
210
0.0
220
0.0
230
1.0
  2
SOLID
 70
     1
 71
     1
 91
        1
 92
        1
 93
        1
 72
     4
 94
        3
 73
     0
 74
     0
 95
       26
 96
       22
 40
0.0
 40
0.0
 40
0.0
 40
0.0
 40
1.0
 40
1.0
 40
1.0
 40
2.0
 40
2.0
 40
2.0
 40
3.0
 40
3.0
 40
3.0
 40
4.0
 40
4.0
 40
4.0
 40
5.0
 40
5.0
 40
5.0
 40
6.0
 40
6.0
 40
6.0
 40
7.0
 40
7.0
 40
7.0
 40
7.0
 10
103.4152207857781
 20
-141.6833414359333
 10
103.4152207857781
 20
-141.6833414359333
 10
103.4152207857781
 20
-140.5790160781365
 10
103.4152207857781
 20
-140.5790160781365
 10
103.4152207857781
 20
-140.5790160781365
 10
103.0851806382912
 20
-140.5790160781365
 10
103.0851806382912
 20
-140.5790160781365
 10
103.0851806382912
 20
-140.5790160781365
 10
103.0851806382912
 20
-140.4308769722707
 10
103.0851806382912
 20
-140.4308769722707
 10
103.4172878430693
 20
-140.4162353164584
 10
103.4637966321201
 20
-140.2532823000061
 10
103.4934244532933
 20
-140.1390773846701
 10
103.4934244532933
 20
-140.1390773846701
 10
103.6394965018679
 20
-140.1390773846701
 10
103.6394965018679
 20
-140.1390773846701
 10
103.6394965018679
 20
-140.1390773846701
 10
103.6394965018679
 20
-141.6833414359333
 10
103.6394965018679
 20
-141.6833414359333
 10
103.6394965018679
 20
-141.6833414359333
 10
103.4152207857781
 20
-141.6833414359333
 10
103.4152207857781
 20
-141.6833414359333
 97
        0
 97
        1
330
D3
 75
     2
 76
     1
 98
        1
 10
0.0
 20
0.0
450
        0
451
        0
460
0.0
461
0.0
452
        0
462
0.0
453
        0
470

  0
ENDBLK
  5
D0
330
CD
100
AcDbEntity
  8
0
100
AcDbBlockEnd
  0
BLOCK
  5
D9
330
D7
100
AcDbEntity
  8
0
100
AcDbBlockBegin
  2
Block_5
 70
     0
 10
0.0
 20
0.0
 30
0.0
  3
Block_5
  1

  0
SPLINE
  5
DB
330
D7
100
AcDbEntity
  8
レイヤー 1
100
AcDbSpline
210
0.0
220
0.0
230
1.0
 70
     9
 71
     3
 72
    53
 73
    49
 74
     0
 42
0.0000000001
 43
0.0000000001
 40
0.0
 40
0.0
 40
0.0
 40
0.0
 40
1.0
 40
1.0
 40
1.0
 40
2.0
 40
2.0
 40
2.0
 40
3.0
 40
3.0
 40
3.0
 40
4.0
 40
4.0
 40
4.0
 40
5.0
 40
5.0
 40
5.0
 40
6.0
 40
6.0
 40
6.0
 40
7.0
 40
7.0
 40
7.0
 40
8.0
 40
8.0
 40
8.0
 40
9.0
 40
9.0
 40
9.0
 40
10.0
 40
10.0
 40
10.0
 40
11.0
 40
11.0
 40
11.0
 40
12.0
 40
12.0
 40
12.0
 40
13.0
 40
13.0
 40
13.0
 40
14.0
 40
14.0
 40
14.0
 40
15.0
 40
15.0
 40
15.0
 40
16.0
 40
16.0
 40
16.0
 40
16.0
 10
87.71282007355791
 20
-150.1765353357197
 30
0.0
 10
87.71282007355791
 20
-150.2547390032349
 30
0.0
 10
87.69593910568017
 20
-150.3563693200498
 30
0.0
 10
87.63237709397733
 20
-150.4579996368646
 30
0.0
 10
87.5223062932236
 20
-150.6312879397727
 30
0.0
 10
87.39122041000983
 20
-150.6526475317813
 30
0.0
 10
87.28338892132152
 20
-150.6715955569501
 30
0.0
 10
87.28338892132152
 20
-150.6715955569501
 30
0.0
 10
87.28338892132152
 20
-150.4493868981515
 30
0.0
 10
87.28338892132152
 20
-150.4493868981515
 30
0.0
 10
87.48217093082043
 20
-150.394609879936
 30
0.0
 10
87.51179875199358
 20
-150.2674858565303
 30
0.0
 10
87.51179875199358
 20
-150.1744682784286
 30
0.0
 10
87.51179875199358
 20
-150.034941911276
 30
0.0
 10
87.41240774724412
 20
-149.8826686908279
 30
0.0
 10
87.17969154721549
 20
-149.8826686908279
 30
0.0
 10
86.92372095266144
 20
-149.8826686908279
 30
0.0
 10
86.85395776908512
 20
-150.062502675158
 30
0.0
 10
86.85395776908512
 20
-150.1830810171417
 30
0.0
 10
86.85395776908512
 20
-150.214775895606
 30
0.0
 10
86.85395776908512
 20
-150.3563693200498
 30
0.0
 10
86.98297659500772
 20
-150.4452527835692
 30
0.0
 10
86.98297659500772
 20
-150.4452527835692
 30
0.0
 10
86.96385631506458
 20
-150.620952653317
 30
0.0
 10
86.96385631506458
 20
-150.620952653317
 30
0.0
 10
86.96385631506458
 20
-150.620952653317
 30
0.0
 10
86.11774086388724
 20
-150.5003743113332
 30
0.0
 10
86.11774086388724
 20
-150.5003743113332
 30
0.0
 10
86.11774086388724
 20
-150.5003743113332
 30
0.0
 10
86.11774086388724
 20
-149.7217827316668
 30
0.0
 10
86.11774086388724
 20
-149.7217827316668
 30
0.0
 10
86.11774086388724
 20
-149.7217827316668
 30
0.0
 10
86.31238875880384
 20
-149.7217827316668
 30
0.0
 10
86.31238875880384
 20
-149.7217827316668
 30
0.0
 10
86.31238875880384
 20
-149.7217827316668
 30
0.0
 10
86.31238875880384
 20
-150.3374212948809
 30
0.0
 10
86.31238875880384
 20
-150.3374212948809
 30
0.0
 10
86.31238875880384
 20
-150.3374212948809
 30
0.0
 10
86.73544648439252
 20
-150.4028781091006
 30
0.0
 10
86.73544648439252
 20
-150.4028781091006
 30
0.0
 10
86.70151229386283
 20
-150.3415554094632
 30
0.0
 10
86.66137693145966
 20
-150.2592176273657
 30
0.0
 10
86.66137693145966
 20
-150.1407063426731
 30
0.0
 10
86.66137693145966
 20
-149.8868028054102
 30
0.0
 10
86.84758434243741
 20
-149.649780236025
 30
0.0
 10
87.16057126727235
 20
-149.649780236025
 30
0.0
 10
87.47803681623812
 20
-149.649780236025
 30
0.0
 10
87.71282007355791
 20
-149.8740559521148
 30
0.0
 10
87.71282007355791
 20
-150.1765353357197
 30
0.0
  0
HATCH
  5
DC
330
D7
100
AcDbEntity
  8
レイヤー 1
 62
   250
420
  2299925
440
 33554687
100
AcDbHatch
 10
0.0
 20
0.0
 30
0.0
210
0.0
220
0.0
230
1.0
  2
SOLID
 70
     1
 71
     1
 91
        1
 92
        1
 93
        1
 72
     4
 94
        3
 73
     0
 74
     0
 95
       53
 96
       49
 40
0.0
 40
0.0
 40
0.0
 40
0.0
 40
1.0
 40
1.0
 40
1.0
 40
2.0
 40
2.0
 40
2.0
 40
3.0
 40
3.0
 40
3.0
 40
4.0
 40
4.0
 40
4.0
 40
5.0
 40
5.0
 40
5.0
 40
6.0
 40
6.0
 40
6.0
 40
7.0
 40
7.0
 40
7.0
 40
8.0
 40
8.0
 40
8.0
 40
9.0
 40
9.0
 40
9.0
 40
10.0
 40
10.0
 40
10.0
 40
11.0
 40
11.0
 40
11.0
 40
12.0
 40
12.0
 40
12.0
 40
13.0
 40
13.0
 40
13.0
 40
14.0
 40
14.0
 40
14.0
 40
15.0
 40
15.0
 40
15.0
 40
16.0
 40
16.0
 40
16.0
 40
16.0
 10
87.71282007355791
 20
-150.1765353357197
 10
87.71282007355791
 20
-150.2547390032349
 10
87.69593910568017
 20
-150.3563693200498
 10
87.63237709397733
 20
-150.4579996368646
 10
87.5223062932236
 20
-150.6312879397727
 10
87.39122041000983
 20
-150.6526475317813
 10
87.28338892132152
 20
-150.6715955569501
 10
87.28338892132152
 20
-150.6715955569501
 10
87.28338892132152
 20
-150.4493868981515
 10
87.28338892132152
 20
-150.4493868981515
 10
87.48217093082043
 20
-150.394609879936
 10
87.51179875199358
 20
-150.2674858565303
 10
87.51179875199358
 20
-150.1744682784286
 10
87.51179875199358
 20
-150.034941911276
 10
87.41240774724412
 20
-149.8826686908279
 10
87.17969154721549
 20
-149.8826686908279
 10
86.92372095266144
 20
-149.8826686908279
 10
86.85395776908512
 20
-150.062502675158
 10
86.85395776908512
 20
-150.1830810171417
 10
86.85395776908512
 20
-150.214775895606
 10
86.85395776908512
 20
-150.3563693200498
 10
86.98297659500772
 20
-150.4452527835692
 10
86.98297659500772
 20
-150.4452527835692
 10
86.96385631506458
 20
-150.620952653317
 10
86.96385631506458
 20
-150.620952653317
 10
86.96385631506458
 20
-150.620952653317
 10
86.11774086388724
 20
-150.5003743113332
 10
86.11774086388724
 20
-150.5003743113332
 10
86.11774086388724
 20
-150.5003743113332
 10
86.11774086388724
 20
-149.7217827316668
 10
86.11774086388724
 20
-149.7217827316668
 10
86.11774086388724
 20
-149.7217827316668
 10
86.31238875880384
 20
-149.7217827316668
 10
86.31238875880384
 20
-149.7217827316668
 10
86.31238875880384
 20
-149.7217827316668
 10
86.31238875880384
 20
-150.3374212948809
 10
86.31238875880384
 20
-150.3374212948809
 10
86.31238875880384
 20
-150.3374212948809
 10
86.73544648439252
 20
-150.4028781091006
 10
86.73544648439252
 20
-150.4028781091006
 10
86.70151229386283
 20
-150.3415554094632
 10
86.66137693145966
 20
-150.2592176273657
 10
86.66137693145966
 20
-150.1407063426731
 10
86.66137693145966
 20
-149.8868028054102
 10
86.84758434243741
 20
-149.649780236025
 10
87.16057126727235
 20
-149.649780236025
 10
87.47803681623812
 20
-149.649780236025
 10
87.71282007355791
 20
-149.8740559521148
 10
87.71282007355791
 20
-150.1765353357197
 97
        0
 97
        1
330
DB
 75
     2
 76
     1
 98
        1
 10
0.0
 20
0.0
450
        0
451
        0
460
0.0
461
0.0
452
        0
462
0.0
453
        0
470

  0
ENDBLK
  5
DA
330
D7
100
AcDbEntity
  8
0
100
AcDbBlockEnd
  0
BLOCK
  5
E2
330
E0
100
AcDbEntity
  8
0
100
AcDbBlockBegin
  2
Block_6
 70
     0
 10
0.0
 20
0.0
 30
0.0
  3
Block_6
  1

  0
SPLINE
  5
E4
330
E0
100
AcDbEntity
  8
レイヤー 1
100
AcDbSpline
210
0.0
220
0.0
230
1.0
 70
     9
 71
     3
 72
    17
 73
    13
 74
     0
 42
0.0000000001
 43
0.0000000001
 40
0.0
 40
0.0
 40
0.0
 40
0.0
 40
1.0
 40
1.0
 40
1.0
 40
2.0
 40
2.0
 40
2.0
 40
3.0
 40
3.0
 40
3.0
 40
4.0
 40
4.0
 40
4.0
 40
4.0
 10
116.3973741028451
 20
-140.8742607612224
 30
0.0
 10
116.1352023364176
 20
-140.8742607612224
 30
0.0
 10
116.0969617765313
 20
-141.0857896240167
 30
0.0
 10
116.0969617765313
 20
-141.2020615966439
 30
0.0
 10
116.0969617765313
 20
-141.3777614663917
 30
0.0
 10
116.1923909214727
 20
-141.5405422280697
 30
0.0
 10
116.3763590203851
 20
-141.5405422280697
 30
0.0
 10
116.4969373623688
 20
-141.5405422280697
 30
0.0
 10
116.6726372321166
 20
-141.4812865857234
 30
0.0
 10
116.6726372321166
 20
-141.1956881699962
 30
0.0
 10
116.6726372321166
 20
-140.9715847086807
 30
0.0
 10
116.5327663554154
 20
-140.8742607612224
 30
0.0
 10
116.3973741028451
 20
-140.8742607612224
 30
0.0
  0
SPLINE
  5
E5
330
E0
100
AcDbEntity
  8
レイヤー 1
100
AcDbSpline
210
0.0
220
0.0
230
1.0
 70
     9
 71
     3
 72
    32
 73
    28
 74
     0
 42
0.0000000001
 43
0.0000000001
 40
0.0
 40
0.0
 40
0.0
 40
0.0
 40
1.0
 40
1.0
 40
1.0
 40
2.0
 40
2.0
 40
2.0
 40
3.0
 40
3.0
 40
3.0
 40
4.0
 40
4.0
 40
4.0
 40
5.0
 40
5.0
 40
5.0
 40
6.0
 40
6.0
 40
6.0
 40
7.0
 40
7.0
 40
7.0
 40
8.0
 40
8.0
 40
8.0
 40
9.0
 40
9.0
 40
9.0
 40
9.0
 10
116.3804931349674
 20
-141.7331230656952
 30
0.0
 10
115.8644178312769
 20
-141.7331230656952
 30
0.0
 10
115.8558050925638
 20
-141.1788072021185
 30
0.0
 10
115.8558050925638
 20
-140.965211282033
 30
0.0
 10
115.8558050925638
 20
-140.7345621392955
 30
0.0
 10
115.8750976272812
 20
-140.0872286976171
 30
0.0
 10
116.4187336948536
 20
-140.0872286976171
 30
0.0
 10
116.5920219977617
 20
-140.0872286976171
 30
0.0
 10
116.83765730586
 20
-140.1569918811934
 30
0.0
 10
116.8755533561978
 20
-140.4890990859714
 30
0.0
 10
116.8755533561978
 20
-140.4890990859714
 30
0.0
 10
116.6619574361123
 20
-140.4890990859714
 30
0.0
 10
116.6619574361123
 20
-140.4890990859714
 30
0.0
 10
116.651277640108
 20
-140.4320827556906
 30
0.0
 10
116.6195827616437
 20
-140.2839436498248
 30
0.0
 10
116.4166666375625
 20
-140.2839436498248
 30
0.0
 10
116.1245225404133
 20
-140.2839436498248
 30
0.0
 10
116.0845594327844
 20
-140.6119167400206
 30
0.0
 10
116.071812579489
 20
-140.8170721761672
 30
0.0
 10
116.1648301575907
 20
-140.7388685086521
 30
0.0
 10
116.2326985386501
 20
-140.6796128663058
 30
0.0
 10
116.4145995802713
 20
-140.6796128663058
 30
0.0
 10
116.5944335646014
 20
-140.6796128663058
 30
0.0
 10
116.8969129482063
 20
-140.7874443549941
 30
0.0
 10
116.8969129482063
 20
-141.193621112705
 30
0.0
 10
116.8969129482063
 20
-141.513153718962
 30
0.0
 10
116.6977864291589
 20
-141.7331230656952
 30
0.0
 10
116.3804931349674
 20
-141.7331230656952
 30
0.0
  0
HATCH
  5
E6
330
E0
100
AcDbEntity
  8
レイヤー 1
 62
   250
420
  2299925
440
 33554687
100
AcDbHatch
 10
0.0
 20
0.0
 30
0.0
210
0.0
220
0.0
230
1.0
  2
SOLID
 70
     1
 71
     1
 91
        2
 92
        1
 93
        1
 72
     4
 94
        3
 73
     0
 74
     0
 95
       17
 96
       13
 40
0.0
 40
0.0
 40
0.0
 40
0.0
 40
1.0
 40
1.0
 40
1.0
 40
2.0
 40
2.0
 40
2.0
 40
3.0
 40
3.0
 40
3.0
 40
4.0
 40
4.0
 40
4.0
 40
4.0
 10
116.3973741028451
 20
-140.8742607612224
 10
116.1352023364176
 20
-140.8742607612224
 10
116.0969617765313
 20
-141.0857896240167
 10
116.0969617765313
 20
-141.2020615966439
 10
116.0969617765313
 20
-141.3777614663917
 10
116.1923909214727
 20
-141.5405422280697
 10
116.3763590203851
 20
-141.5405422280697
 10
116.4969373623688
 20
-141.5405422280697
 10
116.6726372321166
 20
-141.4812865857234
 10
116.6726372321166
 20
-141.1956881699962
 10
116.6726372321166
 20
-140.9715847086807
 10
116.5327663554154
 20
-140.8742607612224
 10
116.3973741028451
 20
-140.8742607612224
 97
        0
 97
        1
330
E4
 92
        1
 93
        1
 72
     4
 94
        3
 73
     0
 74
     0
 95
       32
 96
       28
 40
0.0
 40
0.0
 40
0.0
 40
0.0
 40
1.0
 40
1.0
 40
1.0
 40
2.0
 40
2.0
 40
2.0
 40
3.0
 40
3.0
 40
3.0
 40
4.0
 40
4.0
 40
4.0
 40
5.0
 40
5.0
 40
5.0
 40
6.0
 40
6.0
 40
6.0
 40
7.0
 40
7.0
 40
7.0
 40
8.0
 40
8.0
 40
8.0
 40
9.0
 40
9.0
 40
9.0
 40
9.0
 10
116.3804931349674
 20
-141.7331230656952
 10
115.8644178312769
 20
-141.7331230656952
 10
115.8558050925638
 20
-141.1788072021185
 10
115.8558050925638
 20
-140.965211282033
 10
115.8558050925638
 20
-140.7345621392955
 10
115.8750976272812
 20
-140.0872286976171
 10
116.4187336948536
 20
-140.0872286976171
 10
116.5920219977617
 20
-140.0872286976171
 10
116.83765730586
 20
-140.1569918811934
 10
116.8755533561978
 20
-140.4890990859714
 10
116.8755533561978
 20
-140.4890990859714
 10
116.6619574361123
 20
-140.4890990859714
 10
116.6619574361123
 20
-140.4890990859714
 10
116.651277640108
 20
-140.4320827556906
 10
116.6195827616437
 20
-140.2839436498248
 10
116.4166666375625
 20
-140.2839436498248
 10
116.1245225404133
 20
-140.2839436498248
 10
116.0845594327844
 20
-140.6119167400206
 10
116.071812579489
 20
-140.8170721761672
 10
116.1648301575907
 20
-140.7388685086521
 10
116.2326985386501
 20
-140.6796128663058
 10
116.4145995802713
 20
-140.6796128663058
 10
116.5944335646014
 20
-140.6796128663058
 10
116.8969129482063
 20
-140.7874443549941
 10
116.8969129482063
 20
-141.193621112705
 10
116.8969129482063
 20
-141.513153718962
 10
116.6977864291589
 20
-141.7331230656952
 10
116.3804931349674
 20
-141.7331230656952
 97
        0
 97
        1
330
E5
 75
     2
 76
     1
 98
        1
 10
0.0
 20
0.0
450
        0
451
        0
460
0.0
461
0.0
452
        0
462
0.0
453
        0
470

  0
ENDBLK
  5
E3
330
E0
100
AcDbEntity
  8
0
100
AcDbBlockEnd
  0
BLOCK
  5
EE
330
EC
100
AcDbEntity
  8
0
100
AcDbBlockBegin
  2
Block_7
 70
     0
 10
0.0
 20
0.0
 30
0.0
  3
Block_7
  1

  0
SPLINE
  5
F0
330
EC
100
AcDbEntity
  8
レイヤー 1
100
AcDbSpline
210
0.0
220
0.0
230
1.0
 70
     9
 71
     3
 72
    17
 73
    13
 74
     0
 42
0.0000000001
 43
0.0000000001
 40
0.0
 40
0.0
 40
0.0
 40
0.0
 40
1.0
 40
1.0
 40
1.0
 40
2.0
 40
2.0
 40
2.0
 40
3.0
 40
3.0
 40
3.0
 40
4.0
 40
4.0
 40
4.0
 40
4.0
 10
116.3763590203851
 20
-154.6586045620298
 30
0.0
 10
116.2113389466416
 20
-154.6586045620298
 30
0.0
 10
116.1265895977044
 20
-154.7536891974227
 30
0.0
 10
116.1265895977044
 20
-154.889081449993
 30
0.0
 10
116.1265895977044
 20
-155.0117268492679
 30
0.0
 10
116.1985920933462
 20
-155.1302381339605
 30
0.0
 10
116.3763590203851
 20
-155.1302381339605
 30
0.0
 10
116.554125947424
 20
-155.1302381339605
 30
0.0
 10
116.6261284430657
 20
-155.0117268492679
 30
0.0
 10
116.6261284430657
 20
-154.889081449993
 30
0.0
 10
116.6261284430657
 20
-154.7536891974227
 30
0.0
 10
116.5393120368374
 20
-154.6586045620298
 30
0.0
 10
116.3763590203851
 20
-154.6586045620298
 30
0.0
  0
SPLINE
  5
F1
330
EC
100
AcDbEntity
  8
レイヤー 1
100
AcDbSpline
210
0.0
220
0.0
230
1.0
 70
     9
 71
     3
 72
    17
 73
    13
 74
     0
 42
0.0000000001
 43
0.0000000001
 40
0.0
 40
0.0
 40
0.0
 40
0.0
 40
1.0
 40
1.0
 40
1.0
 40
2.0
 40
2.0
 40
2.0
 40
3.0
 40
3.0
 40
3.0
 40
4.0
 40
4.0
 40
4.0
 40
4.0
 10
116.3763590203851
 20
-155.3186848570036
 30
0.0
 10
116.2326985386501
 20
-155.3186848570036
 30
0.0
 10
116.0800808086536
 20
-155.405501263232
 30
0.0
 10
116.0800808086536
 20
-155.6084173873132
 30
0.0
 10
116.0800808086536
 20
-155.813745078234
 30
0.0
 10
116.2072048320593
 20
-155.9150308855004
 30
0.0
 10
116.3763590203851
 20
-155.9150308855004
 30
0.0
 10
116.5623941765886
 20
-155.9150308855004
 30
0.0
 10
116.6726372321166
 20
-155.7923854862255
 30
0.0
 10
116.6726372321166
 20
-155.6146185591866
 30
0.0
 10
116.6726372321166
 20
-155.3927544099365
 30
0.0
 10
116.5096842156642
 20
-155.3186848570036
 30
0.0
 10
116.3763590203851
 20
-155.3186848570036
 30
0.0
  0
SPLINE
  5
F2
330
EC
100
AcDbEntity
  8
レイヤー 1
100
AcDbSpline
210
0.0
220
0.0
230
1.0
 70
     9
 71
     3
 72
    29
 73
    25
 74
     0
 42
0.0000000001
 43
0.0000000001
 40
0.0
 40
0.0
 40
0.0
 40
0.0
 40
1.0
 40
1.0
 40
1.0
 40
2.0
 40
2.0
 40
2.0
 40
3.0
 40
3.0
 40
3.0
 40
4.0
 40
4.0
 40
4.0
 40
5.0
 40
5.0
 40
5.0
 40
6.0
 40
6.0
 40
6.0
 40
7.0
 40
7.0
 40
7.0
 40
8.0
 40
8.0
 40
8.0
 40
8.0
 10
116.3763590203851
 20
-156.109678780417
 30
0.0
 10
116.1097086298267
 20
-156.109678780417
 30
0.0
 10
115.8558050925638
 20
-155.9722194705555
 30
0.0
 10
115.8558050925638
 20
-155.6232312978997
 30
0.0
 10
115.8558050925638
 20
-155.3672607033457
 30
0.0
 10
115.9977430265561
 20
-155.2721760679528
 30
0.0
 10
116.1035074579533
 20
-155.2108533683153
 30
0.0
 10
115.9787950013872
 20
-155.151597725969
 30
0.0
 10
115.9026583911632
 20
-155.0372205558588
 30
0.0
 10
115.9026583911632
 20
-154.8763345966976
 30
0.0
 10
115.9026583911632
 20
-154.6014159769747
 30
0.0
 10
116.1014404006621
 20
-154.4660237244043
 30
0.0
 10
116.3763590203851
 20
-154.4660237244043
 30
0.0
 10
116.6598903788211
 20
-154.4660237244043
 30
0.0
 10
116.8504041591554
 20
-154.6100287156878
 30
0.0
 10
116.8504041591554
 20
-154.8763345966976
 30
0.0
 10
116.8504041591554
 20
-155.0372205558588
 30
0.0
 10
116.7718559820917
 20
-155.151597725969
 30
0.0
 10
116.6471435255257
 20
-155.2108533683153
 30
0.0
 10
116.7360269890451
 20
-155.2614962719485
 30
0.0
 10
116.8948458909152
 20
-155.3565809073414
 30
0.0
 10
116.8948458909152
 20
-155.6190971833174
 30
0.0
 10
116.8948458909152
 20
-155.9935790625641
 30
0.0
 10
116.6154486470614
 20
-156.109678780417
 30
0.0
 10
116.3763590203851
 20
-156.109678780417
 30
0.0
  0
HATCH
  5
F3
330
EC
100
AcDbEntity
  8
レイヤー 1
 62
   250
420
  2299925
440
 33554687
100
AcDbHatch
 10
0.0
 20
0.0
 30
0.0
210
0.0
220
0.0
230
1.0
  2
SOLID
 70
     1
 71
     1
 91
        3
 92
        1
 93
        1
 72
     4
 94
        3
 73
     0
 74
     0
 95
       17
 96
       13
 40
0.0
 40
0.0
 40
0.0
 40
0.0
 40
1.0
 40
1.0
 40
1.0
 40
2.0
 40
2.0
 40
2.0
 40
3.0
 40
3.0
 40
3.0
 40
4.0
 40
4.0
 40
4.0
 40
4.0
 10
116.3763590203851
 20
-154.6586045620298
 10
116.2113389466416
 20
-154.6586045620298
 10
116.1265895977044
 20
-154.7536891974227
 10
116.1265895977044
 20
-154.889081449993
 10
116.1265895977044
 20
-155.0117268492679
 10
116.1985920933462
 20
-155.1302381339605
 10
116.3763590203851
 20
-155.1302381339605
 10
116.554125947424
 20
-155.1302381339605
 10
116.6261284430657
 20
-155.0117268492679
 10
116.6261284430657
 20
-154.889081449993
 10
116.6261284430657
 20
-154.7536891974227
 10
116.5393120368374
 20
-154.6586045620298
 10
116.3763590203851
 20
-154.6586045620298
 97
        0
 97
        1
330
F0
 92
        1
 93
        1
 72
     4
 94
        3
 73
     0
 74
     0
 95
       17
 96
       13
 40
0.0
 40
0.0
 40
0.0
 40
0.0
 40
1.0
 40
1.0
 40
1.0
 40
2.0
 40
2.0
 40
2.0
 40
3.0
 40
3.0
 40
3.0
 40
4.0
 40
4.0
 40
4.0
 40
4.0
 10
116.3763590203851
 20
-155.3186848570036
 10
116.2326985386501
 20
-155.3186848570036
 10
116.0800808086536
 20
-155.405501263232
 10
116.0800808086536
 20
-155.6084173873132
 10
116.0800808086536
 20
-155.813745078234
 10
116.2072048320593
 20
-155.9150308855004
 10
116.3763590203851
 20
-155.9150308855004
 10
116.5623941765886
 20
-155.9150308855004
 10
116.6726372321166
 20
-155.7923854862255
 10
116.6726372321166
 20
-155.6146185591866
 10
116.6726372321166
 20
-155.3927544099365
 10
116.5096842156642
 20
-155.3186848570036
 10
116.3763590203851
 20
-155.3186848570036
 97
        0
 97
        1
330
F1
 92
        1
 93
        1
 72
     4
 94
        3
 73
     0
 74
     0
 95
       29
 96
       25
 40
0.0
 40
0.0
 40
0.0
 40
0.0
 40
1.0
 40
1.0
 40
1.0
 40
2.0
 40
2.0
 40
2.0
 40
3.0
 40
3.0
 40
3.0
 40
4.0
 40
4.0
 40
4.0
 40
5.0
 40
5.0
 40
5.0
 40
6.0
 40
6.0
 40
6.0
 40
7.0
 40
7.0
 40
7.0
 40
8.0
 40
8.0
 40
8.0
 40
8.0
 10
116.3763590203851
 20
-156.109678780417
 10
116.1097086298267
 20
-156.109678780417
 10
115.8558050925638
 20
-155.9722194705555
 10
115.8558050925638
 20
-155.6232312978997
 10
115.8558050925638
 20
-155.3672607033457
 10
115.9977430265561
 20
-155.2721760679528
 10
116.1035074579533
 20
-155.2108533683153
 10
115.9787950013872
 20
-155.151597725969
 10
115.9026583911632
 20
-155.0372205558588
 10
115.9026583911632
 20
-154.8763345966976
 10
115.9026583911632
 20
-154.6014159769747
 10
116.1014404006621
 20
-154.4660237244043
 10
116.3763590203851
 20
-154.4660237244043
 10
116.6598903788211
 20
-154.4660237244043
 10
116.8504041591554
 20
-154.6100287156878
 10
116.8504041591554
 20
-154.8763345966976
 10
116.8504041591554
 20
-155.0372205558588
 10
116.7718559820917
 20
-155.151597725969
 10
116.6471435255257
 20
-155.2108533683153
 10
116.7360269890451
 20
-155.2614962719485
 10
116.8948458909152
 20
-155.3565809073414
 10
116.8948458909152
 20
-155.6190971833174
 10
116.8948458909152
 20
-155.9935790625641
 10
116.6154486470614
 20
-156.109678780417
 10
116.3763590203851
 20
-156.109678780417
 97
        0
 97
        1
330
F2
 75
     2
 76
     1
 98
        1
 10
0.0
 20
0.0
450
        0
451
        0
460
0.0
461
0.0
452
        0
462
0.0
453
        0
470

  0
ENDBLK
  5
EF
330
EC
100
AcDbEntity
  8
0
100
AcDbBlockEnd
  0
BLOCK
  5
F8
330
F6
100
AcDbEntity
  8
0
100
AcDbBlockBegin
  2
Block_8
 70
     0
 10
0.0
 20
0.0
 30
0.0
  3
Block_8
  1

  0
SPLINE
  5
FA
330
F6
100
AcDbEntity
  8
レイヤー 1
100
AcDbSpline
210
0.0
220
0.0
230
1.0
 70
    11
 71
     3
 72
    26
 73
    22
 74
     0
 42
0.0000000001
 43
0.0000000001
 40
0.0
 40
0.0
 40
0.0
 40
0.0
 40
1.0
 40
1.0
 40
1.0
 40
2.0
 40
2.0
 40
2.0
 40
3.0
 40
3.0
 40
3.0
 40
4.0
 40
4.0
 40
4.0
 40
5.0
 40
5.0
 40
5.0
 40
6.0
 40
6.0
 40
6.0
 40
7.0
 40
7.0
 40
7.0
 40
7.0
 10
122.2784966057151
 20
-149.5360920850118
 30
0.0
 10
122.2784966057151
 20
-149.5360920850118
 30
0.0
 10
122.2784966057151
 20
-148.431766727215
 30
0.0
 10
122.2784966057151
 20
-148.431766727215
 30
0.0
 10
122.2784966057151
 20
-148.431766727215
 30
0.0
 10
121.9484564582281
 20
-148.431766727215
 30
0.0
 10
121.9484564582281
 20
-148.431766727215
 30
0.0
 10
121.9484564582281
 20
-148.431766727215
 30
0.0
 10
121.9484564582281
 20
-148.2836276213492
 30
0.0
 10
121.9484564582281
 20
-148.2836276213492
 30
0.0
 10
122.2805636630062
 20
-148.2689859655369
 30
0.0
 10
122.3270724520571
 20
-148.1060329490846
 30
0.0
 10
122.3567002732302
 20
-147.9918280337486
 30
0.0
 10
122.3567002732302
 20
-147.9918280337486
 30
0.0
 10
122.5027723218048
 20
-147.9918280337486
 30
0.0
 10
122.5027723218048
 20
-147.9918280337486
 30
0.0
 10
122.5027723218048
 20
-147.9918280337486
 30
0.0
 10
122.5027723218048
 20
-149.5360920850118
 30
0.0
 10
122.5027723218048
 20
-149.5360920850118
 30
0.0
 10
122.5027723218048
 20
-149.5360920850118
 30
0.0
 10
122.2784966057151
 20
-149.5360920850118
 30
0.0
 10
122.2784966057151
 20
-149.5360920850118
 30
0.0
  0
HATCH
  5
FB
330
F6
100
AcDbEntity
  8
レイヤー 1
 62
   250
420
  2299925
440
 33554687
100
AcDbHatch
 10
0.0
 20
0.0
 30
0.0
210
0.0
220
0.0
230
1.0
  2
SOLID
 70
     1
 71
     1
 91
        1
 92
        1
 93
        1
 72
     4
 94
        3
 73
     0
 74
     0
 95
       26
 96
       22
 40
0.0
 40
0.0
 40
0.0
 40
0.0
 40
1.0
 40
1.0
 40
1.0
 40
2.0
 40
2.0
 40
2.0
 40
3.0
 40
3.0
 40
3.0
 40
4.0
 40
4.0
 40
4.0
 40
5.0
 40
5.0
 40
5.0
 40
6.0
 40
6.0
 40
6.0
 40
7.0
 40
7.0
 40
7.0
 40
7.0
 10
122.2784966057151
 20
-149.5360920850118
 10
122.2784966057151
 20
-149.5360920850118
 10
122.2784966057151
 20
-148.431766727215
 10
122.2784966057151
 20
-148.431766727215
 10
122.2784966057151
 20
-148.431766727215
 10
121.9484564582281
 20
-148.431766727215
 10
121.9484564582281
 20
-148.431766727215
 10
121.9484564582281
 20
-148.431766727215
 10
121.9484564582281
 20
-148.2836276213492
 10
121.9484564582281
 20
-148.2836276213492
 10
122.2805636630062
 20
-148.2689859655369
 10
122.3270724520571
 20
-148.1060329490846
 10
122.3567002732302
 20
-147.9918280337486
 10
122.3567002732302
 20
-147.9918280337486
 10
122.5027723218048
 20
-147.9918280337486
 10
122.5027723218048
 20
-147.9918280337486
 10
122.5027723218048
 20
-147.9918280337486
 10
122.5027723218048
 20
-149.5360920850118
 10
122.5027723218048
 20
-149.5360920850118
 10
122.5027723218048
 20
-149.5360920850118
 10
122.2784966057151
 20
-149.5360920850118
 10
122.2784966057151
 20
-149.5360920850118
 97
        0
 97
        1
330
FA
 75
     2
 76
     1
 98
        1
 10
0.0
 20
0.0
450
        0
451
        0
460
0.0
461
0.0
452
        0
462
0.0
453
        0
470

  0
ENDBLK
  5
F9
330
F6
100
AcDbEntity
  8
0
100
AcDbBlockEnd
  0
BLOCK
  5
100
330
FE
100
AcDbEntity
  8
0
100
AcDbBlockBegin
  2
Block_9
 70
     0
 10
0.0
 20
0.0
 30
0.0
  3
Block_9
  1

  0
INSERT
  5
103
330
FE
100
AcDbEntity
  8
レイヤー 1
100
AcDbBlockReference
  2
Block_10
 10
0.0
 20
0.0
 30
0.0
  0
INSERT
  5
10A
330
FE
100
AcDbEntity
  8
レイヤー 1
100
AcDbBlockReference
  2
Block_11
 10
0.0
 20
0.0
 30
0.0
  0
ENDBLK
  5
101
330
FE
100
AcDbEntity
  8
0
100
AcDbBlockEnd
  0
BLOCK
  5
104
330
102
100
AcDbEntity
  8
0
100
AcDbBlockBegin
  2
Block_10
 70
     0
 10
0.0
 20
0.0
 30
0.0
  3
Block_10
  1

  0
LINE
  5
106
330
102
100
AcDbEntity
  8
レイヤー 1
 62
    18
420
        0
370
     9
100
AcDbLine
 10
96.63257899129627
 20
-148.6616864733724
 30
0.0
 11
97.44389730393114
 21
-149.2463098065595
 31
0.0
  0
LINE
  5
107
330
102
100
AcDbEntity
  8
レイヤー 1
 62
    18
420
        0
370
     9
100
AcDbLine
 10
96.63257899129627
 20
-148.6616864733724
 30
0.0
 11
99.21022031442404
 21
-151.8187653614724
 31
0.0
  0
LINE
  5
108
330
102
100
AcDbEntity
  8
レイヤー 1
 62
    18
420
        0
370
     9
100
AcDbLine
 10
96.63257899129627
 20
-148.6616864733724
 30
0.0
 11
97.04289481416189
 21
-149.5737934175886
 31
0.0
  0
ENDBLK
  5
105
330
102
100
AcDbEntity
  8
0
100
AcDbBlockEnd
  0
BLOCK
  5
10B
330
109
100
AcDbEntity
  8
0
100
AcDbBlockBegin
  2
Block_11
 70
     0
 10
0.0
 20
0.0
 30
0.0
  3
Block_11
  1

  0
INSERT
  5
10E
330
109
100
AcDbEntity
  8
レイヤー 1
100
AcDbBlockReference
  2
Block_12
 10
0.0
 20
0.0
 30
0.0
  0
ENDBLK
  5
10C
330
109
100
AcDbEntity
  8
0
100
AcDbBlockEnd
  0
BLOCK
  5
10F
330
10D
100
AcDbEntity
  8
0
100
AcDbBlockBegin
  2
Block_12
 70
     0
 10
0.0
 20
0.0
 30
0.0
  3
Block_12
  1

  0
SPLINE
  5
111
330
10D
100
AcDbEntity
  8
レイヤー 1
100
AcDbSpline
210
0.0
220
0.0
230
1.0
 70
     9
 71
     3
 72
    17
 73
    13
 74
     0
 42
0.0000000001
 43
0.0000000001
 40
0.0
 40
0.0
 40
0.0
 40
0.0
 40
1.0
 40
1.0
 40
1.0
 40
2.0
 40
2.0
 40
2.0
 40
3.0
 40
3.0
 40
3.0
 40
4.0
 40
4.0
 40
4.0
 40
4.0
 10
100.8765299226975
 20
-151.6179632867483
 30
0.0
 10
100.8596489548198
 20
-151.6475911079214
 30
0.0
 10
100.8088337964123
 20
-151.7406086860232
 30
0.0
 10
100.7983262551823
 20
-151.759556711192
 30
0.0
 10
100.9886677807424
 20
-151.8188123535383
 30
0.0
 10
101.0098551179767
 20
-151.8253580349603
 30
0.0
 10
101.0818576136184
 20
-151.8525742892938
 30
0.0
 10
101.1368068866081
 20
-151.766102392614
 30
0.0
 10
101.1600612811336
 20
-151.6920328396811
 30
0.0
 10
101.1748751917201
 20
-151.6179632867483
 30
0.0
 10
101.1748751917201
 20
-151.6179632867483
 30
0.0
 10
100.8765299226975
 20
-151.6179632867483
 30
0.0
 10
100.8765299226975
 20
-151.6179632867483
 30
0.0
  0
SPLINE
  5
112
330
10D
100
AcDbEntity
  8
レイヤー 1
100
AcDbSpline
210
0.0
220
0.0
230
1.0
 70
    11
 71
     3
 72
    20
 73
    16
 74
     0
 42
0.0000000001
 43
0.0000000001
 40
0.0
 40
0.0
 40
0.0
 40
0.0
 40
1.0
 40
1.0
 40
1.0
 40
2.0
 40
2.0
 40
2.0
 40
3.0
 40
3.0
 40
3.0
 40
4.0
 40
4.0
 40
4.0
 40
5.0
 40
5.0
 40
5.0
 40
5.0
 10
100.8131401657689
 20
-150.7673692114401
 30
0.0
 10
100.8131401657689
 20
-150.7673692114401
 30
0.0
 10
100.7814452873046
 20
-150.7673692114401
 30
0.0
 10
100.7814452873046
 20
-150.7673692114401
 30
0.0
 10
100.8279540763555
 20
-150.8669324709638
 30
0.0
 10
100.8596489548198
 20
-150.9472031957701
 30
0.0
 10
100.8935831453495
 20
-151.0743272191758
 30
0.0
 10
100.8935831453495
 20
-151.0743272191758
 30
0.0
 10
101.1008056387873
 20
-151.0743272191758
 30
0.0
 10
101.1008056387873
 20
-151.0743272191758
 30
0.0
 10
101.1325005172516
 20
-150.9813096410741
 30
0.0
 10
101.155754911777
 20
-150.8965602921369
 30
0.0
 10
101.1790093063025
 20
-150.7673692114401
 30
0.0
 10
101.1790093063025
 20
-150.7673692114401
 30
0.0
 10
100.8131401657689
 20
-150.7673692114401
 30
0.0
 10
100.8131401657689
 20
-150.7673692114401
 30
0.0
  0
SPLINE
  5
113
330
10D
100
AcDbEntity
  8
レイヤー 1
100
AcDbSpline
210
0.0
220
0.0
230
1.0
 70
     9
 71
     3
 72
   242
 73
   238
 74
     0
 42
0.0000000001
 43
0.0000000001
 40
0.0
 40
0.0
 40
0.0
 40
0.0
 40
1.0
 40
1.0
 40
1.0
 40
2.0
 40
2.0
 40
2.0
 40
3.0
 40
3.0
 40
3.0
 40
4.0
 40
4.0
 40
4.0
 40
5.0
 40
5.0
 40
5.0
 40
6.0
 40
6.0
 40
6.0
 40
7.0
 40
7.0
 40
7.0
 40
8.0
 40
8.0
 40
8.0
 40
9.0
 40
9.0
 40
9.0
 40
10.0
 40
10.0
 40
10.0
 40
11.0
 40
11.0
 40
11.0
 40
12.0
 40
12.0
 40
12.0
 40
13.0
 40
13.0
 40
13.0
 40
14.0
 40
14.0
 40
14.0
 40
15.0
 40
15.0
 40
15.0
 40
16.0
 40
16.0
 40
16.0
 40
17.0
 40
17.0
 40
17.0
 40
18.0
 40
18.0
 40
18.0
 40
19.0
 40
19.0
 40
19.0
 40
20.0
 40
20.0
 40
20.0
 40
21.0
 40
21.0
 40
21.0
 40
22.0
 40
22.0
 40
22.0
 40
23.0
 40
23.0
 40
23.0
 40
24.0
 40
24.0
 40
24.0
 40
25.0
 40
25.0
 40
25.0
 40
26.0
 40
26.0
 40
26.0
 40
27.0
 40
27.0
 40
27.0
 40
28.0
 40
28.0
 40
28.0
 40
29.0
 40
29.0
 40
29.0
 40
30.0
 40
30.0
 40
30.0
 40
31.0
 40
31.0
 40
31.0
 40
32.0
 40
32.0
 40
32.0
 40
33.0
 40
33.0
 40
33.0
 40
34.0
 40
34.0
 40
34.0
 40
35.0
 40
35.0
 40
35.0
 40
36.0
 40
36.0
 40
36.0
 40
37.0
 40
37.0
 40
37.0
 40
38.0
 40
38.0
 40
38.0
 40
39.0
 40
39.0
 40
39.0
 40
40.0
 40
40.0
 40
40.0
 40
41.0
 40
41.0
 40
41.0
 40
42.0
 40
42.0
 40
42.0
 40
43.0
 40
43.0
 40
43.0
 40
44.0
 40
44.0
 40
44.0
 40
45.0
 40
45.0
 40
45.0
 40
46.0
 40
46.0
 40
46.0
 40
47.0
 40
47.0
 40
47.0
 40
48.0
 40
48.0
 40
48.0
 40
49.0
 40
49.0
 40
49.0
 40
50.0
 40
50.0
 40
50.0
 40
51.0
 40
51.0
 40
51.0
 40
52.0
 40
52.0
 40
52.0
 40
53.0
 40
53.0
 40
53.0
 40
54.0
 40
54.0
 40
54.0
 40
55.0
 40
55.0
 40
55.0
 40
56.0
 40
56.0
 40
56.0
 40
57.0
 40
57.0
 40
57.0
 40
58.0
 40
58.0
 40
58.0
 40
59.0
 40
59.0
 40
59.0
 40
60.0
 40
60.0
 40
60.0
 40
61.0
 40
61.0
 40
61.0
 40
62.0
 40
62.0
 40
62.0
 40
63.0
 40
63.0
 40
63.0
 40
64.0
 40
64.0
 40
64.0
 40
65.0
 40
65.0
 40
65.0
 40
66.0
 40
66.0
 40
66.0
 40
67.0
 40
67.0
 40
67.0
 40
68.0
 40
68.0
 40
68.0
 40
69.0
 40
69.0
 40
69.0
 40
70.0
 40
70.0
 40
70.0
 40
71.0
 40
71.0
 40
71.0
 40
72.0
 40
72.0
 40
72.0
 40
73.0
 40
73.0
 40
73.0
 40
74.0
 40
74.0
 40
74.0
 40
75.0
 40
75.0
 40
75.0
 40
76.0
 40
76.0
 40
76.0
 40
77.0
 40
77.0
 40
77.0
 40
78.0
 40
78.0
 40
78.0
 40
79.0
 40
79.0
 40
79.0
 40
79.0
 10
101.4413533275042
 20
-151.2328016114973
 30
0.0
 10
101.4413533275042
 20
-151.2328016114973
 30
0.0
 10
101.1876220450156
 20
-151.2328016114973
 30
0.0
 10
101.1876220450156
 20
-151.2328016114973
 30
0.0
 10
101.1876220450156
 20
-151.2328016114973
 30
0.0
 10
100.9104641132272
 20
-151.2328016114973
 30
0.0
 10
100.9104641132272
 20
-151.2328016114973
 30
0.0
 10
100.9104641132272
 20
-151.2328016114973
 30
0.0
 10
101.0374158818587
 20
-151.2751762859659
 30
0.0
 10
101.0374158818587
 20
-151.2751762859659
 30
0.0
 10
101.0479234230887
 20
-151.2793104005482
 30
0.0
 10
101.0606702763841
 20
-151.2858560819702
 30
0.0
 10
101.0606702763841
 20
-151.2986029352656
 30
0.0
 10
101.0606702763841
 20
-151.3196180177256
 30
0.0
 10
101.0289753979198
 20
-151.3258191895991
 30
0.0
 10
101.0077880606855
 20
-151.3302978137299
 30
0.0
 10
100.9971082646813
 20
-151.3533799534811
 30
0.0
 10
100.9674804435081
 20
-151.4191812772494
 30
0.0
 10
100.9485324183392
 20
-151.4636230090091
 30
0.0
 10
100.9485324183392
 20
-151.4636230090091
 30
0.0
 10
101.2193169234799
 20
-151.4636230090091
 30
0.0
 10
101.2193169234799
 20
-151.4636230090091
 30
0.0
 10
101.3102674442905
 20
-151.4636230090091
 30
0.0
 10
101.5069823964982
 20
-151.4591443848783
 30
0.0
 10
101.6487480757163
 20
-151.4508761557136
 30
0.0
 10
101.6487480757163
 20
-151.4508761557136
 30
0.0
 10
101.6487480757163
 20
-151.6286430827525
 30
0.0
 10
101.6487480757163
 20
-151.6286430827525
 30
0.0
 10
101.5662380388445
 20
-151.6241644586217
 30
0.0
 10
101.5450507016102
 20
-151.6241644586217
 30
0.0
 10
101.3652167172802
 20
-151.6200303440394
 30
0.0
 10
101.3335218388159
 20
-151.7743706217786
 30
0.0
 10
101.2890801070562
 20
-151.8549858561335
 30
0.0
 10
101.2446383752965
 20
-151.9245767849355
 30
0.0
 10
101.3652167172802
 20
-151.9838324272818
 30
0.0
 10
101.4709811486774
 20
-152.0517008083412
 30
0.0
 10
101.5746785227834
 20
-152.1340385904387
 30
0.0
 10
101.5746785227834
 20
-152.1340385904387
 30
0.0
 10
101.4561672380908
 20
-152.3011257214733
 30
0.0
 10
101.4561672380908
 20
-152.3011257214733
 30
0.0
 10
101.4329128435654
 20
-152.2821776963044
 30
0.0
 10
101.4203382450442
 20
-152.2735649575913
 30
0.0
 10
101.3082003869993
 20
-152.1891601182027
 30
0.0
 10
101.259452285883
 20
-152.1509195583164
 30
0.0
 10
101.2001966435367
 20
-152.1150905652698
 30
0.0
 10
101.1199259187304
 20
-152.0706488335101
 30
0.0
 10
100.9082248011618
 20
-152.2566839897136
 30
0.0
 10
100.7030693650152
 20
-152.2801106390133
 30
0.0
 10
100.4133368347057
 20
-152.3097384601864
 30
0.0
 10
100.4133368347057
 20
-152.3097384601864
 30
0.0
 10
100.3096394605996
 20
-152.1299044758564
 30
0.0
 10
100.3096394605996
 20
-152.1299044758564
 30
0.0
 10
100.6269327547911
 20
-152.1257703612741
 30
0.0
 10
100.8024603697647
 20
-152.1002766546833
 30
0.0
 10
100.9549058449869
 20
-151.9903781087038
 30
0.0
 10
100.8363945602944
 20
-151.9393906955221
 30
0.0
 10
100.7475110967749
 20
-151.9118299316401
 30
0.0
 10
100.711509848954
 20
-151.8994275878932
 30
0.0
 10
100.6925618237852
 20
-151.9266438422266
 30
0.0
 10
100.6777479131986
 20
-151.945936376944
 30
0.0
 10
100.6501871493166
 20
-151.9796983126995
 30
0.0
 10
100.6501871493166
 20
-151.9796983126995
 30
0.0
 10
100.4534721971088
 20
-151.8970160210535
 30
0.0
 10
100.4534721971088
 20
-151.8970160210535
 30
0.0
 10
100.5359822339806
 20
-151.8167452962472
 30
0.0
 10
100.597304933618
 20
-151.7216606608543
 30
0.0
 10
100.6544935186732
 20
-151.6200303440394
 30
0.0
 10
100.4639797383388
 20
-151.6241644586217
 30
0.0
 10
100.4429646558788
 20
-151.6241644586217
 30
0.0
 10
100.3604546190071
 20
-151.6286430827525
 30
0.0
 10
100.3604546190071
 20
-151.6286430827525
 30
0.0
 10
100.3604546190071
 20
-151.4508761557136
 30
0.0
 10
100.3604546190071
 20
-151.4508761557136
 30
0.0
 10
100.4999809861597
 20
-151.4570773275871
 30
0.0
 10
100.7094427916629
 20
-151.4612114421694
 30
0.0
 10
100.7347642434795
 20
-151.4612114421694
 30
0.0
 10
100.7518174661315
 20
-151.427449506414
 30
0.0
 10
100.8067667391212
 20
-151.3068711644302
 30
0.0
 10
100.8258870190643
 20
-151.2328016114973
 30
0.0
 10
100.8067667391212
 20
-151.2328016114973
 30
0.0
 10
100.6289998120823
 20
-151.2393472929193
 30
0.0
 10
100.43452417194
 20
-151.2520941462147
 30
0.0
 10
100.43452417194
 20
-151.2520941462147
 30
0.0
 10
100.43452417194
 20
-151.3850748319454
 30
0.0
 10
100.43452417194
 20
-151.3850748319454
 30
0.0
 10
100.3857760708237
 20
-151.4105685385362
 30
0.0
 10
100.3265204284774
 20
-151.4422634170005
 30
0.0
 10
100.1931952331982
 20
-151.5080647407688
 30
0.0
 10
100.1931952331982
 20
-151.5080647407688
 30
0.0
 10
100.1931952331982
 20
-151.6537922797949
 30
0.0
 10
100.1931952331982
 20
-151.6537922797949
 30
0.0
 10
100.1931952331982
 20
-151.6537922797949
 30
0.0
 10
100.1931952331982
 20
-152.1212917371433
 30
0.0
 10
100.1931952331982
 20
-152.1212917371433
 30
0.0
 10
100.1931952331982
 20
-152.248415760549
 30
0.0
 10
100.1573662401516
 20
-152.3076714028953
 30
0.0
 10
99.87383488171557
 20
-152.2990586641822
 30
0.0
 10
99.87383488171557
 20
-152.2990586641822
 30
0.0
 10
99.77013750760955
 20
-152.0916639159701
 30
0.0
 10
99.77013750760955
 20
-152.0916639159701
 30
0.0
 10
99.83369951931242
 20
-152.1044107692655
 30
0.0
 10
99.88227536565444
 20
-152.1088893933964
 30
0.0
 10
99.92241072805761
 20
-152.1088893933964
 30
0.0
 10
99.99871959305588
 20
-152.1088893933964
 30
0.0
 10
100.0092271342859
 20
-152.0854627440967
 30
0.0
 10
100.0092271342859
 20
-152.0200059298769
 30
0.0
 10
100.0092271342859
 20
-152.0200059298769
 30
0.0
 10
100.0092271342859
 20
-151.5904025228663
 30
0.0
 10
100.0092271342859
 20
-151.5904025228663
 30
0.0
 10
99.91190318682759
 20
-151.6307101400437
 30
0.0
 10
99.89502221894987
 20
-151.6369113119172
 30
0.0
 10
99.84851342989898
 20
-151.655859337086
 30
0.0
 10
99.84420706054244
 20
-151.6772189290946
 30
0.0
 10
99.83990069118586
 20
-151.7068467502677
 30
0.0
 10
99.82095266601699
 20
-151.7068467502677
 30
0.0
 10
99.81251218207813
 20
-151.7068467502677
 30
0.0
 10
99.80183238607386
 20
-151.7027126356854
 30
0.0
 10
99.7956312142004
 20
-151.6792859863857
 30
0.0
 10
99.7956312142004
 20
-151.6792859863857
 30
0.0
 10
99.74274899850183
 20
-151.4867051487603
 30
0.0
 10
99.74274899850183
 20
-151.4867051487603
 30
0.0
 10
99.88864879230215
 20
-151.4401963597094
 30
0.0
 10
99.95427786129617
 20
-151.4171142199582
 30
0.0
 10
100.0092271342859
 20
-151.3957546279497
 30
0.0
 10
100.0092271342859
 20
-151.3957546279497
 30
0.0
 10
100.0092271342859
 20
-150.9833766983653
 30
0.0
 10
100.0092271342859
 20
-150.9833766983653
 30
0.0
 10
100.0092271342859
 20
-150.9833766983653
 30
0.0
 10
99.9563449185873
 20
-150.9833766983653
 30
0.0
 10
99.9563449185873
 20
-150.9833766983653
 30
0.0
 10
99.9563449185873
 20
-150.9833766983653
 30
0.0
 10
99.87814125107213
 20
-150.9833766983653
 30
0.0
 10
99.87814125107213
 20
-150.9833766983653
 30
0.0
 10
99.81044512478698
 20
-150.9833766983653
 30
0.0
 10
99.80183238607386
 20
-150.9833766983653
 30
0.0
 10
99.76600339302725
 20
-150.9895778702387
 30
0.0
 10
99.76600339302725
 20
-150.9895778702387
 30
0.0
 10
99.76600339302725
 20
-150.7949299753221
 30
0.0
 10
99.76600339302725
 20
-150.7949299753221
 30
0.0
 10
99.79339190213499
 20
-150.8014756567441
 30
0.0
 10
99.80183238607386
 20
-150.8014756567441
 30
0.0
 10
99.87176782442443
 20
-150.8014756567441
 30
0.0
 10
99.87176782442443
 20
-150.8014756567441
 30
0.0
 10
100.0049207649293
 20
-150.8014756567441
 30
0.0
 10
100.0049207649293
 20
-150.8014756567441
 30
0.0
 10
100.0049207649293
 20
-150.7315402183935
 30
0.0
 10
100.0049207649293
 20
-150.6488579267475
 30
0.0
 10
100.0028537076381
 20
-150.6447238121652
 30
0.0
 10
99.99441322369932
 20
-150.4648898278352
 30
0.0
 10
99.99441322369932
 20
-150.4459418026663
 30
0.0
 10
99.99234616640817
 20
-150.3994330136154
 30
0.0
 10
99.99234616640817
 20
-150.3994330136154
 30
0.0
 10
100.2080091437848
 20
-150.40770124278
 30
0.0
 10
100.2080091437848
 20
-150.40770124278
 30
0.0
 10
100.2186889397891
 20
-150.40770124278
 30
0.0
 10
100.2398762770233
 20
-150.4101128096197
 30
0.0
 10
100.2398762770233
 20
-150.4269937774974
 30
0.0
 10
100.2398762770233
 20
-150.4459418026663
 30
0.0
 10
100.2250623664368
 20
-150.4566215986706
 30
0.0
 10
100.1995686598459
 20
-150.4755696238394
 30
0.0
 10
100.1995686598459
 20
-150.5262125274726
 30
0.0
 10
100.1931952331982
 20
-150.7549668676932
 30
0.0
 10
100.1954345452636
 20
-150.8014756567441
 30
0.0
 10
100.3244533711862
 20
-150.8014756567441
 30
0.0
 10
100.3372002244816
 20
-150.8014756567441
 30
0.0
 10
100.43452417194
 20
-150.7928629180309
 30
0.0
 10
100.43452417194
 20
-150.7928629180309
 30
0.0
 10
100.43452417194
 20
-150.9875108129475
 30
0.0
 10
100.43452417194
 20
-150.9875108129475
 30
0.0
 10
100.3962836120537
 20
-150.9854437556564
 30
0.0
 10
100.3285874857685
 20
-150.9813096410741
 30
0.0
 10
100.1931952331982
 20
-150.9833766983653
 30
0.0
 10
100.1931952331982
 20
-150.9833766983653
 30
0.0
 10
100.1931952331982
 20
-151.3216850750168
 30
0.0
 10
100.1931952331982
 20
-151.3216850750168
 30
0.0
 10
100.2483167609622
 20
-151.2986029352656
 30
0.0
 10
100.313773575182
 20
-151.2710421713836
 30
0.0
 10
100.3625216762982
 20
-151.2476155220839
 30
0.0
 10
100.3625216762982
 20
-151.2476155220839
 30
0.0
 10
100.3625216762982
 20
-151.069848595045
 30
0.0
 10
100.3625216762982
 20
-151.069848595045
 30
0.0
 10
100.4767265916343
 20
-151.0825954483405
 30
0.0
 10
100.5952378763269
 20
-151.0825954483405
 30
0.0
 10
100.711509848954
 20
-151.0825954483405
 30
0.0
 10
100.6882554544286
 20
-150.9875108129475
 30
0.0
 10
100.6608669453209
 20
-150.9048285213015
 30
0.0
 10
100.597304933618
 20
-150.7718478355709
 30
0.0
 10
100.5528632018583
 20
-150.7739148928621
 30
0.0
 10
100.4703531649866
 20
-150.7780490074444
 30
0.0
 10
100.4322848598745
 20
-150.7801160647355
 30
0.0
 10
100.4322848598745
 20
-150.7801160647355
 30
0.0
 10
100.4322848598745
 20
-150.6002820804055
 30
0.0
 10
100.4322848598745
 20
-150.6002820804055
 30
0.0
 10
100.5571695712148
 20
-150.6088948191186
 30
0.0
 10
100.7306301288972
 20
-150.6130289337009
 30
0.0
 10
100.8131401657689
 20
-150.6130289337009
 30
0.0
 10
100.8131401657689
 20
-150.6130289337009
 30
0.0
 10
100.8956502026407
 20
-150.6130289337009
 30
0.0
 10
100.8956502026407
 20
-150.6130289337009
 30
0.0
 10
100.8956502026407
 20
-150.4500759172486
 30
0.0
 10
100.8956502026407
 20
-150.4397406307928
 30
0.0
 10
100.8935831453495
 20
-150.3846191030288
 30
0.0
 10
100.8935831453495
 20
-150.3846191030288
 30
0.0
 10
101.117686606665
 20
-150.4101128096197
 30
0.0
 10
101.117686606665
 20
-150.4101128096197
 30
0.0
 10
101.1219929760216
 20
-150.4101128096197
 30
0.0
 10
101.1431803132559
 20
-150.4121798669108
 30
0.0
 10
101.1431803132559
 20
-150.4290608347885
 30
0.0
 10
101.1431803132559
 20
-150.4438747453751
 30
0.0
 10
101.1325005172516
 20
-150.4521429745397
 30
0.0
 10
101.1051120081438
 20
-150.4669568851263
 30
0.0
 10
101.0987385814961
 20
-150.5327582088946
 30
0.0
 10
101.096671524205
 20
-150.5537732913546
 30
0.0
 10
101.096671524205
 20
-150.6130289337009
 30
0.0
 10
101.096671524205
 20
-150.6130289337009
 30
0.0
 10
101.1917561595979
 20
-150.6130289337009
 30
0.0
 10
101.1917561595979
 20
-150.6130289337009
 30
0.0
 10
101.2742661964696
 20
-150.6130289337009
 30
0.0
 10
101.4477267541519
 20
-150.6088948191186
 30
0.0
 10
101.5726114654923
 20
-150.6002820804055
 30
0.0
 10
101.5726114654923
 20
-150.6002820804055
 30
0.0
 10
101.5726114654923
 20
-150.7801160647355
 30
0.0
 10
101.5726114654923
 20
-150.7801160647355
 30
0.0
 10
101.5429836443191
 20
-150.7780490074444
 30
0.0
 10
101.4244723596265
 20
-150.7739148928621
 30
0.0
 10
101.3843369972234
 20
-150.7718478355709
 30
0.0
 10
101.3695230866368
 20
-150.8224907392041
 30
0.0
 10
101.335588896107
 20
-150.9344563424747
 30
0.0
 10
101.2701320818873
 20
-151.0743272191758
 30
0.0
 10
101.3123345015816
 20
-151.0743272191758
 30
0.0
 10
101.58949243337
 20
-151.0550346844584
 30
0.0
 10
101.6508151330074
 20
-151.0529676271673
 30
0.0
 10
101.6508151330074
 20
-151.0529676271673
 30
0.0
 10
101.6508151330074
 20
-151.2372802356282
 30
0.0
 10
101.6508151330074
 20
-151.2372802356282
 30
0.0
 10
101.6211873118343
 20
-151.2372802356282
 30
0.0
 10
101.6043063439565
 20
-151.2328016114973
 30
0.0
 10
101.4413533275042
 20
-151.2328016114973
 30
0.0
  0
HATCH
  5
114
330
10D
100
AcDbEntity
  8
レイヤー 1
 62
    18
420
        0
440
 33554687
100
AcDbHatch
 10
0.0
 20
0.0
 30
0.0
210
0.0
220
0.0
230
1.0
  2
SOLID
 70
     1
 71
     1
 91
        3
 92
        1
 93
        1
 72
     4
 94
        3
 73
     0
 74
     0
 95
       17
 96
       13
 40
0.0
 40
0.0
 40
0.0
 40
0.0
 40
1.0
 40
1.0
 40
1.0
 40
2.0
 40
2.0
 40
2.0
 40
3.0
 40
3.0
 40
3.0
 40
4.0
 40
4.0
 40
4.0
 40
4.0
 10
100.8765299226975
 20
-151.6179632867483
 10
100.8596489548198
 20
-151.6475911079214
 10
100.8088337964123
 20
-151.7406086860232
 10
100.7983262551823
 20
-151.759556711192
 10
100.9886677807424
 20
-151.8188123535383
 10
101.0098551179767
 20
-151.8253580349603
 10
101.0818576136184
 20
-151.8525742892938
 10
101.1368068866081
 20
-151.766102392614
 10
101.1600612811336
 20
-151.6920328396811
 10
101.1748751917201
 20
-151.6179632867483
 10
101.1748751917201
 20
-151.6179632867483
 10
100.8765299226975
 20
-151.6179632867483
 10
100.8765299226975
 20
-151.6179632867483
 97
        0
 97
        1
330
111
 92
        1
 93
        1
 72
     4
 94
        3
 73
     0
 74
     0
 95
       20
 96
       16
 40
0.0
 40
0.0
 40
0.0
 40
0.0
 40
1.0
 40
1.0
 40
1.0
 40
2.0
 40
2.0
 40
2.0
 40
3.0
 40
3.0
 40
3.0
 40
4.0
 40
4.0
 40
4.0
 40
5.0
 40
5.0
 40
5.0
 40
5.0
 10
100.8131401657689
 20
-150.7673692114401
 10
100.8131401657689
 20
-150.7673692114401
 10
100.7814452873046
 20
-150.7673692114401
 10
100.7814452873046
 20
-150.7673692114401
 10
100.8279540763555
 20
-150.8669324709638
 10
100.8596489548198
 20
-150.9472031957701
 10
100.8935831453495
 20
-151.0743272191758
 10
100.8935831453495
 20
-151.0743272191758
 10
101.1008056387873
 20
-151.0743272191758
 10
101.1008056387873
 20
-151.0743272191758
 10
101.1325005172516
 20
-150.9813096410741
 10
101.155754911777
 20
-150.8965602921369
 10
101.1790093063025
 20
-150.7673692114401
 10
101.1790093063025
 20
-150.7673692114401
 10
100.8131401657689
 20
-150.7673692114401
 10
100.8131401657689
 20
-150.7673692114401
 97
        0
 97
        1
330
112
 92
        1
 93
        1
 72
     4
 94
        3
 73
     0
 74
     0
 95
      242
 96
      238
 40
0.0
 40
0.0
 40
0.0
 40
0.0
 40
1.0
 40
1.0
 40
1.0
 40
2.0
 40
2.0
 40
2.0
 40
3.0
 40
3.0
 40
3.0
 40
4.0
 40
4.0
 40
4.0
 40
5.0
 40
5.0
 40
5.0
 40
6.0
 40
6.0
 40
6.0
 40
7.0
 40
7.0
 40
7.0
 40
8.0
 40
8.0
 40
8.0
 40
9.0
 40
9.0
 40
9.0
 40
10.0
 40
10.0
 40
10.0
 40
11.0
 40
11.0
 40
11.0
 40
12.0
 40
12.0
 40
12.0
 40
13.0
 40
13.0
 40
13.0
 40
14.0
 40
14.0
 40
14.0
 40
15.0
 40
15.0
 40
15.0
 40
16.0
 40
16.0
 40
16.0
 40
17.0
 40
17.0
 40
17.0
 40
18.0
 40
18.0
 40
18.0
 40
19.0
 40
19.0
 40
19.0
 40
20.0
 40
20.0
 40
20.0
 40
21.0
 40
21.0
 40
21.0
 40
22.0
 40
22.0
 40
22.0
 40
23.0
 40
23.0
 40
23.0
 40
24.0
 40
24.0
 40
24.0
 40
25.0
 40
25.0
 40
25.0
 40
26.0
 40
26.0
 40
26.0
 40
27.0
 40
27.0
 40
27.0
 40
28.0
 40
28.0
 40
28.0
 40
29.0
 40
29.0
 40
29.0
 40
30.0
 40
30.0
 40
30.0
 40
31.0
 40
31.0
 40
31.0
 40
32.0
 40
32.0
 40
32.0
 40
33.0
 40
33.0
 40
33.0
 40
34.0
 40
34.0
 40
34.0
 40
35.0
 40
35.0
 40
35.0
 40
36.0
 40
36.0
 40
36.0
 40
37.0
 40
37.0
 40
37.0
 40
38.0
 40
38.0
 40
38.0
 40
39.0
 40
39.0
 40
39.0
 40
40.0
 40
40.0
 40
40.0
 40
41.0
 40
41.0
 40
41.0
 40
42.0
 40
42.0
 40
42.0
 40
43.0
 40
43.0
 40
43.0
 40
44.0
 40
44.0
 40
44.0
 40
45.0
 40
45.0
 40
45.0
 40
46.0
 40
46.0
 40
46.0
 40
47.0
 40
47.0
 40
47.0
 40
48.0
 40
48.0
 40
48.0
 40
49.0
 40
49.0
 40
49.0
 40
50.0
 40
50.0
 40
50.0
 40
51.0
 40
51.0
 40
51.0
 40
52.0
 40
52.0
 40
52.0
 40
53.0
 40
53.0
 40
53.0
 40
54.0
 40
54.0
 40
54.0
 40
55.0
 40
55.0
 40
55.0
 40
56.0
 40
56.0
 40
56.0
 40
57.0
 40
57.0
 40
57.0
 40
58.0
 40
58.0
 40
58.0
 40
59.0
 40
59.0
 40
59.0
 40
60.0
 40
60.0
 40
60.0
 40
61.0
 40
61.0
 40
61.0
 40
62.0
 40
62.0
 40
62.0
 40
63.0
 40
63.0
 40
63.0
 40
64.0
 40
64.0
 40
64.0
 40
65.0
 40
65.0
 40
65.0
 40
66.0
 40
66.0
 40
66.0
 40
67.0
 40
67.0
 40
67.0
 40
68.0
 40
68.0
 40
68.0
 40
69.0
 40
69.0
 40
69.0
 40
70.0
 40
70.0
 40
70.0
 40
71.0
 40
71.0
 40
71.0
 40
72.0
 40
72.0
 40
72.0
 40
73.0
 40
73.0
 40
73.0
 40
74.0
 40
74.0
 40
74.0
 40
75.0
 40
75.0
 40
75.0
 40
76.0
 40
76.0
 40
76.0
 40
77.0
 40
77.0
 40
77.0
 40
78.0
 40
78.0
 40
78.0
 40
79.0
 40
79.0
 40
79.0
 40
79.0
 10
101.4413533275042
 20
-151.2328016114973
 10
101.4413533275042
 20
-151.2328016114973
 10
101.1876220450156
 20
-151.2328016114973
 10
101.1876220450156
 20
-151.2328016114973
 10
101.1876220450156
 20
-151.2328016114973
 10
100.9104641132272
 20
-151.2328016114973
 10
100.9104641132272
 20
-151.2328016114973
 10
100.9104641132272
 20
-151.2328016114973
 10
101.0374158818587
 20
-151.2751762859659
 10
101.0374158818587
 20
-151.2751762859659
 10
101.0479234230887
 20
-151.2793104005482
 10
101.0606702763841
 20
-151.2858560819702
 10
101.0606702763841
 20
-151.2986029352656
 10
101.0606702763841
 20
-151.3196180177256
 10
101.0289753979198
 20
-151.3258191895991
 10
101.0077880606855
 20
-151.3302978137299
 10
100.9971082646813
 20
-151.3533799534811
 10
100.9674804435081
 20
-151.4191812772494
 10
100.9485324183392
 20
-151.4636230090091
 10
100.9485324183392
 20
-151.4636230090091
 10
101.2193169234799
 20
-151.4636230090091
 10
101.2193169234799
 20
-151.4636230090091
 10
101.3102674442905
 20
-151.4636230090091
 10
101.5069823964982
 20
-151.4591443848783
 10
101.6487480757163
 20
-151.4508761557136
 10
101.6487480757163
 20
-151.4508761557136
 10
101.6487480757163
 20
-151.6286430827525
 10
101.6487480757163
 20
-151.6286430827525
 10
101.5662380388445
 20
-151.6241644586217
 10
101.5450507016102
 20
-151.6241644586217
 10
101.3652167172802
 20
-151.6200303440394
 10
101.3335218388159
 20
-151.7743706217786
 10
101.2890801070562
 20
-151.8549858561335
 10
101.2446383752965
 20
-151.9245767849355
 10
101.3652167172802
 20
-151.9838324272818
 10
101.4709811486774
 20
-152.0517008083412
 10
101.5746785227834
 20
-152.1340385904387
 10
101.5746785227834
 20
-152.1340385904387
 10
101.4561672380908
 20
-152.3011257214733
 10
101.4561672380908
 20
-152.3011257214733
 10
101.4329128435654
 20
-152.2821776963044
 10
101.4203382450442
 20
-152.2735649575913
 10
101.3082003869993
 20
-152.1891601182027
 10
101.259452285883
 20
-152.1509195583164
 10
101.2001966435367
 20
-152.1150905652698
 10
101.1199259187304
 20
-152.0706488335101
 10
100.9082248011618
 20
-152.2566839897136
 10
100.7030693650152
 20
-152.2801106390133
 10
100.4133368347057
 20
-152.3097384601864
 10
100.4133368347057
 20
-152.3097384601864
 10
100.3096394605996
 20
-152.1299044758564
 10
100.3096394605996
 20
-152.1299044758564
 10
100.6269327547911
 20
-152.1257703612741
 10
100.8024603697647
 20
-152.1002766546833
 10
100.9549058449869
 20
-151.9903781087038
 10
100.8363945602944
 20
-151.9393906955221
 10
100.7475110967749
 20
-151.9118299316401
 10
100.711509848954
 20
-151.8994275878932
 10
100.6925618237852
 20
-151.9266438422266
 10
100.6777479131986
 20
-151.945936376944
 10
100.6501871493166
 20
-151.9796983126995
 10
100.6501871493166
 20
-151.9796983126995
 10
100.4534721971088
 20
-151.8970160210535
 10
100.4534721971088
 20
-151.8970160210535
 10
100.5359822339806
 20
-151.8167452962472
 10
100.597304933618
 20
-151.7216606608543
 10
100.6544935186732
 20
-151.6200303440394
 10
100.4639797383388
 20
-151.6241644586217
 10
100.4429646558788
 20
-151.6241644586217
 10
100.3604546190071
 20
-151.6286430827525
 10
100.3604546190071
 20
-151.6286430827525
 10
100.3604546190071
 20
-151.4508761557136
 10
100.3604546190071
 20
-151.4508761557136
 10
100.4999809861597
 20
-151.4570773275871
 10
100.7094427916629
 20
-151.4612114421694
 10
100.7347642434795
 20
-151.4612114421694
 10
100.7518174661315
 20
-151.427449506414
 10
100.8067667391212
 20
-151.3068711644302
 10
100.8258870190643
 20
-151.2328016114973
 10
100.8067667391212
 20
-151.2328016114973
 10
100.6289998120823
 20
-151.2393472929193
 10
100.43452417194
 20
-151.2520941462147
 10
100.43452417194
 20
-151.2520941462147
 10
100.43452417194
 20
-151.3850748319454
 10
100.43452417194
 20
-151.3850748319454
 10
100.3857760708237
 20
-151.4105685385362
 10
100.3265204284774
 20
-151.4422634170005
 10
100.1931952331982
 20
-151.5080647407688
 10
100.1931952331982
 20
-151.5080647407688
 10
100.1931952331982
 20
-151.6537922797949
 10
100.1931952331982
 20
-151.6537922797949
 10
100.1931952331982
 20
-151.6537922797949
 10
100.1931952331982
 20
-152.1212917371433
 10
100.1931952331982
 20
-152.1212917371433
 10
100.1931952331982
 20
-152.248415760549
 10
100.1573662401516
 20
-152.3076714028953
 10
99.87383488171557
 20
-152.2990586641822
 10
99.87383488171557
 20
-152.2990586641822
 10
99.77013750760955
 20
-152.0916639159701
 10
99.77013750760955
 20
-152.0916639159701
 10
99.83369951931242
 20
-152.1044107692655
 10
99.88227536565444
 20
-152.1088893933964
 10
99.92241072805761
 20
-152.1088893933964
 10
99.99871959305588
 20
-152.1088893933964
 10
100.0092271342859
 20
-152.0854627440967
 10
100.0092271342859
 20
-152.0200059298769
 10
100.0092271342859
 20
-152.0200059298769
 10
100.0092271342859
 20
-151.5904025228663
 10
100.0092271342859
 20
-151.5904025228663
 10
99.91190318682759
 20
-151.6307101400437
 10
99.89502221894987
 20
-151.6369113119172
 10
99.84851342989898
 20
-151.655859337086
 10
99.84420706054244
 20
-151.6772189290946
 10
99.83990069118586
 20
-151.7068467502677
 10
99.82095266601699
 20
-151.7068467502677
 10
99.81251218207813
 20
-151.7068467502677
 10
99.80183238607386
 20
-151.7027126356854
 10
99.7956312142004
 20
-151.6792859863857
 10
99.7956312142004
 20
-151.6792859863857
 10
99.74274899850183
 20
-151.4867051487603
 10
99.74274899850183
 20
-151.4867051487603
 10
99.88864879230215
 20
-151.4401963597094
 10
99.95427786129617
 20
-151.4171142199582
 10
100.0092271342859
 20
-151.3957546279497
 10
100.0092271342859
 20
-151.3957546279497
 10
100.0092271342859
 20
-150.9833766983653
 10
100.0092271342859
 20
-150.9833766983653
 10
100.0092271342859
 20
-150.9833766983653
 10
99.9563449185873
 20
-150.9833766983653
 10
99.9563449185873
 20
-150.9833766983653
 10
99.9563449185873
 20
-150.9833766983653
 10
99.87814125107213
 20
-150.9833766983653
 10
99.87814125107213
 20
-150.9833766983653
 10
99.81044512478698
 20
-150.9833766983653
 10
99.80183238607386
 20
-150.9833766983653
 10
99.76600339302725
 20
-150.9895778702387
 10
99.76600339302725
 20
-150.9895778702387
 10
99.76600339302725
 20
-150.7949299753221
 10
99.76600339302725
 20
-150.7949299753221
 10
99.79339190213499
 20
-150.8014756567441
 10
99.80183238607386
 20
-150.8014756567441
 10
99.87176782442443
 20
-150.8014756567441
 10
99.87176782442443
 20
-150.8014756567441
 10
100.0049207649293
 20
-150.8014756567441
 10
100.0049207649293
 20
-150.8014756567441
 10
100.0049207649293
 20
-150.7315402183935
 10
100.0049207649293
 20
-150.6488579267475
 10
100.0028537076381
 20
-150.6447238121652
 10
99.99441322369932
 20
-150.4648898278352
 10
99.99441322369932
 20
-150.4459418026663
 10
99.99234616640817
 20
-150.3994330136154
 10
99.99234616640817
 20
-150.3994330136154
 10
100.2080091437848
 20
-150.40770124278
 10
100.2080091437848
 20
-150.40770124278
 10
100.2186889397891
 20
-150.40770124278
 10
100.2398762770233
 20
-150.4101128096197
 10
100.2398762770233
 20
-150.4269937774974
 10
100.2398762770233
 20
-150.4459418026663
 10
100.2250623664368
 20
-150.4566215986706
 10
100.1995686598459
 20
-150.4755696238394
 10
100.1995686598459
 20
-150.5262125274726
 10
100.1931952331982
 20
-150.7549668676932
 10
100.1954345452636
 20
-150.8014756567441
 10
100.3244533711862
 20
-150.8014756567441
 10
100.3372002244816
 20
-150.8014756567441
 10
100.43452417194
 20
-150.7928629180309
 10
100.43452417194
 20
-150.7928629180309
 10
100.43452417194
 20
-150.9875108129475
 10
100.43452417194
 20
-150.9875108129475
 10
100.3962836120537
 20
-150.9854437556564
 10
100.3285874857685
 20
-150.9813096410741
 10
100.1931952331982
 20
-150.9833766983653
 10
100.1931952331982
 20
-150.9833766983653
 10
100.1931952331982
 20
-151.3216850750168
 10
100.1931952331982
 20
-151.3216850750168
 10
100.2483167609622
 20
-151.2986029352656
 10
100.313773575182
 20
-151.2710421713836
 10
100.3625216762982
 20
-151.2476155220839
 10
100.3625216762982
 20
-151.2476155220839
 10
100.3625216762982
 20
-151.069848595045
 10
100.3625216762982
 20
-151.069848595045
 10
100.4767265916343
 20
-151.0825954483405
 10
100.5952378763269
 20
-151.0825954483405
 10
100.711509848954
 20
-151.0825954483405
 10
100.6882554544286
 20
-150.9875108129475
 10
100.6608669453209
 20
-150.9048285213015
 10
100.597304933618
 20
-150.7718478355709
 10
100.5528632018583
 20
-150.7739148928621
 10
100.4703531649866
 20
-150.7780490074444
 10
100.4322848598745
 20
-150.7801160647355
 10
100.4322848598745
 20
-150.7801160647355
 10
100.4322848598745
 20
-150.6002820804055
 10
100.4322848598745
 20
-150.6002820804055
 10
100.5571695712148
 20
-150.6088948191186
 10
100.7306301288972
 20
-150.6130289337009
 10
100.8131401657689
 20
-150.6130289337009
 10
100.8131401657689
 20
-150.6130289337009
 10
100.8956502026407
 20
-150.6130289337009
 10
100.8956502026407
 20
-150.6130289337009
 10
100.8956502026407
 20
-150.4500759172486
 10
100.8956502026407
 20
-150.4397406307928
 10
100.8935831453495
 20
-150.3846191030288
 10
100.8935831453495
 20
-150.3846191030288
 10
101.117686606665
 20
-150.4101128096197
 10
101.117686606665
 20
-150.4101128096197
 10
101.1219929760216
 20
-150.4101128096197
 10
101.1431803132559
 20
-150.4121798669108
 10
101.1431803132559
 20
-150.4290608347885
 10
101.1431803132559
 20
-150.4438747453751
 10
101.1325005172516
 20
-150.4521429745397
 10
101.1051120081438
 20
-150.4669568851263
 10
101.0987385814961
 20
-150.5327582088946
 10
101.096671524205
 20
-150.5537732913546
 10
101.096671524205
 20
-150.6130289337009
 10
101.096671524205
 20
-150.6130289337009
 10
101.1917561595979
 20
-150.6130289337009
 10
101.1917561595979
 20
-150.6130289337009
 10
101.2742661964696
 20
-150.6130289337009
 10
101.4477267541519
 20
-150.6088948191186
 10
101.5726114654923
 20
-150.6002820804055
 10
101.5726114654923
 20
-150.6002820804055
 10
101.5726114654923
 20
-150.7801160647355
 10
101.5726114654923
 20
-150.7801160647355
 10
101.5429836443191
 20
-150.7780490074444
 10
101.4244723596265
 20
-150.7739148928621
 10
101.3843369972234
 20
-150.7718478355709
 10
101.3695230866368
 20
-150.8224907392041
 10
101.335588896107
 20
-150.9344563424747
 10
101.2701320818873
 20
-151.0743272191758
 10
101.3123345015816
 20
-151.0743272191758
 10
101.58949243337
 20
-151.0550346844584
 10
101.6508151330074
 20
-151.0529676271673
 10
101.6508151330074
 20
-151.0529676271673
 10
101.6508151330074
 20
-151.2372802356282
 10
101.6508151330074
 20
-151.2372802356282
 10
101.6211873118343
 20
-151.2372802356282
 10
101.6043063439565
 20
-151.2328016114973
 10
101.4413533275042
 20
-151.2328016114973
 97
        0
 97
        1
330
113
 75
     2
 76
     1
 98
        1
 10
0.0
 20
0.0
450
        0
451
        0
460
0.0
461
0.0
452
        0
462
0.0
453
        0
470

  0
SPLINE
  5
115
330
10D
100
AcDbEntity
  8
レイヤー 1
100
AcDbSpline
210
0.0
220
0.0
230
1.0
 70
    11
 71
     3
 72
    17
 73
    13
 74
     0
 42
0.0000000001
 43
0.0000000001
 40
0.0
 40
0.0
 40
0.0
 40
0.0
 40
1.0
 40
1.0
 40
1.0
 40
2.0
 40
2.0
 40
2.0
 40
3.0
 40
3.0
 40
3.0
 40
4.0
 40
4.0
 40
4.0
 40
4.0
 10
103.2979152845054
 20
-152.0324082736238
 30
0.0
 10
103.2979152845054
 20
-152.0324082736238
 30
0.0
 10
102.5913262004806
 20
-152.0324082736238
 30
0.0
 10
102.5913262004806
 20
-152.0324082736238
 30
0.0
 10
102.5913262004806
 20
-152.0324082736238
 30
0.0
 10
102.5913262004806
 20
-152.1467854437341
 30
0.0
 10
102.5913262004806
 20
-152.1467854437341
 30
0.0
 10
102.5913262004806
 20
-152.1467854437341
 30
0.0
 10
103.2979152845054
 20
-152.1467854437341
 30
0.0
 10
103.2979152845054
 20
-152.1467854437341
 30
0.0
 10
103.2979152845054
 20
-152.1467854437341
 30
0.0
 10
103.2979152845054
 20
-152.0324082736238
 30
0.0
 10
103.2979152845054
 20
-152.0324082736238
 30
0.0
  0
SPLINE
  5
116
330
10D
100
AcDbEntity
  8
レイヤー 1
100
AcDbSpline
210
0.0
220
0.0
230
1.0
 70
    11
 71
     3
 72
    17
 73
    13
 74
     0
 42
0.0000000001
 43
0.0000000001
 40
0.0
 40
0.0
 40
0.0
 40
0.0
 40
1.0
 40
1.0
 40
1.0
 40
2.0
 40
2.0
 40
2.0
 40
3.0
 40
3.0
 40
3.0
 40
4.0
 40
4.0
 40
4.0
 40
4.0
 10
103.2979152845054
 20
-151.7891845323652
 30
0.0
 10
103.2979152845054
 20
-151.7891845323652
 30
0.0
 10
102.5913262004806
 20
-151.7891845323652
 30
0.0
 10
102.5913262004806
 20
-151.7891845323652
 30
0.0
 10
102.5913262004806
 20
-151.7891845323652
 30
0.0
 10
102.5913262004806
 20
-151.9035617024755
 30
0.0
 10
102.5913262004806
 20
-151.9035617024755
 30
0.0
 10
102.5913262004806
 20
-151.9035617024755
 30
0.0
 10
103.2979152845054
 20
-151.9035617024755
 30
0.0
 10
103.2979152845054
 20
-151.9035617024755
 30
0.0
 10
103.2979152845054
 20
-151.9035617024755
 30
0.0
 10
103.2979152845054
 20
-151.7891845323652
 30
0.0
 10
103.2979152845054
 20
-151.7891845323652
 30
0.0
  0
SPLINE
  5
117
330
10D
100
AcDbEntity
  8
レイヤー 1
100
AcDbSpline
210
0.0
220
0.0
230
1.0
 70
    11
 71
     3
 72
    17
 73
    13
 74
     0
 42
0.0000000001
 43
0.0000000001
 40
0.0
 40
0.0
 40
0.0
 40
0.0
 40
1.0
 40
1.0
 40
1.0
 40
2.0
 40
2.0
 40
2.0
 40
3.0
 40
3.0
 40
3.0
 40
4.0
 40
4.0
 40
4.0
 40
4.0
 10
103.2979152845054
 20
-151.5566405871108
 30
0.0
 10
103.2979152845054
 20
-151.5566405871108
 30
0.0
 10
102.5913262004806
 20
-151.5566405871108
 30
0.0
 10
102.5913262004806
 20
-151.5566405871108
 30
0.0
 10
102.5913262004806
 20
-151.5566405871108
 30
0.0
 10
102.5913262004806
 20
-151.6644720757991
 30
0.0
 10
102.5913262004806
 20
-151.6644720757991
 30
0.0
 10
102.5913262004806
 20
-151.6644720757991
 30
0.0
 10
103.2979152845054
 20
-151.6644720757991
 30
0.0
 10
103.2979152845054
 20
-151.6644720757991
 30
0.0
 10
103.2979152845054
 20
-151.6644720757991
 30
0.0
 10
103.2979152845054
 20
-151.5566405871108
 30
0.0
 10
103.2979152845054
 20
-151.5566405871108
 30
0.0
  0
SPLINE
  5
118
330
10D
100
AcDbEntity
  8
レイヤー 1
100
AcDbSpline
210
0.0
220
0.0
230
1.0
 70
     9
 71
     3
 72
   203
 73
   199
 74
     0
 42
0.0000000001
 43
0.0000000001
 40
0.0
 40
0.0
 40
0.0
 40
0.0
 40
1.0
 40
1.0
 40
1.0
 40
2.0
 40
2.0
 40
2.0
 40
3.0
 40
3.0
 40
3.0
 40
4.0
 40
4.0
 40
4.0
 40
5.0
 40
5.0
 40
5.0
 40
6.0
 40
6.0
 40
6.0
 40
7.0
 40
7.0
 40
7.0
 40
8.0
 40
8.0
 40
8.0
 40
9.0
 40
9.0
 40
9.0
 40
10.0
 40
10.0
 40
10.0
 40
11.0
 40
11.0
 40
11.0
 40
12.0
 40
12.0
 40
12.0
 40
13.0
 40
13.0
 40
13.0
 40
14.0
 40
14.0
 40
14.0
 40
15.0
 40
15.0
 40
15.0
 40
16.0
 40
16.0
 40
16.0
 40
17.0
 40
17.0
 40
17.0
 40
18.0
 40
18.0
 40
18.0
 40
19.0
 40
19.0
 40
19.0
 40
20.0
 40
20.0
 40
20.0
 40
21.0
 40
21.0
 40
21.0
 40
22.0
 40
22.0
 40
22.0
 40
23.0
 40
23.0
 40
23.0
 40
24.0
 40
24.0
 40
24.0
 40
25.0
 40
25.0
 40
25.0
 40
26.0
 40
26.0
 40
26.0
 40
27.0
 40
27.0
 40
27.0
 40
28.0
 40
28.0
 40
28.0
 40
29.0
 40
29.0
 40
29.0
 40
30.0
 40
30.0
 40
30.0
 40
31.0
 40
31.0
 40
31.0
 40
32.0
 40
32.0
 40
32.0
 40
33.0
 40
33.0
 40
33.0
 40
34.0
 40
34.0
 40
34.0
 40
35.0
 40
35.0
 40
35.0
 40
36.0
 40
36.0
 40
36.0
 40
37.0
 40
37.0
 40
37.0
 40
38.0
 40
38.0
 40
38.0
 40
39.0
 40
39.0
 40
39.0
 40
40.0
 40
40.0
 40
40.0
 40
41.0
 40
41.0
 40
41.0
 40
42.0
 40
42.0
 40
42.0
 40
43.0
 40
43.0
 40
43.0
 40
44.0
 40
44.0
 40
44.0
 40
45.0
 40
45.0
 40
45.0
 40
46.0
 40
46.0
 40
46.0
 40
47.0
 40
47.0
 40
47.0
 40
48.0
 40
48.0
 40
48.0
 40
49.0
 40
49.0
 40
49.0
 40
50.0
 40
50.0
 40
50.0
 40
51.0
 40
51.0
 40
51.0
 40
52.0
 40
52.0
 40
52.0
 40
53.0
 40
53.0
 40
53.0
 40
54.0
 40
54.0
 40
54.0
 40
55.0
 40
55.0
 40
55.0
 40
56.0
 40
56.0
 40
56.0
 40
57.0
 40
57.0
 40
57.0
 40
58.0
 40
58.0
 40
58.0
 40
59.0
 40
59.0
 40
59.0
 40
60.0
 40
60.0
 40
60.0
 40
61.0
 40
61.0
 40
61.0
 40
62.0
 40
62.0
 40
62.0
 40
63.0
 40
63.0
 40
63.0
 40
64.0
 40
64.0
 40
64.0
 40
65.0
 40
65.0
 40
65.0
 40
66.0
 40
66.0
 40
66.0
 40
66.0
 10
103.1328952107619
 20
-151.3006699925568
 30
0.0
 10
103.1328952107619
 20
-151.3006699925568
 30
0.0
 10
102.5744452326029
 20
-151.3006699925568
 30
0.0
 10
102.5744452326029
 20
-151.3006699925568
 30
0.0
 10
102.5637654365986
 20
-151.3451117243165
 30
0.0
 10
102.5553249526598
 20
-151.3768066027808
 30
0.0
 10
102.5425780993643
 20
-151.4147026531185
 30
0.0
 10
102.5680718059552
 20
-151.4147026531185
 30
0.0
 10
102.5828857165418
 20
-151.4171142199582
 30
0.0
 10
102.5892591431895
 20
-151.4171142199582
 30
0.0
 10
102.5892591431895
 20
-151.4171142199582
 30
0.0
 10
102.7775336114584
 20
-151.4171142199582
 30
0.0
 10
102.7775336114584
 20
-151.4171142199582
 30
0.0
 10
102.7775336114584
 20
-151.4171142199582
 30
0.0
 10
103.1518432359308
 20
-151.4171142199582
 30
0.0
 10
103.1518432359308
 20
-151.4171142199582
 30
0.0
 10
103.2026583943382
 20
-151.4171142199582
 30
0.0
 10
103.4861897527743
 20
-151.4043673666628
 30
0.0
 10
103.5178846312386
 20
-151.4043673666628
 30
0.0
 10
103.5158175739474
 20
-151.4319281305448
 30
0.0
 10
103.513578261882
 20
-151.4508761557136
 30
0.0
 10
103.513578261882
 20
-151.4805039768868
 30
0.0
 10
103.5115112045909
 20
-151.5121988553511
 30
0.0
 10
103.5115112045909
 20
-151.6475911079214
 30
0.0
 10
103.5115112045909
 20
-151.6751518718034
 30
0.0
 10
103.5115112045909
 20
-151.6751518718034
 30
0.0
 10
103.5115112045909
 20
-151.9204426703532
 30
0.0
 10
103.5115112045909
 20
-151.9204426703532
 30
0.0
 10
103.5115112045909
 20
-151.9648844021129
 30
0.0
 10
103.5158175739474
 20
-152.1615993543207
 30
0.0
 10
103.5199516885297
 20
-152.3138725747687
 30
0.0
 10
103.5199516885297
 20
-152.3138725747687
 30
0.0
 10
103.2936089151488
 20
-152.3138725747687
 30
0.0
 10
103.2936089151488
 20
-152.3138725747687
 30
0.0
 10
103.2936089151488
 20
-152.3138725747687
 30
0.0
 10
103.29567597244
 20
-152.2801106390133
 30
0.0
 10
103.29567597244
 20
-152.2801106390133
 30
0.0
 10
103.29567597244
 20
-152.2801106390133
 30
0.0
 10
102.5933932577718
 20
-152.2801106390133
 30
0.0
 10
102.5933932577718
 20
-152.2801106390133
 30
0.0
 10
102.5933932577718
 20
-152.2801106390133
 30
0.0
 10
102.5954603150629
 20
-152.3138725747687
 30
0.0
 10
102.5954603150629
 20
-152.3138725747687
 30
0.0
 10
102.5954603150629
 20
-152.3138725747687
 30
0.0
 10
102.3775580256209
 20
-152.3138725747687
 30
0.0
 10
102.3775580256209
 20
-152.3138725747687
 30
0.0
 10
102.3818643949774
 20
-152.2587510470047
 30
0.0
 10
102.3818643949774
 20
-152.2463487032578
 30
0.0
 10
102.3882378216251
 20
-152.1319715331476
 30
0.0
 10
102.3903048789163
 20
-152.1044107692655
 30
0.0
 10
102.3923719362074
 20
-151.9710855739864
 30
0.0
 10
102.3923719362074
 20
-151.9521375488175
 30
0.0
 10
102.3923719362074
 20
-151.9521375488175
 30
0.0
 10
102.3923719362074
 20
-151.7492214247363
 30
0.0
 10
102.3923719362074
 20
-151.7492214247363
 30
0.0
 10
102.2528455690548
 20
-151.9986463378684
 30
0.0
 10
102.0835191259548
 20
-152.1299044758564
 30
0.0
 10
101.9777546945576
 20
-152.1953612900761
 30
0.0
 10
101.9777546945576
 20
-152.1953612900761
 30
0.0
 10
101.8042941368753
 20
-152.0558349229235
 30
0.0
 10
101.8042941368753
 20
-152.0558349229235
 30
0.0
 10
101.8931776003947
 20
-152.0051920192903
 30
0.0
 10
102.0370103369039
 20
-151.918375613062
 30
0.0
 10
102.1744696467654
 20
-151.7237277181454
 30
0.0
 10
102.2655924223502
 20
-151.5966036947397
 30
0.0
 10
102.33104923657
 20
-151.4529432130048
 30
0.0
 10
102.3649834270997
 20
-151.3006699925568
 30
0.0
 10
102.1364013416534
 20
-151.3027370498479
 30
0.0
 10
101.9565673573233
 20
-151.3089382217214
 30
0.0
 10
101.8614827219304
 20
-151.3110052790125
 30
0.0
 10
101.8614827219304
 20
-151.3110052790125
 30
0.0
 10
101.8614827219304
 20
-151.1335828615221
 30
0.0
 10
101.8614827219304
 20
-151.1335828615221
 30
0.0
 10
102.0581976741382
 20
-151.1397840333956
 30
0.0
 10
102.3417290325743
 20
-151.1439181479779
 30
0.0
 10
102.4919351957312
 20
-151.1439181479779
 30
0.0
 10
102.4919351957312
 20
-151.1439181479779
 30
0.0
 10
102.7055311158167
 20
-151.1439181479779
 30
0.0
 10
102.7055311158167
 20
-151.1439181479779
 30
0.0
 10
102.7055311158167
 20
-151.1439181479779
 30
0.0
 10
102.7055311158167
 20
-151.0360866592896
 30
0.0
 10
102.7055311158167
 20
-151.0360866592896
 30
0.0
 10
102.7055311158167
 20
-151.0360866592896
 30
0.0
 10
102.5596313220163
 20
-151.0360866592896
 30
0.0
 10
102.5596313220163
 20
-151.0360866592896
 30
0.0
 10
102.3903048789163
 20
-151.0360866592896
 30
0.0
 10
102.2211506905905
 20
-151.0402207738719
 30
0.0
 10
102.0538913047816
 20
-151.0467664552938
 30
0.0
 10
102.0538913047816
 20
-151.0467664552938
 30
0.0
 10
102.0538913047816
 20
-150.8755452096769
 30
0.0
 10
102.0538913047816
 20
-150.8755452096769
 30
0.0
 10
102.2084038372951
 20
-150.8858804961327
 30
0.0
 10
102.3946112482729
 20
-150.8858804961327
 30
0.0
 10
102.5596313220163
 20
-150.8858804961327
 30
0.0
 10
102.5596313220163
 20
-150.8858804961327
 30
0.0
 10
102.7055311158167
 20
-150.8858804961327
 30
0.0
 10
102.7055311158167
 20
-150.8858804961327
 30
0.0
 10
102.7055311158167
 20
-150.8858804961327
 30
0.0
 10
102.7055311158167
 20
-150.7673692114401
 30
0.0
 10
102.7055311158167
 20
-150.7673692114401
 30
0.0
 10
102.7055311158167
 20
-150.7673692114401
 30
0.0
 10
102.5744452326029
 20
-150.7673692114401
 30
0.0
 10
102.5744452326029
 20
-150.7673692114401
 30
0.0
 10
102.5277641887778
 20
-150.7673692114401
 30
0.0
 10
102.3246758099223
 20
-150.7759819501532
 30
0.0
 10
102.282473390228
 20
-150.7759819501532
 30
0.0
 10
102.0793850113725
 20
-150.7801160647355
 30
0.0
 10
102.0032484011485
 20
-150.7821831220267
 30
0.0
 10
101.924872478859
 20
-150.7842501793178
 30
0.0
 10
101.924872478859
 20
-150.7842501793178
 30
0.0
 10
101.924872478859
 20
-150.6002820804055
 30
0.0
 10
101.924872478859
 20
-150.6002820804055
 30
0.0
 10
102.0390773941951
 20
-150.6088948191186
 30
0.0
 10
102.0835191259548
 20
-150.6088948191186
 30
0.0
 10
102.4664414891403
 20
-150.6171630482832
 30
0.0
 10
102.4030517322117
 20
-150.5220784128903
 30
0.0
 10
102.3754909683297
 20
-150.4945176490083
 30
0.0
 10
102.3394897205089
 20
-150.4586886559617
 30
0.0
 10
102.3394897205089
 20
-150.4586886559617
 30
0.0
 10
102.5151895902566
 20
-150.3760063643157
 30
0.0
 10
102.5151895902566
 20
-150.3760063643157
 30
0.0
 10
102.5553249526598
 20
-150.4121798669108
 30
0.0
 10
102.5997666844195
 20
-150.4545545413794
 30
0.0
 10
102.6738362373524
 20
-150.5644530873589
 30
0.0
 10
102.6738362373524
 20
-150.5644530873589
 30
0.0
 10
102.5596313220163
 20
-150.6195746151229
 30
0.0
 10
102.5596313220163
 20
-150.6195746151229
 30
0.0
 10
102.5596313220163
 20
-150.6195746151229
 30
0.0
 10
102.5701388632463
 20
-150.6195746151229
 30
0.0
 10
102.5701388632463
 20
-150.6195746151229
 30
0.0
 10
102.5701388632463
 20
-150.6195746151229
 30
0.0
 10
103.0927598483587
 20
-150.6195746151229
 30
0.0
 10
103.0927598483587
 20
-150.6195746151229
 30
0.0
 10
103.0927598483587
 20
-150.6195746151229
 30
0.0
 10
102.9975029581916
 20
-150.5751328833632
 30
0.0
 10
102.9975029581916
 20
-150.5751328833632
 30
0.0
 10
103.0248914672993
 20
-150.5368923234769
 30
0.0
 10
103.0820800523545
 20
-150.4566215986706
 30
0.0
 10
103.096893962941
 20
-150.3825520457377
 30
0.0
 10
103.096893962941
 20
-150.3825520457377
 30
0.0
 10
103.3104898830265
 20
-150.4459418026663
 30
0.0
 10
103.3104898830265
 20
-150.4459418026663
 30
0.0
 10
103.3191026217396
 20
-150.4480088599574
 30
0.0
 10
103.3401177041997
 20
-150.4586886559617
 30
0.0
 10
103.3401177041997
 20
-150.4797037384217
 30
0.0
 10
103.3401177041997
 20
-150.517944298308
 30
0.0
 10
103.2746608899799
 20
-150.517944298308
 30
0.0
 10
103.2555406100368
 20
-150.517944298308
 30
0.0
 10
103.2450330688068
 20
-150.5368923234769
 30
0.0
 10
103.2217786742813
 20
-150.5771999406543
 30
0.0
 10
103.1921508531082
 20
-150.6171630482832
 30
0.0
 10
103.5919541841714
 20
-150.6109618764097
 30
0.0
 10
103.6215820053446
 20
-150.6088948191186
 30
0.0
 10
103.6977186155686
 20
-150.6023491376966
 30
0.0
 10
103.6977186155686
 20
-150.6023491376966
 30
0.0
 10
103.6977186155686
 20
-150.7842501793178
 30
0.0
 10
103.6977186155686
 20
-150.7842501793178
 30
0.0
 10
103.6785983356255
 20
-150.7842501793178
 30
0.0
 10
103.6532768838089
 20
-150.7821831220267
 30
0.0
 10
103.4333075370757
 20
-150.7739148928621
 30
0.0
 10
103.3824923786683
 20
-150.7718478355709
 30
0.0
 10
103.162523031935
 20
-150.7673692114401
 30
0.0
 10
103.1180813001753
 20
-150.7673692114401
 30
0.0
 10
103.1180813001753
 20
-150.7673692114401
 30
0.0
 10
102.9022460680244
 20
-150.7673692114401
 30
0.0
 10
102.9022460680244
 20
-150.7673692114401
 30
0.0
 10
102.9022460680244
 20
-150.7673692114401
 30
0.0
 10
102.9022460680244
 20
-150.8858804961327
 30
0.0
 10
102.9022460680244
 20
-150.8858804961327
 30
0.0
 10
102.9022460680244
 20
-150.8858804961327
 30
0.0
 10
103.0757066257067
 20
-150.8858804961327
 30
0.0
 10
103.0757066257067
 20
-150.8858804961327
 30
0.0
 10
103.2386596421591
 20
-150.8858804961327
 30
0.0
 10
103.4290011677191
 20
-150.8858804961327
 30
0.0
 10
103.5855807575237
 20
-150.8755452096769
 30
0.0
 10
103.5855807575237
 20
-150.8755452096769
 30
0.0
 10
103.5855807575237
 20
-151.0467664552938
 30
0.0
 10
103.5855807575237
 20
-151.0467664552938
 30
0.0
 10
103.3761189520205
 20
-151.0381537165807
 30
0.0
 10
103.1794039998128
 20
-151.0360866592896
 30
0.0
 10
103.0757066257067
 20
-151.0360866592896
 30
0.0
 10
103.0757066257067
 20
-151.0360866592896
 30
0.0
 10
102.9022460680244
 20
-151.0360866592896
 30
0.0
 10
102.9022460680244
 20
-151.0360866592896
 30
0.0
 10
102.9022460680244
 20
-151.0360866592896
 30
0.0
 10
102.9022460680244
 20
-151.1439181479779
 30
0.0
 10
102.9022460680244
 20
-151.1439181479779
 30
0.0
 10
102.9022460680244
 20
-151.1439181479779
 30
0.0
 10
103.1328952107619
 20
-151.1439181479779
 30
0.0
 10
103.1328952107619
 20
-151.1439181479779
 30
0.0
 10
103.2662204060411
 20
-151.1439181479779
 30
0.0
 10
103.5538858790594
 20
-151.1397840333956
 30
0.0
 10
103.7633476845626
 20
-151.1335828615221
 30
0.0
 10
103.7633476845626
 20
-151.1335828615221
 30
0.0
 10
103.7633476845626
 20
-151.3110052790125
 30
0.0
 10
103.7633476845626
 20
-151.3110052790125
 30
0.0
 10
103.5707668469372
 20
-151.3048041071391
 30
0.0
 10
103.2576076673279
 20
-151.3006699925568
 30
0.0
 10
103.1328952107619
 20
-151.3006699925568
 30
0.0
  0
HATCH
  5
119
330
10D
100
AcDbEntity
  8
レイヤー 1
 62
    18
420
        0
440
 33554687
100
AcDbHatch
 10
0.0
 20
0.0
 30
0.0
210
0.0
220
0.0
230
1.0
  2
SOLID
 70
     1
 71
     1
 91
        4
 92
        1
 93
        1
 72
     4
 94
        3
 73
     0
 74
     0
 95
       17
 96
       13
 40
0.0
 40
0.0
 40
0.0
 40
0.0
 40
1.0
 40
1.0
 40
1.0
 40
2.0
 40
2.0
 40
2.0
 40
3.0
 40
3.0
 40
3.0
 40
4.0
 40
4.0
 40
4.0
 40
4.0
 10
103.2979152845054
 20
-152.0324082736238
 10
103.2979152845054
 20
-152.0324082736238
 10
102.5913262004806
 20
-152.0324082736238
 10
102.5913262004806
 20
-152.0324082736238
 10
102.5913262004806
 20
-152.0324082736238
 10
102.5913262004806
 20
-152.1467854437341
 10
102.5913262004806
 20
-152.1467854437341
 10
102.5913262004806
 20
-152.1467854437341
 10
103.2979152845054
 20
-152.1467854437341
 10
103.2979152845054
 20
-152.1467854437341
 10
103.2979152845054
 20
-152.1467854437341
 10
103.2979152845054
 20
-152.0324082736238
 10
103.2979152845054
 20
-152.0324082736238
 97
        0
 97
        1
330
115
 92
        1
 93
        1
 72
     4
 94
        3
 73
     0
 74
     0
 95
       17
 96
       13
 40
0.0
 40
0.0
 40
0.0
 40
0.0
 40
1.0
 40
1.0
 40
1.0
 40
2.0
 40
2.0
 40
2.0
 40
3.0
 40
3.0
 40
3.0
 40
4.0
 40
4.0
 40
4.0
 40
4.0
 10
103.2979152845054
 20
-151.7891845323652
 10
103.2979152845054
 20
-151.7891845323652
 10
102.5913262004806
 20
-151.7891845323652
 10
102.5913262004806
 20
-151.7891845323652
 10
102.5913262004806
 20
-151.7891845323652
 10
102.5913262004806
 20
-151.9035617024755
 10
102.5913262004806
 20
-151.9035617024755
 10
102.5913262004806
 20
-151.9035617024755
 10
103.2979152845054
 20
-151.9035617024755
 10
103.2979152845054
 20
-151.9035617024755
 10
103.2979152845054
 20
-151.9035617024755
 10
103.2979152845054
 20
-151.7891845323652
 10
103.2979152845054
 20
-151.7891845323652
 97
        0
 97
        1
330
116
 92
        1
 93
        1
 72
     4
 94
        3
 73
     0
 74
     0
 95
       17
 96
       13
 40
0.0
 40
0.0
 40
0.0
 40
0.0
 40
1.0
 40
1.0
 40
1.0
 40
2.0
 40
2.0
 40
2.0
 40
3.0
 40
3.0
 40
3.0
 40
4.0
 40
4.0
 40
4.0
 40
4.0
 10
103.2979152845054
 20
-151.5566405871108
 10
103.2979152845054
 20
-151.5566405871108
 10
102.5913262004806
 20
-151.5566405871108
 10
102.5913262004806
 20
-151.5566405871108
 10
102.5913262004806
 20
-151.5566405871108
 10
102.5913262004806
 20
-151.6644720757991
 10
102.5913262004806
 20
-151.6644720757991
 10
102.5913262004806
 20
-151.6644720757991
 10
103.2979152845054
 20
-151.6644720757991
 10
103.2979152845054
 20
-151.6644720757991
 10
103.2979152845054
 20
-151.6644720757991
 10
103.2979152845054
 20
-151.5566405871108
 10
103.2979152845054
 20
-151.5566405871108
 97
        0
 97
        1
330
117
 92
        1
 93
        1
 72
     4
 94
        3
 73
     0
 74
     0
 95
      203
 96
      199
 40
0.0
 40
0.0
 40
0.0
 40
0.0
 40
1.0
 40
1.0
 40
1.0
 40
2.0
 40
2.0
 40
2.0
 40
3.0
 40
3.0
 40
3.0
 40
4.0
 40
4.0
 40
4.0
 40
5.0
 40
5.0
 40
5.0
 40
6.0
 40
6.0
 40
6.0
 40
7.0
 40
7.0
 40
7.0
 40
8.0
 40
8.0
 40
8.0
 40
9.0
 40
9.0
 40
9.0
 40
10.0
 40
10.0
 40
10.0
 40
11.0
 40
11.0
 40
11.0
 40
12.0
 40
12.0
 40
12.0
 40
13.0
 40
13.0
 40
13.0
 40
14.0
 40
14.0
 40
14.0
 40
15.0
 40
15.0
 40
15.0
 40
16.0
 40
16.0
 40
16.0
 40
17.0
 40
17.0
 40
17.0
 40
18.0
 40
18.0
 40
18.0
 40
19.0
 40
19.0
 40
19.0
 40
20.0
 40
20.0
 40
20.0
 40
21.0
 40
21.0
 40
21.0
 40
22.0
 40
22.0
 40
22.0
 40
23.0
 40
23.0
 40
23.0
 40
24.0
 40
24.0
 40
24.0
 40
25.0
 40
25.0
 40
25.0
 40
26.0
 40
26.0
 40
26.0
 40
27.0
 40
27.0
 40
27.0
 40
28.0
 40
28.0
 40
28.0
 40
29.0
 40
29.0
 40
29.0
 40
30.0
 40
30.0
 40
30.0
 40
31.0
 40
31.0
 40
31.0
 40
32.0
 40
32.0
 40
32.0
 40
33.0
 40
33.0
 40
33.0
 40
34.0
 40
34.0
 40
34.0
 40
35.0
 40
35.0
 40
35.0
 40
36.0
 40
36.0
 40
36.0
 40
37.0
 40
37.0
 40
37.0
 40
38.0
 40
38.0
 40
38.0
 40
39.0
 40
39.0
 40
39.0
 40
40.0
 40
40.0
 40
40.0
 40
41.0
 40
41.0
 40
41.0
 40
42.0
 40
42.0
 40
42.0
 40
43.0
 40
43.0
 40
43.0
 40
44.0
 40
44.0
 40
44.0
 40
45.0
 40
45.0
 40
45.0
 40
46.0
 40
46.0
 40
46.0
 40
47.0
 40
47.0
 40
47.0
 40
48.0
 40
48.0
 40
48.0
 40
49.0
 40
49.0
 40
49.0
 40
50.0
 40
50.0
 40
50.0
 40
51.0
 40
51.0
 40
51.0
 40
52.0
 40
52.0
 40
52.0
 40
53.0
 40
53.0
 40
53.0
 40
54.0
 40
54.0
 40
54.0
 40
55.0
 40
55.0
 40
55.0
 40
56.0
 40
56.0
 40
56.0
 40
57.0
 40
57.0
 40
57.0
 40
58.0
 40
58.0
 40
58.0
 40
59.0
 40
59.0
 40
59.0
 40
60.0
 40
60.0
 40
60.0
 40
61.0
 40
61.0
 40
61.0
 40
62.0
 40
62.0
 40
62.0
 40
63.0
 40
63.0
 40
63.0
 40
64.0
 40
64.0
 40
64.0
 40
65.0
 40
65.0
 40
65.0
 40
66.0
 40
66.0
 40
66.0
 40
66.0
 10
103.1328952107619
 20
-151.3006699925568
 10
103.1328952107619
 20
-151.3006699925568
 10
102.5744452326029
 20
-151.3006699925568
 10
102.5744452326029
 20
-151.3006699925568
 10
102.5637654365986
 20
-151.3451117243165
 10
102.5553249526598
 20
-151.3768066027808
 10
102.5425780993643
 20
-151.4147026531185
 10
102.5680718059552
 20
-151.4147026531185
 10
102.5828857165418
 20
-151.4171142199582
 10
102.5892591431895
 20
-151.4171142199582
 10
102.5892591431895
 20
-151.4171142199582
 10
102.7775336114584
 20
-151.4171142199582
 10
102.7775336114584
 20
-151.4171142199582
 10
102.7775336114584
 20
-151.4171142199582
 10
103.1518432359308
 20
-151.4171142199582
 10
103.1518432359308
 20
-151.4171142199582
 10
103.2026583943382
 20
-151.4171142199582
 10
103.4861897527743
 20
-151.4043673666628
 10
103.5178846312386
 20
-151.4043673666628
 10
103.5158175739474
 20
-151.4319281305448
 10
103.513578261882
 20
-151.4508761557136
 10
103.513578261882
 20
-151.4805039768868
 10
103.5115112045909
 20
-151.5121988553511
 10
103.5115112045909
 20
-151.6475911079214
 10
103.5115112045909
 20
-151.6751518718034
 10
103.5115112045909
 20
-151.6751518718034
 10
103.5115112045909
 20
-151.9204426703532
 10
103.5115112045909
 20
-151.9204426703532
 10
103.5115112045909
 20
-151.9648844021129
 10
103.5158175739474
 20
-152.1615993543207
 10
103.5199516885297
 20
-152.3138725747687
 10
103.5199516885297
 20
-152.3138725747687
 10
103.2936089151488
 20
-152.3138725747687
 10
103.2936089151488
 20
-152.3138725747687
 10
103.2936089151488
 20
-152.3138725747687
 10
103.29567597244
 20
-152.2801106390133
 10
103.29567597244
 20
-152.2801106390133
 10
103.29567597244
 20
-152.2801106390133
 10
102.5933932577718
 20
-152.2801106390133
 10
102.5933932577718
 20
-152.2801106390133
 10
102.5933932577718
 20
-152.2801106390133
 10
102.5954603150629
 20
-152.3138725747687
 10
102.5954603150629
 20
-152.3138725747687
 10
102.5954603150629
 20
-152.3138725747687
 10
102.3775580256209
 20
-152.3138725747687
 10
102.3775580256209
 20
-152.3138725747687
 10
102.3818643949774
 20
-152.2587510470047
 10
102.3818643949774
 20
-152.2463487032578
 10
102.3882378216251
 20
-152.1319715331476
 10
102.3903048789163
 20
-152.1044107692655
 10
102.3923719362074
 20
-151.9710855739864
 10
102.3923719362074
 20
-151.9521375488175
 10
102.3923719362074
 20
-151.9521375488175
 10
102.3923719362074
 20
-151.7492214247363
 10
102.3923719362074
 20
-151.7492214247363
 10
102.2528455690548
 20
-151.9986463378684
 10
102.0835191259548
 20
-152.1299044758564
 10
101.9777546945576
 20
-152.1953612900761
 10
101.9777546945576
 20
-152.1953612900761
 10
101.8042941368753
 20
-152.0558349229235
 10
101.8042941368753
 20
-152.0558349229235
 10
101.8931776003947
 20
-152.0051920192903
 10
102.0370103369039
 20
-151.918375613062
 10
102.1744696467654
 20
-151.7237277181454
 10
102.2655924223502
 20
-151.5966036947397
 10
102.33104923657
 20
-151.4529432130048
 10
102.3649834270997
 20
-151.3006699925568
 10
102.1364013416534
 20
-151.3027370498479
 10
101.9565673573233
 20
-151.3089382217214
 10
101.8614827219304
 20
-151.3110052790125
 10
101.8614827219304
 20
-151.3110052790125
 10
101.8614827219304
 20
-151.1335828615221
 10
101.8614827219304
 20
-151.1335828615221
 10
102.0581976741382
 20
-151.1397840333956
 10
102.3417290325743
 20
-151.1439181479779
 10
102.4919351957312
 20
-151.1439181479779
 10
102.4919351957312
 20
-151.1439181479779
 10
102.7055311158167
 20
-151.1439181479779
 10
102.7055311158167
 20
-151.1439181479779
 10
102.7055311158167
 20
-151.1439181479779
 10
102.7055311158167
 20
-151.0360866592896
 10
102.7055311158167
 20
-151.0360866592896
 10
102.7055311158167
 20
-151.0360866592896
 10
102.5596313220163
 20
-151.0360866592896
 10
102.5596313220163
 20
-151.0360866592896
 10
102.3903048789163
 20
-151.0360866592896
 10
102.2211506905905
 20
-151.0402207738719
 10
102.0538913047816
 20
-151.0467664552938
 10
102.0538913047816
 20
-151.0467664552938
 10
102.0538913047816
 20
-150.8755452096769
 10
102.0538913047816
 20
-150.8755452096769
 10
102.2084038372951
 20
-150.8858804961327
 10
102.3946112482729
 20
-150.8858804961327
 10
102.5596313220163
 20
-150.8858804961327
 10
102.5596313220163
 20
-150.8858804961327
 10
102.7055311158167
 20
-150.8858804961327
 10
102.7055311158167
 20
-150.8858804961327
 10
102.7055311158167
 20
-150.8858804961327
 10
102.7055311158167
 20
-150.7673692114401
 10
102.7055311158167
 20
-150.7673692114401
 10
102.7055311158167
 20
-150.7673692114401
 10
102.5744452326029
 20
-150.7673692114401
 10
102.5744452326029
 20
-150.7673692114401
 10
102.5277641887778
 20
-150.7673692114401
 10
102.3246758099223
 20
-150.7759819501532
 10
102.282473390228
 20
-150.7759819501532
 10
102.0793850113725
 20
-150.7801160647355
 10
102.0032484011485
 20
-150.7821831220267
 10
101.924872478859
 20
-150.7842501793178
 10
101.924872478859
 20
-150.7842501793178
 10
101.924872478859
 20
-150.6002820804055
 10
101.924872478859
 20
-150.6002820804055
 10
102.0390773941951
 20
-150.6088948191186
 10
102.0835191259548
 20
-150.6088948191186
 10
102.4664414891403
 20
-150.6171630482832
 10
102.4030517322117
 20
-150.5220784128903
 10
102.3754909683297
 20
-150.4945176490083
 10
102.3394897205089
 20
-150.4586886559617
 10
102.3394897205089
 20
-150.4586886559617
 10
102.5151895902566
 20
-150.3760063643157
 10
102.5151895902566
 20
-150.3760063643157
 10
102.5553249526598
 20
-150.4121798669108
 10
102.5997666844195
 20
-150.4545545413794
 10
102.6738362373524
 20
-150.5644530873589
 10
102.6738362373524
 20
-150.5644530873589
 10
102.5596313220163
 20
-150.6195746151229
 10
102.5596313220163
 20
-150.6195746151229
 10
102.5596313220163
 20
-150.6195746151229
 10
102.5701388632463
 20
-150.6195746151229
 10
102.5701388632463
 20
-150.6195746151229
 10
102.5701388632463
 20
-150.6195746151229
 10
103.0927598483587
 20
-150.6195746151229
 10
103.0927598483587
 20
-150.6195746151229
 10
103.0927598483587
 20
-150.6195746151229
 10
102.9975029581916
 20
-150.5751328833632
 10
102.9975029581916
 20
-150.5751328833632
 10
103.0248914672993
 20
-150.5368923234769
 10
103.0820800523545
 20
-150.4566215986706
 10
103.096893962941
 20
-150.3825520457377
 10
103.096893962941
 20
-150.3825520457377
 10
103.3104898830265
 20
-150.4459418026663
 10
103.3104898830265
 20
-150.4459418026663
 10
103.3191026217396
 20
-150.4480088599574
 10
103.3401177041997
 20
-150.4586886559617
 10
103.3401177041997
 20
-150.4797037384217
 10
103.3401177041997
 20
-150.517944298308
 10
103.2746608899799
 20
-150.517944298308
 10
103.2555406100368
 20
-150.517944298308
 10
103.2450330688068
 20
-150.5368923234769
 10
103.2217786742813
 20
-150.5771999406543
 10
103.1921508531082
 20
-150.6171630482832
 10
103.5919541841714
 20
-150.6109618764097
 10
103.6215820053446
 20
-150.6088948191186
 10
103.6977186155686
 20
-150.6023491376966
 10
103.6977186155686
 20
-150.6023491376966
 10
103.6977186155686
 20
-150.7842501793178
 10
103.6977186155686
 20
-150.7842501793178
 10
103.6785983356255
 20
-150.7842501793178
 10
103.6532768838089
 20
-150.7821831220267
 10
103.4333075370757
 20
-150.7739148928621
 10
103.3824923786683
 20
-150.7718478355709
 10
103.162523031935
 20
-150.7673692114401
 10
103.1180813001753
 20
-150.7673692114401
 10
103.1180813001753
 20
-150.7673692114401
 10
102.9022460680244
 20
-150.7673692114401
 10
102.9022460680244
 20
-150.7673692114401
 10
102.9022460680244
 20
-150.7673692114401
 10
102.9022460680244
 20
-150.8858804961327
 10
102.9022460680244
 20
-150.8858804961327
 10
102.9022460680244
 20
-150.8858804961327
 10
103.0757066257067
 20
-150.8858804961327
 10
103.0757066257067
 20
-150.8858804961327
 10
103.2386596421591
 20
-150.8858804961327
 10
103.4290011677191
 20
-150.8858804961327
 10
103.5855807575237
 20
-150.8755452096769
 10
103.5855807575237
 20
-150.8755452096769
 10
103.5855807575237
 20
-151.0467664552938
 10
103.5855807575237
 20
-151.0467664552938
 10
103.3761189520205
 20
-151.0381537165807
 10
103.1794039998128
 20
-151.0360866592896
 10
103.0757066257067
 20
-151.0360866592896
 10
103.0757066257067
 20
-151.0360866592896
 10
102.9022460680244
 20
-151.0360866592896
 10
102.9022460680244
 20
-151.0360866592896
 10
102.9022460680244
 20
-151.0360866592896
 10
102.9022460680244
 20
-151.1439181479779
 10
102.9022460680244
 20
-151.1439181479779
 10
102.9022460680244
 20
-151.1439181479779
 10
103.1328952107619
 20
-151.1439181479779
 10
103.1328952107619
 20
-151.1439181479779
 10
103.2662204060411
 20
-151.1439181479779
 10
103.5538858790594
 20
-151.1397840333956
 10
103.7633476845626
 20
-151.1335828615221
 10
103.7633476845626
 20
-151.1335828615221
 10
103.7633476845626
 20
-151.3110052790125
 10
103.7633476845626
 20
-151.3110052790125
 10
103.5707668469372
 20
-151.3048041071391
 10
103.2576076673279
 20
-151.3006699925568
 10
103.1328952107619
 20
-151.3006699925568
 97
        0
 97
        1
330
118
 75
     2
 76
     1
 98
        1
 10
0.0
 20
0.0
450
        0
451
        0
460
0.0
461
0.0
452
        0
462
0.0
453
        0
470

  0
SPLINE
  5
11A
330
10D
100
AcDbEntity
  8
レイヤー 1
100
AcDbSpline
210
0.0
220
0.0
230
1.0
 70
     9
 71
     3
 72
    29
 73
    25
 74
     0
 42
0.0000000001
 43
0.0000000001
 40
0.0
 40
0.0
 40
0.0
 40
0.0
 40
1.0
 40
1.0
 40
1.0
 40
2.0
 40
2.0
 40
2.0
 40
3.0
 40
3.0
 40
3.0
 40
4.0
 40
4.0
 40
4.0
 40
5.0
 40
5.0
 40
5.0
 40
6.0
 40
6.0
 40
6.0
 40
7.0
 40
7.0
 40
7.0
 40
8.0
 40
8.0
 40
8.0
 40
8.0
 10
105.0084051929319
 20
-150.7484211862712
 30
0.0
 10
105.0084051929319
 20
-150.7484211862712
 30
0.0
 10
104.6551106509195
 20
-150.7484211862712
 30
0.0
 10
104.6551106509195
 20
-150.7484211862712
 30
0.0
 10
104.5429727928746
 20
-150.7484211862712
 30
0.0
 10
104.4032741709478
 20
-150.7549668676932
 30
0.0
 10
104.2954426822594
 20
-150.7673692114401
 30
0.0
 10
104.2954426822594
 20
-150.7673692114401
 30
0.0
 10
104.2954426822594
 20
-150.5327582088946
 30
0.0
 10
104.2954426822594
 20
-150.5327582088946
 30
0.0
 10
104.413953966952
 20
-150.5475721194811
 30
0.0
 10
104.5979220658644
 20
-150.5517062340634
 30
0.0
 10
104.6551106509195
 20
-150.5517062340634
 30
0.0
 10
104.6551106509195
 20
-150.5517062340634
 30
0.0
 10
105.0084051929319
 20
-150.5517062340634
 30
0.0
 10
105.0084051929319
 20
-150.5517062340634
 30
0.0
 10
105.0273532181008
 20
-150.5517062340634
 30
0.0
 10
105.2304415969563
 20
-150.5517062340634
 30
0.0
 10
105.3722072761743
 20
-150.5327582088946
 30
0.0
 10
105.3722072761743
 20
-150.5327582088946
 30
0.0
 10
105.3722072761743
 20
-150.7673692114401
 30
0.0
 10
105.3722072761743
 20
-150.7673692114401
 30
0.0
 10
105.2156276863697
 20
-150.7484211862712
 30
0.0
 10
105.0252861608096
 20
-150.7484211862712
 30
0.0
 10
105.0084051929319
 20
-150.7484211862712
 30
0.0
  0
SPLINE
  5
11B
330
10D
100
AcDbEntity
  8
レイヤー 1
100
AcDbSpline
210
0.0
220
0.0
230
1.0
 70
     9
 71
     3
 72
    47
 73
    43
 74
     0
 42
0.0000000001
 43
0.0000000001
 40
0.0
 40
0.0
 40
0.0
 40
0.0
 40
1.0
 40
1.0
 40
1.0
 40
2.0
 40
2.0
 40
2.0
 40
3.0
 40
3.0
 40
3.0
 40
4.0
 40
4.0
 40
4.0
 40
5.0
 40
5.0
 40
5.0
 40
6.0
 40
6.0
 40
6.0
 40
7.0
 40
7.0
 40
7.0
 40
8.0
 40
8.0
 40
8.0
 40
9.0
 40
9.0
 40
9.0
 40
10.0
 40
10.0
 40
10.0
 40
11.0
 40
11.0
 40
11.0
 40
12.0
 40
12.0
 40
12.0
 40
13.0
 40
13.0
 40
13.0
 40
14.0
 40
14.0
 40
14.0
 40
14.0
 10
105.1098632549725
 20
-151.2772433432571
 30
0.0
 10
105.1098632549725
 20
-151.2772433432571
 30
0.0
 10
105.0084051929319
 20
-151.2772433432571
 30
0.0
 10
105.0084051929319
 20
-151.2772433432571
 30
0.0
 10
105.0084051929319
 20
-151.3640597494854
 30
0.0
 10
104.9872178556976
 20
-151.7533555393186
 30
0.0
 10
104.7905029034899
 20
-151.9734971408261
 30
0.0
 10
104.6380574282675
 20
-152.1426513291518
 30
0.0
 10
104.4308349348298
 20
-152.2122422579539
 30
0.0
 10
104.3462578406669
 20
-152.2398030218359
 30
0.0
 10
104.3462578406669
 20
-152.2398030218359
 30
0.0
 10
104.1516099457503
 20
-152.0727158908013
 30
0.0
 10
104.1516099457503
 20
-152.0727158908013
 30
0.0
 10
104.2489338932086
 20
-152.0599690375058
 30
0.0
 10
104.424461508182
 20
-152.0368868977547
 30
0.0
 10
104.612735976451
 20
-151.8484401747115
 30
0.0
 10
104.6868055293838
 20
-151.7764376790698
 30
0.0
 10
104.7905029034899
 20
-151.6369113119172
 30
0.0
 10
104.7905029034899
 20
-151.2772433432571
 30
0.0
 10
104.7905029034899
 20
-151.2772433432571
 30
0.0
 10
104.5598537607524
 20
-151.2772433432571
 30
0.0
 10
104.5598537607524
 20
-151.2772433432571
 30
0.0
 10
104.3736463497746
 20
-151.2772433432571
 30
0.0
 10
104.1874389387969
 20
-151.2817219673879
 30
0.0
 10
104.0014037825934
 20
-151.2965358779745
 30
0.0
 10
104.0014037825934
 20
-151.2965358779745
 30
0.0
 10
104.0014037825934
 20
-151.076394276467
 30
0.0
 10
104.0014037825934
 20
-151.076394276467
 30
0.0
 10
104.1896782508623
 20
-151.0912081870536
 30
0.0
 10
104.4752766665895
 20
-151.0953423016359
 30
0.0
 10
104.5598537607524
 20
-151.0953423016359
 30
0.0
 10
104.5598537607524
 20
-151.0953423016359
 30
0.0
 10
105.1098632549725
 20
-151.0953423016359
 30
0.0
 10
105.1098632549725
 20
-151.0953423016359
 30
0.0
 10
105.1289835349157
 20
-151.0953423016359
 30
0.0
 10
105.4462768291072
 20
-151.0953423016359
 30
0.0
 10
105.6748589145535
 20
-151.076394276467
 30
0.0
 10
105.6748589145535
 20
-151.076394276467
 30
0.0
 10
105.6748589145535
 20
-151.2965358779745
 30
0.0
 10
105.6748589145535
 20
-151.2965358779745
 30
0.0
 10
105.4864121915103
 20
-151.2817219673879
 30
0.0
 10
105.2981377232414
 20
-151.2772433432571
 30
0.0
 10
105.1098632549725
 20
-151.2772433432571
 30
0.0
  0
HATCH
  5
11C
330
10D
100
AcDbEntity
  8
レイヤー 1
 62
    18
420
        0
440
 33554687
100
AcDbHatch
 10
0.0
 20
0.0
 30
0.0
210
0.0
220
0.0
230
1.0
  2
SOLID
 70
     1
 71
     1
 91
        2
 92
        1
 93
        1
 72
     4
 94
        3
 73
     0
 74
     0
 95
       29
 96
       25
 40
0.0
 40
0.0
 40
0.0
 40
0.0
 40
1.0
 40
1.0
 40
1.0
 40
2.0
 40
2.0
 40
2.0
 40
3.0
 40
3.0
 40
3.0
 40
4.0
 40
4.0
 40
4.0
 40
5.0
 40
5.0
 40
5.0
 40
6.0
 40
6.0
 40
6.0
 40
7.0
 40
7.0
 40
7.0
 40
8.0
 40
8.0
 40
8.0
 40
8.0
 10
105.0084051929319
 20
-150.7484211862712
 10
105.0084051929319
 20
-150.7484211862712
 10
104.6551106509195
 20
-150.7484211862712
 10
104.6551106509195
 20
-150.7484211862712
 10
104.5429727928746
 20
-150.7484211862712
 10
104.4032741709478
 20
-150.7549668676932
 10
104.2954426822594
 20
-150.7673692114401
 10
104.2954426822594
 20
-150.7673692114401
 10
104.2954426822594
 20
-150.5327582088946
 10
104.2954426822594
 20
-150.5327582088946
 10
104.413953966952
 20
-150.5475721194811
 10
104.5979220658644
 20
-150.5517062340634
 10
104.6551106509195
 20
-150.5517062340634
 10
104.6551106509195
 20
-150.5517062340634
 10
105.0084051929319
 20
-150.5517062340634
 10
105.0084051929319
 20
-150.5517062340634
 10
105.0273532181008
 20
-150.5517062340634
 10
105.2304415969563
 20
-150.5517062340634
 10
105.3722072761743
 20
-150.5327582088946
 10
105.3722072761743
 20
-150.5327582088946
 10
105.3722072761743
 20
-150.7673692114401
 10
105.3722072761743
 20
-150.7673692114401
 10
105.2156276863697
 20
-150.7484211862712
 10
105.0252861608096
 20
-150.7484211862712
 10
105.0084051929319
 20
-150.7484211862712
 97
        0
 97
        1
330
11A
 92
        1
 93
        1
 72
     4
 94
        3
 73
     0
 74
     0
 95
       47
 96
       43
 40
0.0
 40
0.0
 40
0.0
 40
0.0
 40
1.0
 40
1.0
 40
1.0
 40
2.0
 40
2.0
 40
2.0
 40
3.0
 40
3.0
 40
3.0
 40
4.0
 40
4.0
 40
4.0
 40
5.0
 40
5.0
 40
5.0
 40
6.0
 40
6.0
 40
6.0
 40
7.0
 40
7.0
 40
7.0
 40
8.0
 40
8.0
 40
8.0
 40
9.0
 40
9.0
 40
9.0
 40
10.0
 40
10.0
 40
10.0
 40
11.0
 40
11.0
 40
11.0
 40
12.0
 40
12.0
 40
12.0
 40
13.0
 40
13.0
 40
13.0
 40
14.0
 40
14.0
 40
14.0
 40
14.0
 10
105.1098632549725
 20
-151.2772433432571
 10
105.1098632549725
 20
-151.2772433432571
 10
105.0084051929319
 20
-151.2772433432571
 10
105.0084051929319
 20
-151.2772433432571
 10
105.0084051929319
 20
-151.3640597494854
 10
104.9872178556976
 20
-151.7533555393186
 10
104.7905029034899
 20
-151.9734971408261
 10
104.6380574282675
 20
-152.1426513291518
 10
104.4308349348298
 20
-152.2122422579539
 10
104.3462578406669
 20
-152.2398030218359
 10
104.3462578406669
 20
-152.2398030218359
 10
104.1516099457503
 20
-152.0727158908013
 10
104.1516099457503
 20
-152.0727158908013
 10
104.2489338932086
 20
-152.0599690375058
 10
104.424461508182
 20
-152.0368868977547
 10
104.612735976451
 20
-151.8484401747115
 10
104.6868055293838
 20
-151.7764376790698
 10
104.7905029034899
 20
-151.6369113119172
 10
104.7905029034899
 20
-151.2772433432571
 10
104.7905029034899
 20
-151.2772433432571
 10
104.5598537607524
 20
-151.2772433432571
 10
104.5598537607524
 20
-151.2772433432571
 10
104.3736463497746
 20
-151.2772433432571
 10
104.1874389387969
 20
-151.2817219673879
 10
104.0014037825934
 20
-151.2965358779745
 10
104.0014037825934
 20
-151.2965358779745
 10
104.0014037825934
 20
-151.076394276467
 10
104.0014037825934
 20
-151.076394276467
 10
104.1896782508623
 20
-151.0912081870536
 10
104.4752766665895
 20
-151.0953423016359
 10
104.5598537607524
 20
-151.0953423016359
 10
104.5598537607524
 20
-151.0953423016359
 10
105.1098632549725
 20
-151.0953423016359
 10
105.1098632549725
 20
-151.0953423016359
 10
105.1289835349157
 20
-151.0953423016359
 10
105.4462768291072
 20
-151.0953423016359
 10
105.6748589145535
 20
-151.076394276467
 10
105.6748589145535
 20
-151.076394276467
 10
105.6748589145535
 20
-151.2965358779745
 10
105.6748589145535
 20
-151.2965358779745
 10
105.4864121915103
 20
-151.2817219673879
 10
105.2981377232414
 20
-151.2772433432571
 10
105.1098632549725
 20
-151.2772433432571
 97
        0
 97
        1
330
11B
 75
     2
 76
     1
 98
        1
 10
0.0
 20
0.0
450
        0
451
        0
460
0.0
461
0.0
452
        0
462
0.0
453
        0
470

  0
SPLINE
  5
11D
330
10D
100
AcDbEntity
  8
レイヤー 1
100
AcDbSpline
210
0.0
220
0.0
230
1.0
 70
     9
 71
     3
 72
    29
 73
    25
 74
     0
 42
0.0000000001
 43
0.0000000001
 40
0.0
 40
0.0
 40
0.0
 40
0.0
 40
1.0
 40
1.0
 40
1.0
 40
2.0
 40
2.0
 40
2.0
 40
3.0
 40
3.0
 40
3.0
 40
4.0
 40
4.0
 40
4.0
 40
5.0
 40
5.0
 40
5.0
 40
6.0
 40
6.0
 40
6.0
 40
7.0
 40
7.0
 40
7.0
 40
8.0
 40
8.0
 40
8.0
 40
8.0
 10
106.9557454159694
 20
-151.4401963597094
 30
0.0
 10
106.9557454159694
 20
-151.4401963597094
 30
0.0
 10
106.4713649907433
 20
-151.4401963597094
 30
0.0
 10
106.4713649907433
 20
-151.4401963597094
 30
0.0
 10
106.4438042268613
 20
-151.4401963597094
 30
0.0
 10
106.1265109326697
 20
-151.4401963597094
 30
0.0
 10
105.9149820698754
 20
-151.4656900663002
 30
0.0
 10
105.9149820698754
 20
-151.4656900663002
 30
0.0
 10
105.9149820698754
 20
-151.2348686687885
 30
0.0
 10
105.9149820698754
 20
-151.2348686687885
 30
0.0
 10
106.0734564621969
 20
-151.2582953180882
 30
0.0
 10
106.2639702425312
 20
-151.2603623753794
 30
0.0
 10
106.4713649907433
 20
-151.2603623753794
 30
0.0
 10
106.4713649907433
 20
-151.2603623753794
 30
0.0
 10
106.9557454159694
 20
-151.2603623753794
 30
0.0
 10
106.9557454159694
 20
-151.2603623753794
 30
0.0
 10
107.1417805721729
 20
-151.2603623753794
 30
0.0
 10
107.3278157283763
 20
-151.2582953180882
 30
0.0
 10
107.5121283368372
 20
-151.2348686687885
 30
0.0
 10
107.5121283368372
 20
-151.2348686687885
 30
0.0
 10
107.5121283368372
 20
-151.4656900663002
 30
0.0
 10
107.5121283368372
 20
-151.4656900663002
 30
0.0
 10
107.3278157283763
 20
-151.4422634170005
 30
0.0
 10
107.0804578725354
 20
-151.4401963597094
 30
0.0
 10
106.9557454159694
 20
-151.4401963597094
 30
0.0
  0
HATCH
  5
11E
330
10D
100
AcDbEntity
  8
レイヤー 1
 62
    18
420
        0
440
 33554687
100
AcDbHatch
 10
0.0
 20
0.0
 30
0.0
210
0.0
220
0.0
230
1.0
  2
SOLID
 70
     1
 71
     1
 91
        1
 92
        1
 93
        1
 72
     4
 94
        3
 73
     0
 74
     0
 95
       29
 96
       25
 40
0.0
 40
0.0
 40
0.0
 40
0.0
 40
1.0
 40
1.0
 40
1.0
 40
2.0
 40
2.0
 40
2.0
 40
3.0
 40
3.0
 40
3.0
 40
4.0
 40
4.0
 40
4.0
 40
5.0
 40
5.0
 40
5.0
 40
6.0
 40
6.0
 40
6.0
 40
7.0
 40
7.0
 40
7.0
 40
8.0
 40
8.0
 40
8.0
 40
8.0
 10
106.9557454159694
 20
-151.4401963597094
 10
106.9557454159694
 20
-151.4401963597094
 10
106.4713649907433
 20
-151.4401963597094
 10
106.4713649907433
 20
-151.4401963597094
 10
106.4438042268613
 20
-151.4401963597094
 10
106.1265109326697
 20
-151.4401963597094
 10
105.9149820698754
 20
-151.4656900663002
 10
105.9149820698754
 20
-151.4656900663002
 10
105.9149820698754
 20
-151.2348686687885
 10
105.9149820698754
 20
-151.2348686687885
 10
106.0734564621969
 20
-151.2582953180882
 10
106.2639702425312
 20
-151.2603623753794
 10
106.4713649907433
 20
-151.2603623753794
 10
106.4713649907433
 20
-151.2603623753794
 10
106.9557454159694
 20
-151.2603623753794
 10
106.9557454159694
 20
-151.2603623753794
 10
107.1417805721729
 20
-151.2603623753794
 10
107.3278157283763
 20
-151.2582953180882
 10
107.5121283368372
 20
-151.2348686687885
 10
107.5121283368372
 20
-151.2348686687885
 10
107.5121283368372
 20
-151.4656900663002
 10
107.5121283368372
 20
-151.4656900663002
 10
107.3278157283763
 20
-151.4422634170005
 10
107.0804578725354
 20
-151.4401963597094
 10
106.9557454159694
 20
-151.4401963597094
 97
        0
 97
        1
330
11D
 75
     2
 76
     1
 98
        1
 10
0.0
 20
0.0
450
        0
451
        0
460
0.0
461
0.0
452
        0
462
0.0
453
        0
470

  0
SPLINE
  5
11F
330
10D
100
AcDbEntity
  8
レイヤー 1
100
AcDbSpline
210
0.0
220
0.0
230
1.0
 70
     9
 71
     3
 72
    47
 73
    43
 74
     0
 42
0.0000000001
 43
0.0000000001
 40
0.0
 40
0.0
 40
0.0
 40
0.0
 40
1.0
 40
1.0
 40
1.0
 40
2.0
 40
2.0
 40
2.0
 40
3.0
 40
3.0
 40
3.0
 40
4.0
 40
4.0
 40
4.0
 40
5.0
 40
5.0
 40
5.0
 40
6.0
 40
6.0
 40
6.0
 40
7.0
 40
7.0
 40
7.0
 40
8.0
 40
8.0
 40
8.0
 40
9.0
 40
9.0
 40
9.0
 40
10.0
 40
10.0
 40
10.0
 40
11.0
 40
11.0
 40
11.0
 40
12.0
 40
12.0
 40
12.0
 40
13.0
 40
13.0
 40
13.0
 40
14.0
 40
14.0
 40
14.0
 40
14.0
 10
109.1757649466644
 20
-150.8459173885038
 30
0.0
 10
109.1061740178623
 20
-151.124970122809
 30
0.0
 10
109.0296928980898
 20
-151.4295165637051
 30
0.0
 10
108.7168782280291
 20
-151.7616237684832
 30
0.0
 10
108.4798556586439
 20
-152.0113931911638
 30
0.0
 10
108.2345648600941
 20
-152.1109564506875
 30
0.0
 10
108.1288004286969
 20
-152.1529866156076
 30
0.0
 10
108.1288004286969
 20
-152.1529866156076
 30
0.0
 10
107.9341525337803
 20
-151.9710855739864
 30
0.0
 10
107.9341525337803
 20
-151.9710855739864
 30
0.0
 10
108.1201876899838
 20
-151.9245767849355
 30
0.0
 10
108.4819227159351
 20
-151.8315592068338
 30
0.0
 10
108.7782009276665
 20
-151.3364989856034
 30
0.0
 10
108.9387423772792
 20
-151.069848595045
 30
0.0
 10
108.9514892305746
 20
-150.8965602921369
 30
0.0
 10
108.9601019692877
 20
-150.8056097713263
 30
0.0
 10
108.9601019692877
 20
-150.8056097713263
 30
0.0
 10
108.454361952053
 20
-150.8056097713263
 30
0.0
 10
108.454361952053
 20
-150.8056097713263
 30
0.0
 10
108.3358506673605
 20
-150.8056097713263
 30
0.0
 10
107.9148599990629
 20
-150.8245577964953
 30
0.0
 10
107.7625867786149
 20
-150.8352375924995
 30
0.0
 10
107.7625867786149
 20
-150.8352375924995
 30
0.0
 10
107.7625867786149
 20
-150.6257757869963
 30
0.0
 10
107.7625867786149
 20
-150.6257757869963
 30
0.0
 10
107.9045247126072
 20
-150.6385226402917
 30
0.0
 10
108.1815103896213
 20
-150.642656754874
 30
0.0
 10
108.2979546170227
 20
-150.642656754874
 30
0.0
 10
108.2979546170227
 20
-150.642656754874
 30
0.0
 10
108.653143961552
 20
-150.642656754874
 30
0.0
 10
108.653143961552
 20
-150.642656754874
 30
0.0
 10
108.680704725434
 20
-150.642656754874
 30
0.0
 10
108.8415906845951
 20
-150.6405896975829
 30
0.0
 10
108.9514892305746
 20
-150.6257757869963
 30
0.0
 10
109.0086778156297
 20
-150.6195746151229
 30
0.0
 10
109.0255587835075
 20
-150.6002820804055
 30
0.0
 10
109.0489854328072
 20
-150.5771999406543
 30
0.0
 10
109.0489854328072
 20
-150.5771999406543
 30
0.0
 10
109.2370876463018
 20
-150.7274061038112
 30
0.0
 10
109.2370876463018
 20
-150.7274061038112
 30
0.0
 10
109.2222737357152
 20
-150.7570339249843
 30
0.0
 10
109.2119384492595
 20
-150.7759819501532
 30
0.0
 10
109.1757649466644
 20
-150.8459173885038
 30
0.0
  0
HATCH
  5
120
330
10D
100
AcDbEntity
  8
レイヤー 1
 62
    18
420
        0
440
 33554687
100
AcDbHatch
 10
0.0
 20
0.0
 30
0.0
210
0.0
220
0.0
230
1.0
  2
SOLID
 70
     1
 71
     1
 91
        1
 92
        1
 93
        1
 72
     4
 94
        3
 73
     0
 74
     0
 95
       47
 96
       43
 40
0.0
 40
0.0
 40
0.0
 40
0.0
 40
1.0
 40
1.0
 40
1.0
 40
2.0
 40
2.0
 40
2.0
 40
3.0
 40
3.0
 40
3.0
 40
4.0
 40
4.0
 40
4.0
 40
5.0
 40
5.0
 40
5.0
 40
6.0
 40
6.0
 40
6.0
 40
7.0
 40
7.0
 40
7.0
 40
8.0
 40
8.0
 40
8.0
 40
9.0
 40
9.0
 40
9.0
 40
10.0
 40
10.0
 40
10.0
 40
11.0
 40
11.0
 40
11.0
 40
12.0
 40
12.0
 40
12.0
 40
13.0
 40
13.0
 40
13.0
 40
14.0
 40
14.0
 40
14.0
 40
14.0
 10
109.1757649466644
 20
-150.8459173885038
 10
109.1061740178623
 20
-151.124970122809
 10
109.0296928980898
 20
-151.4295165637051
 10
108.7168782280291
 20
-151.7616237684832
 10
108.4798556586439
 20
-152.0113931911638
 10
108.2345648600941
 20
-152.1109564506875
 10
108.1288004286969
 20
-152.1529866156076
 10
108.1288004286969
 20
-152.1529866156076
 10
107.9341525337803
 20
-151.9710855739864
 10
107.9341525337803
 20
-151.9710855739864
 10
108.1201876899838
 20
-151.9245767849355
 10
108.4819227159351
 20
-151.8315592068338
 10
108.7782009276665
 20
-151.3364989856034
 10
108.9387423772792
 20
-151.069848595045
 10
108.9514892305746
 20
-150.8965602921369
 10
108.9601019692877
 20
-150.8056097713263
 10
108.9601019692877
 20
-150.8056097713263
 10
108.454361952053
 20
-150.8056097713263
 10
108.454361952053
 20
-150.8056097713263
 10
108.3358506673605
 20
-150.8056097713263
 10
107.9148599990629
 20
-150.8245577964953
 10
107.7625867786149
 20
-150.8352375924995
 10
107.7625867786149
 20
-150.8352375924995
 10
107.7625867786149
 20
-150.6257757869963
 10
107.7625867786149
 20
-150.6257757869963
 10
107.9045247126072
 20
-150.6385226402917
 10
108.1815103896213
 20
-150.642656754874
 10
108.2979546170227
 20
-150.642656754874
 10
108.2979546170227
 20
-150.642656754874
 10
108.653143961552
 20
-150.642656754874
 10
108.653143961552
 20
-150.642656754874
 10
108.680704725434
 20
-150.642656754874
 10
108.8415906845951
 20
-150.6405896975829
 10
108.9514892305746
 20
-150.6257757869963
 10
109.0086778156297
 20
-150.6195746151229
 10
109.0255587835075
 20
-150.6002820804055
 10
109.0489854328072
 20
-150.5771999406543
 10
109.0489854328072
 20
-150.5771999406543
 10
109.2370876463018
 20
-150.7274061038112
 10
109.2370876463018
 20
-150.7274061038112
 10
109.2222737357152
 20
-150.7570339249843
 10
109.2119384492595
 20
-150.7759819501532
 10
109.1757649466644
 20
-150.8459173885038
 97
        0
 97
        1
330
11F
 75
     2
 76
     1
 98
        1
 10
0.0
 20
0.0
450
        0
451
        0
460
0.0
461
0.0
452
        0
462
0.0
453
        0
470

  0
SPLINE
  5
121
330
10D
100
AcDbEntity
  8
レイヤー 1
100
AcDbSpline
210
0.0
220
0.0
230
1.0
 70
    11
 71
     3
 72
    17
 73
    13
 74
     0
 42
0.0000000001
 43
0.0000000001
 40
0.0
 40
0.0
 40
0.0
 40
0.0
 40
1.0
 40
1.0
 40
1.0
 40
2.0
 40
2.0
 40
2.0
 40
3.0
 40
3.0
 40
3.0
 40
4.0
 40
4.0
 40
4.0
 40
4.0
 10
109.5660942651432
 20
-150.6278428442875
 30
0.0
 10
109.5660942651432
 20
-150.6870984866338
 30
0.0
 10
109.6126030541941
 20
-150.7336072756846
 30
0.0
 10
109.6718586965403
 20
-150.7336072756846
 30
0.0
 10
109.7311143388866
 20
-150.7336072756846
 30
0.0
 10
109.7796901852287
 20
-150.6870984866338
 30
0.0
 10
109.7796901852287
 20
-150.6278428442875
 30
0.0
 10
109.7796901852287
 20
-150.5685872019412
 30
0.0
 10
109.7311143388866
 20
-150.5200113555991
 30
0.0
 10
109.6718586965403
 20
-150.5200113555991
 30
0.0
 10
109.6126030541941
 20
-150.5200113555991
 30
0.0
 10
109.5660942651432
 20
-150.5685872019412
 30
0.0
 10
109.5660942651432
 20
-150.6278428442875
 30
0.0
  0
SPLINE
  5
122
330
10D
100
AcDbEntity
  8
レイヤー 1
100
AcDbSpline
210
0.0
220
0.0
230
1.0
 70
     9
 71
     3
 72
    17
 73
    13
 74
     0
 42
0.0000000001
 43
0.0000000001
 40
0.0
 40
0.0
 40
0.0
 40
0.0
 40
1.0
 40
1.0
 40
1.0
 40
2.0
 40
2.0
 40
2.0
 40
3.0
 40
3.0
 40
3.0
 40
4.0
 40
4.0
 40
4.0
 40
4.0
 10
109.8813205020436
 20
-150.6278428442875
 30
0.0
 10
109.8813205020436
 20
-150.7422200143978
 30
0.0
 10
109.7883029239418
 20
-150.8373046497906
 30
0.0
 10
109.6718586965403
 20
-150.8373046497906
 30
0.0
 10
109.5574815264301
 20
-150.8373046497906
 30
0.0
 10
109.4623968910372
 20
-150.7422200143978
 30
0.0
 10
109.4623968910372
 20
-150.6278428442875
 30
0.0
 10
109.4623968910372
 20
-150.511398616886
 30
0.0
 10
109.5574815264301
 20
-150.4183810387843
 30
0.0
 10
109.6718586965403
 20
-150.4183810387843
 30
0.0
 10
109.7862358666507
 20
-150.4183810387843
 30
0.0
 10
109.8813205020436
 20
-150.511398616886
 30
0.0
 10
109.8813205020436
 20
-150.6278428442875
 30
0.0
  0
HATCH
  5
123
330
10D
100
AcDbEntity
  8
レイヤー 1
 62
    18
420
        0
440
 33554687
100
AcDbHatch
 10
0.0
 20
0.0
 30
0.0
210
0.0
220
0.0
230
1.0
  2
SOLID
 70
     1
 71
     1
 91
        2
 92
        1
 93
        1
 72
     4
 94
        3
 73
     0
 74
     0
 95
       17
 96
       13
 40
0.0
 40
0.0
 40
0.0
 40
0.0
 40
1.0
 40
1.0
 40
1.0
 40
2.0
 40
2.0
 40
2.0
 40
3.0
 40
3.0
 40
3.0
 40
4.0
 40
4.0
 40
4.0
 40
4.0
 10
109.5660942651432
 20
-150.6278428442875
 10
109.5660942651432
 20
-150.6870984866338
 10
109.6126030541941
 20
-150.7336072756846
 10
109.6718586965403
 20
-150.7336072756846
 10
109.7311143388866
 20
-150.7336072756846
 10
109.7796901852287
 20
-150.6870984866338
 10
109.7796901852287
 20
-150.6278428442875
 10
109.7796901852287
 20
-150.5685872019412
 10
109.7311143388866
 20
-150.5200113555991
 10
109.6718586965403
 20
-150.5200113555991
 10
109.6126030541941
 20
-150.5200113555991
 10
109.5660942651432
 20
-150.5685872019412
 10
109.5660942651432
 20
-150.6278428442875
 97
        0
 97
        1
330
121
 92
        1
 93
        1
 72
     4
 94
        3
 73
     0
 74
     0
 95
       17
 96
       13
 40
0.0
 40
0.0
 40
0.0
 40
0.0
 40
1.0
 40
1.0
 40
1.0
 40
2.0
 40
2.0
 40
2.0
 40
3.0
 40
3.0
 40
3.0
 40
4.0
 40
4.0
 40
4.0
 40
4.0
 10
109.8813205020436
 20
-150.6278428442875
 10
109.8813205020436
 20
-150.7422200143978
 10
109.7883029239418
 20
-150.8373046497906
 10
109.6718586965403
 20
-150.8373046497906
 10
109.5574815264301
 20
-150.8373046497906
 10
109.4623968910372
 20
-150.7422200143978
 10
109.4623968910372
 20
-150.6278428442875
 10
109.4623968910372
 20
-150.511398616886
 10
109.5574815264301
 20
-150.4183810387843
 10
109.6718586965403
 20
-150.4183810387843
 10
109.7862358666507
 20
-150.4183810387843
 10
109.8813205020436
 20
-150.511398616886
 10
109.8813205020436
 20
-150.6278428442875
 97
        0
 97
        1
330
122
 75
     2
 76
     1
 98
        1
 10
0.0
 20
0.0
450
        0
451
        0
460
0.0
461
0.0
452
        0
462
0.0
453
        0
470

  0
ENDBLK
  5
110
330
10D
100
AcDbEntity
  8
0
100
AcDbBlockEnd
  0
ENDSEC
  0
SECTION
  2
ENTITIES
  0
INSERT
  5
7A
330
70
100
AcDbEntity
  8
レイヤー 1
100
AcDbBlockReference
  2
Block_0
 10
0.0
 20
0.0
 30
0.0
  0
ENDSEC
  0
SECTION
  2
OBJECTS
  0
DICTIONARY
  5
C
330
0
100
AcDbDictionary
281
     1
  3
ACAD_COLOR
350
63
  3
ACAD_DETAILVIEWSTYLE
350
6A
  3
ACAD_GROUP
350
D
  3
ACAD_LAYOUT
350
62
  3
ACAD_MATERIAL
350
10
  3
ACAD_MLEADERSTYLE
350
66
  3
ACAD_MLINESTYLE
350
5F
  3
ACAD_PLOTSETTINGS
350
61
  3
ACAD_PLOTSTYLENAME
350
E
  3
ACAD_SCALELIST
350
42
  3
ACAD_SECTIONVIEWSTYLE
350
68
  3
ACAD_TABLESTYLE
350
64
  3
ACAD_VISUALSTYLE
350
29
  3
ACDB_RECOMPOSE_DATA
350
12C
  3
AcDbVariableDictionary
350
124
  0
DICTIONARY
  5
63
102
{ACAD_REACTORS
330
C
102
}
330
C
100
AcDbDictionary
281
     1
  0
DICTIONARY
  5
6A
102
{ACAD_REACTORS
330
C
102
}
330
C
100
AcDbDictionary
281
     1
  3
Imperial24
350
6B
  0
DICTIONARY
  5
D
102
{ACAD_REACTORS
330
C
102
}
330
C
100
AcDbDictionary
281
     1
  0
DICTIONARY
  5
62
102
{ACAD_REACTORS
330
C
102
}
330
C
100
AcDbDictionary
281
     1
  3
Layout1
350
6F
  3
Layout2
350
77
  3
Model
350
73
  0
DICTIONARY
  5
10
102
{ACAD_REACTORS
330
C
102
}
330
C
100
AcDbDictionary
281
     1
  3
ByBlock
350
19
  3
ByLayer
350
11
  3
Global
350
21
  0
DICTIONARY
  5
66
102
{ACAD_REACTORS
330
C
102
}
330
C
100
AcDbDictionary
281
     1
  3
Standard
350
67
  0
DICTIONARY
  5
5F
102
{ACAD_REACTORS
330
C
102
}
330
C
100
AcDbDictionary
281
     1
  3
Standard
350
60
  0
DICTIONARY
  5
61
102
{ACAD_REACTORS
330
C
102
}
330
C
100
AcDbDictionary
281
     1
  0
ACDBDICTIONARYWDFLT
  5
E
102
{ACAD_REACTORS
330
C
102
}
330
C
100
AcDbDictionary
281
     1
  3
Normal
350
F
100
AcDbDictionaryWithDefault
340
F
  0
DICTIONARY
  5
42
102
{ACAD_REACTORS
330
C
102
}
330
C
100
AcDbDictionary
281
     1
  3
A0
350
43
  3
A1
350
44
  3
A2
350
45
  3
A3
350
46
  3
A4
350
47
  3
A5
350
48
  3
A6
350
49
  3
A7
350
4A
  3
A8
350
4B
  3
A9
350
4C
  3
B0
350
4D
  3
B1
350
4E
  3
B2
350
4F
  3
B3
350
50
  3
B4
350
51
  3
B5
350
52
  3
B6
350
53
  0
DICTIONARY
  5
68
102
{ACAD_REACTORS
330
C
102
}
330
C
100
AcDbDictionary
281
     1
  3
Imperial24
350
69
  0
DICTIONARY
  5
64
102
{ACAD_REACTORS
330
C
102
}
330
C
100
AcDbDictionary
281
     1
  3
Standard
350
65
  0
DICTIONARY
  5
29
102
{ACAD_REACTORS
330
C
102
}
330
C
100
AcDbDictionary
281
     1
  3
2dWireframe
350
2F
  3
Basic
350
2E
  3
Brighten
350
35
  3
ColorChange
350
39
  3
Conceptual
350
32
  3
Dim
350
34
  3
EdgeColorOff
350
41
  3
Facepattern
350
38
  3
Flat
350
2A
  3
FlatWithEdges
350
2B
  3
Gouraud
350
2C
  3
GouraudWithEdges
350
2D
  3
Hidden
350
31
  3
JitterOff
350
3F
  3
Linepattern
350
37
  3
OverhangOff
350
40
  3
Realistic
350
33
  3
Shaded
350
3E
  3
Shaded with edges
350
3D
  3
Shades of Gray
350
3A
  3
Sketchy
350
3B
  3
Thicken
350
36
  3
Wireframe
350
30
  3
X-Ray
350
3C
  0
XRECORD
  5
12C
102
{ACAD_REACTORS
330
C
102
}
330
C
100
AcDbXrecord
280
     1
 90
        1
330
65
  0
DICTIONARY
  5
124
102
{ACAD_REACTORS
330
C
102
}
330
C
100
AcDbDictionary
281
     1
  3
CANNOSCALE
350
129
  3
CMLEADERSTYLE
350
126
  3
CTABLESTYLE
350
125
  3
CVIEWDETAILSTYLE
350
127
  3
CVIEWSECTIONSTYLE
350
128
  0
ACDBDETAILVIEWSTYLE
  5
6B
102
{ACAD_XDICTIONARY
360
161
102
}
102
{ACAD_REACTORS
330
6A
102
}
330
6A
100
AcDbModelDocViewStyle
 70
     0
  3
Imperial24
290
     0
100
AcDbDetailViewStyle
 70
     0
 71
     0
 90
        3
 71
     1
340
55
 62
   256
 40
0.24
340
0
 62
   256
 40
0.24
300

 40
0.36
280
     3
 71
     2
340
5D
 90
       25
 62
   256
 71
     3
340
55
 62
   256
 40
0.24
 90
        1
 40
0.75
 90
        1
300
%<\AcVar ViewType \f "%tc1">% %<\AcVar ViewDetailId>%\PSCALE %<\AcVar ViewScale \f "%sn">%
 71
     4
340
5D
 90
       25
 62
   256
340
5D
 90
       25
 62
   256
280
     0
  0
LAYOUT
  5
6F
102
{ACAD_REACTORS
330
62
102
}
330
62
100
AcDbPlotSettings
  1

  2

  4

  6

 40
0.0
 41
0.0
 42
0.0
 43
0.0
 44
0.0
 45
0.0
 46
0.0
 47
0.0
 48
0.0
 49
0.0
140
0.0
141
0.0
142
1.0
143
1.0
 70
   688
 72
     0
 73
     0
 74
     5
  7

 75
    16
147
1.0
 76
     0
 77
     2
 78
   300
148
0.0
149
0.0
100
AcDbLayout
  1
Layout1
 70
     1
 71
     1
 10
0.0
 20
0.0
 11
12.0
 21
9.0
 12
0.0
 22
0.0
 32
0.0
 14
0.0
 24
0.0
 34
0.0
 15
0.0
 25
0.0
 35
0.0
146
0.0
 13
0.0
 23
0.0
 33
0.0
 16
1.0
 26
0.0
 36
0.0
 17
0.0
 27
1.0
 37
0.0
 76
     0
330
6C
  0
LAYOUT
  5
77
102
{ACAD_REACTORS
330
62
102
}
330
62
100
AcDbPlotSettings
  1

  2

  4

  6

 40
0.0
 41
0.0
 42
0.0
 43
0.0
 44
0.0
 45
0.0
 46
0.0
 47
0.0
 48
0.0
 49
0.0
140
0.0
141
0.0
142
1.0
143
1.0
 70
   688
 72
     0
 73
     0
 74
     5
  7

 75
    16
147
1.0
 76
     0
 77
     2
 78
   300
148
0.0
149
0.0
100
AcDbLayout
  1
Layout2
 70
     1
 71
     2
 10
0.0
 20
0.0
 11
12.0
 21
9.0
 12
0.0
 22
0.0
 32
0.0
 14
0.0
 24
0.0
 34
0.0
 15
0.0
 25
0.0
 35
0.0
146
0.0
 13
0.0
 23
0.0
 33
0.0
 16
1.0
 26
0.0
 36
0.0
 17
0.0
 27
1.0
 37
0.0
 76
     0
330
74
  0
LAYOUT
  5
73
102
{ACAD_REACTORS
330
62
102
}
330
62
100
AcDbPlotSettings
  1

  2

  4

  6

 40
0.0
 41
0.0
 42
0.0
 43
0.0
 44
0.0
 45
0.0
 46
0.0
 47
0.0
 48
0.0
 49
0.0
140
0.0
141
0.0
142
1.0
143
1.0
 70
  1712
 72
     0
 73
     0
 74
     0
  7

 75
     0
147
1.0
 76
     0
 77
     2
 78
   300
148
0.0
149
0.0
100
AcDbLayout
  1
Model
 70
     1
 71
     0
 10
0.0
 20
0.0
 11
12.0
 21
9.0
 12
0.0
 22
0.0
 32
0.0
 14
0.0
 24
0.0
 34
0.0
 15
0.0
 25
0.0
 35
0.0
146
0.0
 13
0.0
 23
0.0
 33
0.0
 16
1.0
 26
0.0
 36
0.0
 17
0.0
 27
1.0
 37
0.0
 76
     0
330
70
  0
MATERIAL
  5
19
102
{ACAD_XDICTIONARY
360
1A
102
}
102
{ACAD_REACTORS
330
10
102
}
330
10
100
AcDbMaterial
  1
ByBlock
 72
     0
 43
0.0208333333333333
 43
0.0
 43
0.0
 43
0.0
 43
0.0
 43
0.0208333333333333
 43
0.0
 43
0.0
 43
0.0
 43
0.0
 43
1.0
 43
0.0
 43
0.0
 43
0.0
 43
0.0
 43
1.0
 77
     0
 47
0.0208333333333333
 47
0.0
 47
0.0
 47
0.0
 47
0.0
 47
0.0208333333333333
 47
0.0
 47
0.0
 47
0.0
 47
0.0
 47
1.0
 47
0.0
 47
0.0
 47
0.0
 47
0.0
 47
1.0
171
     0
 49
0.0208333333333333
 49
0.0
 49
0.0
 49
0.0
 49
0.0
 49
0.0208333333333333
 49
0.0
 49
0.0
 49
0.0
 49
0.0
 49
1.0
 49
0.0
 49
0.0
 49
0.0
 49
0.0
 49
1.0
175
     0
142
0.0208333333333333
142
0.0
142
0.0
142
0.0
142
0.0
142
0.0208333333333333
142
0.0
142
0.0
142
0.0
142
0.0
142
1.0
142
0.0
142
0.0
142
0.0
142
0.0
142
1.0
179
     0
144
0.0208333333333333
144
0.0
144
0.0
144
0.0
144
0.0
144
0.0208333333333333
144
0.0
144
0.0
144
0.0
144
0.0
144
1.0
144
0.0
144
0.0
144
0.0
144
0.0
144
1.0
147
0.0208333333333333
147
0.0
147
0.0
147
0.0
147
0.0
147
0.0208333333333333
147
0.0
147
0.0
147
0.0
147
0.0
147
1.0
147
0.0
147
0.0
147
0.0
147
0.0
147
1.0
  0
MATERIAL
  5
11
102
{ACAD_XDICTIONARY
360
12
102
}
102
{ACAD_REACTORS
330
10
102
}
330
10
100
AcDbMaterial
  1
ByLayer
 72
     0
 43
0.0208333333333333
 43
0.0
 43
0.0
 43
0.0
 43
0.0
 43
0.0208333333333333
 43
0.0
 43
0.0
 43
0.0
 43
0.0
 43
1.0
 43
0.0
 43
0.0
 43
0.0
 43
0.0
 43
1.0
 77
     0
 47
0.0208333333333333
 47
0.0
 47
0.0
 47
0.0
 47
0.0
 47
0.0208333333333333
 47
0.0
 47
0.0
 47
0.0
 47
0.0
 47
1.0
 47
0.0
 47
0.0
 47
0.0
 47
0.0
 47
1.0
171
     0
 49
0.0208333333333333
 49
0.0
 49
0.0
 49
0.0
 49
0.0
 49
0.0208333333333333
 49
0.0
 49
0.0
 49
0.0
 49
0.0
 49
1.0
 49
0.0
 49
0.0
 49
0.0
 49
0.0
 49
1.0
175
     0
142
0.0208333333333333
142
0.0
142
0.0
142
0.0
142
0.0
142
0.0208333333333333
142
0.0
142
0.0
142
0.0
142
0.0
142
1.0
142
0.0
142
0.0
142
0.0
142
0.0
142
1.0
179
     0
144
0.0208333333333333
144
0.0
144
0.0
144
0.0
144
0.0
144
0.0208333333333333
144
0.0
144
0.0
144
0.0
144
0.0
144
1.0
144
0.0
144
0.0
144
0.0
144
0.0
144
1.0
147
0.0208333333333333
147
0.0
147
0.0
147
0.0
147
0.0
147
0.0208333333333333
147
0.0
147
0.0
147
0.0
147
0.0
147
1.0
147
0.0
147
0.0
147
0.0
147
0.0
147
1.0
  0
MATERIAL
  5
21
102
{ACAD_XDICTIONARY
360
22
102
}
102
{ACAD_REACTORS
330
10
102
}
330
10
100
AcDbMaterial
  1
Global
 72
     0
 43
0.0208333333333333
 43
0.0
 43
0.0
 43
0.0
 43
0.0
 43
0.0208333333333333
 43
0.0
 43
0.0
 43
0.0
 43
0.0
 43
1.0
 43
0.0
 43
0.0
 43
0.0
 43
0.0
 43
1.0
 77
     0
 47
0.0208333333333333
 47
0.0
 47
0.0
 47
0.0
 47
0.0
 47
0.0208333333333333
 47
0.0
 47
0.0
 47
0.0
 47
0.0
 47
1.0
 47
0.0
 47
0.0
 47
0.0
 47
0.0
 47
1.0
171
     0
 49
0.0208333333333333
 49
0.0
 49
0.0
 49
0.0
 49
0.0
 49
0.0208333333333333
 49
0.0
 49
0.0
 49
0.0
 49
0.0
 49
1.0
 49
0.0
 49
0.0
 49
0.0
 49
0.0
 49
1.0
175
     0
142
0.0208333333333333
142
0.0
142
0.0
142
0.0
142
0.0
142
0.0208333333333333
142
0.0
142
0.0
142
0.0
142
0.0
142
1.0
142
0.0
142
0.0
142
0.0
142
0.0
142
1.0
179
     0
144
0.0208333333333333
144
0.0
144
0.0
144
0.0
144
0.0
144
0.0208333333333333
144
0.0
144
0.0
144
0.0
144
0.0
144
1.0
144
0.0
144
0.0
144
0.0
144
0.0
144
1.0
147
0.0208333333333333
147
0.0
147
0.0
147
0.0
147
0.0
147
0.0208333333333333
147
0.0
147
0.0
147
0.0
147
0.0
147
1.0
147
0.0
147
0.0
147
0.0
147
0.0
147
1.0
  0
MLEADERSTYLE
  5
67
102
{ACAD_XDICTIONARY
360
15D
102
}
102
{ACAD_REACTORS
330
66
102
}
330
66
100
AcDbMLeaderStyle
179
     2
170
     2
171
     1
172
     0
 90
        2
 40
0.0
 41
0.0
173
     1
 91
-1056964608
340
5B
 92
       -2
290
     1
 42
0.09
291
     1
 43
0.36
  3
Standard
 44
0.18
300

342
55
174
     1
178
     6
175
     1
176
     0
 93
-1056964608
 45
0.18
292
     0
297
     0
 46
0.18
 94
-1056964608
 47
1.0
 49
1.0
140
1.0
293
     1
141
0.0
294
     1
177
     0
142
1.0
295
     0
296
     0
143
0.125
271
     0
272
     9
273
     9
  0
MLINESTYLE
  5
60
102
{ACAD_REACTORS
330
5F
102
}
330
5F
100
AcDbMlineStyle
  2
STANDARD
 70
     0
  3

 62
   256
 51
90.0
 52
90.0
 71
     2
 49
0.5
 62
   256
  6
BYLAYER
 49
-0.5
 62
   256
  6
BYLAYER
  0
ACDBPLACEHOLDER
  5
F
102
{ACAD_REACTORS
330
E
102
}
330
E
  0
SCALE
  5
43
102
{ACAD_REACTORS
330
42
102
}
330
42
100
AcDbScale
 70
     0
300
1:1
140
1.0
141
1.0
290
     1
  0
SCALE
  5
44
102
{ACAD_REACTORS
330
42
102
}
330
42
100
AcDbScale
 70
     0
300
1/128" = 1'-0"
140
0.0078125
141
12.0
290
     0
  0
SCALE
  5
45
102
{ACAD_REACTORS
330
42
102
}
330
42
100
AcDbScale
 70
     0
300
1/64" = 1'-0"
140
0.015625
141
12.0
290
     0
  0
SCALE
  5
46
102
{ACAD_REACTORS
330
42
102
}
330
42
100
AcDbScale
 70
     0
300
1/32" = 1'-0"
140
0.03125
141
12.0
290
     0
  0
SCALE
  5
47
102
{ACAD_REACTORS
330
42
102
}
330
42
100
AcDbScale
 70
     0
300
1/16" = 1'-0"
140
0.0625
141
12.0
290
     0
  0
SCALE
  5
48
102
{ACAD_REACTORS
330
42
102
}
330
42
100
AcDbScale
 70
     0
300
3/32" = 1'-0"
140
0.09375
141
12.0
290
     0
  0
SCALE
  5
49
102
{ACAD_REACTORS
330
42
102
}
330
42
100
AcDbScale
 70
     0
300
1/8" = 1'-0"
140
0.125
141
12.0
290
     0
  0
SCALE
  5
4A
102
{ACAD_REACTORS
330
42
102
}
330
42
100
AcDbScale
 70
     0
300
3/16" = 1'-0"
140
0.1875
141
12.0
290
     0
  0
SCALE
  5
4B
102
{ACAD_REACTORS
330
42
102
}
330
42
100
AcDbScale
 70
     0
300
1/4" = 1'-0"
140
0.25
141
12.0
290
     0
  0
SCALE
  5
4C
102
{ACAD_REACTORS
330
42
102
}
330
42
100
AcDbScale
 70
     0
300
3/8" = 1'-0"
140
0.375
141
12.0
290
     0
  0
SCALE
  5
4D
102
{ACAD_REACTORS
330
42
102
}
330
42
100
AcDbScale
 70
     0
300
1/2" = 1'-0"
140
0.5
141
12.0
290
     0
  0
SCALE
  5
4E
102
{ACAD_REACTORS
330
42
102
}
330
42
100
AcDbScale
 70
     0
300
3/4" = 1'-0"
140
0.75
141
12.0
290
     0
  0
SCALE
  5
4F
102
{ACAD_REACTORS
330
42
102
}
330
42
100
AcDbScale
 70
     0
300
1" = 1'-0"
140
1.0
141
12.0
290
     0
  0
SCALE
  5
50
102
{ACAD_REACTORS
330
42
102
}
330
42
100
AcDbScale
 70
     0
300
1-1/2" = 1'-0"
140
1.5
141
12.0
290
     0
  0
SCALE
  5
51
102
{ACAD_REACTORS
330
42
102
}
330
42
100
AcDbScale
 70
     0
300
3" = 1'-0"
140
3.0
141
12.0
290
     0
  0
SCALE
  5
52
102
{ACAD_REACTORS
330
42
102
}
330
42
100
AcDbScale
 70
     0
300
6" = 1'-0"
140
6.0
141
12.0
290
     0
  0
SCALE
  5
53
102
{ACAD_REACTORS
330
42
102
}
330
42
100
AcDbScale
 70
     0
300
1'-0" = 1'-0"
140
12.0
141
12.0
290
     0
  0
ACDBSECTIONVIEWSTYLE
  5
69
102
{ACAD_XDICTIONARY
360
15F
102
}
102
{ACAD_REACTORS
330
68
102
}
330
68
100
AcDbModelDocViewStyle
 70
     0
  3
Imperial24
290
     0
100
AcDbSectionViewStyle
 70
     0
 71
     0
 90
       78
 71
     1
340
55
 62
   256
 40
0.24
340
0
340
0
 62
   256
 40
0.24
300
I, O, Q, S, X, Z
 40
0.48
 90
        3
 40
0.18
 90
        1
 71
     2
340
5D
 90
       25
 62
   256
340
5D
 90
       50
 62
   256
 40
0.24
 40
0.0
 40
0.24
 71
     3
340
55
 62
   256
 40
0.24
 90
        1
 40
0.75
 90
        1
300
%<\AcVar ViewType \f "%tc1">% %<\AcVar ViewSectionStartId>%-%<\AcVar ViewSectionEndId>%\PSCALE %<\AcVar ViewScale \f "%sn">%
 71
     4
 62
   256
 62
   257
300
ANSI31
 40
1.0
 90
        0
290
     0
290
     0
 90
        6
 40
0.0
 40
1.570796326794896
 40
0.2617993877991494
 40
1.308996938995747
 40
-0.2617993877991494
 40
1.832595714594046
  0
TABLESTYLE
  5
65
102
{ACAD_XDICTIONARY
360
12A
102
}
102
{ACAD_REACTORS
330
64
102
}
330
64
100
AcDbTableStyle
280
     0
  3
Standard
 70
     0
 71
     0
 40
0.06
 41
0.06
280
     0
281
     0
  7
Standard
140
0.18
170
     2
 62
     0
 63
     7
283
     0
 90
      512
 91
        0
  1

274
    -2
284
     1
 64
     0
275
    -2
285
     1
 65
     0
276
    -2
286
     1
 66
     0
277
    -2
287
     1
 67
     0
278
    -2
288
     1
 68
     0
279
    -2
289
     1
 69
     0
  7
Standard
140
0.25
170
     5
 62
     0
 63
     7
283
     0
 90
      512
 91
        0
  1

274
    -2
284
     1
 64
     0
275
    -2
285
     1
 65
     0
276
    -2
286
     1
 66
     0
277
    -2
287
     1
 67
     0
278
    -2
288
     1
 68
     0
279
    -2
289
     1
 69
     0
  7
Standard
140
0.18
170
     5
 62
     0
 63
     7
283
     0
 90
      512
 91
        0
  1

274
    -2
284
     1
 64
     0
275
    -2
285
     1
 65
     0
276
    -2
286
     1
 66
     0
277
    -2
287
     1
 67
     0
278
    -2
288
     1
 68
     0
279
    -2
289
     1
 69
     0
  0
VISUALSTYLE
  5
2F
102
{ACAD_XDICTIONARY
360
137
102
}
102
{ACAD_REACTORS
330
29
102
}
330
29
100
AcDbVisualStyle
  2
2dWireframe
 70
     4
177
     2
291
     0
 71
     0
176
     1
 72
     2
176
     1
 73
     0
176
     1
 90
        0
176
     1
 40
0.6
176
     1
 41
30.0
176
     1
 63
     7
421
 16777215
176
     1
 74
     1
176
     1
 91
        4
176
     1
 64
     7
176
     1
 65
   257
176
     1
 75
     1
176
     1
175
     1
176
     1
 42
1.0
176
     1
 92
        0
176
     1
 66
   257
176
     1
 43
1.0
176
     1
 76
     1
176
     1
 77
     6
176
     1
 78
     2
176
     1
 67
     7
176
     1
 79
     5
176
     1
170
     0
176
     1
171
     0
176
     1
290
     0
176
     1
 93
        1
176
     1
 44
0.0
176
     1
173
     0
176
     1
1001
ACAD
1000
AcDbSavedByObjectVersion
1070
     0
  0
VISUALSTYLE
  5
2E
102
{ACAD_XDICTIONARY
360
135
102
}
102
{ACAD_REACTORS
330
29
102
}
330
29
100
AcDbVisualStyle
  2
Basic
 70
     7
177
     2
291
     1
 71
     1
176
     1
 72
     0
176
     1
 73
     1
176
     1
 90
        0
176
     1
 40
0.6
176
     1
 41
30.0
176
     1
 63
     7
421
 16777215
176
     1
 74
     0
176
     1
 91
        4
176
     1
 64
     7
176
     1
 65
   257
176
     1
 75
     1
176
     1
175
     1
176
     1
 42
1.0
176
     1
 92
        8
176
     1
 66
     7
176
     1
 43
1.0
176
     1
 76
     1
176
     1
 77
     6
176
     1
 78
     2
176
     1
 67
     7
176
     1
 79
     5
176
     1
170
     0
176
     1
171
     0
176
     1
290
     0
176
     1
 93
        1
176
     1
 44
0.0
176
     1
173
     0
176
     1
1001
ACAD
1000
AcDbSavedByObjectVersion
1070
     0
  0
VISUALSTYLE
  5
35
102
{ACAD_XDICTIONARY
360
143
102
}
102
{ACAD_REACTORS
330
29
102
}
330
29
100
AcDbVisualStyle
  2
Brighten
 70
    12
177
     2
291
     1
 71
     2
176
     1
 72
     2
176
     1
 73
     0
176
     1
 90
        0
176
     1
 40
0.6
176
     1
 41
30.0
176
     1
 63
     7
421
 16777215
176
     1
 74
     1
176
     1
 91
        4
176
     1
 64
     7
176
     1
 65
   257
176
     1
 75
     1
176
     1
175
     1
176
     1
 42
1.0
176
     1
 92
        8
176
     1
 66
     7
176
     1
 43
1.0
176
     1
 76
     1
176
     1
 77
     6
176
     1
 78
     2
176
     1
 67
     7
176
     1
 79
     5
176
     1
170
     0
176
     1
171
     0
176
     1
290
     0
176
     1
 93
        1
176
     1
 44
50.0
176
     1
173
     0
176
     1
1001
ACAD
1000
AcDbSavedByObjectVersion
1070
     0
  0
VISUALSTYLE
  5
39
102
{ACAD_XDICTIONARY
360
14B
102
}
102
{ACAD_REACTORS
330
29
102
}
330
29
100
AcDbVisualStyle
  2
ColorChange
 70
    16
177
     2
291
     1
 71
     2
176
     1
 72
     2
176
     1
 73
     3
176
     1
 90
        0
176
     1
 40
0.6
176
     1
 41
30.0
176
     1
 63
     8
421
  8421504
176
     1
 74
     1
176
     1
 91
        4
176
     1
 64
     7
176
     1
 65
   257
176
     1
 75
     1
176
     1
175
     1
176
     1
 42
1.0
176
     1
 92
        8
176
     1
 66
     8
424
  8421504
176
     1
 43
1.0
176
     1
 76
     1
176
     1
 77
     6
176
     1
 78
     2
176
     1
 67
     7
176
     1
 79
     5
176
     1
170
     0
176
     1
171
     0
176
     1
290
     0
176
     1
 93
        1
176
     1
 44
0.0
176
     1
173
     0
176
     1
1001
ACAD
1000
AcDbSavedByObjectVersion
1070
     0
  0
VISUALSTYLE
  5
32
102
{ACAD_XDICTIONARY
360
13D
102
}
102
{ACAD_REACTORS
330
29
102
}
330
29
100
AcDbVisualStyle
  2
Conceptual
 70
     9
177
     2
291
     0
 71
     3
176
     1
 72
     2
176
     1
 73
     0
176
     1
 90
        0
176
     1
 40
0.6
176
     1
 41
30.0
176
     1
 63
     7
421
 16777215
176
     1
 74
     2
176
     1
 91
        2
176
     1
 64
     7
176
     1
 65
   257
176
     1
 75
     1
176
     1
175
     1
176
     1
 42
179.0
176
     1
 92
        8
176
     1
 66
     7
176
     1
 43
1.0
176
     1
 76
     1
176
     1
 77
     6
176
     1
 78
     2
176
     1
 67
     7
176
     1
 79
     3
176
     1
170
     0
176
     1
171
     0
176
     1
290
     0
176
     1
 93
        1
176
     1
 44
0.0
176
     1
173
     0
176
     1
1001
ACAD
1000
AcDbSavedByObjectVersion
1070
     0
  0
VISUALSTYLE
  5
34
102
{ACAD_XDICTIONARY
360
141
102
}
102
{ACAD_REACTORS
330
29
102
}
330
29
100
AcDbVisualStyle
  2
Dim
 70
    11
177
     2
291
     1
 71
     2
176
     1
 72
     2
176
     1
 73
     0
176
     1
 90
        0
176
     1
 40
0.6
176
     1
 41
30.0
176
     1
 63
     7
421
 16777215
176
     1
 74
     1
176
     1
 91
        4
176
     1
 64
     7
176
     1
 65
   257
176
     1
 75
     1
176
     1
175
     1
176
     1
 42
1.0
176
     1
 92
        8
176
     1
 66
     7
176
     1
 43
1.0
176
     1
 76
     1
176
     1
 77
     6
176
     1
 78
     2
176
     1
 67
     7
176
     1
 79
     5
176
     1
170
     0
176
     1
171
     0
176
     1
290
     0
176
     1
 93
        1
176
     1
 44
-50.0
176
     1
173
     0
176
     1
1001
ACAD
1000
AcDbSavedByObjectVersion
1070
     0
  0
VISUALSTYLE
  5
41
102
{ACAD_XDICTIONARY
360
15B
102
}
102
{ACAD_REACTORS
330
29
102
}
330
29
100
AcDbVisualStyle
  2
EdgeColorOff
 70
    22
177
     2
291
     1
 71
     2
176
     0
 72
     2
176
     0
 73
     0
176
     0
 90
        0
176
     0
 40
0.6
176
     0
 41
30.0
176
     0
 63
     7
421
 16777215
176
     0
 74
     1
176
     0
 91
        4
176
     0
 64
     7
176
     0
 65
   257
176
     0
 75
     1
176
     0
175
     1
176
     0
 42
1.0
176
     0
 92
        8
176
     2
 66
     7
176
     0
 43
1.0
176
     0
 76
     1
176
     0
 77
     6
176
     0
 78
     2
176
     0
 67
     7
176
     0
 79
     5
176
     0
170
     0
176
     0
171
     0
176
     0
290
     0
176
     0
 93
        1
176
     0
 44
0.0
176
     0
173
     0
176
     0
1001
ACAD
1000
AcDbSavedByObjectVersion
1070
     0
  0
VISUALSTYLE
  5
38
102
{ACAD_XDICTIONARY
360
149
102
}
102
{ACAD_REACTORS
330
29
102
}
330
29
100
AcDbVisualStyle
  2
Facepattern
 70
    15
177
     2
291
     1
 71
     2
176
     1
 72
     2
176
     1
 73
     0
176
     1
 90
        0
176
     1
 40
0.6
176
     1
 41
30.0
176
     1
 63
     7
421
 16777215
176
     1
 74
     1
176
     1
 91
        4
176
     1
 64
     7
176
     1
 65
   257
176
     1
 75
     1
176
     1
175
     1
176
     1
 42
1.0
176
     1
 92
        8
176
     1
 66
     7
176
     1
 43
1.0
176
     1
 76
     1
176
     1
 77
     6
176
     1
 78
     2
176
     1
 67
     7
176
     1
 79
     5
176
     1
170
     0
176
     1
171
     0
176
     1
290
     0
176
     1
 93
        1
176
     1
 44
0.0
176
     1
173
     0
176
     1
1001
ACAD
1000
AcDbSavedByObjectVersion
1070
     0
  0
VISUALSTYLE
  5
2A
102
{ACAD_XDICTIONARY
360
12D
102
}
102
{ACAD_REACTORS
330
29
102
}
330
29
100
AcDbVisualStyle
  2
Flat
 70
     0
177
     2
291
     1
 71
     2
176
     1
 72
     1
176
     1
 73
     1
176
     1
 90
        2
176
     1
 40
0.6
176
     1
 41
30.0
176
     1
 63
     7
421
 16777215
176
     1
 74
     0
176
     1
 91
        0
176
     1
 64
     7
176
     1
 65
   257
176
     1
 75
     1
176
     1
175
     1
176
     1
 42
1.0
176
     1
 92
        8
176
     1
 66
     7
176
     1
 43
1.0
176
     1
 76
     1
176
     1
 77
     6
176
     1
 78
     2
176
     1
 67
     7
176
     1
 79
     5
176
     1
170
     0
176
     1
171
     0
176
     1
290
     0
176
     1
 93
       13
176
     1
 44
0.0
176
     1
173
     0
176
     1
1001
ACAD
1000
AcDbSavedByObjectVersion
1070
     0
  0
VISUALSTYLE
  5
2B
102
{ACAD_XDICTIONARY
360
12F
102
}
102
{ACAD_REACTORS
330
29
102
}
330
29
100
AcDbVisualStyle
  2
FlatWithEdges
 70
     1
177
     2
291
     1
 71
     2
176
     1
 72
     1
176
     1
 73
     1
176
     1
 90
        2
176
     1
 40
0.6
176
     1
 41
30.0
176
     1
 63
     7
421
 16777215
176
     1
 74
     1
176
     1
 91
        0
176
     1
 64
     7
176
     1
 65
   257
176
     1
 75
     1
176
     1
175
     1
176
     1
 42
1.0
176
     1
 92
        0
176
     1
 66
   257
176
     1
 43
1.0
176
     1
 76
     1
176
     1
 77
     6
176
     1
 78
     2
176
     1
 67
     7
176
     1
 79
     5
176
     1
170
     0
176
     1
171
     0
176
     1
290
     0
176
     1
 93
       13
176
     1
 44
0.0
176
     1
173
     0
176
     1
1001
ACAD
1000
AcDbSavedByObjectVersion
1070
     0
  0
VISUALSTYLE
  5
2C
102
{ACAD_XDICTIONARY
360
131
102
}
102
{ACAD_REACTORS
330
29
102
}
330
29
100
AcDbVisualStyle
  2
Gouraud
 70
     2
177
     2
291
     1
 71
     2
176
     1
 72
     2
176
     1
 73
     1
176
     1
 90
        2
176
     1
 40
0.6
176
     1
 41
30.0
176
     1
 63
     7
421
 16777215
176
     1
 74
     0
176
     1
 91
        0
176
     1
 64
     7
176
     1
 65
   257
176
     1
 75
     1
176
     1
175
     1
176
     1
 42
1.0
176
     1
 92
        0
176
     1
 66
     7
176
     1
 43
1.0
176
     1
 76
     1
176
     1
 77
     6
176
     1
 78
     2
176
     1
 67
     7
176
     1
 79
     5
176
     1
170
     0
176
     1
171
     0
176
     1
290
     0
176
     1
 93
       13
176
     1
 44
0.0
176
     1
173
     0
176
     1
1001
ACAD
1000
AcDbSavedByObjectVersion
1070
     0
  0
VISUALSTYLE
  5
2D
102
{ACAD_XDICTIONARY
360
133
102
}
102
{ACAD_REACTORS
330
29
102
}
330
29
100
AcDbVisualStyle
  2
GouraudWithEdges
 70
     3
177
     2
291
     1
 71
     2
176
     1
 72
     2
176
     1
 73
     1
176
     1
 90
        2
176
     1
 40
0.6
176
     1
 41
30.0
176
     1
 63
     7
421
 16777215
176
     1
 74
     1
176
     1
 91
        0
176
     1
 64
     7
176
     1
 65
   257
176
     1
 75
     1
176
     1
175
     1
176
     1
 42
1.0
176
     1
 92
        0
176
     1
 66
   257
176
     1
 43
1.0
176
     1
 76
     1
176
     1
 77
     6
176
     1
 78
     2
176
     1
 67
     7
176
     1
 79
     5
176
     1
170
     0
176
     1
171
     0
176
     1
290
     0
176
     1
 93
       13
176
     1
 44
0.0
176
     1
173
     0
176
     1
1001
ACAD
1000
AcDbSavedByObjectVersion
1070
     0
  0
VISUALSTYLE
  5
31
102
{ACAD_XDICTIONARY
360
13B
102
}
102
{ACAD_REACTORS
330
29
102
}
330
29
100
AcDbVisualStyle
  2
Hidden
 70
     6
177
     2
291
     0
 71
     1
176
     1
 72
     2
176
     1
 73
     2
176
     1
 90
        0
176
     1
 40
0.6
176
     1
 41
30.0
176
     1
 63
     7
421
 16777215
176
     1
 74
     2
176
     1
 91
        2
176
     1
 64
     7
176
     1
 65
   257
176
     1
 75
     2
176
     1
175
     1
176
     1
 42
40.0
176
     1
 92
        0
176
     1
 66
   257
176
     1
 43
1.0
176
     1
 76
     1
176
     1
 77
     6
176
     1
 78
     2
176
     1
 67
     7
176
     1
 79
     3
176
     1
170
     0
176
     1
171
     0
176
     1
290
     0
176
     1
 93
        1
176
     1
 44
0.0
176
     1
173
     0
176
     1
1001
ACAD
1000
AcDbSavedByObjectVersion
1070
     0
  0
VISUALSTYLE
  5
3F
102
{ACAD_XDICTIONARY
360
157
102
}
102
{ACAD_REACTORS
330
29
102
}
330
29
100
AcDbVisualStyle
  2
JitterOff
 70
    20
177
     2
291
     1
 71
     2
176
     0
 72
     2
176
     0
 73
     0
176
     0
 90
        0
176
     0
 40
0.6
176
     0
 41
30.0
176
     0
 63
     7
421
 16777215
176
     0
 74
     1
176
     0
 91
        4
176
     0
 64
     7
176
     0
 65
   257
176
     0
 75
     1
176
     0
175
     1
176
     0
 42
1.0
176
     0
 92
       10
176
     2
 66
     7
176
     0
 43
1.0
176
     0
 76
     1
176
     0
 77
     6
176
     0
 78
     2
176
     0
 67
     7
176
     0
 79
     5
176
     0
170
     0
176
     0
171
     0
176
     0
290
     0
176
     0
 93
        1
176
     0
 44
0.0
176
     0
173
     0
176
     0
1001
ACAD
1000
AcDbSavedByObjectVersion
1070
     0
  0
VISUALSTYLE
  5
37
102
{ACAD_XDICTIONARY
360
147
102
}
102
{ACAD_REACTORS
330
29
102
}
330
29
100
AcDbVisualStyle
  2
Linepattern
 70
    14
177
     2
291
     1
 71
     2
176
     1
 72
     2
176
     1
 73
     0
176
     1
 90
        0
176
     1
 40
0.6
176
     1
 41
30.0
176
     1
 63
     7
421
 16777215
176
     1
 74
     1
176
     1
 91
        4
176
     1
 64
     7
176
     1
 65
   257
176
     1
 75
     7
176
     1
175
     7
176
     1
 42
1.0
176
     1
 92
        8
176
     1
 66
     7
176
     1
 43
1.0
176
     1
 76
     1
176
     1
 77
     6
176
     1
 78
     2
176
     1
 67
     7
176
     1
 79
     5
176
     1
170
     0
176
     1
171
     0
176
     1
290
     0
176
     1
 93
        1
176
     1
 44
0.0
176
     1
173
     0
176
     1
1001
ACAD
1000
AcDbSavedByObjectVersion
1070
     0
  0
VISUALSTYLE
  5
40
102
{ACAD_XDICTIONARY
360
159
102
}
102
{ACAD_REACTORS
330
29
102
}
330
29
100
AcDbVisualStyle
  2
OverhangOff
 70
    21
177
     2
291
     1
 71
     2
176
     0
 72
     2
176
     0
 73
     0
176
     0
 90
        0
176
     0
 40
0.6
176
     0
 41
30.0
176
     0
 63
     7
421
 16777215
176
     0
 74
     1
176
     0
 91
        4
176
     0
 64
     7
176
     0
 65
   257
176
     0
 75
     1
176
     0
175
     1
176
     0
 42
1.0
176
     0
 92
        9
176
     2
 66
     7
176
     0
 43
1.0
176
     0
 76
     1
176
     0
 77
     6
176
     0
 78
     2
176
     0
 67
     7
176
     0
 79
     5
176
     0
170
     0
176
     0
171
     0
176
     0
290
     0
176
     0
 93
        1
176
     0
 44
0.0
176
     0
173
     0
176
     0
1001
ACAD
1000
AcDbSavedByObjectVersion
1070
     0
  0
VISUALSTYLE
  5
33
102
{ACAD_XDICTIONARY
360
13F
102
}
102
{ACAD_REACTORS
330
29
102
}
330
29
100
AcDbVisualStyle
  2
Realistic
 70
     8
177
     2
291
     0
 71
     2
176
     1
 72
     3
176
     1
 73
     0
176
     1
 90
        2
176
     1
 40
0.6
176
     1
 41
30.0
176
     1
 63
     7
421
 16777215
176
     1
 74
     0
176
     1
 91
        0
176
     1
 64
     7
176
     1
 65
   257
176
     1
 75
     1
176
     1
175
     1
176
     1
 42
1.0
176
     1
 92
        8
176
     1
 66
   257
176
     1
 43
1.0
176
     1
 76
     1
176
     1
 77
     6
176
     1
 78
     2
176
     1
 67
     7
176
     1
 79
     3
176
     1
170
     0
176
     1
171
     0
176
     1
290
     0
176
     1
 93
       13
176
     1
 44
0.0
176
     1
173
     0
176
     1
1001
ACAD
1000
AcDbSavedByObjectVersion
1070
     0
  0
VISUALSTYLE
  5
3E
102
{ACAD_XDICTIONARY
360
155
102
}
102
{ACAD_REACTORS
330
29
102
}
330
29
100
AcDbVisualStyle
  2
Shaded
 70
    27
177
     2
291
     0
 71
     2
176
     1
 72
     2
176
     1
 73
     1
176
     1
 90
        2
176
     1
 40
0.6
176
     1
 41
30.0
176
     1
 63
     7
421
 16777215
176
     1
 74
     0
176
     1
 91
        4
176
     1
 64
     7
176
     1
 65
   257
176
     1
 75
     1
176
     1
175
     1
176
     1
 42
1.0
176
     1
 92
        8
176
     1
 66
   257
176
     1
 43
1.0
176
     1
 76
     1
176
     1
 77
     6
176
     1
 78
     2
176
     1
 67
     8
425
  7895160
176
     1
 79
     3
176
     1
170
     0
176
     1
171
     0
176
     1
290
     0
176
     1
 93
        5
176
     1
 44
0.0
176
     1
173
     0
176
     1
1001
ACAD
1000
AcDbSavedByObjectVersion
1070
     0
  0
VISUALSTYLE
  5
3D
102
{ACAD_XDICTIONARY
360
153
102
}
102
{ACAD_REACTORS
330
29
102
}
330
29
100
AcDbVisualStyle
  2
Shaded with edges
 70
    26
177
     2
291
     0
 71
     2
176
     1
 72
     2
176
     1
 73
     1
176
     1
 90
        2
176
     1
 40
0.6
176
     1
 41
30.0
176
     1
 63
     7
421
 16777215
176
     1
 74
     1
176
     1
 91
        2
176
     1
 64
     7
176
     1
 65
   257
176
     1
 75
     2
176
     1
175
     1
176
     1
 42
1.0
176
     1
 92
        8
176
     1
 66
   257
176
     1
 43
1.0
176
     1
 76
     1
176
     1
 77
     6
176
     1
 78
     2
176
     1
 67
     7
176
     1
 79
     3
176
     1
170
     0
176
     1
171
     0
176
     1
290
     0
176
     1
 93
        5
176
     1
 44
0.0
176
     1
173
     0
176
     1
1001
ACAD
1000
AcDbSavedByObjectVersion
1070
     0
  0
VISUALSTYLE
  5
3A
102
{ACAD_XDICTIONARY
360
14D
102
}
102
{ACAD_REACTORS
330
29
102
}
330
29
100
AcDbVisualStyle
  2
Shades of Gray
 70
    23
177
     2
291
     0
 71
     2
176
     1
 72
     2
176
     1
 73
     3
176
     1
 90
        0
176
     1
 40
0.6
176
     1
 41
30.0
176
     1
 63
     7
421
 16777215
176
     1
 74
     2
176
     1
 91
        2
176
     1
 64
     7
176
     1
 65
     7
176
     1
 75
     1
176
     1
175
     1
176
     1
 42
40.0
176
     1
 92
        8
176
     1
 66
     7
176
     1
 43
1.0
176
     1
 76
     1
176
     1
 77
     6
176
     1
 78
     2
176
     1
 67
     7
176
     1
 79
     3
176
     1
170
     0
176
     1
171
     0
176
     1
290
     0
176
     1
 93
        1
176
     1
 44
0.0
176
     1
173
     0
176
     1
1001
ACAD
1000
AcDbSavedByObjectVersion
1070
     0
  0
VISUALSTYLE
  5
3B
102
{ACAD_XDICTIONARY
360
14F
102
}
102
{ACAD_REACTORS
330
29
102
}
330
29
100
AcDbVisualStyle
  2
Sketchy
 70
    24
177
     2
291
     0
 71
     1
176
     1
 72
     2
176
     1
 73
     2
176
     1
 90
        0
176
     1
 40
0.6
176
     1
 41
30.0
176
     1
 63
     7
421
 16777215
176
     1
 74
     2
176
     1
 91
        2
176
     1
 64
     7
176
     1
 65
     7
176
     1
 75
     1
176
     1
175
     1
176
     1
 42
40.0
176
     1
 92
       11
176
     1
 66
     7
176
     1
 43
1.0
176
     1
 76
     1
176
     1
 77
     6
176
     1
 78
     2
176
     1
 67
     7
176
     1
 79
     6
176
     1
170
     0
176
     1
171
     0
176
     1
290
     0
176
     1
 93
        1
176
     1
 44
0.0
176
     1
173
     0
176
     1
1001
ACAD
1000
AcDbSavedByObjectVersion
1070
     0
  0
VISUALSTYLE
  5
36
102
{ACAD_XDICTIONARY
360
145
102
}
102
{ACAD_REACTORS
330
29
102
}
330
29
100
AcDbVisualStyle
  2
Thicken
 70
    13
177
     2
291
     1
 71
     2
176
     1
 72
     2
176
     1
 73
     0
176
     1
 90
        0
176
     1
 40
0.6
176
     1
 41
30.0
176
     1
 63
     7
421
 16777215
176
     1
 74
     1
176
     1
 91
        4
176
     1
 64
     7
176
     1
 65
   257
176
     1
 75
     1
176
     1
175
     1
176
     1
 42
1.0
176
     1
 92
       12
176
     1
 66
     7
176
     1
 43
1.0
176
     1
 76
     1
176
     1
 77
     6
176
     1
 78
     2
176
     1
 67
     7
176
     1
 79
     5
176
     1
170
     0
176
     1
171
     0
176
     1
290
     0
176
     1
 93
        1
176
     1
 44
0.0
176
     1
173
     0
176
     1
1001
ACAD
1000
AcDbSavedByObjectVersion
1070
     0
  0
VISUALSTYLE
  5
30
102
{ACAD_XDICTIONARY
360
139
102
}
102
{ACAD_REACTORS
330
29
102
}
330
29
100
AcDbVisualStyle
  2
Wireframe
 70
     5
177
     2
291
     0
 71
     0
176
     1
 72
     2
176
     1
 73
     0
176
     1
 90
        0
176
     1
 40
0.6
176
     1
 41
30.0
176
     1
 63
     7
421
 16777215
176
     1
 74
     1
176
     1
 91
        4
176
     1
 64
     7
176
     1
 65
   257
176
     1
 75
     1
176
     1
175
     1
176
     1
 42
1.0
176
     1
 92
        0
176
     1
 66
   257
176
     1
 43
1.0
176
     1
 76
     1
176
     1
 77
     6
176
     1
 78
     2
176
     1
 67
     7
176
     1
 79
     3
176
     1
170
     0
176
     1
171
     0
176
     1
290
     0
176
     1
 93
        1
176
     1
 44
0.0
176
     1
173
     0
176
     1
1001
ACAD
1000
AcDbSavedByObjectVersion
1070
     0
  0
VISUALSTYLE
  5
3C
102
{ACAD_XDICTIONARY
360
151
102
}
102
{ACAD_REACTORS
330
29
102
}
330
29
100
AcDbVisualStyle
  2
X-Ray
 70
    25
177
     2
291
     0
 71
     2
176
     1
 72
     2
176
     1
 73
     1
176
     1
 90
        1
176
     1
 40
0.5
176
     1
 41
30.0
176
     1
 63
     7
421
 16777215
176
     1
 74
     1
176
     1
 91
        0
176
     1
 64
     7
176
     1
 65
   257
176
     1
 75
     1
176
     1
175
     1
176
     1
 42
1.0
176
     1
 92
        8
176
     1
 66
     7
176
     1
 43
1.0
176
     1
 76
     1
176
     1
 77
     6
176
     1
 78
     2
176
     1
 67
     7
176
     1
 79
     3
176
     1
170
     0
176
     1
171
     0
176
     1
290
     0
176
     1
 93
       13
176
     1
 44
0.0
176
     1
173
     0
176
     1
1001
ACAD
1000
AcDbSavedByObjectVersion
1070
     0
  0
DICTIONARYVAR
  5
129
102
{ACAD_REACTORS
330
124
102
}
330
124
100
DictionaryVariables
280
     0
  1
1:1
  0
DICTIONARYVAR
  5
126
102
{ACAD_REACTORS
330
124
102
}
330
124
100
DictionaryVariables
280
     0
  1
STANDARD
  0
DICTIONARYVAR
  5
125
102
{ACAD_REACTORS
330
124
102
}
330
124
100
DictionaryVariables
280
     0
  1
STANDARD
  0
DICTIONARYVAR
  5
127
102
{ACAD_REACTORS
330
124
102
}
330
124
100
DictionaryVariables
280
     0
  1
Imperial24
  0
DICTIONARYVAR
  5
128
102
{ACAD_REACTORS
330
124
102
}
330
124
100
DictionaryVariables
280
     0
  1
Imperial24
  0
DICTIONARY
  5
161
330
6B
100
AcDbDictionary
280
     1
281
     1
  3
ACAD_XREC_ROUNDTRIP
360
162
  0
DICTIONARY
  5
1A
330
19
100
AcDbDictionary
280
     1
281
     1
  3
BUMPTILE
360
1C
  3
DIFFUSETILE
360
1B
  3
OPACITYTILE
360
1F
  3
REFLECTIONTILE
360
1E
  3
REFRACTIONTILE
360
20
  3
SPECULARTILE
360
1D
  0
DICTIONARY
  5
12
330
11
100
AcDbDictionary
280
     1
281
     1
  3
BUMPTILE
360
14
  3
DIFFUSETILE
360
13
  3
OPACITYTILE
360
17
  3
REFLECTIONTILE
360
16
  3
REFRACTIONTILE
360
18
  3
SPECULARTILE
360
15
  0
DICTIONARY
  5
22
330
21
100
AcDbDictionary
280
     1
281
     1
  3
BUMPTILE
360
24
  3
DIFFUSETILE
360
23
  3
OPACITYTILE
360
27
  3
REFLECTIONTILE
360
26
  3
REFRACTIONTILE
360
28
  3
SPECULARTILE
360
25
  0
DICTIONARY
  5
15D
330
67
100
AcDbDictionary
280
     1
281
     1
  3
ACAD_XREC_ROUNDTRIP
360
15E
  0
DICTIONARY
  5
15F
330
69
100
AcDbDictionary
280
     1
281
     1
  3
ACAD_XREC_ROUNDTRIP
360
160
  0
DICTIONARY
  5
12A
330
65
100
AcDbDictionary
280
     1
281
     1
  3
ACAD_ROUNDTRIP_2008_TABLESTYLE_CELLSTYLEMAP
360
12B
  0
DICTIONARY
  5
137
330
2F
100
AcDbDictionary
280
     1
281
     1
  3
ACAD_XREC_ROUNDTRIP
360
138
  0
DICTIONARY
  5
135
330
2E
100
AcDbDictionary
280
     1
281
     1
  3
ACAD_XREC_ROUNDTRIP
360
136
  0
DICTIONARY
  5
143
330
35
100
AcDbDictionary
280
     1
281
     1
  3
ACAD_XREC_ROUNDTRIP
360
144
  0
DICTIONARY
  5
14B
330
39
100
AcDbDictionary
280
     1
281
     1
  3
ACAD_XREC_ROUNDTRIP
360
14C
  0
DICTIONARY
  5
13D
330
32
100
AcDbDictionary
280
     1
281
     1
  3
ACAD_XREC_ROUNDTRIP
360
13E
  0
DICTIONARY
  5
141
330
34
100
AcDbDictionary
280
     1
281
     1
  3
ACAD_XREC_ROUNDTRIP
360
142
  0
DICTIONARY
  5
15B
330
41
100
AcDbDictionary
280
     1
281
     1
  3
ACAD_XREC_ROUNDTRIP
360
15C
  0
DICTIONARY
  5
149
330
38
100
AcDbDictionary
280
     1
281
     1
  3
ACAD_XREC_ROUNDTRIP
360
14A
  0
DICTIONARY
  5
12D
330
2A
100
AcDbDictionary
280
     1
281
     1
  3
ACAD_XREC_ROUNDTRIP
360
12E
  0
DICTIONARY
  5
12F
330
2B
100
AcDbDictionary
280
     1
281
     1
  3
ACAD_XREC_ROUNDTRIP
360
130
  0
DICTIONARY
  5
131
330
2C
100
AcDbDictionary
280
     1
281
     1
  3
ACAD_XREC_ROUNDTRIP
360
132
  0
DICTIONARY
  5
133
330
2D
100
AcDbDictionary
280
     1
281
     1
  3
ACAD_XREC_ROUNDTRIP
360
134
  0
DICTIONARY
  5
13B
330
31
100
AcDbDictionary
280
     1
281
     1
  3
ACAD_XREC_ROUNDTRIP
360
13C
  0
DICTIONARY
  5
157
330
3F
100
AcDbDictionary
280
     1
281
     1
  3
ACAD_XREC_ROUNDTRIP
360
158
  0
DICTIONARY
  5
147
330
37
100
AcDbDictionary
280
     1
281
     1
  3
ACAD_XREC_ROUNDTRIP
360
148
  0
DICTIONARY
  5
159
330
40
100
AcDbDictionary
280
     1
281
     1
  3
ACAD_XREC_ROUNDTRIP
360
15A
  0
DICTIONARY
  5
13F
330
33
100
AcDbDictionary
280
     1
281
     1
  3
ACAD_XREC_ROUNDTRIP
360
140
  0
DICTIONARY
  5
155
330
3E
100
AcDbDictionary
280
     1
281
     1
  3
ACAD_XREC_ROUNDTRIP
360
156
  0
DICTIONARY
  5
153
330
3D
100
AcDbDictionary
280
     1
281
     1
  3
ACAD_XREC_ROUNDTRIP
360
154
  0
DICTIONARY
  5
14D
330
3A
100
AcDbDictionary
280
     1
281
     1
  3
ACAD_XREC_ROUNDTRIP
360
14E
  0
DICTIONARY
  5
14F
330
3B
100
AcDbDictionary
280
     1
281
     1
  3
ACAD_XREC_ROUNDTRIP
360
150
  0
DICTIONARY
  5
145
330
36
100
AcDbDictionary
280
     1
281
     1
  3
ACAD_XREC_ROUNDTRIP
360
146
  0
DICTIONARY
  5
139
330
30
100
AcDbDictionary
280
     1
281
     1
  3
ACAD_XREC_ROUNDTRIP
360
13A
  0
DICTIONARY
  5
151
330
3C
100
AcDbDictionary
280
     1
281
     1
  3
ACAD_XREC_ROUNDTRIP
360
152
  0
XRECORD
  5
162
102
{ACAD_REACTORS
330
161
102
}
330
161
100
AcDbXrecord
280
     1
102
DISPLAYNAME
  1
Imperial24
102
FLAGS
 90
        0
  0
XRECORD
  5
1C
102
{ACAD_REACTORS
330
1A
102
}
330
1A
100
AcDbXrecord
280
     1
270
     1
271
     1
  0
XRECORD
  5
1B
102
{ACAD_REACTORS
330
1A
102
}
330
1A
100
AcDbXrecord
280
     1
270
     1
271
     1
  0
XRECORD
  5
1F
102
{ACAD_REACTORS
330
1A
102
}
330
1A
100
AcDbXrecord
280
     1
270
     1
271
     1
  0
XRECORD
  5
1E
102
{ACAD_REACTORS
330
1A
102
}
330
1A
100
AcDbXrecord
280
     1
270
     1
271
     1
  0
XRECORD
  5
20
102
{ACAD_REACTORS
330
1A
102
}
330
1A
100
AcDbXrecord
280
     1
270
     1
271
     1
  0
XRECORD
  5
1D
102
{ACAD_REACTORS
330
1A
102
}
330
1A
100
AcDbXrecord
280
     1
270
     1
271
     1
  0
XRECORD
  5
14
102
{ACAD_REACTORS
330
12
102
}
330
12
100
AcDbXrecord
280
     1
270
     1
271
     1
  0
XRECORD
  5
13
102
{ACAD_REACTORS
330
12
102
}
330
12
100
AcDbXrecord
280
     1
270
     1
271
     1
  0
XRECORD
  5
17
102
{ACAD_REACTORS
330
12
102
}
330
12
100
AcDbXrecord
280
     1
270
     1
271
     1
  0
XRECORD
  5
16
102
{ACAD_REACTORS
330
12
102
}
330
12
100
AcDbXrecord
280
     1
270
     1
271
     1
  0
XRECORD
  5
18
102
{ACAD_REACTORS
330
12
102
}
330
12
100
AcDbXrecord
280
     1
270
     1
271
     1
  0
XRECORD
  5
15
102
{ACAD_REACTORS
330
12
102
}
330
12
100
AcDbXrecord
280
     1
270
     1
271
     1
  0
XRECORD
  5
24
102
{ACAD_REACTORS
330
22
102
}
330
22
100
AcDbXrecord
280
     1
270
     1
271
     1
  0
XRECORD
  5
23
102
{ACAD_REACTORS
330
22
102
}
330
22
100
AcDbXrecord
280
     1
270
     1
271
     1
  0
XRECORD
  5
27
102
{ACAD_REACTORS
330
22
102
}
330
22
100
AcDbXrecord
280
     1
270
     1
271
     1
  0
XRECORD
  5
26
102
{ACAD_REACTORS
330
22
102
}
330
22
100
AcDbXrecord
280
     1
270
     1
271
     1
  0
XRECORD
  5
28
102
{ACAD_REACTORS
330
22
102
}
330
22
100
AcDbXrecord
280
     1
270
     1
271
     1
  0
XRECORD
  5
25
102
{ACAD_REACTORS
330
22
102
}
330
22
100
AcDbXrecord
280
     1
270
     1
271
     1
  0
XRECORD
  5
15E
102
{ACAD_REACTORS
330
15D
102
}
330
15D
100
AcDbXrecord
280
     1
102
ACAD_ROUNDTRIP_2012_MLEADER_STYLE
298
     1
  0
XRECORD
  5
160
102
{ACAD_REACTORS
330
15F
102
}
330
15F
100
AcDbXrecord
280
     1
102
DISPLAYNAME
  1
Imperial24
102
FLAGS
 90
        0
  0
CELLSTYLEMAP
  5
12B
102
{ACAD_REACTORS
330
12A
102
}
330
12A
100
AcDbCellStyleMap
 90
        3
300
CELLSTYLE
  1
TABLEFORMAT_BEGIN
 90
        5
170
     1
 91
        0
 92
    32768
 62
   257
 93
        1
300
CONTENTFORMAT
  1
CONTENTFORMAT_BEGIN
 90
        0
 91
        0
 92
      512
 93
        0
300

 40
0.0
140
1.0
 94
        5
 62
     0
340
55
144
0.25
309
CONTENTFORMAT_END
171
     0
 94
        0
309
TABLEFORMAT_END
  1
CELLSTYLE_BEGIN
 90
        1
 91
        1
300
_TITLE
309
CELLSTYLE_END
300
CELLSTYLE
  1
TABLEFORMAT_BEGIN
 90
        5
170
     1
 91
        0
 92
        0
 62
   257
 93
        1
300
CONTENTFORMAT
  1
CONTENTFORMAT_BEGIN
 90
        0
 91
        0
 92
      512
 93
        0
300

 40
0.0
140
1.0
 94
        5
 62
     0
340
55
144
0.18
309
CONTENTFORMAT_END
171
     0
 94
        0
309
TABLEFORMAT_END
  1
CELLSTYLE_BEGIN
 90
        2
 91
        1
300
_HEADER
309
CELLSTYLE_END
300
CELLSTYLE
  1
TABLEFORMAT_BEGIN
 90
        5
170
     1
 91
        0
 92
        0
 62
   257
 93
        1
300
CONTENTFORMAT
  1
CONTENTFORMAT_BEGIN
 90
        0
 91
        0
 92
      512
 93
        0
300

 40
0.0
140
1.0
 94
        2
 62
     0
340
55
144
0.18
309
CONTENTFORMAT_END
171
     0
 94
        0
309
TABLEFORMAT_END
  1
CELLSTYLE_BEGIN
 90
        3
 91
        2
300
_DATA
309
CELLSTYLE_END
  0
XRECORD
  5
138
102
{ACAD_REACTORS
330
137
102
}
330
137
100
AcDbXrecord
280
     1
102
RTVSPost2010Prop28
280
     1
102
RTVSPost2010PropOp28
 70
     1
102
RTVSPost2010Prop29
280
     1
102
RTVSPost2010PropOp29
 70
     1
102
RTVSPost2010Prop30
280
     0
102
RTVSPost2010PropOp30
 70
     1
102
RTVSPost2010Prop31
280
     0
102
RTVSPost2010PropOp31
 70
     1
102
RTVSPost2010Prop32
280
     0
102
RTVSPost2010PropOp32
 70
     1
102
RTVSPost2010Prop33
280
     0
102
RTVSPost2010PropOp33
 70
     1
102
RTVSPost2010Prop34
280
     0
102
RTVSPost2010PropOp34
 70
     1
102
RTVSPost2010Prop35
280
     0
102
RTVSPost2010PropOp35
 70
     1
102
RTVSPost2010Prop36
280
     0
102
RTVSPost2010PropOp36
 70
     1
102
RTVSPost2010Prop37
 90
       50
102
RTVSPost2010PropOp37
 70
     1
102
RTVSPost2010Prop38
140
0.0
102
RTVSPost2010PropOp38
 70
     1
102
RTVSPost2010Prop39
140
1.0
102
RTVSPost2010PropOp39
 70
     1
102
RTVSPost2010Prop40
 90
        0
102
RTVSPost2010PropOp40
 70
     1
102
RTVSPost2010Prop41ColorIndex
 90
       18
102
RTVSPost2010Prop41ColorRGB
 90
        0
102
RTVSPost2010PropOp41
 70
     1
102
RTVSPost2010Prop42
 90
       50
102
RTVSPost2010PropOp42
 70
     1
102
RTVSPost2010Prop43
 90
        3
102
RTVSPost2010PropOp43
 70
     1
102
RTVSPost2010Prop44ColorIndex
 90
        5
102
RTVSPost2010Prop44ColorRGB
 90
      255
102
RTVSPost2010PropOp44
 70
     1
102
RTVSPost2010Prop45
280
     0
102
RTVSPost2010PropOp45
 70
     1
102
RTVSPost2010Prop46
 90
       50
102
RTVSPost2010PropOp46
 70
     1
102
RTVSPost2010Prop47
 90
       50
102
RTVSPost2010PropOp47
 70
     1
102
RTVSPost2010Prop48
 90
       50
102
RTVSPost2010PropOp48
 70
     1
102
RTVSPost2010Prop49
280
     0
102
RTVSPost2010PropOp49
 70
     1
102
RTVSPost2010Prop50
 90
       50
102
RTVSPost2010PropOp50
 70
     1
102
RTVSPost2010Prop51ColorIndex
 90
      256
102
RTVSPost2010Prop51ColorRGB
 90
-16777216
102
RTVSPost2010PropOp51
 70
     0
102
RTVSPost2010Prop52
140
1.0
102
RTVSPost2010PropOp52
 70
     0
102
RTVSPost2010Prop53
 90
        2
102
RTVSPost2010PropOp53
 70
     1
102
RTVSPost2010Prop54
  1
strokes_ogs.tif
102
RTVSPost2010PropOp54
 70
     1
102
RTVSPost2010Prop55
280
     0
102
RTVSPost2010PropOp55
 70
     1
102
RTVSPost2010Prop56
140
1.0
102
RTVSPost2010PropOp56
 70
     1
102
RTVSPost2010Prop57
140
1.0
102
RTVSPost2010PropOp57
 70
     1
  0
XRECORD
  5
136
102
{ACAD_REACTORS
330
135
102
}
330
135
100
AcDbXrecord
280
     1
102
RTVSPost2010Prop28
280
     0
102
RTVSPost2010PropOp28
 70
     1
102
RTVSPost2010Prop29
280
     1
102
RTVSPost2010PropOp29
 70
     1
102
RTVSPost2010Prop30
280
     1
102
RTVSPost2010PropOp30
 70
     1
102
RTVSPost2010Prop31
280
     0
102
RTVSPost2010PropOp31
 70
     1
102
RTVSPost2010Prop32
280
     0
102
RTVSPost2010PropOp32
 70
     1
102
RTVSPost2010Prop33
280
     0
102
RTVSPost2010PropOp33
 70
     1
102
RTVSPost2010Prop34
280
     0
102
RTVSPost2010PropOp34
 70
     1
102
RTVSPost2010Prop35
280
     0
102
RTVSPost2010PropOp35
 70
     1
102
RTVSPost2010Prop36
280
     0
102
RTVSPost2010PropOp36
 70
     1
102
RTVSPost2010Prop37
 90
       50
102
RTVSPost2010PropOp37
 70
     1
102
RTVSPost2010Prop38
140
0.0
102
RTVSPost2010PropOp38
 70
     1
102
RTVSPost2010Prop39
140
1.0
102
RTVSPost2010PropOp39
 70
     1
102
RTVSPost2010Prop40
 90
        0
102
RTVSPost2010PropOp40
 70
     1
102
RTVSPost2010Prop41ColorIndex
 90
       18
102
RTVSPost2010Prop41ColorRGB
 90
        0
102
RTVSPost2010PropOp41
 70
     1
102
RTVSPost2010Prop42
 90
       50
102
RTVSPost2010PropOp42
 70
     1
102
RTVSPost2010Prop43
 90
        3
102
RTVSPost2010PropOp43
 70
     1
102
RTVSPost2010Prop44ColorIndex
 90
        5
102
RTVSPost2010Prop44ColorRGB
 90
      255
102
RTVSPost2010PropOp44
 70
     1
102
RTVSPost2010Prop45
280
     0
102
RTVSPost2010PropOp45
 70
     1
102
RTVSPost2010Prop46
 90
       50
102
RTVSPost2010PropOp46
 70
     1
102
RTVSPost2010Prop47
 90
       50
102
RTVSPost2010PropOp47
 70
     1
102
RTVSPost2010Prop48
 90
       50
102
RTVSPost2010PropOp48
 70
     1
102
RTVSPost2010Prop49
280
     0
102
RTVSPost2010PropOp49
 70
     1
102
RTVSPost2010Prop50
 90
       50
102
RTVSPost2010PropOp50
 70
     1
102
RTVSPost2010Prop51ColorIndex
 90
      256
102
RTVSPost2010Prop51ColorRGB
 90
-16777216
102
RTVSPost2010PropOp51
 70
     0
102
RTVSPost2010Prop52
140
1.0
102
RTVSPost2010PropOp52
 70
     0
102
RTVSPost2010Prop53
 90
        2
102
RTVSPost2010PropOp53
 70
     1
102
RTVSPost2010Prop54
  1
strokes_ogs.tif
102
RTVSPost2010PropOp54
 70
     1
102
RTVSPost2010Prop55
280
     0
102
RTVSPost2010PropOp55
 70
     1
102
RTVSPost2010Prop56
140
1.0
102
RTVSPost2010PropOp56
 70
     1
102
RTVSPost2010Prop57
140
1.0
102
RTVSPost2010PropOp57
 70
     1
  0
XRECORD
  5
144
102
{ACAD_REACTORS
330
143
102
}
330
143
100
AcDbXrecord
280
     1
102
RTVSPost2010Prop28
280
     0
102
RTVSPost2010PropOp28
 70
     1
102
RTVSPost2010Prop29
280
     1
102
RTVSPost2010PropOp29
 70
     1
102
RTVSPost2010Prop30
280
     1
102
RTVSPost2010PropOp30
 70
     1
102
RTVSPost2010Prop31
280
     0
102
RTVSPost2010PropOp31
 70
     1
102
RTVSPost2010Prop32
280
     0
102
RTVSPost2010PropOp32
 70
     1
102
RTVSPost2010Prop33
280
     0
102
RTVSPost2010PropOp33
 70
     1
102
RTVSPost2010Prop34
280
     0
102
RTVSPost2010PropOp34
 70
     1
102
RTVSPost2010Prop35
280
     0
102
RTVSPost2010PropOp35
 70
     1
102
RTVSPost2010Prop36
280
     0
102
RTVSPost2010PropOp36
 70
     1
102
RTVSPost2010Prop37
 90
       50
102
RTVSPost2010PropOp37
 70
     1
102
RTVSPost2010Prop38
140
0.0
102
RTVSPost2010PropOp38
 70
     1
102
RTVSPost2010Prop39
140
1.0
102
RTVSPost2010PropOp39
 70
     1
102
RTVSPost2010Prop40
 90
        0
102
RTVSPost2010PropOp40
 70
     1
102
RTVSPost2010Prop41ColorIndex
 90
       18
102
RTVSPost2010Prop41ColorRGB
 90
        0
102
RTVSPost2010PropOp41
 70
     1
102
RTVSPost2010Prop42
 90
       50
102
RTVSPost2010PropOp42
 70
     1
102
RTVSPost2010Prop43
 90
        3
102
RTVSPost2010PropOp43
 70
     1
102
RTVSPost2010Prop44ColorIndex
 90
        5
102
RTVSPost2010Prop44ColorRGB
 90
      255
102
RTVSPost2010PropOp44
 70
     1
102
RTVSPost2010Prop45
280
     0
102
RTVSPost2010PropOp45
 70
     1
102
RTVSPost2010Prop46
 90
       50
102
RTVSPost2010PropOp46
 70
     1
102
RTVSPost2010Prop47
 90
       50
102
RTVSPost2010PropOp47
 70
     1
102
RTVSPost2010Prop48
 90
       50
102
RTVSPost2010PropOp48
 70
     1
102
RTVSPost2010Prop49
280
     0
102
RTVSPost2010PropOp49
 70
     1
102
RTVSPost2010Prop50
 90
       50
102
RTVSPost2010PropOp50
 70
     1
102
RTVSPost2010Prop51ColorIndex
 90
      256
102
RTVSPost2010Prop51ColorRGB
 90
-16777216
102
RTVSPost2010PropOp51
 70
     0
102
RTVSPost2010Prop52
140
1.0
102
RTVSPost2010PropOp52
 70
     0
102
RTVSPost2010Prop53
 90
        2
102
RTVSPost2010PropOp53
 70
     1
102
RTVSPost2010Prop54
  1
strokes_ogs.tif
102
RTVSPost2010PropOp54
 70
     1
102
RTVSPost2010Prop55
280
     0
102
RTVSPost2010PropOp55
 70
     1
102
RTVSPost2010Prop56
140
1.0
102
RTVSPost2010PropOp56
 70
     1
102
RTVSPost2010Prop57
140
1.0
102
RTVSPost2010PropOp57
 70
     1
  0
XRECORD
  5
14C
102
{ACAD_REACTORS
330
14B
102
}
330
14B
100
AcDbXrecord
280
     1
102
RTVSPost2010Prop28
280
     0
102
RTVSPost2010PropOp28
 70
     1
102
RTVSPost2010Prop29
280
     1
102
RTVSPost2010PropOp29
 70
     1
102
RTVSPost2010Prop30
280
     1
102
RTVSPost2010PropOp30
 70
     1
102
RTVSPost2010Prop31
280
     0
102
RTVSPost2010PropOp31
 70
     1
102
RTVSPost2010Prop32
280
     0
102
RTVSPost2010PropOp32
 70
     1
102
RTVSPost2010Prop33
280
     0
102
RTVSPost2010PropOp33
 70
     1
102
RTVSPost2010Prop34
280
     0
102
RTVSPost2010PropOp34
 70
     1
102
RTVSPost2010Prop35
280
     0
102
RTVSPost2010PropOp35
 70
     1
102
RTVSPost2010Prop36
280
     0
102
RTVSPost2010PropOp36
 70
     1
102
RTVSPost2010Prop37
 90
       50
102
RTVSPost2010PropOp37
 70
     1
102
RTVSPost2010Prop38
140
0.0
102
RTVSPost2010PropOp38
 70
     1
102
RTVSPost2010Prop39
140
1.0
102
RTVSPost2010PropOp39
 70
     1
102
RTVSPost2010Prop40
 90
        0
102
RTVSPost2010PropOp40
 70
     1
102
RTVSPost2010Prop41ColorIndex
 90
       18
102
RTVSPost2010Prop41ColorRGB
 90
        0
102
RTVSPost2010PropOp41
 70
     1
102
RTVSPost2010Prop42
 90
       50
102
RTVSPost2010PropOp42
 70
     1
102
RTVSPost2010Prop43
 90
        3
102
RTVSPost2010PropOp43
 70
     1
102
RTVSPost2010Prop44ColorIndex
 90
        5
102
RTVSPost2010Prop44ColorRGB
 90
      255
102
RTVSPost2010PropOp44
 70
     1
102
RTVSPost2010Prop45
280
     0
102
RTVSPost2010PropOp45
 70
     1
102
RTVSPost2010Prop46
 90
       50
102
RTVSPost2010PropOp46
 70
     1
102
RTVSPost2010Prop47
 90
       50
102
RTVSPost2010PropOp47
 70
     1
102
RTVSPost2010Prop48
 90
       50
102
RTVSPost2010PropOp48
 70
     1
102
RTVSPost2010Prop49
280
     0
102
RTVSPost2010PropOp49
 70
     1
102
RTVSPost2010Prop50
 90
       50
102
RTVSPost2010PropOp50
 70
     1
102
RTVSPost2010Prop51ColorIndex
 90
      256
102
RTVSPost2010Prop51ColorRGB
 90
-16777216
102
RTVSPost2010PropOp51
 70
     0
102
RTVSPost2010Prop52
140
1.0
102
RTVSPost2010PropOp52
 70
     0
102
RTVSPost2010Prop53
 90
        2
102
RTVSPost2010PropOp53
 70
     1
102
RTVSPost2010Prop54
  1
strokes_ogs.tif
102
RTVSPost2010PropOp54
 70
     1
102
RTVSPost2010Prop55
280
     0
102
RTVSPost2010PropOp55
 70
     1
102
RTVSPost2010Prop56
140
1.0
102
RTVSPost2010PropOp56
 70
     1
102
RTVSPost2010Prop57
140
1.0
102
RTVSPost2010PropOp57
 70
     1
  0
XRECORD
  5
13E
102
{ACAD_REACTORS
330
13D
102
}
330
13D
100
AcDbXrecord
280
     1
102
RTVSPost2010Prop28
280
     0
102
RTVSPost2010PropOp28
 70
     1
102
RTVSPost2010Prop29
280
     1
102
RTVSPost2010PropOp29
 70
     1
102
RTVSPost2010Prop30
280
     1
102
RTVSPost2010PropOp30
 70
     1
102
RTVSPost2010Prop31
280
     0
102
RTVSPost2010PropOp31
 70
     1
102
RTVSPost2010Prop32
280
     0
102
RTVSPost2010PropOp32
 70
     1
102
RTVSPost2010Prop33
280
     0
102
RTVSPost2010PropOp33
 70
     1
102
RTVSPost2010Prop34
280
     0
102
RTVSPost2010PropOp34
 70
     1
102
RTVSPost2010Prop35
280
     0
102
RTVSPost2010PropOp35
 70
     1
102
RTVSPost2010Prop36
280
     0
102
RTVSPost2010PropOp36
 70
     1
102
RTVSPost2010Prop37
 90
       50
102
RTVSPost2010PropOp37
 70
     1
102
RTVSPost2010Prop38
140
0.0
102
RTVSPost2010PropOp38
 70
     1
102
RTVSPost2010Prop39
140
1.0
102
RTVSPost2010PropOp39
 70
     1
102
RTVSPost2010Prop40
 90
        0
102
RTVSPost2010PropOp40
 70
     1
102
RTVSPost2010Prop41ColorIndex
 90
       18
102
RTVSPost2010Prop41ColorRGB
 90
        0
102
RTVSPost2010PropOp41
 70
     1
102
RTVSPost2010Prop42
 90
       50
102
RTVSPost2010PropOp42
 70
     1
102
RTVSPost2010Prop43
 90
        3
102
RTVSPost2010PropOp43
 70
     1
102
RTVSPost2010Prop44ColorIndex
 90
        5
102
RTVSPost2010Prop44ColorRGB
 90
      255
102
RTVSPost2010PropOp44
 70
     1
102
RTVSPost2010Prop45
280
     0
102
RTVSPost2010PropOp45
 70
     1
102
RTVSPost2010Prop46
 90
       50
102
RTVSPost2010PropOp46
 70
     1
102
RTVSPost2010Prop47
 90
       50
102
RTVSPost2010PropOp47
 70
     1
102
RTVSPost2010Prop48
 90
       50
102
RTVSPost2010PropOp48
 70
     1
102
RTVSPost2010Prop49
280
     0
102
RTVSPost2010PropOp49
 70
     1
102
RTVSPost2010Prop50
 90
       50
102
RTVSPost2010PropOp50
 70
     1
102
RTVSPost2010Prop51ColorIndex
 90
      256
102
RTVSPost2010Prop51ColorRGB
 90
-16777216
102
RTVSPost2010PropOp51
 70
     0
102
RTVSPost2010Prop52
140
1.0
102
RTVSPost2010PropOp52
 70
     0
102
RTVSPost2010Prop53
 90
        2
102
RTVSPost2010PropOp53
 70
     1
102
RTVSPost2010Prop54
  1
strokes_ogs.tif
102
RTVSPost2010PropOp54
 70
     1
102
RTVSPost2010Prop55
280
     0
102
RTVSPost2010PropOp55
 70
     1
102
RTVSPost2010Prop56
140
1.0
102
RTVSPost2010PropOp56
 70
     1
102
RTVSPost2010Prop57
140
1.0
102
RTVSPost2010PropOp57
 70
     1
  0
XRECORD
  5
142
102
{ACAD_REACTORS
330
141
102
}
330
141
100
AcDbXrecord
280
     1
102
RTVSPost2010Prop28
280
     0
102
RTVSPost2010PropOp28
 70
     1
102
RTVSPost2010Prop29
280
     1
102
RTVSPost2010PropOp29
 70
     1
102
RTVSPost2010Prop30
280
     1
102
RTVSPost2010PropOp30
 70
     1
102
RTVSPost2010Prop31
280
     0
102
RTVSPost2010PropOp31
 70
     1
102
RTVSPost2010Prop32
280
     0
102
RTVSPost2010PropOp32
 70
     1
102
RTVSPost2010Prop33
280
     0
102
RTVSPost2010PropOp33
 70
     1
102
RTVSPost2010Prop34
280
     0
102
RTVSPost2010PropOp34
 70
     1
102
RTVSPost2010Prop35
280
     0
102
RTVSPost2010PropOp35
 70
     1
102
RTVSPost2010Prop36
280
     0
102
RTVSPost2010PropOp36
 70
     1
102
RTVSPost2010Prop37
 90
       50
102
RTVSPost2010PropOp37
 70
     1
102
RTVSPost2010Prop38
140
0.0
102
RTVSPost2010PropOp38
 70
     1
102
RTVSPost2010Prop39
140
1.0
102
RTVSPost2010PropOp39
 70
     1
102
RTVSPost2010Prop40
 90
        0
102
RTVSPost2010PropOp40
 70
     1
102
RTVSPost2010Prop41ColorIndex
 90
       18
102
RTVSPost2010Prop41ColorRGB
 90
        0
102
RTVSPost2010PropOp41
 70
     1
102
RTVSPost2010Prop42
 90
       50
102
RTVSPost2010PropOp42
 70
     1
102
RTVSPost2010Prop43
 90
        3
102
RTVSPost2010PropOp43
 70
     1
102
RTVSPost2010Prop44ColorIndex
 90
        5
102
RTVSPost2010Prop44ColorRGB
 90
      255
102
RTVSPost2010PropOp44
 70
     1
102
RTVSPost2010Prop45
280
     0
102
RTVSPost2010PropOp45
 70
     1
102
RTVSPost2010Prop46
 90
       50
102
RTVSPost2010PropOp46
 70
     1
102
RTVSPost2010Prop47
 90
       50
102
RTVSPost2010PropOp47
 70
     1
102
RTVSPost2010Prop48
 90
       50
102
RTVSPost2010PropOp48
 70
     1
102
RTVSPost2010Prop49
280
     0
102
RTVSPost2010PropOp49
 70
     1
102
RTVSPost2010Prop50
 90
       50
102
RTVSPost2010PropOp50
 70
     1
102
RTVSPost2010Prop51ColorIndex
 90
      256
102
RTVSPost2010Prop51ColorRGB
 90
-16777216
102
RTVSPost2010PropOp51
 70
     0
102
RTVSPost2010Prop52
140
1.0
102
RTVSPost2010PropOp52
 70
     0
102
RTVSPost2010Prop53
 90
        2
102
RTVSPost2010PropOp53
 70
     1
102
RTVSPost2010Prop54
  1
strokes_ogs.tif
102
RTVSPost2010PropOp54
 70
     1
102
RTVSPost2010Prop55
280
     0
102
RTVSPost2010PropOp55
 70
     1
102
RTVSPost2010Prop56
140
1.0
102
RTVSPost2010PropOp56
 70
     1
102
RTVSPost2010Prop57
140
1.0
102
RTVSPost2010PropOp57
 70
     1
  0
XRECORD
  5
15C
102
{ACAD_REACTORS
330
15B
102
}
330
15B
100
AcDbXrecord
280
     1
102
RTVSPost2010Prop28
280
     0
102
RTVSPost2010PropOp28
 70
     0
102
RTVSPost2010Prop29
280
     1
102
RTVSPost2010PropOp29
 70
     0
102
RTVSPost2010Prop30
280
     1
102
RTVSPost2010PropOp30
 70
     0
102
RTVSPost2010Prop31
280
     0
102
RTVSPost2010PropOp31
 70
     0
102
RTVSPost2010Prop32
280
     0
102
RTVSPost2010PropOp32
 70
     0
102
RTVSPost2010Prop33
280
     0
102
RTVSPost2010PropOp33
 70
     0
102
RTVSPost2010Prop34
280
     0
102
RTVSPost2010PropOp34
 70
     0
102
RTVSPost2010Prop35
280
     0
102
RTVSPost2010PropOp35
 70
     0
102
RTVSPost2010Prop36
280
     0
102
RTVSPost2010PropOp36
 70
     0
102
RTVSPost2010Prop37
 90
       50
102
RTVSPost2010PropOp37
 70
     0
102
RTVSPost2010Prop38
140
0.0
102
RTVSPost2010PropOp38
 70
     0
102
RTVSPost2010Prop39
140
1.0
102
RTVSPost2010PropOp39
 70
     0
102
RTVSPost2010Prop40
 90
        0
102
RTVSPost2010PropOp40
 70
     0
102
RTVSPost2010Prop41ColorIndex
 90
       18
102
RTVSPost2010Prop41ColorRGB
 90
        0
102
RTVSPost2010PropOp41
 70
     0
102
RTVSPost2010Prop42
 90
       50
102
RTVSPost2010PropOp42
 70
     0
102
RTVSPost2010Prop43
 90
        3
102
RTVSPost2010PropOp43
 70
     0
102
RTVSPost2010Prop44ColorIndex
 90
        5
102
RTVSPost2010Prop44ColorRGB
 90
      255
102
RTVSPost2010PropOp44
 70
     0
102
RTVSPost2010Prop45
280
     0
102
RTVSPost2010PropOp45
 70
     0
102
RTVSPost2010Prop46
 90
       50
102
RTVSPost2010PropOp46
 70
     0
102
RTVSPost2010Prop47
 90
       50
102
RTVSPost2010PropOp47
 70
     0
102
RTVSPost2010Prop48
 90
       50
102
RTVSPost2010PropOp48
 70
     0
102
RTVSPost2010Prop49
280
     0
102
RTVSPost2010PropOp49
 70
     0
102
RTVSPost2010Prop50
 90
       50
102
RTVSPost2010PropOp50
 70
     0
102
RTVSPost2010Prop51ColorIndex
 90
      256
102
RTVSPost2010Prop51ColorRGB
 90
-16777216
102
RTVSPost2010PropOp51
 70
     0
102
RTVSPost2010Prop52
140
1.0
102
RTVSPost2010PropOp52
 70
     0
102
RTVSPost2010Prop53
 90
        2
102
RTVSPost2010PropOp53
 70
     0
102
RTVSPost2010Prop54
  1
strokes_ogs.tif
102
RTVSPost2010PropOp54
 70
     0
102
RTVSPost2010Prop55
280
     0
102
RTVSPost2010PropOp55
 70
     0
102
RTVSPost2010Prop56
140
1.0
102
RTVSPost2010PropOp56
 70
     0
102
RTVSPost2010Prop57
140
1.0
102
RTVSPost2010PropOp57
 70
     0
  0
XRECORD
  5
14A
102
{ACAD_REACTORS
330
149
102
}
330
149
100
AcDbXrecord
280
     1
102
RTVSPost2010Prop28
280
     0
102
RTVSPost2010PropOp28
 70
     1
102
RTVSPost2010Prop29
280
     1
102
RTVSPost2010PropOp29
 70
     1
102
RTVSPost2010Prop30
280
     1
102
RTVSPost2010PropOp30
 70
     1
102
RTVSPost2010Prop31
280
     0
102
RTVSPost2010PropOp31
 70
     1
102
RTVSPost2010Prop32
280
     0
102
RTVSPost2010PropOp32
 70
     1
102
RTVSPost2010Prop33
280
     0
102
RTVSPost2010PropOp33
 70
     1
102
RTVSPost2010Prop34
280
     0
102
RTVSPost2010PropOp34
 70
     1
102
RTVSPost2010Prop35
280
     0
102
RTVSPost2010PropOp35
 70
     1
102
RTVSPost2010Prop36
280
     0
102
RTVSPost2010PropOp36
 70
     1
102
RTVSPost2010Prop37
 90
       50
102
RTVSPost2010PropOp37
 70
     1
102
RTVSPost2010Prop38
140
0.0
102
RTVSPost2010PropOp38
 70
     1
102
RTVSPost2010Prop39
140
1.0
102
RTVSPost2010PropOp39
 70
     1
102
RTVSPost2010Prop40
 90
        0
102
RTVSPost2010PropOp40
 70
     1
102
RTVSPost2010Prop41ColorIndex
 90
       18
102
RTVSPost2010Prop41ColorRGB
 90
        0
102
RTVSPost2010PropOp41
 70
     1
102
RTVSPost2010Prop42
 90
       50
102
RTVSPost2010PropOp42
 70
     1
102
RTVSPost2010Prop43
 90
        3
102
RTVSPost2010PropOp43
 70
     1
102
RTVSPost2010Prop44ColorIndex
 90
        5
102
RTVSPost2010Prop44ColorRGB
 90
      255
102
RTVSPost2010PropOp44
 70
     1
102
RTVSPost2010Prop45
280
     0
102
RTVSPost2010PropOp45
 70
     1
102
RTVSPost2010Prop46
 90
       50
102
RTVSPost2010PropOp46
 70
     1
102
RTVSPost2010Prop47
 90
       50
102
RTVSPost2010PropOp47
 70
     1
102
RTVSPost2010Prop48
 90
       50
102
RTVSPost2010PropOp48
 70
     1
102
RTVSPost2010Prop49
280
     0
102
RTVSPost2010PropOp49
 70
     1
102
RTVSPost2010Prop50
 90
       50
102
RTVSPost2010PropOp50
 70
     1
102
RTVSPost2010Prop51ColorIndex
 90
      256
102
RTVSPost2010Prop51ColorRGB
 90
-16777216
102
RTVSPost2010PropOp51
 70
     0
102
RTVSPost2010Prop52
140
1.0
102
RTVSPost2010PropOp52
 70
     0
102
RTVSPost2010Prop53
 90
        2
102
RTVSPost2010PropOp53
 70
     1
102
RTVSPost2010Prop54
  1
strokes_ogs.tif
102
RTVSPost2010PropOp54
 70
     1
102
RTVSPost2010Prop55
280
     0
102
RTVSPost2010PropOp55
 70
     1
102
RTVSPost2010Prop56
140
1.0
102
RTVSPost2010PropOp56
 70
     1
102
RTVSPost2010Prop57
140
1.0
102
RTVSPost2010PropOp57
 70
     1
  0
XRECORD
  5
12E
102
{ACAD_REACTORS
330
12D
102
}
330
12D
100
AcDbXrecord
280
     1
102
RTVSPost2010Prop28
280
     0
102
RTVSPost2010PropOp28
 70
     1
102
RTVSPost2010Prop29
280
     1
102
RTVSPost2010PropOp29
 70
     1
102
RTVSPost2010Prop30
280
     1
102
RTVSPost2010PropOp30
 70
     1
102
RTVSPost2010Prop31
280
     0
102
RTVSPost2010PropOp31
 70
     1
102
RTVSPost2010Prop32
280
     0
102
RTVSPost2010PropOp32
 70
     1
102
RTVSPost2010Prop33
280
     0
102
RTVSPost2010PropOp33
 70
     1
102
RTVSPost2010Prop34
280
     0
102
RTVSPost2010PropOp34
 70
     1
102
RTVSPost2010Prop35
280
     0
102
RTVSPost2010PropOp35
 70
     1
102
RTVSPost2010Prop36
280
     0
102
RTVSPost2010PropOp36
 70
     1
102
RTVSPost2010Prop37
 90
       50
102
RTVSPost2010PropOp37
 70
     1
102
RTVSPost2010Prop38
140
0.0
102
RTVSPost2010PropOp38
 70
     1
102
RTVSPost2010Prop39
140
1.0
102
RTVSPost2010PropOp39
 70
     1
102
RTVSPost2010Prop40
 90
        0
102
RTVSPost2010PropOp40
 70
     1
102
RTVSPost2010Prop41ColorIndex
 90
       18
102
RTVSPost2010Prop41ColorRGB
 90
        0
102
RTVSPost2010PropOp41
 70
     1
102
RTVSPost2010Prop42
 90
       50
102
RTVSPost2010PropOp42
 70
     1
102
RTVSPost2010Prop43
 90
        3
102
RTVSPost2010PropOp43
 70
     1
102
RTVSPost2010Prop44ColorIndex
 90
        5
102
RTVSPost2010Prop44ColorRGB
 90
      255
102
RTVSPost2010PropOp44
 70
     1
102
RTVSPost2010Prop45
280
     0
102
RTVSPost2010PropOp45
 70
     1
102
RTVSPost2010Prop46
 90
       50
102
RTVSPost2010PropOp46
 70
     1
102
RTVSPost2010Prop47
 90
       50
102
RTVSPost2010PropOp47
 70
     1
102
RTVSPost2010Prop48
 90
       50
102
RTVSPost2010PropOp48
 70
     1
102
RTVSPost2010Prop49
280
     0
102
RTVSPost2010PropOp49
 70
     1
102
RTVSPost2010Prop50
 90
       50
102
RTVSPost2010PropOp50
 70
     1
102
RTVSPost2010Prop51ColorIndex
 90
      256
102
RTVSPost2010Prop51ColorRGB
 90
-16777216
102
RTVSPost2010PropOp51
 70
     0
102
RTVSPost2010Prop52
140
1.0
102
RTVSPost2010PropOp52
 70
     0
102
RTVSPost2010Prop53
 90
        2
102
RTVSPost2010PropOp53
 70
     1
102
RTVSPost2010Prop54
  1
strokes_ogs.tif
102
RTVSPost2010PropOp54
 70
     1
102
RTVSPost2010Prop55
280
     0
102
RTVSPost2010PropOp55
 70
     1
102
RTVSPost2010Prop56
140
1.0
102
RTVSPost2010PropOp56
 70
     1
102
RTVSPost2010Prop57
140
1.0
102
RTVSPost2010PropOp57
 70
     1
  0
XRECORD
  5
130
102
{ACAD_REACTORS
330
12F
102
}
330
12F
100
AcDbXrecord
280
     1
102
RTVSPost2010Prop28
280
     0
102
RTVSPost2010PropOp28
 70
     1
102
RTVSPost2010Prop29
280
     1
102
RTVSPost2010PropOp29
 70
     1
102
RTVSPost2010Prop30
280
     1
102
RTVSPost2010PropOp30
 70
     1
102
RTVSPost2010Prop31
280
     0
102
RTVSPost2010PropOp31
 70
     1
102
RTVSPost2010Prop32
280
     0
102
RTVSPost2010PropOp32
 70
     1
102
RTVSPost2010Prop33
280
     0
102
RTVSPost2010PropOp33
 70
     1
102
RTVSPost2010Prop34
280
     0
102
RTVSPost2010PropOp34
 70
     1
102
RTVSPost2010Prop35
280
     0
102
RTVSPost2010PropOp35
 70
     1
102
RTVSPost2010Prop36
280
     0
102
RTVSPost2010PropOp36
 70
     1
102
RTVSPost2010Prop37
 90
       50
102
RTVSPost2010PropOp37
 70
     1
102
RTVSPost2010Prop38
140
0.0
102
RTVSPost2010PropOp38
 70
     1
102
RTVSPost2010Prop39
140
1.0
102
RTVSPost2010PropOp39
 70
     1
102
RTVSPost2010Prop40
 90
        0
102
RTVSPost2010PropOp40
 70
     1
102
RTVSPost2010Prop41ColorIndex
 90
       18
102
RTVSPost2010Prop41ColorRGB
 90
        0
102
RTVSPost2010PropOp41
 70
     1
102
RTVSPost2010Prop42
 90
       50
102
RTVSPost2010PropOp42
 70
     1
102
RTVSPost2010Prop43
 90
        3
102
RTVSPost2010PropOp43
 70
     1
102
RTVSPost2010Prop44ColorIndex
 90
        5
102
RTVSPost2010Prop44ColorRGB
 90
      255
102
RTVSPost2010PropOp44
 70
     1
102
RTVSPost2010Prop45
280
     0
102
RTVSPost2010PropOp45
 70
     1
102
RTVSPost2010Prop46
 90
       50
102
RTVSPost2010PropOp46
 70
     1
102
RTVSPost2010Prop47
 90
       50
102
RTVSPost2010PropOp47
 70
     1
102
RTVSPost2010Prop48
 90
       50
102
RTVSPost2010PropOp48
 70
     1
102
RTVSPost2010Prop49
280
     0
102
RTVSPost2010PropOp49
 70
     1
102
RTVSPost2010Prop50
 90
       50
102
RTVSPost2010PropOp50
 70
     1
102
RTVSPost2010Prop51ColorIndex
 90
      256
102
RTVSPost2010Prop51ColorRGB
 90
-16777216
102
RTVSPost2010PropOp51
 70
     0
102
RTVSPost2010Prop52
140
1.0
102
RTVSPost2010PropOp52
 70
     0
102
RTVSPost2010Prop53
 90
        2
102
RTVSPost2010PropOp53
 70
     1
102
RTVSPost2010Prop54
  1
strokes_ogs.tif
102
RTVSPost2010PropOp54
 70
     1
102
RTVSPost2010Prop55
280
     0
102
RTVSPost2010PropOp55
 70
     1
102
RTVSPost2010Prop56
140
1.0
102
RTVSPost2010PropOp56
 70
     1
102
RTVSPost2010Prop57
140
1.0
102
RTVSPost2010PropOp57
 70
     1
  0
XRECORD
  5
132
102
{ACAD_REACTORS
330
131
102
}
330
131
100
AcDbXrecord
280
     1
102
RTVSPost2010Prop28
280
     0
102
RTVSPost2010PropOp28
 70
     1
102
RTVSPost2010Prop29
280
     1
102
RTVSPost2010PropOp29
 70
     1
102
RTVSPost2010Prop30
280
     1
102
RTVSPost2010PropOp30
 70
     1
102
RTVSPost2010Prop31
280
     0
102
RTVSPost2010PropOp31
 70
     1
102
RTVSPost2010Prop32
280
     0
102
RTVSPost2010PropOp32
 70
     1
102
RTVSPost2010Prop33
280
     0
102
RTVSPost2010PropOp33
 70
     1
102
RTVSPost2010Prop34
280
     0
102
RTVSPost2010PropOp34
 70
     1
102
RTVSPost2010Prop35
280
     0
102
RTVSPost2010PropOp35
 70
     1
102
RTVSPost2010Prop36
280
     0
102
RTVSPost2010PropOp36
 70
     1
102
RTVSPost2010Prop37
 90
       50
102
RTVSPost2010PropOp37
 70
     1
102
RTVSPost2010Prop38
140
0.0
102
RTVSPost2010PropOp38
 70
     1
102
RTVSPost2010Prop39
140
1.0
102
RTVSPost2010PropOp39
 70
     1
102
RTVSPost2010Prop40
 90
        0
102
RTVSPost2010PropOp40
 70
     1
102
RTVSPost2010Prop41ColorIndex
 90
       18
102
RTVSPost2010Prop41ColorRGB
 90
        0
102
RTVSPost2010PropOp41
 70
     1
102
RTVSPost2010Prop42
 90
       50
102
RTVSPost2010PropOp42
 70
     1
102
RTVSPost2010Prop43
 90
        3
102
RTVSPost2010PropOp43
 70
     1
102
RTVSPost2010Prop44ColorIndex
 90
        5
102
RTVSPost2010Prop44ColorRGB
 90
      255
102
RTVSPost2010PropOp44
 70
     1
102
RTVSPost2010Prop45
280
     0
102
RTVSPost2010PropOp45
 70
     1
102
RTVSPost2010Prop46
 90
       50
102
RTVSPost2010PropOp46
 70
     1
102
RTVSPost2010Prop47
 90
       50
102
RTVSPost2010PropOp47
 70
     1
102
RTVSPost2010Prop48
 90
       50
102
RTVSPost2010PropOp48
 70
     1
102
RTVSPost2010Prop49
280
     0
102
RTVSPost2010PropOp49
 70
     1
102
RTVSPost2010Prop50
 90
       50
102
RTVSPost2010PropOp50
 70
     1
102
RTVSPost2010Prop51ColorIndex
 90
      256
102
RTVSPost2010Prop51ColorRGB
 90
-16777216
102
RTVSPost2010PropOp51
 70
     0
102
RTVSPost2010Prop52
140
1.0
102
RTVSPost2010PropOp52
 70
     0
102
RTVSPost2010Prop53
 90
        2
102
RTVSPost2010PropOp53
 70
     1
102
RTVSPost2010Prop54
  1
strokes_ogs.tif
102
RTVSPost2010PropOp54
 70
     1
102
RTVSPost2010Prop55
280
     0
102
RTVSPost2010PropOp55
 70
     1
102
RTVSPost2010Prop56
140
1.0
102
RTVSPost2010PropOp56
 70
     1
102
RTVSPost2010Prop57
140
1.0
102
RTVSPost2010PropOp57
 70
     1
  0
XRECORD
  5
134
102
{ACAD_REACTORS
330
133
102
}
330
133
100
AcDbXrecord
280
     1
102
RTVSPost2010Prop28
280
     0
102
RTVSPost2010PropOp28
 70
     1
102
RTVSPost2010Prop29
280
     1
102
RTVSPost2010PropOp29
 70
     1
102
RTVSPost2010Prop30
280
     1
102
RTVSPost2010PropOp30
 70
     1
102
RTVSPost2010Prop31
280
     0
102
RTVSPost2010PropOp31
 70
     1
102
RTVSPost2010Prop32
280
     0
102
RTVSPost2010PropOp32
 70
     1
102
RTVSPost2010Prop33
280
     0
102
RTVSPost2010PropOp33
 70
     1
102
RTVSPost2010Prop34
280
     0
102
RTVSPost2010PropOp34
 70
     1
102
RTVSPost2010Prop35
280
     0
102
RTVSPost2010PropOp35
 70
     1
102
RTVSPost2010Prop36
280
     0
102
RTVSPost2010PropOp36
 70
     1
102
RTVSPost2010Prop37
 90
       50
102
RTVSPost2010PropOp37
 70
     1
102
RTVSPost2010Prop38
140
0.0
102
RTVSPost2010PropOp38
 70
     1
102
RTVSPost2010Prop39
140
1.0
102
RTVSPost2010PropOp39
 70
     1
102
RTVSPost2010Prop40
 90
        0
102
RTVSPost2010PropOp40
 70
     1
102
RTVSPost2010Prop41ColorIndex
 90
       18
102
RTVSPost2010Prop41ColorRGB
 90
        0
102
RTVSPost2010PropOp41
 70
     1
102
RTVSPost2010Prop42
 90
       50
102
RTVSPost2010PropOp42
 70
     1
102
RTVSPost2010Prop43
 90
        3
102
RTVSPost2010PropOp43
 70
     1
102
RTVSPost2010Prop44ColorIndex
 90
        5
102
RTVSPost2010Prop44ColorRGB
 90
      255
102
RTVSPost2010PropOp44
 70
     1
102
RTVSPost2010Prop45
280
     0
102
RTVSPost2010PropOp45
 70
     1
102
RTVSPost2010Prop46
 90
       50
102
RTVSPost2010PropOp46
 70
     1
102
RTVSPost2010Prop47
 90
       50
102
RTVSPost2010PropOp47
 70
     1
102
RTVSPost2010Prop48
 90
       50
102
RTVSPost2010PropOp48
 70
     1
102
RTVSPost2010Prop49
280
     0
102
RTVSPost2010PropOp49
 70
     1
102
RTVSPost2010Prop50
 90
       50
102
RTVSPost2010PropOp50
 70
     1
102
RTVSPost2010Prop51ColorIndex
 90
      256
102
RTVSPost2010Prop51ColorRGB
 90
-16777216
102
RTVSPost2010PropOp51
 70
     0
102
RTVSPost2010Prop52
140
1.0
102
RTVSPost2010PropOp52
 70
     0
102
RTVSPost2010Prop53
 90
        2
102
RTVSPost2010PropOp53
 70
     1
102
RTVSPost2010Prop54
  1
strokes_ogs.tif
102
RTVSPost2010PropOp54
 70
     1
102
RTVSPost2010Prop55
280
     0
102
RTVSPost2010PropOp55
 70
     1
102
RTVSPost2010Prop56
140
1.0
102
RTVSPost2010PropOp56
 70
     1
102
RTVSPost2010Prop57
140
1.0
102
RTVSPost2010PropOp57
 70
     1
  0
XRECORD
  5
13C
102
{ACAD_REACTORS
330
13B
102
}
330
13B
100
AcDbXrecord
280
     1
102
RTVSPost2010Prop28
280
     0
102
RTVSPost2010PropOp28
 70
     1
102
RTVSPost2010Prop29
280
     1
102
RTVSPost2010PropOp29
 70
     1
102
RTVSPost2010Prop30
280
     1
102
RTVSPost2010PropOp30
 70
     1
102
RTVSPost2010Prop31
280
     0
102
RTVSPost2010PropOp31
 70
     1
102
RTVSPost2010Prop32
280
     0
102
RTVSPost2010PropOp32
 70
     1
102
RTVSPost2010Prop33
280
     0
102
RTVSPost2010PropOp33
 70
     1
102
RTVSPost2010Prop34
280
     0
102
RTVSPost2010PropOp34
 70
     1
102
RTVSPost2010Prop35
280
     0
102
RTVSPost2010PropOp35
 70
     1
102
RTVSPost2010Prop36
280
     0
102
RTVSPost2010PropOp36
 70
     1
102
RTVSPost2010Prop37
 90
       50
102
RTVSPost2010PropOp37
 70
     1
102
RTVSPost2010Prop38
140
0.0
102
RTVSPost2010PropOp38
 70
     1
102
RTVSPost2010Prop39
140
1.0
102
RTVSPost2010PropOp39
 70
     1
102
RTVSPost2010Prop40
 90
        0
102
RTVSPost2010PropOp40
 70
     1
102
RTVSPost2010Prop41ColorIndex
 90
       18
102
RTVSPost2010Prop41ColorRGB
 90
        0
102
RTVSPost2010PropOp41
 70
     1
102
RTVSPost2010Prop42
 90
       50
102
RTVSPost2010PropOp42
 70
     1
102
RTVSPost2010Prop43
 90
        3
102
RTVSPost2010PropOp43
 70
     1
102
RTVSPost2010Prop44ColorIndex
 90
        5
102
RTVSPost2010Prop44ColorRGB
 90
      255
102
RTVSPost2010PropOp44
 70
     1
102
RTVSPost2010Prop45
280
     0
102
RTVSPost2010PropOp45
 70
     1
102
RTVSPost2010Prop46
 90
       50
102
RTVSPost2010PropOp46
 70
     1
102
RTVSPost2010Prop47
 90
       50
102
RTVSPost2010PropOp47
 70
     1
102
RTVSPost2010Prop48
 90
       50
102
RTVSPost2010PropOp48
 70
     1
102
RTVSPost2010Prop49
280
     0
102
RTVSPost2010PropOp49
 70
     1
102
RTVSPost2010Prop50
 90
       50
102
RTVSPost2010PropOp50
 70
     1
102
RTVSPost2010Prop51ColorIndex
 90
      256
102
RTVSPost2010Prop51ColorRGB
 90
-16777216
102
RTVSPost2010PropOp51
 70
     0
102
RTVSPost2010Prop52
140
1.0
102
RTVSPost2010PropOp52
 70
     0
102
RTVSPost2010Prop53
 90
        2
102
RTVSPost2010PropOp53
 70
     1
102
RTVSPost2010Prop54
  1
strokes_ogs.tif
102
RTVSPost2010PropOp54
 70
     1
102
RTVSPost2010Prop55
280
     0
102
RTVSPost2010PropOp55
 70
     1
102
RTVSPost2010Prop56
140
1.0
102
RTVSPost2010PropOp56
 70
     1
102
RTVSPost2010Prop57
140
1.0
102
RTVSPost2010PropOp57
 70
     1
  0
XRECORD
  5
158
102
{ACAD_REACTORS
330
157
102
}
330
157
100
AcDbXrecord
280
     1
102
RTVSPost2010Prop28
280
     0
102
RTVSPost2010PropOp28
 70
     0
102
RTVSPost2010Prop29
280
     1
102
RTVSPost2010PropOp29
 70
     0
102
RTVSPost2010Prop30
280
     1
102
RTVSPost2010PropOp30
 70
     0
102
RTVSPost2010Prop31
280
     0
102
RTVSPost2010PropOp31
 70
     0
102
RTVSPost2010Prop32
280
     0
102
RTVSPost2010PropOp32
 70
     0
102
RTVSPost2010Prop33
280
     0
102
RTVSPost2010PropOp33
 70
     0
102
RTVSPost2010Prop34
280
     0
102
RTVSPost2010PropOp34
 70
     0
102
RTVSPost2010Prop35
280
     0
102
RTVSPost2010PropOp35
 70
     0
102
RTVSPost2010Prop36
280
     0
102
RTVSPost2010PropOp36
 70
     0
102
RTVSPost2010Prop37
 90
       50
102
RTVSPost2010PropOp37
 70
     0
102
RTVSPost2010Prop38
140
0.0
102
RTVSPost2010PropOp38
 70
     0
102
RTVSPost2010Prop39
140
1.0
102
RTVSPost2010PropOp39
 70
     0
102
RTVSPost2010Prop40
 90
        0
102
RTVSPost2010PropOp40
 70
     0
102
RTVSPost2010Prop41ColorIndex
 90
       18
102
RTVSPost2010Prop41ColorRGB
 90
        0
102
RTVSPost2010PropOp41
 70
     0
102
RTVSPost2010Prop42
 90
       50
102
RTVSPost2010PropOp42
 70
     0
102
RTVSPost2010Prop43
 90
        3
102
RTVSPost2010PropOp43
 70
     0
102
RTVSPost2010Prop44ColorIndex
 90
        5
102
RTVSPost2010Prop44ColorRGB
 90
      255
102
RTVSPost2010PropOp44
 70
     0
102
RTVSPost2010Prop45
280
     0
102
RTVSPost2010PropOp45
 70
     0
102
RTVSPost2010Prop46
 90
       50
102
RTVSPost2010PropOp46
 70
     0
102
RTVSPost2010Prop47
 90
       50
102
RTVSPost2010PropOp47
 70
     0
102
RTVSPost2010Prop48
 90
       50
102
RTVSPost2010PropOp48
 70
     0
102
RTVSPost2010Prop49
280
     0
102
RTVSPost2010PropOp49
 70
     0
102
RTVSPost2010Prop50
 90
       50
102
RTVSPost2010PropOp50
 70
     0
102
RTVSPost2010Prop51ColorIndex
 90
      256
102
RTVSPost2010Prop51ColorRGB
 90
-16777216
102
RTVSPost2010PropOp51
 70
     0
102
RTVSPost2010Prop52
140
1.0
102
RTVSPost2010PropOp52
 70
     0
102
RTVSPost2010Prop53
 90
        2
102
RTVSPost2010PropOp53
 70
     0
102
RTVSPost2010Prop54
  1
strokes_ogs.tif
102
RTVSPost2010PropOp54
 70
     0
102
RTVSPost2010Prop55
280
     0
102
RTVSPost2010PropOp55
 70
     0
102
RTVSPost2010Prop56
140
1.0
102
RTVSPost2010PropOp56
 70
     0
102
RTVSPost2010Prop57
140
1.0
102
RTVSPost2010PropOp57
 70
     0
  0
XRECORD
  5
148
102
{ACAD_REACTORS
330
147
102
}
330
147
100
AcDbXrecord
280
     1
102
RTVSPost2010Prop28
280
     0
102
RTVSPost2010PropOp28
 70
     1
102
RTVSPost2010Prop29
280
     1
102
RTVSPost2010PropOp29
 70
     1
102
RTVSPost2010Prop30
280
     1
102
RTVSPost2010PropOp30
 70
     1
102
RTVSPost2010Prop31
280
     0
102
RTVSPost2010PropOp31
 70
     1
102
RTVSPost2010Prop32
280
     0
102
RTVSPost2010PropOp32
 70
     1
102
RTVSPost2010Prop33
280
     0
102
RTVSPost2010PropOp33
 70
     1
102
RTVSPost2010Prop34
280
     0
102
RTVSPost2010PropOp34
 70
     1
102
RTVSPost2010Prop35
280
     0
102
RTVSPost2010PropOp35
 70
     1
102
RTVSPost2010Prop36
280
     0
102
RTVSPost2010PropOp36
 70
     1
102
RTVSPost2010Prop37
 90
       50
102
RTVSPost2010PropOp37
 70
     1
102
RTVSPost2010Prop38
140
0.0
102
RTVSPost2010PropOp38
 70
     1
102
RTVSPost2010Prop39
140
1.0
102
RTVSPost2010PropOp39
 70
     1
102
RTVSPost2010Prop40
 90
        0
102
RTVSPost2010PropOp40
 70
     1
102
RTVSPost2010Prop41ColorIndex
 90
       18
102
RTVSPost2010Prop41ColorRGB
 90
        0
102
RTVSPost2010PropOp41
 70
     1
102
RTVSPost2010Prop42
 90
       50
102
RTVSPost2010PropOp42
 70
     1
102
RTVSPost2010Prop43
 90
        3
102
RTVSPost2010PropOp43
 70
     1
102
RTVSPost2010Prop44ColorIndex
 90
        5
102
RTVSPost2010Prop44ColorRGB
 90
      255
102
RTVSPost2010PropOp44
 70
     1
102
RTVSPost2010Prop45
280
     0
102
RTVSPost2010PropOp45
 70
     1
102
RTVSPost2010Prop46
 90
       50
102
RTVSPost2010PropOp46
 70
     1
102
RTVSPost2010Prop47
 90
       50
102
RTVSPost2010PropOp47
 70
     1
102
RTVSPost2010Prop48
 90
       50
102
RTVSPost2010PropOp48
 70
     1
102
RTVSPost2010Prop49
280
     0
102
RTVSPost2010PropOp49
 70
     1
102
RTVSPost2010Prop50
 90
       50
102
RTVSPost2010PropOp50
 70
     1
102
RTVSPost2010Prop51ColorIndex
 90
      256
102
RTVSPost2010Prop51ColorRGB
 90
-16777216
102
RTVSPost2010PropOp51
 70
     0
102
RTVSPost2010Prop52
140
1.0
102
RTVSPost2010PropOp52
 70
     0
102
RTVSPost2010Prop53
 90
        2
102
RTVSPost2010PropOp53
 70
     1
102
RTVSPost2010Prop54
  1
strokes_ogs.tif
102
RTVSPost2010PropOp54
 70
     1
102
RTVSPost2010Prop55
280
     0
102
RTVSPost2010PropOp55
 70
     1
102
RTVSPost2010Prop56
140
1.0
102
RTVSPost2010PropOp56
 70
     1
102
RTVSPost2010Prop57
140
1.0
102
RTVSPost2010PropOp57
 70
     1
  0
XRECORD
  5
15A
102
{ACAD_REACTORS
330
159
102
}
330
159
100
AcDbXrecord
280
     1
102
RTVSPost2010Prop28
280
     0
102
RTVSPost2010PropOp28
 70
     0
102
RTVSPost2010Prop29
280
     1
102
RTVSPost2010PropOp29
 70
     0
102
RTVSPost2010Prop30
280
     1
102
RTVSPost2010PropOp30
 70
     0
102
RTVSPost2010Prop31
280
     0
102
RTVSPost2010PropOp31
 70
     0
102
RTVSPost2010Prop32
280
     0
102
RTVSPost2010PropOp32
 70
     0
102
RTVSPost2010Prop33
280
     0
102
RTVSPost2010PropOp33
 70
     0
102
RTVSPost2010Prop34
280
     0
102
RTVSPost2010PropOp34
 70
     0
102
RTVSPost2010Prop35
280
     0
102
RTVSPost2010PropOp35
 70
     0
102
RTVSPost2010Prop36
280
     0
102
RTVSPost2010PropOp36
 70
     0
102
RTVSPost2010Prop37
 90
       50
102
RTVSPost2010PropOp37
 70
     0
102
RTVSPost2010Prop38
140
0.0
102
RTVSPost2010PropOp38
 70
     0
102
RTVSPost2010Prop39
140
1.0
102
RTVSPost2010PropOp39
 70
     0
102
RTVSPost2010Prop40
 90
        0
102
RTVSPost2010PropOp40
 70
     0
102
RTVSPost2010Prop41ColorIndex
 90
       18
102
RTVSPost2010Prop41ColorRGB
 90
        0
102
RTVSPost2010PropOp41
 70
     0
102
RTVSPost2010Prop42
 90
       50
102
RTVSPost2010PropOp42
 70
     0
102
RTVSPost2010Prop43
 90
        3
102
RTVSPost2010PropOp43
 70
     0
102
RTVSPost2010Prop44ColorIndex
 90
        5
102
RTVSPost2010Prop44ColorRGB
 90
      255
102
RTVSPost2010PropOp44
 70
     0
102
RTVSPost2010Prop45
280
     0
102
RTVSPost2010PropOp45
 70
     0
102
RTVSPost2010Prop46
 90
       50
102
RTVSPost2010PropOp46
 70
     0
102
RTVSPost2010Prop47
 90
       50
102
RTVSPost2010PropOp47
 70
     0
102
RTVSPost2010Prop48
 90
       50
102
RTVSPost2010PropOp48
 70
     0
102
RTVSPost2010Prop49
280
     0
102
RTVSPost2010PropOp49
 70
     0
102
RTVSPost2010Prop50
 90
       50
102
RTVSPost2010PropOp50
 70
     0
102
RTVSPost2010Prop51ColorIndex
 90
      256
102
RTVSPost2010Prop51ColorRGB
 90
-16777216
102
RTVSPost2010PropOp51
 70
     0
102
RTVSPost2010Prop52
140
1.0
102
RTVSPost2010PropOp52
 70
     0
102
RTVSPost2010Prop53
 90
        2
102
RTVSPost2010PropOp53
 70
     0
102
RTVSPost2010Prop54
  1
strokes_ogs.tif
102
RTVSPost2010PropOp54
 70
     0
102
RTVSPost2010Prop55
280
     0
102
RTVSPost2010PropOp55
 70
     0
102
RTVSPost2010Prop56
140
1.0
102
RTVSPost2010PropOp56
 70
     0
102
RTVSPost2010Prop57
140
1.0
102
RTVSPost2010PropOp57
 70
     0
  0
XRECORD
  5
140
102
{ACAD_REACTORS
330
13F
102
}
330
13F
100
AcDbXrecord
280
     1
102
RTVSPost2010Prop28
280
     0
102
RTVSPost2010PropOp28
 70
     1
102
RTVSPost2010Prop29
280
     1
102
RTVSPost2010PropOp29
 70
     1
102
RTVSPost2010Prop30
280
     1
102
RTVSPost2010PropOp30
 70
     1
102
RTVSPost2010Prop31
280
     0
102
RTVSPost2010PropOp31
 70
     1
102
RTVSPost2010Prop32
280
     0
102
RTVSPost2010PropOp32
 70
     1
102
RTVSPost2010Prop33
280
     0
102
RTVSPost2010PropOp33
 70
     1
102
RTVSPost2010Prop34
280
     0
102
RTVSPost2010PropOp34
 70
     1
102
RTVSPost2010Prop35
280
     0
102
RTVSPost2010PropOp35
 70
     1
102
RTVSPost2010Prop36
280
     0
102
RTVSPost2010PropOp36
 70
     1
102
RTVSPost2010Prop37
 90
       50
102
RTVSPost2010PropOp37
 70
     1
102
RTVSPost2010Prop38
140
0.0
102
RTVSPost2010PropOp38
 70
     1
102
RTVSPost2010Prop39
140
1.0
102
RTVSPost2010PropOp39
 70
     1
102
RTVSPost2010Prop40
 90
        0
102
RTVSPost2010PropOp40
 70
     1
102
RTVSPost2010Prop41ColorIndex
 90
       18
102
RTVSPost2010Prop41ColorRGB
 90
        0
102
RTVSPost2010PropOp41
 70
     1
102
RTVSPost2010Prop42
 90
       50
102
RTVSPost2010PropOp42
 70
     1
102
RTVSPost2010Prop43
 90
        3
102
RTVSPost2010PropOp43
 70
     1
102
RTVSPost2010Prop44ColorIndex
 90
        5
102
RTVSPost2010Prop44ColorRGB
 90
      255
102
RTVSPost2010PropOp44
 70
     1
102
RTVSPost2010Prop45
280
     0
102
RTVSPost2010PropOp45
 70
     1
102
RTVSPost2010Prop46
 90
       50
102
RTVSPost2010PropOp46
 70
     1
102
RTVSPost2010Prop47
 90
       50
102
RTVSPost2010PropOp47
 70
     1
102
RTVSPost2010Prop48
 90
       50
102
RTVSPost2010PropOp48
 70
     1
102
RTVSPost2010Prop49
280
     0
102
RTVSPost2010PropOp49
 70
     1
102
RTVSPost2010Prop50
 90
       50
102
RTVSPost2010PropOp50
 70
     1
102
RTVSPost2010Prop51ColorIndex
 90
      256
102
RTVSPost2010Prop51ColorRGB
 90
-16777216
102
RTVSPost2010PropOp51
 70
     0
102
RTVSPost2010Prop52
140
1.0
102
RTVSPost2010PropOp52
 70
     0
102
RTVSPost2010Prop53
 90
        2
102
RTVSPost2010PropOp53
 70
     1
102
RTVSPost2010Prop54
  1
strokes_ogs.tif
102
RTVSPost2010PropOp54
 70
     1
102
RTVSPost2010Prop55
280
     0
102
RTVSPost2010PropOp55
 70
     1
102
RTVSPost2010Prop56
140
1.0
102
RTVSPost2010PropOp56
 70
     1
102
RTVSPost2010Prop57
140
1.0
102
RTVSPost2010PropOp57
 70
     1
  0
XRECORD
  5
156
102
{ACAD_REACTORS
330
155
102
}
330
155
100
AcDbXrecord
280
     1
102
RTVSPost2010Prop28
280
     0
102
RTVSPost2010PropOp28
 70
     1
102
RTVSPost2010Prop29
280
     1
102
RTVSPost2010PropOp29
 70
     1
102
RTVSPost2010Prop30
280
     1
102
RTVSPost2010PropOp30
 70
     1
102
RTVSPost2010Prop31
280
     0
102
RTVSPost2010PropOp31
 70
     1
102
RTVSPost2010Prop32
280
     0
102
RTVSPost2010PropOp32
 70
     1
102
RTVSPost2010Prop33
280
     0
102
RTVSPost2010PropOp33
 70
     1
102
RTVSPost2010Prop34
280
     0
102
RTVSPost2010PropOp34
 70
     1
102
RTVSPost2010Prop35
280
     0
102
RTVSPost2010PropOp35
 70
     1
102
RTVSPost2010Prop36
280
     0
102
RTVSPost2010PropOp36
 70
     1
102
RTVSPost2010Prop37
 90
       50
102
RTVSPost2010PropOp37
 70
     1
102
RTVSPost2010Prop38
140
0.0
102
RTVSPost2010PropOp38
 70
     1
102
RTVSPost2010Prop39
140
1.0
102
RTVSPost2010PropOp39
 70
     1
102
RTVSPost2010Prop40
 90
        0
102
RTVSPost2010PropOp40
 70
     1
102
RTVSPost2010Prop41ColorIndex
 90
       18
102
RTVSPost2010Prop41ColorRGB
 90
        0
102
RTVSPost2010PropOp41
 70
     1
102
RTVSPost2010Prop42
 90
       50
102
RTVSPost2010PropOp42
 70
     1
102
RTVSPost2010Prop43
 90
        3
102
RTVSPost2010PropOp43
 70
     1
102
RTVSPost2010Prop44ColorIndex
 90
        5
102
RTVSPost2010Prop44ColorRGB
 90
      255
102
RTVSPost2010PropOp44
 70
     1
102
RTVSPost2010Prop45
280
     0
102
RTVSPost2010PropOp45
 70
     1
102
RTVSPost2010Prop46
 90
       50
102
RTVSPost2010PropOp46
 70
     1
102
RTVSPost2010Prop47
 90
       50
102
RTVSPost2010PropOp47
 70
     1
102
RTVSPost2010Prop48
 90
       50
102
RTVSPost2010PropOp48
 70
     1
102
RTVSPost2010Prop49
280
     0
102
RTVSPost2010PropOp49
 70
     1
102
RTVSPost2010Prop50
 90
       50
102
RTVSPost2010PropOp50
 70
     1
102
RTVSPost2010Prop51ColorIndex
 90
      256
102
RTVSPost2010Prop51ColorRGB
 90
-16777216
102
RTVSPost2010PropOp51
 70
     0
102
RTVSPost2010Prop52
140
1.0
102
RTVSPost2010PropOp52
 70
     0
102
RTVSPost2010Prop53
 90
        2
102
RTVSPost2010PropOp53
 70
     1
102
RTVSPost2010Prop54
  1
strokes_ogs.tif
102
RTVSPost2010PropOp54
 70
     1
102
RTVSPost2010Prop55
280
     0
102
RTVSPost2010PropOp55
 70
     1
102
RTVSPost2010Prop56
140
1.0
102
RTVSPost2010PropOp56
 70
     1
102
RTVSPost2010Prop57
140
1.0
102
RTVSPost2010PropOp57
 70
     1
  0
XRECORD
  5
154
102
{ACAD_REACTORS
330
153
102
}
330
153
100
AcDbXrecord
280
     1
102
RTVSPost2010Prop28
280
     0
102
RTVSPost2010PropOp28
 70
     1
102
RTVSPost2010Prop29
280
     1
102
RTVSPost2010PropOp29
 70
     1
102
RTVSPost2010Prop30
280
     1
102
RTVSPost2010PropOp30
 70
     1
102
RTVSPost2010Prop31
280
     0
102
RTVSPost2010PropOp31
 70
     1
102
RTVSPost2010Prop32
280
     0
102
RTVSPost2010PropOp32
 70
     1
102
RTVSPost2010Prop33
280
     0
102
RTVSPost2010PropOp33
 70
     1
102
RTVSPost2010Prop34
280
     0
102
RTVSPost2010PropOp34
 70
     1
102
RTVSPost2010Prop35
280
     0
102
RTVSPost2010PropOp35
 70
     1
102
RTVSPost2010Prop36
280
     0
102
RTVSPost2010PropOp36
 70
     1
102
RTVSPost2010Prop37
 90
       50
102
RTVSPost2010PropOp37
 70
     1
102
RTVSPost2010Prop38
140
0.0
102
RTVSPost2010PropOp38
 70
     1
102
RTVSPost2010Prop39
140
1.0
102
RTVSPost2010PropOp39
 70
     1
102
RTVSPost2010Prop40
 90
        0
102
RTVSPost2010PropOp40
 70
     1
102
RTVSPost2010Prop41ColorIndex
 90
       18
102
RTVSPost2010Prop41ColorRGB
 90
        0
102
RTVSPost2010PropOp41
 70
     1
102
RTVSPost2010Prop42
 90
       50
102
RTVSPost2010PropOp42
 70
     1
102
RTVSPost2010Prop43
 90
        3
102
RTVSPost2010PropOp43
 70
     1
102
RTVSPost2010Prop44ColorIndex
 90
        5
102
RTVSPost2010Prop44ColorRGB
 90
      255
102
RTVSPost2010PropOp44
 70
     1
102
RTVSPost2010Prop45
280
     0
102
RTVSPost2010PropOp45
 70
     1
102
RTVSPost2010Prop46
 90
       50
102
RTVSPost2010PropOp46
 70
     1
102
RTVSPost2010Prop47
 90
       50
102
RTVSPost2010PropOp47
 70
     1
102
RTVSPost2010Prop48
 90
       50
102
RTVSPost2010PropOp48
 70
     1
102
RTVSPost2010Prop49
280
     0
102
RTVSPost2010PropOp49
 70
     1
102
RTVSPost2010Prop50
 90
       50
102
RTVSPost2010PropOp50
 70
     1
102
RTVSPost2010Prop51ColorIndex
 90
      256
102
RTVSPost2010Prop51ColorRGB
 90
-16777216
102
RTVSPost2010PropOp51
 70
     0
102
RTVSPost2010Prop52
140
1.0
102
RTVSPost2010PropOp52
 70
     0
102
RTVSPost2010Prop53
 90
        2
102
RTVSPost2010PropOp53
 70
     1
102
RTVSPost2010Prop54
  1
strokes_ogs.tif
102
RTVSPost2010PropOp54
 70
     1
102
RTVSPost2010Prop55
280
     0
102
RTVSPost2010PropOp55
 70
     1
102
RTVSPost2010Prop56
140
1.0
102
RTVSPost2010PropOp56
 70
     1
102
RTVSPost2010Prop57
140
1.0
102
RTVSPost2010PropOp57
 70
     1
  0
XRECORD
  5
14E
102
{ACAD_REACTORS
330
14D
102
}
330
14D
100
AcDbXrecord
280
     1
102
RTVSPost2010Prop28
280
     0
102
RTVSPost2010PropOp28
 70
     1
102
RTVSPost2010Prop29
280
     1
102
RTVSPost2010PropOp29
 70
     1
102
RTVSPost2010Prop30
280
     1
102
RTVSPost2010PropOp30
 70
     1
102
RTVSPost2010Prop31
280
     0
102
RTVSPost2010PropOp31
 70
     1
102
RTVSPost2010Prop32
280
     0
102
RTVSPost2010PropOp32
 70
     1
102
RTVSPost2010Prop33
280
     0
102
RTVSPost2010PropOp33
 70
     1
102
RTVSPost2010Prop34
280
     0
102
RTVSPost2010PropOp34
 70
     1
102
RTVSPost2010Prop35
280
     0
102
RTVSPost2010PropOp35
 70
     1
102
RTVSPost2010Prop36
280
     0
102
RTVSPost2010PropOp36
 70
     1
102
RTVSPost2010Prop37
 90
       50
102
RTVSPost2010PropOp37
 70
     1
102
RTVSPost2010Prop38
140
0.0
102
RTVSPost2010PropOp38
 70
     1
102
RTVSPost2010Prop39
140
1.0
102
RTVSPost2010PropOp39
 70
     1
102
RTVSPost2010Prop40
 90
        0
102
RTVSPost2010PropOp40
 70
     1
102
RTVSPost2010Prop41ColorIndex
 90
       18
102
RTVSPost2010Prop41ColorRGB
 90
        0
102
RTVSPost2010PropOp41
 70
     1
102
RTVSPost2010Prop42
 90
       50
102
RTVSPost2010PropOp42
 70
     1
102
RTVSPost2010Prop43
 90
        3
102
RTVSPost2010PropOp43
 70
     1
102
RTVSPost2010Prop44ColorIndex
 90
        5
102
RTVSPost2010Prop44ColorRGB
 90
      255
102
RTVSPost2010PropOp44
 70
     1
102
RTVSPost2010Prop45
280
     0
102
RTVSPost2010PropOp45
 70
     1
102
RTVSPost2010Prop46
 90
       50
102
RTVSPost2010PropOp46
 70
     1
102
RTVSPost2010Prop47
 90
       50
102
RTVSPost2010PropOp47
 70
     1
102
RTVSPost2010Prop48
 90
       50
102
RTVSPost2010PropOp48
 70
     1
102
RTVSPost2010Prop49
280
     0
102
RTVSPost2010PropOp49
 70
     1
102
RTVSPost2010Prop50
 90
       50
102
RTVSPost2010PropOp50
 70
     1
102
RTVSPost2010Prop51ColorIndex
 90
      256
102
RTVSPost2010Prop51ColorRGB
 90
-16777216
102
RTVSPost2010PropOp51
 70
     0
102
RTVSPost2010Prop52
140
1.0
102
RTVSPost2010PropOp52
 70
     0
102
RTVSPost2010Prop53
 90
        2
102
RTVSPost2010PropOp53
 70
     1
102
RTVSPost2010Prop54
  1
strokes_ogs.tif
102
RTVSPost2010PropOp54
 70
     1
102
RTVSPost2010Prop55
280
     0
102
RTVSPost2010PropOp55
 70
     1
102
RTVSPost2010Prop56
140
1.0
102
RTVSPost2010PropOp56
 70
     1
102
RTVSPost2010Prop57
140
1.0
102
RTVSPost2010PropOp57
 70
     1
  0
XRECORD
  5
150
102
{ACAD_REACTORS
330
14F
102
}
330
14F
100
AcDbXrecord
280
     1
102
RTVSPost2010Prop28
280
     0
102
RTVSPost2010PropOp28
 70
     1
102
RTVSPost2010Prop29
280
     1
102
RTVSPost2010PropOp29
 70
     1
102
RTVSPost2010Prop30
280
     1
102
RTVSPost2010PropOp30
 70
     1
102
RTVSPost2010Prop31
280
     0
102
RTVSPost2010PropOp31
 70
     1
102
RTVSPost2010Prop32
280
     0
102
RTVSPost2010PropOp32
 70
     1
102
RTVSPost2010Prop33
280
     0
102
RTVSPost2010PropOp33
 70
     1
102
RTVSPost2010Prop34
280
     0
102
RTVSPost2010PropOp34
 70
     1
102
RTVSPost2010Prop35
280
     0
102
RTVSPost2010PropOp35
 70
     1
102
RTVSPost2010Prop36
280
     0
102
RTVSPost2010PropOp36
 70
     1
102
RTVSPost2010Prop37
 90
       50
102
RTVSPost2010PropOp37
 70
     1
102
RTVSPost2010Prop38
140
0.0
102
RTVSPost2010PropOp38
 70
     1
102
RTVSPost2010Prop39
140
1.0
102
RTVSPost2010PropOp39
 70
     1
102
RTVSPost2010Prop40
 90
        0
102
RTVSPost2010PropOp40
 70
     1
102
RTVSPost2010Prop41ColorIndex
 90
       18
102
RTVSPost2010Prop41ColorRGB
 90
        0
102
RTVSPost2010PropOp41
 70
     1
102
RTVSPost2010Prop42
 90
       50
102
RTVSPost2010PropOp42
 70
     1
102
RTVSPost2010Prop43
 90
        3
102
RTVSPost2010PropOp43
 70
     1
102
RTVSPost2010Prop44ColorIndex
 90
        5
102
RTVSPost2010Prop44ColorRGB
 90
      255
102
RTVSPost2010PropOp44
 70
     1
102
RTVSPost2010Prop45
280
     0
102
RTVSPost2010PropOp45
 70
     1
102
RTVSPost2010Prop46
 90
       50
102
RTVSPost2010PropOp46
 70
     1
102
RTVSPost2010Prop47
 90
       50
102
RTVSPost2010PropOp47
 70
     1
102
RTVSPost2010Prop48
 90
       50
102
RTVSPost2010PropOp48
 70
     1
102
RTVSPost2010Prop49
280
     0
102
RTVSPost2010PropOp49
 70
     1
102
RTVSPost2010Prop50
 90
       50
102
RTVSPost2010PropOp50
 70
     1
102
RTVSPost2010Prop51ColorIndex
 90
      256
102
RTVSPost2010Prop51ColorRGB
 90
-16777216
102
RTVSPost2010PropOp51
 70
     0
102
RTVSPost2010Prop52
140
1.0
102
RTVSPost2010PropOp52
 70
     0
102
RTVSPost2010Prop53
 90
        2
102
RTVSPost2010PropOp53
 70
     1
102
RTVSPost2010Prop54
  1
strokes_ogs.tif
102
RTVSPost2010PropOp54
 70
     1
102
RTVSPost2010Prop55
280
     0
102
RTVSPost2010PropOp55
 70
     1
102
RTVSPost2010Prop56
140
1.0
102
RTVSPost2010PropOp56
 70
     1
102
RTVSPost2010Prop57
140
1.0
102
RTVSPost2010PropOp57
 70
     1
  0
XRECORD
  5
146
102
{ACAD_REACTORS
330
145
102
}
330
145
100
AcDbXrecord
280
     1
102
RTVSPost2010Prop28
280
     0
102
RTVSPost2010PropOp28
 70
     1
102
RTVSPost2010Prop29
280
     1
102
RTVSPost2010PropOp29
 70
     1
102
RTVSPost2010Prop30
280
     1
102
RTVSPost2010PropOp30
 70
     1
102
RTVSPost2010Prop31
280
     0
102
RTVSPost2010PropOp31
 70
     1
102
RTVSPost2010Prop32
280
     0
102
RTVSPost2010PropOp32
 70
     1
102
RTVSPost2010Prop33
280
     0
102
RTVSPost2010PropOp33
 70
     1
102
RTVSPost2010Prop34
280
     0
102
RTVSPost2010PropOp34
 70
     1
102
RTVSPost2010Prop35
280
     0
102
RTVSPost2010PropOp35
 70
     1
102
RTVSPost2010Prop36
280
     0
102
RTVSPost2010PropOp36
 70
     1
102
RTVSPost2010Prop37
 90
       50
102
RTVSPost2010PropOp37
 70
     1
102
RTVSPost2010Prop38
140
0.0
102
RTVSPost2010PropOp38
 70
     1
102
RTVSPost2010Prop39
140
1.0
102
RTVSPost2010PropOp39
 70
     1
102
RTVSPost2010Prop40
 90
        0
102
RTVSPost2010PropOp40
 70
     1
102
RTVSPost2010Prop41ColorIndex
 90
       18
102
RTVSPost2010Prop41ColorRGB
 90
        0
102
RTVSPost2010PropOp41
 70
     1
102
RTVSPost2010Prop42
 90
       50
102
RTVSPost2010PropOp42
 70
     1
102
RTVSPost2010Prop43
 90
        3
102
RTVSPost2010PropOp43
 70
     1
102
RTVSPost2010Prop44ColorIndex
 90
        5
102
RTVSPost2010Prop44ColorRGB
 90
      255
102
RTVSPost2010PropOp44
 70
     1
102
RTVSPost2010Prop45
280
     0
102
RTVSPost2010PropOp45
 70
     1
102
RTVSPost2010Prop46
 90
       50
102
RTVSPost2010PropOp46
 70
     1
102
RTVSPost2010Prop47
 90
       50
102
RTVSPost2010PropOp47
 70
     1
102
RTVSPost2010Prop48
 90
       50
102
RTVSPost2010PropOp48
 70
     1
102
RTVSPost2010Prop49
280
     0
102
RTVSPost2010PropOp49
 70
     1
102
RTVSPost2010Prop50
 90
       50
102
RTVSPost2010PropOp50
 70
     1
102
RTVSPost2010Prop51ColorIndex
 90
      256
102
RTVSPost2010Prop51ColorRGB
 90
-16777216
102
RTVSPost2010PropOp51
 70
     0
102
RTVSPost2010Prop52
140
1.0
102
RTVSPost2010PropOp52
 70
     0
102
RTVSPost2010Prop53
 90
        2
102
RTVSPost2010PropOp53
 70
     1
102
RTVSPost2010Prop54
  1
strokes_ogs.tif
102
RTVSPost2010PropOp54
 70
     1
102
RTVSPost2010Prop55
280
     0
102
RTVSPost2010PropOp55
 70
     1
102
RTVSPost2010Prop56
140
1.0
102
RTVSPost2010PropOp56
 70
     1
102
RTVSPost2010Prop57
140
1.0
102
RTVSPost2010PropOp57
 70
     1
  0
XRECORD
  5
13A
102
{ACAD_REACTORS
330
139
102
}
330
139
100
AcDbXrecord
280
     1
102
RTVSPost2010Prop28
280
     0
102
RTVSPost2010PropOp28
 70
     1
102
RTVSPost2010Prop29
280
     1
102
RTVSPost2010PropOp29
 70
     1
102
RTVSPost2010Prop30
280
     1
102
RTVSPost2010PropOp30
 70
     1
102
RTVSPost2010Prop31
280
     0
102
RTVSPost2010PropOp31
 70
     1
102
RTVSPost2010Prop32
280
     0
102
RTVSPost2010PropOp32
 70
     1
102
RTVSPost2010Prop33
280
     0
102
RTVSPost2010PropOp33
 70
     1
102
RTVSPost2010Prop34
280
     0
102
RTVSPost2010PropOp34
 70
     1
102
RTVSPost2010Prop35
280
     0
102
RTVSPost2010PropOp35
 70
     1
102
RTVSPost2010Prop36
280
     0
102
RTVSPost2010PropOp36
 70
     1
102
RTVSPost2010Prop37
 90
       50
102
RTVSPost2010PropOp37
 70
     1
102
RTVSPost2010Prop38
140
0.0
102
RTVSPost2010PropOp38
 70
     1
102
RTVSPost2010Prop39
140
1.0
102
RTVSPost2010PropOp39
 70
     1
102
RTVSPost2010Prop40
 90
        0
102
RTVSPost2010PropOp40
 70
     1
102
RTVSPost2010Prop41ColorIndex
 90
       18
102
RTVSPost2010Prop41ColorRGB
 90
        0
102
RTVSPost2010PropOp41
 70
     1
102
RTVSPost2010Prop42
 90
       50
102
RTVSPost2010PropOp42
 70
     1
102
RTVSPost2010Prop43
 90
        3
102
RTVSPost2010PropOp43
 70
     1
102
RTVSPost2010Prop44ColorIndex
 90
        5
102
RTVSPost2010Prop44ColorRGB
 90
      255
102
RTVSPost2010PropOp44
 70
     1
102
RTVSPost2010Prop45
280
     0
102
RTVSPost2010PropOp45
 70
     1
102
RTVSPost2010Prop46
 90
       50
102
RTVSPost2010PropOp46
 70
     1
102
RTVSPost2010Prop47
 90
       50
102
RTVSPost2010PropOp47
 70
     1
102
RTVSPost2010Prop48
 90
       50
102
RTVSPost2010PropOp48
 70
     1
102
RTVSPost2010Prop49
280
     0
102
RTVSPost2010PropOp49
 70
     1
102
RTVSPost2010Prop50
 90
       50
102
RTVSPost2010PropOp50
 70
     1
102
RTVSPost2010Prop51ColorIndex
 90
      256
102
RTVSPost2010Prop51ColorRGB
 90
-16777216
102
RTVSPost2010PropOp51
 70
     0
102
RTVSPost2010Prop52
140
1.0
102
RTVSPost2010PropOp52
 70
     0
102
RTVSPost2010Prop53
 90
        2
102
RTVSPost2010PropOp53
 70
     1
102
RTVSPost2010Prop54
  1
strokes_ogs.tif
102
RTVSPost2010PropOp54
 70
     1
102
RTVSPost2010Prop55
280
     0
102
RTVSPost2010PropOp55
 70
     1
102
RTVSPost2010Prop56
140
1.0
102
RTVSPost2010PropOp56
 70
     1
102
RTVSPost2010Prop57
140
1.0
102
RTVSPost2010PropOp57
 70
     1
  0
XRECORD
  5
152
102
{ACAD_REACTORS
330
151
102
}
330
151
100
AcDbXrecord
280
     1
102
RTVSPost2010Prop28
280
     0
102
RTVSPost2010PropOp28
 70
     1
102
RTVSPost2010Prop29
280
     1
102
RTVSPost2010PropOp29
 70
     1
102
RTVSPost2010Prop30
280
     1
102
RTVSPost2010PropOp30
 70
     1
102
RTVSPost2010Prop31
280
     0
102
RTVSPost2010PropOp31
 70
     1
102
RTVSPost2010Prop32
280
     0
102
RTVSPost2010PropOp32
 70
     1
102
RTVSPost2010Prop33
280
     0
102
RTVSPost2010PropOp33
 70
     1
102
RTVSPost2010Prop34
280
     0
102
RTVSPost2010PropOp34
 70
     1
102
RTVSPost2010Prop35
280
     0
102
RTVSPost2010PropOp35
 70
     1
102
RTVSPost2010Prop36
280
     0
102
RTVSPost2010PropOp36
 70
     1
102
RTVSPost2010Prop37
 90
       50
102
RTVSPost2010PropOp37
 70
     1
102
RTVSPost2010Prop38
140
0.0
102
RTVSPost2010PropOp38
 70
     1
102
RTVSPost2010Prop39
140
1.0
102
RTVSPost2010PropOp39
 70
     1
102
RTVSPost2010Prop40
 90
        0
102
RTVSPost2010PropOp40
 70
     1
102
RTVSPost2010Prop41ColorIndex
 90
       18
102
RTVSPost2010Prop41ColorRGB
 90
        0
102
RTVSPost2010PropOp41
 70
     1
102
RTVSPost2010Prop42
 90
       50
102
RTVSPost2010PropOp42
 70
     1
102
RTVSPost2010Prop43
 90
        3
102
RTVSPost2010PropOp43
 70
     1
102
RTVSPost2010Prop44ColorIndex
 90
        5
102
RTVSPost2010Prop44ColorRGB
 90
      255
102
RTVSPost2010PropOp44
 70
     1
102
RTVSPost2010Prop45
280
     0
102
RTVSPost2010PropOp45
 70
     1
102
RTVSPost2010Prop46
 90
       50
102
RTVSPost2010PropOp46
 70
     1
102
RTVSPost2010Prop47
 90
       50
102
RTVSPost2010PropOp47
 70
     1
102
RTVSPost2010Prop48
 90
       50
102
RTVSPost2010PropOp48
 70
     1
102
RTVSPost2010Prop49
280
     0
102
RTVSPost2010PropOp49
 70
     1
102
RTVSPost2010Prop50
 90
       50
102
RTVSPost2010PropOp50
 70
     1
102
RTVSPost2010Prop51ColorIndex
 90
      256
102
RTVSPost2010Prop51ColorRGB
 90
-16777216
102
RTVSPost2010PropOp51
 70
     0
102
RTVSPost2010Prop52
140
1.0
102
RTVSPost2010PropOp52
 70
     0
102
RTVSPost2010Prop53
 90
        2
102
RTVSPost2010PropOp53
 70
     1
102
RTVSPost2010Prop54
  1
strokes_ogs.tif
102
RTVSPost2010PropOp54
 70
     1
102
RTVSPost2010Prop55
280
     0
102
RTVSPost2010PropOp55
 70
     1
102
RTVSPost2010Prop56
140
1.0
102
RTVSPost2010PropOp56
 70
     1
102
RTVSPost2010Prop57
140
1.0
102
RTVSPost2010PropOp57
 70
     1
  0
ENDSEC
  0
EOF
