  0
SECTION
  2
HEADER
  9
$ACADVER
  1
AC1024
  9
$ACADMAINTVER
 70
   226
  9
$DWGCODEPAGE
  3
ANSI_932
  9
$INSBASE
 10
0.0
 20
0.0
 30
0.0
  9
$EXTMIN
 10
1.000000000000000E+20
 20
1.000000000000000E+20
 30
1.000000000000000E+20
  9
$EXTMAX
 10
-1.000000000000000E+20
 20
-1.000000000000000E+20
 30
-1.000000000000000E+20
  9
$LIMMIN
 10
0.0
 20
0.0
  9
$LIMMAX
 10
12.0
 20
9.0
  9
$ORTHOMODE
 70
     0
  9
$REGENMODE
 70
     1
  9
$FILLMODE
 70
     1
  9
$QTEXTMODE
 70
     0
  9
$MIRRTEXT
 70
     0
  9
$LTSCALE
 40
1.0
  9
$ATTMODE
 70
     1
  9
$TEXTSIZE
 40
0.2
  9
$TRACEWID
 40
0.05
  9
$TEXTSTYLE
  7
Standard
  9
$CLAYER
  8
0
  9
$CELTYPE
  6
ByLayer
  9
$CECOLOR
 62
   256
  9
$CELTSCALE
 40
1.0
  9
$DISPSILH
 70
     0
  9
$DIMSCALE
 40
1.0
  9
$DIMASZ
 40
0.18
  9
$DIMEXO
 40
0.0625
  9
$DIMDLI
 40
0.38
  9
$DIMRND
 40
0.0
  9
$DIMDLE
 40
0.0
  9
$DIMEXE
 40
0.18
  9
$DIMTP
 40
0.0
  9
$DIMTM
 40
0.0
  9
$DIMTXT
 40
0.18
  9
$DIMCEN
 40
0.09
  9
$DIMTSZ
 40
0.0
  9
$DIMTOL
 70
     0
  9
$DIMLIM
 70
     0
  9
$DIMTIH
 70
     1
  9
$DIMTOH
 70
     1
  9
$DIMSE1
 70
     0
  9
$DIMSE2
 70
     0
  9
$DIMTAD
 70
     0
  9
$DIMZIN
 70
     0
  9
$DIMBLK
  1

  9
$DIMASO
 70
     1
  9
$DIMSHO
 70
     1
  9
$DIMPOST
  1

  9
$DIMAPOST
  1

  9
$DIMALT
 70
     0
  9
$DIMALTD
 70
     2
  9
$DIMALTF
 40
25.4
  9
$DIMLFAC
 40
1.0
  9
$DIMTOFL
 70
     0
  9
$DIMTVP
 40
0.0
  9
$DIMTIX
 70
     0
  9
$DIMSOXD
 70
     0
  9
$DIMSAH
 70
     0
  9
$DIMBLK1
  1

  9
$DIMBLK2
  1

  9
$DIMSTYLE
  2
Standard
  9
$DIMCLRD
 70
     0
  9
$DIMCLRE
 70
     0
  9
$DIMCLRT
 70
     0
  9
$DIMTFAC
 40
1.0
  9
$DIMGAP
 40
0.09
  9
$DIMJUST
 70
     0
  9
$DIMSD1
 70
     0
  9
$DIMSD2
 70
     0
  9
$DIMTOLJ
 70
     1
  9
$DIMTZIN
 70
     0
  9
$DIMALTZ
 70
     0
  9
$DIMALTTZ
 70
     0
  9
$DIMUPT
 70
     0
  9
$DIMDEC
 70
     4
  9
$DIMTDEC
 70
     4
  9
$DIMALTU
 70
     2
  9
$DIMALTTD
 70
     2
  9
$DIMTXSTY
  7
Standard
  9
$DIMAUNIT
 70
     0
  9
$DIMADEC
 70
     0
  9
$DIMALTRND
 40
0.0
  9
$DIMAZIN
 70
     0
  9
$DIMDSEP
 70
    46
  9
$DIMATFIT
 70
     3
  9
$DIMFRAC
 70
     0
  9
$DIMLDRBLK
  1

  9
$DIMLUNIT
 70
     2
  9
$DIMLWD
 70
    -2
  9
$DIMLWE
 70
    -2
  9
$DIMTMOVE
 70
     0
  9
$DIMFXL
 40
1.0
  9
$DIMFXLON
 70
     0
  9
$DIMJOGANG
 40
0.7853981633974483
  9
$DIMTFILL
 70
     0
  9
$DIMTFILLCLR
 70
     0
  9
$DIMARCSYM
 70
     0
  9
$DIMLTYPE
  6

  9
$DIMLTEX1
  6

  9
$DIMLTEX2
  6

  9
$DIMTXTDIRECTION
 70
     0
  9
$LUNITS
 70
     2
  9
$LUPREC
 70
     4
  9
$SKETCHINC
 40
0.1
  9
$FILLETRAD
 40
0.0
  9
$AUNITS
 70
     0
  9
$AUPREC
 70
     0
  9
$MENU
  1
.
  9
$ELEVATION
 40
0.0
  9
$PELEVATION
 40
0.0
  9
$THICKNESS
 40
0.0
  9
$LIMCHECK
 70
     0
  9
$CHAMFERA
 40
0.0
  9
$CHAMFERB
 40
0.0
  9
$CHAMFERC
 40
0.0
  9
$CHAMFERD
 40
0.0
  9
$SKPOLY
 70
     0
  9
$TDCREATE
 40
2459569.503715278
  9
$TDUCREATE
 40
2459569.128715278
  9
$TDUPDATE
 40
2459569.503715278
  9
$TDUUPDATE
 40
2459569.128715278
  9
$TDINDWG
 40
0.0000115741
  9
$TDUSRTIMER
 40
0.0000115741
  9
$USRTIMER
 70
     1
  9
$ANGBASE
 50
0.0
  9
$ANGDIR
 70
     0
  9
$PDMODE
 70
     0
  9
$PDSIZE
 40
0.0
  9
$PLINEWID
 40
0.0
  9
$SPLFRAME
 70
     0
  9
$SPLINETYPE
 70
     6
  9
$SPLINESEGS
 70
     8
  9
$HANDSEED
  5
198
  9
$SURFTAB1
 70
     6
  9
$SURFTAB2
 70
     6
  9
$SURFTYPE
 70
     6
  9
$SURFU
 70
     6
  9
$SURFV
 70
     6
  9
$UCSBASE
  2

  9
$UCSNAME
  2

  9
$UCSORG
 10
0.0
 20
0.0
 30
0.0
  9
$UCSXDIR
 10
1.0
 20
0.0
 30
0.0
  9
$UCSYDIR
 10
0.0
 20
1.0
 30
0.0
  9
$UCSORTHOREF
  2

  9
$UCSORTHOVIEW
 70
     0
  9
$UCSORGTOP
 10
0.0
 20
0.0
 30
0.0
  9
$UCSORGBOTTOM
 10
0.0
 20
0.0
 30
0.0
  9
$UCSORGLEFT
 10
0.0
 20
0.0
 30
0.0
  9
$UCSORGRIGHT
 10
0.0
 20
0.0
 30
0.0
  9
$UCSORGFRONT
 10
0.0
 20
0.0
 30
0.0
  9
$UCSORGBACK
 10
0.0
 20
0.0
 30
0.0
  9
$PUCSBASE
  2

  9
$PUCSNAME
  2

  9
$PUCSORG
 10
0.0
 20
0.0
 30
0.0
  9
$PUCSXDIR
 10
1.0
 20
0.0
 30
0.0
  9
$PUCSYDIR
 10
0.0
 20
1.0
 30
0.0
  9
$PUCSORTHOREF
  2

  9
$PUCSORTHOVIEW
 70
     0
  9
$PUCSORGTOP
 10
0.0
 20
0.0
 30
0.0
  9
$PUCSORGBOTTOM
 10
0.0
 20
0.0
 30
0.0
  9
$PUCSORGLEFT
 10
0.0
 20
0.0
 30
0.0
  9
$PUCSORGRIGHT
 10
0.0
 20
0.0
 30
0.0
  9
$PUCSORGFRONT
 10
0.0
 20
0.0
 30
0.0
  9
$PUCSORGBACK
 10
0.0
 20
0.0
 30
0.0
  9
$USERI1
 70
     0
  9
$USERI2
 70
     0
  9
$USERI3
 70
     0
  9
$USERI4
 70
     0
  9
$USERI5
 70
     0
  9
$USERR1
 40
0.0
  9
$USERR2
 40
0.0
  9
$USERR3
 40
0.0
  9
$USERR4
 40
0.0
  9
$USERR5
 40
0.0
  9
$WORLDVIEW
 70
     1
  9
$SHADEDGE
 70
     3
  9
$SHADEDIF
 70
    70
  9
$TILEMODE
 70
     1
  9
$MAXACTVP
 70
    64
  9
$PINSBASE
 10
0.0
 20
0.0
 30
0.0
  9
$PLIMCHECK
 70
     0
  9
$PEXTMIN
 10
1.000000000000000E+20
 20
1.000000000000000E+20
 30
1.000000000000000E+20
  9
$PEXTMAX
 10
-1.000000000000000E+20
 20
-1.000000000000000E+20
 30
-1.000000000000000E+20
  9
$PLIMMIN
 10
0.0
 20
0.0
  9
$PLIMMAX
 10
12.0
 20
9.0
  9
$UNITMODE
 70
     0
  9
$VISRETAIN
 70
     1
  9
$PLINEGEN
 70
     0
  9
$PSLTSCALE
 70
     1
  9
$TREEDEPTH
 70
  3020
  9
$CMLSTYLE
  2
Standard
  9
$CMLJUST
 70
     0
  9
$CMLSCALE
 40
1.0
  9
$PROXYGRAPHICS
 70
     1
  9
$MEASUREMENT
 70
     0
  9
$CELWEIGHT
370
    -1
  9
$ENDCAPS
280
     0
  9
$JOINSTYLE
280
     0
  9
$LWDISPLAY
290
     1
  9
$INSUNITS
 70
     4
  9
$HYPERLINKBASE
  1

  9
$STYLESHEET
  1

  9
$XEDIT
290
     1
  9
$CEPSNTYPE
380
     0
  9
$PSTYLEMODE
290
     1
  9
$FINGERPRINTGUID
  2
{2E304DD7-EE2F-3743-9058-5D32A8B64266}
  9
$VERSIONGUID
  2
{38461F83-FA91-474A-9150-4F8913F8675B}
  9
$EXTNAMES
290
     1
  9
$PSVPSCALE
 40
0.0
  9
$OLESTARTUP
290
     0
  9
$SORTENTS
280
   127
  9
$INDEXCTL
280
     0
  9
$HIDETEXT
280
     1
  9
$XCLIPFRAME
280
     2
  9
$HALOGAP
280
     0
  9
$OBSCOLOR
 70
   257
  9
$OBSLTYPE
280
     0
  9
$INTERSECTIONDISPLAY
280
     0
  9
$INTERSECTIONCOLOR
 70
   257
  9
$DIMASSOC
280
     2
  9
$PROJECTNAME
  1

  9
$CAMERADISPLAY
290
     0
  9
$LENSLENGTH
 40
50.0
  9
$CAMERAHEIGHT
 40
0.0
  9
$STEPSPERSEC
 40
2.0
  9
$STEPSIZE
 40
6.0
  9
$3DDWFPREC
 40
2.0
  9
$PSOLWIDTH
 40
0.25
  9
$PSOLHEIGHT
 40
4.0
  9
$LOFTANG1
 40
1.570796326794896
  9
$LOFTANG2
 40
1.570796326794896
  9
$LOFTMAG1
 40
0.0
  9
$LOFTMAG2
 40
0.0
  9
$LOFTPARAM
 70
     7
  9
$LOFTNORMALS
280
     1
  9
$LATITUDE
 40
37.795
  9
$LONGITUDE
 40
-122.394
  9
$NORTHDIRECTION
 40
0.0
  9
$TIMEZONE
 70
 -8000
  9
$LIGHTGLYPHDISPLAY
280
     1
  9
$TILEMODELIGHTSYNCH
280
     1
  9
$CMATERIAL
347
11
  9
$SOLIDHIST
280
     0
  9
$SHOWHIST
280
     1
  9
$DWFFRAME
280
     2
  9
$DGNFRAME
280
     0
  9
$REALWORLDSCALE
290
     1
  9
$INTERFERECOLOR
 62
     1
  9
$INTERFEREOBJVS
345
33
  9
$INTERFEREVPVS
346
30
  9
$CSHADOW
280
     0
  9
$SHADOWPLANELOCATION
 40
0.0
  0
ENDSEC
  0
SECTION
  2
CLASSES
  0
CLASS
  1
ACDBDICTIONARYWDFLT
  2
AcDbDictionaryWithDefault
  3
ObjectDBX Classes
 90
        0
 91
        1
280
     0
281
     0
  0
CLASS
  1
MATERIAL
  2
AcDbMaterial
  3
ObjectDBX Classes
 90
     1153
 91
        3
280
     0
281
     0
  0
CLASS
  1
VISUALSTYLE
  2
AcDbVisualStyle
  3
ObjectDBX Classes
 90
     4095
 91
       24
280
     0
281
     0
  0
CLASS
  1
SCALE
  2
AcDbScale
  3
ObjectDBX Classes
 90
     1153
 91
       17
280
     0
281
     0
  0
CLASS
  1
TABLESTYLE
  2
AcDbTableStyle
  3
ObjectDBX Classes
 90
     4095
 91
        1
280
     0
281
     0
  0
CLASS
  1
MLEADERSTYLE
  2
AcDbMLeaderStyle
  3
ACDB_MLEADERSTYLE_CLASS
 90
     4095
 91
        1
280
     0
281
     0
  0
CLASS
  1
ACDBSECTIONVIEWSTYLE
  2
AcDbSectionViewStyle
  3
ObjectDBX Classes
 90
     1025
 91
        1
280
     0
281
     0
  0
CLASS
  1
ACDBDETAILVIEWSTYLE
  2
AcDbDetailViewStyle
  3
ObjectDBX Classes
 90
     1025
 91
        1
280
     0
281
     0
  0
CLASS
  1
DICTIONARYVAR
  2
AcDbDictionaryVar
  3
ObjectDBX Classes
 90
        0
 91
        5
280
     0
281
     0
  0
CLASS
  1
CELLSTYLEMAP
  2
AcDbCellStyleMap
  3
ObjectDBX Classes
 90
     1152
 91
        1
280
     0
281
     0
  0
ENDSEC
  0
SECTION
  2
TABLES
  0
TABLE
  2
VPORT
  5
8
330
0
100
AcDbSymbolTable
 70
     1
  0
VPORT
  5
57
330
8
100
AcDbSymbolTableRecord
100
AcDbViewportTableRecord
  2
*Active
 70
     0
 10
0.0
 20
0.0
 11
1.0
 21
1.0
 12
0.0
 22
0.0
 13
0.0
 23
0.0
 14
1.0
 24
1.0
 15
0.0
 25
0.0
 16
0.0
 26
0.0
 36
1.0
 17
104.9999999737534
 27
-148.4999999628701
 37
0.0
 40
302.939999924255
 41
0.7070707070707534
 42
50.0
 43
0.0
 44
0.0
 50
0.0
 51
0.0
 71
     0
 72
   100
 73
     1
 74
     0
 75
     1
 76
     0
 77
     0
 78
     0
281
     0
 65
     1
110
0.0
120
0.0
130
0.0
111
1.0
121
0.0
131
0.0
112
0.0
122
1.0
132
0.0
 79
     0
146
0.0
 60
     3
 61
     5
292
     1
282
     1
141
0.0
142
0.0
 63
   250
421
  3355443
  0
ENDTAB
  0
TABLE
  2
LTYPE
  5
5
330
0
100
AcDbSymbolTable
 70
     2
  0
LTYPE
  5
5B
330
5
100
AcDbSymbolTableRecord
100
AcDbLinetypeTableRecord
  2
ByBlock
 70
     0
  3

 72
    65
 73
     0
 40
0.0
  0
LTYPE
  5
5C
330
5
100
AcDbSymbolTableRecord
100
AcDbLinetypeTableRecord
  2
ByLayer
 70
     0
  3

 72
    65
 73
     0
 40
0.0
  0
LTYPE
  5
5D
330
5
100
AcDbSymbolTableRecord
100
AcDbLinetypeTableRecord
  2
Continuous
 70
     0
  3
Solid line
 72
    65
 73
     0
 40
0.0
  0
LTYPE
  5
B5
330
5
100
AcDbSymbolTableRecord
100
AcDbLinetypeTableRecord
  2
AI-Linetype-0
 70
     0
  3
Adobe Illustrator Linetype No. 0
 72
    65
 73
     2
 40
1.411111110758333
 49
0.7055555553791667
 74
     0
 49
-0.7055555553791667
 74
     0
  0
ENDTAB
  0
TABLE
  2
LAYER
  5
2
330
0
100
AcDbSymbolTable
 70
     2
  0
LAYER
  5
54
330
2
100
AcDbSymbolTableRecord
100
AcDbLayerTableRecord
  2
0
 70
     0
 62
     7
  6
Continuous
370
    -3
390
F
347
21
  0
LAYER
  5
78
330
2
100
AcDbSymbolTableRecord
100
AcDbLayerTableRecord
  2
レイヤー 1
 70
     0
 62
     7
  6
Continuous
370
     0
390
F
347
21
  0
ENDTAB
  0
TABLE
  2
STYLE
  5
3
330
0
100
AcDbSymbolTable
 70
     2
  0
STYLE
  5
55
330
3
100
AcDbSymbolTableRecord
100
AcDbTextStyleTableRecord
  2
Standard
 70
     0
 40
0.0
 41
1.0
 50
0.0
 71
     0
 42
0.2
  3
txt
  4

  0
STYLE
  5
5A
330
3
100
AcDbSymbolTableRecord
100
AcDbTextStyleTableRecord
  2
Annotative
 70
     0
 40
0.0
 41
1.0
 50
0.0
 71
     0
 42
0.2
  3
txt
  4

1001
AcadAnnotative
1000
AnnotativeData
1002
{
1070
     1
1070
     1
1002
}
  0
ENDTAB
  0
TABLE
  2
VIEW
  5
6
330
0
100
AcDbSymbolTable
 70
     0
  0
ENDTAB
  0
TABLE
  2
UCS
  5
7
330
0
100
AcDbSymbolTable
 70
     0
  0
ENDTAB
  0
TABLE
  2
APPID
  5
9
330
0
100
AcDbSymbolTable
 70
     2
  0
APPID
  5
56
330
9
100
AcDbSymbolTableRecord
100
AcDbRegAppTableRecord
  2
ACAD
 70
     0
  0
APPID
  5
5E
330
9
100
AcDbSymbolTableRecord
100
AcDbRegAppTableRecord
  2
AcadAnnotative
 70
     0
  0
ENDTAB
  0
TABLE
  2
DIMSTYLE
  5
A
330
0
100
AcDbSymbolTable
 70
     2
100
AcDbDimStyleTable
 71
     0
  0
DIMSTYLE
105
58
330
A
100
AcDbSymbolTableRecord
100
AcDbDimStyleTableRecord
  2
Standard
 70
     0
340
55
  0
DIMSTYLE
105
59
330
A
100
AcDbSymbolTableRecord
100
AcDbDimStyleTableRecord
  2
Annotative
 70
     0
340
55
1001
AcadAnnotative
1000
AnnotativeData
1002
{
1070
     1
1070
     1
1002
}
  0
ENDTAB
  0
TABLE
  2
BLOCK_RECORD
  5
1
330
0
100
AcDbSymbolTable
 70
    19
  0
BLOCK_RECORD
  5
70
330
1
100
AcDbSymbolTableRecord
100
AcDbBlockTableRecord
  2
*Model_Space
340
73
 70
     0
280
     1
281
     0
  0
BLOCK_RECORD
  5
6C
330
1
100
AcDbSymbolTableRecord
100
AcDbBlockTableRecord
  2
*Paper_Space
340
6F
 70
     0
280
     1
281
     0
  0
BLOCK_RECORD
  5
74
330
1
100
AcDbSymbolTableRecord
100
AcDbBlockTableRecord
  2
*Paper_Space0
340
77
 70
     0
280
     1
281
     0
  0
BLOCK_RECORD
  5
79
330
1
100
AcDbSymbolTableRecord
100
AcDbBlockTableRecord
  2
Block_0
340
0
102
{BLKREFS
331
7A
102
}
 70
     0
280
     1
281
     0
  0
BLOCK_RECORD
  5
7D
330
1
100
AcDbSymbolTableRecord
100
AcDbBlockTableRecord
  2
Block_1
340
0
102
{BLKREFS
331
7E
102
}
 70
     0
280
     1
281
     0
  0
BLOCK_RECORD
  5
81
330
1
100
AcDbSymbolTableRecord
100
AcDbBlockTableRecord
  2
Block_2
340
0
102
{BLKREFS
331
82
102
}
 70
     0
280
     1
281
     0
  0
BLOCK_RECORD
  5
86
330
1
100
AcDbSymbolTableRecord
100
AcDbBlockTableRecord
  2
Block_3
340
0
102
{BLKREFS
331
87
102
}
 70
     0
280
     1
281
     0
  0
BLOCK_RECORD
  5
AB
330
1
100
AcDbSymbolTableRecord
100
AcDbBlockTableRecord
  2
Block_4
340
0
102
{BLKREFS
331
AC
102
}
 70
     0
280
     1
281
     0
  0
BLOCK_RECORD
  5
B0
330
1
100
AcDbSymbolTableRecord
100
AcDbBlockTableRecord
  2
Block_5
340
0
102
{BLKREFS
331
B1
102
}
 70
     0
280
     1
281
     0
  0
BLOCK_RECORD
  5
F2
330
1
100
AcDbSymbolTableRecord
100
AcDbBlockTableRecord
  2
Block_6
340
0
102
{BLKREFS
331
F3
102
}
 70
     0
280
     1
281
     0
  0
BLOCK_RECORD
  5
FB
330
1
100
AcDbSymbolTableRecord
100
AcDbBlockTableRecord
  2
Block_7
340
0
102
{BLKREFS
331
FC
102
}
 70
     0
280
     1
281
     0
  0
BLOCK_RECORD
  5
105
330
1
100
AcDbSymbolTableRecord
100
AcDbBlockTableRecord
  2
Block_8
340
0
102
{BLKREFS
331
106
102
}
 70
     0
280
     1
281
     0
  0
BLOCK_RECORD
  5
109
330
1
100
AcDbSymbolTableRecord
100
AcDbBlockTableRecord
  2
Block_9
340
0
102
{BLKREFS
331
10A
102
}
 70
     0
280
     1
281
     0
  0
BLOCK_RECORD
  5
116
330
1
100
AcDbSymbolTableRecord
100
AcDbBlockTableRecord
  2
Block_10
340
0
102
{BLKREFS
331
117
102
}
 70
     0
280
     1
281
     0
  0
BLOCK_RECORD
  5
11A
330
1
100
AcDbSymbolTableRecord
100
AcDbBlockTableRecord
  2
Block_11
340
0
102
{BLKREFS
331
11B
102
}
 70
     0
280
     1
281
     0
  0
BLOCK_RECORD
  5
124
330
1
100
AcDbSymbolTableRecord
100
AcDbBlockTableRecord
  2
Block_12
340
0
102
{BLKREFS
331
125
102
}
 70
     0
280
     1
281
     0
  0
BLOCK_RECORD
  5
12D
330
1
100
AcDbSymbolTableRecord
100
AcDbBlockTableRecord
  2
Block_13
340
0
102
{BLKREFS
331
12E
102
}
 70
     0
280
     1
281
     0
  0
BLOCK_RECORD
  5
133
330
1
100
AcDbSymbolTableRecord
100
AcDbBlockTableRecord
  2
Block_14
340
0
102
{BLKREFS
331
134
102
}
 70
     0
280
     1
281
     0
  0
BLOCK_RECORD
  5
137
330
1
100
AcDbSymbolTableRecord
100
AcDbBlockTableRecord
  2
Block_15
340
0
102
{BLKREFS
331
138
102
}
 70
     0
280
     1
281
     0
  0
BLOCK_RECORD
  5
13E
330
1
100
AcDbSymbolTableRecord
100
AcDbBlockTableRecord
  2
Block_16
340
0
102
{BLKREFS
331
13F
102
}
 70
     0
280
     1
281
     0
  0
BLOCK_RECORD
  5
142
330
1
100
AcDbSymbolTableRecord
100
AcDbBlockTableRecord
  2
Block_17
340
0
102
{BLKREFS
331
143
102
}
 70
     0
280
     1
281
     0
  0
ENDTAB
  0
ENDSEC
  0
SECTION
  2
BLOCKS
  0
BLOCK
  5
71
330
70
100
AcDbEntity
  8
0
100
AcDbBlockBegin
  2
*Model_Space
 70
     0
 10
0.0
 20
0.0
 30
0.0
  3
*Model_Space
  1

  0
ENDBLK
  5
72
330
70
100
AcDbEntity
  8
0
100
AcDbBlockEnd
  0
BLOCK
  5
6D
330
6C
100
AcDbEntity
 67
     1
  8
0
100
AcDbBlockBegin
  2
*Paper_Space
 70
     0
 10
0.0
 20
0.0
 30
0.0
  3
*Paper_Space
  1

  0
ENDBLK
  5
6E
330
6C
100
AcDbEntity
 67
     1
  8
0
100
AcDbBlockEnd
  0
BLOCK
  5
75
330
74
100
AcDbEntity
 67
     1
  8
0
100
AcDbBlockBegin
  2
*Paper_Space0
 70
     0
 10
0.0
 20
0.0
 30
0.0
  3
*Paper_Space0
  1

  0
ENDBLK
  5
76
330
74
100
AcDbEntity
 67
     1
  8
0
100
AcDbBlockEnd
  0
BLOCK
  5
7B
330
79
100
AcDbEntity
  8
0
100
AcDbBlockBegin
  2
Block_0
 70
     0
 10
0.0
 20
0.0
 30
0.0
  3
Block_0
  1

  0
INSERT
  5
7E
330
79
100
AcDbEntity
  8
レイヤー 1
100
AcDbBlockReference
  2
Block_1
 10
0.0
 20
0.0
 30
0.0
  0
INSERT
  5
AC
330
79
100
AcDbEntity
  8
レイヤー 1
100
AcDbBlockReference
  2
Block_4
 10
0.0
 20
0.0
 30
0.0
  0
ENDBLK
  5
7C
330
79
100
AcDbEntity
  8
0
100
AcDbBlockEnd
  0
BLOCK
  5
7F
330
7D
100
AcDbEntity
  8
0
100
AcDbBlockBegin
  2
Block_1
 70
     0
 10
0.0
 20
0.0
 30
0.0
  3
Block_1
  1

  0
INSERT
  5
82
330
7D
100
AcDbEntity
  8
レイヤー 1
100
AcDbBlockReference
  2
Block_2
 10
0.0
 20
0.0
 30
0.0
  0
LINE
  5
AA
330
7D
100
AcDbEntity
  8
レイヤー 1
 62
   250
420
  2299925
370
     9
100
AcDbLine
 10
132.1936426414752
 20
-148.2715299608828
 30
0.0
 11
123.1206536620057
 21
-152.0242741266111
 31
0.0
  0
ENDBLK
  5
80
330
7D
100
AcDbEntity
  8
0
100
AcDbBlockEnd
  0
BLOCK
  5
83
330
81
100
AcDbEntity
  8
0
100
AcDbBlockBegin
  2
Block_2
 70
     0
 10
0.0
 20
0.0
 30
0.0
  3
Block_2
  1

  0
LINE
  5
85
330
81
100
AcDbEntity
  8
レイヤー 1
 62
   250
420
  2299925
370
     9
100
AcDbLine
 10
122.1759853527729
 20
-154.2529124593879
 30
0.0
 11
123.5064898658692
 21
-154.960866903655
 31
0.0
  0
INSERT
  5
87
330
81
100
AcDbEntity
  8
レイヤー 1
100
AcDbBlockReference
  2
Block_3
 10
0.0
 20
0.0
 30
0.0
  0
ENDBLK
  5
84
330
81
100
AcDbEntity
  8
0
100
AcDbBlockEnd
  0
BLOCK
  5
88
330
86
100
AcDbEntity
  8
0
100
AcDbBlockBegin
  2
Block_3
 70
     0
 10
0.0
 20
0.0
 30
0.0
  3
Block_3
  1

  0
LWPOLYLINE
  5
8A
330
86
100
AcDbEntity
  8
レイヤー 1
 62
   250
420
  2299925
370
     9
100
AcDbPolyline
 90
        5
 70
     0
 43
0.0
 10
116.567383273638
 20
-149.0745932940156
 10
122.1567236865976
 20
-151.7448741266811
 10
122.0506081337493
 20
-154.3445641260315
 10
123.755230312483
 20
-155.2392438480299
 10
132.8964431348268
 20
-151.4679082934173
  0
LINE
  5
8B
330
86
100
AcDbEntity
  8
レイヤー 1
 62
   250
420
  2299925
370
     9
100
AcDbLine
 10
125.8222963708589
 20
-145.1602769061054
 30
0.0
 11
116.567383273638
 21
-149.0745932940156
 31
0.0
  0
LINE
  5
8C
330
86
100
AcDbEntity
  8
レイヤー 1
 62
   250
420
  2299925
370
     9
100
AcDbLine
 10
122.9056708897126
 20
-151.9195344044153
 30
0.0
 11
131.5990323345932
 21
-148.3435319053096
 31
0.0
  0
LINE
  5
8D
330
86
100
AcDbEntity
  8
レイヤー 1
 62
   250
420
  2299925
370
     9
100
AcDbLine
 10
123.5154472630448
 20
-154.9694746814307
 30
0.0
 11
122.9056708897126
 21
-151.9415830155208
 31
0.0
  0
LINE
  5
8E
330
86
100
AcDbEntity
  8
レイヤー 1
 62
   250
420
  2299925
370
     9
100
AcDbLine
 10
123.1151150510359
 20
-152.0408194043851
 30
0.0
 11
123.691165869673
 21
-155.154153848051
 31
0.0
  0
LINE
  5
8F
330
86
100
AcDbEntity
  8
レイヤー 1
 62
   250
420
  2299925
370
     9
100
AcDbLine
 10
122.1932361856661
 20
-154.253265237165
 30
0.0
 11
123.2860037548132
 21
-153.9397516261324
 31
0.0
  0
LINE
  5
90
330
86
100
AcDbEntity
  8
レイヤー 1
 62
   250
420
  2299925
370
     9
100
AcDbLine
 10
122.3062309050056
 20
-151.7025055155805
 30
0.0
 11
122.1684359085211
 21
-154.253265237165
 31
0.0
  0
LINE
  5
91
330
86
100
AcDbEntity
  8
レイヤー 1
 62
   250
420
  2299925
370
     9
100
AcDbLine
 10
131.6390020557957
 20
-147.7813099610052
 30
0.0
 11
122.3131100714968
 21
-151.7204266266875
 31
0.0
  0
SPLINE
  5
92
330
86
100
AcDbEntity
  8
レイヤー 1
 62
   250
420
  2299925
370
     9
100
AcDbSpline
210
0.0
220
0.0
230
1.0
 70
     9
 71
     3
 72
    17
 73
    13
 74
     0
 42
0.0000000001
 43
0.0000000001
 40
0.0
 40
0.0
 40
0.0
 40
0.0
 40
1.0
 40
1.0
 40
1.0
 40
2.0
 40
2.0
 40
2.0
 40
3.0
 40
3.0
 40
3.0
 40
4.0
 40
4.0
 40
4.0
 40
4.0
 10
128.9959204565596
 20
-147.4471235722
 30
0.0
 10
128.9959204565596
 20
-147.6548744054816
 30
0.0
 10
128.7058312972938
 20
-147.8236785721061
 30
0.0
 10
128.3468446397856
 20
-147.8236785721061
 30
0.0
 10
127.9878579822775
 20
-147.8236785721061
 30
0.0
 10
127.6970985452509
 20
-147.6548744054816
 30
0.0
 10
127.6970985452509
 20
-147.4471235722
 30
0.0
 10
127.6970985452509
 20
-147.2383496833632
 30
0.0
 10
127.9878579822775
 20
-147.0702157945167
 30
0.0
 10
128.3468446397856
 20
-147.0702157945167
 30
0.0
 10
128.7058312972938
 20
-147.0702157945167
 30
0.0
 10
128.9959204565596
 20
-147.2383496833632
 30
0.0
 10
128.9959204565596
 20
-147.4471235722
 30
0.0
  0
SPLINE
  5
93
330
86
100
AcDbEntity
  8
レイヤー 1
 62
   250
420
  2299925
370
     9
100
AcDbSpline
210
0.0
220
0.0
230
1.0
 70
     8
 71
     3
 72
    11
 73
     7
 74
     0
 42
0.0000000001
 43
0.0000000001
 40
0.0
 40
0.0
 40
0.0
 40
0.0
 40
1.0
 40
1.0
 40
1.0
 40
2.0
 40
2.0
 40
2.0
 40
2.0
 10
127.8094229868297
 20
-147.6538160721483
 30
0.0
 10
127.8094229868297
 20
-147.6538160721483
 30
0.0
 10
127.7908315984151
 20
-147.2018371833726
 30
0.0
 10
128.5246093574727
 20
-147.2397255166961
 30
0.0
 10
128.5246093574727
 20
-147.2397255166961
 30
0.0
 10
128.9587024019536
 20
-147.2955349611265
 30
0.0
 10
128.8829257372201
 20
-147.6348719054862
 30
0.0
  0
SPLINE
  5
94
330
86
100
AcDbEntity
  8
レイヤー 1
 62
   250
420
  2299925
370
     9
100
AcDbSpline
210
0.0
220
0.0
230
1.0
 70
     9
 71
     3
 72
    17
 73
    13
 74
     0
 42
0.0000000001
 43
0.0000000001
 40
0.0
 40
0.0
 40
0.0
 40
0.0
 40
1.0
 40
1.0
 40
1.0
 40
2.0
 40
2.0
 40
2.0
 40
3.0
 40
3.0
 40
3.0
 40
4.0
 40
4.0
 40
4.0
 40
4.0
 10
124.0466953050471
 20
-147.4471235722
 30
0.0
 10
124.0466953050471
 20
-147.6548744054816
 30
0.0
 10
123.755230312483
 20
-147.8236785721061
 30
0.0
 10
123.3969492105124
 20
-147.8236785721061
 30
0.0
 10
123.0379625530042
 20
-147.8236785721061
 30
0.0
 10
122.7472031159777
 20
-147.6548744054816
 30
0.0
 10
122.7472031159777
 20
-147.4471235722
 30
0.0
 10
122.7472031159777
 20
-147.2383496833632
 30
0.0
 10
123.0379625530042
 20
-147.0702157945167
 30
0.0
 10
123.3969492105124
 20
-147.0702157945167
 30
0.0
 10
123.755230312483
 20
-147.0702157945167
 30
0.0
 10
124.0466953050471
 20
-147.2383496833632
 30
0.0
 10
124.0466953050471
 20
-147.4471235722
 30
0.0
  0
SPLINE
  5
95
330
86
100
AcDbEntity
  8
レイヤー 1
 62
   250
420
  2299925
370
     9
100
AcDbSpline
210
0.0
220
0.0
230
1.0
 70
     8
 71
     3
 72
    11
 73
     7
 74
     0
 42
0.0000000001
 43
0.0000000001
 40
0.0
 40
0.0
 40
0.0
 40
0.0
 40
1.0
 40
1.0
 40
1.0
 40
2.0
 40
2.0
 40
2.0
 40
2.0
 10
122.8594954215869
 20
-147.6538160721483
 30
0.0
 10
122.8594954215869
 20
-147.6538160721483
 30
0.0
 10
122.8409008913651
 20
-147.2018371833726
 30
0.0
 10
123.5753842059601
 20
-147.2397255166961
 30
0.0
 10
123.5753842059601
 20
-147.2397255166961
 30
0.0
 10
124.0094772504411
 20
-147.2955349611265
 30
0.0
 10
123.9337037546511
 20
-147.6348719054862
 30
0.0
  0
SPLINE
  5
96
330
86
100
AcDbEntity
  8
レイヤー 1
 62
   250
420
  2299925
370
     9
100
AcDbSpline
210
0.0
220
0.0
230
1.0
 70
     9
 71
     3
 72
    17
 73
    13
 74
     0
 42
0.0000000001
 43
0.0000000001
 40
0.0
 40
0.0
 40
0.0
 40
0.0
 40
1.0
 40
1.0
 40
1.0
 40
2.0
 40
2.0
 40
2.0
 40
3.0
 40
3.0
 40
3.0
 40
4.0
 40
4.0
 40
4.0
 40
4.0
 10
126.6697744047935
 20
-146.2875077391567
 30
0.0
 10
126.6697744047935
 20
-146.4949057946609
 30
0.0
 10
126.3783094122294
 20
-146.6637099612848
 30
0.0
 10
126.0193580324981
 20
-146.6637099612848
 30
0.0
 10
125.6610416527506
 20
-146.6637099612848
 30
0.0
 10
125.3702822157241
 20
-146.4949057946609
 30
0.0
 10
125.3702822157241
 20
-146.2875077391567
 30
0.0
 10
125.3702822157241
 20
-146.0787338503199
 30
0.0
 10
125.6610416527506
 20
-145.9099296836957
 30
0.0
 10
126.0193580324981
 20
-145.9099296836957
 30
0.0
 10
126.3783094122294
 20
-145.9099296836957
 30
0.0
 10
126.6697744047935
 20
-146.0787338503199
 30
0.0
 10
126.6697744047935
 20
-146.2875077391567
 30
0.0
  0
SPLINE
  5
97
330
86
100
AcDbEntity
  8
レイヤー 1
 62
   250
420
  2299925
370
     9
100
AcDbSpline
210
0.0
220
0.0
230
1.0
 70
     8
 71
     3
 72
    11
 73
     7
 74
     0
 42
0.0000000001
 43
0.0000000001
 40
0.0
 40
0.0
 40
0.0
 40
0.0
 40
1.0
 40
1.0
 40
1.0
 40
2.0
 40
2.0
 40
2.0
 40
2.0
 10
125.4826066573029
 20
-146.4935299613276
 30
0.0
 10
125.4826066573029
 20
-146.4935299613276
 30
0.0
 10
125.4640152688883
 20
-146.0422213503293
 30
0.0
 10
126.1984985834834
 20
-146.0794394058755
 30
0.0
 10
126.1984985834834
 20
-146.0794394058755
 30
0.0
 10
126.6318860724267
 20
-146.1359191280832
 30
0.0
 10
126.5561094076933
 20
-146.4749032946655
 30
0.0
  0
SPLINE
  5
98
330
86
100
AcDbEntity
  8
レイヤー 1
 62
   250
420
  2299925
370
     9
100
AcDbSpline
210
0.0
220
0.0
230
1.0
 70
     9
 71
     3
 72
    17
 73
    13
 74
     0
 42
0.0000000001
 43
0.0000000001
 40
0.0
 40
0.0
 40
0.0
 40
0.0
 40
1.0
 40
1.0
 40
1.0
 40
2.0
 40
2.0
 40
2.0
 40
3.0
 40
3.0
 40
3.0
 40
4.0
 40
4.0
 40
4.0
 40
4.0
 10
126.6697744047935
 20
-147.3217110722314
 30
0.0
 10
126.6697744047935
 20
-147.5291091277353
 30
0.0
 10
126.3783094122294
 20
-147.6979132943595
 30
0.0
 10
126.0193580324981
 20
-147.6979132943595
 30
0.0
 10
125.6610416527506
 20
-147.6979132943595
 30
0.0
 10
125.3702822157241
 20
-147.5291091277353
 30
0.0
 10
125.3702822157241
 20
-147.3217110722314
 30
0.0
 10
125.3702822157241
 20
-147.1129371833947
 30
0.0
 10
125.6610416527506
 20
-146.9444857945482
 30
0.0
 10
126.0193580324981
 20
-146.9444857945482
 30
0.0
 10
126.3783094122294
 20
-146.9444857945482
 30
0.0
 10
126.6697744047935
 20
-147.1129371833947
 30
0.0
 10
126.6697744047935
 20
-147.3217110722314
 30
0.0
  0
SPLINE
  5
99
330
86
100
AcDbEntity
  8
レイヤー 1
 62
   250
420
  2299925
370
     9
100
AcDbSpline
210
0.0
220
0.0
230
1.0
 70
     8
 71
     3
 72
    11
 73
     7
 74
     0
 42
0.0000000001
 43
0.0000000001
 40
0.0
 40
0.0
 40
0.0
 40
0.0
 40
1.0
 40
1.0
 40
1.0
 40
2.0
 40
2.0
 40
2.0
 40
2.0
 10
125.4826066573029
 20
-147.5277332944024
 30
0.0
 10
125.4826066573029
 20
-147.5277332944024
 30
0.0
 10
125.4640152688883
 20
-147.0764246834041
 30
0.0
 10
126.1984985834834
 20
-147.1136427389502
 30
0.0
 10
126.1984985834834
 20
-147.1136427389502
 30
0.0
 10
126.6318860724267
 20
-147.1701577389362
 30
0.0
 10
126.5561094076933
 20
-147.5091419055184
 30
0.0
  0
SPLINE
  5
9A
330
86
100
AcDbEntity
  8
レイヤー 1
 62
   250
420
  2299925
370
     9
100
AcDbSpline
210
0.0
220
0.0
230
1.0
 70
     9
 71
     3
 72
    17
 73
    13
 74
     0
 42
0.0000000001
 43
0.0000000001
 40
0.0
 40
0.0
 40
0.0
 40
0.0
 40
1.0
 40
1.0
 40
1.0
 40
2.0
 40
2.0
 40
2.0
 40
3.0
 40
3.0
 40
3.0
 40
4.0
 40
4.0
 40
4.0
 40
4.0
 10
126.6697744047935
 20
-148.4889116274953
 30
0.0
 10
126.6697744047935
 20
-148.6963096829992
 30
0.0
 10
126.3783094122294
 20
-148.8651138496233
 30
0.0
 10
126.0193580324981
 20
-148.8651138496233
 30
0.0
 10
125.6610416527506
 20
-148.8651138496233
 30
0.0
 10
125.3702822157241
 20
-148.6963096829992
 30
0.0
 10
125.3702822157241
 20
-148.4889116274953
 30
0.0
 10
125.3702822157241
 20
-148.2804905164363
 30
0.0
 10
125.6610416527506
 20
-148.1120391275892
 30
0.0
 10
126.0193580324981
 20
-148.1120391275892
 30
0.0
 10
126.3783094122294
 20
-148.1120391275892
 30
0.0
 10
126.6697744047935
 20
-148.2804905164363
 30
0.0
 10
126.6697744047935
 20
-148.4889116274953
 30
0.0
  0
SPLINE
  5
9B
330
86
100
AcDbEntity
  8
レイヤー 1
 62
   250
420
  2299925
370
     9
100
AcDbSpline
210
0.0
220
0.0
230
1.0
 70
     8
 71
     3
 72
    11
 73
     7
 74
     0
 42
0.0000000001
 43
0.0000000001
 40
0.0
 40
0.0
 40
0.0
 40
0.0
 40
1.0
 40
1.0
 40
1.0
 40
2.0
 40
2.0
 40
2.0
 40
2.0
 10
125.4826066573029
 20
-148.6956394052212
 30
0.0
 10
125.4826066573029
 20
-148.6956394052212
 30
0.0
 10
125.4640152688883
 20
-148.2436252386673
 30
0.0
 10
126.1984985834834
 20
-148.2811960719918
 30
0.0
 10
126.1984985834834
 20
-148.2811960719918
 30
0.0
 10
126.6318860724267
 20
-148.3373230164219
 30
0.0
 10
126.5561094076933
 20
-148.676342460782
 30
0.0
  0
SPLINE
  5
9C
330
86
100
AcDbEntity
  8
レイヤー 1
 62
   250
420
  2299925
370
     9
100
AcDbSpline
210
0.0
220
0.0
230
1.0
 70
     9
 71
     3
 72
    17
 73
    13
 74
     0
 42
0.0000000001
 43
0.0000000001
 40
0.0
 40
0.0
 40
0.0
 40
0.0
 40
1.0
 40
1.0
 40
1.0
 40
2.0
 40
2.0
 40
2.0
 40
3.0
 40
3.0
 40
3.0
 40
4.0
 40
4.0
 40
4.0
 40
4.0
 10
119.8946420776415
 20
-149.013280516253
 30
0.0
 10
119.8946420776415
 20
-149.2206785717569
 30
0.0
 10
119.6038826406149
 20
-149.3901530161584
 30
0.0
 10
119.2448959831068
 20
-149.3901530161584
 30
0.0
 10
118.8859446033755
 20
-149.3901530161584
 30
0.0
 10
118.5951498885721
 20
-149.2206785717569
 30
0.0
 10
118.5951498885721
 20
-149.013280516253
 30
0.0
 10
118.5951498885721
 20
-148.8045066274163
 30
0.0
 10
118.8859446033755
 20
-148.6363727385694
 30
0.0
 10
119.2448959831068
 20
-148.6363727385694
 30
0.0
 10
119.6038826406149
 20
-148.6363727385694
 30
0.0
 10
119.8946420776415
 20
-148.8045066274163
 30
0.0
 10
119.8946420776415
 20
-149.013280516253
 30
0.0
  0
SPLINE
  5
9D
330
86
100
AcDbEntity
  8
レイヤー 1
 62
   250
420
  2299925
370
     9
100
AcDbSpline
210
0.0
220
0.0
230
1.0
 70
     8
 71
     3
 72
    11
 73
     7
 74
     0
 42
0.0000000001
 43
0.0000000001
 40
0.0
 40
0.0
 40
0.0
 40
0.0
 40
1.0
 40
1.0
 40
1.0
 40
2.0
 40
2.0
 40
2.0
 40
2.0
 10
118.7081798856884
 20
-149.2196202384236
 30
0.0
 10
118.7081798856884
 20
-149.2196202384236
 30
0.0
 10
118.689553219497
 20
-148.7679588496478
 30
0.0
 10
119.424071811869
 20
-148.8055296829714
 30
0.0
 10
119.424071811869
 20
-148.8055296829714
 30
0.0
 10
119.8567537452748
 20
-148.8620094051798
 30
0.0
 10
119.781647358302
 20
-149.2010288495393
 30
0.0
  0
SPLINE
  5
9E
330
86
100
AcDbEntity
  8
レイヤー 1
 62
   250
420
  2299925
370
     9
100
AcDbSpline
210
0.0
220
0.0
230
1.0
 70
     9
 71
     3
 72
    17
 73
    13
 74
     0
 42
0.0000000001
 43
0.0000000001
 40
0.0
 40
0.0
 40
0.0
 40
0.0
 40
1.0
 40
1.0
 40
1.0
 40
2.0
 40
2.0
 40
2.0
 40
3.0
 40
3.0
 40
3.0
 40
4.0
 40
4.0
 40
4.0
 40
4.0
 10
124.3863850186031
 20
-149.3378007939499
 30
0.0
 10
124.3863850186031
 20
-149.546574682786
 30
0.0
 10
124.0955903037997
 20
-149.7146732938554
 30
0.0
 10
123.7373092018291
 20
-149.7146732938554
 30
0.0
 10
123.3783225443209
 20
-149.7146732938554
 30
0.0
 10
123.0868928295337
 20
-149.546574682786
 30
0.0
 10
123.0868928295337
 20
-149.3378007939499
 30
0.0
 10
123.0868928295337
 20
-149.1296971828905
 30
0.0
 10
123.3783225443209
 20
-148.9615985718212
 30
0.0
 10
123.7373092018291
 20
-148.9615985718212
 30
0.0
 10
124.0955903037997
 20
-148.9615985718212
 30
0.0
 10
124.3863850186031
 20
-149.1296971828905
 30
0.0
 10
124.3863850186031
 20
-149.3378007939499
 30
0.0
  0
SPLINE
  5
9F
330
86
100
AcDbEntity
  8
レイヤー 1
 62
   250
420
  2299925
370
     9
100
AcDbSpline
210
0.0
220
0.0
230
1.0
 70
     8
 71
     3
 72
    11
 73
     7
 74
     0
 42
0.0000000001
 43
0.0000000001
 40
0.0
 40
0.0
 40
0.0
 40
0.0
 40
1.0
 40
1.0
 40
1.0
 40
2.0
 40
2.0
 40
2.0
 40
2.0
 10
123.1998875488732
 20
-149.5448460716754
 30
0.0
 10
123.1998875488732
 20
-149.5448460716754
 30
0.0
 10
123.1812608826817
 20
-149.0931846828999
 30
0.0
 10
123.9157794750537
 20
-149.1304027384461
 30
0.0
 10
123.9157794750537
 20
-149.1304027384461
 30
0.0
 10
124.3491669639971
 20
-149.1868824606539
 30
0.0
 10
124.2726847437261
 20
-149.5265721827913
 30
0.0
  0
SPLINE
  5
A0
330
86
100
AcDbEntity
  8
レイヤー 1
 62
   250
420
  2299925
370
     9
100
AcDbSpline
210
0.0
220
0.0
230
1.0
 70
     9
 71
     3
 72
    17
 73
    13
 74
     0
 42
0.0000000001
 43
0.0000000001
 40
0.0
 40
0.0
 40
0.0
 40
0.0
 40
1.0
 40
1.0
 40
1.0
 40
2.0
 40
2.0
 40
2.0
 40
3.0
 40
3.0
 40
3.0
 40
4.0
 40
4.0
 40
4.0
 40
4.0
 10
122.2290431291971
 20
-148.0376030164969
 30
0.0
 10
122.2290431291971
 20
-148.2450010720008
 30
0.0
 10
121.9382836921705
 20
-148.4141580164028
 30
0.0
 10
121.5800025901999
 20
-148.4141580164028
 30
0.0
 10
121.2210159326918
 20
-148.4141580164028
 30
0.0
 10
120.9302564956652
 20
-148.2450010720008
 30
0.0
 10
120.9302564956652
 20
-148.0376030164969
 30
0.0
 10
120.9302564956652
 20
-147.829181905438
 30
0.0
 10
121.2210159326918
 20
-147.6607305165909
 30
0.0
 10
121.5800025901999
 20
-147.6607305165909
 30
0.0
 10
121.9382836921705
 20
-147.6607305165909
 30
0.0
 10
122.2290431291971
 20
-147.829181905438
 30
0.0
 10
122.2290431291971
 20
-148.0376030164969
 30
0.0
  0
SPLINE
  5
A1
330
86
100
AcDbEntity
  8
レイヤー 1
 62
   250
420
  2299925
370
     9
100
AcDbSpline
210
0.0
220
0.0
230
1.0
 70
     8
 71
     3
 72
    11
 73
     7
 74
     0
 42
0.0000000001
 43
0.0000000001
 40
0.0
 40
0.0
 40
0.0
 40
0.0
 40
1.0
 40
1.0
 40
1.0
 40
2.0
 40
2.0
 40
2.0
 40
2.0
 10
121.0425456594671
 20
-148.2443307942228
 30
0.0
 10
121.0425456594671
 20
-148.2443307942228
 30
0.0
 10
121.0239542710526
 20
-147.7923166276696
 30
0.0
 10
121.7577704218618
 20
-147.8298874609935
 30
0.0
 10
121.7577704218618
 20
-147.8298874609935
 30
0.0
 10
122.1911547968304
 20
-147.8860144054239
 30
0.0
 10
122.1160484098576
 20
-148.2253866275607
 30
0.0
  0
SPLINE
  5
A2
330
86
100
AcDbEntity
  8
レイヤー 1
 62
   250
420
  2299925
370
     9
100
AcDbSpline
210
0.0
220
0.0
230
1.0
 70
     9
 71
     3
 72
    17
 73
    13
 74
     0
 42
0.0000000001
 43
0.0000000001
 40
0.0
 40
0.0
 40
0.0
 40
0.0
 40
1.0
 40
1.0
 40
1.0
 40
2.0
 40
2.0
 40
2.0
 40
3.0
 40
3.0
 40
3.0
 40
4.0
 40
4.0
 40
4.0
 40
4.0
 10
122.2290431291971
 20
-149.0718416273492
 30
0.0
 10
122.2290431291971
 20
-149.2799099606305
 30
0.0
 10
121.9382836921705
 20
-149.4480438494779
 30
0.0
 10
121.5800025901999
 20
-149.4480438494779
 30
0.0
 10
121.2210159326918
 20
-149.4480438494779
 30
0.0
 10
120.9302564956652
 20
-149.2799099606305
 30
0.0
 10
120.9302564956652
 20
-149.0718416273492
 30
0.0
 10
120.9302564956652
 20
-148.8637380162905
 30
0.0
 10
121.2210159326918
 20
-148.6949338496656
 30
0.0
 10
121.5800025901999
 20
-148.6949338496656
 30
0.0
 10
121.9382836921705
 20
-148.6949338496656
 30
0.0
 10
122.2290431291971
 20
-148.8637380162905
 30
0.0
 10
122.2290431291971
 20
-149.0718416273492
 30
0.0
  0
SPLINE
  5
A3
330
86
100
AcDbEntity
  8
レイヤー 1
 62
   250
420
  2299925
370
     9
100
AcDbSpline
210
0.0
220
0.0
230
1.0
 70
     8
 71
     3
 72
    11
 73
     7
 74
     0
 42
0.0000000001
 43
0.0000000001
 40
0.0
 40
0.0
 40
0.0
 40
0.0
 40
1.0
 40
1.0
 40
1.0
 40
2.0
 40
2.0
 40
2.0
 40
2.0
 10
121.0425456594671
 20
-149.2785341272975
 30
0.0
 10
121.0425456594671
 20
-149.2785341272975
 30
0.0
 10
121.0239542710526
 20
-148.8272255162992
 30
0.0
 10
121.7577704218618
 20
-148.8640907940682
 30
0.0
 10
121.7577704218618
 20
-148.8640907940682
 30
0.0
 10
122.1911547968304
 20
-148.9202530162764
 30
0.0
 10
122.1160484098576
 20
-149.260295516191
 30
0.0
  0
SPLINE
  5
A4
330
86
100
AcDbEntity
  8
レイヤー 1
 62
   250
420
  2299925
370
     9
100
AcDbSpline
210
0.0
220
0.0
230
1.0
 70
     9
 71
     3
 72
    17
 73
    13
 74
     0
 42
0.0000000001
 43
0.0000000001
 40
0.0
 40
0.0
 40
0.0
 40
0.0
 40
1.0
 40
1.0
 40
1.0
 40
2.0
 40
2.0
 40
2.0
 40
3.0
 40
3.0
 40
3.0
 40
4.0
 40
4.0
 40
4.0
 40
4.0
 10
124.2747661325619
 20
-148.3900632941863
 30
0.0
 10
124.2747661325619
 20
-148.5981316274681
 30
0.0
 10
123.9833011399978
 20
-148.766265516315
 30
0.0
 10
123.6250231991727
 20
-148.766265516315
 30
0.0
 10
123.266033380519
 20
-148.766265516315
 30
0.0
 10
122.9752739434925
 20
-148.5981316274681
 30
0.0
 10
122.9752739434925
 20
-148.3900632941863
 30
0.0
 10
122.9752739434925
 20
-148.1816069053498
 30
0.0
 10
123.266033380519
 20
-148.0131555165033
 30
0.0
 10
123.6250231991727
 20
-148.0131555165033
 30
0.0
 10
123.9833011399978
 20
-148.0131555165033
 30
0.0
 10
124.2747661325619
 20
-148.1816069053498
 30
0.0
 10
124.2747661325619
 20
-148.3900632941863
 30
0.0
  0
SPLINE
  5
A5
330
86
100
AcDbEntity
  8
レイヤー 1
 62
   250
420
  2299925
370
     9
100
AcDbSpline
210
0.0
220
0.0
230
1.0
 70
     8
 71
     3
 72
    11
 73
     7
 74
     0
 42
0.0000000001
 43
0.0000000001
 40
0.0
 40
0.0
 40
0.0
 40
0.0
 40
1.0
 40
1.0
 40
1.0
 40
2.0
 40
2.0
 40
2.0
 40
2.0
 10
123.088268662832
 20
-148.5967557941346
 30
0.0
 10
123.088268662832
 20
-148.5967557941346
 30
0.0
 10
123.0696419966405
 20
-148.1450944053592
 30
0.0
 10
123.8034550334749
 20
-148.1823124609053
 30
0.0
 10
123.8034550334749
 20
-148.1823124609053
 30
0.0
 10
124.2375480779558
 20
-148.2387921831134
 30
0.0
 10
124.1617361354455
 20
-148.5781644052503
 30
0.0
  0
SPLINE
  5
A6
330
86
100
AcDbEntity
  8
レイヤー 1
 62
   250
420
  2299925
370
     9
100
AcDbSpline
210
0.0
220
0.0
230
1.0
 70
     9
 71
     3
 72
    17
 73
    13
 74
     0
 42
0.0000000001
 43
0.0000000001
 40
0.0
 40
0.0
 40
0.0
 40
0.0
 40
1.0
 40
1.0
 40
1.0
 40
2.0
 40
2.0
 40
2.0
 40
3.0
 40
3.0
 40
3.0
 40
4.0
 40
4.0
 40
4.0
 40
4.0
 10
122.2290431291971
 20
-150.2390421826131
 30
0.0
 10
122.2290431291971
 20
-150.4471105158943
 30
0.0
 10
121.9382836921705
 20
-150.6152444047411
 30
0.0
 10
121.5800025901999
 20
-150.6152444047411
 30
0.0
 10
121.2210159326918
 20
-150.6152444047411
 30
0.0
 10
120.9302564956652
 20
-150.4471105158943
 30
0.0
 10
120.9302564956652
 20
-150.2390421826131
 30
0.0
 10
120.9302564956652
 20
-150.0309385715543
 30
0.0
 10
121.2210159326918
 20
-149.862839960485
 30
0.0
 10
121.5800025901999
 20
-149.862839960485
 30
0.0
 10
121.9382836921705
 20
-149.862839960485
 30
0.0
 10
122.2290431291971
 20
-150.0309385715543
 30
0.0
 10
122.2290431291971
 20
-150.2390421826131
 30
0.0
  0
SPLINE
  5
A7
330
86
100
AcDbEntity
  8
レイヤー 1
 62
   250
420
  2299925
370
     9
100
AcDbSpline
210
0.0
220
0.0
230
1.0
 70
     8
 71
     3
 72
    11
 73
     7
 74
     0
 42
0.0000000001
 43
0.0000000001
 40
0.0
 40
0.0
 40
0.0
 40
0.0
 40
1.0
 40
1.0
 40
1.0
 40
2.0
 40
2.0
 40
2.0
 40
2.0
 10
121.0425456594671
 20
-150.4453819047837
 30
0.0
 10
121.0425456594671
 20
-150.4453819047837
 30
0.0
 10
121.0239542710526
 20
-149.9944260715631
 30
0.0
 10
121.7577704218618
 20
-150.0316441271092
 30
0.0
 10
121.7577704218618
 20
-150.0316441271092
 30
0.0
 10
122.1911547968304
 20
-150.0874535715403
 30
0.0
 10
122.1160484098576
 20
-150.4267905158994
 30
0.0
  0
LINE
  5
A8
330
86
100
AcDbEntity
  8
レイヤー 1
 62
   250
420
  2299925
370
     9
100
AcDbLine
 10
116.869854932588
 20
-149.0855999606793
 30
0.0
 11
122.2745161835925
 21
-151.6714963489215
 31
0.0
  0
LINE
  5
A9
330
86
100
AcDbEntity
  8
レイヤー 1
 62
   250
420
  2299925
370
     9
100
AcDbLine
 10
125.8436426430627
 20
-145.3097841282898
 30
0.0
 11
116.8464304887412
 21
-149.0745932940156
 31
0.0
  0
ENDBLK
  5
89
330
86
100
AcDbEntity
  8
0
100
AcDbBlockEnd
  0
BLOCK
  5
AD
330
AB
100
AcDbEntity
  8
0
100
AcDbBlockBegin
  2
Block_4
 70
     0
 10
0.0
 20
0.0
 30
0.0
  3
Block_4
  1

  0
LINE
  5
AF
330
AB
100
AcDbEntity
  8
レイヤー 1
 62
   250
420
  2299925
370
    25
100
AcDbLine
 10
107.7961637751883
 20
-144.9525260728237
 30
0.0
 11
108.5740740331199
 21
-144.9525260728237
 31
0.0
  0
INSERT
  5
B1
330
AB
100
AcDbEntity
  8
レイヤー 1
100
AcDbBlockReference
  2
Block_5
 10
0.0
 20
0.0
 30
0.0
  0
ENDBLK
  5
AE
330
AB
100
AcDbEntity
  8
0
100
AcDbBlockEnd
  0
BLOCK
  5
B2
330
B0
100
AcDbEntity
  8
0
100
AcDbBlockBegin
  2
Block_5
 70
     0
 10
0.0
 20
0.0
 30
0.0
  3
Block_5
  1

  0
LINE
  5
B4
330
B0
100
AcDbEntity
  8
レイヤー 1
  6
AI-Linetype-0
 62
   154
420
    23468
370
    25
100
AcDbLine
 10
84.79773436192711
 20
-146.8108182945811
 30
0.0
 11
94.79817271790578
 21
-146.8108182945811
 31
0.0
  0
LINE
  5
B6
330
B0
100
AcDbEntity
  8
レイヤー 1
 62
   250
420
  2299925
370
    25
100
AcDbLine
 10
108.5740740331199
 20
-154.2146713482859
 30
0.0
 11
103.5745454264078
 21
-154.2146713482859
 31
0.0
  0
LINE
  5
B7
330
B0
100
AcDbEntity
  8
レイヤー 1
 62
   250
420
  2299925
370
    25
100
AcDbLine
 10
84.79773436192711
 20
-145.7145966281889
 30
0.0
 11
84.79773436192711
 21
-146.214800239175
 31
0.0
  0
LINE
  5
B8
330
B0
100
AcDbEntity
  8
レイヤー 1
 62
   250
420
  2299925
370
    25
100
AcDbLine
 10
104.888498849369
 20
-146.214800239175
 30
0.0
 11
84.79773436192711
 21
-146.214800239175
 31
0.0
  0
LINE
  5
B9
330
B0
100
AcDbEntity
  8
レイヤー 1
 62
   250
420
  2299925
370
    25
100
AcDbLine
 10
107.7961637751883
 20
-153.2145463485363
 30
0.0
 11
104.4571954261872
 21
-153.2145463485363
 31
0.0
  0
LINE
  5
BA
330
B0
100
AcDbEntity
  8
レイヤー 1
 62
   250
420
  2299925
370
    25
100
AcDbLine
 10
103.5745454264078
 20
-154.2146713482859
 30
0.0
 11
104.888498849369
 21
-146.214800239175
 31
0.0
  0
LINE
  5
BB
330
B0
100
AcDbEntity
  8
レイヤー 1
 62
   250
420
  2299925
370
    25
100
AcDbLine
 10
104.4571954261872
 20
-153.2145463485363
 30
0.0
 11
105.7994063261298
 21
-144.9525260728237
 31
0.0
  0
LINE
  5
BC
330
B0
100
AcDbEntity
  8
レイヤー 1
 62
   250
420
  2299925
370
    25
100
AcDbLine
 10
84.79773436192711
 20
-145.7145966281889
 30
0.0
 11
85.31176684881305
 21
-146.0966549614269
 31
0.0
  0
LINE
  5
BD
330
B0
100
AcDbEntity
  8
レイヤー 1
 62
   250
420
  2299925
370
    25
100
AcDbLine
 10
85.31176684881305
 20
-146.0966549614269
 30
0.0
 11
85.79715378087424
 21
-145.6791071837537
 31
0.0
  0
LINE
  5
BE
330
B0
100
AcDbEntity
  8
レイヤー 1
 62
   250
420
  2299925
370
    25
100
AcDbLine
 10
86.31118626776018
 20
-146.0611655169907
 30
0.0
 11
86.79692597759014
 21
-145.6432649615401
 31
0.0
  0
LINE
  5
BF
330
B0
100
AcDbEntity
  8
レイヤー 1
 62
   250
420
  2299925
370
    25
100
AcDbLine
 10
85.79715378087424
 20
-145.6791071837537
 30
0.0
 11
86.31118626776018
 21
-146.0611655169907
 31
0.0
  0
LINE
  5
C0
330
B0
100
AcDbEntity
  8
レイヤー 1
 62
   250
420
  2299925
370
    25
100
AcDbLine
 10
86.79692597759014
 20
-145.6432649615401
 30
0.0
 11
87.31060568670732
 21
-146.0253232947775
 31
0.0
  0
LINE
  5
C1
330
B0
100
AcDbEntity
  8
レイヤー 1
 62
   250
420
  2299925
370
    25
100
AcDbLine
 10
87.31060568670732
 20
-146.0253232947775
 30
0.0
 11
87.79634539653761
 21
-145.6077755171046
 31
0.0
  0
LINE
  5
C2
330
B0
100
AcDbEntity
  8
レイヤー 1
 62
   250
420
  2299925
370
    25
100
AcDbLine
 10
87.79634539653761
 20
-145.6077755171046
 30
0.0
 11
88.30967232788566
 21
-145.9895163503424
 31
0.0
  0
LINE
  5
C3
330
B0
100
AcDbEntity
  8
レイヤー 1
 62
   250
420
  2299925
370
    25
100
AcDbLine
 10
88.30967232788566
 20
-145.9895163503424
 30
0.0
 11
88.7954473154925
 21
-145.5719685726689
 31
0.0
  0
LINE
  5
C4
330
B0
100
AcDbEntity
  8
レイヤー 1
 62
   250
420
  2299925
370
    25
100
AcDbLine
 10
88.7954473154925
 20
-145.5719685726689
 30
0.0
 11
89.30944452460158
 21
-145.9536741281292
 31
0.0
  0
LINE
  5
C5
330
B0
100
AcDbEntity
  8
レイヤー 1
 62
   250
420
  2299925
370
    25
100
AcDbLine
 10
89.30944452460158
 20
-145.9536741281292
 30
0.0
 11
89.79451395667087
 21
-145.5361263504557
 31
0.0
  0
LINE
  5
C6
330
B0
100
AcDbEntity
  8
レイヤー 1
 62
   250
420
  2299925
370
    25
100
AcDbLine
 10
89.79451395667087
 20
-145.5361263504557
 30
0.0
 11
90.30851116577993
 21
-145.9181846836937
 31
0.0
  0
LINE
  5
C7
330
B0
100
AcDbEntity
  8
レイヤー 1
 62
   250
420
  2299925
370
    25
100
AcDbLine
 10
90.30851116577993
 20
-145.9181846836937
 30
0.0
 11
90.79428615338677
 21
-145.5006369060202
 31
0.0
  0
LINE
  5
C8
330
B0
100
AcDbEntity
  8
レイヤー 1
 62
   250
420
  2299925
370
    25
100
AcDbLine
 10
90.79428615338677
 20
-145.5006369060202
 30
0.0
 11
91.30828336249583
 21
-145.8826952392575
 31
0.0
  0
LINE
  5
C9
330
B0
100
AcDbEntity
  8
レイヤー 1
 62
   250
420
  2299925
370
    25
100
AcDbLine
 10
91.30828336249583
 20
-145.8826952392575
 30
0.0
 11
91.79335279456514
 21
-145.4648299615845
 31
0.0
  0
LINE
  5
CA
330
B0
100
AcDbEntity
  8
レイヤー 1
 62
   250
420
  2299925
370
    25
100
AcDbLine
 10
92.30735000367419
 20
-145.8468882948225
 30
0.0
 11
92.79312499128103
 21
-145.429340517149
 31
0.0
  0
LINE
  5
CB
330
B0
100
AcDbEntity
  8
レイヤー 1
 62
   250
420
  2299925
370
    25
100
AcDbLine
 10
91.79335279456514
 20
-145.4648299615845
 30
0.0
 11
92.30735000367419
 21
-145.8468882948225
 31
0.0
  0
LINE
  5
CC
330
B0
100
AcDbEntity
  8
レイヤー 1
 62
   250
420
  2299925
370
    25
100
AcDbLine
 10
92.79312499128103
 20
-145.429340517149
 30
0.0
 11
93.30712220039009
 21
-145.8110460726092
 31
0.0
  0
LINE
  5
CD
330
B0
100
AcDbEntity
  8
レイヤー 1
 62
   250
420
  2299925
370
    25
100
AcDbLine
 10
93.30712220039009
 20
-145.8110460726092
 30
0.0
 11
93.7921916324594
 21
-145.3934982949357
 31
0.0
  0
LINE
  5
CE
330
B0
100
AcDbEntity
  8
レイヤー 1
 62
   250
420
  2299925
370
    25
100
AcDbLine
 10
94.30622411934534
 20
-145.775203850396
 30
0.0
 11
94.79129355141463
 21
-145.3576913505
 31
0.0
  0
LINE
  5
CF
330
B0
100
AcDbEntity
  8
レイヤー 1
 62
   250
420
  2299925
370
    25
100
AcDbLine
 10
93.7921916324594
 20
-145.3934982949357
 30
0.0
 11
94.30622411934534
 21
-145.775203850396
 31
0.0
  0
LINE
  5
D0
330
B0
100
AcDbEntity
  8
レイヤー 1
 62
   250
420
  2299925
370
    25
100
AcDbLine
 10
95.30529076052369
 20
-145.739749683738
 30
0.0
 11
95.79103047035365
 21
-145.3222019060645
 31
0.0
  0
LINE
  5
D1
330
B0
100
AcDbEntity
  8
レイヤー 1
 62
   250
420
  2299925
370
    25
100
AcDbLine
 10
94.79129355141463
 20
-145.3576913505
 30
0.0
 11
95.30529076052369
 21
-145.739749683738
 31
0.0
  0
LINE
  5
D2
330
B0
100
AcDbEntity
  8
レイヤー 1
 62
   250
420
  2299925
370
    25
100
AcDbLine
 10
95.79103047035365
 20
-145.3222019060645
 30
0.0
 11
96.30506295723961
 21
-145.7042602393025
 31
0.0
  0
LINE
  5
D3
330
B0
100
AcDbEntity
  8
レイヤー 1
 62
   250
420
  2299925
370
    25
100
AcDbLine
 10
96.30506295723961
 20
-145.7042602393025
 30
0.0
 11
96.79013238930888
 21
-145.2863596838513
 31
0.0
  0
LINE
  5
D4
330
B0
100
AcDbEntity
  8
レイヤー 1
 62
   250
420
  2299925
370
    25
100
AcDbLine
 10
96.79013238930888
 20
-145.2863596838513
 30
0.0
 11
97.30412959841794
 21
-145.6684180170893
 31
0.0
  0
LINE
  5
D5
330
B0
100
AcDbEntity
  8
レイヤー 1
 62
   250
420
  2299925
370
    25
100
AcDbLine
 10
97.30412959841794
 20
-145.6684180170893
 30
0.0
 11
97.78990458602478
 21
-145.2508702394158
 31
0.0
  0
LINE
  5
D6
330
B0
100
AcDbEntity
  8
レイヤー 1
 62
   250
420
  2299925
370
    25
100
AcDbLine
 10
97.78990458602478
 20
-145.2508702394158
 30
0.0
 11
98.30390179513386
 21
-145.6326110726535
 31
0.0
  0
LINE
  5
D7
330
B0
100
AcDbEntity
  8
レイヤー 1
 62
   250
420
  2299925
370
    25
100
AcDbLine
 10
98.30390179513386
 20
-145.6326110726535
 30
0.0
 11
98.78897122720315
 21
-145.21506329498
 31
0.0
  0
LINE
  5
D8
330
B0
100
AcDbEntity
  8
レイヤー 1
 62
   250
420
  2299925
370
    25
100
AcDbLine
 10
98.78897122720315
 20
-145.21506329498
 30
0.0
 11
99.30296843631222
 21
-145.5967688504406
 31
0.0
  0
LINE
  5
D9
330
B0
100
AcDbEntity
  8
レイヤー 1
 62
   250
420
  2299925
370
    25
100
AcDbLine
 10
99.30296843631222
 20
-145.5967688504406
 30
0.0
 11
99.78874342391906
 21
-145.1792210727668
 31
0.0
  0
LINE
  5
DA
330
B0
100
AcDbEntity
  8
レイヤー 1
 62
   250
420
  2299925
370
    25
100
AcDbLine
 10
99.78874342391906
 20
-145.1792210727668
 30
0.0
 11
100.3027406330281
 21
-145.5612794060048
 31
0.0
  0
LINE
  5
DB
330
B0
100
AcDbEntity
  8
レイヤー 1
 62
   250
420
  2299925
370
    25
100
AcDbLine
 10
100.3027406330281
 20
-145.5612794060048
 30
0.0
 11
100.7878100650974
 21
-145.1437316283313
 31
0.0
  0
LINE
  5
DC
330
B0
100
AcDbEntity
  8
レイヤー 1
 62
   250
420
  2299925
370
    25
100
AcDbLine
 10
100.7878100650974
 20
-145.1437316283313
 30
0.0
 11
101.3018072742065
 21
-145.5257899615693
 31
0.0
  0
LINE
  5
DD
330
B0
100
AcDbEntity
  8
レイヤー 1
 62
   250
420
  2299925
370
    25
100
AcDbLine
 10
101.3018072742065
 20
-145.5257899615693
 30
0.0
 11
101.7875822618133
 21
-145.1078894061184
 31
0.0
  0
LINE
  5
DE
330
B0
100
AcDbEntity
  8
レイヤー 1
 62
   250
420
  2299925
370
    25
100
AcDbLine
 10
101.7875822618133
 20
-145.1078894061184
 30
0.0
 11
102.3015794709223
 21
-145.4899830171336
 31
0.0
  0
LINE
  5
DF
330
B0
100
AcDbEntity
  8
レイヤー 1
 62
   250
420
  2299925
370
    25
100
AcDbLine
 10
102.3015794709223
 20
-145.4899830171336
 30
0.0
 11
102.7866489029916
 21
-145.0724352394601
 31
0.0
  0
LINE
  5
E0
330
B0
100
AcDbEntity
  8
レイヤー 1
 62
   250
420
  2299925
370
    25
100
AcDbLine
 10
102.7866489029916
 20
-145.0724352394601
 30
0.0
 11
103.3006813898776
 21
-145.4541407949203
 31
0.0
  0
LINE
  5
E1
330
B0
100
AcDbEntity
  8
レイヤー 1
 62
   250
420
  2299925
370
    25
100
AcDbLine
 10
103.3006813898776
 20
-145.4541407949203
 30
0.0
 11
103.7853980441781
 21
-145.0365930172475
 31
0.0
  0
LINE
  5
E2
330
B0
100
AcDbEntity
  8
レイヤー 1
 62
   250
420
  2299925
370
    25
100
AcDbLine
 10
103.7853980441781
 20
-145.0365930172475
 30
0.0
 11
104.2993952532872
 21
-145.4182985727071
 31
0.0
  0
LINE
  5
E3
330
B0
100
AcDbEntity
  8
レイヤー 1
 62
   250
420
  2299925
370
    25
100
AcDbLine
 10
104.2993952532872
 20
-145.4182985727071
 30
0.0
 11
104.785170240894
 21
-145.0007507950336
 31
0.0
  0
LINE
  5
E4
330
B0
100
AcDbEntity
  8
レイヤー 1
 62
   250
420
  2299925
370
    25
100
AcDbLine
 10
104.859167450112
 20
-144.9525260728237
 30
0.0
 11
105.7994063261298
 21
-144.9525260728237
 31
0.0
  0
LINE
  5
E5
330
B0
100
AcDbEntity
  8
レイヤー 1
 62
   250
420
  2299925
370
    25
100
AcDbLine
 10
107.7961637751883
 20
-153.2145463485363
 30
0.0
 11
107.7961637751883
 21
-144.9525260728237
 31
0.0
  0
LINE
  5
E6
330
B0
100
AcDbEntity
  8
レイヤー 1
 62
   250
420
  2299925
370
    25
100
AcDbLine
 10
108.5740740331199
 20
-154.2146713482859
 30
0.0
 11
108.5740740331199
 21
-144.9525260728237
 31
0.0
  0
SPLINE
  5
E7
330
B0
100
AcDbEntity
  8
レイヤー 1
 62
   250
420
  2299925
370
     9
100
AcDbSpline
210
0.0
220
0.0
230
1.0
 70
     9
 71
     3
 72
    17
 73
    13
 74
     0
 42
0.0000000001
 43
0.0000000001
 40
0.0
 40
0.0
 40
0.0
 40
0.0
 40
1.0
 40
1.0
 40
1.0
 40
2.0
 40
2.0
 40
2.0
 40
3.0
 40
3.0
 40
3.0
 40
4.0
 40
4.0
 40
4.0
 40
4.0
 10
84.89764102604494
 20
-140.9524494071573
 30
0.0
 10
84.89764102604494
 20
-140.8973102405042
 30
0.0
 10
84.85287352718705
 20
-140.8525074627378
 30
0.0
 10
84.79773436192711
 20
-140.8525074627378
 30
0.0
 10
84.74263047444436
 20
-140.8525074627378
 30
0.0
 10
84.69782769780927
 20
-140.8973102405042
 30
0.0
 10
84.69782769780927
 20
-140.9524494071573
 30
0.0
 10
84.69782769780927
 20
-141.0079060738099
 30
0.0
 10
84.74263047444436
 20
-141.0523560737989
 30
0.0
 10
84.79773436192711
 20
-141.0523560737989
 30
0.0
 10
84.85287352718705
 20
-141.0523560737989
 30
0.0
 10
84.89764102604494
 20
-141.0079060738099
 30
0.0
 10
84.89764102604494
 20
-140.9524494071573
 30
0.0
  0
SPLINE
  5
E8
330
B0
100
AcDbEntity
  8
レイヤー 1
 62
   250
420
  2299925
370
     9
100
AcDbSpline
210
0.0
220
0.0
230
1.0
 70
     9
 71
     3
 72
    17
 73
    13
 74
     0
 42
0.0000000001
 43
0.0000000001
 40
0.0
 40
0.0
 40
0.0
 40
0.0
 40
1.0
 40
1.0
 40
1.0
 40
2.0
 40
2.0
 40
2.0
 40
3.0
 40
3.0
 40
3.0
 40
4.0
 40
4.0
 40
4.0
 40
4.0
 10
80.8979172391975
 20
-145.7145966281889
 30
0.0
 10
80.8979172391975
 20
-145.6594574615358
 30
0.0
 10
80.85311446256275
 20
-145.6146899615472
 30
0.0
 10
80.7979752973028
 20
-145.6146899615472
 30
0.0
 10
80.74287140981972
 20
-145.6146899615472
 30
0.0
 10
80.69806863318497
 20
-145.6594574615358
 30
0.0
 10
80.69806863318497
 20
-145.7145966281889
 30
0.0
 10
80.69806863318497
 20
-145.7697005170638
 30
0.0
 10
80.74287140981972
 20
-145.8145032948305
 30
0.0
 10
80.7979752973028
 20
-145.8145032948305
 30
0.0
 10
80.85311446256275
 20
-145.8145032948305
 30
0.0
 10
80.8979172391975
 20
-145.7697005170638
 30
0.0
 10
80.8979172391975
 20
-145.7145966281889
 30
0.0
  0
SPLINE
  5
E9
330
B0
100
AcDbEntity
  8
レイヤー 1
 62
   250
420
  2299925
370
     9
100
AcDbSpline
210
0.0
220
0.0
230
1.0
 70
     9
 71
     3
 72
    17
 73
    13
 74
     0
 42
0.0000000001
 43
0.0000000001
 40
0.0
 40
0.0
 40
0.0
 40
0.0
 40
1.0
 40
1.0
 40
1.0
 40
2.0
 40
2.0
 40
2.0
 40
3.0
 40
3.0
 40
3.0
 40
4.0
 40
4.0
 40
4.0
 40
4.0
 10
80.8979172391975
 20
-146.214800239175
 30
0.0
 10
80.8979172391975
 20
-146.1596963502995
 30
0.0
 10
80.85311446256275
 20
-146.1148935725334
 30
0.0
 10
80.7979752973028
 20
-146.1148935725334
 30
0.0
 10
80.74287140981972
 20
-146.1148935725334
 30
0.0
 10
80.69806863318497
 20
-146.1596963502995
 30
0.0
 10
80.69806863318497
 20
-146.214800239175
 30
0.0
 10
80.69806863318497
 20
-146.2699394058275
 30
0.0
 10
80.74287140981972
 20
-146.3147069058167
 30
0.0
 10
80.7979752973028
 20
-146.3147069058167
 30
0.0
 10
80.85311446256275
 20
-146.3147069058167
 30
0.0
 10
80.8979172391975
 20
-146.2699394058275
 30
0.0
 10
80.8979172391975
 20
-146.214800239175
 30
0.0
  0
SPLINE
  5
EA
330
B0
100
AcDbEntity
  8
レイヤー 1
 62
   250
420
  2299925
370
     9
100
AcDbSpline
210
0.0
220
0.0
230
1.0
 70
     9
 71
     3
 72
    17
 73
    13
 74
     0
 42
0.0000000001
 43
0.0000000001
 40
0.0
 40
0.0
 40
0.0
 40
0.0
 40
1.0
 40
1.0
 40
1.0
 40
2.0
 40
2.0
 40
2.0
 40
3.0
 40
3.0
 40
3.0
 40
4.0
 40
4.0
 40
4.0
 40
4.0
 10
80.8979172391975
 20
-154.2146713482859
 30
0.0
 10
80.8979172391975
 20
-154.159567459411
 30
0.0
 10
80.85311446256275
 20
-154.1147646816443
 30
0.0
 10
80.7979752973028
 20
-154.1147646816443
 30
0.0
 10
80.74287140981972
 20
-154.1147646816443
 30
0.0
 10
80.69806863318497
 20
-154.159567459411
 30
0.0
 10
80.69806863318497
 20
-154.2146713482859
 30
0.0
 10
80.69806863318497
 20
-154.269810514939
 30
0.0
 10
80.74287140981972
 20
-154.3145780149276
 30
0.0
 10
80.7979752973028
 20
-154.3145780149276
 30
0.0
 10
80.85311446256275
 20
-154.3145780149276
 30
0.0
 10
80.8979172391975
 20
-154.269810514939
 30
0.0
 10
80.8979172391975
 20
-154.2146713482859
 30
0.0
  0
SPLINE
  5
EB
330
B0
100
AcDbEntity
  8
レイヤー 1
 62
   250
420
  2299925
370
     9
100
AcDbSpline
210
0.0
220
0.0
230
1.0
 70
     9
 71
     3
 72
    17
 73
    13
 74
     0
 42
0.0000000001
 43
0.0000000001
 40
0.0
 40
0.0
 40
0.0
 40
0.0
 40
1.0
 40
1.0
 40
1.0
 40
2.0
 40
2.0
 40
2.0
 40
3.0
 40
3.0
 40
3.0
 40
4.0
 40
4.0
 40
4.0
 40
4.0
 10
103.6744494358975
 20
-158.2147832917306
 30
0.0
 10
103.6744494358975
 20
-158.1596441250775
 30
0.0
 10
103.6296819370396
 20
-158.114876625089
 30
0.0
 10
103.5745454264078
 20
-158.114876625089
 30
0.0
 10
103.5194388842966
 20
-158.114876625089
 30
0.0
 10
103.4746361076618
 20
-158.1596441250775
 30
0.0
 10
103.4746361076618
 20
-158.2147832917306
 30
0.0
 10
103.4746361076618
 20
-158.2698871806055
 30
0.0
 10
103.5194388842966
 20
-158.3146899583723
 30
0.0
 10
103.5745454264078
 20
-158.3146899583723
 30
0.0
 10
103.6296819370396
 20
-158.3146899583723
 30
0.0
 10
103.6744494358975
 20
-158.2698871806055
 30
0.0
 10
103.6744494358975
 20
-158.2147832917306
 30
0.0
  0
CIRCLE
  5
EC
330
B0
100
AcDbEntity
  8
レイヤー 1
 62
   250
420
  2299925
370
     9
100
AcDbCircle
 10
108.5740740331199
 20
-158.2147832917306
 30
0.0
 40
0.0999066653797365
  0
SPLINE
  5
ED
330
B0
100
AcDbEntity
  8
レイヤー 1
 62
   250
420
  2299925
370
     9
100
AcDbSpline
210
0.0
220
0.0
230
1.0
 70
     9
 71
     3
 72
    17
 73
    13
 74
     0
 42
0.0000000001
 43
0.0000000001
 40
0.0
 40
0.0
 40
0.0
 40
0.0
 40
1.0
 40
1.0
 40
1.0
 40
2.0
 40
2.0
 40
2.0
 40
3.0
 40
3.0
 40
3.0
 40
4.0
 40
4.0
 40
4.0
 40
4.0
 10
107.8960732031051
 20
-140.9524494071573
 30
0.0
 10
107.8960732031051
 20
-140.8973102405042
 30
0.0
 10
107.8513029404482
 20
-140.8525074627378
 30
0.0
 10
107.7961637751883
 20
-140.8525074627378
 30
0.0
 10
107.7410598877052
 20
-140.8525074627378
 30
0.0
 10
107.6962571110704
 20
-140.8973102405042
 30
0.0
 10
107.6962571110704
 20
-140.9524494071573
 30
0.0
 10
107.6962571110704
 20
-141.0079060738099
 30
0.0
 10
107.7410598877052
 20
-141.0523560737989
 30
0.0
 10
107.7961637751883
 20
-141.0523560737989
 30
0.0
 10
107.8513029404482
 20
-141.0523560737989
 30
0.0
 10
107.8960732031051
 20
-141.0079060738099
 30
0.0
 10
107.8960732031051
 20
-140.9524494071573
 30
0.0
  0
SPLINE
  5
EE
330
B0
100
AcDbEntity
  8
レイヤー 1
 62
   250
420
  2299925
370
     9
100
AcDbSpline
210
0.0
220
0.0
230
1.0
 70
     9
 71
     3
 72
    17
 73
    13
 74
     0
 42
0.0000000001
 43
0.0000000001
 40
0.0
 40
0.0
 40
0.0
 40
0.0
 40
1.0
 40
1.0
 40
1.0
 40
2.0
 40
2.0
 40
2.0
 40
3.0
 40
3.0
 40
3.0
 40
4.0
 40
4.0
 40
4.0
 40
4.0
 10
105.8993129902476
 20
-140.9524494071573
 30
0.0
 10
105.8993129902476
 20
-140.8973102405042
 30
0.0
 10
105.8545102136129
 20
-140.8525074627378
 30
0.0
 10
105.7994063261298
 20
-140.8525074627378
 30
0.0
 10
105.7435968831092
 20
-140.8525074627378
 30
0.0
 10
105.6987941064744
 20
-140.8973102405042
 30
0.0
 10
105.6987941064744
 20
-140.9524494071573
 30
0.0
 10
105.6987941064744
 20
-141.0079060738099
 30
0.0
 10
105.7435968831092
 20
-141.0523560737989
 30
0.0
 10
105.7994063261298
 20
-141.0523560737989
 30
0.0
 10
105.8545102136129
 20
-141.0523560737989
 30
0.0
 10
105.8993129902476
 20
-141.0079060738099
 30
0.0
 10
105.8993129902476
 20
-140.9524494071573
 30
0.0
  0
LINE
  5
EF
330
B0
100
AcDbEntity
  8
レイヤー 1
 62
   250
420
  2299925
370
     9
100
AcDbLine
 10
105.7994063261298
 20
-140.9524494071573
 30
0.0
 11
107.7961637751883
 21
-140.9524494071573
 31
0.0
  0
LINE
  5
F0
330
B0
100
AcDbEntity
  8
レイヤー 1
 62
   250
420
  2299925
370
     9
100
AcDbLine
 10
105.7994063261298
 20
-142.4124555179035
 30
0.0
 11
105.7994063261298
 21
-139.9526771851847
 31
0.0
  0
LINE
  5
F1
330
B0
100
AcDbEntity
  8
レイヤー 1
 62
   250
420
  2299925
370
     9
100
AcDbLine
 10
107.7961637751883
 20
-142.4124555179035
 30
0.0
 11
107.7961637751883
 21
-139.9526771851847
 31
0.0
  0
INSERT
  5
F3
330
B0
100
AcDbEntity
  8
レイヤー 1
100
AcDbBlockReference
  2
Block_6
 10
0.0
 20
0.0
 30
0.0
  0
LINE
  5
F8
330
B0
100
AcDbEntity
  8
レイヤー 1
 62
   250
420
  2299925
370
     9
100
AcDbLine
 10
108.5740740331199
 20
-158.2147832917306
 30
0.0
 11
103.5745454264078
 21
-158.2147832917306
 31
0.0
  0
LINE
  5
F9
330
B0
100
AcDbEntity
  8
レイヤー 1
 62
   250
420
  2299925
370
     9
100
AcDbLine
 10
108.5740740331199
 20
-156.7547419032063
 30
0.0
 11
108.5740740331199
 21
-159.2148730137028
 31
0.0
  0
LINE
  5
FA
330
B0
100
AcDbEntity
  8
レイヤー 1
 62
   250
420
  2299925
370
     9
100
AcDbLine
 10
103.5745454264078
 20
-156.7547419032063
 30
0.0
 11
103.5745454264078
 21
-159.2148730137028
 31
0.0
  0
INSERT
  5
FC
330
B0
100
AcDbEntity
  8
レイヤー 1
100
AcDbBlockReference
  2
Block_7
 10
0.0
 20
0.0
 30
0.0
  0
LINE
  5
101
330
B0
100
AcDbEntity
  8
レイヤー 1
 62
   250
420
  2299925
370
     9
100
AcDbLine
 10
80.7979752973028
 20
-145.7145966281889
 30
0.0
 11
80.7979752973028
 21
-140.4570435739477
 31
0.0
  0
LINE
  5
102
330
B0
100
AcDbEntity
  8
レイヤー 1
 62
   250
420
  2299925
370
     9
100
AcDbLine
 10
80.7979752973028
 20
-145.7145966281889
 30
0.0
 11
80.7979752973028
 21
-146.214800239175
 31
0.0
  0
LINE
  5
103
330
B0
100
AcDbEntity
  8
レイヤー 1
 62
   250
420
  2299925
370
     9
100
AcDbLine
 10
82.25801664894293
 20
-145.7145966281889
 30
0.0
 11
79.797885600595
 21
-145.7145966281889
 31
0.0
  0
LINE
  5
104
330
B0
100
AcDbEntity
  8
レイヤー 1
 62
   250
420
  2299925
370
     9
100
AcDbLine
 10
82.25801664894293
 20
-146.214800239175
 30
0.0
 11
79.797885600595
 21
-146.214800239175
 31
0.0
  0
INSERT
  5
106
330
B0
100
AcDbEntity
  8
レイヤー 1
100
AcDbBlockReference
  2
Block_8
 10
0.0
 20
0.0
 30
0.0
  0
LINE
  5
114
330
B0
100
AcDbEntity
  8
レイヤー 1
 62
   250
420
  2299925
370
     9
100
AcDbLine
 10
84.79773436192711
 20
-140.9524494071573
 30
0.0
 11
105.7994063261298
 21
-140.9524494071573
 31
0.0
  0
LINE
  5
115
330
B0
100
AcDbEntity
  8
レイヤー 1
 62
   250
420
  2299925
370
     9
100
AcDbLine
 10
84.79773436192711
 20
-143.1745260732679
 30
0.0
 11
84.79773436192711
 21
-139.9526771851847
 31
0.0
  0
INSERT
  5
117
330
B0
100
AcDbEntity
  8
レイヤー 1
100
AcDbBlockReference
  2
Block_10
 10
0.0
 20
0.0
 30
0.0
  0
LINE
  5
122
330
B0
100
AcDbEntity
  8
レイヤー 1
 62
   250
420
  2299925
370
     9
100
AcDbLine
 10
80.7979752973028
 20
-146.214800239175
 30
0.0
 11
80.7979752973028
 21
-154.2146713482859
 31
0.0
  0
LINE
  5
123
330
B0
100
AcDbEntity
  8
レイヤー 1
 62
   250
420
  2299925
370
     9
100
AcDbLine
 10
101.5078294911726
 20
-154.2146713482859
 30
0.0
 11
79.797885600595
 21
-154.2146713482859
 31
0.0
  0
INSERT
  5
125
330
B0
100
AcDbEntity
  8
レイヤー 1
100
AcDbBlockReference
  2
Block_12
 10
0.0
 20
0.0
 30
0.0
  0
LINE
  5
12C
330
B0
100
AcDbEntity
  8
レイヤー 1
 62
   250
420
  2299925
370
     9
100
AcDbLine
 10
106.7481668574805
 20
-150.0702380159889
 30
0.0
 11
114.7476849867291
 21
-150.0702380159889
 31
0.0
  0
INSERT
  5
12E
330
B0
100
AcDbEntity
  8
レイヤー 1
100
AcDbBlockReference
  2
Block_13
 10
0.0
 20
0.0
 30
0.0
  0
INSERT
  5
134
330
B0
100
AcDbEntity
  8
レイヤー 1
100
AcDbBlockReference
  2
Block_14
 10
0.0
 20
0.0
 30
0.0
  0
ENDBLK
  5
B3
330
B0
100
AcDbEntity
  8
0
100
AcDbBlockEnd
  0
BLOCK
  5
F4
330
F2
100
AcDbEntity
  8
0
100
AcDbBlockBegin
  2
Block_6
 70
     0
 10
0.0
 20
0.0
 30
0.0
  3
Block_6
  1

  0
SPLINE
  5
F6
330
F2
100
AcDbEntity
  8
レイヤー 1
100
AcDbSpline
210
0.0
220
0.0
230
1.0
 70
     9
 71
     3
 72
    44
 73
    40
 74
     0
 42
0.0000000001
 43
0.0000000001
 40
0.0
 40
0.0
 40
0.0
 40
0.0
 40
1.0
 40
1.0
 40
1.0
 40
2.0
 40
2.0
 40
2.0
 40
3.0
 40
3.0
 40
3.0
 40
4.0
 40
4.0
 40
4.0
 40
5.0
 40
5.0
 40
5.0
 40
6.0
 40
6.0
 40
6.0
 40
7.0
 40
7.0
 40
7.0
 40
8.0
 40
8.0
 40
8.0
 40
9.0
 40
9.0
 40
9.0
 40
10.0
 40
10.0
 40
10.0
 40
11.0
 40
11.0
 40
11.0
 40
12.0
 40
12.0
 40
12.0
 40
13.0
 40
13.0
 40
13.0
 40
13.0
 10
106.8923556590408
 20
-139.6579698001549
 30
0.0
 10
106.674625624373
 20
-139.8166164472507
 30
0.0
 10
106.5816080462713
 20
-139.8906860001836
 30
0.0
 10
106.5326876903807
 20
-140.0345187366927
 30
0.0
 10
106.5326876903807
 20
-140.0345187366927
 30
0.0
 10
107.3112792700471
 20
-140.0345187366927
 30
0.0
 10
107.3112792700471
 20
-140.0345187366927
 30
0.0
 10
107.3112792700471
 20
-140.0345187366927
 30
0.0
 10
107.3112792700471
 20
-140.2396741728393
 30
0.0
 10
107.3112792700471
 20
-140.2396741728393
 30
0.0
 10
107.3112792700471
 20
-140.2396741728393
 30
0.0
 10
106.2832627772486
 20
-140.2396741728393
 30
0.0
 10
106.2832627772486
 20
-140.2396741728393
 30
0.0
 10
106.3149576557129
 20
-139.8820732614704
 30
0.0
 10
106.3804144699326
 20
-139.8038695939552
 30
0.0
 10
106.7655761451836
 20
-139.5055243249326
 30
0.0
 10
107.0215467397376
 20
-139.3067423154337
 30
0.0
 10
107.0870035539574
 20
-139.2390461891485
 30
0.0
 10
107.0870035539574
 20
-139.1015868792871
 30
0.0
 10
107.0870035539574
 20
-138.9830755945945
 30
0.0
 10
107.0150010583157
 20
-138.8518174566065
 30
0.0
 10
106.8182861061079
 20
-138.8518174566065
 30
0.0
 10
106.5581813969715
 20
-138.8518174566065
 30
0.0
 10
106.5499131678069
 20
-139.082466599344
 30
0.0
 10
106.5454345436761
 20
-139.1989108267454
 30
0.0
 10
106.5454345436761
 20
-139.1989108267454
 30
0.0
 10
106.3211588275864
 20
-139.1989108267454
 30
0.0
 10
106.3211588275864
 20
-139.1989108267454
 30
0.0
 10
106.3297715662995
 20
-139.0719590581139
 30
0.0
 10
106.3404513623038
 20
-138.9598212000691
 30
0.0
 10
106.4207220871101
 20
-138.8413099153765
 30
0.0
 10
106.5306206330896
 20
-138.6805962109896
 30
0.0
 10
106.7170002988416
 20
-138.6466620204598
 30
0.0
 10
106.8331000166945
 20
-138.6466620204598
 30
0.0
 10
107.1104302032571
 20
-138.6466620204598
 30
0.0
 10
107.3178249514691
 20
-138.8308023741465
 30
0.0
 10
107.3178249514691
 20
-139.1036539365782
 30
0.0
 10
107.3178249514691
 20
-139.3320637672503
 30
0.0
 10
107.2013807240677
 20
-139.431627026774
 30
0.0
 10
106.8923556590408
 20
-139.6579698001549
 30
0.0
  0
HATCH
  5
F7
330
F2
100
AcDbEntity
  8
レイヤー 1
 62
   250
420
  2299925
440
 33554687
100
AcDbHatch
 10
0.0
 20
0.0
 30
0.0
210
0.0
220
0.0
230
1.0
  2
SOLID
 70
     1
 71
     1
 91
        1
 92
        1
 93
        1
 72
     4
 94
        3
 73
     0
 74
     0
 95
       44
 96
       40
 40
0.0
 40
0.0
 40
0.0
 40
0.0
 40
1.0
 40
1.0
 40
1.0
 40
2.0
 40
2.0
 40
2.0
 40
3.0
 40
3.0
 40
3.0
 40
4.0
 40
4.0
 40
4.0
 40
5.0
 40
5.0
 40
5.0
 40
6.0
 40
6.0
 40
6.0
 40
7.0
 40
7.0
 40
7.0
 40
8.0
 40
8.0
 40
8.0
 40
9.0
 40
9.0
 40
9.0
 40
10.0
 40
10.0
 40
10.0
 40
11.0
 40
11.0
 40
11.0
 40
12.0
 40
12.0
 40
12.0
 40
13.0
 40
13.0
 40
13.0
 40
13.0
 10
106.8923556590408
 20
-139.6579698001549
 10
106.674625624373
 20
-139.8166164472507
 10
106.5816080462713
 20
-139.8906860001836
 10
106.5326876903807
 20
-140.0345187366927
 10
106.5326876903807
 20
-140.0345187366927
 10
107.3112792700471
 20
-140.0345187366927
 10
107.3112792700471
 20
-140.0345187366927
 10
107.3112792700471
 20
-140.0345187366927
 10
107.3112792700471
 20
-140.2396741728393
 10
107.3112792700471
 20
-140.2396741728393
 10
107.3112792700471
 20
-140.2396741728393
 10
106.2832627772486
 20
-140.2396741728393
 10
106.2832627772486
 20
-140.2396741728393
 10
106.3149576557129
 20
-139.8820732614704
 10
106.3804144699326
 20
-139.8038695939552
 10
106.7655761451836
 20
-139.5055243249326
 10
107.0215467397376
 20
-139.3067423154337
 10
107.0870035539574
 20
-139.2390461891485
 10
107.0870035539574
 20
-139.1015868792871
 10
107.0870035539574
 20
-138.9830755945945
 10
107.0150010583157
 20
-138.8518174566065
 10
106.8182861061079
 20
-138.8518174566065
 10
106.5581813969715
 20
-138.8518174566065
 10
106.5499131678069
 20
-139.082466599344
 10
106.5454345436761
 20
-139.1989108267454
 10
106.5454345436761
 20
-139.1989108267454
 10
106.3211588275864
 20
-139.1989108267454
 10
106.3211588275864
 20
-139.1989108267454
 10
106.3297715662995
 20
-139.0719590581139
 10
106.3404513623038
 20
-138.9598212000691
 10
106.4207220871101
 20
-138.8413099153765
 10
106.5306206330896
 20
-138.6805962109896
 10
106.7170002988416
 20
-138.6466620204598
 10
106.8331000166945
 20
-138.6466620204598
 10
107.1104302032571
 20
-138.6466620204598
 10
107.3178249514691
 20
-138.8308023741465
 10
107.3178249514691
 20
-139.1036539365782
 10
107.3178249514691
 20
-139.3320637672503
 10
107.2013807240677
 20
-139.431627026774
 10
106.8923556590408
 20
-139.6579698001549
 97
        0
 97
        1
330
F6
 75
     2
 76
     1
 98
        1
 10
0.0
 20
0.0
450
        0
451
        0
460
0.0
461
0.0
452
        0
462
0.0
453
        0
470

  0
ENDBLK
  5
F5
330
F2
100
AcDbEntity
  8
0
100
AcDbBlockEnd
  0
BLOCK
  5
FD
330
FB
100
AcDbEntity
  8
0
100
AcDbBlockBegin
  2
Block_7
 70
     0
 10
0.0
 20
0.0
 30
0.0
  3
Block_7
  1

  0
SPLINE
  5
FF
330
FB
100
AcDbEntity
  8
レイヤー 1
100
AcDbSpline
210
0.0
220
0.0
230
1.0
 70
     9
 71
     3
 72
    53
 73
    49
 74
     0
 42
0.0000000001
 43
0.0000000001
 40
0.0
 40
0.0
 40
0.0
 40
0.0
 40
1.0
 40
1.0
 40
1.0
 40
2.0
 40
2.0
 40
2.0
 40
3.0
 40
3.0
 40
3.0
 40
4.0
 40
4.0
 40
4.0
 40
5.0
 40
5.0
 40
5.0
 40
6.0
 40
6.0
 40
6.0
 40
7.0
 40
7.0
 40
7.0
 40
8.0
 40
8.0
 40
8.0
 40
9.0
 40
9.0
 40
9.0
 40
10.0
 40
10.0
 40
10.0
 40
11.0
 40
11.0
 40
11.0
 40
12.0
 40
12.0
 40
12.0
 40
13.0
 40
13.0
 40
13.0
 40
14.0
 40
14.0
 40
14.0
 40
15.0
 40
15.0
 40
15.0
 40
16.0
 40
16.0
 40
16.0
 40
16.0
 10
106.0555419656736
 20
-157.5514512409941
 30
0.0
 10
105.9773382981584
 20
-157.5514512409941
 30
0.0
 10
105.8757079813436
 20
-157.5345702731163
 30
0.0
 10
105.7740776645287
 20
-157.4711805161877
 30
0.0
 10
105.6007893616206
 20
-157.3612819702083
 30
0.0
 10
105.5794297696121
 20
-157.2300238322202
 30
0.0
 10
105.5604817444432
 20
-157.1221923435319
 30
0.0
 10
105.5604817444432
 20
-157.1221923435319
 30
0.0
 10
105.7826904032418
 20
-157.1221923435319
 30
0.0
 10
105.7826904032418
 20
-157.1221923435319
 30
0.0
 10
105.8374674214573
 20
-157.3209743530308
 30
0.0
 10
105.964591444863
 20
-157.350602174204
 30
0.0
 10
106.0576090229647
 20
-157.350602174204
 30
0.0
 10
106.1971353901174
 20
-157.350602174204
 30
0.0
 10
106.3494086105654
 20
-157.2510389146803
 30
0.0
 10
106.3494086105654
 20
-157.0184949694259
 30
0.0
 10
106.3494086105654
 20
-156.7625243748719
 30
0.0
 10
106.1695746262354
 20
-156.6925889365213
 30
0.0
 10
106.0489962842516
 20
-156.6925889365213
 30
0.0
 10
106.0173014057873
 20
-156.6925889365213
 30
0.0
 10
105.8757079813436
 20
-156.6925889365213
 30
0.0
 10
105.7868245178241
 20
-156.8217800172182
 30
0.0
 10
105.7868245178241
 20
-156.8217800172182
 30
0.0
 10
105.6111246480764
 20
-156.8028319920493
 30
0.0
 10
105.6111246480764
 20
-156.8028319920493
 30
0.0
 10
105.6111246480764
 20
-156.8028319920493
 30
0.0
 10
105.7317029900601
 20
-155.9563720313234
 30
0.0
 10
105.7317029900601
 20
-155.9563720313234
 30
0.0
 10
105.7317029900601
 20
-155.9563720313234
 30
0.0
 10
106.5102945697266
 20
-155.9563720313234
 30
0.0
 10
106.5102945697266
 20
-155.9563720313234
 30
0.0
 10
106.5102945697266
 20
-155.9563720313234
 30
0.0
 10
106.5102945697266
 20
-156.15101992624
 30
0.0
 10
106.5102945697266
 20
-156.15101992624
 30
0.0
 10
106.5102945697266
 20
-156.15101992624
 30
0.0
 10
105.8946560065124
 20
-156.15101992624
 30
0.0
 10
105.8946560065124
 20
-156.15101992624
 30
0.0
 10
105.8946560065124
 20
-156.15101992624
 30
0.0
 10
105.8291991922927
 20
-156.5740776518287
 30
0.0
 10
105.8291991922927
 20
-156.5740776518287
 30
0.0
 10
105.8905218919301
 20
-156.5403157160732
 30
0.0
 10
105.9728596740276
 20
-156.5000080988958
 30
0.0
 10
106.0913709587202
 20
-156.5000080988958
 30
0.0
 10
106.3452744959831
 20
-156.5000080988958
 30
0.0
 10
106.5822970653683
 20
-156.6863877646478
 30
0.0
 10
106.5822970653683
 20
-156.9995469442571
 30
0.0
 10
106.5822970653683
 20
-157.3168402384486
 30
0.0
 10
106.3580213492785
 20
-157.5514512409941
 30
0.0
 10
106.0555419656736
 20
-157.5514512409941
 30
0.0
  0
HATCH
  5
100
330
FB
100
AcDbEntity
  8
レイヤー 1
 62
   250
420
  2299925
440
 33554687
100
AcDbHatch
 10
0.0
 20
0.0
 30
0.0
210
0.0
220
0.0
230
1.0
  2
SOLID
 70
     1
 71
     1
 91
        1
 92
        1
 93
        1
 72
     4
 94
        3
 73
     0
 74
     0
 95
       53
 96
       49
 40
0.0
 40
0.0
 40
0.0
 40
0.0
 40
1.0
 40
1.0
 40
1.0
 40
2.0
 40
2.0
 40
2.0
 40
3.0
 40
3.0
 40
3.0
 40
4.0
 40
4.0
 40
4.0
 40
5.0
 40
5.0
 40
5.0
 40
6.0
 40
6.0
 40
6.0
 40
7.0
 40
7.0
 40
7.0
 40
8.0
 40
8.0
 40
8.0
 40
9.0
 40
9.0
 40
9.0
 40
10.0
 40
10.0
 40
10.0
 40
11.0
 40
11.0
 40
11.0
 40
12.0
 40
12.0
 40
12.0
 40
13.0
 40
13.0
 40
13.0
 40
14.0
 40
14.0
 40
14.0
 40
15.0
 40
15.0
 40
15.0
 40
16.0
 40
16.0
 40
16.0
 40
16.0
 10
106.0555419656736
 20
-157.5514512409941
 10
105.9773382981584
 20
-157.5514512409941
 10
105.8757079813436
 20
-157.5345702731163
 10
105.7740776645287
 20
-157.4711805161877
 10
105.6007893616206
 20
-157.3612819702083
 10
105.5794297696121
 20
-157.2300238322202
 10
105.5604817444432
 20
-157.1221923435319
 10
105.5604817444432
 20
-157.1221923435319
 10
105.7826904032418
 20
-157.1221923435319
 10
105.7826904032418
 20
-157.1221923435319
 10
105.8374674214573
 20
-157.3209743530308
 10
105.964591444863
 20
-157.350602174204
 10
106.0576090229647
 20
-157.350602174204
 10
106.1971353901174
 20
-157.350602174204
 10
106.3494086105654
 20
-157.2510389146803
 10
106.3494086105654
 20
-157.0184949694259
 10
106.3494086105654
 20
-156.7625243748719
 10
106.1695746262354
 20
-156.6925889365213
 10
106.0489962842516
 20
-156.6925889365213
 10
106.0173014057873
 20
-156.6925889365213
 10
105.8757079813436
 20
-156.6925889365213
 10
105.7868245178241
 20
-156.8217800172182
 10
105.7868245178241
 20
-156.8217800172182
 10
105.6111246480764
 20
-156.8028319920493
 10
105.6111246480764
 20
-156.8028319920493
 10
105.6111246480764
 20
-156.8028319920493
 10
105.7317029900601
 20
-155.9563720313234
 10
105.7317029900601
 20
-155.9563720313234
 10
105.7317029900601
 20
-155.9563720313234
 10
106.5102945697266
 20
-155.9563720313234
 10
106.5102945697266
 20
-155.9563720313234
 10
106.5102945697266
 20
-155.9563720313234
 10
106.5102945697266
 20
-156.15101992624
 10
106.5102945697266
 20
-156.15101992624
 10
106.5102945697266
 20
-156.15101992624
 10
105.8946560065124
 20
-156.15101992624
 10
105.8946560065124
 20
-156.15101992624
 10
105.8946560065124
 20
-156.15101992624
 10
105.8291991922927
 20
-156.5740776518287
 10
105.8291991922927
 20
-156.5740776518287
 10
105.8905218919301
 20
-156.5403157160732
 10
105.9728596740276
 20
-156.5000080988958
 10
106.0913709587202
 20
-156.5000080988958
 10
106.3452744959831
 20
-156.5000080988958
 10
106.5822970653683
 20
-156.6863877646478
 10
106.5822970653683
 20
-156.9995469442571
 10
106.5822970653683
 20
-157.3168402384486
 10
106.3580213492785
 20
-157.5514512409941
 10
106.0555419656736
 20
-157.5514512409941
 97
        0
 97
        1
330
FF
 75
     2
 76
     1
 98
        1
 10
0.0
 20
0.0
450
        0
451
        0
460
0.0
461
0.0
452
        0
462
0.0
453
        0
470

  0
ENDBLK
  5
FE
330
FB
100
AcDbEntity
  8
0
100
AcDbBlockEnd
  0
BLOCK
  5
107
330
105
100
AcDbEntity
  8
0
100
AcDbBlockBegin
  2
Block_8
 70
     0
 10
0.0
 20
0.0
 30
0.0
  3
Block_8
  1

  0
INSERT
  5
10A
330
105
100
AcDbEntity
  8
レイヤー 1
100
AcDbBlockReference
  2
Block_9
 10
0.0
 20
0.0
 30
0.0
  0
ENDBLK
  5
108
330
105
100
AcDbEntity
  8
0
100
AcDbBlockEnd
  0
BLOCK
  5
10B
330
109
100
AcDbEntity
  8
0
100
AcDbBlockBegin
  2
Block_9
 70
     0
 10
0.0
 20
0.0
 30
0.0
  3
Block_9
  1

  0
SPLINE
  5
10D
330
109
100
AcDbEntity
  8
レイヤー 1
100
AcDbSpline
210
0.0
220
0.0
230
1.0
 70
     9
 71
     3
 72
    17
 73
    13
 74
     0
 42
0.0000000001
 43
0.0000000001
 40
0.0
 40
0.0
 40
0.0
 40
0.0
 40
1.0
 40
1.0
 40
1.0
 40
2.0
 40
2.0
 40
2.0
 40
3.0
 40
3.0
 40
3.0
 40
4.0
 40
4.0
 40
4.0
 40
4.0
 10
77.95338132816791
 20
-146.8692436698799
 30
0.0
 10
77.95338132816791
 20
-147.1190130925605
 30
0.0
 10
78.2367404318297
 20
-147.1655218816114
 30
0.0
 10
78.58159448990321
 20
-147.1655218816114
 30
0.0
 10
78.90112709616014
 20
-147.1655218816114
 30
0.0
 10
79.20997990641279
 20
-147.1293483790162
 30
0.0
 10
79.20997990641279
 20
-146.8692436698799
 30
0.0
 10
79.20997990641279
 20
-146.6217135592647
 30
0.0
 10
78.92851560526787
 20
-146.5729654581484
 30
0.0
 10
78.58159448990321
 20
-146.5729654581484
 30
0.0
 10
78.26223413842055
 20
-146.5729654581484
 30
0.0
 10
77.95338132816791
 20
-146.6112060180347
 30
0.0
 10
77.95338132816791
 20
-146.8692436698799
 30
0.0
  0
SPLINE
  5
10E
330
109
100
AcDbEntity
  8
レイヤー 1
100
AcDbSpline
210
0.0
220
0.0
230
1.0
 70
     9
 71
     3
 72
    29
 73
    25
 74
     0
 42
0.0000000001
 43
0.0000000001
 40
0.0
 40
0.0
 40
0.0
 40
0.0
 40
1.0
 40
1.0
 40
1.0
 40
2.0
 40
2.0
 40
2.0
 40
3.0
 40
3.0
 40
3.0
 40
4.0
 40
4.0
 40
4.0
 40
5.0
 40
5.0
 40
5.0
 40
6.0
 40
6.0
 40
6.0
 40
7.0
 40
7.0
 40
7.0
 40
8.0
 40
8.0
 40
8.0
 40
8.0
 10
79.17604571588308
 20
-146.4715073961078
 30
0.0
 10
79.38550752138626
 20
-146.5793388847961
 30
0.0
 10
79.40462780132939
 20
-146.7527994424784
 30
0.0
 10
79.40462780132939
 20
-146.8692436698799
 30
0.0
 10
79.40462780132939
 20
-147.0301296290411
 30
0.0
 10
79.35811901227854
 20
-147.1717230534848
 30
0.0
 10
79.17604571588308
 20
-147.2668076888777
 30
0.0
 10
78.98157007574072
 20
-147.3705050629837
 30
0.0
 10
78.74454750635553
 20
-147.3897975977012
 30
0.0
 10
78.58159448990321
 20
-147.3897975977012
 30
0.0
 10
78.43776175339404
 20
-147.3897975977012
 30
0.0
 10
78.18609752819654
 20
-147.3725721202749
 30
0.0
 10
77.98714326392335
 20
-147.2668076888777
 30
0.0
 10
77.78405488506788
 20
-147.1589762001894
 30
0.0
 10
77.76080049054243
 20
-146.9980902410282
 30
0.0
 10
77.76080049054243
 20
-146.8692436698799
 30
0.0
 10
77.76080049054243
 20
-146.7104247680099
 30
0.0
 10
77.80524222230217
 20
-146.5667642862749
 30
0.0
 10
77.98714326392335
 20
-146.4715073961078
 30
0.0
 10
78.17972410154883
 20
-146.3721163913583
 30
0.0
 10
78.40813393222089
 20
-146.3488619968329
 30
0.0
 10
78.58159448990321
 20
-146.3488619968329
 30
0.0
 10
78.7529879902944
 20
-146.3488619968329
 30
0.0
 10
78.98363713303187
 20
-146.3698770792929
 30
0.0
 10
79.17604571588308
 20
-146.4715073961078
 30
0.0
  0
HATCH
  5
10F
330
109
100
AcDbEntity
  8
レイヤー 1
 62
   250
420
  2299925
440
 33554687
100
AcDbHatch
 10
0.0
 20
0.0
 30
0.0
210
0.0
220
0.0
230
1.0
  2
SOLID
 70
     1
 71
     1
 91
        2
 92
        1
 93
        1
 72
     4
 94
        3
 73
     0
 74
     0
 95
       17
 96
       13
 40
0.0
 40
0.0
 40
0.0
 40
0.0
 40
1.0
 40
1.0
 40
1.0
 40
2.0
 40
2.0
 40
2.0
 40
3.0
 40
3.0
 40
3.0
 40
4.0
 40
4.0
 40
4.0
 40
4.0
 10
77.95338132816791
 20
-146.8692436698799
 10
77.95338132816791
 20
-147.1190130925605
 10
78.2367404318297
 20
-147.1655218816114
 10
78.58159448990321
 20
-147.1655218816114
 10
78.90112709616014
 20
-147.1655218816114
 10
79.20997990641279
 20
-147.1293483790162
 10
79.20997990641279
 20
-146.8692436698799
 10
79.20997990641279
 20
-146.6217135592647
 10
78.92851560526787
 20
-146.5729654581484
 10
78.58159448990321
 20
-146.5729654581484
 10
78.26223413842055
 20
-146.5729654581484
 10
77.95338132816791
 20
-146.6112060180347
 10
77.95338132816791
 20
-146.8692436698799
 97
        0
 97
        1
330
10D
 92
        1
 93
        1
 72
     4
 94
        3
 73
     0
 74
     0
 95
       29
 96
       25
 40
0.0
 40
0.0
 40
0.0
 40
0.0
 40
1.0
 40
1.0
 40
1.0
 40
2.0
 40
2.0
 40
2.0
 40
3.0
 40
3.0
 40
3.0
 40
4.0
 40
4.0
 40
4.0
 40
5.0
 40
5.0
 40
5.0
 40
6.0
 40
6.0
 40
6.0
 40
7.0
 40
7.0
 40
7.0
 40
8.0
 40
8.0
 40
8.0
 40
8.0
 10
79.17604571588308
 20
-146.4715073961078
 10
79.38550752138626
 20
-146.5793388847961
 10
79.40462780132939
 20
-146.7527994424784
 10
79.40462780132939
 20
-146.8692436698799
 10
79.40462780132939
 20
-147.0301296290411
 10
79.35811901227854
 20
-147.1717230534848
 10
79.17604571588308
 20
-147.2668076888777
 10
78.98157007574072
 20
-147.3705050629837
 10
78.74454750635553
 20
-147.3897975977012
 10
78.58159448990321
 20
-147.3897975977012
 10
78.43776175339404
 20
-147.3897975977012
 10
78.18609752819654
 20
-147.3725721202749
 10
77.98714326392335
 20
-147.2668076888777
 10
77.78405488506788
 20
-147.1589762001894
 10
77.76080049054243
 20
-146.9980902410282
 10
77.76080049054243
 20
-146.8692436698799
 10
77.76080049054243
 20
-146.7104247680099
 10
77.80524222230217
 20
-146.5667642862749
 10
77.98714326392335
 20
-146.4715073961078
 10
78.17972410154883
 20
-146.3721163913583
 10
78.40813393222089
 20
-146.3488619968329
 10
78.58159448990321
 20
-146.3488619968329
 10
78.7529879902944
 20
-146.3488619968329
 10
78.98363713303187
 20
-146.3698770792929
 10
79.17604571588308
 20
-146.4715073961078
 97
        0
 97
        1
330
10E
 75
     2
 76
     1
 98
        1
 10
0.0
 20
0.0
450
        0
451
        0
460
0.0
461
0.0
452
        0
462
0.0
453
        0
470

  0
SPLINE
  5
110
330
109
100
AcDbEntity
  8
レイヤー 1
100
AcDbSpline
210
0.0
220
0.0
230
1.0
 70
    11
 71
     3
 72
    17
 73
    13
 74
     0
 42
0.0000000001
 43
0.0000000001
 40
0.0
 40
0.0
 40
0.0
 40
0.0
 40
1.0
 40
1.0
 40
1.0
 40
2.0
 40
2.0
 40
2.0
 40
3.0
 40
3.0
 40
3.0
 40
4.0
 40
4.0
 40
4.0
 40
4.0
 10
79.35381264292196
 20
-146.132337745585
 30
0.0
 10
79.35381264292196
 20
-146.132337745585
 30
0.0
 10
79.10214841772447
 20
-146.132337745585
 30
0.0
 10
79.10214841772447
 20
-146.132337745585
 30
0.0
 10
79.10214841772447
 20
-146.132337745585
 30
0.0
 10
79.10214841772447
 20
-145.8806735203875
 30
0.0
 10
79.10214841772447
 20
-145.8806735203875
 30
0.0
 10
79.10214841772447
 20
-145.8806735203875
 30
0.0
 10
79.35381264292196
 20
-145.8806735203875
 30
0.0
 10
79.35381264292196
 20
-145.8806735203875
 30
0.0
 10
79.35381264292196
 20
-145.8806735203875
 30
0.0
 10
79.35381264292196
 20
-146.132337745585
 30
0.0
 10
79.35381264292196
 20
-146.132337745585
 30
0.0
  0
HATCH
  5
111
330
109
100
AcDbEntity
  8
レイヤー 1
 62
   250
420
  2299925
440
 33554687
100
AcDbHatch
 10
0.0
 20
0.0
 30
0.0
210
0.0
220
0.0
230
1.0
  2
SOLID
 70
     1
 71
     1
 91
        1
 92
        1
 93
        1
 72
     4
 94
        3
 73
     0
 74
     0
 95
       17
 96
       13
 40
0.0
 40
0.0
 40
0.0
 40
0.0
 40
1.0
 40
1.0
 40
1.0
 40
2.0
 40
2.0
 40
2.0
 40
3.0
 40
3.0
 40
3.0
 40
4.0
 40
4.0
 40
4.0
 40
4.0
 10
79.35381264292196
 20
-146.132337745585
 10
79.35381264292196
 20
-146.132337745585
 10
79.10214841772447
 20
-146.132337745585
 10
79.10214841772447
 20
-146.132337745585
 10
79.10214841772447
 20
-146.132337745585
 10
79.10214841772447
 20
-145.8806735203875
 10
79.10214841772447
 20
-145.8806735203875
 10
79.10214841772447
 20
-145.8806735203875
 10
79.35381264292196
 20
-145.8806735203875
 10
79.35381264292196
 20
-145.8806735203875
 10
79.35381264292196
 20
-145.8806735203875
 10
79.35381264292196
 20
-146.132337745585
 10
79.35381264292196
 20
-146.132337745585
 97
        0
 97
        1
330
110
 75
     2
 76
     1
 98
        1
 10
0.0
 20
0.0
450
        0
451
        0
460
0.0
461
0.0
452
        0
462
0.0
453
        0
470

  0
SPLINE
  5
112
330
109
100
AcDbEntity
  8
レイヤー 1
100
AcDbSpline
210
0.0
220
0.0
230
1.0
 70
     9
 71
     3
 72
    53
 73
    49
 74
     0
 42
0.0000000001
 43
0.0000000001
 40
0.0
 40
0.0
 40
0.0
 40
0.0
 40
1.0
 40
1.0
 40
1.0
 40
2.0
 40
2.0
 40
2.0
 40
3.0
 40
3.0
 40
3.0
 40
4.0
 40
4.0
 40
4.0
 40
5.0
 40
5.0
 40
5.0
 40
6.0
 40
6.0
 40
6.0
 40
7.0
 40
7.0
 40
7.0
 40
8.0
 40
8.0
 40
8.0
 40
9.0
 40
9.0
 40
9.0
 40
10.0
 40
10.0
 40
10.0
 40
11.0
 40
11.0
 40
11.0
 40
12.0
 40
12.0
 40
12.0
 40
13.0
 40
13.0
 40
13.0
 40
14.0
 40
14.0
 40
14.0
 40
15.0
 40
15.0
 40
15.0
 40
16.0
 40
16.0
 40
16.0
 40
16.0
 10
79.40462780132939
 20
-145.1630601308099
 30
0.0
 10
79.40462780132939
 20
-145.2414360530993
 30
0.0
 10
79.38774683345167
 20
-145.34289411514
 30
0.0
 10
79.32418482174881
 20
-145.4445244319548
 30
0.0
 10
79.21411402099508
 20
-145.6179849896371
 30
0.0
 10
79.08302813778132
 20
-145.6391723268714
 30
0.0
 10
78.975196649093
 20
-145.6581203520403
 30
0.0
 10
78.975196649093
 20
-145.6581203520403
 30
0.0
 10
78.975196649093
 20
-145.4360839480159
 30
0.0
 10
78.975196649093
 20
-145.4360839480159
 30
0.0
 10
79.17397865859192
 20
-145.380962420252
 30
0.0
 10
79.20360647976507
 20
-145.2540106516205
 30
0.0
 10
79.20360647976507
 20
-145.1609930735188
 30
0.0
 10
79.20360647976507
 20
-145.0212944515919
 30
0.0
 10
79.10421547501562
 20
-144.8690212311438
 30
0.0
 10
78.87149927498699
 20
-144.8690212311438
 30
0.0
 10
78.61552868043293
 20
-144.8690212311438
 30
0.0
 10
78.54576549685662
 20
-145.0488552154739
 30
0.0
 10
78.54576549685662
 20
-145.1694335574576
 30
0.0
 10
78.54576549685662
 20
-145.2011284359219
 30
0.0
 10
78.54576549685662
 20
-145.34289411514
 30
0.0
 10
78.67478432277922
 20
-145.4317775786594
 30
0.0
 10
78.67478432277922
 20
-145.4317775786594
 30
0.0
 10
78.65566404283609
 20
-145.6073051936329
 30
0.0
 10
78.65566404283609
 20
-145.6073051936329
 30
0.0
 10
78.65566404283609
 20
-145.6073051936329
 30
0.0
 10
77.80954859165873
 20
-145.4867268516491
 30
0.0
 10
77.80954859165873
 20
-145.4867268516491
 30
0.0
 10
77.80954859165873
 20
-145.4867268516491
 30
0.0
 10
77.80954859165873
 20
-144.7083075267569
 30
0.0
 10
77.80954859165873
 20
-144.7083075267569
 30
0.0
 10
77.80954859165873
 20
-144.7083075267569
 30
0.0
 10
78.00419648657534
 20
-144.7083075267569
 30
0.0
 10
78.00419648657534
 20
-144.7083075267569
 30
0.0
 10
78.00419648657534
 20
-144.7083075267569
 30
0.0
 10
78.00419648657534
 20
-145.3239460899711
 30
0.0
 10
78.00419648657534
 20
-145.3239460899711
 30
0.0
 10
78.00419648657534
 20
-145.3239460899711
 30
0.0
 10
78.42725421216403
 20
-145.3894029041908
 30
0.0
 10
78.42725421216403
 20
-145.3894029041908
 30
0.0
 10
78.3933200216343
 20
-145.3280802045534
 30
0.0
 10
78.35318465923115
 20
-145.2455701676816
 30
0.0
 10
78.35318465923115
 20
-145.1272311377633
 30
0.0
 10
78.35318465923115
 20
-144.8733276005004
 30
0.0
 10
78.5393920702089
 20
-144.6363050311152
 30
0.0
 10
78.85237899504385
 20
-144.6363050311152
 30
0.0
 10
79.16984454400962
 20
-144.6363050311152
 30
0.0
 10
79.40462780132939
 20
-144.860580747205
 30
0.0
 10
79.40462780132939
 20
-145.1630601308099
 30
0.0
  0
HATCH
  5
113
330
109
100
AcDbEntity
  8
レイヤー 1
 62
   250
420
  2299925
440
 33554687
100
AcDbHatch
 10
0.0
 20
0.0
 30
0.0
210
0.0
220
0.0
230
1.0
  2
SOLID
 70
     1
 71
     1
 91
        1
 92
        1
 93
        1
 72
     4
 94
        3
 73
     0
 74
     0
 95
       53
 96
       49
 40
0.0
 40
0.0
 40
0.0
 40
0.0
 40
1.0
 40
1.0
 40
1.0
 40
2.0
 40
2.0
 40
2.0
 40
3.0
 40
3.0
 40
3.0
 40
4.0
 40
4.0
 40
4.0
 40
5.0
 40
5.0
 40
5.0
 40
6.0
 40
6.0
 40
6.0
 40
7.0
 40
7.0
 40
7.0
 40
8.0
 40
8.0
 40
8.0
 40
9.0
 40
9.0
 40
9.0
 40
10.0
 40
10.0
 40
10.0
 40
11.0
 40
11.0
 40
11.0
 40
12.0
 40
12.0
 40
12.0
 40
13.0
 40
13.0
 40
13.0
 40
14.0
 40
14.0
 40
14.0
 40
15.0
 40
15.0
 40
15.0
 40
16.0
 40
16.0
 40
16.0
 40
16.0
 10
79.40462780132939
 20
-145.1630601308099
 10
79.40462780132939
 20
-145.2414360530993
 10
79.38774683345167
 20
-145.34289411514
 10
79.32418482174881
 20
-145.4445244319548
 10
79.21411402099508
 20
-145.6179849896371
 10
79.08302813778132
 20
-145.6391723268714
 10
78.975196649093
 20
-145.6581203520403
 10
78.975196649093
 20
-145.6581203520403
 10
78.975196649093
 20
-145.4360839480159
 10
78.975196649093
 20
-145.4360839480159
 10
79.17397865859192
 20
-145.380962420252
 10
79.20360647976507
 20
-145.2540106516205
 10
79.20360647976507
 20
-145.1609930735188
 10
79.20360647976507
 20
-145.0212944515919
 10
79.10421547501562
 20
-144.8690212311438
 10
78.87149927498699
 20
-144.8690212311438
 10
78.61552868043293
 20
-144.8690212311438
 10
78.54576549685662
 20
-145.0488552154739
 10
78.54576549685662
 20
-145.1694335574576
 10
78.54576549685662
 20
-145.2011284359219
 10
78.54576549685662
 20
-145.34289411514
 10
78.67478432277922
 20
-145.4317775786594
 10
78.67478432277922
 20
-145.4317775786594
 10
78.65566404283609
 20
-145.6073051936329
 10
78.65566404283609
 20
-145.6073051936329
 10
78.65566404283609
 20
-145.6073051936329
 10
77.80954859165873
 20
-145.4867268516491
 10
77.80954859165873
 20
-145.4867268516491
 10
77.80954859165873
 20
-145.4867268516491
 10
77.80954859165873
 20
-144.7083075267569
 10
77.80954859165873
 20
-144.7083075267569
 10
77.80954859165873
 20
-144.7083075267569
 10
78.00419648657534
 20
-144.7083075267569
 10
78.00419648657534
 20
-144.7083075267569
 10
78.00419648657534
 20
-144.7083075267569
 10
78.00419648657534
 20
-145.3239460899711
 10
78.00419648657534
 20
-145.3239460899711
 10
78.00419648657534
 20
-145.3239460899711
 10
78.42725421216403
 20
-145.3894029041908
 10
78.42725421216403
 20
-145.3894029041908
 10
78.3933200216343
 20
-145.3280802045534
 10
78.35318465923115
 20
-145.2455701676816
 10
78.35318465923115
 20
-145.1272311377633
 10
78.35318465923115
 20
-144.8733276005004
 10
78.5393920702089
 20
-144.6363050311152
 10
78.85237899504385
 20
-144.6363050311152
 10
79.16984454400962
 20
-144.6363050311152
 10
79.40462780132939
 20
-144.860580747205
 10
79.40462780132939
 20
-145.1630601308099
 97
        0
 97
        1
330
112
 75
     2
 76
     1
 98
        1
 10
0.0
 20
0.0
450
        0
451
        0
460
0.0
461
0.0
452
        0
462
0.0
453
        0
470

  0
ENDBLK
  5
10C
330
109
100
AcDbEntity
  8
0
100
AcDbBlockEnd
  0
BLOCK
  5
118
330
116
100
AcDbEntity
  8
0
100
AcDbBlockBegin
  2
Block_10
 70
     0
 10
0.0
 20
0.0
 30
0.0
  3
Block_10
  1

  0
INSERT
  5
11B
330
116
100
AcDbEntity
  8
レイヤー 1
100
AcDbBlockReference
  2
Block_11
 10
0.0
 20
0.0
 30
0.0
  0
ENDBLK
  5
119
330
116
100
AcDbEntity
  8
0
100
AcDbBlockEnd
  0
BLOCK
  5
11C
330
11A
100
AcDbEntity
  8
0
100
AcDbBlockBegin
  2
Block_11
 70
     0
 10
0.0
 20
0.0
 30
0.0
  3
Block_11
  1

  0
SPLINE
  5
11E
330
11A
100
AcDbEntity
  8
レイヤー 1
100
AcDbSpline
210
0.0
220
0.0
230
1.0
 70
     9
 71
     3
 72
    44
 73
    40
 74
     0
 42
0.0000000001
 43
0.0000000001
 40
0.0
 40
0.0
 40
0.0
 40
0.0
 40
1.0
 40
1.0
 40
1.0
 40
2.0
 40
2.0
 40
2.0
 40
3.0
 40
3.0
 40
3.0
 40
4.0
 40
4.0
 40
4.0
 40
5.0
 40
5.0
 40
5.0
 40
6.0
 40
6.0
 40
6.0
 40
7.0
 40
7.0
 40
7.0
 40
8.0
 40
8.0
 40
8.0
 40
9.0
 40
9.0
 40
9.0
 40
10.0
 40
10.0
 40
10.0
 40
11.0
 40
11.0
 40
11.0
 40
12.0
 40
12.0
 40
12.0
 40
13.0
 40
13.0
 40
13.0
 40
13.0
 10
94.72668997197805
 20
-139.6564195071866
 30
0.0
 10
94.50895993731027
 20
-139.8150661542823
 30
0.0
 10
94.41594235920851
 20
-139.8891357072152
 30
0.0
 10
94.36702200331797
 20
-140.0329684437244
 30
0.0
 10
94.36702200331797
 20
-140.0329684437244
 30
0.0
 10
95.14561358298443
 20
-140.0329684437244
 30
0.0
 10
95.14561358298443
 20
-140.0329684437244
 30
0.0
 10
95.14561358298443
 20
-140.0329684437244
 30
0.0
 10
95.14561358298443
 20
-140.238123879871
 30
0.0
 10
95.14561358298443
 20
-140.238123879871
 30
0.0
 10
95.14561358298443
 20
-140.238123879871
 30
0.0
 10
94.11759709018587
 20
-140.238123879871
 30
0.0
 10
94.11759709018587
 20
-140.238123879871
 30
0.0
 10
94.14929196865017
 20
-139.8805229685021
 30
0.0
 10
94.21474878286993
 20
-139.8023193009869
 30
0.0
 10
94.59991045812087
 20
-139.5039740319643
 30
0.0
 10
94.85588105267492
 20
-139.3051920224654
 30
0.0
 10
94.92133786689468
 20
-139.2374958961802
 30
0.0
 10
94.92133786689468
 20
-139.1000365863187
 30
0.0
 10
94.92133786689468
 20
-138.9815253016261
 30
0.0
 10
94.84933537125295
 20
-138.8504394184124
 30
0.0
 10
94.65262041904518
 20
-138.8504394184124
 30
0.0
 10
94.39251570990881
 20
-138.8504394184124
 30
0.0
 10
94.38390297119569
 20
-139.0809163063756
 30
0.0
 10
94.3797688566134
 20
-139.197360533777
 30
0.0
 10
94.3797688566134
 20
-139.197360533777
 30
0.0
 10
94.15549314052363
 20
-139.197360533777
 30
0.0
 10
94.15549314052363
 20
-139.197360533777
 30
0.0
 10
94.16410587923676
 20
-139.0704087651456
 30
0.0
 10
94.17478567524103
 20
-138.9582709071007
 30
0.0
 10
94.25505640004734
 20
-138.8397596224081
 30
0.0
 10
94.36495494602683
 20
-138.6790459180212
 30
0.0
 10
94.55133461177885
 20
-138.6451117274915
 30
0.0
 10
94.66743432963175
 20
-138.6451117274915
 30
0.0
 10
94.94476451619437
 20
-138.6451117274915
 30
0.0
 10
95.15215926440641
 20
-138.8292520811781
 30
0.0
 10
95.15215926440641
 20
-139.1021036436099
 30
0.0
 10
95.15215926440641
 20
-139.3305134742819
 30
0.0
 10
95.03571503700497
 20
-139.4300767338057
 30
0.0
 10
94.72668997197805
 20
-139.6564195071866
 30
0.0
  0
HATCH
  5
11F
330
11A
100
AcDbEntity
  8
レイヤー 1
 62
   250
420
  2299925
440
 33554687
100
AcDbHatch
 10
0.0
 20
0.0
 30
0.0
210
0.0
220
0.0
230
1.0
  2
SOLID
 70
     1
 71
     1
 91
        1
 92
        1
 93
        1
 72
     4
 94
        3
 73
     0
 74
     0
 95
       44
 96
       40
 40
0.0
 40
0.0
 40
0.0
 40
0.0
 40
1.0
 40
1.0
 40
1.0
 40
2.0
 40
2.0
 40
2.0
 40
3.0
 40
3.0
 40
3.0
 40
4.0
 40
4.0
 40
4.0
 40
5.0
 40
5.0
 40
5.0
 40
6.0
 40
6.0
 40
6.0
 40
7.0
 40
7.0
 40
7.0
 40
8.0
 40
8.0
 40
8.0
 40
9.0
 40
9.0
 40
9.0
 40
10.0
 40
10.0
 40
10.0
 40
11.0
 40
11.0
 40
11.0
 40
12.0
 40
12.0
 40
12.0
 40
13.0
 40
13.0
 40
13.0
 40
13.0
 10
94.72668997197805
 20
-139.6564195071866
 10
94.50895993731027
 20
-139.8150661542823
 10
94.41594235920851
 20
-139.8891357072152
 10
94.36702200331797
 20
-140.0329684437244
 10
94.36702200331797
 20
-140.0329684437244
 10
95.14561358298443
 20
-140.0329684437244
 10
95.14561358298443
 20
-140.0329684437244
 10
95.14561358298443
 20
-140.0329684437244
 10
95.14561358298443
 20
-140.238123879871
 10
95.14561358298443
 20
-140.238123879871
 10
95.14561358298443
 20
-140.238123879871
 10
94.11759709018587
 20
-140.238123879871
 10
94.11759709018587
 20
-140.238123879871
 10
94.14929196865017
 20
-139.8805229685021
 10
94.21474878286993
 20
-139.8023193009869
 10
94.59991045812087
 20
-139.5039740319643
 10
94.85588105267492
 20
-139.3051920224654
 10
94.92133786689468
 20
-139.2374958961802
 10
94.92133786689468
 20
-139.1000365863187
 10
94.92133786689468
 20
-138.9815253016261
 10
94.84933537125295
 20
-138.8504394184124
 10
94.65262041904518
 20
-138.8504394184124
 10
94.39251570990881
 20
-138.8504394184124
 10
94.38390297119569
 20
-139.0809163063756
 10
94.3797688566134
 20
-139.197360533777
 10
94.3797688566134
 20
-139.197360533777
 10
94.15549314052363
 20
-139.197360533777
 10
94.15549314052363
 20
-139.197360533777
 10
94.16410587923676
 20
-139.0704087651456
 10
94.17478567524103
 20
-138.9582709071007
 10
94.25505640004734
 20
-138.8397596224081
 10
94.36495494602683
 20
-138.6790459180212
 10
94.55133461177885
 20
-138.6451117274915
 10
94.66743432963175
 20
-138.6451117274915
 10
94.94476451619437
 20
-138.6451117274915
 10
95.15215926440641
 20
-138.8292520811781
 10
95.15215926440641
 20
-139.1021036436099
 10
95.15215926440641
 20
-139.3305134742819
 10
95.03571503700497
 20
-139.4300767338057
 10
94.72668997197805
 20
-139.6564195071866
 97
        0
 97
        1
330
11E
 75
     2
 76
     1
 98
        1
 10
0.0
 20
0.0
450
        0
451
        0
460
0.0
461
0.0
452
        0
462
0.0
453
        0
470

  0
SPLINE
  5
120
330
11A
100
AcDbEntity
  8
レイヤー 1
100
AcDbSpline
210
0.0
220
0.0
230
1.0
 70
    11
 71
     3
 72
    26
 73
    22
 74
     0
 42
0.0000000001
 43
0.0000000001
 40
0.0
 40
0.0
 40
0.0
 40
0.0
 40
1.0
 40
1.0
 40
1.0
 40
2.0
 40
2.0
 40
2.0
 40
3.0
 40
3.0
 40
3.0
 40
4.0
 40
4.0
 40
4.0
 40
5.0
 40
5.0
 40
5.0
 40
6.0
 40
6.0
 40
6.0
 40
7.0
 40
7.0
 40
7.0
 40
7.0
 10
95.76194116529562
 20
-140.238123879871
 30
0.0
 10
95.76194116529562
 20
-140.238123879871
 30
0.0
 10
95.76194116529562
 20
-139.1337985220742
 30
0.0
 10
95.76194116529562
 20
-139.1337985220742
 30
0.0
 10
95.76194116529562
 20
-139.1337985220742
 30
0.0
 10
95.4319010178087
 20
-139.1337985220742
 30
0.0
 10
95.4319010178087
 20
-139.1337985220742
 30
0.0
 10
95.4319010178087
 20
-139.1337985220742
 30
0.0
 10
95.4319010178087
 20
-138.9858316709827
 30
0.0
 10
95.4319010178087
 20
-138.9858316709827
 30
0.0
 10
95.76400822258678
 20
-138.9710177603961
 30
0.0
 10
95.81051701163765
 20
-138.8080647439438
 30
0.0
 10
95.8401448328108
 20
-138.6938598286078
 30
0.0
 10
95.8401448328108
 20
-138.6938598286078
 30
0.0
 10
95.98621688138539
 20
-138.6938598286078
 30
0.0
 10
95.98621688138539
 20
-138.6938598286078
 30
0.0
 10
95.98621688138539
 20
-138.6938598286078
 30
0.0
 10
95.98621688138539
 20
-140.238123879871
 30
0.0
 10
95.98621688138539
 20
-140.238123879871
 30
0.0
 10
95.98621688138539
 20
-140.238123879871
 30
0.0
 10
95.76194116529562
 20
-140.238123879871
 30
0.0
 10
95.76194116529562
 20
-140.238123879871
 30
0.0
  0
HATCH
  5
121
330
11A
100
AcDbEntity
  8
レイヤー 1
 62
   250
420
  2299925
440
 33554687
100
AcDbHatch
 10
0.0
 20
0.0
 30
0.0
210
0.0
220
0.0
230
1.0
  2
SOLID
 70
     1
 71
     1
 91
        1
 92
        1
 93
        1
 72
     4
 94
        3
 73
     0
 74
     0
 95
       26
 96
       22
 40
0.0
 40
0.0
 40
0.0
 40
0.0
 40
1.0
 40
1.0
 40
1.0
 40
2.0
 40
2.0
 40
2.0
 40
3.0
 40
3.0
 40
3.0
 40
4.0
 40
4.0
 40
4.0
 40
5.0
 40
5.0
 40
5.0
 40
6.0
 40
6.0
 40
6.0
 40
7.0
 40
7.0
 40
7.0
 40
7.0
 10
95.76194116529562
 20
-140.238123879871
 10
95.76194116529562
 20
-140.238123879871
 10
95.76194116529562
 20
-139.1337985220742
 10
95.76194116529562
 20
-139.1337985220742
 10
95.76194116529562
 20
-139.1337985220742
 10
95.4319010178087
 20
-139.1337985220742
 10
95.4319010178087
 20
-139.1337985220742
 10
95.4319010178087
 20
-139.1337985220742
 10
95.4319010178087
 20
-138.9858316709827
 10
95.4319010178087
 20
-138.9858316709827
 10
95.76400822258678
 20
-138.9710177603961
 10
95.81051701163765
 20
-138.8080647439438
 10
95.8401448328108
 20
-138.6938598286078
 10
95.8401448328108
 20
-138.6938598286078
 10
95.98621688138539
 20
-138.6938598286078
 10
95.98621688138539
 20
-138.6938598286078
 10
95.98621688138539
 20
-138.6938598286078
 10
95.98621688138539
 20
-140.238123879871
 10
95.98621688138539
 20
-140.238123879871
 10
95.98621688138539
 20
-140.238123879871
 10
95.76194116529562
 20
-140.238123879871
 10
95.76194116529562
 20
-140.238123879871
 97
        0
 97
        1
330
120
 75
     2
 76
     1
 98
        1
 10
0.0
 20
0.0
450
        0
451
        0
460
0.0
461
0.0
452
        0
462
0.0
453
        0
470

  0
ENDBLK
  5
11D
330
11A
100
AcDbEntity
  8
0
100
AcDbBlockEnd
  0
BLOCK
  5
126
330
124
100
AcDbEntity
  8
0
100
AcDbBlockBegin
  2
Block_12
 70
     0
 10
0.0
 20
0.0
 30
0.0
  3
Block_12
  1

  0
SPLINE
  5
128
330
124
100
AcDbEntity
  8
レイヤー 1
100
AcDbSpline
210
0.0
220
0.0
230
1.0
 70
     9
 71
     3
 72
    17
 73
    13
 74
     0
 42
0.0000000001
 43
0.0000000001
 40
0.0
 40
0.0
 40
0.0
 40
0.0
 40
1.0
 40
1.0
 40
1.0
 40
2.0
 40
2.0
 40
2.0
 40
3.0
 40
3.0
 40
3.0
 40
4.0
 40
4.0
 40
4.0
 40
4.0
 10
79.34382186601474
 20
-150.2127088383149
 30
0.0
 10
79.34382186601474
 20
-150.3563693200498
 30
0.0
 10
79.43046601746877
 20
-150.5089870500463
 30
0.0
 10
79.63355439632426
 20
-150.5089870500463
 30
0.0
 10
79.83870983247088
 20
-150.5089870500463
 30
0.0
 10
79.94034014928574
 20
-150.3818630266406
 30
0.0
 10
79.94034014928574
 20
-150.2127088383149
 30
0.0
 10
79.94034014928574
 20
-150.0266736821114
 30
0.0
 10
79.81769475001086
 20
-149.9164306265834
 30
0.0
 10
79.63992782297196
 20
-149.9164306265834
 30
0.0
 10
79.41771916417335
 20
-149.9164306265834
 30
0.0
 10
79.34382186601474
 20
-150.0793836430357
 30
0.0
 10
79.34382186601474
 20
-150.2127088383149
 30
0.0
  0
SPLINE
  5
129
330
124
100
AcDbEntity
  8
レイヤー 1
100
AcDbSpline
210
0.0
220
0.0
230
1.0
 70
     9
 71
     3
 72
    17
 73
    13
 74
     0
 42
0.0000000001
 43
0.0000000001
 40
0.0
 40
0.0
 40
0.0
 40
0.0
 40
1.0
 40
1.0
 40
1.0
 40
2.0
 40
2.0
 40
2.0
 40
3.0
 40
3.0
 40
3.0
 40
4.0
 40
4.0
 40
4.0
 40
4.0
 10
78.68374157104087
 20
-150.2127088383149
 30
0.0
 10
78.68374157104087
 20
-150.3777289120583
 30
0.0
 10
78.77882620643376
 20
-150.4624782609955
 30
0.0
 10
78.91421845900409
 20
-150.4624782609955
 30
0.0
 10
79.03703611305324
 20
-150.4624782609955
 30
0.0
 10
79.15554739774584
 20
-150.3904757653538
 30
0.0
 10
79.15554739774584
 20
-150.2127088383149
 30
0.0
 10
79.15554739774584
 20
-150.034941911276
 30
0.0
 10
79.03703611305324
 20
-149.9629394156342
 30
0.0
 10
78.91421845900409
 20
-149.9629394156342
 30
0.0
 10
78.77882620643376
 20
-149.9629394156342
 30
0.0
 10
78.68374157104087
 20
-150.0497558218626
 30
0.0
 10
78.68374157104087
 20
-150.2127088383149
 30
0.0
  0
SPLINE
  5
12A
330
124
100
AcDbEntity
  8
レイヤー 1
100
AcDbSpline
210
0.0
220
0.0
230
1.0
 70
     9
 71
     3
 72
    29
 73
    25
 74
     0
 42
0.0000000001
 43
0.0000000001
 40
0.0
 40
0.0
 40
0.0
 40
0.0
 40
1.0
 40
1.0
 40
1.0
 40
2.0
 40
2.0
 40
2.0
 40
3.0
 40
3.0
 40
3.0
 40
4.0
 40
4.0
 40
4.0
 40
5.0
 40
5.0
 40
5.0
 40
6.0
 40
6.0
 40
6.0
 40
7.0
 40
7.0
 40
7.0
 40
8.0
 40
8.0
 40
8.0
 40
8.0
 10
80.13498804420237
 20
-150.2127088383149
 30
0.0
 10
80.13498804420237
 20
-150.4793592288732
 30
0.0
 10
79.99735647956663
 20
-150.7332627661361
 30
0.0
 10
79.64836830691083
 20
-150.7332627661361
 30
0.0
 10
79.39239771235676
 20
-150.7332627661361
 30
0.0
 10
79.29714082218961
 20
-150.5913248321438
 30
0.0
 10
79.23581812255216
 20
-150.4855604007467
 30
0.0
 10
79.17656248020586
 20
-150.6102728573127
 30
0.0
 10
79.06235756486982
 20
-150.6864094675367
 30
0.0
 10
78.90164386048292
 20
-150.6864094675367
 30
0.0
 10
78.62655298598572
 20
-150.6864094675367
 30
0.0
 10
78.49116073341541
 20
-150.4876274580378
 30
0.0
 10
78.49116073341541
 20
-150.2127088383149
 30
0.0
 10
78.49116073341541
 20
-149.9291774798788
 30
0.0
 10
78.63499346992459
 20
-149.7386636995445
 30
0.0
 10
78.90164386048292
 20
-149.7386636995445
 30
0.0
 10
79.06235756486982
 20
-149.7386636995445
 30
0.0
 10
79.17656248020586
 20
-149.8172118766082
 30
0.0
 10
79.23581812255216
 20
-149.9419243331742
 30
0.0
 10
79.28663328095959
 20
-149.8530408696548
 30
0.0
 10
79.38189017112676
 20
-149.6942219677848
 30
0.0
 10
79.64406193755427
 20
-149.6942219677848
 30
0.0
 10
80.01854381680093
 20
-149.6942219677848
 30
0.0
 10
80.13498804420237
 20
-149.9736192116385
 30
0.0
 10
80.13498804420237
 20
-150.2127088383149
 30
0.0
  0
HATCH
  5
12B
330
124
100
AcDbEntity
  8
レイヤー 1
 62
   250
420
  2299925
440
 33554687
100
AcDbHatch
 10
0.0
 20
0.0
 30
0.0
210
0.0
220
0.0
230
1.0
  2
SOLID
 70
     1
 71
     1
 91
        3
 92
        1
 93
        1
 72
     4
 94
        3
 73
     0
 74
     0
 95
       17
 96
       13
 40
0.0
 40
0.0
 40
0.0
 40
0.0
 40
1.0
 40
1.0
 40
1.0
 40
2.0
 40
2.0
 40
2.0
 40
3.0
 40
3.0
 40
3.0
 40
4.0
 40
4.0
 40
4.0
 40
4.0
 10
79.34382186601474
 20
-150.2127088383149
 10
79.34382186601474
 20
-150.3563693200498
 10
79.43046601746877
 20
-150.5089870500463
 10
79.63355439632426
 20
-150.5089870500463
 10
79.83870983247088
 20
-150.5089870500463
 10
79.94034014928574
 20
-150.3818630266406
 10
79.94034014928574
 20
-150.2127088383149
 10
79.94034014928574
 20
-150.0266736821114
 10
79.81769475001086
 20
-149.9164306265834
 10
79.63992782297196
 20
-149.9164306265834
 10
79.41771916417335
 20
-149.9164306265834
 10
79.34382186601474
 20
-150.0793836430357
 10
79.34382186601474
 20
-150.2127088383149
 97
        0
 97
        1
330
128
 92
        1
 93
        1
 72
     4
 94
        3
 73
     0
 74
     0
 95
       17
 96
       13
 40
0.0
 40
0.0
 40
0.0
 40
0.0
 40
1.0
 40
1.0
 40
1.0
 40
2.0
 40
2.0
 40
2.0
 40
3.0
 40
3.0
 40
3.0
 40
4.0
 40
4.0
 40
4.0
 40
4.0
 10
78.68374157104087
 20
-150.2127088383149
 10
78.68374157104087
 20
-150.3777289120583
 10
78.77882620643376
 20
-150.4624782609955
 10
78.91421845900409
 20
-150.4624782609955
 10
79.03703611305324
 20
-150.4624782609955
 10
79.15554739774584
 20
-150.3904757653538
 10
79.15554739774584
 20
-150.2127088383149
 10
79.15554739774584
 20
-150.034941911276
 10
79.03703611305324
 20
-149.9629394156342
 10
78.91421845900409
 20
-149.9629394156342
 10
78.77882620643376
 20
-149.9629394156342
 10
78.68374157104087
 20
-150.0497558218626
 10
78.68374157104087
 20
-150.2127088383149
 97
        0
 97
        1
330
129
 92
        1
 93
        1
 72
     4
 94
        3
 73
     0
 74
     0
 95
       29
 96
       25
 40
0.0
 40
0.0
 40
0.0
 40
0.0
 40
1.0
 40
1.0
 40
1.0
 40
2.0
 40
2.0
 40
2.0
 40
3.0
 40
3.0
 40
3.0
 40
4.0
 40
4.0
 40
4.0
 40
5.0
 40
5.0
 40
5.0
 40
6.0
 40
6.0
 40
6.0
 40
7.0
 40
7.0
 40
7.0
 40
8.0
 40
8.0
 40
8.0
 40
8.0
 10
80.13498804420237
 20
-150.2127088383149
 10
80.13498804420237
 20
-150.4793592288732
 10
79.99735647956663
 20
-150.7332627661361
 10
79.64836830691083
 20
-150.7332627661361
 10
79.39239771235676
 20
-150.7332627661361
 10
79.29714082218961
 20
-150.5913248321438
 10
79.23581812255216
 20
-150.4855604007467
 10
79.17656248020586
 20
-150.6102728573127
 10
79.06235756486982
 20
-150.6864094675367
 10
78.90164386048292
 20
-150.6864094675367
 10
78.62655298598572
 20
-150.6864094675367
 10
78.49116073341541
 20
-150.4876274580378
 10
78.49116073341541
 20
-150.2127088383149
 10
78.49116073341541
 20
-149.9291774798788
 10
78.63499346992459
 20
-149.7386636995445
 10
78.90164386048292
 20
-149.7386636995445
 10
79.06235756486982
 20
-149.7386636995445
 10
79.17656248020586
 20
-149.8172118766082
 10
79.23581812255216
 20
-149.9419243331742
 10
79.28663328095959
 20
-149.8530408696548
 10
79.38189017112676
 20
-149.6942219677848
 10
79.64406193755427
 20
-149.6942219677848
 10
80.01854381680093
 20
-149.6942219677848
 10
80.13498804420237
 20
-149.9736192116385
 10
80.13498804420237
 20
-150.2127088383149
 97
        0
 97
        1
330
12A
 75
     2
 76
     1
 98
        1
 10
0.0
 20
0.0
450
        0
451
        0
460
0.0
461
0.0
452
        0
462
0.0
453
        0
470

  0
ENDBLK
  5
127
330
124
100
AcDbEntity
  8
0
100
AcDbBlockEnd
  0
BLOCK
  5
12F
330
12D
100
AcDbEntity
  8
0
100
AcDbBlockBegin
  2
Block_13
 70
     0
 10
0.0
 20
0.0
 30
0.0
  3
Block_13
  1

  0
SPLINE
  5
131
330
12D
100
AcDbEntity
  8
レイヤー 1
100
AcDbSpline
210
0.0
220
0.0
230
1.0
 70
    11
 71
     3
 72
    26
 73
    22
 74
     0
 42
0.0000000001
 43
0.0000000001
 40
0.0
 40
0.0
 40
0.0
 40
0.0
 40
1.0
 40
1.0
 40
1.0
 40
2.0
 40
2.0
 40
2.0
 40
3.0
 40
3.0
 40
3.0
 40
4.0
 40
4.0
 40
4.0
 40
5.0
 40
5.0
 40
5.0
 40
6.0
 40
6.0
 40
6.0
 40
7.0
 40
7.0
 40
7.0
 40
7.0
 10
111.7082546378715
 20
-149.3021701015633
 30
0.0
 10
111.7082546378715
 20
-149.3021701015633
 30
0.0
 10
111.7082546378715
 20
-148.1976724889922
 30
0.0
 10
111.7082546378715
 20
-148.1976724889922
 30
0.0
 10
111.7082546378715
 20
-148.1976724889922
 30
0.0
 10
111.3782144903846
 20
-148.1976724889922
 30
0.0
 10
111.3782144903846
 20
-148.1976724889922
 30
0.0
 10
111.3782144903846
 20
-148.1976724889922
 30
0.0
 10
111.3782144903846
 20
-148.0495333831265
 30
0.0
 10
111.3782144903846
 20
-148.0495333831265
 30
0.0
 10
111.7103216951627
 20
-148.0348917273142
 30
0.0
 10
111.7568304842136
 20
-147.8719387108619
 30
0.0
 10
111.7864583053867
 20
-147.7577337955258
 30
0.0
 10
111.7864583053867
 20
-147.7577337955258
 30
0.0
 10
111.9325303539613
 20
-147.7577337955258
 30
0.0
 10
111.9325303539613
 20
-147.7577337955258
 30
0.0
 10
111.9325303539613
 20
-147.7577337955258
 30
0.0
 10
111.9325303539613
 20
-149.3021701015633
 30
0.0
 10
111.9325303539613
 20
-149.3021701015633
 30
0.0
 10
111.9325303539613
 20
-149.3021701015633
 30
0.0
 10
111.7082546378715
 20
-149.3021701015633
 30
0.0
 10
111.7082546378715
 20
-149.3021701015633
 30
0.0
  0
HATCH
  5
132
330
12D
100
AcDbEntity
  8
レイヤー 1
 62
   250
420
  2299925
440
 33554687
100
AcDbHatch
 10
0.0
 20
0.0
 30
0.0
210
0.0
220
0.0
230
1.0
  2
SOLID
 70
     1
 71
     1
 91
        1
 92
        1
 93
        1
 72
     4
 94
        3
 73
     0
 74
     0
 95
       26
 96
       22
 40
0.0
 40
0.0
 40
0.0
 40
0.0
 40
1.0
 40
1.0
 40
1.0
 40
2.0
 40
2.0
 40
2.0
 40
3.0
 40
3.0
 40
3.0
 40
4.0
 40
4.0
 40
4.0
 40
5.0
 40
5.0
 40
5.0
 40
6.0
 40
6.0
 40
6.0
 40
7.0
 40
7.0
 40
7.0
 40
7.0
 10
111.7082546378715
 20
-149.3021701015633
 10
111.7082546378715
 20
-149.3021701015633
 10
111.7082546378715
 20
-148.1976724889922
 10
111.7082546378715
 20
-148.1976724889922
 10
111.7082546378715
 20
-148.1976724889922
 10
111.3782144903846
 20
-148.1976724889922
 10
111.3782144903846
 20
-148.1976724889922
 10
111.3782144903846
 20
-148.1976724889922
 10
111.3782144903846
 20
-148.0495333831265
 10
111.3782144903846
 20
-148.0495333831265
 10
111.7103216951627
 20
-148.0348917273142
 10
111.7568304842136
 20
-147.8719387108619
 10
111.7864583053867
 20
-147.7577337955258
 10
111.7864583053867
 20
-147.7577337955258
 10
111.9325303539613
 20
-147.7577337955258
 10
111.9325303539613
 20
-147.7577337955258
 10
111.9325303539613
 20
-147.7577337955258
 10
111.9325303539613
 20
-149.3021701015633
 10
111.9325303539613
 20
-149.3021701015633
 10
111.9325303539613
 20
-149.3021701015633
 10
111.7082546378715
 20
-149.3021701015633
 10
111.7082546378715
 20
-149.3021701015633
 97
        0
 97
        1
330
131
 75
     2
 76
     1
 98
        1
 10
0.0
 20
0.0
450
        0
451
        0
460
0.0
461
0.0
452
        0
462
0.0
453
        0
470

  0
ENDBLK
  5
130
330
12D
100
AcDbEntity
  8
0
100
AcDbBlockEnd
  0
BLOCK
  5
135
330
133
100
AcDbEntity
  8
0
100
AcDbBlockBegin
  2
Block_14
 70
     0
 10
0.0
 20
0.0
 30
0.0
  3
Block_14
  1

  0
INSERT
  5
138
330
133
100
AcDbEntity
  8
レイヤー 1
100
AcDbBlockReference
  2
Block_15
 10
0.0
 20
0.0
 30
0.0
  0
INSERT
  5
13F
330
133
100
AcDbEntity
  8
レイヤー 1
100
AcDbBlockReference
  2
Block_16
 10
0.0
 20
0.0
 30
0.0
  0
ENDBLK
  5
136
330
133
100
AcDbEntity
  8
0
100
AcDbBlockEnd
  0
BLOCK
  5
139
330
137
100
AcDbEntity
  8
0
100
AcDbBlockBegin
  2
Block_15
 70
     0
 10
0.0
 20
0.0
 30
0.0
  3
Block_15
  1

  0
LINE
  5
13B
330
137
100
AcDbEntity
  8
レイヤー 1
 62
    18
420
        0
370
     9
100
AcDbLine
 10
89.23744258199405
 20
-147.0426638500792
 30
0.0
 11
90.04840811685983
 21
-147.6276399610441
 31
0.0
  0
LINE
  5
13C
330
137
100
AcDbEntity
  8
レイヤー 1
 62
    18
420
        0
370
     9
100
AcDbLine
 10
89.23744258199405
 20
-147.0426638500792
 30
0.0
 11
91.81505098490326
 21
-150.1997427381786
 31
0.0
  0
LINE
  5
13D
330
137
100
AcDbEntity
  8
レイヤー 1
 62
    18
420
        0
370
     9
100
AcDbLine
 10
89.23744258199405
 20
-147.0426638500792
 30
0.0
 11
89.64740562709058
 21
-147.9549471831843
 31
0.0
  0
ENDBLK
  5
13A
330
137
100
AcDbEntity
  8
0
100
AcDbBlockEnd
  0
BLOCK
  5
140
330
13E
100
AcDbEntity
  8
0
100
AcDbBlockBegin
  2
Block_16
 70
     0
 10
0.0
 20
0.0
 30
0.0
  3
Block_16
  1

  0
INSERT
  5
143
330
13E
100
AcDbEntity
  8
レイヤー 1
100
AcDbBlockReference
  2
Block_17
 10
0.0
 20
0.0
 30
0.0
  0
ENDBLK
  5
141
330
13E
100
AcDbEntity
  8
0
100
AcDbBlockEnd
  0
BLOCK
  5
144
330
142
100
AcDbEntity
  8
0
100
AcDbBlockBegin
  2
Block_17
 70
     0
 10
0.0
 20
0.0
 30
0.0
  3
Block_17
  1

  0
SPLINE
  5
146
330
142
100
AcDbEntity
  8
レイヤー 1
100
AcDbSpline
210
0.0
220
0.0
230
1.0
 70
     9
 71
     3
 72
    17
 73
    13
 74
     0
 42
0.0000000001
 43
0.0000000001
 40
0.0
 40
0.0
 40
0.0
 40
0.0
 40
1.0
 40
1.0
 40
1.0
 40
2.0
 40
2.0
 40
2.0
 40
3.0
 40
3.0
 40
3.0
 40
4.0
 40
4.0
 40
4.0
 40
4.0
 10
93.48146020883451
 20
-150.6471353790049
 30
0.0
 10
93.46457924095679
 20
-150.676763200178
 30
0.0
 10
93.41376408254934
 20
-150.7701252878283
 30
0.0
 10
93.40325654131932
 20
-150.7890733129972
 30
0.0
 10
93.59359806687939
 20
-150.8483289553435
 30
0.0
 10
93.61478540411367
 20
-150.8545301272169
 30
0.0
 10
93.68678789975538
 20
-150.8820908910989
 30
0.0
 10
93.74173717274514
 20
-150.7952744848706
 30
0.0
 10
93.76499156727055
 20
-150.7212049319377
 30
0.0
 10
93.77980547785714
 20
-150.6471353790049
 30
0.0
 10
93.77980547785714
 20
-150.6471353790049
 30
0.0
 10
93.48146020883451
 20
-150.6471353790049
 30
0.0
 10
93.48146020883451
 20
-150.6471353790049
 30
0.0
  0
SPLINE
  5
147
330
142
100
AcDbEntity
  8
レイヤー 1
100
AcDbSpline
210
0.0
220
0.0
230
1.0
 70
    11
 71
     3
 72
    20
 73
    16
 74
     0
 42
0.0000000001
 43
0.0000000001
 40
0.0
 40
0.0
 40
0.0
 40
0.0
 40
1.0
 40
1.0
 40
1.0
 40
2.0
 40
2.0
 40
2.0
 40
3.0
 40
3.0
 40
3.0
 40
4.0
 40
4.0
 40
4.0
 40
5.0
 40
5.0
 40
5.0
 40
5.0
 10
93.4180704519059
 20
-149.7968858132452
 30
0.0
 10
93.4180704519059
 20
-149.7968858132452
 30
0.0
 10
93.38637557344162
 20
-149.7968858132452
 30
0.0
 10
93.38637557344162
 20
-149.7968858132452
 30
0.0
 10
93.43288436249247
 20
-149.8961045632204
 30
0.0
 10
93.46457924095679
 20
-149.9767197975752
 30
0.0
 10
93.49851343148648
 20
-150.1034993114324
 30
0.0
 10
93.49851343148648
 20
-150.1034993114324
 30
0.0
 10
93.70573592492426
 20
-150.1034993114324
 30
0.0
 10
93.70573592492426
 20
-150.1034993114324
 30
0.0
 10
93.73743080338856
 20
-150.0104817333307
 30
0.0
 10
93.76068519791401
 20
-149.9257323843935
 30
0.0
 10
93.7841118472137
 20
-149.7968858132452
 30
0.0
 10
93.7841118472137
 20
-149.7968858132452
 30
0.0
 10
93.4180704519059
 20
-149.7968858132452
 30
0.0
 10
93.4180704519059
 20
-149.7968858132452
 30
0.0
  0
SPLINE
  5
148
330
142
100
AcDbEntity
  8
レイヤー 1
100
AcDbSpline
210
0.0
220
0.0
230
1.0
 70
     9
 71
     3
 72
   242
 73
   238
 74
     0
 42
0.0000000001
 43
0.0000000001
 40
0.0
 40
0.0
 40
0.0
 40
0.0
 40
1.0
 40
1.0
 40
1.0
 40
2.0
 40
2.0
 40
2.0
 40
3.0
 40
3.0
 40
3.0
 40
4.0
 40
4.0
 40
4.0
 40
5.0
 40
5.0
 40
5.0
 40
6.0
 40
6.0
 40
6.0
 40
7.0
 40
7.0
 40
7.0
 40
8.0
 40
8.0
 40
8.0
 40
9.0
 40
9.0
 40
9.0
 40
10.0
 40
10.0
 40
10.0
 40
11.0
 40
11.0
 40
11.0
 40
12.0
 40
12.0
 40
12.0
 40
13.0
 40
13.0
 40
13.0
 40
14.0
 40
14.0
 40
14.0
 40
15.0
 40
15.0
 40
15.0
 40
16.0
 40
16.0
 40
16.0
 40
17.0
 40
17.0
 40
17.0
 40
18.0
 40
18.0
 40
18.0
 40
19.0
 40
19.0
 40
19.0
 40
20.0
 40
20.0
 40
20.0
 40
21.0
 40
21.0
 40
21.0
 40
22.0
 40
22.0
 40
22.0
 40
23.0
 40
23.0
 40
23.0
 40
24.0
 40
24.0
 40
24.0
 40
25.0
 40
25.0
 40
25.0
 40
26.0
 40
26.0
 40
26.0
 40
27.0
 40
27.0
 40
27.0
 40
28.0
 40
28.0
 40
28.0
 40
29.0
 40
29.0
 40
29.0
 40
30.0
 40
30.0
 40
30.0
 40
31.0
 40
31.0
 40
31.0
 40
32.0
 40
32.0
 40
32.0
 40
33.0
 40
33.0
 40
33.0
 40
34.0
 40
34.0
 40
34.0
 40
35.0
 40
35.0
 40
35.0
 40
36.0
 40
36.0
 40
36.0
 40
37.0
 40
37.0
 40
37.0
 40
38.0
 40
38.0
 40
38.0
 40
39.0
 40
39.0
 40
39.0
 40
40.0
 40
40.0
 40
40.0
 40
41.0
 40
41.0
 40
41.0
 40
42.0
 40
42.0
 40
42.0
 40
43.0
 40
43.0
 40
43.0
 40
44.0
 40
44.0
 40
44.0
 40
45.0
 40
45.0
 40
45.0
 40
46.0
 40
46.0
 40
46.0
 40
47.0
 40
47.0
 40
47.0
 40
48.0
 40
48.0
 40
48.0
 40
49.0
 40
49.0
 40
49.0
 40
50.0
 40
50.0
 40
50.0
 40
51.0
 40
51.0
 40
51.0
 40
52.0
 40
52.0
 40
52.0
 40
53.0
 40
53.0
 40
53.0
 40
54.0
 40
54.0
 40
54.0
 40
55.0
 40
55.0
 40
55.0
 40
56.0
 40
56.0
 40
56.0
 40
57.0
 40
57.0
 40
57.0
 40
58.0
 40
58.0
 40
58.0
 40
59.0
 40
59.0
 40
59.0
 40
60.0
 40
60.0
 40
60.0
 40
61.0
 40
61.0
 40
61.0
 40
62.0
 40
62.0
 40
62.0
 40
63.0
 40
63.0
 40
63.0
 40
64.0
 40
64.0
 40
64.0
 40
65.0
 40
65.0
 40
65.0
 40
66.0
 40
66.0
 40
66.0
 40
67.0
 40
67.0
 40
67.0
 40
68.0
 40
68.0
 40
68.0
 40
69.0
 40
69.0
 40
69.0
 40
70.0
 40
70.0
 40
70.0
 40
71.0
 40
71.0
 40
71.0
 40
72.0
 40
72.0
 40
72.0
 40
73.0
 40
73.0
 40
73.0
 40
74.0
 40
74.0
 40
74.0
 40
75.0
 40
75.0
 40
75.0
 40
76.0
 40
76.0
 40
76.0
 40
77.0
 40
77.0
 40
77.0
 40
78.0
 40
78.0
 40
78.0
 40
79.0
 40
79.0
 40
79.0
 40
79.0
 10
94.04628361364121
 20
-150.2623182133025
 30
0.0
 10
94.04628361364121
 20
-150.2623182133025
 30
0.0
 10
93.79255233115257
 20
-150.2623182133025
 30
0.0
 10
93.79255233115257
 20
-150.2623182133025
 30
0.0
 10
93.79255233115257
 20
-150.2623182133025
 30
0.0
 10
93.51539439936422
 20
-150.2623182133025
 30
0.0
 10
93.51539439936422
 20
-150.2623182133025
 30
0.0
 10
93.51539439936422
 20
-150.2623182133025
 30
0.0
 10
93.64234616799567
 20
-150.304692887771
 30
0.0
 10
93.64234616799567
 20
-150.304692887771
 30
0.0
 10
93.65285370922569
 20
-150.3088270023533
 30
0.0
 10
93.6656005625211
 20
-150.3150281742268
 30
0.0
 10
93.6656005625211
 20
-150.3277750275222
 30
0.0
 10
93.6656005625211
 20
-150.3491346195308
 30
0.0
 10
93.6339056840568
 20
-150.3553357914042
 30
0.0
 10
93.61271834682252
 20
-150.3594699059865
 30
0.0
 10
93.60203855081826
 20
-150.3828965552862
 30
0.0
 10
93.57241072964511
 20
-150.448353369506
 30
0.0
 10
93.55346270447622
 20
-150.4927951012657
 30
0.0
 10
93.55346270447622
 20
-150.4927951012657
 30
0.0
 10
93.82424720961685
 20
-150.4927951012657
 30
0.0
 10
93.82424720961685
 20
-150.4927951012657
 30
0.0
 10
93.91519773042745
 20
-150.4927951012657
 30
0.0
 10
94.11191268263522
 20
-150.4886609866834
 30
0.0
 10
94.25367836185325
 20
-150.4800482479702
 30
0.0
 10
94.25367836185325
 20
-150.4800482479702
 30
0.0
 10
94.25367836185325
 20
-150.6578151750091
 30
0.0
 10
94.25367836185325
 20
-150.6578151750091
 30
0.0
 10
94.17116832498152
 20
-150.6536810604268
 30
0.0
 10
94.14998098774722
 20
-150.6536810604268
 30
0.0
 10
93.97014700341719
 20
-150.6495469458446
 30
0.0
 10
93.93845212495289
 20
-150.8038872235837
 30
0.0
 10
93.89401039319317
 20
-150.8841579483901
 30
0.0
 10
93.84956866143346
 20
-150.9540933867406
 30
0.0
 10
93.97014700341719
 20
-151.0133490290869
 30
0.0
 10
94.07591143481436
 20
-151.0808729005978
 30
0.0
 10
94.17960880892037
 20
-151.1635551922438
 30
0.0
 10
94.17960880892037
 20
-151.1635551922438
 30
0.0
 10
94.06109752422779
 20
-151.3306423232784
 30
0.0
 10
94.06109752422779
 20
-151.3306423232784
 30
0.0
 10
94.03784312970236
 20
-151.3116942981096
 30
0.0
 10
94.02526853118118
 20
-151.3030815593964
 30
0.0
 10
93.9131306731363
 20
-151.2183322104593
 30
0.0
 10
93.86438257202001
 20
-151.1804361601215
 30
0.0
 10
93.80512692967371
 20
-151.1442626575264
 30
0.0
 10
93.7248562048674
 20
-151.0998209257667
 30
0.0
 10
93.51332734207305
 20
-151.2862005915187
 30
0.0
 10
93.30799965115216
 20
-151.3092827312699
 30
0.0
 10
93.01826712084267
 20
-151.338910552443
 30
0.0
 10
93.01826712084267
 20
-151.338910552443
 30
0.0
 10
92.91456974673664
 20
-151.159076568113
 30
0.0
 10
92.91456974673664
 20
-151.159076568113
 30
0.0
 10
93.23186304092814
 20
-151.1549424535307
 30
0.0
 10
93.40739065590161
 20
-151.1294487469398
 30
0.0
 10
93.55983613112393
 20
-151.0195502009604
 30
0.0
 10
93.44132484643134
 20
-150.9689072973272
 30
0.0
 10
93.35244138291189
 20
-150.9413465334452
 30
0.0
 10
93.31644013509103
 20
-150.9285996801498
 30
0.0
 10
93.29749210992217
 20
-150.9561604440318
 30
0.0
 10
93.28267819933557
 20
-150.9751084692006
 30
0.0
 10
93.25511743545359
 20
-151.0088704049561
 30
0.0
 10
93.25511743545359
 20
-151.0088704049561
 30
0.0
 10
93.05840248324582
 20
-150.9265326228586
 30
0.0
 10
93.05840248324582
 20
-150.9265326228586
 30
0.0
 10
93.14091252011754
 20
-150.8462618980523
 30
0.0
 10
93.20223521975499
 20
-150.7508327531109
 30
0.0
 10
93.25942380481015
 20
-150.6495469458446
 30
0.0
 10
93.06891002447583
 20
-150.6536810604268
 30
0.0
 10
93.0478949420158
 20
-150.6536810604268
 30
0.0
 10
92.96538490514407
 20
-150.6578151750091
 30
0.0
 10
92.96538490514407
 20
-150.6578151750091
 30
0.0
 10
92.96538490514407
 20
-150.4800482479702
 30
0.0
 10
92.96538490514407
 20
-150.4800482479702
 30
0.0
 10
93.10491127229669
 20
-150.4865939293922
 30
0.0
 10
93.31437307779989
 20
-150.4907280439745
 30
0.0
 10
93.33969452961646
 20
-150.4907280439745
 30
0.0
 10
93.35674775226847
 20
-150.4569661082191
 30
0.0
 10
93.41169702525819
 20
-150.3363877662353
 30
0.0
 10
93.43081730520133
 20
-150.2623182133025
 30
0.0
 10
93.41169702525819
 20
-150.2623182133025
 30
0.0
 10
93.23393009821931
 20
-150.2685193851759
 30
0.0
 10
93.03928220330268
 20
-150.2812662384713
 30
0.0
 10
93.03928220330268
 20
-150.2812662384713
 30
0.0
 10
93.03928220330268
 20
-150.4145914337505
 30
0.0
 10
93.03928220330268
 20
-150.4145914337505
 30
0.0
 10
92.99070635696066
 20
-150.4400851403414
 30
0.0
 10
92.93145071461436
 20
-150.4717800188057
 30
0.0
 10
92.7981255193352
 20
-150.5372368330254
 30
0.0
 10
92.7981255193352
 20
-150.5372368330254
 30
0.0
 10
92.7981255193352
 20
-150.6833088816
 30
0.0
 10
92.7981255193352
 20
-150.6833088816
 30
0.0
 10
92.7981255193352
 20
-150.6833088816
 30
0.0
 10
92.7981255193352
 20
-151.1508083389484
 30
0.0
 10
92.7981255193352
 20
-151.1508083389484
 30
0.0
 10
92.7981255193352
 20
-151.2775878528056
 30
0.0
 10
92.7622965262886
 20
-151.3368434951519
 30
0.0
 10
92.47876516785252
 20
-151.3285752659873
 30
0.0
 10
92.47876516785252
 20
-151.3285752659873
 30
0.0
 10
92.37506779374651
 20
-151.1211805177752
 30
0.0
 10
92.37506779374651
 20
-151.1211805177752
 30
0.0
 10
92.43862980544937
 20
-151.1339273710707
 30
0.0
 10
92.48720565179139
 20
-151.138061485653
 30
0.0
 10
92.52734101419456
 20
-151.138061485653
 30
0.0
 10
92.60364987919285
 20
-151.138061485653
 30
0.0
 10
92.61415742042286
 20
-151.1146348363533
 30
0.0
 10
92.61415742042286
 20
-151.0491780221335
 30
0.0
 10
92.61415742042286
 20
-151.0491780221335
 30
0.0
 10
92.61415742042286
 20
-150.6199191246714
 30
0.0
 10
92.61415742042286
 20
-150.6199191246714
 30
0.0
 10
92.51683347296454
 20
-150.6598822323003
 30
0.0
 10
92.49995250508682
 20
-150.6664279137223
 30
0.0
 10
92.45344371603595
 20
-150.6853759388911
 30
0.0
 10
92.44913734667939
 20
-150.7063910213512
 30
0.0
 10
92.44483097732283
 20
-150.7360188425243
 30
0.0
 10
92.42588295215396
 20
-150.7360188425243
 30
0.0
 10
92.41744246821509
 20
-150.7360188425243
 30
0.0
 10
92.40676267221081
 20
-150.731884727942
 30
0.0
 10
92.40056150033735
 20
-150.7084580786423
 30
0.0
 10
92.40056150033735
 20
-150.7084580786423
 30
0.0
 10
92.34767928463877
 20
-150.5162217505654
 30
0.0
 10
92.34767928463877
 20
-150.5162217505654
 30
0.0
 10
92.49357907843911
 20
-150.4697129615145
 30
0.0
 10
92.55920814743312
 20
-150.4462863122148
 30
0.0
 10
92.61415742042286
 20
-150.4252712297548
 30
0.0
 10
92.61415742042286
 20
-150.4252712297548
 30
0.0
 10
92.61415742042286
 20
-150.0125487906219
 30
0.0
 10
92.61415742042286
 20
-150.0125487906219
 30
0.0
 10
92.61415742042286
 20
-150.0125487906219
 30
0.0
 10
92.56127520472427
 20
-150.0125487906219
 30
0.0
 10
92.56127520472427
 20
-150.0125487906219
 30
0.0
 10
92.56127520472427
 20
-150.0125487906219
 30
0.0
 10
92.4830715372091
 20
-150.0125487906219
 30
0.0
 10
92.4830715372091
 20
-150.0125487906219
 30
0.0
 10
92.41537541092395
 20
-150.0125487906219
 30
0.0
 10
92.40676267221081
 20
-150.0125487906219
 30
0.0
 10
92.3709336791642
 20
-150.0190944720438
 30
0.0
 10
92.3709336791642
 20
-150.0190944720438
 30
0.0
 10
92.3709336791642
 20
-149.8244465771272
 30
0.0
 10
92.3709336791642
 20
-149.8244465771272
 30
0.0
 10
92.39832218827194
 20
-149.8306477490007
 30
0.0
 10
92.40676267221081
 20
-149.8306477490007
 30
0.0
 10
92.47669811056139
 20
-149.8306477490007
 30
0.0
 10
92.47669811056139
 20
-149.8306477490007
 30
0.0
 10
92.60985105106628
 20
-149.8306477490007
 30
0.0
 10
92.60985105106628
 20
-149.8306477490007
 30
0.0
 10
92.60985105106628
 20
-149.7607123106501
 30
0.0
 10
92.60985105106628
 20
-149.6783745285526
 30
0.0
 10
92.60778399377514
 20
-149.6742404139703
 30
0.0
 10
92.59934350983627
 20
-149.4944064296403
 30
0.0
 10
92.59934350983627
 20
-149.4751138949229
 30
0.0
 10
92.59727645254512
 20
-149.428605105872
 30
0.0
 10
92.59727645254512
 20
-149.428605105872
 30
0.0
 10
92.81293942992176
 20
-149.4372178445851
 30
0.0
 10
92.81293942992176
 20
-149.4372178445851
 30
0.0
 10
92.82361922592604
 20
-149.4372178445851
 30
0.0
 10
92.84480656316032
 20
-149.4392849018763
 30
0.0
 10
92.84480656316032
 20
-149.456165869754
 30
0.0
 10
92.84480656316032
 20
-149.4751138949229
 30
0.0
 10
92.82999265257375
 20
-149.4857936909272
 30
0.0
 10
92.80449894598291
 20
-149.504741716096
 30
0.0
 10
92.80449894598291
 20
-149.5557291292777
 30
0.0
 10
92.7981255193352
 20
-149.7841389599498
 30
0.0
 10
92.80036483140062
 20
-149.8306477490007
 30
0.0
 10
92.92938365732322
 20
-149.8306477490007
 30
0.0
 10
92.94213051061865
 20
-149.8306477490007
 30
0.0
 10
93.03928220330268
 20
-149.8223795198361
 30
0.0
 10
93.03928220330268
 20
-149.8223795198361
 30
0.0
 10
93.03928220330268
 20
-150.0166829052041
 30
0.0
 10
93.03928220330268
 20
-150.0166829052041
 30
0.0
 10
93.00121389819066
 20
-150.014615847913
 30
0.0
 10
92.93351777190551
 20
-150.0104817333307
 30
0.0
 10
92.7981255193352
 20
-150.0125487906219
 30
0.0
 10
92.7981255193352
 20
-150.0125487906219
 30
0.0
 10
92.7981255193352
 20
-150.3512016768219
 30
0.0
 10
92.7981255193352
 20
-150.3512016768219
 30
0.0
 10
92.85324704709919
 20
-150.3277750275222
 30
0.0
 10
92.91870386131895
 20
-150.3002142636402
 30
0.0
 10
92.96745196243522
 20
-150.277132123889
 30
0.0
 10
92.96745196243522
 20
-150.277132123889
 30
0.0
 10
92.96745196243522
 20
-150.0993651968501
 30
0.0
 10
92.96745196243522
 20
-150.0993651968501
 30
0.0
 10
93.08165687777124
 20
-150.1121120501456
 30
0.0
 10
93.20016816246385
 20
-150.1121120501456
 30
0.0
 10
93.31644013509103
 20
-150.1121120501456
 30
0.0
 10
93.29318574056559
 20
-150.0166829052041
 30
0.0
 10
93.26579723145787
 20
-149.9343451231067
 30
0.0
 10
93.20223521975499
 20
-149.8010199278275
 30
0.0
 10
93.15779348799528
 20
-149.8030869851187
 30
0.0
 10
93.07528345112354
 20
-149.8075656092495
 30
0.0
 10
93.03721514601154
 20
-149.8096326665406
 30
0.0
 10
93.03721514601154
 20
-149.8096326665406
 30
0.0
 10
93.03721514601154
 20
-149.6297986822106
 30
0.0
 10
93.03721514601154
 20
-149.6297986822106
 30
0.0
 10
93.16209985735182
 20
-149.6380669113752
 30
0.0
 10
93.33556041503417
 20
-149.642545535506
 30
0.0
 10
93.4180704519059
 20
-149.642545535506
 30
0.0
 10
93.4180704519059
 20
-149.642545535506
 30
0.0
 10
93.50058048877764
 20
-149.642545535506
 30
0.0
 10
93.50058048877764
 20
-149.642545535506
 30
0.0
 10
93.50058048877764
 20
-149.4795925190537
 30
0.0
 10
93.50058048877764
 20
-149.4689127230494
 30
0.0
 10
93.49851343148648
 20
-149.4137911952854
 30
0.0
 10
93.49851343148648
 20
-149.4137911952854
 30
0.0
 10
93.72261689280199
 20
-149.4392849018763
 30
0.0
 10
93.72261689280199
 20
-149.4392849018763
 30
0.0
 10
93.72692326215855
 20
-149.4392849018763
 30
0.0
 10
93.74811059939283
 20
-149.4413519591674
 30
0.0
 10
93.74811059939283
 20
-149.4582329270452
 30
0.0
 10
93.74811059939283
 20
-149.4730468376317
 30
0.0
 10
93.73743080338856
 20
-149.4816595763448
 30
0.0
 10
93.71004229428082
 20
-149.4964734869314
 30
0.0
 10
93.70366886763312
 20
-149.5619303011512
 30
0.0
 10
93.70160181034197
 20
-149.5832898931597
 30
0.0
 10
93.70160181034197
 20
-149.642545535506
 30
0.0
 10
93.70160181034197
 20
-149.642545535506
 30
0.0
 10
93.79668644573486
 20
-149.642545535506
 30
0.0
 10
93.79668644573486
 20
-149.642545535506
 30
0.0
 10
93.87919648260659
 20
-149.642545535506
 30
0.0
 10
94.05265704028892
 20
-149.6380669113752
 30
0.0
 10
94.17754175162924
 20
-149.6297986822106
 30
0.0
 10
94.17754175162924
 20
-149.6297986822106
 30
0.0
 10
94.17754175162924
 20
-149.8096326665406
 30
0.0
 10
94.17754175162924
 20
-149.8096326665406
 30
0.0
 10
94.14791393045609
 20
-149.8075656092495
 30
0.0
 10
94.02940264576349
 20
-149.8030869851187
 30
0.0
 10
93.98926728336032
 20
-149.8010199278275
 30
0.0
 10
93.97445337277375
 20
-149.8520073410092
 30
0.0
 10
93.94051918224404
 20
-149.9639729442798
 30
0.0
 10
93.87506236802428
 20
-150.1034993114324
 30
0.0
 10
93.91726478771861
 20
-150.1034993114324
 30
0.0
 10
94.19442271950696
 20
-150.0845512862636
 30
0.0
 10
94.25574541914441
 20
-150.0824842289724
 30
0.0
 10
94.25574541914441
 20
-150.0824842289724
 30
0.0
 10
94.25574541914441
 20
-150.2664523278848
 30
0.0
 10
94.25574541914441
 20
-150.2664523278848
 30
0.0
 10
94.22611759797126
 20
-150.2664523278848
 30
0.0
 10
94.20923663009352
 20
-150.2623182133025
 30
0.0
 10
94.04628361364121
 20
-150.2623182133025
 30
0.0
  0
HATCH
  5
149
330
142
100
AcDbEntity
  8
レイヤー 1
 62
    18
420
        0
440
 33554687
100
AcDbHatch
 10
0.0
 20
0.0
 30
0.0
210
0.0
220
0.0
230
1.0
  2
SOLID
 70
     1
 71
     1
 91
        3
 92
        1
 93
        1
 72
     4
 94
        3
 73
     0
 74
     0
 95
       17
 96
       13
 40
0.0
 40
0.0
 40
0.0
 40
0.0
 40
1.0
 40
1.0
 40
1.0
 40
2.0
 40
2.0
 40
2.0
 40
3.0
 40
3.0
 40
3.0
 40
4.0
 40
4.0
 40
4.0
 40
4.0
 10
93.48146020883451
 20
-150.6471353790049
 10
93.46457924095679
 20
-150.676763200178
 10
93.41376408254934
 20
-150.7701252878283
 10
93.40325654131932
 20
-150.7890733129972
 10
93.59359806687939
 20
-150.8483289553435
 10
93.61478540411367
 20
-150.8545301272169
 10
93.68678789975538
 20
-150.8820908910989
 10
93.74173717274514
 20
-150.7952744848706
 10
93.76499156727055
 20
-150.7212049319377
 10
93.77980547785714
 20
-150.6471353790049
 10
93.77980547785714
 20
-150.6471353790049
 10
93.48146020883451
 20
-150.6471353790049
 10
93.48146020883451
 20
-150.6471353790049
 97
        0
 97
        1
330
146
 92
        1
 93
        1
 72
     4
 94
        3
 73
     0
 74
     0
 95
       20
 96
       16
 40
0.0
 40
0.0
 40
0.0
 40
0.0
 40
1.0
 40
1.0
 40
1.0
 40
2.0
 40
2.0
 40
2.0
 40
3.0
 40
3.0
 40
3.0
 40
4.0
 40
4.0
 40
4.0
 40
5.0
 40
5.0
 40
5.0
 40
5.0
 10
93.4180704519059
 20
-149.7968858132452
 10
93.4180704519059
 20
-149.7968858132452
 10
93.38637557344162
 20
-149.7968858132452
 10
93.38637557344162
 20
-149.7968858132452
 10
93.43288436249247
 20
-149.8961045632204
 10
93.46457924095679
 20
-149.9767197975752
 10
93.49851343148648
 20
-150.1034993114324
 10
93.49851343148648
 20
-150.1034993114324
 10
93.70573592492426
 20
-150.1034993114324
 10
93.70573592492426
 20
-150.1034993114324
 10
93.73743080338856
 20
-150.0104817333307
 10
93.76068519791401
 20
-149.9257323843935
 10
93.7841118472137
 20
-149.7968858132452
 10
93.7841118472137
 20
-149.7968858132452
 10
93.4180704519059
 20
-149.7968858132452
 10
93.4180704519059
 20
-149.7968858132452
 97
        0
 97
        1
330
147
 92
        1
 93
        1
 72
     4
 94
        3
 73
     0
 74
     0
 95
      242
 96
      238
 40
0.0
 40
0.0
 40
0.0
 40
0.0
 40
1.0
 40
1.0
 40
1.0
 40
2.0
 40
2.0
 40
2.0
 40
3.0
 40
3.0
 40
3.0
 40
4.0
 40
4.0
 40
4.0
 40
5.0
 40
5.0
 40
5.0
 40
6.0
 40
6.0
 40
6.0
 40
7.0
 40
7.0
 40
7.0
 40
8.0
 40
8.0
 40
8.0
 40
9.0
 40
9.0
 40
9.0
 40
10.0
 40
10.0
 40
10.0
 40
11.0
 40
11.0
 40
11.0
 40
12.0
 40
12.0
 40
12.0
 40
13.0
 40
13.0
 40
13.0
 40
14.0
 40
14.0
 40
14.0
 40
15.0
 40
15.0
 40
15.0
 40
16.0
 40
16.0
 40
16.0
 40
17.0
 40
17.0
 40
17.0
 40
18.0
 40
18.0
 40
18.0
 40
19.0
 40
19.0
 40
19.0
 40
20.0
 40
20.0
 40
20.0
 40
21.0
 40
21.0
 40
21.0
 40
22.0
 40
22.0
 40
22.0
 40
23.0
 40
23.0
 40
23.0
 40
24.0
 40
24.0
 40
24.0
 40
25.0
 40
25.0
 40
25.0
 40
26.0
 40
26.0
 40
26.0
 40
27.0
 40
27.0
 40
27.0
 40
28.0
 40
28.0
 40
28.0
 40
29.0
 40
29.0
 40
29.0
 40
30.0
 40
30.0
 40
30.0
 40
31.0
 40
31.0
 40
31.0
 40
32.0
 40
32.0
 40
32.0
 40
33.0
 40
33.0
 40
33.0
 40
34.0
 40
34.0
 40
34.0
 40
35.0
 40
35.0
 40
35.0
 40
36.0
 40
36.0
 40
36.0
 40
37.0
 40
37.0
 40
37.0
 40
38.0
 40
38.0
 40
38.0
 40
39.0
 40
39.0
 40
39.0
 40
40.0
 40
40.0
 40
40.0
 40
41.0
 40
41.0
 40
41.0
 40
42.0
 40
42.0
 40
42.0
 40
43.0
 40
43.0
 40
43.0
 40
44.0
 40
44.0
 40
44.0
 40
45.0
 40
45.0
 40
45.0
 40
46.0
 40
46.0
 40
46.0
 40
47.0
 40
47.0
 40
47.0
 40
48.0
 40
48.0
 40
48.0
 40
49.0
 40
49.0
 40
49.0
 40
50.0
 40
50.0
 40
50.0
 40
51.0
 40
51.0
 40
51.0
 40
52.0
 40
52.0
 40
52.0
 40
53.0
 40
53.0
 40
53.0
 40
54.0
 40
54.0
 40
54.0
 40
55.0
 40
55.0
 40
55.0
 40
56.0
 40
56.0
 40
56.0
 40
57.0
 40
57.0
 40
57.0
 40
58.0
 40
58.0
 40
58.0
 40
59.0
 40
59.0
 40
59.0
 40
60.0
 40
60.0
 40
60.0
 40
61.0
 40
61.0
 40
61.0
 40
62.0
 40
62.0
 40
62.0
 40
63.0
 40
63.0
 40
63.0
 40
64.0
 40
64.0
 40
64.0
 40
65.0
 40
65.0
 40
65.0
 40
66.0
 40
66.0
 40
66.0
 40
67.0
 40
67.0
 40
67.0
 40
68.0
 40
68.0
 40
68.0
 40
69.0
 40
69.0
 40
69.0
 40
70.0
 40
70.0
 40
70.0
 40
71.0
 40
71.0
 40
71.0
 40
72.0
 40
72.0
 40
72.0
 40
73.0
 40
73.0
 40
73.0
 40
74.0
 40
74.0
 40
74.0
 40
75.0
 40
75.0
 40
75.0
 40
76.0
 40
76.0
 40
76.0
 40
77.0
 40
77.0
 40
77.0
 40
78.0
 40
78.0
 40
78.0
 40
79.0
 40
79.0
 40
79.0
 40
79.0
 10
94.04628361364121
 20
-150.2623182133025
 10
94.04628361364121
 20
-150.2623182133025
 10
93.79255233115257
 20
-150.2623182133025
 10
93.79255233115257
 20
-150.2623182133025
 10
93.79255233115257
 20
-150.2623182133025
 10
93.51539439936422
 20
-150.2623182133025
 10
93.51539439936422
 20
-150.2623182133025
 10
93.51539439936422
 20
-150.2623182133025
 10
93.64234616799567
 20
-150.304692887771
 10
93.64234616799567
 20
-150.304692887771
 10
93.65285370922569
 20
-150.3088270023533
 10
93.6656005625211
 20
-150.3150281742268
 10
93.6656005625211
 20
-150.3277750275222
 10
93.6656005625211
 20
-150.3491346195308
 10
93.6339056840568
 20
-150.3553357914042
 10
93.61271834682252
 20
-150.3594699059865
 10
93.60203855081826
 20
-150.3828965552862
 10
93.57241072964511
 20
-150.448353369506
 10
93.55346270447622
 20
-150.4927951012657
 10
93.55346270447622
 20
-150.4927951012657
 10
93.82424720961685
 20
-150.4927951012657
 10
93.82424720961685
 20
-150.4927951012657
 10
93.91519773042745
 20
-150.4927951012657
 10
94.11191268263522
 20
-150.4886609866834
 10
94.25367836185325
 20
-150.4800482479702
 10
94.25367836185325
 20
-150.4800482479702
 10
94.25367836185325
 20
-150.6578151750091
 10
94.25367836185325
 20
-150.6578151750091
 10
94.17116832498152
 20
-150.6536810604268
 10
94.14998098774722
 20
-150.6536810604268
 10
93.97014700341719
 20
-150.6495469458446
 10
93.93845212495289
 20
-150.8038872235837
 10
93.89401039319317
 20
-150.8841579483901
 10
93.84956866143346
 20
-150.9540933867406
 10
93.97014700341719
 20
-151.0133490290869
 10
94.07591143481436
 20
-151.0808729005978
 10
94.17960880892037
 20
-151.1635551922438
 10
94.17960880892037
 20
-151.1635551922438
 10
94.06109752422779
 20
-151.3306423232784
 10
94.06109752422779
 20
-151.3306423232784
 10
94.03784312970236
 20
-151.3116942981096
 10
94.02526853118118
 20
-151.3030815593964
 10
93.9131306731363
 20
-151.2183322104593
 10
93.86438257202001
 20
-151.1804361601215
 10
93.80512692967371
 20
-151.1442626575264
 10
93.7248562048674
 20
-151.0998209257667
 10
93.51332734207305
 20
-151.2862005915187
 10
93.30799965115216
 20
-151.3092827312699
 10
93.01826712084267
 20
-151.338910552443
 10
93.01826712084267
 20
-151.338910552443
 10
92.91456974673664
 20
-151.159076568113
 10
92.91456974673664
 20
-151.159076568113
 10
93.23186304092814
 20
-151.1549424535307
 10
93.40739065590161
 20
-151.1294487469398
 10
93.55983613112393
 20
-151.0195502009604
 10
93.44132484643134
 20
-150.9689072973272
 10
93.35244138291189
 20
-150.9413465334452
 10
93.31644013509103
 20
-150.9285996801498
 10
93.29749210992217
 20
-150.9561604440318
 10
93.28267819933557
 20
-150.9751084692006
 10
93.25511743545359
 20
-151.0088704049561
 10
93.25511743545359
 20
-151.0088704049561
 10
93.05840248324582
 20
-150.9265326228586
 10
93.05840248324582
 20
-150.9265326228586
 10
93.14091252011754
 20
-150.8462618980523
 10
93.20223521975499
 20
-150.7508327531109
 10
93.25942380481015
 20
-150.6495469458446
 10
93.06891002447583
 20
-150.6536810604268
 10
93.0478949420158
 20
-150.6536810604268
 10
92.96538490514407
 20
-150.6578151750091
 10
92.96538490514407
 20
-150.6578151750091
 10
92.96538490514407
 20
-150.4800482479702
 10
92.96538490514407
 20
-150.4800482479702
 10
93.10491127229669
 20
-150.4865939293922
 10
93.31437307779989
 20
-150.4907280439745
 10
93.33969452961646
 20
-150.4907280439745
 10
93.35674775226847
 20
-150.4569661082191
 10
93.41169702525819
 20
-150.3363877662353
 10
93.43081730520133
 20
-150.2623182133025
 10
93.41169702525819
 20
-150.2623182133025
 10
93.23393009821931
 20
-150.2685193851759
 10
93.03928220330268
 20
-150.2812662384713
 10
93.03928220330268
 20
-150.2812662384713
 10
93.03928220330268
 20
-150.4145914337505
 10
93.03928220330268
 20
-150.4145914337505
 10
92.99070635696066
 20
-150.4400851403414
 10
92.93145071461436
 20
-150.4717800188057
 10
92.7981255193352
 20
-150.5372368330254
 10
92.7981255193352
 20
-150.5372368330254
 10
92.7981255193352
 20
-150.6833088816
 10
92.7981255193352
 20
-150.6833088816
 10
92.7981255193352
 20
-150.6833088816
 10
92.7981255193352
 20
-151.1508083389484
 10
92.7981255193352
 20
-151.1508083389484
 10
92.7981255193352
 20
-151.2775878528056
 10
92.7622965262886
 20
-151.3368434951519
 10
92.47876516785252
 20
-151.3285752659873
 10
92.47876516785252
 20
-151.3285752659873
 10
92.37506779374651
 20
-151.1211805177752
 10
92.37506779374651
 20
-151.1211805177752
 10
92.43862980544937
 20
-151.1339273710707
 10
92.48720565179139
 20
-151.138061485653
 10
92.52734101419456
 20
-151.138061485653
 10
92.60364987919285
 20
-151.138061485653
 10
92.61415742042286
 20
-151.1146348363533
 10
92.61415742042286
 20
-151.0491780221335
 10
92.61415742042286
 20
-151.0491780221335
 10
92.61415742042286
 20
-150.6199191246714
 10
92.61415742042286
 20
-150.6199191246714
 10
92.51683347296454
 20
-150.6598822323003
 10
92.49995250508682
 20
-150.6664279137223
 10
92.45344371603595
 20
-150.6853759388911
 10
92.44913734667939
 20
-150.7063910213512
 10
92.44483097732283
 20
-150.7360188425243
 10
92.42588295215396
 20
-150.7360188425243
 10
92.41744246821509
 20
-150.7360188425243
 10
92.40676267221081
 20
-150.731884727942
 10
92.40056150033735
 20
-150.7084580786423
 10
92.40056150033735
 20
-150.7084580786423
 10
92.34767928463877
 20
-150.5162217505654
 10
92.34767928463877
 20
-150.5162217505654
 10
92.49357907843911
 20
-150.4697129615145
 10
92.55920814743312
 20
-150.4462863122148
 10
92.61415742042286
 20
-150.4252712297548
 10
92.61415742042286
 20
-150.4252712297548
 10
92.61415742042286
 20
-150.0125487906219
 10
92.61415742042286
 20
-150.0125487906219
 10
92.61415742042286
 20
-150.0125487906219
 10
92.56127520472427
 20
-150.0125487906219
 10
92.56127520472427
 20
-150.0125487906219
 10
92.56127520472427
 20
-150.0125487906219
 10
92.4830715372091
 20
-150.0125487906219
 10
92.4830715372091
 20
-150.0125487906219
 10
92.41537541092395
 20
-150.0125487906219
 10
92.40676267221081
 20
-150.0125487906219
 10
92.3709336791642
 20
-150.0190944720438
 10
92.3709336791642
 20
-150.0190944720438
 10
92.3709336791642
 20
-149.8244465771272
 10
92.3709336791642
 20
-149.8244465771272
 10
92.39832218827194
 20
-149.8306477490007
 10
92.40676267221081
 20
-149.8306477490007
 10
92.47669811056139
 20
-149.8306477490007
 10
92.47669811056139
 20
-149.8306477490007
 10
92.60985105106628
 20
-149.8306477490007
 10
92.60985105106628
 20
-149.8306477490007
 10
92.60985105106628
 20
-149.7607123106501
 10
92.60985105106628
 20
-149.6783745285526
 10
92.60778399377514
 20
-149.6742404139703
 10
92.59934350983627
 20
-149.4944064296403
 10
92.59934350983627
 20
-149.4751138949229
 10
92.59727645254512
 20
-149.428605105872
 10
92.59727645254512
 20
-149.428605105872
 10
92.81293942992176
 20
-149.4372178445851
 10
92.81293942992176
 20
-149.4372178445851
 10
92.82361922592604
 20
-149.4372178445851
 10
92.84480656316032
 20
-149.4392849018763
 10
92.84480656316032
 20
-149.456165869754
 10
92.84480656316032
 20
-149.4751138949229
 10
92.82999265257375
 20
-149.4857936909272
 10
92.80449894598291
 20
-149.504741716096
 10
92.80449894598291
 20
-149.5557291292777
 10
92.7981255193352
 20
-149.7841389599498
 10
92.80036483140062
 20
-149.8306477490007
 10
92.92938365732322
 20
-149.8306477490007
 10
92.94213051061865
 20
-149.8306477490007
 10
93.03928220330268
 20
-149.8223795198361
 10
93.03928220330268
 20
-149.8223795198361
 10
93.03928220330268
 20
-150.0166829052041
 10
93.03928220330268
 20
-150.0166829052041
 10
93.00121389819066
 20
-150.014615847913
 10
92.93351777190551
 20
-150.0104817333307
 10
92.7981255193352
 20
-150.0125487906219
 10
92.7981255193352
 20
-150.0125487906219
 10
92.7981255193352
 20
-150.3512016768219
 10
92.7981255193352
 20
-150.3512016768219
 10
92.85324704709919
 20
-150.3277750275222
 10
92.91870386131895
 20
-150.3002142636402
 10
92.96745196243522
 20
-150.277132123889
 10
92.96745196243522
 20
-150.277132123889
 10
92.96745196243522
 20
-150.0993651968501
 10
92.96745196243522
 20
-150.0993651968501
 10
93.08165687777124
 20
-150.1121120501456
 10
93.20016816246385
 20
-150.1121120501456
 10
93.31644013509103
 20
-150.1121120501456
 10
93.29318574056559
 20
-150.0166829052041
 10
93.26579723145787
 20
-149.9343451231067
 10
93.20223521975499
 20
-149.8010199278275
 10
93.15779348799528
 20
-149.8030869851187
 10
93.07528345112354
 20
-149.8075656092495
 10
93.03721514601154
 20
-149.8096326665406
 10
93.03721514601154
 20
-149.8096326665406
 10
93.03721514601154
 20
-149.6297986822106
 10
93.03721514601154
 20
-149.6297986822106
 10
93.16209985735182
 20
-149.6380669113752
 10
93.33556041503417
 20
-149.642545535506
 10
93.4180704519059
 20
-149.642545535506
 10
93.4180704519059
 20
-149.642545535506
 10
93.50058048877764
 20
-149.642545535506
 10
93.50058048877764
 20
-149.642545535506
 10
93.50058048877764
 20
-149.4795925190537
 10
93.50058048877764
 20
-149.4689127230494
 10
93.49851343148648
 20
-149.4137911952854
 10
93.49851343148648
 20
-149.4137911952854
 10
93.72261689280199
 20
-149.4392849018763
 10
93.72261689280199
 20
-149.4392849018763
 10
93.72692326215855
 20
-149.4392849018763
 10
93.74811059939283
 20
-149.4413519591674
 10
93.74811059939283
 20
-149.4582329270452
 10
93.74811059939283
 20
-149.4730468376317
 10
93.73743080338856
 20
-149.4816595763448
 10
93.71004229428082
 20
-149.4964734869314
 10
93.70366886763312
 20
-149.5619303011512
 10
93.70160181034197
 20
-149.5832898931597
 10
93.70160181034197
 20
-149.642545535506
 10
93.70160181034197
 20
-149.642545535506
 10
93.79668644573486
 20
-149.642545535506
 10
93.79668644573486
 20
-149.642545535506
 10
93.87919648260659
 20
-149.642545535506
 10
94.05265704028892
 20
-149.6380669113752
 10
94.17754175162924
 20
-149.6297986822106
 10
94.17754175162924
 20
-149.6297986822106
 10
94.17754175162924
 20
-149.8096326665406
 10
94.17754175162924
 20
-149.8096326665406
 10
94.14791393045609
 20
-149.8075656092495
 10
94.02940264576349
 20
-149.8030869851187
 10
93.98926728336032
 20
-149.8010199278275
 10
93.97445337277375
 20
-149.8520073410092
 10
93.94051918224404
 20
-149.9639729442798
 10
93.87506236802428
 20
-150.1034993114324
 10
93.91726478771861
 20
-150.1034993114324
 10
94.19442271950696
 20
-150.0845512862636
 10
94.25574541914441
 20
-150.0824842289724
 10
94.25574541914441
 20
-150.0824842289724
 10
94.25574541914441
 20
-150.2664523278848
 10
94.25574541914441
 20
-150.2664523278848
 10
94.22611759797126
 20
-150.2664523278848
 10
94.20923663009352
 20
-150.2623182133025
 10
94.04628361364121
 20
-150.2623182133025
 97
        0
 97
        1
330
148
 75
     2
 76
     1
 98
        1
 10
0.0
 20
0.0
450
        0
451
        0
460
0.0
461
0.0
452
        0
462
0.0
453
        0
470

  0
SPLINE
  5
14A
330
142
100
AcDbEntity
  8
レイヤー 1
100
AcDbSpline
210
0.0
220
0.0
230
1.0
 70
    11
 71
     3
 72
    17
 73
    13
 74
     0
 42
0.0000000001
 43
0.0000000001
 40
0.0
 40
0.0
 40
0.0
 40
0.0
 40
1.0
 40
1.0
 40
1.0
 40
2.0
 40
2.0
 40
2.0
 40
3.0
 40
3.0
 40
3.0
 40
4.0
 40
4.0
 40
4.0
 40
4.0
 10
95.90284557064235
 20
-151.0619248754289
 30
0.0
 10
95.90284557064235
 20
-151.0619248754289
 30
0.0
 10
95.19625648661762
 20
-151.0619248754289
 30
0.0
 10
95.19625648661762
 20
-151.0619248754289
 30
0.0
 10
95.19625648661762
 20
-151.0619248754289
 30
0.0
 10
95.19625648661762
 20
-151.1763020455392
 30
0.0
 10
95.19625648661762
 20
-151.1763020455392
 30
0.0
 10
95.19625648661762
 20
-151.1763020455392
 30
0.0
 10
95.90284557064235
 20
-151.1763020455392
 30
0.0
 10
95.90284557064235
 20
-151.1763020455392
 30
0.0
 10
95.90284557064235
 20
-151.1763020455392
 30
0.0
 10
95.90284557064235
 20
-151.0619248754289
 30
0.0
 10
95.90284557064235
 20
-151.0619248754289
 30
0.0
  0
SPLINE
  5
14B
330
142
100
AcDbEntity
  8
レイヤー 1
100
AcDbSpline
210
0.0
220
0.0
230
1.0
 70
    11
 71
     3
 72
    17
 73
    13
 74
     0
 42
0.0000000001
 43
0.0000000001
 40
0.0
 40
0.0
 40
0.0
 40
0.0
 40
1.0
 40
1.0
 40
1.0
 40
2.0
 40
2.0
 40
2.0
 40
3.0
 40
3.0
 40
3.0
 40
4.0
 40
4.0
 40
4.0
 40
4.0
 10
95.90284557064235
 20
-150.8187011341703
 30
0.0
 10
95.90284557064235
 20
-150.8187011341703
 30
0.0
 10
95.19625648661762
 20
-150.8187011341703
 30
0.0
 10
95.19625648661762
 20
-150.8187011341703
 30
0.0
 10
95.19625648661762
 20
-150.8187011341703
 30
0.0
 10
95.19625648661762
 20
-150.9327337947321
 30
0.0
 10
95.19625648661762
 20
-150.9327337947321
 30
0.0
 10
95.19625648661762
 20
-150.9327337947321
 30
0.0
 10
95.90284557064235
 20
-150.9327337947321
 30
0.0
 10
95.90284557064235
 20
-150.9327337947321
 30
0.0
 10
95.90284557064235
 20
-150.9327337947321
 30
0.0
 10
95.90284557064235
 20
-150.8187011341703
 30
0.0
 10
95.90284557064235
 20
-150.8187011341703
 30
0.0
  0
SPLINE
  5
14C
330
142
100
AcDbEntity
  8
レイヤー 1
100
AcDbSpline
210
0.0
220
0.0
230
1.0
 70
    11
 71
     3
 72
    17
 73
    13
 74
     0
 42
0.0000000001
 43
0.0000000001
 40
0.0
 40
0.0
 40
0.0
 40
0.0
 40
1.0
 40
1.0
 40
1.0
 40
2.0
 40
2.0
 40
2.0
 40
3.0
 40
3.0
 40
3.0
 40
4.0
 40
4.0
 40
4.0
 40
4.0
 10
95.90284557064235
 20
-150.5858126793674
 30
0.0
 10
95.90284557064235
 20
-150.5858126793674
 30
0.0
 10
95.19625648661762
 20
-150.5858126793674
 30
0.0
 10
95.19625648661762
 20
-150.5858126793674
 30
0.0
 10
95.19625648661762
 20
-150.5858126793674
 30
0.0
 10
95.19625648661762
 20
-150.6936441680557
 30
0.0
 10
95.19625648661762
 20
-150.6936441680557
 30
0.0
 10
95.19625648661762
 20
-150.6936441680557
 30
0.0
 10
95.90284557064235
 20
-150.6936441680557
 30
0.0
 10
95.90284557064235
 20
-150.6936441680557
 30
0.0
 10
95.90284557064235
 20
-150.6936441680557
 30
0.0
 10
95.90284557064235
 20
-150.5858126793674
 30
0.0
 10
95.90284557064235
 20
-150.5858126793674
 30
0.0
  0
SPLINE
  5
14D
330
142
100
AcDbEntity
  8
レイヤー 1
100
AcDbSpline
210
0.0
220
0.0
230
1.0
 70
     9
 71
     3
 72
   203
 73
   199
 74
     0
 42
0.0000000001
 43
0.0000000001
 40
0.0
 40
0.0
 40
0.0
 40
0.0
 40
1.0
 40
1.0
 40
1.0
 40
2.0
 40
2.0
 40
2.0
 40
3.0
 40
3.0
 40
3.0
 40
4.0
 40
4.0
 40
4.0
 40
5.0
 40
5.0
 40
5.0
 40
6.0
 40
6.0
 40
6.0
 40
7.0
 40
7.0
 40
7.0
 40
8.0
 40
8.0
 40
8.0
 40
9.0
 40
9.0
 40
9.0
 40
10.0
 40
10.0
 40
10.0
 40
11.0
 40
11.0
 40
11.0
 40
12.0
 40
12.0
 40
12.0
 40
13.0
 40
13.0
 40
13.0
 40
14.0
 40
14.0
 40
14.0
 40
15.0
 40
15.0
 40
15.0
 40
16.0
 40
16.0
 40
16.0
 40
17.0
 40
17.0
 40
17.0
 40
18.0
 40
18.0
 40
18.0
 40
19.0
 40
19.0
 40
19.0
 40
20.0
 40
20.0
 40
20.0
 40
21.0
 40
21.0
 40
21.0
 40
22.0
 40
22.0
 40
22.0
 40
23.0
 40
23.0
 40
23.0
 40
24.0
 40
24.0
 40
24.0
 40
25.0
 40
25.0
 40
25.0
 40
26.0
 40
26.0
 40
26.0
 40
27.0
 40
27.0
 40
27.0
 40
28.0
 40
28.0
 40
28.0
 40
29.0
 40
29.0
 40
29.0
 40
30.0
 40
30.0
 40
30.0
 40
31.0
 40
31.0
 40
31.0
 40
32.0
 40
32.0
 40
32.0
 40
33.0
 40
33.0
 40
33.0
 40
34.0
 40
34.0
 40
34.0
 40
35.0
 40
35.0
 40
35.0
 40
36.0
 40
36.0
 40
36.0
 40
37.0
 40
37.0
 40
37.0
 40
38.0
 40
38.0
 40
38.0
 40
39.0
 40
39.0
 40
39.0
 40
40.0
 40
40.0
 40
40.0
 40
41.0
 40
41.0
 40
41.0
 40
42.0
 40
42.0
 40
42.0
 40
43.0
 40
43.0
 40
43.0
 40
44.0
 40
44.0
 40
44.0
 40
45.0
 40
45.0
 40
45.0
 40
46.0
 40
46.0
 40
46.0
 40
47.0
 40
47.0
 40
47.0
 40
48.0
 40
48.0
 40
48.0
 40
49.0
 40
49.0
 40
49.0
 40
50.0
 40
50.0
 40
50.0
 40
51.0
 40
51.0
 40
51.0
 40
52.0
 40
52.0
 40
52.0
 40
53.0
 40
53.0
 40
53.0
 40
54.0
 40
54.0
 40
54.0
 40
55.0
 40
55.0
 40
55.0
 40
56.0
 40
56.0
 40
56.0
 40
57.0
 40
57.0
 40
57.0
 40
58.0
 40
58.0
 40
58.0
 40
59.0
 40
59.0
 40
59.0
 40
60.0
 40
60.0
 40
60.0
 40
61.0
 40
61.0
 40
61.0
 40
62.0
 40
62.0
 40
62.0
 40
63.0
 40
63.0
 40
63.0
 40
64.0
 40
64.0
 40
64.0
 40
65.0
 40
65.0
 40
65.0
 40
66.0
 40
66.0
 40
66.0
 40
66.0
 10
95.73782549689887
 20
-150.3298420848134
 30
0.0
 10
95.73782549689887
 20
-150.3298420848134
 30
0.0
 10
95.17937551873989
 20
-150.3298420848134
 30
0.0
 10
95.17937551873989
 20
-150.3298420848134
 30
0.0
 10
95.16869572273561
 20
-150.3742838165731
 30
0.0
 10
95.16025523879674
 20
-150.4059786950374
 30
0.0
 10
95.14750838550133
 20
-150.4442192549236
 30
0.0
 10
95.17300209209217
 20
-150.4442192549236
 30
0.0
 10
95.18781600267875
 20
-150.4462863122148
 30
0.0
 10
95.19418942932645
 20
-150.4462863122148
 30
0.0
 10
95.19418942932645
 20
-150.4462863122148
 30
0.0
 10
95.38246389759535
 20
-150.4462863122148
 30
0.0
 10
95.38246389759535
 20
-150.4462863122148
 30
0.0
 10
95.38246389759535
 20
-150.4462863122148
 30
0.0
 10
95.75677352206776
 20
-150.4462863122148
 30
0.0
 10
95.75677352206776
 20
-150.4462863122148
 30
0.0
 10
95.80758868047519
 20
-150.4462863122148
 30
0.0
 10
96.09112003891127
 20
-150.4335394589194
 30
0.0
 10
96.12281491737554
 20
-150.4335394589194
 30
0.0
 10
96.12074786008442
 20
-150.4611002228014
 30
0.0
 10
96.118508548019
 20
-150.4800482479702
 30
0.0
 10
96.118508548019
 20
-150.5096760691434
 30
0.0
 10
96.11644149072784
 20
-150.5413709476077
 30
0.0
 10
96.11644149072784
 20
-150.676763200178
 30
0.0
 10
96.11644149072784
 20
-150.70432396406
 30
0.0
 10
96.11644149072784
 20
-150.70432396406
 30
0.0
 10
96.11644149072784
 20
-150.9496147626098
 30
0.0
 10
96.11644149072784
 20
-150.9496147626098
 30
0.0
 10
96.11644149072784
 20
-150.9940564943695
 30
0.0
 10
96.12074786008442
 20
-151.1911159561258
 30
0.0
 10
96.12488197466671
 20
-151.3433891765739
 30
0.0
 10
96.12488197466671
 20
-151.3433891765739
 30
0.0
 10
95.89853920128579
 20
-151.3433891765739
 30
0.0
 10
95.89853920128579
 20
-151.3433891765739
 30
0.0
 10
95.89853920128579
 20
-151.3433891765739
 30
0.0
 10
95.9007785133512
 20
-151.3092827312699
 30
0.0
 10
95.9007785133512
 20
-151.3092827312699
 30
0.0
 10
95.9007785133512
 20
-151.3092827312699
 30
0.0
 10
95.19832354390876
 20
-151.3092827312699
 30
0.0
 10
95.19832354390876
 20
-151.3092827312699
 30
0.0
 10
95.19832354390876
 20
-151.3092827312699
 30
0.0
 10
95.20039060119991
 20
-151.3433891765739
 30
0.0
 10
95.20039060119991
 20
-151.3433891765739
 30
0.0
 10
95.20039060119991
 20
-151.3433891765739
 30
0.0
 10
94.98248831175784
 20
-151.3433891765739
 30
0.0
 10
94.98248831175784
 20
-151.3433891765739
 30
0.0
 10
94.98679468111442
 20
-151.2882676488099
 30
0.0
 10
94.98679468111442
 20
-151.2755207955144
 30
0.0
 10
94.99316810776212
 20
-151.1614881349527
 30
0.0
 10
94.99523516505327
 20
-151.1339273710707
 30
0.0
 10
94.99730222234443
 20
-151.0006021757915
 30
0.0
 10
94.99730222234443
 20
-150.9816541506226
 30
0.0
 10
94.99730222234443
 20
-150.9816541506226
 30
0.0
 10
94.99730222234443
 20
-150.7783935169929
 30
0.0
 10
94.99730222234443
 20
-150.7783935169929
 30
0.0
 10
94.8577758551918
 20
-151.0281629396735
 30
0.0
 10
94.68844941209178
 20
-151.159076568113
 30
0.0
 10
94.58268498069461
 20
-151.2248778918813
 30
0.0
 10
94.58268498069461
 20
-151.2248778918813
 30
0.0
 10
94.40922442301227
 20
-151.0850070151801
 30
0.0
 10
94.40922442301227
 20
-151.0850070151801
 30
0.0
 10
94.49810788653172
 20
-151.0343641115469
 30
0.0
 10
94.64194062304091
 20
-150.9475477053186
 30
0.0
 10
94.77939993290238
 20
-150.752899810402
 30
0.0
 10
94.87052270848723
 20
-150.6261202965448
 30
0.0
 10
94.93597952270699
 20
-150.4821153052614
 30
0.0
 10
94.96991371323669
 20
-150.3298420848134
 30
0.0
 10
94.74133162779036
 20
-150.3319091421045
 30
0.0
 10
94.56149764346033
 20
-150.3384548235265
 30
0.0
 10
94.46641300806744
 20
-150.3405218808176
 30
0.0
 10
94.46641300806744
 20
-150.3405218808176
 30
0.0
 10
94.46641300806744
 20
-150.1627549537787
 30
0.0
 10
94.46641300806744
 20
-150.1627549537787
 30
0.0
 10
94.66312796027519
 20
-150.1693006352007
 30
0.0
 10
94.94665931871125
 20
-150.173434749783
 30
0.0
 10
95.09686548186815
 20
-150.173434749783
 30
0.0
 10
95.09686548186815
 20
-150.173434749783
 30
0.0
 10
95.31046140195364
 20
-150.173434749783
 30
0.0
 10
95.31046140195364
 20
-150.173434749783
 30
0.0
 10
95.31046140195364
 20
-150.173434749783
 30
0.0
 10
95.31046140195364
 20
-150.0656032610947
 30
0.0
 10
95.31046140195364
 20
-150.0656032610947
 30
0.0
 10
95.31046140195364
 20
-150.0656032610947
 30
0.0
 10
95.1645616081533
 20
-150.0656032610947
 30
0.0
 10
95.1645616081533
 20
-150.0656032610947
 30
0.0
 10
94.99523516505327
 20
-150.0656032610947
 30
0.0
 10
94.8260809767275
 20
-150.069737375677
 30
0.0
 10
94.65882159091863
 20
-150.0759385475504
 30
0.0
 10
94.65882159091863
 20
-150.0759385475504
 30
0.0
 10
94.65882159091863
 20
-149.9047173019335
 30
0.0
 10
94.65882159091863
 20
-149.9047173019335
 30
0.0
 10
94.81333412343209
 20
-149.9153970979378
 30
0.0
 10
94.99954153440985
 20
-149.9153970979378
 30
0.0
 10
95.1645616081533
 20
-149.9153970979378
 30
0.0
 10
95.1645616081533
 20
-149.9153970979378
 30
0.0
 10
95.31046140195364
 20
-149.9153970979378
 30
0.0
 10
95.31046140195364
 20
-149.9153970979378
 30
0.0
 10
95.31046140195364
 20
-149.9153970979378
 30
0.0
 10
95.31046140195364
 20
-149.7968858132452
 30
0.0
 10
95.31046140195364
 20
-149.7968858132452
 30
0.0
 10
95.31046140195364
 20
-149.7968858132452
 30
0.0
 10
95.17937551873989
 20
-149.7968858132452
 30
0.0
 10
95.17937551873989
 20
-149.7968858132452
 30
0.0
 10
95.13269447491474
 20
-149.7968858132452
 30
0.0
 10
94.92960609605928
 20
-149.8051540424098
 30
0.0
 10
94.88740367636495
 20
-149.8051540424098
 30
0.0
 10
94.68431529750949
 20
-149.8096326665406
 30
0.0
 10
94.60817868728545
 20
-149.8116997238318
 30
0.0
 10
94.52980276499602
 20
-149.8137667811229
 30
0.0
 10
94.52980276499602
 20
-149.8137667811229
 30
0.0
 10
94.52980276499602
 20
-149.6297986822106
 30
0.0
 10
94.52980276499602
 20
-149.6297986822106
 30
0.0
 10
94.64400768033206
 20
-149.6380669113752
 30
0.0
 10
94.68844941209178
 20
-149.6380669113752
 30
0.0
 10
95.07137177527729
 20
-149.6466796500883
 30
0.0
 10
95.0079820183487
 20
-149.5515950146954
 30
0.0
 10
94.98042125446671
 20
-149.5240342508134
 30
0.0
 10
94.94442000664584
 20
-149.4878607482183
 30
0.0
 10
94.94442000664584
 20
-149.4878607482183
 30
0.0
 10
95.12011987639359
 20
-149.4055229661208
 30
0.0
 10
95.12011987639359
 20
-149.4055229661208
 30
0.0
 10
95.16025523879674
 20
-149.4413519591674
 30
0.0
 10
95.20469697055647
 20
-149.483726633636
 30
0.0
 10
95.27876652348934
 20
-149.5936251796155
 30
0.0
 10
95.27876652348934
 20
-149.5936251796155
 30
0.0
 10
95.1645616081533
 20
-149.6487467073795
 30
0.0
 10
95.1645616081533
 20
-149.6487467073795
 30
0.0
 10
95.1645616081533
 20
-149.6487467073795
 30
0.0
 10
95.17506914938332
 20
-149.6487467073795
 30
0.0
 10
95.17506914938332
 20
-149.6487467073795
 30
0.0
 10
95.17506914938332
 20
-149.6487467073795
 30
0.0
 10
95.69751787972146
 20
-149.6487467073795
 30
0.0
 10
95.69751787972146
 20
-149.6487467073795
 30
0.0
 10
95.69751787972146
 20
-149.6487467073795
 30
0.0
 10
95.60243324432857
 20
-149.6043049756197
 30
0.0
 10
95.60243324432857
 20
-149.6043049756197
 30
0.0
 10
95.62999400821055
 20
-149.566408925282
 30
0.0
 10
95.68701033849144
 20
-149.4857936909272
 30
0.0
 10
95.70182424907802
 20
-149.4117241379943
 30
0.0
 10
95.70182424907802
 20
-149.4117241379943
 30
0.0
 10
95.91542016916351
 20
-149.4751138949229
 30
0.0
 10
95.91542016916351
 20
-149.4751138949229
 30
0.0
 10
95.92403290787663
 20
-149.4775254617626
 30
0.0
 10
95.94504799033666
 20
-149.4878607482183
 30
0.0
 10
95.94504799033666
 20
-149.5092203402269
 30
0.0
 10
95.94504799033666
 20
-149.5471163905646
 30
0.0
 10
95.87959117611692
 20
-149.5471163905646
 30
0.0
 10
95.86047089617379
 20
-149.5471163905646
 30
0.0
 10
95.84996335494377
 20
-149.566408925282
 30
0.0
 10
95.82670896041832
 20
-149.6063720329109
 30
0.0
 10
95.79708113924517
 20
-149.6466796500883
 30
0.0
 10
96.19688447030842
 20
-149.6401339686663
 30
0.0
 10
96.22651229148157
 20
-149.6380669113752
 30
0.0
 10
96.30264890170559
 20
-149.6318657395017
 30
0.0
 10
96.30264890170559
 20
-149.6318657395017
 30
0.0
 10
96.30264890170559
 20
-149.8137667811229
 30
0.0
 10
96.30264890170559
 20
-149.8137667811229
 30
0.0
 10
96.28352862176246
 20
-149.8137667811229
 30
0.0
 10
96.25820716994587
 20
-149.8116997238318
 30
0.0
 10
96.03823782321267
 20
-149.8030869851187
 30
0.0
 10
95.98742266480524
 20
-149.8010199278275
 30
0.0
 10
95.76745331807202
 20
-149.7968858132452
 30
0.0
 10
95.72301158631232
 20
-149.7968858132452
 30
0.0
 10
95.72301158631232
 20
-149.7968858132452
 30
0.0
 10
95.50717635416139
 20
-149.7968858132452
 30
0.0
 10
95.50717635416139
 20
-149.7968858132452
 30
0.0
 10
95.50717635416139
 20
-149.7968858132452
 30
0.0
 10
95.50717635416139
 20
-149.9153970979378
 30
0.0
 10
95.50717635416139
 20
-149.9153970979378
 30
0.0
 10
95.50717635416139
 20
-149.9153970979378
 30
0.0
 10
95.68063691184374
 20
-149.9153970979378
 30
0.0
 10
95.68063691184374
 20
-149.9153970979378
 30
0.0
 10
95.84358992829605
 20
-149.9153970979378
 30
0.0
 10
96.03393145385609
 20
-149.9153970979378
 30
0.0
 10
96.19051104366072
 20
-149.9047173019335
 30
0.0
 10
96.19051104366072
 20
-149.9047173019335
 30
0.0
 10
96.19051104366072
 20
-150.0759385475504
 30
0.0
 10
96.19051104366072
 20
-150.0759385475504
 30
0.0
 10
95.98104923815752
 20
-150.0676703183858
 30
0.0
 10
95.78433428594975
 20
-150.0656032610947
 30
0.0
 10
95.68063691184374
 20
-150.0656032610947
 30
0.0
 10
95.68063691184374
 20
-150.0656032610947
 30
0.0
 10
95.50717635416139
 20
-150.0656032610947
 30
0.0
 10
95.50717635416139
 20
-150.0656032610947
 30
0.0
 10
95.50717635416139
 20
-150.0656032610947
 30
0.0
 10
95.50717635416139
 20
-150.173434749783
 30
0.0
 10
95.50717635416139
 20
-150.173434749783
 30
0.0
 10
95.50717635416139
 20
-150.173434749783
 30
0.0
 10
95.73782549689887
 20
-150.173434749783
 30
0.0
 10
95.73782549689887
 20
-150.173434749783
 30
0.0
 10
95.87115069217805
 20
-150.173434749783
 30
0.0
 10
96.15881616519642
 20
-150.1693006352007
 30
0.0
 10
96.36827797069962
 20
-150.1627549537787
 30
0.0
 10
96.36827797069962
 20
-150.1627549537787
 30
0.0
 10
96.36827797069962
 20
-150.3405218808176
 30
0.0
 10
96.36827797069962
 20
-150.3405218808176
 30
0.0
 10
96.17569713307414
 20
-150.3343207089442
 30
0.0
 10
95.86253795346491
 20
-150.3298420848134
 30
0.0
 10
95.73782549689887
 20
-150.3298420848134
 30
0.0
  0
HATCH
  5
14E
330
142
100
AcDbEntity
  8
レイヤー 1
 62
    18
420
        0
440
 33554687
100
AcDbHatch
 10
0.0
 20
0.0
 30
0.0
210
0.0
220
0.0
230
1.0
  2
SOLID
 70
     1
 71
     1
 91
        4
 92
        1
 93
        1
 72
     4
 94
        3
 73
     0
 74
     0
 95
       17
 96
       13
 40
0.0
 40
0.0
 40
0.0
 40
0.0
 40
1.0
 40
1.0
 40
1.0
 40
2.0
 40
2.0
 40
2.0
 40
3.0
 40
3.0
 40
3.0
 40
4.0
 40
4.0
 40
4.0
 40
4.0
 10
95.90284557064235
 20
-151.0619248754289
 10
95.90284557064235
 20
-151.0619248754289
 10
95.19625648661762
 20
-151.0619248754289
 10
95.19625648661762
 20
-151.0619248754289
 10
95.19625648661762
 20
-151.0619248754289
 10
95.19625648661762
 20
-151.1763020455392
 10
95.19625648661762
 20
-151.1763020455392
 10
95.19625648661762
 20
-151.1763020455392
 10
95.90284557064235
 20
-151.1763020455392
 10
95.90284557064235
 20
-151.1763020455392
 10
95.90284557064235
 20
-151.1763020455392
 10
95.90284557064235
 20
-151.0619248754289
 10
95.90284557064235
 20
-151.0619248754289
 97
        0
 97
        1
330
14A
 92
        1
 93
        1
 72
     4
 94
        3
 73
     0
 74
     0
 95
       17
 96
       13
 40
0.0
 40
0.0
 40
0.0
 40
0.0
 40
1.0
 40
1.0
 40
1.0
 40
2.0
 40
2.0
 40
2.0
 40
3.0
 40
3.0
 40
3.0
 40
4.0
 40
4.0
 40
4.0
 40
4.0
 10
95.90284557064235
 20
-150.8187011341703
 10
95.90284557064235
 20
-150.8187011341703
 10
95.19625648661762
 20
-150.8187011341703
 10
95.19625648661762
 20
-150.8187011341703
 10
95.19625648661762
 20
-150.8187011341703
 10
95.19625648661762
 20
-150.9327337947321
 10
95.19625648661762
 20
-150.9327337947321
 10
95.19625648661762
 20
-150.9327337947321
 10
95.90284557064235
 20
-150.9327337947321
 10
95.90284557064235
 20
-150.9327337947321
 10
95.90284557064235
 20
-150.9327337947321
 10
95.90284557064235
 20
-150.8187011341703
 10
95.90284557064235
 20
-150.8187011341703
 97
        0
 97
        1
330
14B
 92
        1
 93
        1
 72
     4
 94
        3
 73
     0
 74
     0
 95
       17
 96
       13
 40
0.0
 40
0.0
 40
0.0
 40
0.0
 40
1.0
 40
1.0
 40
1.0
 40
2.0
 40
2.0
 40
2.0
 40
3.0
 40
3.0
 40
3.0
 40
4.0
 40
4.0
 40
4.0
 40
4.0
 10
95.90284557064235
 20
-150.5858126793674
 10
95.90284557064235
 20
-150.5858126793674
 10
95.19625648661762
 20
-150.5858126793674
 10
95.19625648661762
 20
-150.5858126793674
 10
95.19625648661762
 20
-150.5858126793674
 10
95.19625648661762
 20
-150.6936441680557
 10
95.19625648661762
 20
-150.6936441680557
 10
95.19625648661762
 20
-150.6936441680557
 10
95.90284557064235
 20
-150.6936441680557
 10
95.90284557064235
 20
-150.6936441680557
 10
95.90284557064235
 20
-150.6936441680557
 10
95.90284557064235
 20
-150.5858126793674
 10
95.90284557064235
 20
-150.5858126793674
 97
        0
 97
        1
330
14C
 92
        1
 93
        1
 72
     4
 94
        3
 73
     0
 74
     0
 95
      203
 96
      199
 40
0.0
 40
0.0
 40
0.0
 40
0.0
 40
1.0
 40
1.0
 40
1.0
 40
2.0
 40
2.0
 40
2.0
 40
3.0
 40
3.0
 40
3.0
 40
4.0
 40
4.0
 40
4.0
 40
5.0
 40
5.0
 40
5.0
 40
6.0
 40
6.0
 40
6.0
 40
7.0
 40
7.0
 40
7.0
 40
8.0
 40
8.0
 40
8.0
 40
9.0
 40
9.0
 40
9.0
 40
10.0
 40
10.0
 40
10.0
 40
11.0
 40
11.0
 40
11.0
 40
12.0
 40
12.0
 40
12.0
 40
13.0
 40
13.0
 40
13.0
 40
14.0
 40
14.0
 40
14.0
 40
15.0
 40
15.0
 40
15.0
 40
16.0
 40
16.0
 40
16.0
 40
17.0
 40
17.0
 40
17.0
 40
18.0
 40
18.0
 40
18.0
 40
19.0
 40
19.0
 40
19.0
 40
20.0
 40
20.0
 40
20.0
 40
21.0
 40
21.0
 40
21.0
 40
22.0
 40
22.0
 40
22.0
 40
23.0
 40
23.0
 40
23.0
 40
24.0
 40
24.0
 40
24.0
 40
25.0
 40
25.0
 40
25.0
 40
26.0
 40
26.0
 40
26.0
 40
27.0
 40
27.0
 40
27.0
 40
28.0
 40
28.0
 40
28.0
 40
29.0
 40
29.0
 40
29.0
 40
30.0
 40
30.0
 40
30.0
 40
31.0
 40
31.0
 40
31.0
 40
32.0
 40
32.0
 40
32.0
 40
33.0
 40
33.0
 40
33.0
 40
34.0
 40
34.0
 40
34.0
 40
35.0
 40
35.0
 40
35.0
 40
36.0
 40
36.0
 40
36.0
 40
37.0
 40
37.0
 40
37.0
 40
38.0
 40
38.0
 40
38.0
 40
39.0
 40
39.0
 40
39.0
 40
40.0
 40
40.0
 40
40.0
 40
41.0
 40
41.0
 40
41.0
 40
42.0
 40
42.0
 40
42.0
 40
43.0
 40
43.0
 40
43.0
 40
44.0
 40
44.0
 40
44.0
 40
45.0
 40
45.0
 40
45.0
 40
46.0
 40
46.0
 40
46.0
 40
47.0
 40
47.0
 40
47.0
 40
48.0
 40
48.0
 40
48.0
 40
49.0
 40
49.0
 40
49.0
 40
50.0
 40
50.0
 40
50.0
 40
51.0
 40
51.0
 40
51.0
 40
52.0
 40
52.0
 40
52.0
 40
53.0
 40
53.0
 40
53.0
 40
54.0
 40
54.0
 40
54.0
 40
55.0
 40
55.0
 40
55.0
 40
56.0
 40
56.0
 40
56.0
 40
57.0
 40
57.0
 40
57.0
 40
58.0
 40
58.0
 40
58.0
 40
59.0
 40
59.0
 40
59.0
 40
60.0
 40
60.0
 40
60.0
 40
61.0
 40
61.0
 40
61.0
 40
62.0
 40
62.0
 40
62.0
 40
63.0
 40
63.0
 40
63.0
 40
64.0
 40
64.0
 40
64.0
 40
65.0
 40
65.0
 40
65.0
 40
66.0
 40
66.0
 40
66.0
 40
66.0
 10
95.73782549689887
 20
-150.3298420848134
 10
95.73782549689887
 20
-150.3298420848134
 10
95.17937551873989
 20
-150.3298420848134
 10
95.17937551873989
 20
-150.3298420848134
 10
95.16869572273561
 20
-150.3742838165731
 10
95.16025523879674
 20
-150.4059786950374
 10
95.14750838550133
 20
-150.4442192549236
 10
95.17300209209217
 20
-150.4442192549236
 10
95.18781600267875
 20
-150.4462863122148
 10
95.19418942932645
 20
-150.4462863122148
 10
95.19418942932645
 20
-150.4462863122148
 10
95.38246389759535
 20
-150.4462863122148
 10
95.38246389759535
 20
-150.4462863122148
 10
95.38246389759535
 20
-150.4462863122148
 10
95.75677352206776
 20
-150.4462863122148
 10
95.75677352206776
 20
-150.4462863122148
 10
95.80758868047519
 20
-150.4462863122148
 10
96.09112003891127
 20
-150.4335394589194
 10
96.12281491737554
 20
-150.4335394589194
 10
96.12074786008442
 20
-150.4611002228014
 10
96.118508548019
 20
-150.4800482479702
 10
96.118508548019
 20
-150.5096760691434
 10
96.11644149072784
 20
-150.5413709476077
 10
96.11644149072784
 20
-150.676763200178
 10
96.11644149072784
 20
-150.70432396406
 10
96.11644149072784
 20
-150.70432396406
 10
96.11644149072784
 20
-150.9496147626098
 10
96.11644149072784
 20
-150.9496147626098
 10
96.11644149072784
 20
-150.9940564943695
 10
96.12074786008442
 20
-151.1911159561258
 10
96.12488197466671
 20
-151.3433891765739
 10
96.12488197466671
 20
-151.3433891765739
 10
95.89853920128579
 20
-151.3433891765739
 10
95.89853920128579
 20
-151.3433891765739
 10
95.89853920128579
 20
-151.3433891765739
 10
95.9007785133512
 20
-151.3092827312699
 10
95.9007785133512
 20
-151.3092827312699
 10
95.9007785133512
 20
-151.3092827312699
 10
95.19832354390876
 20
-151.3092827312699
 10
95.19832354390876
 20
-151.3092827312699
 10
95.19832354390876
 20
-151.3092827312699
 10
95.20039060119991
 20
-151.3433891765739
 10
95.20039060119991
 20
-151.3433891765739
 10
95.20039060119991
 20
-151.3433891765739
 10
94.98248831175784
 20
-151.3433891765739
 10
94.98248831175784
 20
-151.3433891765739
 10
94.98679468111442
 20
-151.2882676488099
 10
94.98679468111442
 20
-151.2755207955144
 10
94.99316810776212
 20
-151.1614881349527
 10
94.99523516505327
 20
-151.1339273710707
 10
94.99730222234443
 20
-151.0006021757915
 10
94.99730222234443
 20
-150.9816541506226
 10
94.99730222234443
 20
-150.9816541506226
 10
94.99730222234443
 20
-150.7783935169929
 10
94.99730222234443
 20
-150.7783935169929
 10
94.8577758551918
 20
-151.0281629396735
 10
94.68844941209178
 20
-151.159076568113
 10
94.58268498069461
 20
-151.2248778918813
 10
94.58268498069461
 20
-151.2248778918813
 10
94.40922442301227
 20
-151.0850070151801
 10
94.40922442301227
 20
-151.0850070151801
 10
94.49810788653172
 20
-151.0343641115469
 10
94.64194062304091
 20
-150.9475477053186
 10
94.77939993290238
 20
-150.752899810402
 10
94.87052270848723
 20
-150.6261202965448
 10
94.93597952270699
 20
-150.4821153052614
 10
94.96991371323669
 20
-150.3298420848134
 10
94.74133162779036
 20
-150.3319091421045
 10
94.56149764346033
 20
-150.3384548235265
 10
94.46641300806744
 20
-150.3405218808176
 10
94.46641300806744
 20
-150.3405218808176
 10
94.46641300806744
 20
-150.1627549537787
 10
94.46641300806744
 20
-150.1627549537787
 10
94.66312796027519
 20
-150.1693006352007
 10
94.94665931871125
 20
-150.173434749783
 10
95.09686548186815
 20
-150.173434749783
 10
95.09686548186815
 20
-150.173434749783
 10
95.31046140195364
 20
-150.173434749783
 10
95.31046140195364
 20
-150.173434749783
 10
95.31046140195364
 20
-150.173434749783
 10
95.31046140195364
 20
-150.0656032610947
 10
95.31046140195364
 20
-150.0656032610947
 10
95.31046140195364
 20
-150.0656032610947
 10
95.1645616081533
 20
-150.0656032610947
 10
95.1645616081533
 20
-150.0656032610947
 10
94.99523516505327
 20
-150.0656032610947
 10
94.8260809767275
 20
-150.069737375677
 10
94.65882159091863
 20
-150.0759385475504
 10
94.65882159091863
 20
-150.0759385475504
 10
94.65882159091863
 20
-149.9047173019335
 10
94.65882159091863
 20
-149.9047173019335
 10
94.81333412343209
 20
-149.9153970979378
 10
94.99954153440985
 20
-149.9153970979378
 10
95.1645616081533
 20
-149.9153970979378
 10
95.1645616081533
 20
-149.9153970979378
 10
95.31046140195364
 20
-149.9153970979378
 10
95.31046140195364
 20
-149.9153970979378
 10
95.31046140195364
 20
-149.9153970979378
 10
95.31046140195364
 20
-149.7968858132452
 10
95.31046140195364
 20
-149.7968858132452
 10
95.31046140195364
 20
-149.7968858132452
 10
95.17937551873989
 20
-149.7968858132452
 10
95.17937551873989
 20
-149.7968858132452
 10
95.13269447491474
 20
-149.7968858132452
 10
94.92960609605928
 20
-149.8051540424098
 10
94.88740367636495
 20
-149.8051540424098
 10
94.68431529750949
 20
-149.8096326665406
 10
94.60817868728545
 20
-149.8116997238318
 10
94.52980276499602
 20
-149.8137667811229
 10
94.52980276499602
 20
-149.8137667811229
 10
94.52980276499602
 20
-149.6297986822106
 10
94.52980276499602
 20
-149.6297986822106
 10
94.64400768033206
 20
-149.6380669113752
 10
94.68844941209178
 20
-149.6380669113752
 10
95.07137177527729
 20
-149.6466796500883
 10
95.0079820183487
 20
-149.5515950146954
 10
94.98042125446671
 20
-149.5240342508134
 10
94.94442000664584
 20
-149.4878607482183
 10
94.94442000664584
 20
-149.4878607482183
 10
95.12011987639359
 20
-149.4055229661208
 10
95.12011987639359
 20
-149.4055229661208
 10
95.16025523879674
 20
-149.4413519591674
 10
95.20469697055647
 20
-149.483726633636
 10
95.27876652348934
 20
-149.5936251796155
 10
95.27876652348934
 20
-149.5936251796155
 10
95.1645616081533
 20
-149.6487467073795
 10
95.1645616081533
 20
-149.6487467073795
 10
95.1645616081533
 20
-149.6487467073795
 10
95.17506914938332
 20
-149.6487467073795
 10
95.17506914938332
 20
-149.6487467073795
 10
95.17506914938332
 20
-149.6487467073795
 10
95.69751787972146
 20
-149.6487467073795
 10
95.69751787972146
 20
-149.6487467073795
 10
95.69751787972146
 20
-149.6487467073795
 10
95.60243324432857
 20
-149.6043049756197
 10
95.60243324432857
 20
-149.6043049756197
 10
95.62999400821055
 20
-149.566408925282
 10
95.68701033849144
 20
-149.4857936909272
 10
95.70182424907802
 20
-149.4117241379943
 10
95.70182424907802
 20
-149.4117241379943
 10
95.91542016916351
 20
-149.4751138949229
 10
95.91542016916351
 20
-149.4751138949229
 10
95.92403290787663
 20
-149.4775254617626
 10
95.94504799033666
 20
-149.4878607482183
 10
95.94504799033666
 20
-149.5092203402269
 10
95.94504799033666
 20
-149.5471163905646
 10
95.87959117611692
 20
-149.5471163905646
 10
95.86047089617379
 20
-149.5471163905646
 10
95.84996335494377
 20
-149.566408925282
 10
95.82670896041832
 20
-149.6063720329109
 10
95.79708113924517
 20
-149.6466796500883
 10
96.19688447030842
 20
-149.6401339686663
 10
96.22651229148157
 20
-149.6380669113752
 10
96.30264890170559
 20
-149.6318657395017
 10
96.30264890170559
 20
-149.6318657395017
 10
96.30264890170559
 20
-149.8137667811229
 10
96.30264890170559
 20
-149.8137667811229
 10
96.28352862176246
 20
-149.8137667811229
 10
96.25820716994587
 20
-149.8116997238318
 10
96.03823782321267
 20
-149.8030869851187
 10
95.98742266480524
 20
-149.8010199278275
 10
95.76745331807202
 20
-149.7968858132452
 10
95.72301158631232
 20
-149.7968858132452
 10
95.72301158631232
 20
-149.7968858132452
 10
95.50717635416139
 20
-149.7968858132452
 10
95.50717635416139
 20
-149.7968858132452
 10
95.50717635416139
 20
-149.7968858132452
 10
95.50717635416139
 20
-149.9153970979378
 10
95.50717635416139
 20
-149.9153970979378
 10
95.50717635416139
 20
-149.9153970979378
 10
95.68063691184374
 20
-149.9153970979378
 10
95.68063691184374
 20
-149.9153970979378
 10
95.84358992829605
 20
-149.9153970979378
 10
96.03393145385609
 20
-149.9153970979378
 10
96.19051104366072
 20
-149.9047173019335
 10
96.19051104366072
 20
-149.9047173019335
 10
96.19051104366072
 20
-150.0759385475504
 10
96.19051104366072
 20
-150.0759385475504
 10
95.98104923815752
 20
-150.0676703183858
 10
95.78433428594975
 20
-150.0656032610947
 10
95.68063691184374
 20
-150.0656032610947
 10
95.68063691184374
 20
-150.0656032610947
 10
95.50717635416139
 20
-150.0656032610947
 10
95.50717635416139
 20
-150.0656032610947
 10
95.50717635416139
 20
-150.0656032610947
 10
95.50717635416139
 20
-150.173434749783
 10
95.50717635416139
 20
-150.173434749783
 10
95.50717635416139
 20
-150.173434749783
 10
95.73782549689887
 20
-150.173434749783
 10
95.73782549689887
 20
-150.173434749783
 10
95.87115069217805
 20
-150.173434749783
 10
96.15881616519642
 20
-150.1693006352007
 10
96.36827797069962
 20
-150.1627549537787
 10
96.36827797069962
 20
-150.1627549537787
 10
96.36827797069962
 20
-150.3405218808176
 10
96.36827797069962
 20
-150.3405218808176
 10
96.17569713307414
 20
-150.3343207089442
 10
95.86253795346491
 20
-150.3298420848134
 10
95.73782549689887
 20
-150.3298420848134
 97
        0
 97
        1
330
14D
 75
     2
 76
     1
 98
        1
 10
0.0
 20
0.0
450
        0
451
        0
460
0.0
461
0.0
452
        0
462
0.0
453
        0
470

  0
SPLINE
  5
14F
330
142
100
AcDbEntity
  8
レイヤー 1
100
AcDbSpline
210
0.0
220
0.0
230
1.0
 70
     9
 71
     3
 72
    29
 73
    25
 74
     0
 42
0.0000000001
 43
0.0000000001
 40
0.0
 40
0.0
 40
0.0
 40
0.0
 40
1.0
 40
1.0
 40
1.0
 40
2.0
 40
2.0
 40
2.0
 40
3.0
 40
3.0
 40
3.0
 40
4.0
 40
4.0
 40
4.0
 40
5.0
 40
5.0
 40
5.0
 40
6.0
 40
6.0
 40
6.0
 40
7.0
 40
7.0
 40
7.0
 40
8.0
 40
8.0
 40
8.0
 40
8.0
 10
97.6133354790689
 20
-149.7779377880763
 30
0.0
 10
97.6133354790689
 20
-149.7779377880763
 30
0.0
 10
97.26004093705652
 20
-149.7779377880763
 30
0.0
 10
97.26004093705652
 20
-149.7779377880763
 30
0.0
 10
97.14790307901164
 20
-149.7779377880763
 30
0.0
 10
97.00820445708476
 20
-149.7841389599498
 30
0.0
 10
96.90037296839644
 20
-149.7968858132452
 30
0.0
 10
96.90037296839644
 20
-149.7968858132452
 30
0.0
 10
96.90037296839644
 20
-149.5619303011512
 30
0.0
 10
96.90037296839644
 20
-149.5619303011512
 30
0.0
 10
97.01888425308903
 20
-149.5767442117378
 30
0.0
 10
97.20285235200137
 20
-149.5812228358686
 30
0.0
 10
97.26004093705652
 20
-149.5812228358686
 30
0.0
 10
97.26004093705652
 20
-149.5812228358686
 30
0.0
 10
97.6133354790689
 20
-149.5812228358686
 30
0.0
 10
97.6133354790689
 20
-149.5812228358686
 30
0.0
 10
97.63228350423776
 20
-149.5812228358686
 30
0.0
 10
97.83537188309324
 20
-149.5812228358686
 30
0.0
 10
97.97713756231127
 20
-149.5619303011512
 30
0.0
 10
97.97713756231127
 20
-149.5619303011512
 30
0.0
 10
97.97713756231127
 20
-149.7968858132452
 30
0.0
 10
97.97713756231127
 20
-149.7968858132452
 30
0.0
 10
97.82055797250668
 20
-149.7779377880763
 30
0.0
 10
97.63021644694662
 20
-149.7779377880763
 30
0.0
 10
97.6133354790689
 20
-149.7779377880763
 30
0.0
  0
SPLINE
  5
150
330
142
100
AcDbEntity
  8
レイヤー 1
100
AcDbSpline
210
0.0
220
0.0
230
1.0
 70
     9
 71
     3
 72
    47
 73
    43
 74
     0
 42
0.0000000001
 43
0.0000000001
 40
0.0
 40
0.0
 40
0.0
 40
0.0
 40
1.0
 40
1.0
 40
1.0
 40
2.0
 40
2.0
 40
2.0
 40
3.0
 40
3.0
 40
3.0
 40
4.0
 40
4.0
 40
4.0
 40
5.0
 40
5.0
 40
5.0
 40
6.0
 40
6.0
 40
6.0
 40
7.0
 40
7.0
 40
7.0
 40
8.0
 40
8.0
 40
8.0
 40
9.0
 40
9.0
 40
9.0
 40
10.0
 40
10.0
 40
10.0
 40
11.0
 40
11.0
 40
11.0
 40
12.0
 40
12.0
 40
12.0
 40
13.0
 40
13.0
 40
13.0
 40
14.0
 40
14.0
 40
14.0
 40
14.0
 10
97.71479354110951
 20
-150.3067599450622
 30
0.0
 10
97.71479354110951
 20
-150.3067599450622
 30
0.0
 10
97.6133354790689
 20
-150.3067599450622
 30
0.0
 10
97.6133354790689
 20
-150.3067599450622
 30
0.0
 10
97.6133354790689
 20
-150.3935763512905
 30
0.0
 10
97.59214814183462
 20
-150.7825276315752
 30
0.0
 10
97.39543318962684
 20
-151.0026692330827
 30
0.0
 10
97.24298771440453
 20
-151.1718234214084
 30
0.0
 10
97.03576522096675
 20
-151.241758859759
 30
0.0
 10
96.95118812680387
 20
-151.269319623641
 30
0.0
 10
96.95118812680387
 20
-151.269319623641
 30
0.0
 10
96.75654023188727
 20
-151.1022324926064
 30
0.0
 10
96.75654023188727
 20
-151.1022324926064
 30
0.0
 10
96.85386417934557
 20
-151.0894856393109
 30
0.0
 10
97.02939179431904
 20
-151.0660589900112
 30
0.0
 10
97.21766626258796
 20
-150.8779567765166
 30
0.0
 10
97.29173581552082
 20
-150.8059542808749
 30
0.0
 10
97.39543318962684
 20
-150.6664279137223
 30
0.0
 10
97.39543318962684
 20
-150.3067599450622
 30
0.0
 10
97.39543318962684
 20
-150.3067599450622
 30
0.0
 10
97.16478404688936
 20
-150.3067599450622
 30
0.0
 10
97.16478404688936
 20
-150.3067599450622
 30
0.0
 10
96.97857663591161
 20
-150.3067599450622
 30
0.0
 10
96.79236922493386
 20
-150.3108940596445
 30
0.0
 10
96.60633406873037
 20
-150.3257079702311
 30
0.0
 10
96.60633406873037
 20
-150.3257079702311
 30
0.0
 10
96.60633406873037
 20
-150.1055663687236
 30
0.0
 10
96.60633406873037
 20
-150.1055663687236
 30
0.0
 10
96.79460853699927
 20
-150.1203802793102
 30
0.0
 10
97.08020695272649
 20
-150.124858903441
 30
0.0
 10
97.16478404688936
 20
-150.124858903441
 30
0.0
 10
97.16478404688936
 20
-150.124858903441
 30
0.0
 10
97.71479354110951
 20
-150.124858903441
 30
0.0
 10
97.71479354110951
 20
-150.124858903441
 30
0.0
 10
97.73391382105264
 20
-150.124858903441
 30
0.0
 10
98.05120711524416
 20
-150.124858903441
 30
0.0
 10
98.27961694591621
 20
-150.1055663687236
 30
0.0
 10
98.27961694591621
 20
-150.1055663687236
 30
0.0
 10
98.27961694591621
 20
-150.3257079702311
 30
0.0
 10
98.27961694591621
 20
-150.3257079702311
 30
0.0
 10
98.09134247764731
 20
-150.3108940596445
 30
0.0
 10
97.90306800937841
 20
-150.3067599450622
 30
0.0
 10
97.71479354110951
 20
-150.3067599450622
 30
0.0
  0
HATCH
  5
151
330
142
100
AcDbEntity
  8
レイヤー 1
 62
    18
420
        0
440
 33554687
100
AcDbHatch
 10
0.0
 20
0.0
 30
0.0
210
0.0
220
0.0
230
1.0
  2
SOLID
 70
     1
 71
     1
 91
        2
 92
        1
 93
        1
 72
     4
 94
        3
 73
     0
 74
     0
 95
       29
 96
       25
 40
0.0
 40
0.0
 40
0.0
 40
0.0
 40
1.0
 40
1.0
 40
1.0
 40
2.0
 40
2.0
 40
2.0
 40
3.0
 40
3.0
 40
3.0
 40
4.0
 40
4.0
 40
4.0
 40
5.0
 40
5.0
 40
5.0
 40
6.0
 40
6.0
 40
6.0
 40
7.0
 40
7.0
 40
7.0
 40
8.0
 40
8.0
 40
8.0
 40
8.0
 10
97.6133354790689
 20
-149.7779377880763
 10
97.6133354790689
 20
-149.7779377880763
 10
97.26004093705652
 20
-149.7779377880763
 10
97.26004093705652
 20
-149.7779377880763
 10
97.14790307901164
 20
-149.7779377880763
 10
97.00820445708476
 20
-149.7841389599498
 10
96.90037296839644
 20
-149.7968858132452
 10
96.90037296839644
 20
-149.7968858132452
 10
96.90037296839644
 20
-149.5619303011512
 10
96.90037296839644
 20
-149.5619303011512
 10
97.01888425308903
 20
-149.5767442117378
 10
97.20285235200137
 20
-149.5812228358686
 10
97.26004093705652
 20
-149.5812228358686
 10
97.26004093705652
 20
-149.5812228358686
 10
97.6133354790689
 20
-149.5812228358686
 10
97.6133354790689
 20
-149.5812228358686
 10
97.63228350423776
 20
-149.5812228358686
 10
97.83537188309324
 20
-149.5812228358686
 10
97.97713756231127
 20
-149.5619303011512
 10
97.97713756231127
 20
-149.5619303011512
 10
97.97713756231127
 20
-149.7968858132452
 10
97.97713756231127
 20
-149.7968858132452
 10
97.82055797250668
 20
-149.7779377880763
 10
97.63021644694662
 20
-149.7779377880763
 10
97.6133354790689
 20
-149.7779377880763
 97
        0
 97
        1
330
14F
 92
        1
 93
        1
 72
     4
 94
        3
 73
     0
 74
     0
 95
       47
 96
       43
 40
0.0
 40
0.0
 40
0.0
 40
0.0
 40
1.0
 40
1.0
 40
1.0
 40
2.0
 40
2.0
 40
2.0
 40
3.0
 40
3.0
 40
3.0
 40
4.0
 40
4.0
 40
4.0
 40
5.0
 40
5.0
 40
5.0
 40
6.0
 40
6.0
 40
6.0
 40
7.0
 40
7.0
 40
7.0
 40
8.0
 40
8.0
 40
8.0
 40
9.0
 40
9.0
 40
9.0
 40
10.0
 40
10.0
 40
10.0
 40
11.0
 40
11.0
 40
11.0
 40
12.0
 40
12.0
 40
12.0
 40
13.0
 40
13.0
 40
13.0
 40
14.0
 40
14.0
 40
14.0
 40
14.0
 10
97.71479354110951
 20
-150.3067599450622
 10
97.71479354110951
 20
-150.3067599450622
 10
97.6133354790689
 20
-150.3067599450622
 10
97.6133354790689
 20
-150.3067599450622
 10
97.6133354790689
 20
-150.3935763512905
 10
97.59214814183462
 20
-150.7825276315752
 10
97.39543318962684
 20
-151.0026692330827
 10
97.24298771440453
 20
-151.1718234214084
 10
97.03576522096675
 20
-151.241758859759
 10
96.95118812680387
 20
-151.269319623641
 10
96.95118812680387
 20
-151.269319623641
 10
96.75654023188727
 20
-151.1022324926064
 10
96.75654023188727
 20
-151.1022324926064
 10
96.85386417934557
 20
-151.0894856393109
 10
97.02939179431904
 20
-151.0660589900112
 10
97.21766626258796
 20
-150.8779567765166
 10
97.29173581552082
 20
-150.8059542808749
 10
97.39543318962684
 20
-150.6664279137223
 10
97.39543318962684
 20
-150.3067599450622
 10
97.39543318962684
 20
-150.3067599450622
 10
97.16478404688936
 20
-150.3067599450622
 10
97.16478404688936
 20
-150.3067599450622
 10
96.97857663591161
 20
-150.3067599450622
 10
96.79236922493386
 20
-150.3108940596445
 10
96.60633406873037
 20
-150.3257079702311
 10
96.60633406873037
 20
-150.3257079702311
 10
96.60633406873037
 20
-150.1055663687236
 10
96.60633406873037
 20
-150.1055663687236
 10
96.79460853699927
 20
-150.1203802793102
 10
97.08020695272649
 20
-150.124858903441
 10
97.16478404688936
 20
-150.124858903441
 10
97.16478404688936
 20
-150.124858903441
 10
97.71479354110951
 20
-150.124858903441
 10
97.71479354110951
 20
-150.124858903441
 10
97.73391382105264
 20
-150.124858903441
 10
98.05120711524416
 20
-150.124858903441
 10
98.27961694591621
 20
-150.1055663687236
 10
98.27961694591621
 20
-150.1055663687236
 10
98.27961694591621
 20
-150.3257079702311
 10
98.27961694591621
 20
-150.3257079702311
 10
98.09134247764731
 20
-150.3108940596445
 10
97.90306800937841
 20
-150.3067599450622
 10
97.71479354110951
 20
-150.3067599450622
 97
        0
 97
        1
330
150
 75
     2
 76
     1
 98
        1
 10
0.0
 20
0.0
450
        0
451
        0
460
0.0
461
0.0
452
        0
462
0.0
453
        0
470

  0
SPLINE
  5
152
330
142
100
AcDbEntity
  8
レイヤー 1
100
AcDbSpline
210
0.0
220
0.0
230
1.0
 70
     9
 71
     3
 72
    29
 73
    25
 74
     0
 42
0.0000000001
 43
0.0000000001
 40
0.0
 40
0.0
 40
0.0
 40
0.0
 40
1.0
 40
1.0
 40
1.0
 40
2.0
 40
2.0
 40
2.0
 40
3.0
 40
3.0
 40
3.0
 40
4.0
 40
4.0
 40
4.0
 40
5.0
 40
5.0
 40
5.0
 40
6.0
 40
6.0
 40
6.0
 40
7.0
 40
7.0
 40
7.0
 40
8.0
 40
8.0
 40
8.0
 40
8.0
 10
99.5605034473321
 20
-150.4697129615145
 30
0.0
 10
99.5605034473321
 20
-150.4697129615145
 30
0.0
 10
99.07612302210598
 20
-150.4697129615145
 30
0.0
 10
99.07612302210598
 20
-150.4697129615145
 30
0.0
 10
99.04856225822399
 20
-150.4697129615145
 30
0.0
 10
98.73126896403247
 20
-150.4697129615145
 30
0.0
 10
98.51974010123813
 20
-150.4948621585568
 30
0.0
 10
98.51974010123813
 20
-150.4948621585568
 30
0.0
 10
98.51974010123813
 20
-150.2643852705936
 30
0.0
 10
98.51974010123813
 20
-150.2643852705936
 30
0.0
 10
98.67838674833388
 20
-150.2874674103448
 30
0.0
 10
98.86872827389394
 20
-150.2898789771845
 30
0.0
 10
99.07612302210598
 20
-150.2898789771845
 30
0.0
 10
99.07612302210598
 20
-150.2898789771845
 30
0.0
 10
99.5605034473321
 20
-150.2898789771845
 30
0.0
 10
99.5605034473321
 20
-150.2898789771845
 30
0.0
 10
99.74671085830985
 20
-150.2898789771845
 30
0.0
 10
99.93291826928761
 20
-150.2874674103448
 30
0.0
 10
100.1168863681999
 20
-150.2643852705936
 30
0.0
 10
100.1168863681999
 20
-150.2643852705936
 30
0.0
 10
100.1168863681999
 20
-150.4948621585568
 30
0.0
 10
100.1168863681999
 20
-150.4948621585568
 30
0.0
 10
99.93291826928761
 20
-150.4717800188057
 30
0.0
 10
99.6853881586724
 20
-150.4697129615145
 30
0.0
 10
99.5605034473321
 20
-150.4697129615145
 30
0.0
  0
HATCH
  5
153
330
142
100
AcDbEntity
  8
レイヤー 1
 62
    18
420
        0
440
 33554687
100
AcDbHatch
 10
0.0
 20
0.0
 30
0.0
210
0.0
220
0.0
230
1.0
  2
SOLID
 70
     1
 71
     1
 91
        1
 92
        1
 93
        1
 72
     4
 94
        3
 73
     0
 74
     0
 95
       29
 96
       25
 40
0.0
 40
0.0
 40
0.0
 40
0.0
 40
1.0
 40
1.0
 40
1.0
 40
2.0
 40
2.0
 40
2.0
 40
3.0
 40
3.0
 40
3.0
 40
4.0
 40
4.0
 40
4.0
 40
5.0
 40
5.0
 40
5.0
 40
6.0
 40
6.0
 40
6.0
 40
7.0
 40
7.0
 40
7.0
 40
8.0
 40
8.0
 40
8.0
 40
8.0
 10
99.5605034473321
 20
-150.4697129615145
 10
99.5605034473321
 20
-150.4697129615145
 10
99.07612302210598
 20
-150.4697129615145
 10
99.07612302210598
 20
-150.4697129615145
 10
99.04856225822399
 20
-150.4697129615145
 10
98.73126896403247
 20
-150.4697129615145
 10
98.51974010123813
 20
-150.4948621585568
 10
98.51974010123813
 20
-150.4948621585568
 10
98.51974010123813
 20
-150.2643852705936
 10
98.51974010123813
 20
-150.2643852705936
 10
98.67838674833388
 20
-150.2874674103448
 10
98.86872827389394
 20
-150.2898789771845
 10
99.07612302210598
 20
-150.2898789771845
 10
99.07612302210598
 20
-150.2898789771845
 10
99.5605034473321
 20
-150.2898789771845
 10
99.5605034473321
 20
-150.2898789771845
 10
99.74671085830985
 20
-150.2898789771845
 10
99.93291826928761
 20
-150.2874674103448
 10
100.1168863681999
 20
-150.2643852705936
 10
100.1168863681999
 20
-150.2643852705936
 10
100.1168863681999
 20
-150.4948621585568
 10
100.1168863681999
 20
-150.4948621585568
 10
99.93291826928761
 20
-150.4717800188057
 10
99.6853881586724
 20
-150.4697129615145
 10
99.5605034473321
 20
-150.4697129615145
 97
        0
 97
        1
330
152
 75
     2
 76
     1
 98
        1
 10
0.0
 20
0.0
450
        0
451
        0
460
0.0
461
0.0
452
        0
462
0.0
453
        0
470

  0
SPLINE
  5
154
330
142
100
AcDbEntity
  8
レイヤー 1
100
AcDbSpline
210
0.0
220
0.0
230
1.0
 70
     9
 71
     3
 72
    47
 73
    43
 74
     0
 42
0.0000000001
 43
0.0000000001
 40
0.0
 40
0.0
 40
0.0
 40
0.0
 40
1.0
 40
1.0
 40
1.0
 40
2.0
 40
2.0
 40
2.0
 40
3.0
 40
3.0
 40
3.0
 40
4.0
 40
4.0
 40
4.0
 40
5.0
 40
5.0
 40
5.0
 40
6.0
 40
6.0
 40
6.0
 40
7.0
 40
7.0
 40
7.0
 40
8.0
 40
8.0
 40
8.0
 40
9.0
 40
9.0
 40
9.0
 40
10.0
 40
10.0
 40
10.0
 40
11.0
 40
11.0
 40
11.0
 40
12.0
 40
12.0
 40
12.0
 40
13.0
 40
13.0
 40
13.0
 40
14.0
 40
14.0
 40
14.0
 40
14.0
 10
101.7806952328013
 20
-149.8750894807604
 30
0.0
 10
101.710932049225
 20
-150.1544867246142
 30
0.0
 10
101.634795439001
 20
-150.4590331655102
 30
0.0
 10
101.3216362593918
 20
-150.7911403702883
 30
0.0
 10
101.0847859447809
 20
-151.0409097929689
 30
0.0
 10
100.8393228914568
 20
-151.1401285429441
 30
0.0
 10
100.7335584600596
 20
-151.1825032174127
 30
0.0
 10
100.7335584600596
 20
-151.1825032174127
 30
0.0
 10
100.538910565143
 20
-151.0006021757915
 30
0.0
 10
100.538910565143
 20
-151.0006021757915
 30
0.0
 10
100.7251179761208
 20
-150.9540933867406
 30
0.0
 10
101.086853002072
 20
-150.8610758086389
 30
0.0
 10
101.3829589590292
 20
-150.3660155874085
 30
0.0
 10
101.5438449181904
 20
-150.0993651968501
 30
0.0
 10
101.5564195167116
 20
-149.9257323843935
 30
0.0
 10
101.5650322554247
 20
-149.834781863583
 30
0.0
 10
101.5650322554247
 20
-149.834781863583
 30
0.0
 10
101.05929223819
 20
-149.834781863583
 30
0.0
 10
101.05929223819
 20
-149.834781863583
 30
0.0
 10
100.9409532082717
 20
-149.834781863583
 30
0.0
 10
100.5199625399742
 20
-149.8540743983004
 30
0.0
 10
100.3675170647519
 20
-149.8644096847561
 30
0.0
 10
100.3675170647519
 20
-149.8644096847561
 30
0.0
 10
100.3675170647519
 20
-149.6549478792529
 30
0.0
 10
100.3675170647519
 20
-149.6549478792529
 30
0.0
 10
100.5092827439699
 20
-149.6676947325483
 30
0.0
 10
100.7864406757582
 20
-149.6721733566792
 30
0.0
 10
100.9028849031597
 20
-149.6721733566792
 30
0.0
 10
100.9028849031597
 20
-149.6721733566792
 30
0.0
 10
101.2582465024632
 20
-149.6721733566792
 30
0.0
 10
101.2582465024632
 20
-149.6721733566792
 30
0.0
 10
101.2856350115709
 20
-149.6721733566792
 30
0.0
 10
101.4465209707321
 20
-149.6697617898395
 30
0.0
 10
101.5564195167116
 20
-149.6549478792529
 30
0.0
 10
101.6136081017667
 20
-149.6487467073795
 30
0.0
 10
101.6304890696444
 20
-149.6297986822106
 30
0.0
 10
101.6537434641699
 20
-149.6063720329109
 30
0.0
 10
101.6537434641699
 20
-149.6063720329109
 30
0.0
 10
101.8420179324388
 20
-149.7565781960678
 30
0.0
 10
101.8420179324388
 20
-149.7565781960678
 30
0.0
 10
101.8272040218522
 20
-149.7862060172409
 30
0.0
 10
101.8166964806222
 20
-149.8051540424098
 30
0.0
 10
101.7806952328013
 20
-149.8750894807604
 30
0.0
  0
HATCH
  5
155
330
142
100
AcDbEntity
  8
レイヤー 1
 62
    18
420
        0
440
 33554687
100
AcDbHatch
 10
0.0
 20
0.0
 30
0.0
210
0.0
220
0.0
230
1.0
  2
SOLID
 70
     1
 71
     1
 91
        1
 92
        1
 93
        1
 72
     4
 94
        3
 73
     0
 74
     0
 95
       47
 96
       43
 40
0.0
 40
0.0
 40
0.0
 40
0.0
 40
1.0
 40
1.0
 40
1.0
 40
2.0
 40
2.0
 40
2.0
 40
3.0
 40
3.0
 40
3.0
 40
4.0
 40
4.0
 40
4.0
 40
5.0
 40
5.0
 40
5.0
 40
6.0
 40
6.0
 40
6.0
 40
7.0
 40
7.0
 40
7.0
 40
8.0
 40
8.0
 40
8.0
 40
9.0
 40
9.0
 40
9.0
 40
10.0
 40
10.0
 40
10.0
 40
11.0
 40
11.0
 40
11.0
 40
12.0
 40
12.0
 40
12.0
 40
13.0
 40
13.0
 40
13.0
 40
14.0
 40
14.0
 40
14.0
 40
14.0
 10
101.7806952328013
 20
-149.8750894807604
 10
101.710932049225
 20
-150.1544867246142
 10
101.634795439001
 20
-150.4590331655102
 10
101.3216362593918
 20
-150.7911403702883
 10
101.0847859447809
 20
-151.0409097929689
 10
100.8393228914568
 20
-151.1401285429441
 10
100.7335584600596
 20
-151.1825032174127
 10
100.7335584600596
 20
-151.1825032174127
 10
100.538910565143
 20
-151.0006021757915
 10
100.538910565143
 20
-151.0006021757915
 10
100.7251179761208
 20
-150.9540933867406
 10
101.086853002072
 20
-150.8610758086389
 10
101.3829589590292
 20
-150.3660155874085
 10
101.5438449181904
 20
-150.0993651968501
 10
101.5564195167116
 20
-149.9257323843935
 10
101.5650322554247
 20
-149.834781863583
 10
101.5650322554247
 20
-149.834781863583
 10
101.05929223819
 20
-149.834781863583
 10
101.05929223819
 20
-149.834781863583
 10
100.9409532082717
 20
-149.834781863583
 10
100.5199625399742
 20
-149.8540743983004
 10
100.3675170647519
 20
-149.8644096847561
 10
100.3675170647519
 20
-149.8644096847561
 10
100.3675170647519
 20
-149.6549478792529
 10
100.3675170647519
 20
-149.6549478792529
 10
100.5092827439699
 20
-149.6676947325483
 10
100.7864406757582
 20
-149.6721733566792
 10
100.9028849031597
 20
-149.6721733566792
 10
100.9028849031597
 20
-149.6721733566792
 10
101.2582465024632
 20
-149.6721733566792
 10
101.2582465024632
 20
-149.6721733566792
 10
101.2856350115709
 20
-149.6721733566792
 10
101.4465209707321
 20
-149.6697617898395
 10
101.5564195167116
 20
-149.6549478792529
 10
101.6136081017667
 20
-149.6487467073795
 10
101.6304890696444
 20
-149.6297986822106
 10
101.6537434641699
 20
-149.6063720329109
 10
101.6537434641699
 20
-149.6063720329109
 10
101.8420179324388
 20
-149.7565781960678
 10
101.8420179324388
 20
-149.7565781960678
 10
101.8272040218522
 20
-149.7862060172409
 10
101.8166964806222
 20
-149.8051540424098
 10
101.7806952328013
 20
-149.8750894807604
 97
        0
 97
        1
330
154
 75
     2
 76
     1
 98
        1
 10
0.0
 20
0.0
450
        0
451
        0
460
0.0
461
0.0
452
        0
462
0.0
453
        0
470

  0
SPLINE
  5
156
330
142
100
AcDbEntity
  8
レイヤー 1
100
AcDbSpline
210
0.0
220
0.0
230
1.0
 70
     9
 71
     3
 72
    17
 73
    13
 74
     0
 42
0.0000000001
 43
0.0000000001
 40
0.0
 40
0.0
 40
0.0
 40
0.0
 40
1.0
 40
1.0
 40
1.0
 40
2.0
 40
2.0
 40
2.0
 40
3.0
 40
3.0
 40
3.0
 40
4.0
 40
4.0
 40
4.0
 40
4.0
 10
102.1710245512801
 20
-149.6573594460926
 30
0.0
 10
102.1710245512801
 20
-149.7162705788904
 30
0.0
 10
102.217533340331
 20
-149.7631238774898
 30
0.0
 10
102.2767889826773
 20
-149.7631238774898
 30
0.0
 10
102.3360446250236
 20
-149.7631238774898
 30
0.0
 10
102.3846204713656
 20
-149.7162705788904
 30
0.0
 10
102.3846204713656
 20
-149.6573594460926
 30
0.0
 10
102.3846204713656
 20
-149.5981038037463
 30
0.0
 10
102.3360446250236
 20
-149.5491834478557
 30
0.0
 10
102.2767889826773
 20
-149.5491834478557
 30
0.0
 10
102.217533340331
 20
-149.5491834478557
 30
0.0
 10
102.1710245512801
 20
-149.5981038037463
 30
0.0
 10
102.1710245512801
 20
-149.6573594460926
 30
0.0
  0
SPLINE
  5
157
330
142
100
AcDbEntity
  8
レイヤー 1
100
AcDbSpline
210
0.0
220
0.0
230
1.0
 70
     9
 71
     3
 72
    17
 73
    13
 74
     0
 42
0.0000000001
 43
0.0000000001
 40
0.0
 40
0.0
 40
0.0
 40
0.0
 40
1.0
 40
1.0
 40
1.0
 40
2.0
 40
2.0
 40
2.0
 40
3.0
 40
3.0
 40
3.0
 40
4.0
 40
4.0
 40
4.0
 40
4.0
 10
102.4862507881805
 20
-149.6573594460926
 30
0.0
 10
102.4862507881805
 20
-149.7713921066544
 30
0.0
 10
102.3930609553045
 20
-149.8664767420472
 30
0.0
 10
102.2767889826773
 20
-149.8664767420472
 30
0.0
 10
102.1625840673413
 20
-149.8664767420472
 30
0.0
 10
102.0673271771741
 20
-149.7713921066544
 30
0.0
 10
102.0673271771741
 20
-149.6573594460926
 30
0.0
 10
102.0673271771741
 20
-149.5409152186911
 30
0.0
 10
102.1625840673413
 20
-149.4478976405894
 30
0.0
 10
102.2767889826773
 20
-149.4478976405894
 30
0.0
 10
102.3909938980133
 20
-149.4478976405894
 30
0.0
 10
102.4862507881805
 20
-149.5409152186911
 30
0.0
 10
102.4862507881805
 20
-149.6573594460926
 30
0.0
  0
HATCH
  5
158
330
142
100
AcDbEntity
  8
レイヤー 1
 62
    18
420
        0
440
 33554687
100
AcDbHatch
 10
0.0
 20
0.0
 30
0.0
210
0.0
220
0.0
230
1.0
  2
SOLID
 70
     1
 71
     1
 91
        2
 92
        1
 93
        1
 72
     4
 94
        3
 73
     0
 74
     0
 95
       17
 96
       13
 40
0.0
 40
0.0
 40
0.0
 40
0.0
 40
1.0
 40
1.0
 40
1.0
 40
2.0
 40
2.0
 40
2.0
 40
3.0
 40
3.0
 40
3.0
 40
4.0
 40
4.0
 40
4.0
 40
4.0
 10
102.1710245512801
 20
-149.6573594460926
 10
102.1710245512801
 20
-149.7162705788904
 10
102.217533340331
 20
-149.7631238774898
 10
102.2767889826773
 20
-149.7631238774898
 10
102.3360446250236
 20
-149.7631238774898
 10
102.3846204713656
 20
-149.7162705788904
 10
102.3846204713656
 20
-149.6573594460926
 10
102.3846204713656
 20
-149.5981038037463
 10
102.3360446250236
 20
-149.5491834478557
 10
102.2767889826773
 20
-149.5491834478557
 10
102.217533340331
 20
-149.5491834478557
 10
102.1710245512801
 20
-149.5981038037463
 10
102.1710245512801
 20
-149.6573594460926
 97
        0
 97
        1
330
156
 92
        1
 93
        1
 72
     4
 94
        3
 73
     0
 74
     0
 95
       17
 96
       13
 40
0.0
 40
0.0
 40
0.0
 40
0.0
 40
1.0
 40
1.0
 40
1.0
 40
2.0
 40
2.0
 40
2.0
 40
3.0
 40
3.0
 40
3.0
 40
4.0
 40
4.0
 40
4.0
 40
4.0
 10
102.4862507881805
 20
-149.6573594460926
 10
102.4862507881805
 20
-149.7713921066544
 10
102.3930609553045
 20
-149.8664767420472
 10
102.2767889826773
 20
-149.8664767420472
 10
102.1625840673413
 20
-149.8664767420472
 10
102.0673271771741
 20
-149.7713921066544
 10
102.0673271771741
 20
-149.6573594460926
 10
102.0673271771741
 20
-149.5409152186911
 10
102.1625840673413
 20
-149.4478976405894
 10
102.2767889826773
 20
-149.4478976405894
 10
102.3909938980133
 20
-149.4478976405894
 10
102.4862507881805
 20
-149.5409152186911
 10
102.4862507881805
 20
-149.6573594460926
 97
        0
 97
        1
330
157
 75
     2
 76
     1
 98
        1
 10
0.0
 20
0.0
450
        0
451
        0
460
0.0
461
0.0
452
        0
462
0.0
453
        0
470

  0
ENDBLK
  5
145
330
142
100
AcDbEntity
  8
0
100
AcDbBlockEnd
  0
ENDSEC
  0
SECTION
  2
ENTITIES
  0
INSERT
  5
7A
330
70
100
AcDbEntity
  8
レイヤー 1
100
AcDbBlockReference
  2
Block_0
 10
0.0
 20
0.0
 30
0.0
  0
ENDSEC
  0
SECTION
  2
OBJECTS
  0
DICTIONARY
  5
C
330
0
100
AcDbDictionary
281
     1
  3
ACAD_COLOR
350
63
  3
ACAD_DETAILVIEWSTYLE
350
6A
  3
ACAD_GROUP
350
D
  3
ACAD_LAYOUT
350
62
  3
ACAD_MATERIAL
350
10
  3
ACAD_MLEADERSTYLE
350
66
  3
ACAD_MLINESTYLE
350
5F
  3
ACAD_PLOTSETTINGS
350
61
  3
ACAD_PLOTSTYLENAME
350
E
  3
ACAD_SCALELIST
350
42
  3
ACAD_SECTIONVIEWSTYLE
350
68
  3
ACAD_TABLESTYLE
350
64
  3
ACAD_VISUALSTYLE
350
29
  3
ACDB_RECOMPOSE_DATA
350
161
  3
AcDbVariableDictionary
350
159
  0
DICTIONARY
  5
63
102
{ACAD_REACTORS
330
C
102
}
330
C
100
AcDbDictionary
281
     1
  0
DICTIONARY
  5
6A
102
{ACAD_REACTORS
330
C
102
}
330
C
100
AcDbDictionary
281
     1
  3
Imperial24
350
6B
  0
DICTIONARY
  5
D
102
{ACAD_REACTORS
330
C
102
}
330
C
100
AcDbDictionary
281
     1
  0
DICTIONARY
  5
62
102
{ACAD_REACTORS
330
C
102
}
330
C
100
AcDbDictionary
281
     1
  3
Layout1
350
6F
  3
Layout2
350
77
  3
Model
350
73
  0
DICTIONARY
  5
10
102
{ACAD_REACTORS
330
C
102
}
330
C
100
AcDbDictionary
281
     1
  3
ByBlock
350
19
  3
ByLayer
350
11
  3
Global
350
21
  0
DICTIONARY
  5
66
102
{ACAD_REACTORS
330
C
102
}
330
C
100
AcDbDictionary
281
     1
  3
Standard
350
67
  0
DICTIONARY
  5
5F
102
{ACAD_REACTORS
330
C
102
}
330
C
100
AcDbDictionary
281
     1
  3
Standard
350
60
  0
DICTIONARY
  5
61
102
{ACAD_REACTORS
330
C
102
}
330
C
100
AcDbDictionary
281
     1
  0
ACDBDICTIONARYWDFLT
  5
E
102
{ACAD_REACTORS
330
C
102
}
330
C
100
AcDbDictionary
281
     1
  3
Normal
350
F
100
AcDbDictionaryWithDefault
340
F
  0
DICTIONARY
  5
42
102
{ACAD_REACTORS
330
C
102
}
330
C
100
AcDbDictionary
281
     1
  3
A0
350
43
  3
A1
350
44
  3
A2
350
45
  3
A3
350
46
  3
A4
350
47
  3
A5
350
48
  3
A6
350
49
  3
A7
350
4A
  3
A8
350
4B
  3
A9
350
4C
  3
B0
350
4D
  3
B1
350
4E
  3
B2
350
4F
  3
B3
350
50
  3
B4
350
51
  3
B5
350
52
  3
B6
350
53
  0
DICTIONARY
  5
68
102
{ACAD_REACTORS
330
C
102
}
330
C
100
AcDbDictionary
281
     1
  3
Imperial24
350
69
  0
DICTIONARY
  5
64
102
{ACAD_REACTORS
330
C
102
}
330
C
100
AcDbDictionary
281
     1
  3
Standard
350
65
  0
DICTIONARY
  5
29
102
{ACAD_REACTORS
330
C
102
}
330
C
100
AcDbDictionary
281
     1
  3
2dWireframe
350
2F
  3
Basic
350
2E
  3
Brighten
350
35
  3
ColorChange
350
39
  3
Conceptual
350
32
  3
Dim
350
34
  3
EdgeColorOff
350
41
  3
Facepattern
350
38
  3
Flat
350
2A
  3
FlatWithEdges
350
2B
  3
Gouraud
350
2C
  3
GouraudWithEdges
350
2D
  3
Hidden
350
31
  3
JitterOff
350
3F
  3
Linepattern
350
37
  3
OverhangOff
350
40
  3
Realistic
350
33
  3
Shaded
350
3E
  3
Shaded with edges
350
3D
  3
Shades of Gray
350
3A
  3
Sketchy
350
3B
  3
Thicken
350
36
  3
Wireframe
350
30
  3
X-Ray
350
3C
  0
XRECORD
  5
161
102
{ACAD_REACTORS
330
C
102
}
330
C
100
AcDbXrecord
280
     1
 90
        1
330
65
  0
DICTIONARY
  5
159
102
{ACAD_REACTORS
330
C
102
}
330
C
100
AcDbDictionary
281
     1
  3
CANNOSCALE
350
15E
  3
CMLEADERSTYLE
350
15B
  3
CTABLESTYLE
350
15A
  3
CVIEWDETAILSTYLE
350
15C
  3
CVIEWSECTIONSTYLE
350
15D
  0
ACDBDETAILVIEWSTYLE
  5
6B
102
{ACAD_XDICTIONARY
360
196
102
}
102
{ACAD_REACTORS
330
6A
102
}
330
6A
100
AcDbModelDocViewStyle
 70
     0
  3
Imperial24
290
     0
100
AcDbDetailViewStyle
 70
     0
 71
     0
 90
        3
 71
     1
340
55
 62
   256
 40
0.24
340
0
 62
   256
 40
0.24
300

 40
0.36
280
     3
 71
     2
340
5D
 90
       25
 62
   256
 71
     3
340
55
 62
   256
 40
0.24
 90
        1
 40
0.75
 90
        1
300
%<\AcVar ViewType \f "%tc1">% %<\AcVar ViewDetailId>%\PSCALE %<\AcVar ViewScale \f "%sn">%
 71
     4
340
5D
 90
       25
 62
   256
340
5D
 90
       25
 62
   256
280
     0
  0
LAYOUT
  5
6F
102
{ACAD_REACTORS
330
62
102
}
330
62
100
AcDbPlotSettings
  1

  2

  4

  6

 40
0.0
 41
0.0
 42
0.0
 43
0.0
 44
0.0
 45
0.0
 46
0.0
 47
0.0
 48
0.0
 49
0.0
140
0.0
141
0.0
142
1.0
143
1.0
 70
   688
 72
     0
 73
     0
 74
     5
  7

 75
    16
147
1.0
 76
     0
 77
     2
 78
   300
148
0.0
149
0.0
100
AcDbLayout
  1
Layout1
 70
     1
 71
     1
 10
0.0
 20
0.0
 11
12.0
 21
9.0
 12
0.0
 22
0.0
 32
0.0
 14
0.0
 24
0.0
 34
0.0
 15
0.0
 25
0.0
 35
0.0
146
0.0
 13
0.0
 23
0.0
 33
0.0
 16
1.0
 26
0.0
 36
0.0
 17
0.0
 27
1.0
 37
0.0
 76
     0
330
6C
  0
LAYOUT
  5
77
102
{ACAD_REACTORS
330
62
102
}
330
62
100
AcDbPlotSettings
  1

  2

  4

  6

 40
0.0
 41
0.0
 42
0.0
 43
0.0
 44
0.0
 45
0.0
 46
0.0
 47
0.0
 48
0.0
 49
0.0
140
0.0
141
0.0
142
1.0
143
1.0
 70
   688
 72
     0
 73
     0
 74
     5
  7

 75
    16
147
1.0
 76
     0
 77
     2
 78
   300
148
0.0
149
0.0
100
AcDbLayout
  1
Layout2
 70
     1
 71
     2
 10
0.0
 20
0.0
 11
12.0
 21
9.0
 12
0.0
 22
0.0
 32
0.0
 14
0.0
 24
0.0
 34
0.0
 15
0.0
 25
0.0
 35
0.0
146
0.0
 13
0.0
 23
0.0
 33
0.0
 16
1.0
 26
0.0
 36
0.0
 17
0.0
 27
1.0
 37
0.0
 76
     0
330
74
  0
LAYOUT
  5
73
102
{ACAD_REACTORS
330
62
102
}
330
62
100
AcDbPlotSettings
  1

  2

  4

  6

 40
0.0
 41
0.0
 42
0.0
 43
0.0
 44
0.0
 45
0.0
 46
0.0
 47
0.0
 48
0.0
 49
0.0
140
0.0
141
0.0
142
1.0
143
1.0
 70
  1712
 72
     0
 73
     0
 74
     0
  7

 75
     0
147
1.0
 76
     0
 77
     2
 78
   300
148
0.0
149
0.0
100
AcDbLayout
  1
Model
 70
     1
 71
     0
 10
0.0
 20
0.0
 11
12.0
 21
9.0
 12
0.0
 22
0.0
 32
0.0
 14
0.0
 24
0.0
 34
0.0
 15
0.0
 25
0.0
 35
0.0
146
0.0
 13
0.0
 23
0.0
 33
0.0
 16
1.0
 26
0.0
 36
0.0
 17
0.0
 27
1.0
 37
0.0
 76
     0
330
70
  0
MATERIAL
  5
19
102
{ACAD_XDICTIONARY
360
1A
102
}
102
{ACAD_REACTORS
330
10
102
}
330
10
100
AcDbMaterial
  1
ByBlock
 72
     0
 43
0.0208333333333333
 43
0.0
 43
0.0
 43
0.0
 43
0.0
 43
0.0208333333333333
 43
0.0
 43
0.0
 43
0.0
 43
0.0
 43
1.0
 43
0.0
 43
0.0
 43
0.0
 43
0.0
 43
1.0
 77
     0
 47
0.0208333333333333
 47
0.0
 47
0.0
 47
0.0
 47
0.0
 47
0.0208333333333333
 47
0.0
 47
0.0
 47
0.0
 47
0.0
 47
1.0
 47
0.0
 47
0.0
 47
0.0
 47
0.0
 47
1.0
171
     0
 49
0.0208333333333333
 49
0.0
 49
0.0
 49
0.0
 49
0.0
 49
0.0208333333333333
 49
0.0
 49
0.0
 49
0.0
 49
0.0
 49
1.0
 49
0.0
 49
0.0
 49
0.0
 49
0.0
 49
1.0
175
     0
142
0.0208333333333333
142
0.0
142
0.0
142
0.0
142
0.0
142
0.0208333333333333
142
0.0
142
0.0
142
0.0
142
0.0
142
1.0
142
0.0
142
0.0
142
0.0
142
0.0
142
1.0
179
     0
144
0.0208333333333333
144
0.0
144
0.0
144
0.0
144
0.0
144
0.0208333333333333
144
0.0
144
0.0
144
0.0
144
0.0
144
1.0
144
0.0
144
0.0
144
0.0
144
0.0
144
1.0
147
0.0208333333333333
147
0.0
147
0.0
147
0.0
147
0.0
147
0.0208333333333333
147
0.0
147
0.0
147
0.0
147
0.0
147
1.0
147
0.0
147
0.0
147
0.0
147
0.0
147
1.0
  0
MATERIAL
  5
11
102
{ACAD_XDICTIONARY
360
12
102
}
102
{ACAD_REACTORS
330
10
102
}
330
10
100
AcDbMaterial
  1
ByLayer
 72
     0
 43
0.0208333333333333
 43
0.0
 43
0.0
 43
0.0
 43
0.0
 43
0.0208333333333333
 43
0.0
 43
0.0
 43
0.0
 43
0.0
 43
1.0
 43
0.0
 43
0.0
 43
0.0
 43
0.0
 43
1.0
 77
     0
 47
0.0208333333333333
 47
0.0
 47
0.0
 47
0.0
 47
0.0
 47
0.0208333333333333
 47
0.0
 47
0.0
 47
0.0
 47
0.0
 47
1.0
 47
0.0
 47
0.0
 47
0.0
 47
0.0
 47
1.0
171
     0
 49
0.0208333333333333
 49
0.0
 49
0.0
 49
0.0
 49
0.0
 49
0.0208333333333333
 49
0.0
 49
0.0
 49
0.0
 49
0.0
 49
1.0
 49
0.0
 49
0.0
 49
0.0
 49
0.0
 49
1.0
175
     0
142
0.0208333333333333
142
0.0
142
0.0
142
0.0
142
0.0
142
0.0208333333333333
142
0.0
142
0.0
142
0.0
142
0.0
142
1.0
142
0.0
142
0.0
142
0.0
142
0.0
142
1.0
179
     0
144
0.0208333333333333
144
0.0
144
0.0
144
0.0
144
0.0
144
0.0208333333333333
144
0.0
144
0.0
144
0.0
144
0.0
144
1.0
144
0.0
144
0.0
144
0.0
144
0.0
144
1.0
147
0.0208333333333333
147
0.0
147
0.0
147
0.0
147
0.0
147
0.0208333333333333
147
0.0
147
0.0
147
0.0
147
0.0
147
1.0
147
0.0
147
0.0
147
0.0
147
0.0
147
1.0
  0
MATERIAL
  5
21
102
{ACAD_XDICTIONARY
360
22
102
}
102
{ACAD_REACTORS
330
10
102
}
330
10
100
AcDbMaterial
  1
Global
 72
     0
 43
0.0208333333333333
 43
0.0
 43
0.0
 43
0.0
 43
0.0
 43
0.0208333333333333
 43
0.0
 43
0.0
 43
0.0
 43
0.0
 43
1.0
 43
0.0
 43
0.0
 43
0.0
 43
0.0
 43
1.0
 77
     0
 47
0.0208333333333333
 47
0.0
 47
0.0
 47
0.0
 47
0.0
 47
0.0208333333333333
 47
0.0
 47
0.0
 47
0.0
 47
0.0
 47
1.0
 47
0.0
 47
0.0
 47
0.0
 47
0.0
 47
1.0
171
     0
 49
0.0208333333333333
 49
0.0
 49
0.0
 49
0.0
 49
0.0
 49
0.0208333333333333
 49
0.0
 49
0.0
 49
0.0
 49
0.0
 49
1.0
 49
0.0
 49
0.0
 49
0.0
 49
0.0
 49
1.0
175
     0
142
0.0208333333333333
142
0.0
142
0.0
142
0.0
142
0.0
142
0.0208333333333333
142
0.0
142
0.0
142
0.0
142
0.0
142
1.0
142
0.0
142
0.0
142
0.0
142
0.0
142
1.0
179
     0
144
0.0208333333333333
144
0.0
144
0.0
144
0.0
144
0.0
144
0.0208333333333333
144
0.0
144
0.0
144
0.0
144
0.0
144
1.0
144
0.0
144
0.0
144
0.0
144
0.0
144
1.0
147
0.0208333333333333
147
0.0
147
0.0
147
0.0
147
0.0
147
0.0208333333333333
147
0.0
147
0.0
147
0.0
147
0.0
147
1.0
147
0.0
147
0.0
147
0.0
147
0.0
147
1.0
  0
MLEADERSTYLE
  5
67
102
{ACAD_XDICTIONARY
360
192
102
}
102
{ACAD_REACTORS
330
66
102
}
330
66
100
AcDbMLeaderStyle
179
     2
170
     2
171
     1
172
     0
 90
        2
 40
0.0
 41
0.0
173
     1
 91
-1056964608
340
5B
 92
       -2
290
     1
 42
0.09
291
     1
 43
0.36
  3
Standard
 44
0.18
300

342
55
174
     1
178
     6
175
     1
176
     0
 93
-1056964608
 45
0.18
292
     0
297
     0
 46
0.18
 94
-1056964608
 47
1.0
 49
1.0
140
1.0
293
     1
141
0.0
294
     1
177
     0
142
1.0
295
     0
296
     0
143
0.125
271
     0
272
     9
273
     9
  0
MLINESTYLE
  5
60
102
{ACAD_REACTORS
330
5F
102
}
330
5F
100
AcDbMlineStyle
  2
STANDARD
 70
     0
  3

 62
   256
 51
90.0
 52
90.0
 71
     2
 49
0.5
 62
   256
  6
BYLAYER
 49
-0.5
 62
   256
  6
BYLAYER
  0
ACDBPLACEHOLDER
  5
F
102
{ACAD_REACTORS
330
E
102
}
330
E
  0
SCALE
  5
43
102
{ACAD_REACTORS
330
42
102
}
330
42
100
AcDbScale
 70
     0
300
1:1
140
1.0
141
1.0
290
     1
  0
SCALE
  5
44
102
{ACAD_REACTORS
330
42
102
}
330
42
100
AcDbScale
 70
     0
300
1/128" = 1'-0"
140
0.0078125
141
12.0
290
     0
  0
SCALE
  5
45
102
{ACAD_REACTORS
330
42
102
}
330
42
100
AcDbScale
 70
     0
300
1/64" = 1'-0"
140
0.015625
141
12.0
290
     0
  0
SCALE
  5
46
102
{ACAD_REACTORS
330
42
102
}
330
42
100
AcDbScale
 70
     0
300
1/32" = 1'-0"
140
0.03125
141
12.0
290
     0
  0
SCALE
  5
47
102
{ACAD_REACTORS
330
42
102
}
330
42
100
AcDbScale
 70
     0
300
1/16" = 1'-0"
140
0.0625
141
12.0
290
     0
  0
SCALE
  5
48
102
{ACAD_REACTORS
330
42
102
}
330
42
100
AcDbScale
 70
     0
300
3/32" = 1'-0"
140
0.09375
141
12.0
290
     0
  0
SCALE
  5
49
102
{ACAD_REACTORS
330
42
102
}
330
42
100
AcDbScale
 70
     0
300
1/8" = 1'-0"
140
0.125
141
12.0
290
     0
  0
SCALE
  5
4A
102
{ACAD_REACTORS
330
42
102
}
330
42
100
AcDbScale
 70
     0
300
3/16" = 1'-0"
140
0.1875
141
12.0
290
     0
  0
SCALE
  5
4B
102
{ACAD_REACTORS
330
42
102
}
330
42
100
AcDbScale
 70
     0
300
1/4" = 1'-0"
140
0.25
141
12.0
290
     0
  0
SCALE
  5
4C
102
{ACAD_REACTORS
330
42
102
}
330
42
100
AcDbScale
 70
     0
300
3/8" = 1'-0"
140
0.375
141
12.0
290
     0
  0
SCALE
  5
4D
102
{ACAD_REACTORS
330
42
102
}
330
42
100
AcDbScale
 70
     0
300
1/2" = 1'-0"
140
0.5
141
12.0
290
     0
  0
SCALE
  5
4E
102
{ACAD_REACTORS
330
42
102
}
330
42
100
AcDbScale
 70
     0
300
3/4" = 1'-0"
140
0.75
141
12.0
290
     0
  0
SCALE
  5
4F
102
{ACAD_REACTORS
330
42
102
}
330
42
100
AcDbScale
 70
     0
300
1" = 1'-0"
140
1.0
141
12.0
290
     0
  0
SCALE
  5
50
102
{ACAD_REACTORS
330
42
102
}
330
42
100
AcDbScale
 70
     0
300
1-1/2" = 1'-0"
140
1.5
141
12.0
290
     0
  0
SCALE
  5
51
102
{ACAD_REACTORS
330
42
102
}
330
42
100
AcDbScale
 70
     0
300
3" = 1'-0"
140
3.0
141
12.0
290
     0
  0
SCALE
  5
52
102
{ACAD_REACTORS
330
42
102
}
330
42
100
AcDbScale
 70
     0
300
6" = 1'-0"
140
6.0
141
12.0
290
     0
  0
SCALE
  5
53
102
{ACAD_REACTORS
330
42
102
}
330
42
100
AcDbScale
 70
     0
300
1'-0" = 1'-0"
140
12.0
141
12.0
290
     0
  0
ACDBSECTIONVIEWSTYLE
  5
69
102
{ACAD_XDICTIONARY
360
194
102
}
102
{ACAD_REACTORS
330
68
102
}
330
68
100
AcDbModelDocViewStyle
 70
     0
  3
Imperial24
290
     0
100
AcDbSectionViewStyle
 70
     0
 71
     0
 90
       78
 71
     1
340
55
 62
   256
 40
0.24
340
0
340
0
 62
   256
 40
0.24
300
I, O, Q, S, X, Z
 40
0.48
 90
        3
 40
0.18
 90
        1
 71
     2
340
5D
 90
       25
 62
   256
340
5D
 90
       50
 62
   256
 40
0.24
 40
0.0
 40
0.24
 71
     3
340
55
 62
   256
 40
0.24
 90
        1
 40
0.75
 90
        1
300
%<\AcVar ViewType \f "%tc1">% %<\AcVar ViewSectionStartId>%-%<\AcVar ViewSectionEndId>%\PSCALE %<\AcVar ViewScale \f "%sn">%
 71
     4
 62
   256
 62
   257
300
ANSI31
 40
1.0
 90
        0
290
     0
290
     0
 90
        6
 40
0.0
 40
1.570796326794896
 40
0.2617993877991494
 40
1.308996938995747
 40
-0.2617993877991494
 40
1.832595714594046
  0
TABLESTYLE
  5
65
102
{ACAD_XDICTIONARY
360
15F
102
}
102
{ACAD_REACTORS
330
64
102
}
330
64
100
AcDbTableStyle
280
     0
  3
Standard
 70
     0
 71
     0
 40
0.06
 41
0.06
280
     0
281
     0
  7
Standard
140
0.18
170
     2
 62
     0
 63
     7
283
     0
 90
      512
 91
        0
  1

274
    -2
284
     1
 64
     0
275
    -2
285
     1
 65
     0
276
    -2
286
     1
 66
     0
277
    -2
287
     1
 67
     0
278
    -2
288
     1
 68
     0
279
    -2
289
     1
 69
     0
  7
Standard
140
0.25
170
     5
 62
     0
 63
     7
283
     0
 90
      512
 91
        0
  1

274
    -2
284
     1
 64
     0
275
    -2
285
     1
 65
     0
276
    -2
286
     1
 66
     0
277
    -2
287
     1
 67
     0
278
    -2
288
     1
 68
     0
279
    -2
289
     1
 69
     0
  7
Standard
140
0.18
170
     5
 62
     0
 63
     7
283
     0
 90
      512
 91
        0
  1

274
    -2
284
     1
 64
     0
275
    -2
285
     1
 65
     0
276
    -2
286
     1
 66
     0
277
    -2
287
     1
 67
     0
278
    -2
288
     1
 68
     0
279
    -2
289
     1
 69
     0
  0
VISUALSTYLE
  5
2F
102
{ACAD_XDICTIONARY
360
16C
102
}
102
{ACAD_REACTORS
330
29
102
}
330
29
100
AcDbVisualStyle
  2
2dWireframe
 70
     4
177
     2
291
     0
 71
     0
176
     1
 72
     2
176
     1
 73
     0
176
     1
 90
        0
176
     1
 40
0.6
176
     1
 41
30.0
176
     1
 63
     7
421
 16777215
176
     1
 74
     1
176
     1
 91
        4
176
     1
 64
     7
176
     1
 65
   257
176
     1
 75
     1
176
     1
175
     1
176
     1
 42
1.0
176
     1
 92
        0
176
     1
 66
   257
176
     1
 43
1.0
176
     1
 76
     1
176
     1
 77
     6
176
     1
 78
     2
176
     1
 67
     7
176
     1
 79
     5
176
     1
170
     0
176
     1
171
     0
176
     1
290
     0
176
     1
 93
        1
176
     1
 44
0.0
176
     1
173
     0
176
     1
1001
ACAD
1000
AcDbSavedByObjectVersion
1070
     0
  0
VISUALSTYLE
  5
2E
102
{ACAD_XDICTIONARY
360
16A
102
}
102
{ACAD_REACTORS
330
29
102
}
330
29
100
AcDbVisualStyle
  2
Basic
 70
     7
177
     2
291
     1
 71
     1
176
     1
 72
     0
176
     1
 73
     1
176
     1
 90
        0
176
     1
 40
0.6
176
     1
 41
30.0
176
     1
 63
     7
421
 16777215
176
     1
 74
     0
176
     1
 91
        4
176
     1
 64
     7
176
     1
 65
   257
176
     1
 75
     1
176
     1
175
     1
176
     1
 42
1.0
176
     1
 92
        8
176
     1
 66
     7
176
     1
 43
1.0
176
     1
 76
     1
176
     1
 77
     6
176
     1
 78
     2
176
     1
 67
     7
176
     1
 79
     5
176
     1
170
     0
176
     1
171
     0
176
     1
290
     0
176
     1
 93
        1
176
     1
 44
0.0
176
     1
173
     0
176
     1
1001
ACAD
1000
AcDbSavedByObjectVersion
1070
     0
  0
VISUALSTYLE
  5
35
102
{ACAD_XDICTIONARY
360
178
102
}
102
{ACAD_REACTORS
330
29
102
}
330
29
100
AcDbVisualStyle
  2
Brighten
 70
    12
177
     2
291
     1
 71
     2
176
     1
 72
     2
176
     1
 73
     0
176
     1
 90
        0
176
     1
 40
0.6
176
     1
 41
30.0
176
     1
 63
     7
421
 16777215
176
     1
 74
     1
176
     1
 91
        4
176
     1
 64
     7
176
     1
 65
   257
176
     1
 75
     1
176
     1
175
     1
176
     1
 42
1.0
176
     1
 92
        8
176
     1
 66
     7
176
     1
 43
1.0
176
     1
 76
     1
176
     1
 77
     6
176
     1
 78
     2
176
     1
 67
     7
176
     1
 79
     5
176
     1
170
     0
176
     1
171
     0
176
     1
290
     0
176
     1
 93
        1
176
     1
 44
50.0
176
     1
173
     0
176
     1
1001
ACAD
1000
AcDbSavedByObjectVersion
1070
     0
  0
VISUALSTYLE
  5
39
102
{ACAD_XDICTIONARY
360
180
102
}
102
{ACAD_REACTORS
330
29
102
}
330
29
100
AcDbVisualStyle
  2
ColorChange
 70
    16
177
     2
291
     1
 71
     2
176
     1
 72
     2
176
     1
 73
     3
176
     1
 90
        0
176
     1
 40
0.6
176
     1
 41
30.0
176
     1
 63
     8
421
  8421504
176
     1
 74
     1
176
     1
 91
        4
176
     1
 64
     7
176
     1
 65
   257
176
     1
 75
     1
176
     1
175
     1
176
     1
 42
1.0
176
     1
 92
        8
176
     1
 66
     8
424
  8421504
176
     1
 43
1.0
176
     1
 76
     1
176
     1
 77
     6
176
     1
 78
     2
176
     1
 67
     7
176
     1
 79
     5
176
     1
170
     0
176
     1
171
     0
176
     1
290
     0
176
     1
 93
        1
176
     1
 44
0.0
176
     1
173
     0
176
     1
1001
ACAD
1000
AcDbSavedByObjectVersion
1070
     0
  0
VISUALSTYLE
  5
32
102
{ACAD_XDICTIONARY
360
172
102
}
102
{ACAD_REACTORS
330
29
102
}
330
29
100
AcDbVisualStyle
  2
Conceptual
 70
     9
177
     2
291
     0
 71
     3
176
     1
 72
     2
176
     1
 73
     0
176
     1
 90
        0
176
     1
 40
0.6
176
     1
 41
30.0
176
     1
 63
     7
421
 16777215
176
     1
 74
     2
176
     1
 91
        2
176
     1
 64
     7
176
     1
 65
   257
176
     1
 75
     1
176
     1
175
     1
176
     1
 42
179.0
176
     1
 92
        8
176
     1
 66
     7
176
     1
 43
1.0
176
     1
 76
     1
176
     1
 77
     6
176
     1
 78
     2
176
     1
 67
     7
176
     1
 79
     3
176
     1
170
     0
176
     1
171
     0
176
     1
290
     0
176
     1
 93
        1
176
     1
 44
0.0
176
     1
173
     0
176
     1
1001
ACAD
1000
AcDbSavedByObjectVersion
1070
     0
  0
VISUALSTYLE
  5
34
102
{ACAD_XDICTIONARY
360
176
102
}
102
{ACAD_REACTORS
330
29
102
}
330
29
100
AcDbVisualStyle
  2
Dim
 70
    11
177
     2
291
     1
 71
     2
176
     1
 72
     2
176
     1
 73
     0
176
     1
 90
        0
176
     1
 40
0.6
176
     1
 41
30.0
176
     1
 63
     7
421
 16777215
176
     1
 74
     1
176
     1
 91
        4
176
     1
 64
     7
176
     1
 65
   257
176
     1
 75
     1
176
     1
175
     1
176
     1
 42
1.0
176
     1
 92
        8
176
     1
 66
     7
176
     1
 43
1.0
176
     1
 76
     1
176
     1
 77
     6
176
     1
 78
     2
176
     1
 67
     7
176
     1
 79
     5
176
     1
170
     0
176
     1
171
     0
176
     1
290
     0
176
     1
 93
        1
176
     1
 44
-50.0
176
     1
173
     0
176
     1
1001
ACAD
1000
AcDbSavedByObjectVersion
1070
     0
  0
VISUALSTYLE
  5
41
102
{ACAD_XDICTIONARY
360
190
102
}
102
{ACAD_REACTORS
330
29
102
}
330
29
100
AcDbVisualStyle
  2
EdgeColorOff
 70
    22
177
     2
291
     1
 71
     2
176
     0
 72
     2
176
     0
 73
     0
176
     0
 90
        0
176
     0
 40
0.6
176
     0
 41
30.0
176
     0
 63
     7
421
 16777215
176
     0
 74
     1
176
     0
 91
        4
176
     0
 64
     7
176
     0
 65
   257
176
     0
 75
     1
176
     0
175
     1
176
     0
 42
1.0
176
     0
 92
        8
176
     2
 66
     7
176
     0
 43
1.0
176
     0
 76
     1
176
     0
 77
     6
176
     0
 78
     2
176
     0
 67
     7
176
     0
 79
     5
176
     0
170
     0
176
     0
171
     0
176
     0
290
     0
176
     0
 93
        1
176
     0
 44
0.0
176
     0
173
     0
176
     0
1001
ACAD
1000
AcDbSavedByObjectVersion
1070
     0
  0
VISUALSTYLE
  5
38
102
{ACAD_XDICTIONARY
360
17E
102
}
102
{ACAD_REACTORS
330
29
102
}
330
29
100
AcDbVisualStyle
  2
Facepattern
 70
    15
177
     2
291
     1
 71
     2
176
     1
 72
     2
176
     1
 73
     0
176
     1
 90
        0
176
     1
 40
0.6
176
     1
 41
30.0
176
     1
 63
     7
421
 16777215
176
     1
 74
     1
176
     1
 91
        4
176
     1
 64
     7
176
     1
 65
   257
176
     1
 75
     1
176
     1
175
     1
176
     1
 42
1.0
176
     1
 92
        8
176
     1
 66
     7
176
     1
 43
1.0
176
     1
 76
     1
176
     1
 77
     6
176
     1
 78
     2
176
     1
 67
     7
176
     1
 79
     5
176
     1
170
     0
176
     1
171
     0
176
     1
290
     0
176
     1
 93
        1
176
     1
 44
0.0
176
     1
173
     0
176
     1
1001
ACAD
1000
AcDbSavedByObjectVersion
1070
     0
  0
VISUALSTYLE
  5
2A
102
{ACAD_XDICTIONARY
360
162
102
}
102
{ACAD_REACTORS
330
29
102
}
330
29
100
AcDbVisualStyle
  2
Flat
 70
     0
177
     2
291
     1
 71
     2
176
     1
 72
     1
176
     1
 73
     1
176
     1
 90
        2
176
     1
 40
0.6
176
     1
 41
30.0
176
     1
 63
     7
421
 16777215
176
     1
 74
     0
176
     1
 91
        0
176
     1
 64
     7
176
     1
 65
   257
176
     1
 75
     1
176
     1
175
     1
176
     1
 42
1.0
176
     1
 92
        8
176
     1
 66
     7
176
     1
 43
1.0
176
     1
 76
     1
176
     1
 77
     6
176
     1
 78
     2
176
     1
 67
     7
176
     1
 79
     5
176
     1
170
     0
176
     1
171
     0
176
     1
290
     0
176
     1
 93
       13
176
     1
 44
0.0
176
     1
173
     0
176
     1
1001
ACAD
1000
AcDbSavedByObjectVersion
1070
     0
  0
VISUALSTYLE
  5
2B
102
{ACAD_XDICTIONARY
360
164
102
}
102
{ACAD_REACTORS
330
29
102
}
330
29
100
AcDbVisualStyle
  2
FlatWithEdges
 70
     1
177
     2
291
     1
 71
     2
176
     1
 72
     1
176
     1
 73
     1
176
     1
 90
        2
176
     1
 40
0.6
176
     1
 41
30.0
176
     1
 63
     7
421
 16777215
176
     1
 74
     1
176
     1
 91
        0
176
     1
 64
     7
176
     1
 65
   257
176
     1
 75
     1
176
     1
175
     1
176
     1
 42
1.0
176
     1
 92
        0
176
     1
 66
   257
176
     1
 43
1.0
176
     1
 76
     1
176
     1
 77
     6
176
     1
 78
     2
176
     1
 67
     7
176
     1
 79
     5
176
     1
170
     0
176
     1
171
     0
176
     1
290
     0
176
     1
 93
       13
176
     1
 44
0.0
176
     1
173
     0
176
     1
1001
ACAD
1000
AcDbSavedByObjectVersion
1070
     0
  0
VISUALSTYLE
  5
2C
102
{ACAD_XDICTIONARY
360
166
102
}
102
{ACAD_REACTORS
330
29
102
}
330
29
100
AcDbVisualStyle
  2
Gouraud
 70
     2
177
     2
291
     1
 71
     2
176
     1
 72
     2
176
     1
 73
     1
176
     1
 90
        2
176
     1
 40
0.6
176
     1
 41
30.0
176
     1
 63
     7
421
 16777215
176
     1
 74
     0
176
     1
 91
        0
176
     1
 64
     7
176
     1
 65
   257
176
     1
 75
     1
176
     1
175
     1
176
     1
 42
1.0
176
     1
 92
        0
176
     1
 66
     7
176
     1
 43
1.0
176
     1
 76
     1
176
     1
 77
     6
176
     1
 78
     2
176
     1
 67
     7
176
     1
 79
     5
176
     1
170
     0
176
     1
171
     0
176
     1
290
     0
176
     1
 93
       13
176
     1
 44
0.0
176
     1
173
     0
176
     1
1001
ACAD
1000
AcDbSavedByObjectVersion
1070
     0
  0
VISUALSTYLE
  5
2D
102
{ACAD_XDICTIONARY
360
168
102
}
102
{ACAD_REACTORS
330
29
102
}
330
29
100
AcDbVisualStyle
  2
GouraudWithEdges
 70
     3
177
     2
291
     1
 71
     2
176
     1
 72
     2
176
     1
 73
     1
176
     1
 90
        2
176
     1
 40
0.6
176
     1
 41
30.0
176
     1
 63
     7
421
 16777215
176
     1
 74
     1
176
     1
 91
        0
176
     1
 64
     7
176
     1
 65
   257
176
     1
 75
     1
176
     1
175
     1
176
     1
 42
1.0
176
     1
 92
        0
176
     1
 66
   257
176
     1
 43
1.0
176
     1
 76
     1
176
     1
 77
     6
176
     1
 78
     2
176
     1
 67
     7
176
     1
 79
     5
176
     1
170
     0
176
     1
171
     0
176
     1
290
     0
176
     1
 93
       13
176
     1
 44
0.0
176
     1
173
     0
176
     1
1001
ACAD
1000
AcDbSavedByObjectVersion
1070
     0
  0
VISUALSTYLE
  5
31
102
{ACAD_XDICTIONARY
360
170
102
}
102
{ACAD_REACTORS
330
29
102
}
330
29
100
AcDbVisualStyle
  2
Hidden
 70
     6
177
     2
291
     0
 71
     1
176
     1
 72
     2
176
     1
 73
     2
176
     1
 90
        0
176
     1
 40
0.6
176
     1
 41
30.0
176
     1
 63
     7
421
 16777215
176
     1
 74
     2
176
     1
 91
        2
176
     1
 64
     7
176
     1
 65
   257
176
     1
 75
     2
176
     1
175
     1
176
     1
 42
40.0
176
     1
 92
        0
176
     1
 66
   257
176
     1
 43
1.0
176
     1
 76
     1
176
     1
 77
     6
176
     1
 78
     2
176
     1
 67
     7
176
     1
 79
     3
176
     1
170
     0
176
     1
171
     0
176
     1
290
     0
176
     1
 93
        1
176
     1
 44
0.0
176
     1
173
     0
176
     1
1001
ACAD
1000
AcDbSavedByObjectVersion
1070
     0
  0
VISUALSTYLE
  5
3F
102
{ACAD_XDICTIONARY
360
18C
102
}
102
{ACAD_REACTORS
330
29
102
}
330
29
100
AcDbVisualStyle
  2
JitterOff
 70
    20
177
     2
291
     1
 71
     2
176
     0
 72
     2
176
     0
 73
     0
176
     0
 90
        0
176
     0
 40
0.6
176
     0
 41
30.0
176
     0
 63
     7
421
 16777215
176
     0
 74
     1
176
     0
 91
        4
176
     0
 64
     7
176
     0
 65
   257
176
     0
 75
     1
176
     0
175
     1
176
     0
 42
1.0
176
     0
 92
       10
176
     2
 66
     7
176
     0
 43
1.0
176
     0
 76
     1
176
     0
 77
     6
176
     0
 78
     2
176
     0
 67
     7
176
     0
 79
     5
176
     0
170
     0
176
     0
171
     0
176
     0
290
     0
176
     0
 93
        1
176
     0
 44
0.0
176
     0
173
     0
176
     0
1001
ACAD
1000
AcDbSavedByObjectVersion
1070
     0
  0
VISUALSTYLE
  5
37
102
{ACAD_XDICTIONARY
360
17C
102
}
102
{ACAD_REACTORS
330
29
102
}
330
29
100
AcDbVisualStyle
  2
Linepattern
 70
    14
177
     2
291
     1
 71
     2
176
     1
 72
     2
176
     1
 73
     0
176
     1
 90
        0
176
     1
 40
0.6
176
     1
 41
30.0
176
     1
 63
     7
421
 16777215
176
     1
 74
     1
176
     1
 91
        4
176
     1
 64
     7
176
     1
 65
   257
176
     1
 75
     7
176
     1
175
     7
176
     1
 42
1.0
176
     1
 92
        8
176
     1
 66
     7
176
     1
 43
1.0
176
     1
 76
     1
176
     1
 77
     6
176
     1
 78
     2
176
     1
 67
     7
176
     1
 79
     5
176
     1
170
     0
176
     1
171
     0
176
     1
290
     0
176
     1
 93
        1
176
     1
 44
0.0
176
     1
173
     0
176
     1
1001
ACAD
1000
AcDbSavedByObjectVersion
1070
     0
  0
VISUALSTYLE
  5
40
102
{ACAD_XDICTIONARY
360
18E
102
}
102
{ACAD_REACTORS
330
29
102
}
330
29
100
AcDbVisualStyle
  2
OverhangOff
 70
    21
177
     2
291
     1
 71
     2
176
     0
 72
     2
176
     0
 73
     0
176
     0
 90
        0
176
     0
 40
0.6
176
     0
 41
30.0
176
     0
 63
     7
421
 16777215
176
     0
 74
     1
176
     0
 91
        4
176
     0
 64
     7
176
     0
 65
   257
176
     0
 75
     1
176
     0
175
     1
176
     0
 42
1.0
176
     0
 92
        9
176
     2
 66
     7
176
     0
 43
1.0
176
     0
 76
     1
176
     0
 77
     6
176
     0
 78
     2
176
     0
 67
     7
176
     0
 79
     5
176
     0
170
     0
176
     0
171
     0
176
     0
290
     0
176
     0
 93
        1
176
     0
 44
0.0
176
     0
173
     0
176
     0
1001
ACAD
1000
AcDbSavedByObjectVersion
1070
     0
  0
VISUALSTYLE
  5
33
102
{ACAD_XDICTIONARY
360
174
102
}
102
{ACAD_REACTORS
330
29
102
}
330
29
100
AcDbVisualStyle
  2
Realistic
 70
     8
177
     2
291
     0
 71
     2
176
     1
 72
     3
176
     1
 73
     0
176
     1
 90
        2
176
     1
 40
0.6
176
     1
 41
30.0
176
     1
 63
     7
421
 16777215
176
     1
 74
     0
176
     1
 91
        0
176
     1
 64
     7
176
     1
 65
   257
176
     1
 75
     1
176
     1
175
     1
176
     1
 42
1.0
176
     1
 92
        8
176
     1
 66
   257
176
     1
 43
1.0
176
     1
 76
     1
176
     1
 77
     6
176
     1
 78
     2
176
     1
 67
     7
176
     1
 79
     3
176
     1
170
     0
176
     1
171
     0
176
     1
290
     0
176
     1
 93
       13
176
     1
 44
0.0
176
     1
173
     0
176
     1
1001
ACAD
1000
AcDbSavedByObjectVersion
1070
     0
  0
VISUALSTYLE
  5
3E
102
{ACAD_XDICTIONARY
360
18A
102
}
102
{ACAD_REACTORS
330
29
102
}
330
29
100
AcDbVisualStyle
  2
Shaded
 70
    27
177
     2
291
     0
 71
     2
176
     1
 72
     2
176
     1
 73
     1
176
     1
 90
        2
176
     1
 40
0.6
176
     1
 41
30.0
176
     1
 63
     7
421
 16777215
176
     1
 74
     0
176
     1
 91
        4
176
     1
 64
     7
176
     1
 65
   257
176
     1
 75
     1
176
     1
175
     1
176
     1
 42
1.0
176
     1
 92
        8
176
     1
 66
   257
176
     1
 43
1.0
176
     1
 76
     1
176
     1
 77
     6
176
     1
 78
     2
176
     1
 67
     8
425
  7895160
176
     1
 79
     3
176
     1
170
     0
176
     1
171
     0
176
     1
290
     0
176
     1
 93
        5
176
     1
 44
0.0
176
     1
173
     0
176
     1
1001
ACAD
1000
AcDbSavedByObjectVersion
1070
     0
  0
VISUALSTYLE
  5
3D
102
{ACAD_XDICTIONARY
360
188
102
}
102
{ACAD_REACTORS
330
29
102
}
330
29
100
AcDbVisualStyle
  2
Shaded with edges
 70
    26
177
     2
291
     0
 71
     2
176
     1
 72
     2
176
     1
 73
     1
176
     1
 90
        2
176
     1
 40
0.6
176
     1
 41
30.0
176
     1
 63
     7
421
 16777215
176
     1
 74
     1
176
     1
 91
        2
176
     1
 64
     7
176
     1
 65
   257
176
     1
 75
     2
176
     1
175
     1
176
     1
 42
1.0
176
     1
 92
        8
176
     1
 66
   257
176
     1
 43
1.0
176
     1
 76
     1
176
     1
 77
     6
176
     1
 78
     2
176
     1
 67
     7
176
     1
 79
     3
176
     1
170
     0
176
     1
171
     0
176
     1
290
     0
176
     1
 93
        5
176
     1
 44
0.0
176
     1
173
     0
176
     1
1001
ACAD
1000
AcDbSavedByObjectVersion
1070
     0
  0
VISUALSTYLE
  5
3A
102
{ACAD_XDICTIONARY
360
182
102
}
102
{ACAD_REACTORS
330
29
102
}
330
29
100
AcDbVisualStyle
  2
Shades of Gray
 70
    23
177
     2
291
     0
 71
     2
176
     1
 72
     2
176
     1
 73
     3
176
     1
 90
        0
176
     1
 40
0.6
176
     1
 41
30.0
176
     1
 63
     7
421
 16777215
176
     1
 74
     2
176
     1
 91
        2
176
     1
 64
     7
176
     1
 65
     7
176
     1
 75
     1
176
     1
175
     1
176
     1
 42
40.0
176
     1
 92
        8
176
     1
 66
     7
176
     1
 43
1.0
176
     1
 76
     1
176
     1
 77
     6
176
     1
 78
     2
176
     1
 67
     7
176
     1
 79
     3
176
     1
170
     0
176
     1
171
     0
176
     1
290
     0
176
     1
 93
        1
176
     1
 44
0.0
176
     1
173
     0
176
     1
1001
ACAD
1000
AcDbSavedByObjectVersion
1070
     0
  0
VISUALSTYLE
  5
3B
102
{ACAD_XDICTIONARY
360
184
102
}
102
{ACAD_REACTORS
330
29
102
}
330
29
100
AcDbVisualStyle
  2
Sketchy
 70
    24
177
     2
291
     0
 71
     1
176
     1
 72
     2
176
     1
 73
     2
176
     1
 90
        0
176
     1
 40
0.6
176
     1
 41
30.0
176
     1
 63
     7
421
 16777215
176
     1
 74
     2
176
     1
 91
        2
176
     1
 64
     7
176
     1
 65
     7
176
     1
 75
     1
176
     1
175
     1
176
     1
 42
40.0
176
     1
 92
       11
176
     1
 66
     7
176
     1
 43
1.0
176
     1
 76
     1
176
     1
 77
     6
176
     1
 78
     2
176
     1
 67
     7
176
     1
 79
     6
176
     1
170
     0
176
     1
171
     0
176
     1
290
     0
176
     1
 93
        1
176
     1
 44
0.0
176
     1
173
     0
176
     1
1001
ACAD
1000
AcDbSavedByObjectVersion
1070
     0
  0
VISUALSTYLE
  5
36
102
{ACAD_XDICTIONARY
360
17A
102
}
102
{ACAD_REACTORS
330
29
102
}
330
29
100
AcDbVisualStyle
  2
Thicken
 70
    13
177
     2
291
     1
 71
     2
176
     1
 72
     2
176
     1
 73
     0
176
     1
 90
        0
176
     1
 40
0.6
176
     1
 41
30.0
176
     1
 63
     7
421
 16777215
176
     1
 74
     1
176
     1
 91
        4
176
     1
 64
     7
176
     1
 65
   257
176
     1
 75
     1
176
     1
175
     1
176
     1
 42
1.0
176
     1
 92
       12
176
     1
 66
     7
176
     1
 43
1.0
176
     1
 76
     1
176
     1
 77
     6
176
     1
 78
     2
176
     1
 67
     7
176
     1
 79
     5
176
     1
170
     0
176
     1
171
     0
176
     1
290
     0
176
     1
 93
        1
176
     1
 44
0.0
176
     1
173
     0
176
     1
1001
ACAD
1000
AcDbSavedByObjectVersion
1070
     0
  0
VISUALSTYLE
  5
30
102
{ACAD_XDICTIONARY
360
16E
102
}
102
{ACAD_REACTORS
330
29
102
}
330
29
100
AcDbVisualStyle
  2
Wireframe
 70
     5
177
     2
291
     0
 71
     0
176
     1
 72
     2
176
     1
 73
     0
176
     1
 90
        0
176
     1
 40
0.6
176
     1
 41
30.0
176
     1
 63
     7
421
 16777215
176
     1
 74
     1
176
     1
 91
        4
176
     1
 64
     7
176
     1
 65
   257
176
     1
 75
     1
176
     1
175
     1
176
     1
 42
1.0
176
     1
 92
        0
176
     1
 66
   257
176
     1
 43
1.0
176
     1
 76
     1
176
     1
 77
     6
176
     1
 78
     2
176
     1
 67
     7
176
     1
 79
     3
176
     1
170
     0
176
     1
171
     0
176
     1
290
     0
176
     1
 93
        1
176
     1
 44
0.0
176
     1
173
     0
176
     1
1001
ACAD
1000
AcDbSavedByObjectVersion
1070
     0
  0
VISUALSTYLE
  5
3C
102
{ACAD_XDICTIONARY
360
186
102
}
102
{ACAD_REACTORS
330
29
102
}
330
29
100
AcDbVisualStyle
  2
X-Ray
 70
    25
177
     2
291
     0
 71
     2
176
     1
 72
     2
176
     1
 73
     1
176
     1
 90
        1
176
     1
 40
0.5
176
     1
 41
30.0
176
     1
 63
     7
421
 16777215
176
     1
 74
     1
176
     1
 91
        0
176
     1
 64
     7
176
     1
 65
   257
176
     1
 75
     1
176
     1
175
     1
176
     1
 42
1.0
176
     1
 92
        8
176
     1
 66
     7
176
     1
 43
1.0
176
     1
 76
     1
176
     1
 77
     6
176
     1
 78
     2
176
     1
 67
     7
176
     1
 79
     3
176
     1
170
     0
176
     1
171
     0
176
     1
290
     0
176
     1
 93
       13
176
     1
 44
0.0
176
     1
173
     0
176
     1
1001
ACAD
1000
AcDbSavedByObjectVersion
1070
     0
  0
DICTIONARYVAR
  5
15E
102
{ACAD_REACTORS
330
159
102
}
330
159
100
DictionaryVariables
280
     0
  1
1:1
  0
DICTIONARYVAR
  5
15B
102
{ACAD_REACTORS
330
159
102
}
330
159
100
DictionaryVariables
280
     0
  1
STANDARD
  0
DICTIONARYVAR
  5
15A
102
{ACAD_REACTORS
330
159
102
}
330
159
100
DictionaryVariables
280
     0
  1
STANDARD
  0
DICTIONARYVAR
  5
15C
102
{ACAD_REACTORS
330
159
102
}
330
159
100
DictionaryVariables
280
     0
  1
Imperial24
  0
DICTIONARYVAR
  5
15D
102
{ACAD_REACTORS
330
159
102
}
330
159
100
DictionaryVariables
280
     0
  1
Imperial24
  0
DICTIONARY
  5
196
330
6B
100
AcDbDictionary
280
     1
281
     1
  3
ACAD_XREC_ROUNDTRIP
360
197
  0
DICTIONARY
  5
1A
330
19
100
AcDbDictionary
280
     1
281
     1
  3
BUMPTILE
360
1C
  3
DIFFUSETILE
360
1B
  3
OPACITYTILE
360
1F
  3
REFLECTIONTILE
360
1E
  3
REFRACTIONTILE
360
20
  3
SPECULARTILE
360
1D
  0
DICTIONARY
  5
12
330
11
100
AcDbDictionary
280
     1
281
     1
  3
BUMPTILE
360
14
  3
DIFFUSETILE
360
13
  3
OPACITYTILE
360
17
  3
REFLECTIONTILE
360
16
  3
REFRACTIONTILE
360
18
  3
SPECULARTILE
360
15
  0
DICTIONARY
  5
22
330
21
100
AcDbDictionary
280
     1
281
     1
  3
BUMPTILE
360
24
  3
DIFFUSETILE
360
23
  3
OPACITYTILE
360
27
  3
REFLECTIONTILE
360
26
  3
REFRACTIONTILE
360
28
  3
SPECULARTILE
360
25
  0
DICTIONARY
  5
192
330
67
100
AcDbDictionary
280
     1
281
     1
  3
ACAD_XREC_ROUNDTRIP
360
193
  0
DICTIONARY
  5
194
330
69
100
AcDbDictionary
280
     1
281
     1
  3
ACAD_XREC_ROUNDTRIP
360
195
  0
DICTIONARY
  5
15F
330
65
100
AcDbDictionary
280
     1
281
     1
  3
ACAD_ROUNDTRIP_2008_TABLESTYLE_CELLSTYLEMAP
360
160
  0
DICTIONARY
  5
16C
330
2F
100
AcDbDictionary
280
     1
281
     1
  3
ACAD_XREC_ROUNDTRIP
360
16D
  0
DICTIONARY
  5
16A
330
2E
100
AcDbDictionary
280
     1
281
     1
  3
ACAD_XREC_ROUNDTRIP
360
16B
  0
DICTIONARY
  5
178
330
35
100
AcDbDictionary
280
     1
281
     1
  3
ACAD_XREC_ROUNDTRIP
360
179
  0
DICTIONARY
  5
180
330
39
100
AcDbDictionary
280
     1
281
     1
  3
ACAD_XREC_ROUNDTRIP
360
181
  0
DICTIONARY
  5
172
330
32
100
AcDbDictionary
280
     1
281
     1
  3
ACAD_XREC_ROUNDTRIP
360
173
  0
DICTIONARY
  5
176
330
34
100
AcDbDictionary
280
     1
281
     1
  3
ACAD_XREC_ROUNDTRIP
360
177
  0
DICTIONARY
  5
190
330
41
100
AcDbDictionary
280
     1
281
     1
  3
ACAD_XREC_ROUNDTRIP
360
191
  0
DICTIONARY
  5
17E
330
38
100
AcDbDictionary
280
     1
281
     1
  3
ACAD_XREC_ROUNDTRIP
360
17F
  0
DICTIONARY
  5
162
330
2A
100
AcDbDictionary
280
     1
281
     1
  3
ACAD_XREC_ROUNDTRIP
360
163
  0
DICTIONARY
  5
164
330
2B
100
AcDbDictionary
280
     1
281
     1
  3
ACAD_XREC_ROUNDTRIP
360
165
  0
DICTIONARY
  5
166
330
2C
100
AcDbDictionary
280
     1
281
     1
  3
ACAD_XREC_ROUNDTRIP
360
167
  0
DICTIONARY
  5
168
330
2D
100
AcDbDictionary
280
     1
281
     1
  3
ACAD_XREC_ROUNDTRIP
360
169
  0
DICTIONARY
  5
170
330
31
100
AcDbDictionary
280
     1
281
     1
  3
ACAD_XREC_ROUNDTRIP
360
171
  0
DICTIONARY
  5
18C
330
3F
100
AcDbDictionary
280
     1
281
     1
  3
ACAD_XREC_ROUNDTRIP
360
18D
  0
DICTIONARY
  5
17C
330
37
100
AcDbDictionary
280
     1
281
     1
  3
ACAD_XREC_ROUNDTRIP
360
17D
  0
DICTIONARY
  5
18E
330
40
100
AcDbDictionary
280
     1
281
     1
  3
ACAD_XREC_ROUNDTRIP
360
18F
  0
DICTIONARY
  5
174
330
33
100
AcDbDictionary
280
     1
281
     1
  3
ACAD_XREC_ROUNDTRIP
360
175
  0
DICTIONARY
  5
18A
330
3E
100
AcDbDictionary
280
     1
281
     1
  3
ACAD_XREC_ROUNDTRIP
360
18B
  0
DICTIONARY
  5
188
330
3D
100
AcDbDictionary
280
     1
281
     1
  3
ACAD_XREC_ROUNDTRIP
360
189
  0
DICTIONARY
  5
182
330
3A
100
AcDbDictionary
280
     1
281
     1
  3
ACAD_XREC_ROUNDTRIP
360
183
  0
DICTIONARY
  5
184
330
3B
100
AcDbDictionary
280
     1
281
     1
  3
ACAD_XREC_ROUNDTRIP
360
185
  0
DICTIONARY
  5
17A
330
36
100
AcDbDictionary
280
     1
281
     1
  3
ACAD_XREC_ROUNDTRIP
360
17B
  0
DICTIONARY
  5
16E
330
30
100
AcDbDictionary
280
     1
281
     1
  3
ACAD_XREC_ROUNDTRIP
360
16F
  0
DICTIONARY
  5
186
330
3C
100
AcDbDictionary
280
     1
281
     1
  3
ACAD_XREC_ROUNDTRIP
360
187
  0
XRECORD
  5
197
102
{ACAD_REACTORS
330
196
102
}
330
196
100
AcDbXrecord
280
     1
102
DISPLAYNAME
  1
Imperial24
102
FLAGS
 90
        0
  0
XRECORD
  5
1C
102
{ACAD_REACTORS
330
1A
102
}
330
1A
100
AcDbXrecord
280
     1
270
     1
271
     1
  0
XRECORD
  5
1B
102
{ACAD_REACTORS
330
1A
102
}
330
1A
100
AcDbXrecord
280
     1
270
     1
271
     1
  0
XRECORD
  5
1F
102
{ACAD_REACTORS
330
1A
102
}
330
1A
100
AcDbXrecord
280
     1
270
     1
271
     1
  0
XRECORD
  5
1E
102
{ACAD_REACTORS
330
1A
102
}
330
1A
100
AcDbXrecord
280
     1
270
     1
271
     1
  0
XRECORD
  5
20
102
{ACAD_REACTORS
330
1A
102
}
330
1A
100
AcDbXrecord
280
     1
270
     1
271
     1
  0
XRECORD
  5
1D
102
{ACAD_REACTORS
330
1A
102
}
330
1A
100
AcDbXrecord
280
     1
270
     1
271
     1
  0
XRECORD
  5
14
102
{ACAD_REACTORS
330
12
102
}
330
12
100
AcDbXrecord
280
     1
270
     1
271
     1
  0
XRECORD
  5
13
102
{ACAD_REACTORS
330
12
102
}
330
12
100
AcDbXrecord
280
     1
270
     1
271
     1
  0
XRECORD
  5
17
102
{ACAD_REACTORS
330
12
102
}
330
12
100
AcDbXrecord
280
     1
270
     1
271
     1
  0
XRECORD
  5
16
102
{ACAD_REACTORS
330
12
102
}
330
12
100
AcDbXrecord
280
     1
270
     1
271
     1
  0
XRECORD
  5
18
102
{ACAD_REACTORS
330
12
102
}
330
12
100
AcDbXrecord
280
     1
270
     1
271
     1
  0
XRECORD
  5
15
102
{ACAD_REACTORS
330
12
102
}
330
12
100
AcDbXrecord
280
     1
270
     1
271
     1
  0
XRECORD
  5
24
102
{ACAD_REACTORS
330
22
102
}
330
22
100
AcDbXrecord
280
     1
270
     1
271
     1
  0
XRECORD
  5
23
102
{ACAD_REACTORS
330
22
102
}
330
22
100
AcDbXrecord
280
     1
270
     1
271
     1
  0
XRECORD
  5
27
102
{ACAD_REACTORS
330
22
102
}
330
22
100
AcDbXrecord
280
     1
270
     1
271
     1
  0
XRECORD
  5
26
102
{ACAD_REACTORS
330
22
102
}
330
22
100
AcDbXrecord
280
     1
270
     1
271
     1
  0
XRECORD
  5
28
102
{ACAD_REACTORS
330
22
102
}
330
22
100
AcDbXrecord
280
     1
270
     1
271
     1
  0
XRECORD
  5
25
102
{ACAD_REACTORS
330
22
102
}
330
22
100
AcDbXrecord
280
     1
270
     1
271
     1
  0
XRECORD
  5
193
102
{ACAD_REACTORS
330
192
102
}
330
192
100
AcDbXrecord
280
     1
102
ACAD_ROUNDTRIP_2012_MLEADER_STYLE
298
     1
  0
XRECORD
  5
195
102
{ACAD_REACTORS
330
194
102
}
330
194
100
AcDbXrecord
280
     1
102
DISPLAYNAME
  1
Imperial24
102
FLAGS
 90
        0
  0
CELLSTYLEMAP
  5
160
102
{ACAD_REACTORS
330
15F
102
}
330
15F
100
AcDbCellStyleMap
 90
        3
300
CELLSTYLE
  1
TABLEFORMAT_BEGIN
 90
        5
170
     1
 91
        0
 92
    32768
 62
   257
 93
        1
300
CONTENTFORMAT
  1
CONTENTFORMAT_BEGIN
 90
        0
 91
        0
 92
      512
 93
        0
300

 40
0.0
140
1.0
 94
        5
 62
     0
340
55
144
0.25
309
CONTENTFORMAT_END
171
     0
 94
        0
309
TABLEFORMAT_END
  1
CELLSTYLE_BEGIN
 90
        1
 91
        1
300
_TITLE
309
CELLSTYLE_END
300
CELLSTYLE
  1
TABLEFORMAT_BEGIN
 90
        5
170
     1
 91
        0
 92
        0
 62
   257
 93
        1
300
CONTENTFORMAT
  1
CONTENTFORMAT_BEGIN
 90
        0
 91
        0
 92
      512
 93
        0
300

 40
0.0
140
1.0
 94
        5
 62
     0
340
55
144
0.18
309
CONTENTFORMAT_END
171
     0
 94
        0
309
TABLEFORMAT_END
  1
CELLSTYLE_BEGIN
 90
        2
 91
        1
300
_HEADER
309
CELLSTYLE_END
300
CELLSTYLE
  1
TABLEFORMAT_BEGIN
 90
        5
170
     1
 91
        0
 92
        0
 62
   257
 93
        1
300
CONTENTFORMAT
  1
CONTENTFORMAT_BEGIN
 90
        0
 91
        0
 92
      512
 93
        0
300

 40
0.0
140
1.0
 94
        2
 62
     0
340
55
144
0.18
309
CONTENTFORMAT_END
171
     0
 94
        0
309
TABLEFORMAT_END
  1
CELLSTYLE_BEGIN
 90
        3
 91
        2
300
_DATA
309
CELLSTYLE_END
  0
XRECORD
  5
16D
102
{ACAD_REACTORS
330
16C
102
}
330
16C
100
AcDbXrecord
280
     1
102
RTVSPost2010Prop28
280
     1
102
RTVSPost2010PropOp28
 70
     1
102
RTVSPost2010Prop29
280
     1
102
RTVSPost2010PropOp29
 70
     1
102
RTVSPost2010Prop30
280
     0
102
RTVSPost2010PropOp30
 70
     1
102
RTVSPost2010Prop31
280
     0
102
RTVSPost2010PropOp31
 70
     1
102
RTVSPost2010Prop32
280
     0
102
RTVSPost2010PropOp32
 70
     1
102
RTVSPost2010Prop33
280
     0
102
RTVSPost2010PropOp33
 70
     1
102
RTVSPost2010Prop34
280
     0
102
RTVSPost2010PropOp34
 70
     1
102
RTVSPost2010Prop35
280
     0
102
RTVSPost2010PropOp35
 70
     1
102
RTVSPost2010Prop36
280
     0
102
RTVSPost2010PropOp36
 70
     1
102
RTVSPost2010Prop37
 90
       50
102
RTVSPost2010PropOp37
 70
     1
102
RTVSPost2010Prop38
140
0.0
102
RTVSPost2010PropOp38
 70
     1
102
RTVSPost2010Prop39
140
1.0
102
RTVSPost2010PropOp39
 70
     1
102
RTVSPost2010Prop40
 90
        0
102
RTVSPost2010PropOp40
 70
     1
102
RTVSPost2010Prop41ColorIndex
 90
       18
102
RTVSPost2010Prop41ColorRGB
 90
        0
102
RTVSPost2010PropOp41
 70
     1
102
RTVSPost2010Prop42
 90
       50
102
RTVSPost2010PropOp42
 70
     1
102
RTVSPost2010Prop43
 90
        3
102
RTVSPost2010PropOp43
 70
     1
102
RTVSPost2010Prop44ColorIndex
 90
        5
102
RTVSPost2010Prop44ColorRGB
 90
      255
102
RTVSPost2010PropOp44
 70
     1
102
RTVSPost2010Prop45
280
     0
102
RTVSPost2010PropOp45
 70
     1
102
RTVSPost2010Prop46
 90
       50
102
RTVSPost2010PropOp46
 70
     1
102
RTVSPost2010Prop47
 90
       50
102
RTVSPost2010PropOp47
 70
     1
102
RTVSPost2010Prop48
 90
       50
102
RTVSPost2010PropOp48
 70
     1
102
RTVSPost2010Prop49
280
     0
102
RTVSPost2010PropOp49
 70
     1
102
RTVSPost2010Prop50
 90
       50
102
RTVSPost2010PropOp50
 70
     1
102
RTVSPost2010Prop51ColorIndex
 90
      256
102
RTVSPost2010Prop51ColorRGB
 90
-16777216
102
RTVSPost2010PropOp51
 70
     0
102
RTVSPost2010Prop52
140
1.0
102
RTVSPost2010PropOp52
 70
     0
102
RTVSPost2010Prop53
 90
        2
102
RTVSPost2010PropOp53
 70
     1
102
RTVSPost2010Prop54
  1
strokes_ogs.tif
102
RTVSPost2010PropOp54
 70
     1
102
RTVSPost2010Prop55
280
     0
102
RTVSPost2010PropOp55
 70
     1
102
RTVSPost2010Prop56
140
1.0
102
RTVSPost2010PropOp56
 70
     1
102
RTVSPost2010Prop57
140
1.0
102
RTVSPost2010PropOp57
 70
     1
  0
XRECORD
  5
16B
102
{ACAD_REACTORS
330
16A
102
}
330
16A
100
AcDbXrecord
280
     1
102
RTVSPost2010Prop28
280
     0
102
RTVSPost2010PropOp28
 70
     1
102
RTVSPost2010Prop29
280
     1
102
RTVSPost2010PropOp29
 70
     1
102
RTVSPost2010Prop30
280
     1
102
RTVSPost2010PropOp30
 70
     1
102
RTVSPost2010Prop31
280
     0
102
RTVSPost2010PropOp31
 70
     1
102
RTVSPost2010Prop32
280
     0
102
RTVSPost2010PropOp32
 70
     1
102
RTVSPost2010Prop33
280
     0
102
RTVSPost2010PropOp33
 70
     1
102
RTVSPost2010Prop34
280
     0
102
RTVSPost2010PropOp34
 70
     1
102
RTVSPost2010Prop35
280
     0
102
RTVSPost2010PropOp35
 70
     1
102
RTVSPost2010Prop36
280
     0
102
RTVSPost2010PropOp36
 70
     1
102
RTVSPost2010Prop37
 90
       50
102
RTVSPost2010PropOp37
 70
     1
102
RTVSPost2010Prop38
140
0.0
102
RTVSPost2010PropOp38
 70
     1
102
RTVSPost2010Prop39
140
1.0
102
RTVSPost2010PropOp39
 70
     1
102
RTVSPost2010Prop40
 90
        0
102
RTVSPost2010PropOp40
 70
     1
102
RTVSPost2010Prop41ColorIndex
 90
       18
102
RTVSPost2010Prop41ColorRGB
 90
        0
102
RTVSPost2010PropOp41
 70
     1
102
RTVSPost2010Prop42
 90
       50
102
RTVSPost2010PropOp42
 70
     1
102
RTVSPost2010Prop43
 90
        3
102
RTVSPost2010PropOp43
 70
     1
102
RTVSPost2010Prop44ColorIndex
 90
        5
102
RTVSPost2010Prop44ColorRGB
 90
      255
102
RTVSPost2010PropOp44
 70
     1
102
RTVSPost2010Prop45
280
     0
102
RTVSPost2010PropOp45
 70
     1
102
RTVSPost2010Prop46
 90
       50
102
RTVSPost2010PropOp46
 70
     1
102
RTVSPost2010Prop47
 90
       50
102
RTVSPost2010PropOp47
 70
     1
102
RTVSPost2010Prop48
 90
       50
102
RTVSPost2010PropOp48
 70
     1
102
RTVSPost2010Prop49
280
     0
102
RTVSPost2010PropOp49
 70
     1
102
RTVSPost2010Prop50
 90
       50
102
RTVSPost2010PropOp50
 70
     1
102
RTVSPost2010Prop51ColorIndex
 90
      256
102
RTVSPost2010Prop51ColorRGB
 90
-16777216
102
RTVSPost2010PropOp51
 70
     0
102
RTVSPost2010Prop52
140
1.0
102
RTVSPost2010PropOp52
 70
     0
102
RTVSPost2010Prop53
 90
        2
102
RTVSPost2010PropOp53
 70
     1
102
RTVSPost2010Prop54
  1
strokes_ogs.tif
102
RTVSPost2010PropOp54
 70
     1
102
RTVSPost2010Prop55
280
     0
102
RTVSPost2010PropOp55
 70
     1
102
RTVSPost2010Prop56
140
1.0
102
RTVSPost2010PropOp56
 70
     1
102
RTVSPost2010Prop57
140
1.0
102
RTVSPost2010PropOp57
 70
     1
  0
XRECORD
  5
179
102
{ACAD_REACTORS
330
178
102
}
330
178
100
AcDbXrecord
280
     1
102
RTVSPost2010Prop28
280
     0
102
RTVSPost2010PropOp28
 70
     1
102
RTVSPost2010Prop29
280
     1
102
RTVSPost2010PropOp29
 70
     1
102
RTVSPost2010Prop30
280
     1
102
RTVSPost2010PropOp30
 70
     1
102
RTVSPost2010Prop31
280
     0
102
RTVSPost2010PropOp31
 70
     1
102
RTVSPost2010Prop32
280
     0
102
RTVSPost2010PropOp32
 70
     1
102
RTVSPost2010Prop33
280
     0
102
RTVSPost2010PropOp33
 70
     1
102
RTVSPost2010Prop34
280
     0
102
RTVSPost2010PropOp34
 70
     1
102
RTVSPost2010Prop35
280
     0
102
RTVSPost2010PropOp35
 70
     1
102
RTVSPost2010Prop36
280
     0
102
RTVSPost2010PropOp36
 70
     1
102
RTVSPost2010Prop37
 90
       50
102
RTVSPost2010PropOp37
 70
     1
102
RTVSPost2010Prop38
140
0.0
102
RTVSPost2010PropOp38
 70
     1
102
RTVSPost2010Prop39
140
1.0
102
RTVSPost2010PropOp39
 70
     1
102
RTVSPost2010Prop40
 90
        0
102
RTVSPost2010PropOp40
 70
     1
102
RTVSPost2010Prop41ColorIndex
 90
       18
102
RTVSPost2010Prop41ColorRGB
 90
        0
102
RTVSPost2010PropOp41
 70
     1
102
RTVSPost2010Prop42
 90
       50
102
RTVSPost2010PropOp42
 70
     1
102
RTVSPost2010Prop43
 90
        3
102
RTVSPost2010PropOp43
 70
     1
102
RTVSPost2010Prop44ColorIndex
 90
        5
102
RTVSPost2010Prop44ColorRGB
 90
      255
102
RTVSPost2010PropOp44
 70
     1
102
RTVSPost2010Prop45
280
     0
102
RTVSPost2010PropOp45
 70
     1
102
RTVSPost2010Prop46
 90
       50
102
RTVSPost2010PropOp46
 70
     1
102
RTVSPost2010Prop47
 90
       50
102
RTVSPost2010PropOp47
 70
     1
102
RTVSPost2010Prop48
 90
       50
102
RTVSPost2010PropOp48
 70
     1
102
RTVSPost2010Prop49
280
     0
102
RTVSPost2010PropOp49
 70
     1
102
RTVSPost2010Prop50
 90
       50
102
RTVSPost2010PropOp50
 70
     1
102
RTVSPost2010Prop51ColorIndex
 90
      256
102
RTVSPost2010Prop51ColorRGB
 90
-16777216
102
RTVSPost2010PropOp51
 70
     0
102
RTVSPost2010Prop52
140
1.0
102
RTVSPost2010PropOp52
 70
     0
102
RTVSPost2010Prop53
 90
        2
102
RTVSPost2010PropOp53
 70
     1
102
RTVSPost2010Prop54
  1
strokes_ogs.tif
102
RTVSPost2010PropOp54
 70
     1
102
RTVSPost2010Prop55
280
     0
102
RTVSPost2010PropOp55
 70
     1
102
RTVSPost2010Prop56
140
1.0
102
RTVSPost2010PropOp56
 70
     1
102
RTVSPost2010Prop57
140
1.0
102
RTVSPost2010PropOp57
 70
     1
  0
XRECORD
  5
181
102
{ACAD_REACTORS
330
180
102
}
330
180
100
AcDbXrecord
280
     1
102
RTVSPost2010Prop28
280
     0
102
RTVSPost2010PropOp28
 70
     1
102
RTVSPost2010Prop29
280
     1
102
RTVSPost2010PropOp29
 70
     1
102
RTVSPost2010Prop30
280
     1
102
RTVSPost2010PropOp30
 70
     1
102
RTVSPost2010Prop31
280
     0
102
RTVSPost2010PropOp31
 70
     1
102
RTVSPost2010Prop32
280
     0
102
RTVSPost2010PropOp32
 70
     1
102
RTVSPost2010Prop33
280
     0
102
RTVSPost2010PropOp33
 70
     1
102
RTVSPost2010Prop34
280
     0
102
RTVSPost2010PropOp34
 70
     1
102
RTVSPost2010Prop35
280
     0
102
RTVSPost2010PropOp35
 70
     1
102
RTVSPost2010Prop36
280
     0
102
RTVSPost2010PropOp36
 70
     1
102
RTVSPost2010Prop37
 90
       50
102
RTVSPost2010PropOp37
 70
     1
102
RTVSPost2010Prop38
140
0.0
102
RTVSPost2010PropOp38
 70
     1
102
RTVSPost2010Prop39
140
1.0
102
RTVSPost2010PropOp39
 70
     1
102
RTVSPost2010Prop40
 90
        0
102
RTVSPost2010PropOp40
 70
     1
102
RTVSPost2010Prop41ColorIndex
 90
       18
102
RTVSPost2010Prop41ColorRGB
 90
        0
102
RTVSPost2010PropOp41
 70
     1
102
RTVSPost2010Prop42
 90
       50
102
RTVSPost2010PropOp42
 70
     1
102
RTVSPost2010Prop43
 90
        3
102
RTVSPost2010PropOp43
 70
     1
102
RTVSPost2010Prop44ColorIndex
 90
        5
102
RTVSPost2010Prop44ColorRGB
 90
      255
102
RTVSPost2010PropOp44
 70
     1
102
RTVSPost2010Prop45
280
     0
102
RTVSPost2010PropOp45
 70
     1
102
RTVSPost2010Prop46
 90
       50
102
RTVSPost2010PropOp46
 70
     1
102
RTVSPost2010Prop47
 90
       50
102
RTVSPost2010PropOp47
 70
     1
102
RTVSPost2010Prop48
 90
       50
102
RTVSPost2010PropOp48
 70
     1
102
RTVSPost2010Prop49
280
     0
102
RTVSPost2010PropOp49
 70
     1
102
RTVSPost2010Prop50
 90
       50
102
RTVSPost2010PropOp50
 70
     1
102
RTVSPost2010Prop51ColorIndex
 90
      256
102
RTVSPost2010Prop51ColorRGB
 90
-16777216
102
RTVSPost2010PropOp51
 70
     0
102
RTVSPost2010Prop52
140
1.0
102
RTVSPost2010PropOp52
 70
     0
102
RTVSPost2010Prop53
 90
        2
102
RTVSPost2010PropOp53
 70
     1
102
RTVSPost2010Prop54
  1
strokes_ogs.tif
102
RTVSPost2010PropOp54
 70
     1
102
RTVSPost2010Prop55
280
     0
102
RTVSPost2010PropOp55
 70
     1
102
RTVSPost2010Prop56
140
1.0
102
RTVSPost2010PropOp56
 70
     1
102
RTVSPost2010Prop57
140
1.0
102
RTVSPost2010PropOp57
 70
     1
  0
XRECORD
  5
173
102
{ACAD_REACTORS
330
172
102
}
330
172
100
AcDbXrecord
280
     1
102
RTVSPost2010Prop28
280
     0
102
RTVSPost2010PropOp28
 70
     1
102
RTVSPost2010Prop29
280
     1
102
RTVSPost2010PropOp29
 70
     1
102
RTVSPost2010Prop30
280
     1
102
RTVSPost2010PropOp30
 70
     1
102
RTVSPost2010Prop31
280
     0
102
RTVSPost2010PropOp31
 70
     1
102
RTVSPost2010Prop32
280
     0
102
RTVSPost2010PropOp32
 70
     1
102
RTVSPost2010Prop33
280
     0
102
RTVSPost2010PropOp33
 70
     1
102
RTVSPost2010Prop34
280
     0
102
RTVSPost2010PropOp34
 70
     1
102
RTVSPost2010Prop35
280
     0
102
RTVSPost2010PropOp35
 70
     1
102
RTVSPost2010Prop36
280
     0
102
RTVSPost2010PropOp36
 70
     1
102
RTVSPost2010Prop37
 90
       50
102
RTVSPost2010PropOp37
 70
     1
102
RTVSPost2010Prop38
140
0.0
102
RTVSPost2010PropOp38
 70
     1
102
RTVSPost2010Prop39
140
1.0
102
RTVSPost2010PropOp39
 70
     1
102
RTVSPost2010Prop40
 90
        0
102
RTVSPost2010PropOp40
 70
     1
102
RTVSPost2010Prop41ColorIndex
 90
       18
102
RTVSPost2010Prop41ColorRGB
 90
        0
102
RTVSPost2010PropOp41
 70
     1
102
RTVSPost2010Prop42
 90
       50
102
RTVSPost2010PropOp42
 70
     1
102
RTVSPost2010Prop43
 90
        3
102
RTVSPost2010PropOp43
 70
     1
102
RTVSPost2010Prop44ColorIndex
 90
        5
102
RTVSPost2010Prop44ColorRGB
 90
      255
102
RTVSPost2010PropOp44
 70
     1
102
RTVSPost2010Prop45
280
     0
102
RTVSPost2010PropOp45
 70
     1
102
RTVSPost2010Prop46
 90
       50
102
RTVSPost2010PropOp46
 70
     1
102
RTVSPost2010Prop47
 90
       50
102
RTVSPost2010PropOp47
 70
     1
102
RTVSPost2010Prop48
 90
       50
102
RTVSPost2010PropOp48
 70
     1
102
RTVSPost2010Prop49
280
     0
102
RTVSPost2010PropOp49
 70
     1
102
RTVSPost2010Prop50
 90
       50
102
RTVSPost2010PropOp50
 70
     1
102
RTVSPost2010Prop51ColorIndex
 90
      256
102
RTVSPost2010Prop51ColorRGB
 90
-16777216
102
RTVSPost2010PropOp51
 70
     0
102
RTVSPost2010Prop52
140
1.0
102
RTVSPost2010PropOp52
 70
     0
102
RTVSPost2010Prop53
 90
        2
102
RTVSPost2010PropOp53
 70
     1
102
RTVSPost2010Prop54
  1
strokes_ogs.tif
102
RTVSPost2010PropOp54
 70
     1
102
RTVSPost2010Prop55
280
     0
102
RTVSPost2010PropOp55
 70
     1
102
RTVSPost2010Prop56
140
1.0
102
RTVSPost2010PropOp56
 70
     1
102
RTVSPost2010Prop57
140
1.0
102
RTVSPost2010PropOp57
 70
     1
  0
XRECORD
  5
177
102
{ACAD_REACTORS
330
176
102
}
330
176
100
AcDbXrecord
280
     1
102
RTVSPost2010Prop28
280
     0
102
RTVSPost2010PropOp28
 70
     1
102
RTVSPost2010Prop29
280
     1
102
RTVSPost2010PropOp29
 70
     1
102
RTVSPost2010Prop30
280
     1
102
RTVSPost2010PropOp30
 70
     1
102
RTVSPost2010Prop31
280
     0
102
RTVSPost2010PropOp31
 70
     1
102
RTVSPost2010Prop32
280
     0
102
RTVSPost2010PropOp32
 70
     1
102
RTVSPost2010Prop33
280
     0
102
RTVSPost2010PropOp33
 70
     1
102
RTVSPost2010Prop34
280
     0
102
RTVSPost2010PropOp34
 70
     1
102
RTVSPost2010Prop35
280
     0
102
RTVSPost2010PropOp35
 70
     1
102
RTVSPost2010Prop36
280
     0
102
RTVSPost2010PropOp36
 70
     1
102
RTVSPost2010Prop37
 90
       50
102
RTVSPost2010PropOp37
 70
     1
102
RTVSPost2010Prop38
140
0.0
102
RTVSPost2010PropOp38
 70
     1
102
RTVSPost2010Prop39
140
1.0
102
RTVSPost2010PropOp39
 70
     1
102
RTVSPost2010Prop40
 90
        0
102
RTVSPost2010PropOp40
 70
     1
102
RTVSPost2010Prop41ColorIndex
 90
       18
102
RTVSPost2010Prop41ColorRGB
 90
        0
102
RTVSPost2010PropOp41
 70
     1
102
RTVSPost2010Prop42
 90
       50
102
RTVSPost2010PropOp42
 70
     1
102
RTVSPost2010Prop43
 90
        3
102
RTVSPost2010PropOp43
 70
     1
102
RTVSPost2010Prop44ColorIndex
 90
        5
102
RTVSPost2010Prop44ColorRGB
 90
      255
102
RTVSPost2010PropOp44
 70
     1
102
RTVSPost2010Prop45
280
     0
102
RTVSPost2010PropOp45
 70
     1
102
RTVSPost2010Prop46
 90
       50
102
RTVSPost2010PropOp46
 70
     1
102
RTVSPost2010Prop47
 90
       50
102
RTVSPost2010PropOp47
 70
     1
102
RTVSPost2010Prop48
 90
       50
102
RTVSPost2010PropOp48
 70
     1
102
RTVSPost2010Prop49
280
     0
102
RTVSPost2010PropOp49
 70
     1
102
RTVSPost2010Prop50
 90
       50
102
RTVSPost2010PropOp50
 70
     1
102
RTVSPost2010Prop51ColorIndex
 90
      256
102
RTVSPost2010Prop51ColorRGB
 90
-16777216
102
RTVSPost2010PropOp51
 70
     0
102
RTVSPost2010Prop52
140
1.0
102
RTVSPost2010PropOp52
 70
     0
102
RTVSPost2010Prop53
 90
        2
102
RTVSPost2010PropOp53
 70
     1
102
RTVSPost2010Prop54
  1
strokes_ogs.tif
102
RTVSPost2010PropOp54
 70
     1
102
RTVSPost2010Prop55
280
     0
102
RTVSPost2010PropOp55
 70
     1
102
RTVSPost2010Prop56
140
1.0
102
RTVSPost2010PropOp56
 70
     1
102
RTVSPost2010Prop57
140
1.0
102
RTVSPost2010PropOp57
 70
     1
  0
XRECORD
  5
191
102
{ACAD_REACTORS
330
190
102
}
330
190
100
AcDbXrecord
280
     1
102
RTVSPost2010Prop28
280
     0
102
RTVSPost2010PropOp28
 70
     0
102
RTVSPost2010Prop29
280
     1
102
RTVSPost2010PropOp29
 70
     0
102
RTVSPost2010Prop30
280
     1
102
RTVSPost2010PropOp30
 70
     0
102
RTVSPost2010Prop31
280
     0
102
RTVSPost2010PropOp31
 70
     0
102
RTVSPost2010Prop32
280
     0
102
RTVSPost2010PropOp32
 70
     0
102
RTVSPost2010Prop33
280
     0
102
RTVSPost2010PropOp33
 70
     0
102
RTVSPost2010Prop34
280
     0
102
RTVSPost2010PropOp34
 70
     0
102
RTVSPost2010Prop35
280
     0
102
RTVSPost2010PropOp35
 70
     0
102
RTVSPost2010Prop36
280
     0
102
RTVSPost2010PropOp36
 70
     0
102
RTVSPost2010Prop37
 90
       50
102
RTVSPost2010PropOp37
 70
     0
102
RTVSPost2010Prop38
140
0.0
102
RTVSPost2010PropOp38
 70
     0
102
RTVSPost2010Prop39
140
1.0
102
RTVSPost2010PropOp39
 70
     0
102
RTVSPost2010Prop40
 90
        0
102
RTVSPost2010PropOp40
 70
     0
102
RTVSPost2010Prop41ColorIndex
 90
       18
102
RTVSPost2010Prop41ColorRGB
 90
        0
102
RTVSPost2010PropOp41
 70
     0
102
RTVSPost2010Prop42
 90
       50
102
RTVSPost2010PropOp42
 70
     0
102
RTVSPost2010Prop43
 90
        3
102
RTVSPost2010PropOp43
 70
     0
102
RTVSPost2010Prop44ColorIndex
 90
        5
102
RTVSPost2010Prop44ColorRGB
 90
      255
102
RTVSPost2010PropOp44
 70
     0
102
RTVSPost2010Prop45
280
     0
102
RTVSPost2010PropOp45
 70
     0
102
RTVSPost2010Prop46
 90
       50
102
RTVSPost2010PropOp46
 70
     0
102
RTVSPost2010Prop47
 90
       50
102
RTVSPost2010PropOp47
 70
     0
102
RTVSPost2010Prop48
 90
       50
102
RTVSPost2010PropOp48
 70
     0
102
RTVSPost2010Prop49
280
     0
102
RTVSPost2010PropOp49
 70
     0
102
RTVSPost2010Prop50
 90
       50
102
RTVSPost2010PropOp50
 70
     0
102
RTVSPost2010Prop51ColorIndex
 90
      256
102
RTVSPost2010Prop51ColorRGB
 90
-16777216
102
RTVSPost2010PropOp51
 70
     0
102
RTVSPost2010Prop52
140
1.0
102
RTVSPost2010PropOp52
 70
     0
102
RTVSPost2010Prop53
 90
        2
102
RTVSPost2010PropOp53
 70
     0
102
RTVSPost2010Prop54
  1
strokes_ogs.tif
102
RTVSPost2010PropOp54
 70
     0
102
RTVSPost2010Prop55
280
     0
102
RTVSPost2010PropOp55
 70
     0
102
RTVSPost2010Prop56
140
1.0
102
RTVSPost2010PropOp56
 70
     0
102
RTVSPost2010Prop57
140
1.0
102
RTVSPost2010PropOp57
 70
     0
  0
XRECORD
  5
17F
102
{ACAD_REACTORS
330
17E
102
}
330
17E
100
AcDbXrecord
280
     1
102
RTVSPost2010Prop28
280
     0
102
RTVSPost2010PropOp28
 70
     1
102
RTVSPost2010Prop29
280
     1
102
RTVSPost2010PropOp29
 70
     1
102
RTVSPost2010Prop30
280
     1
102
RTVSPost2010PropOp30
 70
     1
102
RTVSPost2010Prop31
280
     0
102
RTVSPost2010PropOp31
 70
     1
102
RTVSPost2010Prop32
280
     0
102
RTVSPost2010PropOp32
 70
     1
102
RTVSPost2010Prop33
280
     0
102
RTVSPost2010PropOp33
 70
     1
102
RTVSPost2010Prop34
280
     0
102
RTVSPost2010PropOp34
 70
     1
102
RTVSPost2010Prop35
280
     0
102
RTVSPost2010PropOp35
 70
     1
102
RTVSPost2010Prop36
280
     0
102
RTVSPost2010PropOp36
 70
     1
102
RTVSPost2010Prop37
 90
       50
102
RTVSPost2010PropOp37
 70
     1
102
RTVSPost2010Prop38
140
0.0
102
RTVSPost2010PropOp38
 70
     1
102
RTVSPost2010Prop39
140
1.0
102
RTVSPost2010PropOp39
 70
     1
102
RTVSPost2010Prop40
 90
        0
102
RTVSPost2010PropOp40
 70
     1
102
RTVSPost2010Prop41ColorIndex
 90
       18
102
RTVSPost2010Prop41ColorRGB
 90
        0
102
RTVSPost2010PropOp41
 70
     1
102
RTVSPost2010Prop42
 90
       50
102
RTVSPost2010PropOp42
 70
     1
102
RTVSPost2010Prop43
 90
        3
102
RTVSPost2010PropOp43
 70
     1
102
RTVSPost2010Prop44ColorIndex
 90
        5
102
RTVSPost2010Prop44ColorRGB
 90
      255
102
RTVSPost2010PropOp44
 70
     1
102
RTVSPost2010Prop45
280
     0
102
RTVSPost2010PropOp45
 70
     1
102
RTVSPost2010Prop46
 90
       50
102
RTVSPost2010PropOp46
 70
     1
102
RTVSPost2010Prop47
 90
       50
102
RTVSPost2010PropOp47
 70
     1
102
RTVSPost2010Prop48
 90
       50
102
RTVSPost2010PropOp48
 70
     1
102
RTVSPost2010Prop49
280
     0
102
RTVSPost2010PropOp49
 70
     1
102
RTVSPost2010Prop50
 90
       50
102
RTVSPost2010PropOp50
 70
     1
102
RTVSPost2010Prop51ColorIndex
 90
      256
102
RTVSPost2010Prop51ColorRGB
 90
-16777216
102
RTVSPost2010PropOp51
 70
     0
102
RTVSPost2010Prop52
140
1.0
102
RTVSPost2010PropOp52
 70
     0
102
RTVSPost2010Prop53
 90
        2
102
RTVSPost2010PropOp53
 70
     1
102
RTVSPost2010Prop54
  1
strokes_ogs.tif
102
RTVSPost2010PropOp54
 70
     1
102
RTVSPost2010Prop55
280
     0
102
RTVSPost2010PropOp55
 70
     1
102
RTVSPost2010Prop56
140
1.0
102
RTVSPost2010PropOp56
 70
     1
102
RTVSPost2010Prop57
140
1.0
102
RTVSPost2010PropOp57
 70
     1
  0
XRECORD
  5
163
102
{ACAD_REACTORS
330
162
102
}
330
162
100
AcDbXrecord
280
     1
102
RTVSPost2010Prop28
280
     0
102
RTVSPost2010PropOp28
 70
     1
102
RTVSPost2010Prop29
280
     1
102
RTVSPost2010PropOp29
 70
     1
102
RTVSPost2010Prop30
280
     1
102
RTVSPost2010PropOp30
 70
     1
102
RTVSPost2010Prop31
280
     0
102
RTVSPost2010PropOp31
 70
     1
102
RTVSPost2010Prop32
280
     0
102
RTVSPost2010PropOp32
 70
     1
102
RTVSPost2010Prop33
280
     0
102
RTVSPost2010PropOp33
 70
     1
102
RTVSPost2010Prop34
280
     0
102
RTVSPost2010PropOp34
 70
     1
102
RTVSPost2010Prop35
280
     0
102
RTVSPost2010PropOp35
 70
     1
102
RTVSPost2010Prop36
280
     0
102
RTVSPost2010PropOp36
 70
     1
102
RTVSPost2010Prop37
 90
       50
102
RTVSPost2010PropOp37
 70
     1
102
RTVSPost2010Prop38
140
0.0
102
RTVSPost2010PropOp38
 70
     1
102
RTVSPost2010Prop39
140
1.0
102
RTVSPost2010PropOp39
 70
     1
102
RTVSPost2010Prop40
 90
        0
102
RTVSPost2010PropOp40
 70
     1
102
RTVSPost2010Prop41ColorIndex
 90
       18
102
RTVSPost2010Prop41ColorRGB
 90
        0
102
RTVSPost2010PropOp41
 70
     1
102
RTVSPost2010Prop42
 90
       50
102
RTVSPost2010PropOp42
 70
     1
102
RTVSPost2010Prop43
 90
        3
102
RTVSPost2010PropOp43
 70
     1
102
RTVSPost2010Prop44ColorIndex
 90
        5
102
RTVSPost2010Prop44ColorRGB
 90
      255
102
RTVSPost2010PropOp44
 70
     1
102
RTVSPost2010Prop45
280
     0
102
RTVSPost2010PropOp45
 70
     1
102
RTVSPost2010Prop46
 90
       50
102
RTVSPost2010PropOp46
 70
     1
102
RTVSPost2010Prop47
 90
       50
102
RTVSPost2010PropOp47
 70
     1
102
RTVSPost2010Prop48
 90
       50
102
RTVSPost2010PropOp48
 70
     1
102
RTVSPost2010Prop49
280
     0
102
RTVSPost2010PropOp49
 70
     1
102
RTVSPost2010Prop50
 90
       50
102
RTVSPost2010PropOp50
 70
     1
102
RTVSPost2010Prop51ColorIndex
 90
      256
102
RTVSPost2010Prop51ColorRGB
 90
-16777216
102
RTVSPost2010PropOp51
 70
     0
102
RTVSPost2010Prop52
140
1.0
102
RTVSPost2010PropOp52
 70
     0
102
RTVSPost2010Prop53
 90
        2
102
RTVSPost2010PropOp53
 70
     1
102
RTVSPost2010Prop54
  1
strokes_ogs.tif
102
RTVSPost2010PropOp54
 70
     1
102
RTVSPost2010Prop55
280
     0
102
RTVSPost2010PropOp55
 70
     1
102
RTVSPost2010Prop56
140
1.0
102
RTVSPost2010PropOp56
 70
     1
102
RTVSPost2010Prop57
140
1.0
102
RTVSPost2010PropOp57
 70
     1
  0
XRECORD
  5
165
102
{ACAD_REACTORS
330
164
102
}
330
164
100
AcDbXrecord
280
     1
102
RTVSPost2010Prop28
280
     0
102
RTVSPost2010PropOp28
 70
     1
102
RTVSPost2010Prop29
280
     1
102
RTVSPost2010PropOp29
 70
     1
102
RTVSPost2010Prop30
280
     1
102
RTVSPost2010PropOp30
 70
     1
102
RTVSPost2010Prop31
280
     0
102
RTVSPost2010PropOp31
 70
     1
102
RTVSPost2010Prop32
280
     0
102
RTVSPost2010PropOp32
 70
     1
102
RTVSPost2010Prop33
280
     0
102
RTVSPost2010PropOp33
 70
     1
102
RTVSPost2010Prop34
280
     0
102
RTVSPost2010PropOp34
 70
     1
102
RTVSPost2010Prop35
280
     0
102
RTVSPost2010PropOp35
 70
     1
102
RTVSPost2010Prop36
280
     0
102
RTVSPost2010PropOp36
 70
     1
102
RTVSPost2010Prop37
 90
       50
102
RTVSPost2010PropOp37
 70
     1
102
RTVSPost2010Prop38
140
0.0
102
RTVSPost2010PropOp38
 70
     1
102
RTVSPost2010Prop39
140
1.0
102
RTVSPost2010PropOp39
 70
     1
102
RTVSPost2010Prop40
 90
        0
102
RTVSPost2010PropOp40
 70
     1
102
RTVSPost2010Prop41ColorIndex
 90
       18
102
RTVSPost2010Prop41ColorRGB
 90
        0
102
RTVSPost2010PropOp41
 70
     1
102
RTVSPost2010Prop42
 90
       50
102
RTVSPost2010PropOp42
 70
     1
102
RTVSPost2010Prop43
 90
        3
102
RTVSPost2010PropOp43
 70
     1
102
RTVSPost2010Prop44ColorIndex
 90
        5
102
RTVSPost2010Prop44ColorRGB
 90
      255
102
RTVSPost2010PropOp44
 70
     1
102
RTVSPost2010Prop45
280
     0
102
RTVSPost2010PropOp45
 70
     1
102
RTVSPost2010Prop46
 90
       50
102
RTVSPost2010PropOp46
 70
     1
102
RTVSPost2010Prop47
 90
       50
102
RTVSPost2010PropOp47
 70
     1
102
RTVSPost2010Prop48
 90
       50
102
RTVSPost2010PropOp48
 70
     1
102
RTVSPost2010Prop49
280
     0
102
RTVSPost2010PropOp49
 70
     1
102
RTVSPost2010Prop50
 90
       50
102
RTVSPost2010PropOp50
 70
     1
102
RTVSPost2010Prop51ColorIndex
 90
      256
102
RTVSPost2010Prop51ColorRGB
 90
-16777216
102
RTVSPost2010PropOp51
 70
     0
102
RTVSPost2010Prop52
140
1.0
102
RTVSPost2010PropOp52
 70
     0
102
RTVSPost2010Prop53
 90
        2
102
RTVSPost2010PropOp53
 70
     1
102
RTVSPost2010Prop54
  1
strokes_ogs.tif
102
RTVSPost2010PropOp54
 70
     1
102
RTVSPost2010Prop55
280
     0
102
RTVSPost2010PropOp55
 70
     1
102
RTVSPost2010Prop56
140
1.0
102
RTVSPost2010PropOp56
 70
     1
102
RTVSPost2010Prop57
140
1.0
102
RTVSPost2010PropOp57
 70
     1
  0
XRECORD
  5
167
102
{ACAD_REACTORS
330
166
102
}
330
166
100
AcDbXrecord
280
     1
102
RTVSPost2010Prop28
280
     0
102
RTVSPost2010PropOp28
 70
     1
102
RTVSPost2010Prop29
280
     1
102
RTVSPost2010PropOp29
 70
     1
102
RTVSPost2010Prop30
280
     1
102
RTVSPost2010PropOp30
 70
     1
102
RTVSPost2010Prop31
280
     0
102
RTVSPost2010PropOp31
 70
     1
102
RTVSPost2010Prop32
280
     0
102
RTVSPost2010PropOp32
 70
     1
102
RTVSPost2010Prop33
280
     0
102
RTVSPost2010PropOp33
 70
     1
102
RTVSPost2010Prop34
280
     0
102
RTVSPost2010PropOp34
 70
     1
102
RTVSPost2010Prop35
280
     0
102
RTVSPost2010PropOp35
 70
     1
102
RTVSPost2010Prop36
280
     0
102
RTVSPost2010PropOp36
 70
     1
102
RTVSPost2010Prop37
 90
       50
102
RTVSPost2010PropOp37
 70
     1
102
RTVSPost2010Prop38
140
0.0
102
RTVSPost2010PropOp38
 70
     1
102
RTVSPost2010Prop39
140
1.0
102
RTVSPost2010PropOp39
 70
     1
102
RTVSPost2010Prop40
 90
        0
102
RTVSPost2010PropOp40
 70
     1
102
RTVSPost2010Prop41ColorIndex
 90
       18
102
RTVSPost2010Prop41ColorRGB
 90
        0
102
RTVSPost2010PropOp41
 70
     1
102
RTVSPost2010Prop42
 90
       50
102
RTVSPost2010PropOp42
 70
     1
102
RTVSPost2010Prop43
 90
        3
102
RTVSPost2010PropOp43
 70
     1
102
RTVSPost2010Prop44ColorIndex
 90
        5
102
RTVSPost2010Prop44ColorRGB
 90
      255
102
RTVSPost2010PropOp44
 70
     1
102
RTVSPost2010Prop45
280
     0
102
RTVSPost2010PropOp45
 70
     1
102
RTVSPost2010Prop46
 90
       50
102
RTVSPost2010PropOp46
 70
     1
102
RTVSPost2010Prop47
 90
       50
102
RTVSPost2010PropOp47
 70
     1
102
RTVSPost2010Prop48
 90
       50
102
RTVSPost2010PropOp48
 70
     1
102
RTVSPost2010Prop49
280
     0
102
RTVSPost2010PropOp49
 70
     1
102
RTVSPost2010Prop50
 90
       50
102
RTVSPost2010PropOp50
 70
     1
102
RTVSPost2010Prop51ColorIndex
 90
      256
102
RTVSPost2010Prop51ColorRGB
 90
-16777216
102
RTVSPost2010PropOp51
 70
     0
102
RTVSPost2010Prop52
140
1.0
102
RTVSPost2010PropOp52
 70
     0
102
RTVSPost2010Prop53
 90
        2
102
RTVSPost2010PropOp53
 70
     1
102
RTVSPost2010Prop54
  1
strokes_ogs.tif
102
RTVSPost2010PropOp54
 70
     1
102
RTVSPost2010Prop55
280
     0
102
RTVSPost2010PropOp55
 70
     1
102
RTVSPost2010Prop56
140
1.0
102
RTVSPost2010PropOp56
 70
     1
102
RTVSPost2010Prop57
140
1.0
102
RTVSPost2010PropOp57
 70
     1
  0
XRECORD
  5
169
102
{ACAD_REACTORS
330
168
102
}
330
168
100
AcDbXrecord
280
     1
102
RTVSPost2010Prop28
280
     0
102
RTVSPost2010PropOp28
 70
     1
102
RTVSPost2010Prop29
280
     1
102
RTVSPost2010PropOp29
 70
     1
102
RTVSPost2010Prop30
280
     1
102
RTVSPost2010PropOp30
 70
     1
102
RTVSPost2010Prop31
280
     0
102
RTVSPost2010PropOp31
 70
     1
102
RTVSPost2010Prop32
280
     0
102
RTVSPost2010PropOp32
 70
     1
102
RTVSPost2010Prop33
280
     0
102
RTVSPost2010PropOp33
 70
     1
102
RTVSPost2010Prop34
280
     0
102
RTVSPost2010PropOp34
 70
     1
102
RTVSPost2010Prop35
280
     0
102
RTVSPost2010PropOp35
 70
     1
102
RTVSPost2010Prop36
280
     0
102
RTVSPost2010PropOp36
 70
     1
102
RTVSPost2010Prop37
 90
       50
102
RTVSPost2010PropOp37
 70
     1
102
RTVSPost2010Prop38
140
0.0
102
RTVSPost2010PropOp38
 70
     1
102
RTVSPost2010Prop39
140
1.0
102
RTVSPost2010PropOp39
 70
     1
102
RTVSPost2010Prop40
 90
        0
102
RTVSPost2010PropOp40
 70
     1
102
RTVSPost2010Prop41ColorIndex
 90
       18
102
RTVSPost2010Prop41ColorRGB
 90
        0
102
RTVSPost2010PropOp41
 70
     1
102
RTVSPost2010Prop42
 90
       50
102
RTVSPost2010PropOp42
 70
     1
102
RTVSPost2010Prop43
 90
        3
102
RTVSPost2010PropOp43
 70
     1
102
RTVSPost2010Prop44ColorIndex
 90
        5
102
RTVSPost2010Prop44ColorRGB
 90
      255
102
RTVSPost2010PropOp44
 70
     1
102
RTVSPost2010Prop45
280
     0
102
RTVSPost2010PropOp45
 70
     1
102
RTVSPost2010Prop46
 90
       50
102
RTVSPost2010PropOp46
 70
     1
102
RTVSPost2010Prop47
 90
       50
102
RTVSPost2010PropOp47
 70
     1
102
RTVSPost2010Prop48
 90
       50
102
RTVSPost2010PropOp48
 70
     1
102
RTVSPost2010Prop49
280
     0
102
RTVSPost2010PropOp49
 70
     1
102
RTVSPost2010Prop50
 90
       50
102
RTVSPost2010PropOp50
 70
     1
102
RTVSPost2010Prop51ColorIndex
 90
      256
102
RTVSPost2010Prop51ColorRGB
 90
-16777216
102
RTVSPost2010PropOp51
 70
     0
102
RTVSPost2010Prop52
140
1.0
102
RTVSPost2010PropOp52
 70
     0
102
RTVSPost2010Prop53
 90
        2
102
RTVSPost2010PropOp53
 70
     1
102
RTVSPost2010Prop54
  1
strokes_ogs.tif
102
RTVSPost2010PropOp54
 70
     1
102
RTVSPost2010Prop55
280
     0
102
RTVSPost2010PropOp55
 70
     1
102
RTVSPost2010Prop56
140
1.0
102
RTVSPost2010PropOp56
 70
     1
102
RTVSPost2010Prop57
140
1.0
102
RTVSPost2010PropOp57
 70
     1
  0
XRECORD
  5
171
102
{ACAD_REACTORS
330
170
102
}
330
170
100
AcDbXrecord
280
     1
102
RTVSPost2010Prop28
280
     0
102
RTVSPost2010PropOp28
 70
     1
102
RTVSPost2010Prop29
280
     1
102
RTVSPost2010PropOp29
 70
     1
102
RTVSPost2010Prop30
280
     1
102
RTVSPost2010PropOp30
 70
     1
102
RTVSPost2010Prop31
280
     0
102
RTVSPost2010PropOp31
 70
     1
102
RTVSPost2010Prop32
280
     0
102
RTVSPost2010PropOp32
 70
     1
102
RTVSPost2010Prop33
280
     0
102
RTVSPost2010PropOp33
 70
     1
102
RTVSPost2010Prop34
280
     0
102
RTVSPost2010PropOp34
 70
     1
102
RTVSPost2010Prop35
280
     0
102
RTVSPost2010PropOp35
 70
     1
102
RTVSPost2010Prop36
280
     0
102
RTVSPost2010PropOp36
 70
     1
102
RTVSPost2010Prop37
 90
       50
102
RTVSPost2010PropOp37
 70
     1
102
RTVSPost2010Prop38
140
0.0
102
RTVSPost2010PropOp38
 70
     1
102
RTVSPost2010Prop39
140
1.0
102
RTVSPost2010PropOp39
 70
     1
102
RTVSPost2010Prop40
 90
        0
102
RTVSPost2010PropOp40
 70
     1
102
RTVSPost2010Prop41ColorIndex
 90
       18
102
RTVSPost2010Prop41ColorRGB
 90
        0
102
RTVSPost2010PropOp41
 70
     1
102
RTVSPost2010Prop42
 90
       50
102
RTVSPost2010PropOp42
 70
     1
102
RTVSPost2010Prop43
 90
        3
102
RTVSPost2010PropOp43
 70
     1
102
RTVSPost2010Prop44ColorIndex
 90
        5
102
RTVSPost2010Prop44ColorRGB
 90
      255
102
RTVSPost2010PropOp44
 70
     1
102
RTVSPost2010Prop45
280
     0
102
RTVSPost2010PropOp45
 70
     1
102
RTVSPost2010Prop46
 90
       50
102
RTVSPost2010PropOp46
 70
     1
102
RTVSPost2010Prop47
 90
       50
102
RTVSPost2010PropOp47
 70
     1
102
RTVSPost2010Prop48
 90
       50
102
RTVSPost2010PropOp48
 70
     1
102
RTVSPost2010Prop49
280
     0
102
RTVSPost2010PropOp49
 70
     1
102
RTVSPost2010Prop50
 90
       50
102
RTVSPost2010PropOp50
 70
     1
102
RTVSPost2010Prop51ColorIndex
 90
      256
102
RTVSPost2010Prop51ColorRGB
 90
-16777216
102
RTVSPost2010PropOp51
 70
     0
102
RTVSPost2010Prop52
140
1.0
102
RTVSPost2010PropOp52
 70
     0
102
RTVSPost2010Prop53
 90
        2
102
RTVSPost2010PropOp53
 70
     1
102
RTVSPost2010Prop54
  1
strokes_ogs.tif
102
RTVSPost2010PropOp54
 70
     1
102
RTVSPost2010Prop55
280
     0
102
RTVSPost2010PropOp55
 70
     1
102
RTVSPost2010Prop56
140
1.0
102
RTVSPost2010PropOp56
 70
     1
102
RTVSPost2010Prop57
140
1.0
102
RTVSPost2010PropOp57
 70
     1
  0
XRECORD
  5
18D
102
{ACAD_REACTORS
330
18C
102
}
330
18C
100
AcDbXrecord
280
     1
102
RTVSPost2010Prop28
280
     0
102
RTVSPost2010PropOp28
 70
     0
102
RTVSPost2010Prop29
280
     1
102
RTVSPost2010PropOp29
 70
     0
102
RTVSPost2010Prop30
280
     1
102
RTVSPost2010PropOp30
 70
     0
102
RTVSPost2010Prop31
280
     0
102
RTVSPost2010PropOp31
 70
     0
102
RTVSPost2010Prop32
280
     0
102
RTVSPost2010PropOp32
 70
     0
102
RTVSPost2010Prop33
280
     0
102
RTVSPost2010PropOp33
 70
     0
102
RTVSPost2010Prop34
280
     0
102
RTVSPost2010PropOp34
 70
     0
102
RTVSPost2010Prop35
280
     0
102
RTVSPost2010PropOp35
 70
     0
102
RTVSPost2010Prop36
280
     0
102
RTVSPost2010PropOp36
 70
     0
102
RTVSPost2010Prop37
 90
       50
102
RTVSPost2010PropOp37
 70
     0
102
RTVSPost2010Prop38
140
0.0
102
RTVSPost2010PropOp38
 70
     0
102
RTVSPost2010Prop39
140
1.0
102
RTVSPost2010PropOp39
 70
     0
102
RTVSPost2010Prop40
 90
        0
102
RTVSPost2010PropOp40
 70
     0
102
RTVSPost2010Prop41ColorIndex
 90
       18
102
RTVSPost2010Prop41ColorRGB
 90
        0
102
RTVSPost2010PropOp41
 70
     0
102
RTVSPost2010Prop42
 90
       50
102
RTVSPost2010PropOp42
 70
     0
102
RTVSPost2010Prop43
 90
        3
102
RTVSPost2010PropOp43
 70
     0
102
RTVSPost2010Prop44ColorIndex
 90
        5
102
RTVSPost2010Prop44ColorRGB
 90
      255
102
RTVSPost2010PropOp44
 70
     0
102
RTVSPost2010Prop45
280
     0
102
RTVSPost2010PropOp45
 70
     0
102
RTVSPost2010Prop46
 90
       50
102
RTVSPost2010PropOp46
 70
     0
102
RTVSPost2010Prop47
 90
       50
102
RTVSPost2010PropOp47
 70
     0
102
RTVSPost2010Prop48
 90
       50
102
RTVSPost2010PropOp48
 70
     0
102
RTVSPost2010Prop49
280
     0
102
RTVSPost2010PropOp49
 70
     0
102
RTVSPost2010Prop50
 90
       50
102
RTVSPost2010PropOp50
 70
     0
102
RTVSPost2010Prop51ColorIndex
 90
      256
102
RTVSPost2010Prop51ColorRGB
 90
-16777216
102
RTVSPost2010PropOp51
 70
     0
102
RTVSPost2010Prop52
140
1.0
102
RTVSPost2010PropOp52
 70
     0
102
RTVSPost2010Prop53
 90
        2
102
RTVSPost2010PropOp53
 70
     0
102
RTVSPost2010Prop54
  1
strokes_ogs.tif
102
RTVSPost2010PropOp54
 70
     0
102
RTVSPost2010Prop55
280
     0
102
RTVSPost2010PropOp55
 70
     0
102
RTVSPost2010Prop56
140
1.0
102
RTVSPost2010PropOp56
 70
     0
102
RTVSPost2010Prop57
140
1.0
102
RTVSPost2010PropOp57
 70
     0
  0
XRECORD
  5
17D
102
{ACAD_REACTORS
330
17C
102
}
330
17C
100
AcDbXrecord
280
     1
102
RTVSPost2010Prop28
280
     0
102
RTVSPost2010PropOp28
 70
     1
102
RTVSPost2010Prop29
280
     1
102
RTVSPost2010PropOp29
 70
     1
102
RTVSPost2010Prop30
280
     1
102
RTVSPost2010PropOp30
 70
     1
102
RTVSPost2010Prop31
280
     0
102
RTVSPost2010PropOp31
 70
     1
102
RTVSPost2010Prop32
280
     0
102
RTVSPost2010PropOp32
 70
     1
102
RTVSPost2010Prop33
280
     0
102
RTVSPost2010PropOp33
 70
     1
102
RTVSPost2010Prop34
280
     0
102
RTVSPost2010PropOp34
 70
     1
102
RTVSPost2010Prop35
280
     0
102
RTVSPost2010PropOp35
 70
     1
102
RTVSPost2010Prop36
280
     0
102
RTVSPost2010PropOp36
 70
     1
102
RTVSPost2010Prop37
 90
       50
102
RTVSPost2010PropOp37
 70
     1
102
RTVSPost2010Prop38
140
0.0
102
RTVSPost2010PropOp38
 70
     1
102
RTVSPost2010Prop39
140
1.0
102
RTVSPost2010PropOp39
 70
     1
102
RTVSPost2010Prop40
 90
        0
102
RTVSPost2010PropOp40
 70
     1
102
RTVSPost2010Prop41ColorIndex
 90
       18
102
RTVSPost2010Prop41ColorRGB
 90
        0
102
RTVSPost2010PropOp41
 70
     1
102
RTVSPost2010Prop42
 90
       50
102
RTVSPost2010PropOp42
 70
     1
102
RTVSPost2010Prop43
 90
        3
102
RTVSPost2010PropOp43
 70
     1
102
RTVSPost2010Prop44ColorIndex
 90
        5
102
RTVSPost2010Prop44ColorRGB
 90
      255
102
RTVSPost2010PropOp44
 70
     1
102
RTVSPost2010Prop45
280
     0
102
RTVSPost2010PropOp45
 70
     1
102
RTVSPost2010Prop46
 90
       50
102
RTVSPost2010PropOp46
 70
     1
102
RTVSPost2010Prop47
 90
       50
102
RTVSPost2010PropOp47
 70
     1
102
RTVSPost2010Prop48
 90
       50
102
RTVSPost2010PropOp48
 70
     1
102
RTVSPost2010Prop49
280
     0
102
RTVSPost2010PropOp49
 70
     1
102
RTVSPost2010Prop50
 90
       50
102
RTVSPost2010PropOp50
 70
     1
102
RTVSPost2010Prop51ColorIndex
 90
      256
102
RTVSPost2010Prop51ColorRGB
 90
-16777216
102
RTVSPost2010PropOp51
 70
     0
102
RTVSPost2010Prop52
140
1.0
102
RTVSPost2010PropOp52
 70
     0
102
RTVSPost2010Prop53
 90
        2
102
RTVSPost2010PropOp53
 70
     1
102
RTVSPost2010Prop54
  1
strokes_ogs.tif
102
RTVSPost2010PropOp54
 70
     1
102
RTVSPost2010Prop55
280
     0
102
RTVSPost2010PropOp55
 70
     1
102
RTVSPost2010Prop56
140
1.0
102
RTVSPost2010PropOp56
 70
     1
102
RTVSPost2010Prop57
140
1.0
102
RTVSPost2010PropOp57
 70
     1
  0
XRECORD
  5
18F
102
{ACAD_REACTORS
330
18E
102
}
330
18E
100
AcDbXrecord
280
     1
102
RTVSPost2010Prop28
280
     0
102
RTVSPost2010PropOp28
 70
     0
102
RTVSPost2010Prop29
280
     1
102
RTVSPost2010PropOp29
 70
     0
102
RTVSPost2010Prop30
280
     1
102
RTVSPost2010PropOp30
 70
     0
102
RTVSPost2010Prop31
280
     0
102
RTVSPost2010PropOp31
 70
     0
102
RTVSPost2010Prop32
280
     0
102
RTVSPost2010PropOp32
 70
     0
102
RTVSPost2010Prop33
280
     0
102
RTVSPost2010PropOp33
 70
     0
102
RTVSPost2010Prop34
280
     0
102
RTVSPost2010PropOp34
 70
     0
102
RTVSPost2010Prop35
280
     0
102
RTVSPost2010PropOp35
 70
     0
102
RTVSPost2010Prop36
280
     0
102
RTVSPost2010PropOp36
 70
     0
102
RTVSPost2010Prop37
 90
       50
102
RTVSPost2010PropOp37
 70
     0
102
RTVSPost2010Prop38
140
0.0
102
RTVSPost2010PropOp38
 70
     0
102
RTVSPost2010Prop39
140
1.0
102
RTVSPost2010PropOp39
 70
     0
102
RTVSPost2010Prop40
 90
        0
102
RTVSPost2010PropOp40
 70
     0
102
RTVSPost2010Prop41ColorIndex
 90
       18
102
RTVSPost2010Prop41ColorRGB
 90
        0
102
RTVSPost2010PropOp41
 70
     0
102
RTVSPost2010Prop42
 90
       50
102
RTVSPost2010PropOp42
 70
     0
102
RTVSPost2010Prop43
 90
        3
102
RTVSPost2010PropOp43
 70
     0
102
RTVSPost2010Prop44ColorIndex
 90
        5
102
RTVSPost2010Prop44ColorRGB
 90
      255
102
RTVSPost2010PropOp44
 70
     0
102
RTVSPost2010Prop45
280
     0
102
RTVSPost2010PropOp45
 70
     0
102
RTVSPost2010Prop46
 90
       50
102
RTVSPost2010PropOp46
 70
     0
102
RTVSPost2010Prop47
 90
       50
102
RTVSPost2010PropOp47
 70
     0
102
RTVSPost2010Prop48
 90
       50
102
RTVSPost2010PropOp48
 70
     0
102
RTVSPost2010Prop49
280
     0
102
RTVSPost2010PropOp49
 70
     0
102
RTVSPost2010Prop50
 90
       50
102
RTVSPost2010PropOp50
 70
     0
102
RTVSPost2010Prop51ColorIndex
 90
      256
102
RTVSPost2010Prop51ColorRGB
 90
-16777216
102
RTVSPost2010PropOp51
 70
     0
102
RTVSPost2010Prop52
140
1.0
102
RTVSPost2010PropOp52
 70
     0
102
RTVSPost2010Prop53
 90
        2
102
RTVSPost2010PropOp53
 70
     0
102
RTVSPost2010Prop54
  1
strokes_ogs.tif
102
RTVSPost2010PropOp54
 70
     0
102
RTVSPost2010Prop55
280
     0
102
RTVSPost2010PropOp55
 70
     0
102
RTVSPost2010Prop56
140
1.0
102
RTVSPost2010PropOp56
 70
     0
102
RTVSPost2010Prop57
140
1.0
102
RTVSPost2010PropOp57
 70
     0
  0
XRECORD
  5
175
102
{ACAD_REACTORS
330
174
102
}
330
174
100
AcDbXrecord
280
     1
102
RTVSPost2010Prop28
280
     0
102
RTVSPost2010PropOp28
 70
     1
102
RTVSPost2010Prop29
280
     1
102
RTVSPost2010PropOp29
 70
     1
102
RTVSPost2010Prop30
280
     1
102
RTVSPost2010PropOp30
 70
     1
102
RTVSPost2010Prop31
280
     0
102
RTVSPost2010PropOp31
 70
     1
102
RTVSPost2010Prop32
280
     0
102
RTVSPost2010PropOp32
 70
     1
102
RTVSPost2010Prop33
280
     0
102
RTVSPost2010PropOp33
 70
     1
102
RTVSPost2010Prop34
280
     0
102
RTVSPost2010PropOp34
 70
     1
102
RTVSPost2010Prop35
280
     0
102
RTVSPost2010PropOp35
 70
     1
102
RTVSPost2010Prop36
280
     0
102
RTVSPost2010PropOp36
 70
     1
102
RTVSPost2010Prop37
 90
       50
102
RTVSPost2010PropOp37
 70
     1
102
RTVSPost2010Prop38
140
0.0
102
RTVSPost2010PropOp38
 70
     1
102
RTVSPost2010Prop39
140
1.0
102
RTVSPost2010PropOp39
 70
     1
102
RTVSPost2010Prop40
 90
        0
102
RTVSPost2010PropOp40
 70
     1
102
RTVSPost2010Prop41ColorIndex
 90
       18
102
RTVSPost2010Prop41ColorRGB
 90
        0
102
RTVSPost2010PropOp41
 70
     1
102
RTVSPost2010Prop42
 90
       50
102
RTVSPost2010PropOp42
 70
     1
102
RTVSPost2010Prop43
 90
        3
102
RTVSPost2010PropOp43
 70
     1
102
RTVSPost2010Prop44ColorIndex
 90
        5
102
RTVSPost2010Prop44ColorRGB
 90
      255
102
RTVSPost2010PropOp44
 70
     1
102
RTVSPost2010Prop45
280
     0
102
RTVSPost2010PropOp45
 70
     1
102
RTVSPost2010Prop46
 90
       50
102
RTVSPost2010PropOp46
 70
     1
102
RTVSPost2010Prop47
 90
       50
102
RTVSPost2010PropOp47
 70
     1
102
RTVSPost2010Prop48
 90
       50
102
RTVSPost2010PropOp48
 70
     1
102
RTVSPost2010Prop49
280
     0
102
RTVSPost2010PropOp49
 70
     1
102
RTVSPost2010Prop50
 90
       50
102
RTVSPost2010PropOp50
 70
     1
102
RTVSPost2010Prop51ColorIndex
 90
      256
102
RTVSPost2010Prop51ColorRGB
 90
-16777216
102
RTVSPost2010PropOp51
 70
     0
102
RTVSPost2010Prop52
140
1.0
102
RTVSPost2010PropOp52
 70
     0
102
RTVSPost2010Prop53
 90
        2
102
RTVSPost2010PropOp53
 70
     1
102
RTVSPost2010Prop54
  1
strokes_ogs.tif
102
RTVSPost2010PropOp54
 70
     1
102
RTVSPost2010Prop55
280
     0
102
RTVSPost2010PropOp55
 70
     1
102
RTVSPost2010Prop56
140
1.0
102
RTVSPost2010PropOp56
 70
     1
102
RTVSPost2010Prop57
140
1.0
102
RTVSPost2010PropOp57
 70
     1
  0
XRECORD
  5
18B
102
{ACAD_REACTORS
330
18A
102
}
330
18A
100
AcDbXrecord
280
     1
102
RTVSPost2010Prop28
280
     0
102
RTVSPost2010PropOp28
 70
     1
102
RTVSPost2010Prop29
280
     1
102
RTVSPost2010PropOp29
 70
     1
102
RTVSPost2010Prop30
280
     1
102
RTVSPost2010PropOp30
 70
     1
102
RTVSPost2010Prop31
280
     0
102
RTVSPost2010PropOp31
 70
     1
102
RTVSPost2010Prop32
280
     0
102
RTVSPost2010PropOp32
 70
     1
102
RTVSPost2010Prop33
280
     0
102
RTVSPost2010PropOp33
 70
     1
102
RTVSPost2010Prop34
280
     0
102
RTVSPost2010PropOp34
 70
     1
102
RTVSPost2010Prop35
280
     0
102
RTVSPost2010PropOp35
 70
     1
102
RTVSPost2010Prop36
280
     0
102
RTVSPost2010PropOp36
 70
     1
102
RTVSPost2010Prop37
 90
       50
102
RTVSPost2010PropOp37
 70
     1
102
RTVSPost2010Prop38
140
0.0
102
RTVSPost2010PropOp38
 70
     1
102
RTVSPost2010Prop39
140
1.0
102
RTVSPost2010PropOp39
 70
     1
102
RTVSPost2010Prop40
 90
        0
102
RTVSPost2010PropOp40
 70
     1
102
RTVSPost2010Prop41ColorIndex
 90
       18
102
RTVSPost2010Prop41ColorRGB
 90
        0
102
RTVSPost2010PropOp41
 70
     1
102
RTVSPost2010Prop42
 90
       50
102
RTVSPost2010PropOp42
 70
     1
102
RTVSPost2010Prop43
 90
        3
102
RTVSPost2010PropOp43
 70
     1
102
RTVSPost2010Prop44ColorIndex
 90
        5
102
RTVSPost2010Prop44ColorRGB
 90
      255
102
RTVSPost2010PropOp44
 70
     1
102
RTVSPost2010Prop45
280
     0
102
RTVSPost2010PropOp45
 70
     1
102
RTVSPost2010Prop46
 90
       50
102
RTVSPost2010PropOp46
 70
     1
102
RTVSPost2010Prop47
 90
       50
102
RTVSPost2010PropOp47
 70
     1
102
RTVSPost2010Prop48
 90
       50
102
RTVSPost2010PropOp48
 70
     1
102
RTVSPost2010Prop49
280
     0
102
RTVSPost2010PropOp49
 70
     1
102
RTVSPost2010Prop50
 90
       50
102
RTVSPost2010PropOp50
 70
     1
102
RTVSPost2010Prop51ColorIndex
 90
      256
102
RTVSPost2010Prop51ColorRGB
 90
-16777216
102
RTVSPost2010PropOp51
 70
     0
102
RTVSPost2010Prop52
140
1.0
102
RTVSPost2010PropOp52
 70
     0
102
RTVSPost2010Prop53
 90
        2
102
RTVSPost2010PropOp53
 70
     1
102
RTVSPost2010Prop54
  1
strokes_ogs.tif
102
RTVSPost2010PropOp54
 70
     1
102
RTVSPost2010Prop55
280
     0
102
RTVSPost2010PropOp55
 70
     1
102
RTVSPost2010Prop56
140
1.0
102
RTVSPost2010PropOp56
 70
     1
102
RTVSPost2010Prop57
140
1.0
102
RTVSPost2010PropOp57
 70
     1
  0
XRECORD
  5
189
102
{ACAD_REACTORS
330
188
102
}
330
188
100
AcDbXrecord
280
     1
102
RTVSPost2010Prop28
280
     0
102
RTVSPost2010PropOp28
 70
     1
102
RTVSPost2010Prop29
280
     1
102
RTVSPost2010PropOp29
 70
     1
102
RTVSPost2010Prop30
280
     1
102
RTVSPost2010PropOp30
 70
     1
102
RTVSPost2010Prop31
280
     0
102
RTVSPost2010PropOp31
 70
     1
102
RTVSPost2010Prop32
280
     0
102
RTVSPost2010PropOp32
 70
     1
102
RTVSPost2010Prop33
280
     0
102
RTVSPost2010PropOp33
 70
     1
102
RTVSPost2010Prop34
280
     0
102
RTVSPost2010PropOp34
 70
     1
102
RTVSPost2010Prop35
280
     0
102
RTVSPost2010PropOp35
 70
     1
102
RTVSPost2010Prop36
280
     0
102
RTVSPost2010PropOp36
 70
     1
102
RTVSPost2010Prop37
 90
       50
102
RTVSPost2010PropOp37
 70
     1
102
RTVSPost2010Prop38
140
0.0
102
RTVSPost2010PropOp38
 70
     1
102
RTVSPost2010Prop39
140
1.0
102
RTVSPost2010PropOp39
 70
     1
102
RTVSPost2010Prop40
 90
        0
102
RTVSPost2010PropOp40
 70
     1
102
RTVSPost2010Prop41ColorIndex
 90
       18
102
RTVSPost2010Prop41ColorRGB
 90
        0
102
RTVSPost2010PropOp41
 70
     1
102
RTVSPost2010Prop42
 90
       50
102
RTVSPost2010PropOp42
 70
     1
102
RTVSPost2010Prop43
 90
        3
102
RTVSPost2010PropOp43
 70
     1
102
RTVSPost2010Prop44ColorIndex
 90
        5
102
RTVSPost2010Prop44ColorRGB
 90
      255
102
RTVSPost2010PropOp44
 70
     1
102
RTVSPost2010Prop45
280
     0
102
RTVSPost2010PropOp45
 70
     1
102
RTVSPost2010Prop46
 90
       50
102
RTVSPost2010PropOp46
 70
     1
102
RTVSPost2010Prop47
 90
       50
102
RTVSPost2010PropOp47
 70
     1
102
RTVSPost2010Prop48
 90
       50
102
RTVSPost2010PropOp48
 70
     1
102
RTVSPost2010Prop49
280
     0
102
RTVSPost2010PropOp49
 70
     1
102
RTVSPost2010Prop50
 90
       50
102
RTVSPost2010PropOp50
 70
     1
102
RTVSPost2010Prop51ColorIndex
 90
      256
102
RTVSPost2010Prop51ColorRGB
 90
-16777216
102
RTVSPost2010PropOp51
 70
     0
102
RTVSPost2010Prop52
140
1.0
102
RTVSPost2010PropOp52
 70
     0
102
RTVSPost2010Prop53
 90
        2
102
RTVSPost2010PropOp53
 70
     1
102
RTVSPost2010Prop54
  1
strokes_ogs.tif
102
RTVSPost2010PropOp54
 70
     1
102
RTVSPost2010Prop55
280
     0
102
RTVSPost2010PropOp55
 70
     1
102
RTVSPost2010Prop56
140
1.0
102
RTVSPost2010PropOp56
 70
     1
102
RTVSPost2010Prop57
140
1.0
102
RTVSPost2010PropOp57
 70
     1
  0
XRECORD
  5
183
102
{ACAD_REACTORS
330
182
102
}
330
182
100
AcDbXrecord
280
     1
102
RTVSPost2010Prop28
280
     0
102
RTVSPost2010PropOp28
 70
     1
102
RTVSPost2010Prop29
280
     1
102
RTVSPost2010PropOp29
 70
     1
102
RTVSPost2010Prop30
280
     1
102
RTVSPost2010PropOp30
 70
     1
102
RTVSPost2010Prop31
280
     0
102
RTVSPost2010PropOp31
 70
     1
102
RTVSPost2010Prop32
280
     0
102
RTVSPost2010PropOp32
 70
     1
102
RTVSPost2010Prop33
280
     0
102
RTVSPost2010PropOp33
 70
     1
102
RTVSPost2010Prop34
280
     0
102
RTVSPost2010PropOp34
 70
     1
102
RTVSPost2010Prop35
280
     0
102
RTVSPost2010PropOp35
 70
     1
102
RTVSPost2010Prop36
280
     0
102
RTVSPost2010PropOp36
 70
     1
102
RTVSPost2010Prop37
 90
       50
102
RTVSPost2010PropOp37
 70
     1
102
RTVSPost2010Prop38
140
0.0
102
RTVSPost2010PropOp38
 70
     1
102
RTVSPost2010Prop39
140
1.0
102
RTVSPost2010PropOp39
 70
     1
102
RTVSPost2010Prop40
 90
        0
102
RTVSPost2010PropOp40
 70
     1
102
RTVSPost2010Prop41ColorIndex
 90
       18
102
RTVSPost2010Prop41ColorRGB
 90
        0
102
RTVSPost2010PropOp41
 70
     1
102
RTVSPost2010Prop42
 90
       50
102
RTVSPost2010PropOp42
 70
     1
102
RTVSPost2010Prop43
 90
        3
102
RTVSPost2010PropOp43
 70
     1
102
RTVSPost2010Prop44ColorIndex
 90
        5
102
RTVSPost2010Prop44ColorRGB
 90
      255
102
RTVSPost2010PropOp44
 70
     1
102
RTVSPost2010Prop45
280
     0
102
RTVSPost2010PropOp45
 70
     1
102
RTVSPost2010Prop46
 90
       50
102
RTVSPost2010PropOp46
 70
     1
102
RTVSPost2010Prop47
 90
       50
102
RTVSPost2010PropOp47
 70
     1
102
RTVSPost2010Prop48
 90
       50
102
RTVSPost2010PropOp48
 70
     1
102
RTVSPost2010Prop49
280
     0
102
RTVSPost2010PropOp49
 70
     1
102
RTVSPost2010Prop50
 90
       50
102
RTVSPost2010PropOp50
 70
     1
102
RTVSPost2010Prop51ColorIndex
 90
      256
102
RTVSPost2010Prop51ColorRGB
 90
-16777216
102
RTVSPost2010PropOp51
 70
     0
102
RTVSPost2010Prop52
140
1.0
102
RTVSPost2010PropOp52
 70
     0
102
RTVSPost2010Prop53
 90
        2
102
RTVSPost2010PropOp53
 70
     1
102
RTVSPost2010Prop54
  1
strokes_ogs.tif
102
RTVSPost2010PropOp54
 70
     1
102
RTVSPost2010Prop55
280
     0
102
RTVSPost2010PropOp55
 70
     1
102
RTVSPost2010Prop56
140
1.0
102
RTVSPost2010PropOp56
 70
     1
102
RTVSPost2010Prop57
140
1.0
102
RTVSPost2010PropOp57
 70
     1
  0
XRECORD
  5
185
102
{ACAD_REACTORS
330
184
102
}
330
184
100
AcDbXrecord
280
     1
102
RTVSPost2010Prop28
280
     0
102
RTVSPost2010PropOp28
 70
     1
102
RTVSPost2010Prop29
280
     1
102
RTVSPost2010PropOp29
 70
     1
102
RTVSPost2010Prop30
280
     1
102
RTVSPost2010PropOp30
 70
     1
102
RTVSPost2010Prop31
280
     0
102
RTVSPost2010PropOp31
 70
     1
102
RTVSPost2010Prop32
280
     0
102
RTVSPost2010PropOp32
 70
     1
102
RTVSPost2010Prop33
280
     0
102
RTVSPost2010PropOp33
 70
     1
102
RTVSPost2010Prop34
280
     0
102
RTVSPost2010PropOp34
 70
     1
102
RTVSPost2010Prop35
280
     0
102
RTVSPost2010PropOp35
 70
     1
102
RTVSPost2010Prop36
280
     0
102
RTVSPost2010PropOp36
 70
     1
102
RTVSPost2010Prop37
 90
       50
102
RTVSPost2010PropOp37
 70
     1
102
RTVSPost2010Prop38
140
0.0
102
RTVSPost2010PropOp38
 70
     1
102
RTVSPost2010Prop39
140
1.0
102
RTVSPost2010PropOp39
 70
     1
102
RTVSPost2010Prop40
 90
        0
102
RTVSPost2010PropOp40
 70
     1
102
RTVSPost2010Prop41ColorIndex
 90
       18
102
RTVSPost2010Prop41ColorRGB
 90
        0
102
RTVSPost2010PropOp41
 70
     1
102
RTVSPost2010Prop42
 90
       50
102
RTVSPost2010PropOp42
 70
     1
102
RTVSPost2010Prop43
 90
        3
102
RTVSPost2010PropOp43
 70
     1
102
RTVSPost2010Prop44ColorIndex
 90
        5
102
RTVSPost2010Prop44ColorRGB
 90
      255
102
RTVSPost2010PropOp44
 70
     1
102
RTVSPost2010Prop45
280
     0
102
RTVSPost2010PropOp45
 70
     1
102
RTVSPost2010Prop46
 90
       50
102
RTVSPost2010PropOp46
 70
     1
102
RTVSPost2010Prop47
 90
       50
102
RTVSPost2010PropOp47
 70
     1
102
RTVSPost2010Prop48
 90
       50
102
RTVSPost2010PropOp48
 70
     1
102
RTVSPost2010Prop49
280
     0
102
RTVSPost2010PropOp49
 70
     1
102
RTVSPost2010Prop50
 90
       50
102
RTVSPost2010PropOp50
 70
     1
102
RTVSPost2010Prop51ColorIndex
 90
      256
102
RTVSPost2010Prop51ColorRGB
 90
-16777216
102
RTVSPost2010PropOp51
 70
     0
102
RTVSPost2010Prop52
140
1.0
102
RTVSPost2010PropOp52
 70
     0
102
RTVSPost2010Prop53
 90
        2
102
RTVSPost2010PropOp53
 70
     1
102
RTVSPost2010Prop54
  1
strokes_ogs.tif
102
RTVSPost2010PropOp54
 70
     1
102
RTVSPost2010Prop55
280
     0
102
RTVSPost2010PropOp55
 70
     1
102
RTVSPost2010Prop56
140
1.0
102
RTVSPost2010PropOp56
 70
     1
102
RTVSPost2010Prop57
140
1.0
102
RTVSPost2010PropOp57
 70
     1
  0
XRECORD
  5
17B
102
{ACAD_REACTORS
330
17A
102
}
330
17A
100
AcDbXrecord
280
     1
102
RTVSPost2010Prop28
280
     0
102
RTVSPost2010PropOp28
 70
     1
102
RTVSPost2010Prop29
280
     1
102
RTVSPost2010PropOp29
 70
     1
102
RTVSPost2010Prop30
280
     1
102
RTVSPost2010PropOp30
 70
     1
102
RTVSPost2010Prop31
280
     0
102
RTVSPost2010PropOp31
 70
     1
102
RTVSPost2010Prop32
280
     0
102
RTVSPost2010PropOp32
 70
     1
102
RTVSPost2010Prop33
280
     0
102
RTVSPost2010PropOp33
 70
     1
102
RTVSPost2010Prop34
280
     0
102
RTVSPost2010PropOp34
 70
     1
102
RTVSPost2010Prop35
280
     0
102
RTVSPost2010PropOp35
 70
     1
102
RTVSPost2010Prop36
280
     0
102
RTVSPost2010PropOp36
 70
     1
102
RTVSPost2010Prop37
 90
       50
102
RTVSPost2010PropOp37
 70
     1
102
RTVSPost2010Prop38
140
0.0
102
RTVSPost2010PropOp38
 70
     1
102
RTVSPost2010Prop39
140
1.0
102
RTVSPost2010PropOp39
 70
     1
102
RTVSPost2010Prop40
 90
        0
102
RTVSPost2010PropOp40
 70
     1
102
RTVSPost2010Prop41ColorIndex
 90
       18
102
RTVSPost2010Prop41ColorRGB
 90
        0
102
RTVSPost2010PropOp41
 70
     1
102
RTVSPost2010Prop42
 90
       50
102
RTVSPost2010PropOp42
 70
     1
102
RTVSPost2010Prop43
 90
        3
102
RTVSPost2010PropOp43
 70
     1
102
RTVSPost2010Prop44ColorIndex
 90
        5
102
RTVSPost2010Prop44ColorRGB
 90
      255
102
RTVSPost2010PropOp44
 70
     1
102
RTVSPost2010Prop45
280
     0
102
RTVSPost2010PropOp45
 70
     1
102
RTVSPost2010Prop46
 90
       50
102
RTVSPost2010PropOp46
 70
     1
102
RTVSPost2010Prop47
 90
       50
102
RTVSPost2010PropOp47
 70
     1
102
RTVSPost2010Prop48
 90
       50
102
RTVSPost2010PropOp48
 70
     1
102
RTVSPost2010Prop49
280
     0
102
RTVSPost2010PropOp49
 70
     1
102
RTVSPost2010Prop50
 90
       50
102
RTVSPost2010PropOp50
 70
     1
102
RTVSPost2010Prop51ColorIndex
 90
      256
102
RTVSPost2010Prop51ColorRGB
 90
-16777216
102
RTVSPost2010PropOp51
 70
     0
102
RTVSPost2010Prop52
140
1.0
102
RTVSPost2010PropOp52
 70
     0
102
RTVSPost2010Prop53
 90
        2
102
RTVSPost2010PropOp53
 70
     1
102
RTVSPost2010Prop54
  1
strokes_ogs.tif
102
RTVSPost2010PropOp54
 70
     1
102
RTVSPost2010Prop55
280
     0
102
RTVSPost2010PropOp55
 70
     1
102
RTVSPost2010Prop56
140
1.0
102
RTVSPost2010PropOp56
 70
     1
102
RTVSPost2010Prop57
140
1.0
102
RTVSPost2010PropOp57
 70
     1
  0
XRECORD
  5
16F
102
{ACAD_REACTORS
330
16E
102
}
330
16E
100
AcDbXrecord
280
     1
102
RTVSPost2010Prop28
280
     0
102
RTVSPost2010PropOp28
 70
     1
102
RTVSPost2010Prop29
280
     1
102
RTVSPost2010PropOp29
 70
     1
102
RTVSPost2010Prop30
280
     1
102
RTVSPost2010PropOp30
 70
     1
102
RTVSPost2010Prop31
280
     0
102
RTVSPost2010PropOp31
 70
     1
102
RTVSPost2010Prop32
280
     0
102
RTVSPost2010PropOp32
 70
     1
102
RTVSPost2010Prop33
280
     0
102
RTVSPost2010PropOp33
 70
     1
102
RTVSPost2010Prop34
280
     0
102
RTVSPost2010PropOp34
 70
     1
102
RTVSPost2010Prop35
280
     0
102
RTVSPost2010PropOp35
 70
     1
102
RTVSPost2010Prop36
280
     0
102
RTVSPost2010PropOp36
 70
     1
102
RTVSPost2010Prop37
 90
       50
102
RTVSPost2010PropOp37
 70
     1
102
RTVSPost2010Prop38
140
0.0
102
RTVSPost2010PropOp38
 70
     1
102
RTVSPost2010Prop39
140
1.0
102
RTVSPost2010PropOp39
 70
     1
102
RTVSPost2010Prop40
 90
        0
102
RTVSPost2010PropOp40
 70
     1
102
RTVSPost2010Prop41ColorIndex
 90
       18
102
RTVSPost2010Prop41ColorRGB
 90
        0
102
RTVSPost2010PropOp41
 70
     1
102
RTVSPost2010Prop42
 90
       50
102
RTVSPost2010PropOp42
 70
     1
102
RTVSPost2010Prop43
 90
        3
102
RTVSPost2010PropOp43
 70
     1
102
RTVSPost2010Prop44ColorIndex
 90
        5
102
RTVSPost2010Prop44ColorRGB
 90
      255
102
RTVSPost2010PropOp44
 70
     1
102
RTVSPost2010Prop45
280
     0
102
RTVSPost2010PropOp45
 70
     1
102
RTVSPost2010Prop46
 90
       50
102
RTVSPost2010PropOp46
 70
     1
102
RTVSPost2010Prop47
 90
       50
102
RTVSPost2010PropOp47
 70
     1
102
RTVSPost2010Prop48
 90
       50
102
RTVSPost2010PropOp48
 70
     1
102
RTVSPost2010Prop49
280
     0
102
RTVSPost2010PropOp49
 70
     1
102
RTVSPost2010Prop50
 90
       50
102
RTVSPost2010PropOp50
 70
     1
102
RTVSPost2010Prop51ColorIndex
 90
      256
102
RTVSPost2010Prop51ColorRGB
 90
-16777216
102
RTVSPost2010PropOp51
 70
     0
102
RTVSPost2010Prop52
140
1.0
102
RTVSPost2010PropOp52
 70
     0
102
RTVSPost2010Prop53
 90
        2
102
RTVSPost2010PropOp53
 70
     1
102
RTVSPost2010Prop54
  1
strokes_ogs.tif
102
RTVSPost2010PropOp54
 70
     1
102
RTVSPost2010Prop55
280
     0
102
RTVSPost2010PropOp55
 70
     1
102
RTVSPost2010Prop56
140
1.0
102
RTVSPost2010PropOp56
 70
     1
102
RTVSPost2010Prop57
140
1.0
102
RTVSPost2010PropOp57
 70
     1
  0
XRECORD
  5
187
102
{ACAD_REACTORS
330
186
102
}
330
186
100
AcDbXrecord
280
     1
102
RTVSPost2010Prop28
280
     0
102
RTVSPost2010PropOp28
 70
     1
102
RTVSPost2010Prop29
280
     1
102
RTVSPost2010PropOp29
 70
     1
102
RTVSPost2010Prop30
280
     1
102
RTVSPost2010PropOp30
 70
     1
102
RTVSPost2010Prop31
280
     0
102
RTVSPost2010PropOp31
 70
     1
102
RTVSPost2010Prop32
280
     0
102
RTVSPost2010PropOp32
 70
     1
102
RTVSPost2010Prop33
280
     0
102
RTVSPost2010PropOp33
 70
     1
102
RTVSPost2010Prop34
280
     0
102
RTVSPost2010PropOp34
 70
     1
102
RTVSPost2010Prop35
280
     0
102
RTVSPost2010PropOp35
 70
     1
102
RTVSPost2010Prop36
280
     0
102
RTVSPost2010PropOp36
 70
     1
102
RTVSPost2010Prop37
 90
       50
102
RTVSPost2010PropOp37
 70
     1
102
RTVSPost2010Prop38
140
0.0
102
RTVSPost2010PropOp38
 70
     1
102
RTVSPost2010Prop39
140
1.0
102
RTVSPost2010PropOp39
 70
     1
102
RTVSPost2010Prop40
 90
        0
102
RTVSPost2010PropOp40
 70
     1
102
RTVSPost2010Prop41ColorIndex
 90
       18
102
RTVSPost2010Prop41ColorRGB
 90
        0
102
RTVSPost2010PropOp41
 70
     1
102
RTVSPost2010Prop42
 90
       50
102
RTVSPost2010PropOp42
 70
     1
102
RTVSPost2010Prop43
 90
        3
102
RTVSPost2010PropOp43
 70
     1
102
RTVSPost2010Prop44ColorIndex
 90
        5
102
RTVSPost2010Prop44ColorRGB
 90
      255
102
RTVSPost2010PropOp44
 70
     1
102
RTVSPost2010Prop45
280
     0
102
RTVSPost2010PropOp45
 70
     1
102
RTVSPost2010Prop46
 90
       50
102
RTVSPost2010PropOp46
 70
     1
102
RTVSPost2010Prop47
 90
       50
102
RTVSPost2010PropOp47
 70
     1
102
RTVSPost2010Prop48
 90
       50
102
RTVSPost2010PropOp48
 70
     1
102
RTVSPost2010Prop49
280
     0
102
RTVSPost2010PropOp49
 70
     1
102
RTVSPost2010Prop50
 90
       50
102
RTVSPost2010PropOp50
 70
     1
102
RTVSPost2010Prop51ColorIndex
 90
      256
102
RTVSPost2010Prop51ColorRGB
 90
-16777216
102
RTVSPost2010PropOp51
 70
     0
102
RTVSPost2010Prop52
140
1.0
102
RTVSPost2010PropOp52
 70
     0
102
RTVSPost2010Prop53
 90
        2
102
RTVSPost2010PropOp53
 70
     1
102
RTVSPost2010Prop54
  1
strokes_ogs.tif
102
RTVSPost2010PropOp54
 70
     1
102
RTVSPost2010Prop55
280
     0
102
RTVSPost2010PropOp55
 70
     1
102
RTVSPost2010Prop56
140
1.0
102
RTVSPost2010PropOp56
 70
     1
102
RTVSPost2010Prop57
140
1.0
102
RTVSPost2010PropOp57
 70
     1
  0
ENDSEC
  0
EOF
