  0
SECTION
  2
HEADER
  9
$ACADVER
  1
AC1024
  9
$ACADMAINTVER
 70
   226
  9
$DWGCODEPAGE
  3
ANSI_932
  9
$INSBASE
 10
0.0
 20
0.0
 30
0.0
  9
$EXTMIN
 10
1.000000000000000E+20
 20
1.000000000000000E+20
 30
1.000000000000000E+20
  9
$EXTMAX
 10
-1.000000000000000E+20
 20
-1.000000000000000E+20
 30
-1.000000000000000E+20
  9
$LIMMIN
 10
0.0
 20
0.0
  9
$LIMMAX
 10
12.0
 20
9.0
  9
$ORTHOMODE
 70
     0
  9
$REGENMODE
 70
     1
  9
$FILLMODE
 70
     1
  9
$QTEXTMODE
 70
     0
  9
$MIRRTEXT
 70
     0
  9
$LTSCALE
 40
1.0
  9
$ATTMODE
 70
     1
  9
$TEXTSIZE
 40
0.2
  9
$TRACEWID
 40
0.05
  9
$TEXTSTYLE
  7
Standard
  9
$CLAYER
  8
0
  9
$CELTYPE
  6
ByLayer
  9
$CECOLOR
 62
   256
  9
$CELTSCALE
 40
1.0
  9
$DISPSILH
 70
     0
  9
$DIMSCALE
 40
1.0
  9
$DIMASZ
 40
0.18
  9
$DIMEXO
 40
0.0625
  9
$DIMDLI
 40
0.38
  9
$DIMRND
 40
0.0
  9
$DIMDLE
 40
0.0
  9
$DIMEXE
 40
0.18
  9
$DIMTP
 40
0.0
  9
$DIMTM
 40
0.0
  9
$DIMTXT
 40
0.18
  9
$DIMCEN
 40
0.09
  9
$DIMTSZ
 40
0.0
  9
$DIMTOL
 70
     0
  9
$DIMLIM
 70
     0
  9
$DIMTIH
 70
     1
  9
$DIMTOH
 70
     1
  9
$DIMSE1
 70
     0
  9
$DIMSE2
 70
     0
  9
$DIMTAD
 70
     0
  9
$DIMZIN
 70
     0
  9
$DIMBLK
  1

  9
$DIMASO
 70
     1
  9
$DIMSHO
 70
     1
  9
$DIMPOST
  1

  9
$DIMAPOST
  1

  9
$DIMALT
 70
     0
  9
$DIMALTD
 70
     2
  9
$DIMALTF
 40
25.4
  9
$DIMLFAC
 40
1.0
  9
$DIMTOFL
 70
     0
  9
$DIMTVP
 40
0.0
  9
$DIMTIX
 70
     0
  9
$DIMSOXD
 70
     0
  9
$DIMSAH
 70
     0
  9
$DIMBLK1
  1

  9
$DIMBLK2
  1

  9
$DIMSTYLE
  2
Standard
  9
$DIMCLRD
 70
     0
  9
$DIMCLRE
 70
     0
  9
$DIMCLRT
 70
     0
  9
$DIMTFAC
 40
1.0
  9
$DIMGAP
 40
0.09
  9
$DIMJUST
 70
     0
  9
$DIMSD1
 70
     0
  9
$DIMSD2
 70
     0
  9
$DIMTOLJ
 70
     1
  9
$DIMTZIN
 70
     0
  9
$DIMALTZ
 70
     0
  9
$DIMALTTZ
 70
     0
  9
$DIMUPT
 70
     0
  9
$DIMDEC
 70
     4
  9
$DIMTDEC
 70
     4
  9
$DIMALTU
 70
     2
  9
$DIMALTTD
 70
     2
  9
$DIMTXSTY
  7
Standard
  9
$DIMAUNIT
 70
     0
  9
$DIMADEC
 70
     0
  9
$DIMALTRND
 40
0.0
  9
$DIMAZIN
 70
     0
  9
$DIMDSEP
 70
    46
  9
$DIMATFIT
 70
     3
  9
$DIMFRAC
 70
     0
  9
$DIMLDRBLK
  1

  9
$DIMLUNIT
 70
     2
  9
$DIMLWD
 70
    -2
  9
$DIMLWE
 70
    -2
  9
$DIMTMOVE
 70
     0
  9
$DIMFXL
 40
1.0
  9
$DIMFXLON
 70
     0
  9
$DIMJOGANG
 40
0.7853981633974483
  9
$DIMTFILL
 70
     0
  9
$DIMTFILLCLR
 70
     0
  9
$DIMARCSYM
 70
     0
  9
$DIMLTYPE
  6

  9
$DIMLTEX1
  6

  9
$DIMLTEX2
  6

  9
$DIMTXTDIRECTION
 70
     0
  9
$LUNITS
 70
     2
  9
$LUPREC
 70
     4
  9
$SKETCHINC
 40
0.1
  9
$FILLETRAD
 40
0.0
  9
$AUNITS
 70
     0
  9
$AUPREC
 70
     0
  9
$MENU
  1
.
  9
$ELEVATION
 40
0.0
  9
$PELEVATION
 40
0.0
  9
$THICKNESS
 40
0.0
  9
$LIMCHECK
 70
     0
  9
$CHAMFERA
 40
0.0
  9
$CHAMFERB
 40
0.0
  9
$CHAMFERC
 40
0.0
  9
$CHAMFERD
 40
0.0
  9
$SKPOLY
 70
     0
  9
$TDCREATE
 40
2459569.503703704
  9
$TDUCREATE
 40
2459569.128703704
  9
$TDUPDATE
 40
2459569.503703704
  9
$TDUUPDATE
 40
2459569.128703704
  9
$TDINDWG
 40
0.0000000000
  9
$TDUSRTIMER
 40
0.0000000000
  9
$USRTIMER
 70
     1
  9
$ANGBASE
 50
0.0
  9
$ANGDIR
 70
     0
  9
$PDMODE
 70
     0
  9
$PDSIZE
 40
0.0
  9
$PLINEWID
 40
0.0
  9
$SPLFRAME
 70
     0
  9
$SPLINETYPE
 70
     6
  9
$SPLINESEGS
 70
     8
  9
$HANDSEED
  5
1A3
  9
$SURFTAB1
 70
     6
  9
$SURFTAB2
 70
     6
  9
$SURFTYPE
 70
     6
  9
$SURFU
 70
     6
  9
$SURFV
 70
     6
  9
$UCSBASE
  2

  9
$UCSNAME
  2

  9
$UCSORG
 10
0.0
 20
0.0
 30
0.0
  9
$UCSXDIR
 10
1.0
 20
0.0
 30
0.0
  9
$UCSYDIR
 10
0.0
 20
1.0
 30
0.0
  9
$UCSORTHOREF
  2

  9
$UCSORTHOVIEW
 70
     0
  9
$UCSORGTOP
 10
0.0
 20
0.0
 30
0.0
  9
$UCSORGBOTTOM
 10
0.0
 20
0.0
 30
0.0
  9
$UCSORGLEFT
 10
0.0
 20
0.0
 30
0.0
  9
$UCSORGRIGHT
 10
0.0
 20
0.0
 30
0.0
  9
$UCSORGFRONT
 10
0.0
 20
0.0
 30
0.0
  9
$UCSORGBACK
 10
0.0
 20
0.0
 30
0.0
  9
$PUCSBASE
  2

  9
$PUCSNAME
  2

  9
$PUCSORG
 10
0.0
 20
0.0
 30
0.0
  9
$PUCSXDIR
 10
1.0
 20
0.0
 30
0.0
  9
$PUCSYDIR
 10
0.0
 20
1.0
 30
0.0
  9
$PUCSORTHOREF
  2

  9
$PUCSORTHOVIEW
 70
     0
  9
$PUCSORGTOP
 10
0.0
 20
0.0
 30
0.0
  9
$PUCSORGBOTTOM
 10
0.0
 20
0.0
 30
0.0
  9
$PUCSORGLEFT
 10
0.0
 20
0.0
 30
0.0
  9
$PUCSORGRIGHT
 10
0.0
 20
0.0
 30
0.0
  9
$PUCSORGFRONT
 10
0.0
 20
0.0
 30
0.0
  9
$PUCSORGBACK
 10
0.0
 20
0.0
 30
0.0
  9
$USERI1
 70
     0
  9
$USERI2
 70
     0
  9
$USERI3
 70
     0
  9
$USERI4
 70
     0
  9
$USERI5
 70
     0
  9
$USERR1
 40
0.0
  9
$USERR2
 40
0.0
  9
$USERR3
 40
0.0
  9
$USERR4
 40
0.0
  9
$USERR5
 40
0.0
  9
$WORLDVIEW
 70
     1
  9
$SHADEDGE
 70
     3
  9
$SHADEDIF
 70
    70
  9
$TILEMODE
 70
     1
  9
$MAXACTVP
 70
    64
  9
$PINSBASE
 10
0.0
 20
0.0
 30
0.0
  9
$PLIMCHECK
 70
     0
  9
$PEXTMIN
 10
1.000000000000000E+20
 20
1.000000000000000E+20
 30
1.000000000000000E+20
  9
$PEXTMAX
 10
-1.000000000000000E+20
 20
-1.000000000000000E+20
 30
-1.000000000000000E+20
  9
$PLIMMIN
 10
0.0
 20
0.0
  9
$PLIMMAX
 10
12.0
 20
9.0
  9
$UNITMODE
 70
     0
  9
$VISRETAIN
 70
     1
  9
$PLINEGEN
 70
     0
  9
$PSLTSCALE
 70
     1
  9
$TREEDEPTH
 70
  3020
  9
$CMLSTYLE
  2
Standard
  9
$CMLJUST
 70
     0
  9
$CMLSCALE
 40
1.0
  9
$PROXYGRAPHICS
 70
     1
  9
$MEASUREMENT
 70
     0
  9
$CELWEIGHT
370
    -1
  9
$ENDCAPS
280
     0
  9
$JOINSTYLE
280
     0
  9
$LWDISPLAY
290
     1
  9
$INSUNITS
 70
     4
  9
$HYPERLINKBASE
  1

  9
$STYLESHEET
  1

  9
$XEDIT
290
     1
  9
$CEPSNTYPE
380
     0
  9
$PSTYLEMODE
290
     1
  9
$FINGERPRINTGUID
  2
{25991AEA-4010-5D4F-AF88-974D8EA84649}
  9
$VERSIONGUID
  2
{B701FF60-CF88-6E49-8C3C-2669C9AAA483}
  9
$EXTNAMES
290
     1
  9
$PSVPSCALE
 40
0.0
  9
$OLESTARTUP
290
     0
  9
$SORTENTS
280
   127
  9
$INDEXCTL
280
     0
  9
$HIDETEXT
280
     1
  9
$XCLIPFRAME
280
     2
  9
$HALOGAP
280
     0
  9
$OBSCOLOR
 70
   257
  9
$OBSLTYPE
280
     0
  9
$INTERSECTIONDISPLAY
280
     0
  9
$INTERSECTIONCOLOR
 70
   257
  9
$DIMASSOC
280
     2
  9
$PROJECTNAME
  1

  9
$CAMERADISPLAY
290
     0
  9
$LENSLENGTH
 40
50.0
  9
$CAMERAHEIGHT
 40
0.0
  9
$STEPSPERSEC
 40
2.0
  9
$STEPSIZE
 40
6.0
  9
$3DDWFPREC
 40
2.0
  9
$PSOLWIDTH
 40
0.25
  9
$PSOLHEIGHT
 40
4.0
  9
$LOFTANG1
 40
1.570796326794896
  9
$LOFTANG2
 40
1.570796326794896
  9
$LOFTMAG1
 40
0.0
  9
$LOFTMAG2
 40
0.0
  9
$LOFTPARAM
 70
     7
  9
$LOFTNORMALS
280
     1
  9
$LATITUDE
 40
37.795
  9
$LONGITUDE
 40
-122.394
  9
$NORTHDIRECTION
 40
0.0
  9
$TIMEZONE
 70
 -8000
  9
$LIGHTGLYPHDISPLAY
280
     1
  9
$TILEMODELIGHTSYNCH
280
     1
  9
$CMATERIAL
347
11
  9
$SOLIDHIST
280
     0
  9
$SHOWHIST
280
     1
  9
$DWFFRAME
280
     2
  9
$DGNFRAME
280
     0
  9
$REALWORLDSCALE
290
     1
  9
$INTERFERECOLOR
 62
     1
  9
$INTERFEREOBJVS
345
33
  9
$INTERFEREVPVS
346
30
  9
$CSHADOW
280
     0
  9
$SHADOWPLANELOCATION
 40
0.0
  0
ENDSEC
  0
SECTION
  2
CLASSES
  0
CLASS
  1
ACDBDICTIONARYWDFLT
  2
AcDbDictionaryWithDefault
  3
ObjectDBX Classes
 90
        0
 91
        1
280
     0
281
     0
  0
CLASS
  1
MATERIAL
  2
AcDbMaterial
  3
ObjectDBX Classes
 90
     1153
 91
        3
280
     0
281
     0
  0
CLASS
  1
VISUALSTYLE
  2
AcDbVisualStyle
  3
ObjectDBX Classes
 90
     4095
 91
       24
280
     0
281
     0
  0
CLASS
  1
SCALE
  2
AcDbScale
  3
ObjectDBX Classes
 90
     1153
 91
       17
280
     0
281
     0
  0
CLASS
  1
TABLESTYLE
  2
AcDbTableStyle
  3
ObjectDBX Classes
 90
     4095
 91
        1
280
     0
281
     0
  0
CLASS
  1
MLEADERSTYLE
  2
AcDbMLeaderStyle
  3
ACDB_MLEADERSTYLE_CLASS
 90
     4095
 91
        1
280
     0
281
     0
  0
CLASS
  1
ACDBSECTIONVIEWSTYLE
  2
AcDbSectionViewStyle
  3
ObjectDBX Classes
 90
     1025
 91
        1
280
     0
281
     0
  0
CLASS
  1
ACDBDETAILVIEWSTYLE
  2
AcDbDetailViewStyle
  3
ObjectDBX Classes
 90
     1025
 91
        1
280
     0
281
     0
  0
CLASS
  1
DICTIONARYVAR
  2
AcDbDictionaryVar
  3
ObjectDBX Classes
 90
        0
 91
        5
280
     0
281
     0
  0
CLASS
  1
CELLSTYLEMAP
  2
AcDbCellStyleMap
  3
ObjectDBX Classes
 90
     1152
 91
        1
280
     0
281
     0
  0
ENDSEC
  0
SECTION
  2
TABLES
  0
TABLE
  2
VPORT
  5
8
330
0
100
AcDbSymbolTable
 70
     1
  0
VPORT
  5
57
330
8
100
AcDbSymbolTableRecord
100
AcDbViewportTableRecord
  2
*Active
 70
     0
 10
0.0
 20
0.0
 11
1.0
 21
1.0
 12
0.0
 22
0.0
 13
0.0
 23
0.0
 14
1.0
 24
1.0
 15
0.0
 25
0.0
 16
0.0
 26
0.0
 36
1.0
 17
104.9999999737534
 27
-148.4999999628701
 37
0.0
 40
302.939999924255
 41
0.7070707070707534
 42
50.0
 43
0.0
 44
0.0
 50
0.0
 51
0.0
 71
     0
 72
   100
 73
     1
 74
     0
 75
     1
 76
     0
 77
     0
 78
     0
281
     0
 65
     1
110
0.0
120
0.0
130
0.0
111
1.0
121
0.0
131
0.0
112
0.0
122
1.0
132
0.0
 79
     0
146
0.0
 60
     3
 61
     5
292
     1
282
     1
141
0.0
142
0.0
 63
   250
421
  3355443
  0
ENDTAB
  0
TABLE
  2
LTYPE
  5
5
330
0
100
AcDbSymbolTable
 70
     2
  0
LTYPE
  5
5B
330
5
100
AcDbSymbolTableRecord
100
AcDbLinetypeTableRecord
  2
ByBlock
 70
     0
  3

 72
    65
 73
     0
 40
0.0
  0
LTYPE
  5
5C
330
5
100
AcDbSymbolTableRecord
100
AcDbLinetypeTableRecord
  2
ByLayer
 70
     0
  3

 72
    65
 73
     0
 40
0.0
  0
LTYPE
  5
5D
330
5
100
AcDbSymbolTableRecord
100
AcDbLinetypeTableRecord
  2
Continuous
 70
     0
  3
Solid line
 72
    65
 73
     0
 40
0.0
  0
LTYPE
  5
139
330
5
100
AcDbSymbolTableRecord
100
AcDbLinetypeTableRecord
  2
AI-Linetype-0
 70
     0
  3
Adobe Illustrator Linetype No. 0
 72
    65
 73
     2
 40
1.411111110758333
 49
0.7055555553791667
 74
     0
 49
-0.7055555553791667
 74
     0
  0
ENDTAB
  0
TABLE
  2
LAYER
  5
2
330
0
100
AcDbSymbolTable
 70
     2
  0
LAYER
  5
54
330
2
100
AcDbSymbolTableRecord
100
AcDbLayerTableRecord
  2
0
 70
     0
 62
     7
  6
Continuous
370
    -3
390
F
347
21
  0
LAYER
  5
78
330
2
100
AcDbSymbolTableRecord
100
AcDbLayerTableRecord
  2
レイヤー 1
 70
     0
 62
     7
  6
Continuous
370
     0
390
F
347
21
  0
ENDTAB
  0
TABLE
  2
STYLE
  5
3
330
0
100
AcDbSymbolTable
 70
     2
  0
STYLE
  5
55
330
3
100
AcDbSymbolTableRecord
100
AcDbTextStyleTableRecord
  2
Standard
 70
     0
 40
0.0
 41
1.0
 50
0.0
 71
     0
 42
0.2
  3
txt
  4

  0
STYLE
  5
5A
330
3
100
AcDbSymbolTableRecord
100
AcDbTextStyleTableRecord
  2
Annotative
 70
     0
 40
0.0
 41
1.0
 50
0.0
 71
     0
 42
0.2
  3
txt
  4

1001
AcadAnnotative
1000
AnnotativeData
1002
{
1070
     1
1070
     1
1002
}
  0
ENDTAB
  0
TABLE
  2
VIEW
  5
6
330
0
100
AcDbSymbolTable
 70
     0
  0
ENDTAB
  0
TABLE
  2
UCS
  5
7
330
0
100
AcDbSymbolTable
 70
     0
  0
ENDTAB
  0
TABLE
  2
APPID
  5
9
330
0
100
AcDbSymbolTable
 70
     2
  0
APPID
  5
56
330
9
100
AcDbSymbolTableRecord
100
AcDbRegAppTableRecord
  2
ACAD
 70
     0
  0
APPID
  5
5E
330
9
100
AcDbSymbolTableRecord
100
AcDbRegAppTableRecord
  2
AcadAnnotative
 70
     0
  0
ENDTAB
  0
TABLE
  2
DIMSTYLE
  5
A
330
0
100
AcDbSymbolTable
 70
     2
100
AcDbDimStyleTable
 71
     0
  0
DIMSTYLE
105
58
330
A
100
AcDbSymbolTableRecord
100
AcDbDimStyleTableRecord
  2
Standard
 70
     0
340
55
  0
DIMSTYLE
105
59
330
A
100
AcDbSymbolTableRecord
100
AcDbDimStyleTableRecord
  2
Annotative
 70
     0
340
55
1001
AcadAnnotative
1000
AnnotativeData
1002
{
1070
     1
1070
     1
1002
}
  0
ENDTAB
  0
TABLE
  2
BLOCK_RECORD
  5
1
330
0
100
AcDbSymbolTable
 70
    21
  0
BLOCK_RECORD
  5
70
330
1
100
AcDbSymbolTableRecord
100
AcDbBlockTableRecord
  2
*Model_Space
340
73
 70
     0
280
     1
281
     0
  0
BLOCK_RECORD
  5
6C
330
1
100
AcDbSymbolTableRecord
100
AcDbBlockTableRecord
  2
*Paper_Space
340
6F
 70
     0
280
     1
281
     0
  0
BLOCK_RECORD
  5
74
330
1
100
AcDbSymbolTableRecord
100
AcDbBlockTableRecord
  2
*Paper_Space0
340
77
 70
     0
280
     1
281
     0
  0
BLOCK_RECORD
  5
79
330
1
100
AcDbSymbolTableRecord
100
AcDbBlockTableRecord
  2
Block_0
340
0
102
{BLKREFS
331
7A
102
}
 70
     0
280
     1
281
     0
  0
BLOCK_RECORD
  5
7D
330
1
100
AcDbSymbolTableRecord
100
AcDbBlockTableRecord
  2
Block_1
340
0
102
{BLKREFS
331
7E
102
}
 70
     0
280
     1
281
     0
  0
BLOCK_RECORD
  5
81
330
1
100
AcDbSymbolTableRecord
100
AcDbBlockTableRecord
  2
Block_2
340
0
102
{BLKREFS
331
82
102
}
 70
     0
280
     1
281
     0
  0
BLOCK_RECORD
  5
86
330
1
100
AcDbSymbolTableRecord
100
AcDbBlockTableRecord
  2
Block_3
340
0
102
{BLKREFS
331
87
102
}
 70
     0
280
     1
281
     0
  0
BLOCK_RECORD
  5
AB
330
1
100
AcDbSymbolTableRecord
100
AcDbBlockTableRecord
  2
Block_4
340
0
102
{BLKREFS
331
AC
102
}
 70
     0
280
     1
281
     0
  0
BLOCK_RECORD
  5
EA
330
1
100
AcDbSymbolTableRecord
100
AcDbBlockTableRecord
  2
Block_5
340
0
102
{BLKREFS
331
EB
102
}
 70
     0
280
     1
281
     0
  0
BLOCK_RECORD
  5
F0
330
1
100
AcDbSymbolTableRecord
100
AcDbBlockTableRecord
  2
Block_6
340
0
102
{BLKREFS
331
F1
102
}
 70
     0
280
     1
281
     0
  0
BLOCK_RECORD
  5
F9
330
1
100
AcDbSymbolTableRecord
100
AcDbBlockTableRecord
  2
Block_7
340
0
102
{BLKREFS
331
FA
102
}
 70
     0
280
     1
281
     0
  0
BLOCK_RECORD
  5
FD
330
1
100
AcDbSymbolTableRecord
100
AcDbBlockTableRecord
  2
Block_8
340
0
102
{BLKREFS
331
FE
102
}
 70
     0
280
     1
281
     0
  0
BLOCK_RECORD
  5
10C
330
1
100
AcDbSymbolTableRecord
100
AcDbBlockTableRecord
  2
Block_9
340
0
102
{BLKREFS
331
10D
102
}
 70
     0
280
     1
281
     0
  0
BLOCK_RECORD
  5
110
330
1
100
AcDbSymbolTableRecord
100
AcDbBlockTableRecord
  2
Block_10
340
0
102
{BLKREFS
331
111
102
}
 70
     0
280
     1
281
     0
  0
BLOCK_RECORD
  5
11D
330
1
100
AcDbSymbolTableRecord
100
AcDbBlockTableRecord
  2
Block_11
340
0
102
{BLKREFS
331
11E
102
}
 70
     0
280
     1
281
     0
  0
BLOCK_RECORD
  5
121
330
1
100
AcDbSymbolTableRecord
100
AcDbBlockTableRecord
  2
Block_12
340
0
102
{BLKREFS
331
122
102
}
 70
     0
280
     1
281
     0
  0
BLOCK_RECORD
  5
12B
330
1
100
AcDbSymbolTableRecord
100
AcDbBlockTableRecord
  2
Block_13
340
0
102
{BLKREFS
331
12C
102
}
 70
     0
280
     1
281
     0
  0
BLOCK_RECORD
  5
132
330
1
100
AcDbSymbolTableRecord
100
AcDbBlockTableRecord
  2
Block_14
340
0
102
{BLKREFS
331
133
102
}
 70
     0
280
     1
281
     0
  0
BLOCK_RECORD
  5
13A
330
1
100
AcDbSymbolTableRecord
100
AcDbBlockTableRecord
  2
Block_15
340
0
102
{BLKREFS
331
13B
102
}
 70
     0
280
     1
281
     0
  0
BLOCK_RECORD
  5
13E
330
1
100
AcDbSymbolTableRecord
100
AcDbBlockTableRecord
  2
Block_16
340
0
102
{BLKREFS
331
13F
102
}
 70
     0
280
     1
281
     0
  0
BLOCK_RECORD
  5
142
330
1
100
AcDbSymbolTableRecord
100
AcDbBlockTableRecord
  2
Block_17
340
0
102
{BLKREFS
331
143
102
}
 70
     0
280
     1
281
     0
  0
BLOCK_RECORD
  5
159
330
1
100
AcDbSymbolTableRecord
100
AcDbBlockTableRecord
  2
Block_18
340
0
102
{BLKREFS
331
15A
102
}
 70
     0
280
     1
281
     0
  0
BLOCK_RECORD
  5
15D
330
1
100
AcDbSymbolTableRecord
100
AcDbBlockTableRecord
  2
Block_19
340
0
102
{BLKREFS
331
15E
102
}
 70
     0
280
     1
281
     0
  0
ENDTAB
  0
ENDSEC
  0
SECTION
  2
BLOCKS
  0
BLOCK
  5
71
330
70
100
AcDbEntity
  8
0
100
AcDbBlockBegin
  2
*Model_Space
 70
     0
 10
0.0
 20
0.0
 30
0.0
  3
*Model_Space
  1

  0
ENDBLK
  5
72
330
70
100
AcDbEntity
  8
0
100
AcDbBlockEnd
  0
BLOCK
  5
6D
330
6C
100
AcDbEntity
 67
     1
  8
0
100
AcDbBlockBegin
  2
*Paper_Space
 70
     0
 10
0.0
 20
0.0
 30
0.0
  3
*Paper_Space
  1

  0
ENDBLK
  5
6E
330
6C
100
AcDbEntity
 67
     1
  8
0
100
AcDbBlockEnd
  0
BLOCK
  5
75
330
74
100
AcDbEntity
 67
     1
  8
0
100
AcDbBlockBegin
  2
*Paper_Space0
 70
     0
 10
0.0
 20
0.0
 30
0.0
  3
*Paper_Space0
  1

  0
ENDBLK
  5
76
330
74
100
AcDbEntity
 67
     1
  8
0
100
AcDbBlockEnd
  0
BLOCK
  5
7B
330
79
100
AcDbEntity
  8
0
100
AcDbBlockBegin
  2
Block_0
 70
     0
 10
0.0
 20
0.0
 30
0.0
  3
Block_0
  1

  0
INSERT
  5
7E
330
79
100
AcDbEntity
  8
レイヤー 1
100
AcDbBlockReference
  2
Block_1
 10
0.0
 20
0.0
 30
0.0
  0
INSERT
  5
AC
330
79
100
AcDbEntity
  8
レイヤー 1
100
AcDbBlockReference
  2
Block_4
 10
0.0
 20
0.0
 30
0.0
  0
LINE
  5
138
330
79
100
AcDbEntity
  8
レイヤー 1
  6
AI-Linetype-0
 62
   154
420
    23468
370
    25
100
AcDbLine
 10
84.79868892895787
 20
-148.130638922507
 30
0.0
 11
94.79909200715967
 21
-148.130638922507
 31
0.0
  0
INSERT
  5
13B
330
79
100
AcDbEntity
  8
レイヤー 1
100
AcDbBlockReference
  2
Block_15
 10
0.0
 20
0.0
 30
0.0
  0
ENDBLK
  5
7C
330
79
100
AcDbEntity
  8
0
100
AcDbBlockEnd
  0
BLOCK
  5
7F
330
7D
100
AcDbEntity
  8
0
100
AcDbBlockBegin
  2
Block_1
 70
     0
 10
0.0
 20
0.0
 30
0.0
  3
Block_1
  1

  0
INSERT
  5
82
330
7D
100
AcDbEntity
  8
レイヤー 1
100
AcDbBlockReference
  2
Block_2
 10
0.0
 20
0.0
 30
0.0
  0
LINE
  5
AA
330
7D
100
AcDbEntity
  8
レイヤー 1
 62
   250
420
  2299925
370
     9
100
AcDbLine
 10
132.1844338311579
 20
-147.919289755893
 30
0.0
 11
123.1114129515188
 21
-151.6720339216216
 31
0.0
  0
ENDBLK
  5
80
330
7D
100
AcDbEntity
  8
0
100
AcDbBlockEnd
  0
BLOCK
  5
83
330
81
100
AcDbEntity
  8
0
100
AcDbBlockBegin
  2
Block_2
 70
     0
 10
0.0
 20
0.0
 30
0.0
  3
Block_2
  1

  0
LINE
  5
85
330
81
100
AcDbEntity
  8
レイヤー 1
 62
   250
420
  2299925
370
     9
100
AcDbLine
 10
122.1667799200629
 20
-153.9006722543977
 30
0.0
 11
123.4972812750078
 21
-154.6086266986649
 31
0.0
  0
INSERT
  5
87
330
81
100
AcDbEntity
  8
レイヤー 1
100
AcDbBlockReference
  2
Block_3
 10
0.0
 20
0.0
 30
0.0
  0
ENDBLK
  5
84
330
81
100
AcDbEntity
  8
0
100
AcDbBlockEnd
  0
BLOCK
  5
88
330
86
100
AcDbEntity
  8
0
100
AcDbBlockBegin
  2
Block_3
 70
     0
 10
0.0
 20
0.0
 30
0.0
  3
Block_3
  1

  0
LWPOLYLINE
  5
8A
330
86
100
AcDbEntity
  8
レイヤー 1
 62
   250
420
  2299925
370
     9
100
AcDbPolyline
 90
        5
 70
     0
 43
0.0
 10
116.5581425631511
 20
-148.7223530890255
 10
122.1474829761107
 20
-151.392633921691
 10
122.0413674232624
 20
-153.9922886432639
 10
123.7459896019961
 20
-154.8870036430404
 10
132.8872377021168
 20
-151.1156328106497
  0
LINE
  5
8B
330
86
100
AcDbEntity
  8
レイヤー 1
 62
   250
420
  2299925
370
     9
100
AcDbLine
 10
125.813055660372
 20
-144.8080014233377
 30
0.0
 11
116.5581425631511
 21
-148.7223530890255
 31
0.0
  0
LINE
  5
8C
330
86
100
AcDbEntity
  8
レイヤー 1
 62
   250
420
  2299925
370
     9
100
AcDbLine
 10
122.8964301792257
 20
-151.5672941994251
 30
0.0
 11
131.5897916241063
 21
-147.9912917003194
 31
0.0
  0
LINE
  5
8D
330
86
100
AcDbEntity
  8
レイヤー 1
 62
   250
420
  2299925
370
     9
100
AcDbLine
 10
123.5062418303348
 20
-154.6172344764413
 30
0.0
 11
122.8964301792257
 21
-151.5893428105307
 31
0.0
  0
LINE
  5
8E
330
86
100
AcDbEntity
  8
レイヤー 1
 62
   250
420
  2299925
370
     9
100
AcDbLine
 10
123.1059096183259
 20
-151.6885791993957
 30
0.0
 11
123.6819251591861
 21
-154.8019136430615
 31
0.0
  0
LINE
  5
8F
330
86
100
AcDbEntity
  8
レイヤー 1
 62
   250
420
  2299925
370
     9
100
AcDbLine
 10
122.1839954751792
 20
-153.9009897543973
 30
0.0
 11
123.2767951695218
 21
-153.5875114211429
 31
0.0
  0
LINE
  5
90
330
86
100
AcDbEntity
  8
レイヤー 1
 62
   250
420
  2299925
370
     9
100
AcDbLine
 10
122.2969901945187
 20
-151.3502653105904
 30
0.0
 11
122.1591951980341
 21
-153.9009897543973
 31
0.0
  0
LINE
  5
91
330
86
100
AcDbEntity
  8
レイヤー 1
 62
   250
420
  2299925
370
     9
100
AcDbLine
 10
131.6297647084432
 20
-147.4290344782379
 30
0.0
 11
122.3039046387867
 21
-151.3681864216974
 31
0.0
  0
SPLINE
  5
92
330
86
100
AcDbEntity
  8
レイヤー 1
 62
   250
420
  2299925
370
     9
100
AcDbSpline
210
0.0
220
0.0
230
1.0
 70
     9
 71
     3
 72
    17
 73
    13
 74
     0
 42
0.0000000001
 43
0.0000000001
 40
0.0
 40
0.0
 40
0.0
 40
0.0
 40
1.0
 40
1.0
 40
1.0
 40
2.0
 40
2.0
 40
2.0
 40
3.0
 40
3.0
 40
3.0
 40
4.0
 40
4.0
 40
4.0
 40
4.0
 10
128.9866797460727
 20
-147.0948833672101
 30
0.0
 10
128.9866797460727
 20
-147.302598922714
 30
0.0
 10
128.6965905868068
 20
-147.4714383671163
 30
0.0
 10
128.3376424870439
 20
-147.4714383671163
 30
0.0
 10
127.9786525495674
 20
-147.4714383671163
 30
0.0
 10
127.6878931125409
 20
-147.302598922714
 30
0.0
 10
127.6878931125409
 20
-147.0948833672101
 30
0.0
 10
127.6878931125409
 20
-146.8861094783737
 30
0.0
 10
127.9786525495674
 20
-146.7179755895269
 30
0.0
 10
128.3376424870439
 20
-146.7179755895269
 30
0.0
 10
128.6965905868068
 20
-146.7179755895269
 30
0.0
 10
128.9866797460727
 20
-146.8861094783737
 30
0.0
 10
128.9866797460727
 20
-147.0948833672101
 30
0.0
  0
SPLINE
  5
93
330
86
100
AcDbEntity
  8
レイヤー 1
 62
   250
420
  2299925
370
     9
100
AcDbSpline
210
0.0
220
0.0
230
1.0
 70
     8
 71
     3
 72
    11
 73
     7
 74
     0
 42
0.0000000001
 43
0.0000000001
 40
0.0
 40
0.0
 40
0.0
 40
0.0
 40
1.0
 40
1.0
 40
1.0
 40
2.0
 40
2.0
 40
2.0
 40
2.0
 10
127.8001822763428
 20
-147.3015758671585
 30
0.0
 10
127.8001822763428
 20
-147.3015758671585
 30
0.0
 10
127.7815908879282
 20
-146.8495969783828
 30
0.0
 10
128.5154039247626
 20
-146.8874853117066
 30
0.0
 10
128.5154039247626
 20
-146.8874853117066
 30
0.0
 10
128.9494616914667
 20
-146.943294756137
 30
0.0
 10
128.8736850267333
 20
-147.2826317004968
 30
0.0
  0
SPLINE
  5
94
330
86
100
AcDbEntity
  8
レイヤー 1
 62
   250
420
  2299925
370
     9
100
AcDbSpline
210
0.0
220
0.0
230
1.0
 70
     9
 71
     3
 72
    17
 73
    13
 74
     0
 42
0.0000000001
 43
0.0000000001
 40
0.0
 40
0.0
 40
0.0
 40
0.0
 40
1.0
 40
1.0
 40
1.0
 40
2.0
 40
2.0
 40
2.0
 40
3.0
 40
3.0
 40
3.0
 40
4.0
 40
4.0
 40
4.0
 40
4.0
 10
124.0374545945602
 20
-147.0948833672101
 30
0.0
 10
124.0374545945602
 20
-147.302598922714
 30
0.0
 10
123.7459896019961
 20
-147.4714383671163
 30
0.0
 10
123.3877085000255
 20
-147.4714383671163
 30
0.0
 10
123.0287218425173
 20
-147.4714383671163
 30
0.0
 10
122.7379624054908
 20
-147.302598922714
 30
0.0
 10
122.7379624054908
 20
-147.0948833672101
 30
0.0
 10
122.7379624054908
 20
-146.8861094783737
 30
0.0
 10
123.0287218425173
 20
-146.7179755895269
 30
0.0
 10
123.3877085000255
 20
-146.7179755895269
 30
0.0
 10
123.7459896019961
 20
-146.7179755895269
 30
0.0
 10
124.0374545945602
 20
-146.8861094783737
 30
0.0
 10
124.0374545945602
 20
-147.0948833672101
 30
0.0
  0
SPLINE
  5
95
330
86
100
AcDbEntity
  8
レイヤー 1
 62
   250
420
  2299925
370
     9
100
AcDbSpline
210
0.0
220
0.0
230
1.0
 70
     8
 71
     3
 72
    11
 73
     7
 74
     0
 42
0.0000000001
 43
0.0000000001
 40
0.0
 40
0.0
 40
0.0
 40
0.0
 40
1.0
 40
1.0
 40
1.0
 40
2.0
 40
2.0
 40
2.0
 40
2.0
 10
122.8502868470696
 20
-147.3015758671585
 30
0.0
 10
122.8502868470696
 20
-147.3015758671585
 30
0.0
 10
122.8316601808781
 20
-146.8495969783828
 30
0.0
 10
123.5661787732501
 20
-146.8874853117066
 30
0.0
 10
123.5661787732501
 20
-146.8874853117066
 30
0.0
 10
124.0002397103504
 20
-146.943294756137
 30
0.0
 10
123.9244598752207
 20
-147.2826317004968
 30
0.0
  0
SPLINE
  5
96
330
86
100
AcDbEntity
  8
レイヤー 1
 62
   250
420
  2299925
370
     9
100
AcDbSpline
210
0.0
220
0.0
230
1.0
 70
     9
 71
     3
 72
    17
 73
    13
 74
     0
 42
0.0000000001
 43
0.0000000001
 40
0.0
 40
0.0
 40
0.0
 40
0.0
 40
1.0
 40
1.0
 40
1.0
 40
2.0
 40
2.0
 40
2.0
 40
3.0
 40
3.0
 40
3.0
 40
4.0
 40
4.0
 40
4.0
 40
4.0
 10
126.6605689720834
 20
-145.9352675341669
 30
0.0
 10
126.6605689720834
 20
-146.1426655896704
 30
0.0
 10
126.3691039795193
 20
-146.3114697562953
 30
0.0
 10
126.0101173220112
 20
-146.3114697562953
 30
0.0
 10
125.6518362200406
 20
-146.3114697562953
 30
0.0
 10
125.361076783014
 20
-146.1426655896704
 30
0.0
 10
125.361076783014
 20
-145.9352675341669
 30
0.0
 10
125.361076783014
 20
-145.7264936453301
 30
0.0
 10
125.6518362200406
 20
-145.5576542009281
 30
0.0
 10
126.0101173220112
 20
-145.5576542009281
 30
0.0
 10
126.3691039795193
 20
-145.5576542009281
 30
0.0
 10
126.6605689720834
 20
-145.7264936453301
 30
0.0
 10
126.6605689720834
 20
-145.9352675341669
 30
0.0
  0
SPLINE
  5
97
330
86
100
AcDbEntity
  8
レイヤー 1
 62
   250
420
  2299925
370
     9
100
AcDbSpline
210
0.0
220
0.0
230
1.0
 70
     8
 71
     3
 72
    11
 73
     7
 74
     0
 42
0.0000000001
 43
0.0000000001
 40
0.0
 40
0.0
 40
0.0
 40
0.0
 40
1.0
 40
1.0
 40
1.0
 40
2.0
 40
2.0
 40
2.0
 40
2.0
 10
125.4733659468159
 20
-146.1412544785597
 30
0.0
 10
125.4733659468159
 20
-146.1412544785597
 30
0.0
 10
125.4547745584014
 20
-145.6899458675617
 30
0.0
 10
126.1892578729965
 20
-145.7271639231078
 30
0.0
 10
126.1892578729965
 20
-145.7271639231078
 30
0.0
 10
126.6226453619398
 20
-145.7836789230938
 30
0.0
 10
126.5468686972064
 20
-146.1226630896757
 30
0.0
  0
SPLINE
  5
98
330
86
100
AcDbEntity
  8
レイヤー 1
 62
   250
420
  2299925
370
     9
100
AcDbSpline
210
0.0
220
0.0
230
1.0
 70
     9
 71
     3
 72
    17
 73
    13
 74
     0
 42
0.0000000001
 43
0.0000000001
 40
0.0
 40
0.0
 40
0.0
 40
0.0
 40
1.0
 40
1.0
 40
1.0
 40
2.0
 40
2.0
 40
2.0
 40
3.0
 40
3.0
 40
3.0
 40
4.0
 40
4.0
 40
4.0
 40
4.0
 10
126.6605689720834
 20
-146.9694708672416
 30
0.0
 10
126.6605689720834
 20
-147.1768689227455
 30
0.0
 10
126.3691039795193
 20
-147.3456730893697
 30
0.0
 10
126.0101173220112
 20
-147.3456730893697
 30
0.0
 10
125.6518362200406
 20
-147.3456730893697
 30
0.0
 10
125.361076783014
 20
-147.1768689227455
 30
0.0
 10
125.361076783014
 20
-146.9694708672416
 30
0.0
 10
125.361076783014
 20
-146.7606969784052
 30
0.0
 10
125.6518362200406
 20
-146.5922455895581
 30
0.0
 10
126.0101173220112
 20
-146.5922455895581
 30
0.0
 10
126.3691039795193
 20
-146.5922455895581
 30
0.0
 10
126.6605689720834
 20
-146.7606969784052
 30
0.0
 10
126.6605689720834
 20
-146.9694708672416
 30
0.0
  0
SPLINE
  5
99
330
86
100
AcDbEntity
  8
レイヤー 1
 62
   250
420
  2299925
370
     9
100
AcDbSpline
210
0.0
220
0.0
230
1.0
 70
     8
 71
     3
 72
    11
 73
     7
 74
     0
 42
0.0000000001
 43
0.0000000001
 40
0.0
 40
0.0
 40
0.0
 40
0.0
 40
1.0
 40
1.0
 40
1.0
 40
2.0
 40
2.0
 40
2.0
 40
2.0
 10
125.4733659468159
 20
-147.1754930894123
 30
0.0
 10
125.4733659468159
 20
-147.1754930894123
 30
0.0
 10
125.4547745584014
 20
-146.7241844784139
 30
0.0
 10
126.1892578729965
 20
-146.7614025339604
 30
0.0
 10
126.1892578729965
 20
-146.7614025339604
 30
0.0
 10
126.6226453619398
 20
-146.8178822561685
 30
0.0
 10
126.5468686972064
 20
-147.156901700528
 30
0.0
  0
SPLINE
  5
9A
330
86
100
AcDbEntity
  8
レイヤー 1
 62
   250
420
  2299925
370
     9
100
AcDbSpline
210
0.0
220
0.0
230
1.0
 70
     9
 71
     3
 72
    17
 73
    13
 74
     0
 42
0.0000000001
 43
0.0000000001
 40
0.0
 40
0.0
 40
0.0
 40
0.0
 40
1.0
 40
1.0
 40
1.0
 40
2.0
 40
2.0
 40
2.0
 40
3.0
 40
3.0
 40
3.0
 40
4.0
 40
4.0
 40
4.0
 40
4.0
 10
126.6605689720834
 20
-148.1366714225055
 30
0.0
 10
126.6605689720834
 20
-148.344069478009
 30
0.0
 10
126.3691039795193
 20
-148.5128736446335
 30
0.0
 10
126.0101173220112
 20
-148.5128736446335
 30
0.0
 10
125.6518362200406
 20
-148.5128736446335
 30
0.0
 10
125.361076783014
 20
-148.344069478009
 30
0.0
 10
125.361076783014
 20
-148.1366714225055
 30
0.0
 10
125.361076783014
 20
-147.9282503114465
 30
0.0
 10
125.6518362200406
 20
-147.7597636448219
 30
0.0
 10
126.0101173220112
 20
-147.7597636448219
 30
0.0
 10
126.3691039795193
 20
-147.7597636448219
 30
0.0
 10
126.6605689720834
 20
-147.9282503114465
 30
0.0
 10
126.6605689720834
 20
-148.1366714225055
 30
0.0
  0
SPLINE
  5
9B
330
86
100
AcDbEntity
  8
レイヤー 1
 62
   250
420
  2299925
370
     9
100
AcDbSpline
210
0.0
220
0.0
230
1.0
 70
     8
 71
     3
 72
    11
 73
     7
 74
     0
 42
0.0000000001
 43
0.0000000001
 40
0.0
 40
0.0
 40
0.0
 40
0.0
 40
1.0
 40
1.0
 40
1.0
 40
2.0
 40
2.0
 40
2.0
 40
2.0
 10
125.4733659468159
 20
-148.3433639224538
 30
0.0
 10
125.4733659468159
 20
-148.3433639224538
 30
0.0
 10
125.4547745584014
 20
-147.8913850336778
 30
0.0
 10
126.1892578729965
 20
-147.9289205892242
 30
0.0
 10
126.1892578729965
 20
-147.9289205892242
 30
0.0
 10
126.6226453619398
 20
-147.9850828114321
 30
0.0
 10
126.5468686972064
 20
-148.324066978014
 30
0.0
  0
SPLINE
  5
9C
330
86
100
AcDbEntity
  8
レイヤー 1
 62
   250
420
  2299925
370
     9
100
AcDbSpline
210
0.0
220
0.0
230
1.0
 70
     9
 71
     3
 72
    17
 73
    13
 74
     0
 42
0.0000000001
 43
0.0000000001
 40
0.0
 40
0.0
 40
0.0
 40
0.0
 40
1.0
 40
1.0
 40
1.0
 40
2.0
 40
2.0
 40
2.0
 40
3.0
 40
3.0
 40
3.0
 40
4.0
 40
4.0
 40
4.0
 40
4.0
 10
119.8854397113795
 20
-148.6610050334854
 30
0.0
 10
119.8854397113795
 20
-148.8684030889892
 30
0.0
 10
119.5946772079049
 20
-149.037912811169
 30
0.0
 10
119.2356905503968
 20
-149.037912811169
 30
0.0
 10
118.8767038928886
 20
-149.037912811169
 30
0.0
 10
118.585944455862
 20
-148.8684030889892
 30
0.0
 10
118.585944455862
 20
-148.6610050334854
 30
0.0
 10
118.585944455862
 20
-148.4522311446486
 30
0.0
 10
118.8767038928886
 20
-148.2841325335796
 30
0.0
 10
119.2356905503968
 20
-148.2841325335796
 30
0.0
 10
119.5946772079049
 20
-148.2841325335796
 30
0.0
 10
119.8854397113795
 20
-148.4522311446486
 30
0.0
 10
119.8854397113795
 20
-148.6610050334854
 30
0.0
  0
SPLINE
  5
9D
330
86
100
AcDbEntity
  8
レイヤー 1
 62
   250
420
  2299925
370
     9
100
AcDbSpline
210
0.0
220
0.0
230
1.0
 70
     8
 71
     3
 72
    11
 73
     7
 74
     0
 42
0.0000000001
 43
0.0000000001
 40
0.0
 40
0.0
 40
0.0
 40
0.0
 40
1.0
 40
1.0
 40
1.0
 40
2.0
 40
2.0
 40
2.0
 40
2.0
 10
118.6989391752015
 20
-148.8673800334338
 30
0.0
 10
118.6989391752015
 20
-148.8673800334338
 30
0.0
 10
118.6803508227915
 20
-148.415718644658
 30
0.0
 10
119.4148341559413
 20
-148.4532894779819
 30
0.0
 10
119.4148341559413
 20
-148.4532894779819
 30
0.0
 10
119.8475483125647
 20
-148.50976920019
 30
0.0
 10
119.772441925592
 20
-148.8487886445495
 30
0.0
  0
SPLINE
  5
9E
330
86
100
AcDbEntity
  8
レイヤー 1
 62
   250
420
  2299925
370
     9
100
AcDbSpline
210
0.0
220
0.0
230
1.0
 70
     9
 71
     3
 72
    17
 73
    13
 74
     0
 42
0.0000000001
 43
0.0000000001
 40
0.0
 40
0.0
 40
0.0
 40
0.0
 40
1.0
 40
1.0
 40
1.0
 40
2.0
 40
2.0
 40
2.0
 40
3.0
 40
3.0
 40
3.0
 40
4.0
 40
4.0
 40
4.0
 40
4.0
 10
124.3771443081162
 20
-148.9855253111817
 30
0.0
 10
124.3771443081162
 20
-149.194299200019
 30
0.0
 10
124.0863848710897
 20
-149.3624330888652
 30
0.0
 10
123.7281037691191
 20
-149.3624330888652
 30
0.0
 10
123.3691202660641
 20
-149.3624330888652
 30
0.0
 10
123.0776521190468
 20
-149.194299200019
 30
0.0
 10
123.0776521190468
 20
-148.9855253111817
 30
0.0
 10
123.0776521190468
 20
-148.7774569779008
 30
0.0
 10
123.3691202660641
 20
-148.6093230890539
 30
0.0
 10
123.7281037691191
 20
-148.6093230890539
 30
0.0
 10
124.0863848710897
 20
-148.6093230890539
 30
0.0
 10
124.3771443081162
 20
-148.7774569779008
 30
0.0
 10
124.3771443081162
 20
-148.9855253111817
 30
0.0
  0
SPLINE
  5
9F
330
86
100
AcDbEntity
  8
レイヤー 1
 62
   250
420
  2299925
370
     9
100
AcDbSpline
210
0.0
220
0.0
230
1.0
 70
     8
 71
     3
 72
    11
 73
     7
 74
     0
 42
0.0000000001
 43
0.0000000001
 40
0.0
 40
0.0
 40
0.0
 40
0.0
 40
1.0
 40
1.0
 40
1.0
 40
2.0
 40
2.0
 40
2.0
 40
2.0
 10
123.1906468383863
 20
-149.1926058666859
 30
0.0
 10
123.1906468383863
 20
-149.1926058666859
 30
0.0
 10
123.1720554499717
 20
-148.7409444779098
 30
0.0
 10
123.9065387645668
 20
-148.7781625334562
 30
0.0
 10
123.9065387645668
 20
-148.7781625334562
 30
0.0
 10
124.3399262535102
 20
-148.8346422556644
 30
0.0
 10
124.2634440332392
 20
-149.1743319778018
 30
0.0
  0
SPLINE
  5
A0
330
86
100
AcDbEntity
  8
レイヤー 1
 62
   250
420
  2299925
370
     9
100
AcDbSpline
210
0.0
220
0.0
230
1.0
 70
     9
 71
     3
 72
    17
 73
    13
 74
     0
 42
0.0000000001
 43
0.0000000001
 40
0.0
 40
0.0
 40
0.0
 40
0.0
 40
1.0
 40
1.0
 40
1.0
 40
2.0
 40
2.0
 40
2.0
 40
3.0
 40
3.0
 40
3.0
 40
4.0
 40
4.0
 40
4.0
 40
4.0
 10
122.219837696487
 20
-147.6853628115072
 30
0.0
 10
122.219837696487
 20
-147.8927608670107
 30
0.0
 10
121.9290813775351
 20
-148.061917811413
 30
0.0
 10
121.570761879713
 20
-148.061917811413
 30
0.0
 10
121.2118104999817
 20
-148.061917811413
 30
0.0
 10
120.9210157851783
 20
-147.8927608670107
 30
0.0
 10
120.9210157851783
 20
-147.6853628115072
 30
0.0
 10
120.9210157851783
 20
-147.4769417004482
 30
0.0
 10
121.2118104999817
 20
-147.3084550338235
 30
0.0
 10
121.570761879713
 20
-147.3084550338235
 30
0.0
 10
121.9290813775351
 20
-147.3084550338235
 30
0.0
 10
122.219837696487
 20
-147.4769417004482
 30
0.0
 10
122.219837696487
 20
-147.6853628115072
 30
0.0
  0
SPLINE
  5
A1
330
86
100
AcDbEntity
  8
レイヤー 1
 62
   250
420
  2299925
370
     9
100
AcDbSpline
210
0.0
220
0.0
230
1.0
 70
     8
 71
     3
 72
    11
 73
     7
 74
     0
 42
0.0000000001
 43
0.0000000001
 40
0.0
 40
0.0
 40
0.0
 40
0.0
 40
1.0
 40
1.0
 40
1.0
 40
2.0
 40
2.0
 40
2.0
 40
2.0
 10
121.0333402267571
 20
-147.8920553114555
 30
0.0
 10
121.0333402267571
 20
-147.8920553114555
 30
0.0
 10
121.0147488383425
 20
-147.4400764226795
 30
0.0
 10
121.7485265974001
 20
-147.4776119782258
 30
0.0
 10
121.7485265974001
 20
-147.4776119782258
 30
0.0
 10
122.1819493641203
 20
-147.5337742004341
 30
0.0
 10
122.1068429771476
 20
-147.8731111447937
 30
0.0
  0
SPLINE
  5
A2
330
86
100
AcDbEntity
  8
レイヤー 1
 62
   250
420
  2299925
370
     9
100
AcDbSpline
210
0.0
220
0.0
230
1.0
 70
     9
 71
     3
 72
    17
 73
    13
 74
     0
 42
0.0000000001
 43
0.0000000001
 40
0.0
 40
0.0
 40
0.0
 40
0.0
 40
1.0
 40
1.0
 40
1.0
 40
2.0
 40
2.0
 40
2.0
 40
3.0
 40
3.0
 40
3.0
 40
4.0
 40
4.0
 40
4.0
 40
4.0
 10
122.219837696487
 20
-148.7195661445819
 30
0.0
 10
122.219837696487
 20
-148.927669755641
 30
0.0
 10
121.9290813775351
 20
-149.0957683667097
 30
0.0
 10
121.570761879713
 20
-149.0957683667097
 30
0.0
 10
121.2118104999817
 20
-149.0957683667097
 30
0.0
 10
120.9210157851783
 20
-148.927669755641
 30
0.0
 10
120.9210157851783
 20
-148.7195661445819
 30
0.0
 10
120.9210157851783
 20
-148.5114978113007
 30
0.0
 10
121.2118104999817
 20
-148.3426936446761
 30
0.0
 10
121.570761879713
 20
-148.3426936446761
 30
0.0
 10
121.9290813775351
 20
-148.3426936446761
 30
0.0
 10
122.219837696487
 20
-148.5114978113007
 30
0.0
 10
122.219837696487
 20
-148.7195661445819
 30
0.0
  0
SPLINE
  5
A3
330
86
100
AcDbEntity
  8
レイヤー 1
 62
   250
420
  2299925
370
     9
100
AcDbSpline
210
0.0
220
0.0
230
1.0
 70
     8
 71
     3
 72
    11
 73
     7
 74
     0
 42
0.0000000001
 43
0.0000000001
 40
0.0
 40
0.0
 40
0.0
 40
0.0
 40
1.0
 40
1.0
 40
1.0
 40
2.0
 40
2.0
 40
2.0
 40
2.0
 10
121.0333402267571
 20
-148.9262939223081
 30
0.0
 10
121.0333402267571
 20
-148.9262939223081
 30
0.0
 10
121.0147488383425
 20
-148.4749853113098
 30
0.0
 10
121.7485265974001
 20
-148.5118505890784
 30
0.0
 10
121.7485265974001
 20
-148.5118505890784
 30
0.0
 10
122.1819493641203
 20
-148.5680128112863
 30
0.0
 10
122.1068429771476
 20
-148.908020033424
 30
0.0
  0
SPLINE
  5
A4
330
86
100
AcDbEntity
  8
レイヤー 1
 62
   250
420
  2299925
370
     9
100
AcDbSpline
210
0.0
220
0.0
230
1.0
 70
     9
 71
     3
 72
    17
 73
    13
 74
     0
 42
0.0000000001
 43
0.0000000001
 40
0.0
 40
0.0
 40
0.0
 40
0.0
 40
1.0
 40
1.0
 40
1.0
 40
2.0
 40
2.0
 40
2.0
 40
3.0
 40
3.0
 40
3.0
 40
4.0
 40
4.0
 40
4.0
 40
4.0
 10
124.2655285991731
 20
-148.037787811419
 30
0.0
 10
124.2655285991731
 20
-148.245891422478
 30
0.0
 10
123.9740604295109
 20
-148.4139900335474
 30
0.0
 10
123.6157793275403
 20
-148.4139900335474
 30
0.0
 10
123.2567926700321
 20
-148.4139900335474
 30
0.0
 10
122.9660332330055
 20
-148.245891422478
 30
0.0
 10
122.9660332330055
 20
-148.037787811419
 30
0.0
 10
122.9660332330055
 20
-147.82936670036
 30
0.0
 10
123.2567926700321
 20
-147.6609153115132
 30
0.0
 10
123.6157793275403
 20
-147.6609153115132
 30
0.0
 10
123.9740604295109
 20
-147.6609153115132
 30
0.0
 10
124.2655285991731
 20
-147.82936670036
 30
0.0
 10
124.2655285991731
 20
-148.037787811419
 30
0.0
  0
SPLINE
  5
A5
330
86
100
AcDbEntity
  8
レイヤー 1
 62
   250
420
  2299925
370
     9
100
AcDbSpline
210
0.0
220
0.0
230
1.0
 70
     8
 71
     3
 72
    11
 73
     7
 74
     0
 42
0.0000000001
 43
0.0000000001
 40
0.0
 40
0.0
 40
0.0
 40
0.0
 40
1.0
 40
1.0
 40
1.0
 40
2.0
 40
2.0
 40
2.0
 40
2.0
 10
123.079027952345
 20
-148.2445155891451
 30
0.0
 10
123.079027952345
 20
-148.2445155891451
 30
0.0
 10
123.0604397105858
 20
-147.792854200369
 30
0.0
 10
123.7942496007649
 20
-147.8300722559155
 30
0.0
 10
123.7942496007649
 20
-147.8300722559155
 30
0.0
 10
124.2283073674689
 20
-147.8865519781236
 30
0.0
 10
124.1525307027355
 20
-148.2258889224833
 30
0.0
  0
SPLINE
  5
A6
330
86
100
AcDbEntity
  8
レイヤー 1
 62
   250
420
  2299925
370
     9
100
AcDbSpline
210
0.0
220
0.0
230
1.0
 70
     9
 71
     3
 72
    17
 73
    13
 74
     0
 42
0.0000000001
 43
0.0000000001
 40
0.0
 40
0.0
 40
0.0
 40
0.0
 40
1.0
 40
1.0
 40
1.0
 40
2.0
 40
2.0
 40
2.0
 40
3.0
 40
3.0
 40
3.0
 40
4.0
 40
4.0
 40
4.0
 40
4.0
 10
122.219837696487
 20
-149.8867666998454
 30
0.0
 10
122.219837696487
 20
-150.0948703109048
 30
0.0
 10
121.9290813775351
 20
-150.2629689219735
 30
0.0
 10
121.570761879713
 20
-150.2629689219735
 30
0.0
 10
121.2118104999817
 20
-150.2629689219735
 30
0.0
 10
120.9210157851783
 20
-150.0948703109048
 30
0.0
 10
120.9210157851783
 20
-149.8867666998454
 30
0.0
 10
120.9210157851783
 20
-149.6786983665642
 30
0.0
 10
121.2118104999817
 20
-149.5105644777174
 30
0.0
 10
121.570761879713
 20
-149.5105644777174
 30
0.0
 10
121.9290813775351
 20
-149.5105644777174
 30
0.0
 10
122.219837696487
 20
-149.6786983665642
 30
0.0
 10
122.219837696487
 20
-149.8867666998454
 30
0.0
  0
SPLINE
  5
A7
330
86
100
AcDbEntity
  8
レイヤー 1
 62
   250
420
  2299925
370
     9
100
AcDbSpline
210
0.0
220
0.0
230
1.0
 70
     8
 71
     3
 72
    11
 73
     7
 74
     0
 42
0.0000000001
 43
0.0000000001
 40
0.0
 40
0.0
 40
0.0
 40
0.0
 40
1.0
 40
1.0
 40
1.0
 40
2.0
 40
2.0
 40
2.0
 40
2.0
 10
121.0333402267571
 20
-150.0931416997942
 30
0.0
 10
121.0333402267571
 20
-150.0931416997942
 30
0.0
 10
121.0147488383425
 20
-149.6421858665736
 30
0.0
 10
121.7485265974001
 20
-149.6793686443422
 30
0.0
 10
121.7485265974001
 20
-149.6793686443422
 30
0.0
 10
122.1819493641203
 20
-149.735178088772
 30
0.0
 10
122.1068429771476
 20
-150.0745503109099
 30
0.0
  0
LINE
  5
A8
330
86
100
AcDbEntity
  8
レイヤー 1
 62
   250
420
  2299925
370
     9
100
AcDbLine
 10
116.860649499878
 20
-148.7333597556895
 30
0.0
 11
122.2653107508825
 21
-151.319256143932
 31
0.0
  0
LINE
  5
A9
330
86
100
AcDbEntity
  8
レイヤー 1
 62
   250
420
  2299925
370
     9
100
AcDbLine
 10
125.8344339931599
 20
-144.9575439233003
 30
0.0
 11
116.8372250560312
 21
-148.7223530890255
 31
0.0
  0
ENDBLK
  5
89
330
86
100
AcDbEntity
  8
0
100
AcDbBlockEnd
  0
BLOCK
  5
AD
330
AB
100
AcDbEntity
  8
0
100
AcDbBlockBegin
  2
Block_4
 70
     0
 10
0.0
 20
0.0
 30
0.0
  3
Block_4
  1

  0
LINE
  5
AF
330
AB
100
AcDbEntity
  8
レイヤー 1
 62
    18
420
        0
370
    25
100
AcDbLine
 10
108.5565783228436
 20
-152.6306369769376
 30
0.0
 11
104.0569331598613
 21
-152.6306369769376
 31
0.0
  0
LINE
  5
B0
330
AB
100
AcDbEntity
  8
レイヤー 1
 62
    18
420
        0
370
    25
100
AcDbLine
 10
84.80729670651605
 20
-147.130372811646
 30
0.0
 11
84.80729670651605
 21
-147.6305764226322
 31
0.0
  0
LINE
  5
B1
330
AB
100
AcDbEntity
  8
レイヤー 1
 62
    18
420
        0
370
    25
100
AcDbLine
 10
104.8972145273129
 20
-147.6305764226322
 30
0.0
 11
84.80729670651605
 21
-147.6305764226322
 31
0.0
  0
LINE
  5
B2
330
AB
100
AcDbEntity
  8
レイヤー 1
 62
    18
420
        0
370
    25
100
AcDbLine
 10
107.8055497308928
 20
-151.6305119771879
 30
0.0
 11
104.9922881359984
 21
-151.6305119771879
 31
0.0
  0
LINE
  5
B3
330
AB
100
AcDbEntity
  8
レイヤー 1
 62
    18
420
        0
370
    25
100
AcDbLine
 10
104.0569331598613
 20
-152.6306369769376
 30
0.0
 11
104.8972145273129
 21
-147.6305764226322
 31
0.0
  0
LINE
  5
B4
330
AB
100
AcDbEntity
  8
レイヤー 1
 62
    18
420
        0
370
    25
100
AcDbLine
 10
104.9922881359984
 20
-151.6305119771879
 30
0.0
 11
105.8080867262968
 21
-146.3683022562808
 31
0.0
  0
LINE
  5
B5
330
AB
100
AcDbEntity
  8
レイヤー 1
 62
    18
420
        0
370
    25
100
AcDbLine
 10
84.80729670651605
 20
-147.130372811646
 30
0.0
 11
85.32097860890919
 21
-147.5124311448837
 31
0.0
  0
LINE
  5
B6
330
AB
100
AcDbEntity
  8
レイヤー 1
 62
    18
420
        0
370
    25
100
AcDbLine
 10
85.32097860890919
 20
-147.5124311448837
 30
0.0
 11
85.8063633476944
 21
-147.0948833672101
 31
0.0
  0
LINE
  5
B7
330
AB
100
AcDbEntity
  8
レイヤー 1
 62
    18
420
        0
370
    25
100
AcDbLine
 10
86.32039805310396
 20
-147.4769417004482
 30
0.0
 11
86.80578276664155
 21
-147.0590411449969
 31
0.0
  0
LINE
  5
B8
330
AB
100
AcDbEntity
  8
レイヤー 1
 62
    18
420
        0
370
    25
100
AcDbLine
 10
85.8063633476944
 20
-147.0948833672101
 30
0.0
 11
86.32039805310396
 21
-147.4769417004482
 31
0.0
  0
LINE
  5
B9
330
AB
100
AcDbEntity
  8
レイヤー 1
 62
    18
420
        0
370
    25
100
AcDbLine
 10
86.80578276664155
 20
-147.0590411449969
 30
0.0
 11
87.31981749729843
 21
-147.4410994782349
 31
0.0
  0
LINE
  5
BA
330
AB
100
AcDbEntity
  8
レイヤー 1
 62
    18
420
        0
370
    25
100
AcDbLine
 10
87.31981749729843
 20
-147.4410994782349
 30
0.0
 11
87.80520218558867
 21
-147.0235517005614
 31
0.0
  0
LINE
  5
BB
330
AB
100
AcDbEntity
  8
レイヤー 1
 62
    18
420
        0
370
    25
100
AcDbLine
 10
87.80520218558867
 20
-147.0235517005614
 30
0.0
 11
88.31923694149288
 21
-147.4052925337995
 31
0.0
  0
LINE
  5
BC
330
AB
100
AcDbEntity
  8
レイヤー 1
 62
    18
420
        0
370
    25
100
AcDbLine
 10
88.31923694149288
 20
-147.4052925337995
 30
0.0
 11
88.80430638581605
 21
-146.987744756126
 31
0.0
  0
LINE
  5
BD
330
AB
100
AcDbEntity
  8
レイヤー 1
 62
    18
420
        0
370
    25
100
AcDbLine
 10
88.80430638581605
 20
-146.987744756126
 30
0.0
 11
89.31830360790991
 21
-147.3694503115863
 31
0.0
  0
LINE
  5
BE
330
AB
100
AcDbEntity
  8
レイヤー 1
 62
    18
420
        0
370
    25
100
AcDbLine
 10
89.31830360790991
 20
-147.3694503115863
 30
0.0
 11
89.80407860778861
 21
-146.9519025339128
 31
0.0
  0
LINE
  5
BF
330
AB
100
AcDbEntity
  8
レイヤー 1
 62
    18
420
        0
370
    25
100
AcDbLine
 10
89.80407860778861
 20
-146.9519025339128
 30
0.0
 11
90.31807582988212
 21
-147.3339608671508
 31
0.0
  0
LINE
  5
C0
330
AB
100
AcDbEntity
  8
レイヤー 1
 62
    18
420
        0
370
    25
100
AcDbLine
 10
90.31807582988212
 20
-147.3339608671508
 30
0.0
 11
90.80314527420531
 21
-146.9164130894773
 31
0.0
  0
LINE
  5
C1
330
AB
100
AcDbEntity
  8
レイヤー 1
 62
    18
420
        0
370
    25
100
AcDbLine
 10
90.80314527420531
 20
-146.9164130894773
 30
0.0
 11
91.31714249629913
 21
-147.298471422715
 31
0.0
  0
LINE
  5
C2
330
AB
100
AcDbEntity
  8
レイヤー 1
 62
    18
420
        0
370
    25
100
AcDbLine
 10
91.31714249629913
 20
-147.298471422715
 30
0.0
 11
91.80221194062232
 21
-146.880570867264
 31
0.0
  0
LINE
  5
C3
330
AB
100
AcDbEntity
  8
レイヤー 1
 62
    18
420
        0
370
    25
100
AcDbLine
 10
92.31624207050245
 20
-147.2626644782796
 30
0.0
 11
92.80198416259455
 21
-146.8451167006061
 31
0.0
  0
LINE
  5
C4
330
AB
100
AcDbEntity
  8
レイヤー 1
 62
    18
420
        0
370
    25
100
AcDbLine
 10
91.80221194062232
 20
-146.880570867264
 30
0.0
 11
92.31624207050245
 21
-147.2626644782796
 31
0.0
  0
LINE
  5
C5
330
AB
100
AcDbEntity
  8
レイヤー 1
 62
    18
420
        0
370
    25
100
AcDbLine
 10
92.80198416259455
 20
-146.8451167006061
 30
0.0
 11
93.31598138468839
 21
-147.2268222560663
 31
0.0
  0
LINE
  5
C6
330
AB
100
AcDbEntity
  8
レイヤー 1
 62
    18
420
        0
370
    25
100
AcDbLine
 10
93.31598138468839
 20
-147.2268222560663
 30
0.0
 11
93.80105082901156
 21
-146.8092744783928
 31
0.0
  0
LINE
  5
C7
330
AB
100
AcDbEntity
  8
レイヤー 1
 62
    18
420
        0
370
    25
100
AcDbLine
 10
94.3150809083967
 20
-147.1909800338531
 30
0.0
 11
94.80082305098378
 21
-146.7734322561796
 31
0.0
  0
LINE
  5
C8
330
AB
100
AcDbEntity
  8
レイヤー 1
 62
    18
420
        0
370
    25
100
AcDbLine
 10
93.80105082901156
 20
-146.8092744783928
 30
0.0
 11
94.3150809083967
 21
-147.1909800338531
 31
0.0
  0
LINE
  5
C9
330
AB
100
AcDbEntity
  8
レイヤー 1
 62
    18
420
        0
370
    25
100
AcDbLine
 10
95.31485310511262
 20
-147.1554905894173
 30
0.0
 11
95.79992253718192
 21
-146.7379780895216
 31
0.0
  0
LINE
  5
CA
330
AB
100
AcDbEntity
  8
レイヤー 1
 62
    18
420
        0
370
    25
100
AcDbLine
 10
94.80082305098378
 20
-146.7734322561796
 30
0.0
 11
95.31485310511262
 21
-147.1554905894173
 31
0.0
  0
LINE
  5
CB
330
AB
100
AcDbEntity
  8
レイヤー 1
 62
    18
420
        0
370
    25
100
AcDbLine
 10
95.79992253718192
 20
-146.7379780895216
 30
0.0
 11
96.31391974629098
 21
-147.1200364227596
 31
0.0
  0
LINE
  5
CC
330
AB
100
AcDbEntity
  8
レイヤー 1
 62
    18
420
        0
370
    25
100
AcDbLine
 10
96.31391974629098
 20
-147.1200364227596
 30
0.0
 11
96.79966193937303
 21
-146.7021358673084
 31
0.0
  0
LINE
  5
CD
330
AB
100
AcDbEntity
  8
レイヤー 1
 62
    18
420
        0
370
    25
100
AcDbLine
 10
96.79966193937303
 20
-146.7021358673084
 30
0.0
 11
97.31298638746933
 21
-147.0841942005464
 31
0.0
  0
LINE
  5
CE
330
AB
100
AcDbEntity
  8
レイヤー 1
 62
    18
420
        0
370
    25
100
AcDbLine
 10
97.31298638746933
 20
-147.0841942005464
 30
0.0
 11
97.79876137507619
 21
-146.6666464228729
 31
0.0
  0
LINE
  5
CF
330
AB
100
AcDbEntity
  8
レイヤー 1
 62
    18
420
        0
370
    25
100
AcDbLine
 10
97.79876137507619
 20
-146.6666464228729
 30
0.0
 11
98.31275858418523
 21
-147.0483519783331
 31
0.0
  0
LINE
  5
D0
330
AB
100
AcDbEntity
  8
レイヤー 1
 62
    18
420
        0
370
    25
100
AcDbLine
 10
98.31275858418523
 20
-147.0483519783331
 30
0.0
 11
98.79782801625452
 21
-146.6308042006596
 31
0.0
  0
LINE
  5
D1
330
AB
100
AcDbEntity
  8
レイヤー 1
 62
    18
420
        0
370
    25
100
AcDbLine
 10
98.79782801625452
 20
-146.6308042006596
 30
0.0
 11
99.3118252253636
 21
-147.0125450338977
 31
0.0
  0
LINE
  5
D2
330
AB
100
AcDbEntity
  8
レイヤー 1
 62
    18
420
        0
370
    25
100
AcDbLine
 10
99.3118252253636
 20
-147.0125450338977
 30
0.0
 11
99.79760021297044
 21
-146.5949972562242
 31
0.0
  0
LINE
  5
D3
330
AB
100
AcDbEntity
  8
レイヤー 1
 62
    18
420
        0
370
    25
100
AcDbLine
 10
99.79760021297044
 20
-146.5949972562242
 30
0.0
 11
100.3115974220798
 21
-146.9770555894619
 31
0.0
  0
LINE
  5
D4
330
AB
100
AcDbEntity
  8
レイヤー 1
 62
    18
420
        0
370
    25
100
AcDbLine
 10
100.3115974220798
 20
-146.9770555894619
 30
0.0
 11
100.7966668541488
 21
-146.5595078117887
 31
0.0
  0
LINE
  5
D5
330
AB
100
AcDbEntity
  8
レイヤー 1
 62
    18
420
        0
370
    25
100
AcDbLine
 10
100.7966668541488
 20
-146.5595078117887
 30
0.0
 11
101.3106993410347
 21
-146.9415661450264
 31
0.0
  0
LINE
  5
D6
330
AB
100
AcDbEntity
  8
レイヤー 1
 62
    18
420
        0
370
    25
100
AcDbLine
 10
101.3106993410347
 20
-146.9415661450264
 30
0.0
 11
101.7964390508647
 21
-146.5236655895755
 31
0.0
  0
LINE
  5
D7
330
AB
100
AcDbEntity
  8
レイヤー 1
 62
    18
420
        0
370
    25
100
AcDbLine
 10
101.7964390508647
 20
-146.5236655895755
 30
0.0
 11
102.3104362599737
 21
-146.9057239228132
 31
0.0
  0
LINE
  5
D8
330
AB
100
AcDbEntity
  8
レイヤー 1
 62
    18
420
        0
370
    25
100
AcDbLine
 10
102.3104362599737
 20
-146.9057239228132
 30
0.0
 11
102.795505692043
 21
-146.48817614514
 31
0.0
  0
LINE
  5
D9
330
AB
100
AcDbEntity
  8
レイヤー 1
 62
    18
420
        0
370
    25
100
AcDbLine
 10
102.795505692043
 20
-146.48817614514
 30
0.0
 11
103.309538178929
 21
-146.8699169783777
 31
0.0
  0
LINE
  5
DA
330
AB
100
AcDbEntity
  8
レイヤー 1
 62
    18
420
        0
370
    25
100
AcDbLine
 10
103.309538178929
 20
-146.8699169783777
 30
0.0
 11
103.7946076109983
 21
-146.4523692007043
 31
0.0
  0
LINE
  5
DB
330
AB
100
AcDbEntity
  8
レイヤー 1
 62
    18
420
        0
370
    25
100
AcDbLine
 10
103.7946076109983
 20
-146.4523692007043
 30
0.0
 11
104.3084284312229
 21
-146.8340747561645
 31
0.0
  0
LINE
  5
DC
330
AB
100
AcDbEntity
  8
レイヤー 1
 62
    18
420
        0
370
    25
100
AcDbLine
 10
104.3084284312229
 20
-146.8340747561645
 30
0.0
 11
104.793850641061
 21
-146.416526978491
 31
0.0
  0
LINE
  5
DD
330
AB
100
AcDbEntity
  8
レイヤー 1
 62
    18
420
        0
370
    25
100
AcDbLine
 10
104.867847850279
 20
-146.3683022562808
 30
0.0
 11
105.8080867262968
 21
-146.3683022562808
 31
0.0
  0
LINE
  5
DE
330
AB
100
AcDbEntity
  8
レイヤー 1
 62
    18
420
        0
370
    25
100
AcDbLine
 10
107.8055497308928
 20
-151.6305119771879
 30
0.0
 11
107.8055497308928
 21
-146.3683022562808
 31
0.0
  0
LINE
  5
DF
330
AB
100
AcDbEntity
  8
レイヤー 1
 62
    18
420
        0
370
    25
100
AcDbLine
 10
108.5565783228436
 20
-152.6306369769376
 30
0.0
 11
108.5572838783812
 21
-146.3683022562808
 31
0.0
  0
LINE
  5
E0
330
AB
100
AcDbEntity
  8
レイヤー 1
 62
    18
420
        0
370
    25
100
AcDbLine
 10
107.8055497308928
 20
-146.3683022562808
 30
0.0
 11
108.5572838783812
 21
-146.3683022562808
 31
0.0
  0
SPLINE
  5
E1
330
AB
100
AcDbEntity
  8
レイヤー 1
 62
    18
420
        0
370
     9
100
AcDbSpline
210
0.0
220
0.0
230
1.0
 70
     9
 71
     3
 72
    17
 73
    13
 74
     0
 42
0.0000000001
 43
0.0000000001
 40
0.0
 40
0.0
 40
0.0
 40
0.0
 40
1.0
 40
1.0
 40
1.0
 40
2.0
 40
2.0
 40
2.0
 40
3.0
 40
3.0
 40
3.0
 40
4.0
 40
4.0
 40
4.0
 40
4.0
 10
84.9072033706339
 20
-142.3681903128365
 30
0.0
 10
84.9072033706339
 20
-142.3130864239613
 30
0.0
 10
84.86243587177632
 20
-142.2682836461949
 30
0.0
 10
84.80729670651605
 20
-142.2682836461949
 30
0.0
 10
84.7518400412642
 20
-142.2682836461949
 30
0.0
 10
84.70703726462913
 20
-142.3130864239613
 30
0.0
 10
84.70703726462913
 20
-142.3681903128365
 30
0.0
 10
84.70703726462913
 20
-142.423682257267
 30
0.0
 10
84.7518400412642
 20
-142.4680969794781
 30
0.0
 10
84.80729670651605
 20
-142.4680969794781
 30
0.0
 10
84.86243587177632
 20
-142.4680969794781
 30
0.0
 10
84.9072033706339
 20
-142.423682257267
 30
0.0
 10
84.9072033706339
 20
-142.3681903128365
 30
0.0
  0
SPLINE
  5
E2
330
AB
100
AcDbEntity
  8
レイヤー 1
 62
    18
420
        0
370
     9
100
AcDbSpline
210
0.0
220
0.0
230
1.0
 70
     9
 71
     3
 72
    17
 73
    13
 74
     0
 42
0.0000000001
 43
0.0000000001
 40
0.0
 40
0.0
 40
0.0
 40
0.0
 40
1.0
 40
1.0
 40
1.0
 40
2.0
 40
2.0
 40
2.0
 40
3.0
 40
3.0
 40
3.0
 40
4.0
 40
4.0
 40
4.0
 40
4.0
 10
80.9070915282408
 20
-147.130372811646
 30
0.0
 10
80.9070915282408
 20
-147.0752336449929
 30
0.0
 10
80.86232402938291
 20
-147.0304661450043
 30
0.0
 10
80.80686736413106
 20
-147.0304661450043
 30
0.0
 10
80.75172819887113
 20
-147.0304661450043
 30
0.0
 10
80.70696070001323
 20
-147.0752336449929
 30
0.0
 10
80.70696070001323
 20
-147.130372811646
 30
0.0
 10
80.70696070001323
 20
-147.1854767005209
 30
0.0
 10
80.75172819887113
 20
-147.2302794782876
 30
0.0
 10
80.80686736413106
 20
-147.2302794782876
 30
0.0
 10
80.86232402938291
 20
-147.2302794782876
 30
0.0
 10
80.9070915282408
 20
-147.1854767005209
 30
0.0
 10
80.9070915282408
 20
-147.130372811646
 30
0.0
  0
SPLINE
  5
E3
330
AB
100
AcDbEntity
  8
レイヤー 1
 62
    18
420
        0
370
     9
100
AcDbSpline
210
0.0
220
0.0
230
1.0
 70
     9
 71
     3
 72
    17
 73
    13
 74
     0
 42
0.0000000001
 43
0.0000000001
 40
0.0
 40
0.0
 40
0.0
 40
0.0
 40
1.0
 40
1.0
 40
1.0
 40
2.0
 40
2.0
 40
2.0
 40
3.0
 40
3.0
 40
3.0
 40
4.0
 40
4.0
 40
4.0
 40
4.0
 10
80.9070915282408
 20
-147.6305764226322
 30
0.0
 10
80.9070915282408
 20
-147.5754725337569
 30
0.0
 10
80.86232402938291
 20
-147.5306697559902
 30
0.0
 10
80.80686736413106
 20
-147.5306697559902
 30
0.0
 10
80.75172819887113
 20
-147.5306697559902
 30
0.0
 10
80.70696070001323
 20
-147.5754725337569
 30
0.0
 10
80.70696070001323
 20
-147.6305764226322
 30
0.0
 10
80.70696070001323
 20
-147.6857155892849
 30
0.0
 10
80.75172819887113
 20
-147.7304830892738
 30
0.0
 10
80.80686736413106
 20
-147.7304830892738
 30
0.0
 10
80.86232402938291
 20
-147.7304830892738
 30
0.0
 10
80.9070915282408
 20
-147.6857155892849
 30
0.0
 10
80.9070915282408
 20
-147.6305764226322
 30
0.0
  0
SPLINE
  5
E4
330
AB
100
AcDbEntity
  8
レイヤー 1
 62
    18
420
        0
370
     9
100
AcDbSpline
210
0.0
220
0.0
230
1.0
 70
     9
 71
     3
 72
    17
 73
    13
 74
     0
 42
0.0000000001
 43
0.0000000001
 40
0.0
 40
0.0
 40
0.0
 40
0.0
 40
1.0
 40
1.0
 40
1.0
 40
2.0
 40
2.0
 40
2.0
 40
3.0
 40
3.0
 40
3.0
 40
4.0
 40
4.0
 40
4.0
 40
4.0
 10
80.9070915282408
 20
-152.6295786436043
 30
0.0
 10
80.9070915282408
 20
-152.5744747547294
 30
0.0
 10
80.86232402938291
 20
-152.5296719769626
 30
0.0
 10
80.80686736413106
 20
-152.5296719769626
 30
0.0
 10
80.75172819887113
 20
-152.5296719769626
 30
0.0
 10
80.70696070001323
 20
-152.5744747547294
 30
0.0
 10
80.70696070001323
 20
-152.6295786436043
 30
0.0
 10
80.70696070001323
 20
-152.6847178102574
 30
0.0
 10
80.75172819887113
 20
-152.7294853102459
 30
0.0
 10
80.80686736413106
 20
-152.7294853102459
 30
0.0
 10
80.86232402938291
 20
-152.7294853102459
 30
0.0
 10
80.9070915282408
 20
-152.6847178102574
 30
0.0
 10
80.9070915282408
 20
-152.6295786436043
 30
0.0
  0
SPLINE
  5
E5
330
AB
100
AcDbEntity
  8
レイヤー 1
 62
    18
420
        0
370
     9
100
AcDbSpline
210
0.0
220
0.0
230
1.0
 70
     9
 71
     3
 72
    17
 73
    13
 74
     0
 42
0.0000000001
 43
0.0000000001
 40
0.0
 40
0.0
 40
0.0
 40
0.0
 40
1.0
 40
1.0
 40
1.0
 40
2.0
 40
2.0
 40
2.0
 40
3.0
 40
3.0
 40
3.0
 40
4.0
 40
4.0
 40
4.0
 40
4.0
 10
107.9054591588187
 20
-142.3681903128365
 30
0.0
 10
107.9054591588187
 20
-142.3130864239613
 30
0.0
 10
107.860656381052
 20
-142.2682836461949
 30
0.0
 10
107.8055497308928
 20
-142.2682836461949
 30
0.0
 10
107.7504105656329
 20
-142.2682836461949
 30
0.0
 10
107.705643066775
 20
-142.3130864239613
 30
0.0
 10
107.705643066775
 20
-142.3681903128365
 30
0.0
 10
107.705643066775
 20
-142.423682257267
 30
0.0
 10
107.7504105656329
 20
-142.4680969794781
 30
0.0
 10
107.8055497308928
 20
-142.4680969794781
 30
0.0
 10
107.860656381052
 20
-142.4680969794781
 30
0.0
 10
107.9054591588187
 20
-142.423682257267
 30
0.0
 10
107.9054591588187
 20
-142.3681903128365
 30
0.0
  0
SPLINE
  5
E6
330
AB
100
AcDbEntity
  8
レイヤー 1
 62
    18
420
        0
370
     9
100
AcDbSpline
210
0.0
220
0.0
230
1.0
 70
     9
 71
     3
 72
    17
 73
    13
 74
     0
 42
0.0000000001
 43
0.0000000001
 40
0.0
 40
0.0
 40
0.0
 40
0.0
 40
1.0
 40
1.0
 40
1.0
 40
2.0
 40
2.0
 40
2.0
 40
3.0
 40
3.0
 40
3.0
 40
4.0
 40
4.0
 40
4.0
 40
4.0
 10
105.9079933904146
 20
-142.3681903128365
 30
0.0
 10
105.9079933904146
 20
-142.3130864239613
 30
0.0
 10
105.8631906137799
 20
-142.2682836461949
 30
0.0
 10
105.8080867262968
 20
-142.2682836461949
 30
0.0
 10
105.7522772832762
 20
-142.2682836461949
 30
0.0
 10
105.7074745066414
 20
-142.3130864239613
 30
0.0
 10
105.7074745066414
 20
-142.3681903128365
 30
0.0
 10
105.7074745066414
 20
-142.423682257267
 30
0.0
 10
105.7522772832762
 20
-142.4680969794781
 30
0.0
 10
105.8080867262968
 20
-142.4680969794781
 30
0.0
 10
105.8631906137799
 20
-142.4680969794781
 30
0.0
 10
105.9079933904146
 20
-142.423682257267
 30
0.0
 10
105.9079933904146
 20
-142.3681903128365
 30
0.0
  0
LINE
  5
E7
330
AB
100
AcDbEntity
  8
レイヤー 1
 62
    18
420
        0
370
     9
100
AcDbLine
 10
105.8080867262968
 20
-142.3681903128365
 30
0.0
 11
107.8055497308928
 21
-142.3681903128365
 31
0.0
  0
LINE
  5
E8
330
AB
100
AcDbEntity
  8
レイヤー 1
 62
    18
420
        0
370
     9
100
AcDbLine
 10
105.8080867262968
 20
-143.8282317013606
 30
0.0
 11
105.8080867262968
 21
-141.3684180908643
 31
0.0
  0
LINE
  5
E9
330
AB
100
AcDbEntity
  8
レイヤー 1
 62
    18
420
        0
370
     9
100
AcDbLine
 10
107.8055497308928
 20
-143.8282317013606
 30
0.0
 11
107.8055497308928
 21
-141.3684180908643
 31
0.0
  0
INSERT
  5
EB
330
AB
100
AcDbEntity
  8
レイヤー 1
100
AcDbBlockReference
  2
Block_5
 10
0.0
 20
0.0
 30
0.0
  0
INSERT
  5
F1
330
AB
100
AcDbEntity
  8
レイヤー 1
100
AcDbBlockReference
  2
Block_6
 10
0.0
 20
0.0
 30
0.0
  0
LINE
  5
108
330
AB
100
AcDbEntity
  8
レイヤー 1
 62
    18
420
        0
370
     9
100
AcDbLine
 10
80.80686736413106
 20
-147.130372811646
 30
0.0
 11
80.80686736413106
 21
-141.872784479627
 31
0.0
  0
LINE
  5
109
330
AB
100
AcDbEntity
  8
レイヤー 1
 62
    18
420
        0
370
     9
100
AcDbLine
 10
80.80686736413106
 20
-147.130372811646
 30
0.0
 11
80.80686736413106
 21
-147.6305764226322
 31
0.0
  0
LINE
  5
10A
330
AB
100
AcDbEntity
  8
レイヤー 1
 62
    18
420
        0
370
     9
100
AcDbLine
 10
82.26687343799431
 20
-147.130372811646
 30
0.0
 11
79.80709516741516
 21
-147.130372811646
 31
0.0
  0
LINE
  5
10B
330
AB
100
AcDbEntity
  8
レイヤー 1
 62
    18
420
        0
370
     9
100
AcDbLine
 10
82.26687343799431
 20
-147.6305764226322
 30
0.0
 11
79.80709516741516
 21
-147.6305764226322
 31
0.0
  0
INSERT
  5
10D
330
AB
100
AcDbEntity
  8
レイヤー 1
100
AcDbBlockReference
  2
Block_9
 10
0.0
 20
0.0
 30
0.0
  0
LINE
  5
11B
330
AB
100
AcDbEntity
  8
レイヤー 1
 62
    18
420
        0
370
     9
100
AcDbLine
 10
84.80729670651605
 20
-142.3681903128365
 30
0.0
 11
105.8080867262968
 21
-142.3681903128365
 31
0.0
  0
LINE
  5
11C
330
AB
100
AcDbEntity
  8
レイヤー 1
 62
    18
420
        0
370
     9
100
AcDbLine
 10
84.80729670651605
 20
-144.5903022567254
 30
0.0
 11
84.80729670651605
 21
-141.3684180908643
 31
0.0
  0
INSERT
  5
11E
330
AB
100
AcDbEntity
  8
レイヤー 1
100
AcDbBlockReference
  2
Block_11
 10
0.0
 20
0.0
 30
0.0
  0
LINE
  5
129
330
AB
100
AcDbEntity
  8
レイヤー 1
 62
    18
420
        0
370
     9
100
AcDbLine
 10
80.80686736413106
 20
-147.6305764226322
 30
0.0
 11
80.80686736413106
 21
-152.6306369769376
 31
0.0
  0
LINE
  5
12A
330
AB
100
AcDbEntity
  8
レイヤー 1
 62
    18
420
        0
370
     9
100
AcDbLine
 10
101.516686280224
 20
-152.6306369769376
 30
0.0
 11
79.80709516741516
 21
-152.6306369769376
 31
0.0
  0
INSERT
  5
12C
330
AB
100
AcDbEntity
  8
レイヤー 1
100
AcDbBlockReference
  2
Block_13
 10
0.0
 20
0.0
 30
0.0
  0
LINE
  5
131
330
AB
100
AcDbEntity
  8
レイヤー 1
 62
    18
420
        0
370
     9
100
AcDbLine
 10
106.757552813185
 20
-149.7066030887798
 30
0.0
 11
114.7570709424336
 21
-149.7066030887798
 31
0.0
  0
INSERT
  5
133
330
AB
100
AcDbEntity
  8
レイヤー 1
100
AcDbBlockReference
  2
Block_14
 10
0.0
 20
0.0
 30
0.0
  0
ENDBLK
  5
AE
330
AB
100
AcDbEntity
  8
0
100
AcDbBlockEnd
  0
BLOCK
  5
EC
330
EA
100
AcDbEntity
  8
0
100
AcDbBlockBegin
  2
Block_5
 70
     0
 10
0.0
 20
0.0
 30
0.0
  3
Block_5
  1

  0
SPLINE
  5
EE
330
EA
100
AcDbEntity
  8
レイヤー 1
100
AcDbSpline
210
0.0
220
0.0
230
1.0
 70
     9
 71
     3
 72
    44
 73
    40
 74
     0
 42
0.0000000001
 43
0.0000000001
 40
0.0
 40
0.0
 40
0.0
 40
0.0
 40
1.0
 40
1.0
 40
1.0
 40
2.0
 40
2.0
 40
2.0
 40
3.0
 40
3.0
 40
3.0
 40
4.0
 40
4.0
 40
4.0
 40
5.0
 40
5.0
 40
5.0
 40
6.0
 40
6.0
 40
6.0
 40
7.0
 40
7.0
 40
7.0
 40
8.0
 40
8.0
 40
8.0
 40
9.0
 40
9.0
 40
9.0
 40
10.0
 40
10.0
 40
10.0
 40
11.0
 40
11.0
 40
11.0
 40
12.0
 40
12.0
 40
12.0
 40
13.0
 40
13.0
 40
13.0
 40
13.0
 10
106.9020019263995
 20
-141.0733872802698
 30
0.0
 10
106.6842718917317
 20
-141.2320339273656
 30
0.0
 10
106.5912543136299
 20
-141.3061034802985
 30
0.0
 10
106.5423339577394
 20
-141.4499362168076
 30
0.0
 10
106.5423339577394
 20
-141.4499362168076
 30
0.0
 10
107.3209255374059
 20
-141.4499362168076
 30
0.0
 10
107.3209255374059
 20
-141.4499362168076
 30
0.0
 10
107.3209255374059
 20
-141.4499362168076
 30
0.0
 10
107.3209255374059
 20
-141.6550916529543
 30
0.0
 10
107.3209255374059
 20
-141.6550916529543
 30
0.0
 10
107.3209255374059
 20
-141.6550916529543
 30
0.0
 10
106.2929090446073
 20
-141.6550916529543
 30
0.0
 10
106.2929090446073
 20
-141.6550916529543
 30
0.0
 10
106.3246039230716
 20
-141.2974907415853
 30
0.0
 10
106.3900607372914
 20
-141.2192870740702
 30
0.0
 10
106.7752224125423
 20
-140.9209418050475
 30
0.0
 10
107.0311930070964
 20
-140.7221597955486
 30
0.0
 10
107.0966498213161
 20
-140.6544636692634
 30
0.0
 10
107.0966498213161
 20
-140.517004359402
 30
0.0
 10
107.0966498213161
 20
-140.3984930747094
 30
0.0
 10
107.0246473256744
 20
-140.2674071914956
 30
0.0
 10
106.8279323734666
 20
-140.2674071914956
 30
0.0
 10
106.5678276643302
 20
-140.2674071914956
 30
0.0
 10
106.5595594351656
 20
-140.4978840794588
 30
0.0
 10
106.5550808110348
 20
-140.6143283068603
 30
0.0
 10
106.5550808110348
 20
-140.6143283068603
 30
0.0
 10
106.3308050949451
 20
-140.6143283068603
 30
0.0
 10
106.3308050949451
 20
-140.6143283068603
 30
0.0
 10
106.3394178336582
 20
-140.4873765382288
 30
0.0
 10
106.3500976296624
 20
-140.375238680184
 30
0.0
 10
106.4303683544688
 20
-140.2567273954914
 30
0.0
 10
106.5402669004482
 20
-140.0960136911044
 30
0.0
 10
106.7266465662003
 20
-140.0620795005747
 30
0.0
 10
106.8427462840532
 20
-140.0620795005747
 30
0.0
 10
107.1200764706158
 20
-140.0620795005747
 30
0.0
 10
107.3274712188278
 20
-140.2462198542614
 30
0.0
 10
107.3274712188278
 20
-140.5190714166931
 30
0.0
 10
107.3274712188278
 20
-140.7474812473652
 30
0.0
 10
107.2110269914264
 20
-140.8470445068889
 30
0.0
 10
106.9020019263995
 20
-141.0733872802698
 30
0.0
  0
HATCH
  5
EF
330
EA
100
AcDbEntity
  8
レイヤー 1
 62
    18
420
        0
440
 33554687
100
AcDbHatch
 10
0.0
 20
0.0
 30
0.0
210
0.0
220
0.0
230
1.0
  2
SOLID
 70
     1
 71
     1
 91
        1
 92
        1
 93
        1
 72
     4
 94
        3
 73
     0
 74
     0
 95
       44
 96
       40
 40
0.0
 40
0.0
 40
0.0
 40
0.0
 40
1.0
 40
1.0
 40
1.0
 40
2.0
 40
2.0
 40
2.0
 40
3.0
 40
3.0
 40
3.0
 40
4.0
 40
4.0
 40
4.0
 40
5.0
 40
5.0
 40
5.0
 40
6.0
 40
6.0
 40
6.0
 40
7.0
 40
7.0
 40
7.0
 40
8.0
 40
8.0
 40
8.0
 40
9.0
 40
9.0
 40
9.0
 40
10.0
 40
10.0
 40
10.0
 40
11.0
 40
11.0
 40
11.0
 40
12.0
 40
12.0
 40
12.0
 40
13.0
 40
13.0
 40
13.0
 40
13.0
 10
106.9020019263995
 20
-141.0733872802698
 10
106.6842718917317
 20
-141.2320339273656
 10
106.5912543136299
 20
-141.3061034802985
 10
106.5423339577394
 20
-141.4499362168076
 10
106.5423339577394
 20
-141.4499362168076
 10
107.3209255374059
 20
-141.4499362168076
 10
107.3209255374059
 20
-141.4499362168076
 10
107.3209255374059
 20
-141.4499362168076
 10
107.3209255374059
 20
-141.6550916529543
 10
107.3209255374059
 20
-141.6550916529543
 10
107.3209255374059
 20
-141.6550916529543
 10
106.2929090446073
 20
-141.6550916529543
 10
106.2929090446073
 20
-141.6550916529543
 10
106.3246039230716
 20
-141.2974907415853
 10
106.3900607372914
 20
-141.2192870740702
 10
106.7752224125423
 20
-140.9209418050475
 10
107.0311930070964
 20
-140.7221597955486
 10
107.0966498213161
 20
-140.6544636692634
 10
107.0966498213161
 20
-140.517004359402
 10
107.0966498213161
 20
-140.3984930747094
 10
107.0246473256744
 20
-140.2674071914956
 10
106.8279323734666
 20
-140.2674071914956
 10
106.5678276643302
 20
-140.2674071914956
 10
106.5595594351656
 20
-140.4978840794588
 10
106.5550808110348
 20
-140.6143283068603
 10
106.5550808110348
 20
-140.6143283068603
 10
106.3308050949451
 20
-140.6143283068603
 10
106.3308050949451
 20
-140.6143283068603
 10
106.3394178336582
 20
-140.4873765382288
 10
106.3500976296624
 20
-140.375238680184
 10
106.4303683544688
 20
-140.2567273954914
 10
106.5402669004482
 20
-140.0960136911044
 10
106.7266465662003
 20
-140.0620795005747
 10
106.8427462840532
 20
-140.0620795005747
 10
107.1200764706158
 20
-140.0620795005747
 10
107.3274712188278
 20
-140.2462198542614
 10
107.3274712188278
 20
-140.5190714166931
 10
107.3274712188278
 20
-140.7474812473652
 10
107.2110269914264
 20
-140.8470445068889
 10
106.9020019263995
 20
-141.0733872802698
 97
        0
 97
        1
330
EE
 75
     2
 76
     1
 98
        1
 10
0.0
 20
0.0
450
        0
451
        0
460
0.0
461
0.0
452
        0
462
0.0
453
        0
470

  0
ENDBLK
  5
ED
330
EA
100
AcDbEntity
  8
0
100
AcDbBlockEnd
  0
BLOCK
  5
F2
330
F0
100
AcDbEntity
  8
0
100
AcDbBlockBegin
  2
Block_6
 70
     0
 10
0.0
 20
0.0
 30
0.0
  3
Block_6
  1

  0
SPLINE
  5
F4
330
F0
100
AcDbEntity
  8
レイヤー 1
 62
    18
420
        0
370
     9
100
AcDbSpline
210
0.0
220
0.0
230
1.0
 70
     9
 71
     3
 72
    17
 73
    13
 74
     0
 42
0.0000000001
 43
0.0000000001
 40
0.0
 40
0.0
 40
0.0
 40
0.0
 40
1.0
 40
1.0
 40
1.0
 40
2.0
 40
2.0
 40
2.0
 40
3.0
 40
3.0
 40
3.0
 40
4.0
 40
4.0
 40
4.0
 40
4.0
 10
104.1568424930891
 20
-156.6303961426038
 30
0.0
 10
104.1568424930891
 20
-156.5752569759514
 30
0.0
 10
104.1120723251213
 20
-156.5304894759628
 30
0.0
 10
104.0569331598613
 20
-156.5304894759628
 30
0.0
 10
104.0021467723702
 20
-156.5304894759628
 30
0.0
 10
103.9572028846279
 20
-156.5752569759514
 30
0.0
 10
103.9572028846279
 20
-156.6303961426038
 30
0.0
 10
103.9572028846279
 20
-156.6855000314794
 30
0.0
 10
104.0021467723702
 20
-156.7303028092461
 30
0.0
 10
104.0569331598613
 20
-156.7303028092461
 30
0.0
 10
104.1120723251213
 20
-156.7303028092461
 30
0.0
 10
104.1568424930891
 20
-156.6855000314794
 30
0.0
 10
104.1568424930891
 20
-156.6303961426038
 30
0.0
  0
CIRCLE
  5
F5
330
F0
100
AcDbEntity
  8
レイヤー 1
 62
    18
420
        0
370
     9
100
AcDbCircle
 10
108.5565783228436
 20
-156.6303961426042
 30
0.0
 40
0.0999066653795761
  0
LINE
  5
F6
330
F0
100
AcDbEntity
  8
レイヤー 1
 62
    18
420
        0
370
     9
100
AcDbLine
 10
108.5565783228436
 20
-156.6303961426038
 30
0.0
 11
104.0569331598613
 21
-156.6303961426038
 31
0.0
  0
LINE
  5
F7
330
F0
100
AcDbEntity
  8
レイヤー 1
 62
    18
420
        0
370
     9
100
AcDbLine
 10
108.5565783228436
 20
-155.1703547540801
 30
0.0
 11
108.5565783228436
 21
-157.6304858645766
 31
0.0
  0
LINE
  5
F8
330
F0
100
AcDbEntity
  8
レイヤー 1
 62
    18
420
        0
370
     9
100
AcDbLine
 10
104.0569331598613
 20
-155.1703547540801
 30
0.0
 11
104.0569331598613
 21
-157.6304858645766
 31
0.0
  0
INSERT
  5
FA
330
F0
100
AcDbEntity
  8
レイヤー 1
100
AcDbBlockReference
  2
Block_7
 10
0.0
 20
0.0
 30
0.0
  0
ENDBLK
  5
F3
330
F0
100
AcDbEntity
  8
0
100
AcDbBlockEnd
  0
BLOCK
  5
FB
330
F9
100
AcDbEntity
  8
0
100
AcDbBlockBegin
  2
Block_7
 70
     0
 10
0.0
 20
0.0
 30
0.0
  3
Block_7
  1

  0
INSERT
  5
FE
330
F9
100
AcDbEntity
  8
レイヤー 1
100
AcDbBlockReference
  2
Block_8
 10
0.0
 20
0.0
 30
0.0
  0
ENDBLK
  5
FC
330
F9
100
AcDbEntity
  8
0
100
AcDbBlockEnd
  0
BLOCK
  5
FF
330
FD
100
AcDbEntity
  8
0
100
AcDbBlockBegin
  2
Block_8
 70
     0
 10
0.0
 20
0.0
 30
0.0
  3
Block_8
  1

  0
SPLINE
  5
101
330
FD
100
AcDbEntity
  8
レイヤー 1
100
AcDbSpline
210
0.0
220
0.0
230
1.0
 70
    11
 71
     3
 72
    14
 73
    10
 74
     0
 42
0.0000000001
 43
0.0000000001
 40
0.0
 40
0.0
 40
0.0
 40
0.0
 40
1.0
 40
1.0
 40
1.0
 40
2.0
 40
2.0
 40
2.0
 40
3.0
 40
3.0
 40
3.0
 40
3.0
 10
105.5580701776035
 20
-154.7157931470849
 30
0.0
 10
105.5580701776035
 20
-154.7157931470849
 30
0.0
 10
105.1009060067109
 20
-155.3717393274765
 30
0.0
 10
105.1009060067109
 20
-155.3717393274765
 30
0.0
 10
105.1009060067109
 20
-155.3717393274765
 30
0.0
 10
105.5580701776035
 20
-155.3717393274765
 30
0.0
 10
105.5580701776035
 20
-155.3717393274765
 30
0.0
 10
105.5580701776035
 20
-155.3717393274765
 30
0.0
 10
105.5580701776035
 20
-154.7157931470849
 30
0.0
 10
105.5580701776035
 20
-154.7157931470849
 30
0.0
  0
SPLINE
  5
102
330
FD
100
AcDbEntity
  8
レイヤー 1
100
AcDbSpline
210
0.0
220
0.0
230
1.0
 70
    11
 71
     3
 72
    38
 73
    34
 74
     0
 42
0.0000000001
 43
0.0000000001
 40
0.0
 40
0.0
 40
0.0
 40
0.0
 40
1.0
 40
1.0
 40
1.0
 40
2.0
 40
2.0
 40
2.0
 40
3.0
 40
3.0
 40
3.0
 40
4.0
 40
4.0
 40
4.0
 40
5.0
 40
5.0
 40
5.0
 40
6.0
 40
6.0
 40
6.0
 40
7.0
 40
7.0
 40
7.0
 40
8.0
 40
8.0
 40
8.0
 40
9.0
 40
9.0
 40
9.0
 40
10.0
 40
10.0
 40
10.0
 40
11.0
 40
11.0
 40
11.0
 40
11.0
 10
105.7758002122713
 20
-155.5705213369754
 30
0.0
 10
105.7758002122713
 20
-155.5705213369754
 30
0.0
 10
105.7758002122713
 20
-155.9174424523401
 30
0.0
 10
105.7758002122713
 20
-155.9174424523401
 30
0.0
 10
105.7758002122713
 20
-155.9174424523401
 30
0.0
 10
105.5580701776035
 20
-155.9174424523401
 30
0.0
 10
105.5580701776035
 20
-155.9174424523401
 30
0.0
 10
105.5580701776035
 20
-155.9174424523401
 30
0.0
 10
105.5580701776035
 20
-155.5705213369754
 30
0.0
 10
105.5580701776035
 20
-155.5705213369754
 30
0.0
 10
105.5580701776035
 20
-155.5705213369754
 30
0.0
 10
104.9021239972119
 20
-155.5705213369754
 30
0.0
 10
104.9021239972119
 20
-155.5705213369754
 30
0.0
 10
104.9021239972119
 20
-155.5705213369754
 30
0.0
 10
104.9021239972119
 20
-155.3462456208857
 30
0.0
 10
104.9021239972119
 20
-155.3462456208857
 30
0.0
 10
104.9021239972119
 20
-155.3462456208857
 30
0.0
 10
105.5811523173547
 20
-154.3730061463026
 30
0.0
 10
105.5811523173547
 20
-154.3730061463026
 30
0.0
 10
105.5811523173547
 20
-154.3730061463026
 30
0.0
 10
105.7758002122713
 20
-154.3730061463026
 30
0.0
 10
105.7758002122713
 20
-154.3730061463026
 30
0.0
 10
105.7758002122713
 20
-154.3730061463026
 30
0.0
 10
105.7758002122713
 20
-155.3717393274765
 30
0.0
 10
105.7758002122713
 20
-155.3717393274765
 30
0.0
 10
105.7758002122713
 20
-155.3717393274765
 30
0.0
 10
105.9831949604834
 20
-155.3717393274765
 30
0.0
 10
105.9831949604834
 20
-155.3717393274765
 30
0.0
 10
105.9831949604834
 20
-155.3717393274765
 30
0.0
 10
105.9831949604834
 20
-155.5705213369754
 30
0.0
 10
105.9831949604834
 20
-155.5705213369754
 30
0.0
 10
105.9831949604834
 20
-155.5705213369754
 30
0.0
 10
105.7758002122713
 20
-155.5705213369754
 30
0.0
 10
105.7758002122713
 20
-155.5705213369754
 30
0.0
  0
HATCH
  5
103
330
FD
100
AcDbEntity
  8
レイヤー 1
 62
    18
420
        0
440
 33554687
100
AcDbHatch
 10
0.0
 20
0.0
 30
0.0
210
0.0
220
0.0
230
1.0
  2
SOLID
 70
     1
 71
     1
 91
        2
 92
        1
 93
        1
 72
     4
 94
        3
 73
     0
 74
     0
 95
       14
 96
       10
 40
0.0
 40
0.0
 40
0.0
 40
0.0
 40
1.0
 40
1.0
 40
1.0
 40
2.0
 40
2.0
 40
2.0
 40
3.0
 40
3.0
 40
3.0
 40
3.0
 10
105.5580701776035
 20
-154.7157931470849
 10
105.5580701776035
 20
-154.7157931470849
 10
105.1009060067109
 20
-155.3717393274765
 10
105.1009060067109
 20
-155.3717393274765
 10
105.1009060067109
 20
-155.3717393274765
 10
105.5580701776035
 20
-155.3717393274765
 10
105.5580701776035
 20
-155.3717393274765
 10
105.5580701776035
 20
-155.3717393274765
 10
105.5580701776035
 20
-154.7157931470849
 10
105.5580701776035
 20
-154.7157931470849
 97
        0
 97
        1
330
101
 92
        1
 93
        1
 72
     4
 94
        3
 73
     0
 74
     0
 95
       38
 96
       34
 40
0.0
 40
0.0
 40
0.0
 40
0.0
 40
1.0
 40
1.0
 40
1.0
 40
2.0
 40
2.0
 40
2.0
 40
3.0
 40
3.0
 40
3.0
 40
4.0
 40
4.0
 40
4.0
 40
5.0
 40
5.0
 40
5.0
 40
6.0
 40
6.0
 40
6.0
 40
7.0
 40
7.0
 40
7.0
 40
8.0
 40
8.0
 40
8.0
 40
9.0
 40
9.0
 40
9.0
 40
10.0
 40
10.0
 40
10.0
 40
11.0
 40
11.0
 40
11.0
 40
11.0
 10
105.7758002122713
 20
-155.5705213369754
 10
105.7758002122713
 20
-155.5705213369754
 10
105.7758002122713
 20
-155.9174424523401
 10
105.7758002122713
 20
-155.9174424523401
 10
105.7758002122713
 20
-155.9174424523401
 10
105.5580701776035
 20
-155.9174424523401
 10
105.5580701776035
 20
-155.9174424523401
 10
105.5580701776035
 20
-155.9174424523401
 10
105.5580701776035
 20
-155.5705213369754
 10
105.5580701776035
 20
-155.5705213369754
 10
105.5580701776035
 20
-155.5705213369754
 10
104.9021239972119
 20
-155.5705213369754
 10
104.9021239972119
 20
-155.5705213369754
 10
104.9021239972119
 20
-155.5705213369754
 10
104.9021239972119
 20
-155.3462456208857
 10
104.9021239972119
 20
-155.3462456208857
 10
104.9021239972119
 20
-155.3462456208857
 10
105.5811523173547
 20
-154.3730061463026
 10
105.5811523173547
 20
-154.3730061463026
 10
105.5811523173547
 20
-154.3730061463026
 10
105.7758002122713
 20
-154.3730061463026
 10
105.7758002122713
 20
-154.3730061463026
 10
105.7758002122713
 20
-154.3730061463026
 10
105.7758002122713
 20
-155.3717393274765
 10
105.7758002122713
 20
-155.3717393274765
 10
105.7758002122713
 20
-155.3717393274765
 10
105.9831949604834
 20
-155.3717393274765
 10
105.9831949604834
 20
-155.3717393274765
 10
105.9831949604834
 20
-155.3717393274765
 10
105.9831949604834
 20
-155.5705213369754
 10
105.9831949604834
 20
-155.5705213369754
 10
105.9831949604834
 20
-155.5705213369754
 10
105.7758002122713
 20
-155.5705213369754
 10
105.7758002122713
 20
-155.5705213369754
 97
        0
 97
        1
330
102
 75
     2
 76
     1
 98
        1
 10
0.0
 20
0.0
450
        0
451
        0
460
0.0
461
0.0
452
        0
462
0.0
453
        0
470

  0
SPLINE
  5
104
330
FD
100
AcDbEntity
  8
レイヤー 1
100
AcDbSpline
210
0.0
220
0.0
230
1.0
 70
    11
 71
     3
 72
    17
 73
    13
 74
     0
 42
0.0000000001
 43
0.0000000001
 40
0.0
 40
0.0
 40
0.0
 40
0.0
 40
1.0
 40
1.0
 40
1.0
 40
2.0
 40
2.0
 40
2.0
 40
3.0
 40
3.0
 40
3.0
 40
4.0
 40
4.0
 40
4.0
 40
4.0
 10
106.1805989317882
 20
-155.9174424523401
 30
0.0
 10
106.1805989317882
 20
-155.9174424523401
 30
0.0
 10
106.1805989317882
 20
-155.6656059723683
 30
0.0
 10
106.1805989317882
 20
-155.6656059723683
 30
0.0
 10
106.1805989317882
 20
-155.6656059723683
 30
0.0
 10
106.4324354117599
 20
-155.6656059723683
 30
0.0
 10
106.4324354117599
 20
-155.6656059723683
 30
0.0
 10
106.4324354117599
 20
-155.6656059723683
 30
0.0
 10
106.4324354117599
 20
-155.9174424523401
 30
0.0
 10
106.4324354117599
 20
-155.9174424523401
 30
0.0
 10
106.4324354117599
 20
-155.9174424523401
 30
0.0
 10
106.1805989317882
 20
-155.9174424523401
 30
0.0
 10
106.1805989317882
 20
-155.9174424523401
 30
0.0
  0
HATCH
  5
105
330
FD
100
AcDbEntity
  8
レイヤー 1
 62
    18
420
        0
440
 33554687
100
AcDbHatch
 10
0.0
 20
0.0
 30
0.0
210
0.0
220
0.0
230
1.0
  2
SOLID
 70
     1
 71
     1
 91
        1
 92
        1
 93
        1
 72
     4
 94
        3
 73
     0
 74
     0
 95
       17
 96
       13
 40
0.0
 40
0.0
 40
0.0
 40
0.0
 40
1.0
 40
1.0
 40
1.0
 40
2.0
 40
2.0
 40
2.0
 40
3.0
 40
3.0
 40
3.0
 40
4.0
 40
4.0
 40
4.0
 40
4.0
 10
106.1805989317882
 20
-155.9174424523401
 10
106.1805989317882
 20
-155.9174424523401
 10
106.1805989317882
 20
-155.6656059723683
 10
106.1805989317882
 20
-155.6656059723683
 10
106.1805989317882
 20
-155.6656059723683
 10
106.4324354117599
 20
-155.6656059723683
 10
106.4324354117599
 20
-155.6656059723683
 10
106.4324354117599
 20
-155.6656059723683
 10
106.4324354117599
 20
-155.9174424523401
 10
106.4324354117599
 20
-155.9174424523401
 10
106.4324354117599
 20
-155.9174424523401
 10
106.1805989317882
 20
-155.9174424523401
 10
106.1805989317882
 20
-155.9174424523401
 97
        0
 97
        1
330
104
 75
     2
 76
     1
 98
        1
 10
0.0
 20
0.0
450
        0
451
        0
460
0.0
461
0.0
452
        0
462
0.0
453
        0
470

  0
SPLINE
  5
106
330
FD
100
AcDbEntity
  8
レイヤー 1
100
AcDbSpline
210
0.0
220
0.0
230
1.0
 70
     9
 71
     3
 72
    53
 73
    49
 74
     0
 42
0.0000000001
 43
0.0000000001
 40
0.0
 40
0.0
 40
0.0
 40
0.0
 40
1.0
 40
1.0
 40
1.0
 40
2.0
 40
2.0
 40
2.0
 40
3.0
 40
3.0
 40
3.0
 40
4.0
 40
4.0
 40
4.0
 40
5.0
 40
5.0
 40
5.0
 40
6.0
 40
6.0
 40
6.0
 40
7.0
 40
7.0
 40
7.0
 40
8.0
 40
8.0
 40
8.0
 40
9.0
 40
9.0
 40
9.0
 40
10.0
 40
10.0
 40
10.0
 40
11.0
 40
11.0
 40
11.0
 40
12.0
 40
12.0
 40
12.0
 40
13.0
 40
13.0
 40
13.0
 40
14.0
 40
14.0
 40
14.0
 40
15.0
 40
15.0
 40
15.0
 40
16.0
 40
16.0
 40
16.0
 40
16.0
 10
107.1497042917889
 20
-155.9680853559733
 30
0.0
 10
107.0715006242738
 20
-155.9680853559733
 30
0.0
 10
106.9698703074589
 20
-155.9512043880955
 30
0.0
 10
106.868239990644
 20
-155.8878146311669
 30
0.0
 10
106.694951687736
 20
-155.7779160851875
 30
0.0
 10
106.6735920957274
 20
-155.6466579471994
 30
0.0
 10
106.6546440705585
 20
-155.5388264585111
 30
0.0
 10
106.6546440705585
 20
-155.5388264585111
 30
0.0
 10
106.8768527293572
 20
-155.5388264585111
 30
0.0
 10
106.8768527293572
 20
-155.5388264585111
 30
0.0
 10
106.9316297475726
 20
-155.73760846801
 30
0.0
 10
107.0587537709783
 20
-155.7672362891832
 30
0.0
 10
107.1517713490801
 20
-155.7672362891832
 30
0.0
 10
107.2912977162327
 20
-155.7672362891832
 30
0.0
 10
107.4435709366808
 20
-155.6676730296595
 30
0.0
 10
107.4435709366808
 20
-155.4351290844051
 30
0.0
 10
107.4435709366808
 20
-155.179158489851
 30
0.0
 10
107.2637369523507
 20
-155.1092230515005
 30
0.0
 10
107.143158610367
 20
-155.1092230515005
 30
0.0
 10
107.1114637319027
 20
-155.1092230515005
 30
0.0
 10
106.9698703074589
 20
-155.1092230515005
 30
0.0
 10
106.8809868439394
 20
-155.2384141321973
 30
0.0
 10
106.8809868439394
 20
-155.2384141321973
 30
0.0
 10
106.7052869741917
 20
-155.2194661070284
 30
0.0
 10
106.7052869741917
 20
-155.2194661070284
 30
0.0
 10
106.7052869741917
 20
-155.2194661070284
 30
0.0
 10
106.8258653161755
 20
-154.3730061463026
 30
0.0
 10
106.8258653161755
 20
-154.3730061463026
 30
0.0
 10
106.8258653161755
 20
-154.3730061463026
 30
0.0
 10
107.6044568958419
 20
-154.3730061463026
 30
0.0
 10
107.6044568958419
 20
-154.3730061463026
 30
0.0
 10
107.6044568958419
 20
-154.3730061463026
 30
0.0
 10
107.6044568958419
 20
-154.5676540412192
 30
0.0
 10
107.6044568958419
 20
-154.5676540412192
 30
0.0
 10
107.6044568958419
 20
-154.5676540412192
 30
0.0
 10
106.9888183326278
 20
-154.5676540412192
 30
0.0
 10
106.9888183326278
 20
-154.5676540412192
 30
0.0
 10
106.9888183326278
 20
-154.5676540412192
 30
0.0
 10
106.923361518408
 20
-154.9907117668079
 30
0.0
 10
106.923361518408
 20
-154.9907117668079
 30
0.0
 10
106.9846842180455
 20
-154.9569498310524
 30
0.0
 10
107.0670220001429
 20
-154.916642213875
 30
0.0
 10
107.1855332848355
 20
-154.916642213875
 30
0.0
 10
107.4394368220985
 20
-154.916642213875
 30
0.0
 10
107.6764593914836
 20
-155.103021879627
 30
0.0
 10
107.6764593914836
 20
-155.4161810592362
 30
0.0
 10
107.6764593914836
 20
-155.7334743534277
 30
0.0
 10
107.4521836753939
 20
-155.9680853559733
 30
0.0
 10
107.1497042917889
 20
-155.9680853559733
 30
0.0
  0
HATCH
  5
107
330
FD
100
AcDbEntity
  8
レイヤー 1
 62
    18
420
        0
440
 33554687
100
AcDbHatch
 10
0.0
 20
0.0
 30
0.0
210
0.0
220
0.0
230
1.0
  2
SOLID
 70
     1
 71
     1
 91
        1
 92
        1
 93
        1
 72
     4
 94
        3
 73
     0
 74
     0
 95
       53
 96
       49
 40
0.0
 40
0.0
 40
0.0
 40
0.0
 40
1.0
 40
1.0
 40
1.0
 40
2.0
 40
2.0
 40
2.0
 40
3.0
 40
3.0
 40
3.0
 40
4.0
 40
4.0
 40
4.0
 40
5.0
 40
5.0
 40
5.0
 40
6.0
 40
6.0
 40
6.0
 40
7.0
 40
7.0
 40
7.0
 40
8.0
 40
8.0
 40
8.0
 40
9.0
 40
9.0
 40
9.0
 40
10.0
 40
10.0
 40
10.0
 40
11.0
 40
11.0
 40
11.0
 40
12.0
 40
12.0
 40
12.0
 40
13.0
 40
13.0
 40
13.0
 40
14.0
 40
14.0
 40
14.0
 40
15.0
 40
15.0
 40
15.0
 40
16.0
 40
16.0
 40
16.0
 40
16.0
 10
107.1497042917889
 20
-155.9680853559733
 10
107.0715006242738
 20
-155.9680853559733
 10
106.9698703074589
 20
-155.9512043880955
 10
106.868239990644
 20
-155.8878146311669
 10
106.694951687736
 20
-155.7779160851875
 10
106.6735920957274
 20
-155.6466579471994
 10
106.6546440705585
 20
-155.5388264585111
 10
106.6546440705585
 20
-155.5388264585111
 10
106.8768527293572
 20
-155.5388264585111
 10
106.8768527293572
 20
-155.5388264585111
 10
106.9316297475726
 20
-155.73760846801
 10
107.0587537709783
 20
-155.7672362891832
 10
107.1517713490801
 20
-155.7672362891832
 10
107.2912977162327
 20
-155.7672362891832
 10
107.4435709366808
 20
-155.6676730296595
 10
107.4435709366808
 20
-155.4351290844051
 10
107.4435709366808
 20
-155.179158489851
 10
107.2637369523507
 20
-155.1092230515005
 10
107.143158610367
 20
-155.1092230515005
 10
107.1114637319027
 20
-155.1092230515005
 10
106.9698703074589
 20
-155.1092230515005
 10
106.8809868439394
 20
-155.2384141321973
 10
106.8809868439394
 20
-155.2384141321973
 10
106.7052869741917
 20
-155.2194661070284
 10
106.7052869741917
 20
-155.2194661070284
 10
106.7052869741917
 20
-155.2194661070284
 10
106.8258653161755
 20
-154.3730061463026
 10
106.8258653161755
 20
-154.3730061463026
 10
106.8258653161755
 20
-154.3730061463026
 10
107.6044568958419
 20
-154.3730061463026
 10
107.6044568958419
 20
-154.3730061463026
 10
107.6044568958419
 20
-154.3730061463026
 10
107.6044568958419
 20
-154.5676540412192
 10
107.6044568958419
 20
-154.5676540412192
 10
107.6044568958419
 20
-154.5676540412192
 10
106.9888183326278
 20
-154.5676540412192
 10
106.9888183326278
 20
-154.5676540412192
 10
106.9888183326278
 20
-154.5676540412192
 10
106.923361518408
 20
-154.9907117668079
 10
106.923361518408
 20
-154.9907117668079
 10
106.9846842180455
 20
-154.9569498310524
 10
107.0670220001429
 20
-154.916642213875
 10
107.1855332848355
 20
-154.916642213875
 10
107.4394368220985
 20
-154.916642213875
 10
107.6764593914836
 20
-155.103021879627
 10
107.6764593914836
 20
-155.4161810592362
 10
107.6764593914836
 20
-155.7334743534277
 10
107.4521836753939
 20
-155.9680853559733
 10
107.1497042917889
 20
-155.9680853559733
 97
        0
 97
        1
330
106
 75
     2
 76
     1
 98
        1
 10
0.0
 20
0.0
450
        0
451
        0
460
0.0
461
0.0
452
        0
462
0.0
453
        0
470

  0
ENDBLK
  5
100
330
FD
100
AcDbEntity
  8
0
100
AcDbBlockEnd
  0
BLOCK
  5
10E
330
10C
100
AcDbEntity
  8
0
100
AcDbBlockBegin
  2
Block_9
 70
     0
 10
0.0
 20
0.0
 30
0.0
  3
Block_9
  1

  0
INSERT
  5
111
330
10C
100
AcDbEntity
  8
レイヤー 1
100
AcDbBlockReference
  2
Block_10
 10
0.0
 20
0.0
 30
0.0
  0
ENDBLK
  5
10F
330
10C
100
AcDbEntity
  8
0
100
AcDbBlockEnd
  0
BLOCK
  5
112
330
110
100
AcDbEntity
  8
0
100
AcDbBlockBegin
  2
Block_10
 70
     0
 10
0.0
 20
0.0
 30
0.0
  3
Block_10
  1

  0
SPLINE
  5
114
330
110
100
AcDbEntity
  8
レイヤー 1
100
AcDbSpline
210
0.0
220
0.0
230
1.0
 70
     9
 71
     3
 72
    17
 73
    13
 74
     0
 42
0.0000000001
 43
0.0000000001
 40
0.0
 40
0.0
 40
0.0
 40
0.0
 40
1.0
 40
1.0
 40
1.0
 40
2.0
 40
2.0
 40
2.0
 40
3.0
 40
3.0
 40
3.0
 40
4.0
 40
4.0
 40
4.0
 40
4.0
 10
77.96251083120381
 20
-148.2858669334146
 30
0.0
 10
77.96251083120381
 20
-148.5356363560953
 30
0.0
 10
78.24586993486562
 20
-148.5821451451461
 30
0.0
 10
78.59072399293913
 20
-148.5821451451461
 30
0.0
 10
78.91025659919605
 20
-148.5821451451461
 30
0.0
 10
79.21910940944869
 20
-148.545971642551
 30
0.0
 10
79.21910940944869
 20
-148.2858669334146
 30
0.0
 10
79.21910940944869
 20
-148.0383368227994
 30
0.0
 10
78.93764510830378
 20
-147.9895887216831
 30
0.0
 10
78.59072399293913
 20
-147.9895887216831
 30
0.0
 10
78.27136364145648
 20
-147.9895887216831
 30
0.0
 10
77.96251083120381
 20
-148.0278292815694
 30
0.0
 10
77.96251083120381
 20
-148.2858669334146
 30
0.0
  0
SPLINE
  5
115
330
110
100
AcDbEntity
  8
レイヤー 1
100
AcDbSpline
210
0.0
220
0.0
230
1.0
 70
     9
 71
     3
 72
    29
 73
    25
 74
     0
 42
0.0000000001
 43
0.0000000001
 40
0.0
 40
0.0
 40
0.0
 40
0.0
 40
1.0
 40
1.0
 40
1.0
 40
2.0
 40
2.0
 40
2.0
 40
3.0
 40
3.0
 40
3.0
 40
4.0
 40
4.0
 40
4.0
 40
5.0
 40
5.0
 40
5.0
 40
6.0
 40
6.0
 40
6.0
 40
7.0
 40
7.0
 40
7.0
 40
8.0
 40
8.0
 40
8.0
 40
8.0
 10
79.18517521891899
 20
-147.8881306596425
 30
0.0
 10
79.39463702442218
 20
-147.9959621483309
 30
0.0
 10
79.41375730436532
 20
-148.1694227060132
 30
0.0
 10
79.41375730436532
 20
-148.2858669334146
 30
0.0
 10
79.41375730436532
 20
-148.4467528925758
 30
0.0
 10
79.36724851531444
 20
-148.5883463170195
 30
0.0
 10
79.18517521891899
 20
-148.6834309524125
 30
0.0
 10
78.99069957877663
 20
-148.7871283265185
 30
0.0
 10
78.75367700939143
 20
-148.8064208612359
 30
0.0
 10
78.59072399293913
 20
-148.8064208612359
 30
0.0
 10
78.44689125642995
 20
-148.8064208612359
 30
0.0
 10
78.19522703123245
 20
-148.7891953838096
 30
0.0
 10
77.99627276695926
 20
-148.6834309524125
 30
0.0
 10
77.79318438810379
 20
-148.5755994637241
 30
0.0
 10
77.76992999357836
 20
-148.414713504563
 30
0.0
 10
77.76992999357836
 20
-148.2858669334146
 30
0.0
 10
77.76992999357836
 20
-148.1270480315446
 30
0.0
 10
77.81437172533808
 20
-147.9833875498097
 30
0.0
 10
77.99627276695926
 20
-147.8881306596425
 30
0.0
 10
78.18885360458473
 20
-147.7887396548931
 30
0.0
 10
78.4172634352568
 20
-147.7654852603676
 30
0.0
 10
78.59072399293913
 20
-147.7654852603676
 30
0.0
 10
78.7621174933303
 20
-147.7654852603676
 30
0.0
 10
78.99276663606778
 20
-147.7865003428276
 30
0.0
 10
79.18517521891899
 20
-147.8881306596425
 30
0.0
  0
HATCH
  5
116
330
110
100
AcDbEntity
  8
レイヤー 1
 62
    18
420
        0
440
 33554687
100
AcDbHatch
 10
0.0
 20
0.0
 30
0.0
210
0.0
220
0.0
230
1.0
  2
SOLID
 70
     1
 71
     1
 91
        2
 92
        1
 93
        1
 72
     4
 94
        3
 73
     0
 74
     0
 95
       17
 96
       13
 40
0.0
 40
0.0
 40
0.0
 40
0.0
 40
1.0
 40
1.0
 40
1.0
 40
2.0
 40
2.0
 40
2.0
 40
3.0
 40
3.0
 40
3.0
 40
4.0
 40
4.0
 40
4.0
 40
4.0
 10
77.96251083120381
 20
-148.2858669334146
 10
77.96251083120381
 20
-148.5356363560953
 10
78.24586993486562
 20
-148.5821451451461
 10
78.59072399293913
 20
-148.5821451451461
 10
78.91025659919605
 20
-148.5821451451461
 10
79.21910940944869
 20
-148.545971642551
 10
79.21910940944869
 20
-148.2858669334146
 10
79.21910940944869
 20
-148.0383368227994
 10
78.93764510830378
 20
-147.9895887216831
 10
78.59072399293913
 20
-147.9895887216831
 10
78.27136364145648
 20
-147.9895887216831
 10
77.96251083120381
 20
-148.0278292815694
 10
77.96251083120381
 20
-148.2858669334146
 97
        0
 97
        1
330
114
 92
        1
 93
        1
 72
     4
 94
        3
 73
     0
 74
     0
 95
       29
 96
       25
 40
0.0
 40
0.0
 40
0.0
 40
0.0
 40
1.0
 40
1.0
 40
1.0
 40
2.0
 40
2.0
 40
2.0
 40
3.0
 40
3.0
 40
3.0
 40
4.0
 40
4.0
 40
4.0
 40
5.0
 40
5.0
 40
5.0
 40
6.0
 40
6.0
 40
6.0
 40
7.0
 40
7.0
 40
7.0
 40
8.0
 40
8.0
 40
8.0
 40
8.0
 10
79.18517521891899
 20
-147.8881306596425
 10
79.39463702442218
 20
-147.9959621483309
 10
79.41375730436532
 20
-148.1694227060132
 10
79.41375730436532
 20
-148.2858669334146
 10
79.41375730436532
 20
-148.4467528925758
 10
79.36724851531444
 20
-148.5883463170195
 10
79.18517521891899
 20
-148.6834309524125
 10
78.99069957877663
 20
-148.7871283265185
 10
78.75367700939143
 20
-148.8064208612359
 10
78.59072399293913
 20
-148.8064208612359
 10
78.44689125642995
 20
-148.8064208612359
 10
78.19522703123245
 20
-148.7891953838096
 10
77.99627276695926
 20
-148.6834309524125
 10
77.79318438810379
 20
-148.5755994637241
 10
77.76992999357836
 20
-148.414713504563
 10
77.76992999357836
 20
-148.2858669334146
 10
77.76992999357836
 20
-148.1270480315446
 10
77.81437172533808
 20
-147.9833875498097
 10
77.99627276695926
 20
-147.8881306596425
 10
78.18885360458473
 20
-147.7887396548931
 10
78.4172634352568
 20
-147.7654852603676
 10
78.59072399293913
 20
-147.7654852603676
 10
78.7621174933303
 20
-147.7654852603676
 10
78.99276663606778
 20
-147.7865003428276
 10
79.18517521891899
 20
-147.8881306596425
 97
        0
 97
        1
330
115
 75
     2
 76
     1
 98
        1
 10
0.0
 20
0.0
450
        0
451
        0
460
0.0
461
0.0
452
        0
462
0.0
453
        0
470

  0
SPLINE
  5
117
330
110
100
AcDbEntity
  8
レイヤー 1
100
AcDbSpline
210
0.0
220
0.0
230
1.0
 70
    11
 71
     3
 72
    17
 73
    13
 74
     0
 42
0.0000000001
 43
0.0000000001
 40
0.0
 40
0.0
 40
0.0
 40
0.0
 40
1.0
 40
1.0
 40
1.0
 40
2.0
 40
2.0
 40
2.0
 40
3.0
 40
3.0
 40
3.0
 40
4.0
 40
4.0
 40
4.0
 40
4.0
 10
79.36294214595787
 20
-147.5489610091197
 30
0.0
 10
79.36294214595787
 20
-147.5489610091197
 30
0.0
 10
79.11127792076037
 20
-147.5489610091197
 30
0.0
 10
79.11127792076037
 20
-147.5489610091197
 30
0.0
 10
79.11127792076037
 20
-147.5489610091197
 30
0.0
 10
79.11127792076037
 20
-147.2972967839222
 30
0.0
 10
79.11127792076037
 20
-147.2972967839222
 30
0.0
 10
79.11127792076037
 20
-147.2972967839222
 30
0.0
 10
79.36294214595787
 20
-147.2972967839222
 30
0.0
 10
79.36294214595787
 20
-147.2972967839222
 30
0.0
 10
79.36294214595787
 20
-147.2972967839222
 30
0.0
 10
79.36294214595787
 20
-147.5489610091197
 30
0.0
 10
79.36294214595787
 20
-147.5489610091197
 30
0.0
  0
HATCH
  5
118
330
110
100
AcDbEntity
  8
レイヤー 1
 62
    18
420
        0
440
 33554687
100
AcDbHatch
 10
0.0
 20
0.0
 30
0.0
210
0.0
220
0.0
230
1.0
  2
SOLID
 70
     1
 71
     1
 91
        1
 92
        1
 93
        1
 72
     4
 94
        3
 73
     0
 74
     0
 95
       17
 96
       13
 40
0.0
 40
0.0
 40
0.0
 40
0.0
 40
1.0
 40
1.0
 40
1.0
 40
2.0
 40
2.0
 40
2.0
 40
3.0
 40
3.0
 40
3.0
 40
4.0
 40
4.0
 40
4.0
 40
4.0
 10
79.36294214595787
 20
-147.5489610091197
 10
79.36294214595787
 20
-147.5489610091197
 10
79.11127792076037
 20
-147.5489610091197
 10
79.11127792076037
 20
-147.5489610091197
 10
79.11127792076037
 20
-147.5489610091197
 10
79.11127792076037
 20
-147.2972967839222
 10
79.11127792076037
 20
-147.2972967839222
 10
79.11127792076037
 20
-147.2972967839222
 10
79.36294214595787
 20
-147.2972967839222
 10
79.36294214595787
 20
-147.2972967839222
 10
79.36294214595787
 20
-147.2972967839222
 10
79.36294214595787
 20
-147.5489610091197
 10
79.36294214595787
 20
-147.5489610091197
 97
        0
 97
        1
330
117
 75
     2
 76
     1
 98
        1
 10
0.0
 20
0.0
450
        0
451
        0
460
0.0
461
0.0
452
        0
462
0.0
453
        0
470

  0
SPLINE
  5
119
330
110
100
AcDbEntity
  8
レイヤー 1
100
AcDbSpline
210
0.0
220
0.0
230
1.0
 70
     9
 71
     3
 72
    53
 73
    49
 74
     0
 42
0.0000000001
 43
0.0000000001
 40
0.0
 40
0.0
 40
0.0
 40
0.0
 40
1.0
 40
1.0
 40
1.0
 40
2.0
 40
2.0
 40
2.0
 40
3.0
 40
3.0
 40
3.0
 40
4.0
 40
4.0
 40
4.0
 40
5.0
 40
5.0
 40
5.0
 40
6.0
 40
6.0
 40
6.0
 40
7.0
 40
7.0
 40
7.0
 40
8.0
 40
8.0
 40
8.0
 40
9.0
 40
9.0
 40
9.0
 40
10.0
 40
10.0
 40
10.0
 40
11.0
 40
11.0
 40
11.0
 40
12.0
 40
12.0
 40
12.0
 40
13.0
 40
13.0
 40
13.0
 40
14.0
 40
14.0
 40
14.0
 40
15.0
 40
15.0
 40
15.0
 40
16.0
 40
16.0
 40
16.0
 40
16.0
 10
79.41375730436532
 20
-146.5796833943446
 30
0.0
 10
79.41375730436532
 20
-146.6580593166341
 30
0.0
 10
79.39687633648759
 20
-146.7595173786747
 30
0.0
 10
79.33331432478474
 20
-146.8611476954896
 30
0.0
 10
79.22324352403101
 20
-147.0346082531719
 30
0.0
 10
79.09215764081725
 20
-147.0557955904062
 30
0.0
 10
78.98432615212891
 20
-147.074743615575
 30
0.0
 10
78.98432615212891
 20
-147.074743615575
 30
0.0
 10
78.98432615212891
 20
-146.8527072115507
 30
0.0
 10
78.98432615212891
 20
-146.8527072115507
 30
0.0
 10
79.18310816162784
 20
-146.7975856837867
 30
0.0
 10
79.21273598280099
 20
-146.6706339151552
 30
0.0
 10
79.21273598280099
 20
-146.5776163370535
 30
0.0
 10
79.21273598280099
 20
-146.4379177151266
 30
0.0
 10
79.11334497805153
 20
-146.2856444946786
 30
0.0
 10
78.8806287780229
 20
-146.2856444946786
 30
0.0
 10
78.62465818346883
 20
-146.2856444946786
 30
0.0
 10
78.55489499989253
 20
-146.4654784790086
 30
0.0
 10
78.55489499989253
 20
-146.5860568209924
 30
0.0
 10
78.55489499989253
 20
-146.6177516994567
 30
0.0
 10
78.55489499989253
 20
-146.7595173786747
 30
0.0
 10
78.68391382581513
 20
-146.8484008421941
 30
0.0
 10
78.68391382581513
 20
-146.8484008421941
 30
0.0
 10
78.664793545872
 20
-147.0239284571676
 30
0.0
 10
78.664793545872
 20
-147.0239284571676
 30
0.0
 10
78.664793545872
 20
-147.0239284571676
 30
0.0
 10
77.81867809469463
 20
-146.9033501151839
 30
0.0
 10
77.81867809469463
 20
-146.9033501151839
 30
0.0
 10
77.81867809469463
 20
-146.9033501151839
 30
0.0
 10
77.81867809469463
 20
-146.1249307902917
 30
0.0
 10
77.81867809469463
 20
-146.1249307902917
 30
0.0
 10
77.81867809469463
 20
-146.1249307902917
 30
0.0
 10
78.01332598961126
 20
-146.1249307902917
 30
0.0
 10
78.01332598961126
 20
-146.1249307902917
 30
0.0
 10
78.01332598961126
 20
-146.1249307902917
 30
0.0
 10
78.01332598961126
 20
-146.7405693535058
 30
0.0
 10
78.01332598961126
 20
-146.7405693535058
 30
0.0
 10
78.01332598961126
 20
-146.7405693535058
 30
0.0
 10
78.43638371519993
 20
-146.8060261677256
 30
0.0
 10
78.43638371519993
 20
-146.8060261677256
 30
0.0
 10
78.40244952467023
 20
-146.7447034680881
 30
0.0
 10
78.36231416226707
 20
-146.6621934312164
 30
0.0
 10
78.36231416226707
 20
-146.543854401298
 30
0.0
 10
78.36231416226707
 20
-146.2899508640351
 30
0.0
 10
78.54852157324481
 20
-146.05292829465
 30
0.0
 10
78.86150849807977
 20
-146.05292829465
 30
0.0
 10
79.17897404704554
 20
-146.05292829465
 30
0.0
 10
79.41375730436532
 20
-146.2772040107397
 30
0.0
 10
79.41375730436532
 20
-146.5796833943446
 30
0.0
  0
HATCH
  5
11A
330
110
100
AcDbEntity
  8
レイヤー 1
 62
    18
420
        0
440
 33554687
100
AcDbHatch
 10
0.0
 20
0.0
 30
0.0
210
0.0
220
0.0
230
1.0
  2
SOLID
 70
     1
 71
     1
 91
        1
 92
        1
 93
        1
 72
     4
 94
        3
 73
     0
 74
     0
 95
       53
 96
       49
 40
0.0
 40
0.0
 40
0.0
 40
0.0
 40
1.0
 40
1.0
 40
1.0
 40
2.0
 40
2.0
 40
2.0
 40
3.0
 40
3.0
 40
3.0
 40
4.0
 40
4.0
 40
4.0
 40
5.0
 40
5.0
 40
5.0
 40
6.0
 40
6.0
 40
6.0
 40
7.0
 40
7.0
 40
7.0
 40
8.0
 40
8.0
 40
8.0
 40
9.0
 40
9.0
 40
9.0
 40
10.0
 40
10.0
 40
10.0
 40
11.0
 40
11.0
 40
11.0
 40
12.0
 40
12.0
 40
12.0
 40
13.0
 40
13.0
 40
13.0
 40
14.0
 40
14.0
 40
14.0
 40
15.0
 40
15.0
 40
15.0
 40
16.0
 40
16.0
 40
16.0
 40
16.0
 10
79.41375730436532
 20
-146.5796833943446
 10
79.41375730436532
 20
-146.6580593166341
 10
79.39687633648759
 20
-146.7595173786747
 10
79.33331432478474
 20
-146.8611476954896
 10
79.22324352403101
 20
-147.0346082531719
 10
79.09215764081725
 20
-147.0557955904062
 10
78.98432615212891
 20
-147.074743615575
 10
78.98432615212891
 20
-147.074743615575
 10
78.98432615212891
 20
-146.8527072115507
 10
78.98432615212891
 20
-146.8527072115507
 10
79.18310816162784
 20
-146.7975856837867
 10
79.21273598280099
 20
-146.6706339151552
 10
79.21273598280099
 20
-146.5776163370535
 10
79.21273598280099
 20
-146.4379177151266
 10
79.11334497805153
 20
-146.2856444946786
 10
78.8806287780229
 20
-146.2856444946786
 10
78.62465818346883
 20
-146.2856444946786
 10
78.55489499989253
 20
-146.4654784790086
 10
78.55489499989253
 20
-146.5860568209924
 10
78.55489499989253
 20
-146.6177516994567
 10
78.55489499989253
 20
-146.7595173786747
 10
78.68391382581513
 20
-146.8484008421941
 10
78.68391382581513
 20
-146.8484008421941
 10
78.664793545872
 20
-147.0239284571676
 10
78.664793545872
 20
-147.0239284571676
 10
78.664793545872
 20
-147.0239284571676
 10
77.81867809469463
 20
-146.9033501151839
 10
77.81867809469463
 20
-146.9033501151839
 10
77.81867809469463
 20
-146.9033501151839
 10
77.81867809469463
 20
-146.1249307902917
 10
77.81867809469463
 20
-146.1249307902917
 10
77.81867809469463
 20
-146.1249307902917
 10
78.01332598961126
 20
-146.1249307902917
 10
78.01332598961126
 20
-146.1249307902917
 10
78.01332598961126
 20
-146.1249307902917
 10
78.01332598961126
 20
-146.7405693535058
 10
78.01332598961126
 20
-146.7405693535058
 10
78.01332598961126
 20
-146.7405693535058
 10
78.43638371519993
 20
-146.8060261677256
 10
78.43638371519993
 20
-146.8060261677256
 10
78.40244952467023
 20
-146.7447034680881
 10
78.36231416226707
 20
-146.6621934312164
 10
78.36231416226707
 20
-146.543854401298
 10
78.36231416226707
 20
-146.2899508640351
 10
78.54852157324481
 20
-146.05292829465
 10
78.86150849807977
 20
-146.05292829465
 10
79.17897404704554
 20
-146.05292829465
 10
79.41375730436532
 20
-146.2772040107397
 10
79.41375730436532
 20
-146.5796833943446
 97
        0
 97
        1
330
119
 75
     2
 76
     1
 98
        1
 10
0.0
 20
0.0
450
        0
451
        0
460
0.0
461
0.0
452
        0
462
0.0
453
        0
470

  0
ENDBLK
  5
113
330
110
100
AcDbEntity
  8
0
100
AcDbBlockEnd
  0
BLOCK
  5
11F
330
11D
100
AcDbEntity
  8
0
100
AcDbBlockBegin
  2
Block_11
 70
     0
 10
0.0
 20
0.0
 30
0.0
  3
Block_11
  1

  0
INSERT
  5
122
330
11D
100
AcDbEntity
  8
レイヤー 1
100
AcDbBlockReference
  2
Block_12
 10
0.0
 20
0.0
 30
0.0
  0
ENDBLK
  5
120
330
11D
100
AcDbEntity
  8
0
100
AcDbBlockEnd
  0
BLOCK
  5
123
330
121
100
AcDbEntity
  8
0
100
AcDbBlockBegin
  2
Block_12
 70
     0
 10
0.0
 20
0.0
 30
0.0
  3
Block_12
  1

  0
SPLINE
  5
125
330
121
100
AcDbEntity
  8
レイヤー 1
100
AcDbSpline
210
0.0
220
0.0
230
1.0
 70
     9
 71
     3
 72
    44
 73
    40
 74
     0
 42
0.0000000001
 43
0.0000000001
 40
0.0
 40
0.0
 40
0.0
 40
0.0
 40
1.0
 40
1.0
 40
1.0
 40
2.0
 40
2.0
 40
2.0
 40
3.0
 40
3.0
 40
3.0
 40
4.0
 40
4.0
 40
4.0
 40
5.0
 40
5.0
 40
5.0
 40
6.0
 40
6.0
 40
6.0
 40
7.0
 40
7.0
 40
7.0
 40
8.0
 40
8.0
 40
8.0
 40
9.0
 40
9.0
 40
9.0
 40
10.0
 40
10.0
 40
10.0
 40
11.0
 40
11.0
 40
11.0
 40
12.0
 40
12.0
 40
12.0
 40
13.0
 40
13.0
 40
13.0
 40
13.0
 10
94.73581947501397
 20
-141.0730427707213
 30
0.0
 10
94.51808944034617
 20
-141.2316894178171
 30
0.0
 10
94.42507186224444
 20
-141.3057589707499
 30
0.0
 10
94.37615150635387
 20
-141.4495917072591
 30
0.0
 10
94.37615150635387
 20
-141.4495917072591
 30
0.0
 10
95.15474308602035
 20
-141.4495917072591
 30
0.0
 10
95.15474308602035
 20
-141.4495917072591
 30
0.0
 10
95.15474308602035
 20
-141.4495917072591
 30
0.0
 10
95.15474308602035
 20
-141.6547471434057
 30
0.0
 10
95.15474308602035
 20
-141.6547471434057
 30
0.0
 10
95.15474308602035
 20
-141.6547471434057
 30
0.0
 10
94.12672659322179
 20
-141.6547471434057
 30
0.0
 10
94.12672659322179
 20
-141.6547471434057
 30
0.0
 10
94.15842147168609
 20
-141.2971462320368
 30
0.0
 10
94.22387828590585
 20
-141.2189425645216
 30
0.0
 10
94.60903996115677
 20
-140.920597295499
 30
0.0
 10
94.86501055571084
 20
-140.7218152860001
 30
0.0
 10
94.93046736993058
 20
-140.6541191597149
 30
0.0
 10
94.93046736993058
 20
-140.5166598498535
 30
0.0
 10
94.93046736993058
 20
-140.3981485651609
 30
0.0
 10
94.85846487428885
 20
-140.2670626819471
 30
0.0
 10
94.66174992208109
 20
-140.2670626819471
 30
0.0
 10
94.40164521294473
 20
-140.2670626819471
 30
0.0
 10
94.39303247423159
 20
-140.4975395699103
 30
0.0
 10
94.3888983596493
 20
-140.6139837973118
 30
0.0
 10
94.3888983596493
 20
-140.6139837973118
 30
0.0
 10
94.16462264355955
 20
-140.6139837973118
 30
0.0
 10
94.16462264355955
 20
-140.6139837973118
 30
0.0
 10
94.17323538227266
 20
-140.4870320286803
 30
0.0
 10
94.18391517827695
 20
-140.3748941706354
 30
0.0
 10
94.26418590308326
 20
-140.2563828859428
 30
0.0
 10
94.37408444906273
 20
-140.0956691815559
 30
0.0
 10
94.56046411481475
 20
-140.0617349910262
 30
0.0
 10
94.67656383266767
 20
-140.0617349910262
 30
0.0
 10
94.95389401923027
 20
-140.0617349910262
 30
0.0
 10
95.16128876744231
 20
-140.2458753447128
 30
0.0
 10
95.16128876744231
 20
-140.5187269071446
 30
0.0
 10
95.16128876744231
 20
-140.7471367378167
 30
0.0
 10
95.04484454004087
 20
-140.8466999973404
 30
0.0
 10
94.73581947501397
 20
-141.0730427707213
 30
0.0
  0
HATCH
  5
126
330
121
100
AcDbEntity
  8
レイヤー 1
 62
    18
420
        0
440
 33554687
100
AcDbHatch
 10
0.0
 20
0.0
 30
0.0
210
0.0
220
0.0
230
1.0
  2
SOLID
 70
     1
 71
     1
 91
        1
 92
        1
 93
        1
 72
     4
 94
        3
 73
     0
 74
     0
 95
       44
 96
       40
 40
0.0
 40
0.0
 40
0.0
 40
0.0
 40
1.0
 40
1.0
 40
1.0
 40
2.0
 40
2.0
 40
2.0
 40
3.0
 40
3.0
 40
3.0
 40
4.0
 40
4.0
 40
4.0
 40
5.0
 40
5.0
 40
5.0
 40
6.0
 40
6.0
 40
6.0
 40
7.0
 40
7.0
 40
7.0
 40
8.0
 40
8.0
 40
8.0
 40
9.0
 40
9.0
 40
9.0
 40
10.0
 40
10.0
 40
10.0
 40
11.0
 40
11.0
 40
11.0
 40
12.0
 40
12.0
 40
12.0
 40
13.0
 40
13.0
 40
13.0
 40
13.0
 10
94.73581947501397
 20
-141.0730427707213
 10
94.51808944034617
 20
-141.2316894178171
 10
94.42507186224444
 20
-141.3057589707499
 10
94.37615150635387
 20
-141.4495917072591
 10
94.37615150635387
 20
-141.4495917072591
 10
95.15474308602035
 20
-141.4495917072591
 10
95.15474308602035
 20
-141.4495917072591
 10
95.15474308602035
 20
-141.4495917072591
 10
95.15474308602035
 20
-141.6547471434057
 10
95.15474308602035
 20
-141.6547471434057
 10
95.15474308602035
 20
-141.6547471434057
 10
94.12672659322179
 20
-141.6547471434057
 10
94.12672659322179
 20
-141.6547471434057
 10
94.15842147168609
 20
-141.2971462320368
 10
94.22387828590585
 20
-141.2189425645216
 10
94.60903996115677
 20
-140.920597295499
 10
94.86501055571084
 20
-140.7218152860001
 10
94.93046736993058
 20
-140.6541191597149
 10
94.93046736993058
 20
-140.5166598498535
 10
94.93046736993058
 20
-140.3981485651609
 10
94.85846487428885
 20
-140.2670626819471
 10
94.66174992208109
 20
-140.2670626819471
 10
94.40164521294473
 20
-140.2670626819471
 10
94.39303247423159
 20
-140.4975395699103
 10
94.3888983596493
 20
-140.6139837973118
 10
94.3888983596493
 20
-140.6139837973118
 10
94.16462264355955
 20
-140.6139837973118
 10
94.16462264355955
 20
-140.6139837973118
 10
94.17323538227266
 20
-140.4870320286803
 10
94.18391517827695
 20
-140.3748941706354
 10
94.26418590308326
 20
-140.2563828859428
 10
94.37408444906273
 20
-140.0956691815559
 10
94.56046411481475
 20
-140.0617349910262
 10
94.67656383266767
 20
-140.0617349910262
 10
94.95389401923027
 20
-140.0617349910262
 10
95.16128876744231
 20
-140.2458753447128
 10
95.16128876744231
 20
-140.5187269071446
 10
95.16128876744231
 20
-140.7471367378167
 10
95.04484454004087
 20
-140.8466999973404
 10
94.73581947501397
 20
-141.0730427707213
 97
        0
 97
        1
330
125
 75
     2
 76
     1
 98
        1
 10
0.0
 20
0.0
450
        0
451
        0
460
0.0
461
0.0
452
        0
462
0.0
453
        0
470

  0
SPLINE
  5
127
330
121
100
AcDbEntity
  8
レイヤー 1
100
AcDbSpline
210
0.0
220
0.0
230
1.0
 70
    11
 71
     3
 72
    26
 73
    22
 74
     0
 42
0.0000000001
 43
0.0000000001
 40
0.0
 40
0.0
 40
0.0
 40
0.0
 40
1.0
 40
1.0
 40
1.0
 40
2.0
 40
2.0
 40
2.0
 40
3.0
 40
3.0
 40
3.0
 40
4.0
 40
4.0
 40
4.0
 40
5.0
 40
5.0
 40
5.0
 40
6.0
 40
6.0
 40
6.0
 40
7.0
 40
7.0
 40
7.0
 40
7.0
 10
95.77107066833155
 20
-141.6547471434057
 30
0.0
 10
95.77107066833155
 20
-141.6547471434057
 30
0.0
 10
95.77107066833155
 20
-140.5504217856089
 30
0.0
 10
95.77107066833155
 20
-140.5504217856089
 30
0.0
 10
95.77107066833155
 20
-140.5504217856089
 30
0.0
 10
95.4410305208446
 20
-140.5504217856089
 30
0.0
 10
95.4410305208446
 20
-140.5504217856089
 30
0.0
 10
95.4410305208446
 20
-140.5504217856089
 30
0.0
 10
95.4410305208446
 20
-140.4024549345174
 30
0.0
 10
95.4410305208446
 20
-140.4024549345174
 30
0.0
 10
95.77313772562268
 20
-140.3876410239309
 30
0.0
 10
95.81964651467357
 20
-140.2246880074785
 30
0.0
 10
95.84927433584672
 20
-140.1104830921425
 30
0.0
 10
95.84927433584672
 20
-140.1104830921425
 30
0.0
 10
95.99534638442131
 20
-140.1104830921425
 30
0.0
 10
95.99534638442131
 20
-140.1104830921425
 30
0.0
 10
95.99534638442131
 20
-140.1104830921425
 30
0.0
 10
95.99534638442131
 20
-141.6547471434057
 30
0.0
 10
95.99534638442131
 20
-141.6547471434057
 30
0.0
 10
95.99534638442131
 20
-141.6547471434057
 30
0.0
 10
95.77107066833155
 20
-141.6547471434057
 30
0.0
 10
95.77107066833155
 20
-141.6547471434057
 30
0.0
  0
HATCH
  5
128
330
121
100
AcDbEntity
  8
レイヤー 1
 62
    18
420
        0
440
 33554687
100
AcDbHatch
 10
0.0
 20
0.0
 30
0.0
210
0.0
220
0.0
230
1.0
  2
SOLID
 70
     1
 71
     1
 91
        1
 92
        1
 93
        1
 72
     4
 94
        3
 73
     0
 74
     0
 95
       26
 96
       22
 40
0.0
 40
0.0
 40
0.0
 40
0.0
 40
1.0
 40
1.0
 40
1.0
 40
2.0
 40
2.0
 40
2.0
 40
3.0
 40
3.0
 40
3.0
 40
4.0
 40
4.0
 40
4.0
 40
5.0
 40
5.0
 40
5.0
 40
6.0
 40
6.0
 40
6.0
 40
7.0
 40
7.0
 40
7.0
 40
7.0
 10
95.77107066833155
 20
-141.6547471434057
 10
95.77107066833155
 20
-141.6547471434057
 10
95.77107066833155
 20
-140.5504217856089
 10
95.77107066833155
 20
-140.5504217856089
 10
95.77107066833155
 20
-140.5504217856089
 10
95.4410305208446
 20
-140.5504217856089
 10
95.4410305208446
 20
-140.5504217856089
 10
95.4410305208446
 20
-140.5504217856089
 10
95.4410305208446
 20
-140.4024549345174
 10
95.4410305208446
 20
-140.4024549345174
 10
95.77313772562268
 20
-140.3876410239309
 10
95.81964651467357
 20
-140.2246880074785
 10
95.84927433584672
 20
-140.1104830921425
 10
95.84927433584672
 20
-140.1104830921425
 10
95.99534638442131
 20
-140.1104830921425
 10
95.99534638442131
 20
-140.1104830921425
 10
95.99534638442131
 20
-140.1104830921425
 10
95.99534638442131
 20
-141.6547471434057
 10
95.99534638442131
 20
-141.6547471434057
 10
95.99534638442131
 20
-141.6547471434057
 10
95.77107066833155
 20
-141.6547471434057
 10
95.77107066833155
 20
-141.6547471434057
 97
        0
 97
        1
330
127
 75
     2
 76
     1
 98
        1
 10
0.0
 20
0.0
450
        0
451
        0
460
0.0
461
0.0
452
        0
462
0.0
453
        0
470

  0
ENDBLK
  5
124
330
121
100
AcDbEntity
  8
0
100
AcDbBlockEnd
  0
BLOCK
  5
12D
330
12B
100
AcDbEntity
  8
0
100
AcDbBlockBegin
  2
Block_13
 70
     0
 10
0.0
 20
0.0
 30
0.0
  3
Block_13
  1

  0
SPLINE
  5
12F
330
12B
100
AcDbEntity
  8
レイヤー 1
100
AcDbSpline
210
0.0
220
0.0
230
1.0
 70
     9
 71
     3
 72
    53
 73
    49
 74
     0
 42
0.0000000001
 43
0.0000000001
 40
0.0
 40
0.0
 40
0.0
 40
0.0
 40
1.0
 40
1.0
 40
1.0
 40
2.0
 40
2.0
 40
2.0
 40
3.0
 40
3.0
 40
3.0
 40
4.0
 40
4.0
 40
4.0
 40
5.0
 40
5.0
 40
5.0
 40
6.0
 40
6.0
 40
6.0
 40
7.0
 40
7.0
 40
7.0
 40
8.0
 40
8.0
 40
8.0
 40
9.0
 40
9.0
 40
9.0
 40
10.0
 40
10.0
 40
10.0
 40
11.0
 40
11.0
 40
11.0
 40
12.0
 40
12.0
 40
12.0
 40
13.0
 40
13.0
 40
13.0
 40
14.0
 40
14.0
 40
14.0
 40
15.0
 40
15.0
 40
15.0
 40
16.0
 40
16.0
 40
16.0
 40
16.0
 10
80.1444620567868
 20
-150.1496635909348
 30
0.0
 10
80.1444620567868
 20
-150.22786725845
 30
0.0
 10
80.12740883413481
 20
-150.3294975752648
 30
0.0
 10
80.06401907720622
 20
-150.4311278920797
 30
0.0
 10
79.95394827645249
 20
-150.6044161949878
 30
0.0
 10
79.82286239323873
 20
-150.6257757869963
 30
0.0
 10
79.71503090455041
 20
-150.6447238121652
 30
0.0
 10
79.71503090455041
 20
-150.6447238121652
 30
0.0
 10
79.71503090455041
 20
-150.4225151533666
 30
0.0
 10
79.71503090455041
 20
-150.4225151533666
 30
0.0
 10
79.91381291404933
 20
-150.3677381351511
 30
0.0
 10
79.94344073522248
 20
-150.2406141117454
 30
0.0
 10
79.94344073522248
 20
-150.1475965336436
 30
0.0
 10
79.94344073522248
 20
-150.008070166491
 30
0.0
 10
79.84404973047301
 20
-149.855796946043
 30
0.0
 10
79.6113335304444
 20
-149.855796946043
 30
0.0
 10
79.35536293589033
 20
-149.855796946043
 30
0.0
 10
79.28559975231403
 20
-150.035630930373
 30
0.0
 10
79.28559975231403
 20
-150.1562092723568
 30
0.0
 10
79.28559975231403
 20
-150.1879041508211
 30
0.0
 10
79.28559975231403
 20
-150.3294975752648
 30
0.0
 10
79.41461857823663
 20
-150.4183810387843
 30
0.0
 10
79.41461857823663
 20
-150.4183810387843
 30
0.0
 10
79.39549829829349
 20
-150.594080908532
 30
0.0
 10
79.39549829829349
 20
-150.594080908532
 30
0.0
 10
79.39549829829349
 20
-150.594080908532
 30
0.0
 10
78.54938284711614
 20
-150.4735025665483
 30
0.0
 10
78.54938284711614
 20
-150.4735025665483
 30
0.0
 10
78.54938284711614
 20
-150.4735025665483
 30
0.0
 10
78.54938284711614
 20
-149.6949109868818
 30
0.0
 10
78.54938284711614
 20
-149.6949109868818
 30
0.0
 10
78.54938284711614
 20
-149.6949109868818
 30
0.0
 10
78.74403074203275
 20
-149.6949109868818
 30
0.0
 10
78.74403074203275
 20
-149.6949109868818
 30
0.0
 10
78.74403074203275
 20
-149.6949109868818
 30
0.0
 10
78.74403074203275
 20
-150.3105495500959
 30
0.0
 10
78.74403074203275
 20
-150.3105495500959
 30
0.0
 10
78.74403074203275
 20
-150.3105495500959
 30
0.0
 10
79.16708846762142
 20
-150.3760063643157
 30
0.0
 10
79.16708846762142
 20
-150.3760063643157
 30
0.0
 10
79.13315427709171
 20
-150.3146836646783
 30
0.0
 10
79.09301891468856
 20
-150.2323458825808
 30
0.0
 10
79.09301891468856
 20
-150.1138345978882
 30
0.0
 10
79.09301891468856
 20
-149.8599310606253
 30
0.0
 10
79.27922632566631
 20
-149.6229084912401
 30
0.0
 10
79.59221325050126
 20
-149.6229084912401
 30
0.0
 10
79.90967879946703
 20
-149.6229084912401
 30
0.0
 10
80.1444620567868
 20
-149.8471842073299
 30
0.0
 10
80.1444620567868
 20
-150.1496635909348
 30
0.0
  0
HATCH
  5
130
330
12B
100
AcDbEntity
  8
レイヤー 1
 62
    18
420
        0
440
 33554687
100
AcDbHatch
 10
0.0
 20
0.0
 30
0.0
210
0.0
220
0.0
230
1.0
  2
SOLID
 70
     1
 71
     1
 91
        1
 92
        1
 93
        1
 72
     4
 94
        3
 73
     0
 74
     0
 95
       53
 96
       49
 40
0.0
 40
0.0
 40
0.0
 40
0.0
 40
1.0
 40
1.0
 40
1.0
 40
2.0
 40
2.0
 40
2.0
 40
3.0
 40
3.0
 40
3.0
 40
4.0
 40
4.0
 40
4.0
 40
5.0
 40
5.0
 40
5.0
 40
6.0
 40
6.0
 40
6.0
 40
7.0
 40
7.0
 40
7.0
 40
8.0
 40
8.0
 40
8.0
 40
9.0
 40
9.0
 40
9.0
 40
10.0
 40
10.0
 40
10.0
 40
11.0
 40
11.0
 40
11.0
 40
12.0
 40
12.0
 40
12.0
 40
13.0
 40
13.0
 40
13.0
 40
14.0
 40
14.0
 40
14.0
 40
15.0
 40
15.0
 40
15.0
 40
16.0
 40
16.0
 40
16.0
 40
16.0
 10
80.1444620567868
 20
-150.1496635909348
 10
80.1444620567868
 20
-150.22786725845
 10
80.12740883413481
 20
-150.3294975752648
 10
80.06401907720622
 20
-150.4311278920797
 10
79.95394827645249
 20
-150.6044161949878
 10
79.82286239323873
 20
-150.6257757869963
 10
79.71503090455041
 20
-150.6447238121652
 10
79.71503090455041
 20
-150.6447238121652
 10
79.71503090455041
 20
-150.4225151533666
 10
79.71503090455041
 20
-150.4225151533666
 10
79.91381291404933
 20
-150.3677381351511
 10
79.94344073522248
 20
-150.2406141117454
 10
79.94344073522248
 20
-150.1475965336436
 10
79.94344073522248
 20
-150.008070166491
 10
79.84404973047301
 20
-149.855796946043
 10
79.6113335304444
 20
-149.855796946043
 10
79.35536293589033
 20
-149.855796946043
 10
79.28559975231403
 20
-150.035630930373
 10
79.28559975231403
 20
-150.1562092723568
 10
79.28559975231403
 20
-150.1879041508211
 10
79.28559975231403
 20
-150.3294975752648
 10
79.41461857823663
 20
-150.4183810387843
 10
79.41461857823663
 20
-150.4183810387843
 10
79.39549829829349
 20
-150.594080908532
 10
79.39549829829349
 20
-150.594080908532
 10
79.39549829829349
 20
-150.594080908532
 10
78.54938284711614
 20
-150.4735025665483
 10
78.54938284711614
 20
-150.4735025665483
 10
78.54938284711614
 20
-150.4735025665483
 10
78.54938284711614
 20
-149.6949109868818
 10
78.54938284711614
 20
-149.6949109868818
 10
78.54938284711614
 20
-149.6949109868818
 10
78.74403074203275
 20
-149.6949109868818
 10
78.74403074203275
 20
-149.6949109868818
 10
78.74403074203275
 20
-149.6949109868818
 10
78.74403074203275
 20
-150.3105495500959
 10
78.74403074203275
 20
-150.3105495500959
 10
78.74403074203275
 20
-150.3105495500959
 10
79.16708846762142
 20
-150.3760063643157
 10
79.16708846762142
 20
-150.3760063643157
 10
79.13315427709171
 20
-150.3146836646783
 10
79.09301891468856
 20
-150.2323458825808
 10
79.09301891468856
 20
-150.1138345978882
 10
79.09301891468856
 20
-149.8599310606253
 10
79.27922632566631
 20
-149.6229084912401
 10
79.59221325050126
 20
-149.6229084912401
 10
79.90967879946703
 20
-149.6229084912401
 10
80.1444620567868
 20
-149.8471842073299
 10
80.1444620567868
 20
-150.1496635909348
 97
        0
 97
        1
330
12F
 75
     2
 76
     1
 98
        1
 10
0.0
 20
0.0
450
        0
451
        0
460
0.0
461
0.0
452
        0
462
0.0
453
        0
470

  0
ENDBLK
  5
12E
330
12B
100
AcDbEntity
  8
0
100
AcDbBlockEnd
  0
BLOCK
  5
134
330
132
100
AcDbEntity
  8
0
100
AcDbBlockBegin
  2
Block_14
 70
     0
 10
0.0
 20
0.0
 30
0.0
  3
Block_14
  1

  0
SPLINE
  5
136
330
132
100
AcDbEntity
  8
レイヤー 1
100
AcDbSpline
210
0.0
220
0.0
230
1.0
 70
    11
 71
     3
 72
    26
 73
    22
 74
     0
 42
0.0000000001
 43
0.0000000001
 40
0.0
 40
0.0
 40
0.0
 40
0.0
 40
1.0
 40
1.0
 40
1.0
 40
2.0
 40
2.0
 40
2.0
 40
3.0
 40
3.0
 40
3.0
 40
4.0
 40
4.0
 40
4.0
 40
5.0
 40
5.0
 40
5.0
 40
6.0
 40
6.0
 40
6.0
 40
7.0
 40
7.0
 40
7.0
 40
7.0
 10
111.7175563956817
 20
-148.9394015469665
 30
0.0
 10
111.7175563956817
 20
-148.9394015469665
 30
0.0
 10
111.7175563956817
 20
-147.8352484439439
 30
0.0
 10
111.7175563956817
 20
-147.8352484439439
 30
0.0
 10
111.7175563956817
 20
-147.8352484439439
 30
0.0
 10
111.3875162481948
 20
-147.8352484439439
 30
0.0
 10
111.3875162481948
 20
-147.8352484439439
 30
0.0
 10
111.3875162481948
 20
-147.8352484439439
 30
0.0
 10
111.3875162481948
 20
-147.6871093380782
 30
0.0
 10
111.3875162481948
 20
-147.6871093380782
 30
0.0
 10
111.7196234529729
 20
-147.6724676822659
 30
0.0
 10
111.7661322420237
 20
-147.5095146658136
 30
0.0
 10
111.7957600631969
 20
-147.3953097504775
 30
0.0
 10
111.7957600631969
 20
-147.3953097504775
 30
0.0
 10
111.9418321117715
 20
-147.3953097504775
 30
0.0
 10
111.9418321117715
 20
-147.3953097504775
 30
0.0
 10
111.9418321117715
 20
-147.3953097504775
 30
0.0
 10
111.9418321117715
 20
-148.9394015469665
 30
0.0
 10
111.9418321117715
 20
-148.9394015469665
 30
0.0
 10
111.9418321117715
 20
-148.9394015469665
 30
0.0
 10
111.7175563956817
 20
-148.9394015469665
 30
0.0
 10
111.7175563956817
 20
-148.9394015469665
 30
0.0
  0
HATCH
  5
137
330
132
100
AcDbEntity
  8
レイヤー 1
 62
    18
420
        0
440
 33554687
100
AcDbHatch
 10
0.0
 20
0.0
 30
0.0
210
0.0
220
0.0
230
1.0
  2
SOLID
 70
     1
 71
     1
 91
        1
 92
        1
 93
        1
 72
     4
 94
        3
 73
     0
 74
     0
 95
       26
 96
       22
 40
0.0
 40
0.0
 40
0.0
 40
0.0
 40
1.0
 40
1.0
 40
1.0
 40
2.0
 40
2.0
 40
2.0
 40
3.0
 40
3.0
 40
3.0
 40
4.0
 40
4.0
 40
4.0
 40
5.0
 40
5.0
 40
5.0
 40
6.0
 40
6.0
 40
6.0
 40
7.0
 40
7.0
 40
7.0
 40
7.0
 10
111.7175563956817
 20
-148.9394015469665
 10
111.7175563956817
 20
-148.9394015469665
 10
111.7175563956817
 20
-147.8352484439439
 10
111.7175563956817
 20
-147.8352484439439
 10
111.7175563956817
 20
-147.8352484439439
 10
111.3875162481948
 20
-147.8352484439439
 10
111.3875162481948
 20
-147.8352484439439
 10
111.3875162481948
 20
-147.8352484439439
 10
111.3875162481948
 20
-147.6871093380782
 10
111.3875162481948
 20
-147.6871093380782
 10
111.7196234529729
 20
-147.6724676822659
 10
111.7661322420237
 20
-147.5095146658136
 10
111.7957600631969
 20
-147.3953097504775
 10
111.7957600631969
 20
-147.3953097504775
 10
111.9418321117715
 20
-147.3953097504775
 10
111.9418321117715
 20
-147.3953097504775
 10
111.9418321117715
 20
-147.3953097504775
 10
111.9418321117715
 20
-148.9394015469665
 10
111.9418321117715
 20
-148.9394015469665
 10
111.9418321117715
 20
-148.9394015469665
 10
111.7175563956817
 20
-148.9394015469665
 10
111.7175563956817
 20
-148.9394015469665
 97
        0
 97
        1
330
136
 75
     2
 76
     1
 98
        1
 10
0.0
 20
0.0
450
        0
451
        0
460
0.0
461
0.0
452
        0
462
0.0
453
        0
470

  0
ENDBLK
  5
135
330
132
100
AcDbEntity
  8
0
100
AcDbBlockEnd
  0
BLOCK
  5
13C
330
13A
100
AcDbEntity
  8
0
100
AcDbBlockBegin
  2
Block_15
 70
     0
 10
0.0
 20
0.0
 30
0.0
  3
Block_15
  1

  0
INSERT
  5
13F
330
13A
100
AcDbEntity
  8
レイヤー 1
100
AcDbBlockReference
  2
Block_16
 10
0.0
 20
0.0
 30
0.0
  0
INSERT
  5
15A
330
13A
100
AcDbEntity
  8
レイヤー 1
100
AcDbBlockReference
  2
Block_18
 10
0.0
 20
0.0
 30
0.0
  0
ENDBLK
  5
13D
330
13A
100
AcDbEntity
  8
0
100
AcDbBlockEnd
  0
BLOCK
  5
140
330
13E
100
AcDbEntity
  8
0
100
AcDbBlockBegin
  2
Block_16
 70
     0
 10
0.0
 20
0.0
 30
0.0
  3
Block_16
  1

  0
INSERT
  5
143
330
13E
100
AcDbEntity
  8
レイヤー 1
100
AcDbBlockReference
  2
Block_17
 10
0.0
 20
0.0
 30
0.0
  0
ENDBLK
  5
141
330
13E
100
AcDbEntity
  8
0
100
AcDbBlockEnd
  0
BLOCK
  5
144
330
142
100
AcDbEntity
  8
0
100
AcDbBlockBegin
  2
Block_17
 70
     0
 10
0.0
 20
0.0
 30
0.0
  3
Block_17
  1

  0
SPLINE
  5
146
330
142
100
AcDbEntity
  8
レイヤー 1
100
AcDbSpline
210
0.0
220
0.0
230
1.0
 70
     9
 71
     3
 72
    17
 73
    13
 74
     0
 42
0.0000000001
 43
0.0000000001
 40
0.0
 40
0.0
 40
0.0
 40
0.0
 40
1.0
 40
1.0
 40
1.0
 40
2.0
 40
2.0
 40
2.0
 40
3.0
 40
3.0
 40
3.0
 40
4.0
 40
4.0
 40
4.0
 40
4.0
 10
91.14327390299543
 20
-154.8501518710097
 30
0.0
 10
91.12639293511771
 20
-154.8797796921828
 30
0.0
 10
91.07557777671027
 20
-154.9731417798331
 30
0.0
 10
91.06507023548026
 20
-154.992089805002
 30
0.0
 10
91.25541176104032
 20
-155.0513454473482
 30
0.0
 10
91.2765990982746
 20
-155.0575466192217
 30
0.0
 10
91.34860159391633
 20
-155.0851073831037
 30
0.0
 10
91.40355086690606
 20
-154.9982909768754
 30
0.0
 10
91.4268052614315
 20
-154.9242214239425
 30
0.0
 10
91.44161917201806
 20
-154.8501518710097
 30
0.0
 10
91.44161917201806
 20
-154.8501518710097
 30
0.0
 10
91.14327390299543
 20
-154.8501518710097
 30
0.0
 10
91.14327390299543
 20
-154.8501518710097
 30
0.0
  0
SPLINE
  5
147
330
142
100
AcDbEntity
  8
レイヤー 1
100
AcDbSpline
210
0.0
220
0.0
230
1.0
 70
    11
 71
     3
 72
    20
 73
    16
 74
     0
 42
0.0000000001
 43
0.0000000001
 40
0.0
 40
0.0
 40
0.0
 40
0.0
 40
1.0
 40
1.0
 40
1.0
 40
2.0
 40
2.0
 40
2.0
 40
3.0
 40
3.0
 40
3.0
 40
4.0
 40
4.0
 40
4.0
 40
5.0
 40
5.0
 40
5.0
 40
5.0
 10
91.07988414606685
 20
-153.99990230525
 30
0.0
 10
91.07988414606685
 20
-153.99990230525
 30
0.0
 10
91.04818926760254
 20
-153.99990230525
 30
0.0
 10
91.04818926760254
 20
-153.99990230525
 30
0.0
 10
91.09469805665341
 20
-154.0991210552252
 30
0.0
 10
91.12639293511771
 20
-154.17973628958
 30
0.0
 10
91.16032712564743
 20
-154.3065158034372
 30
0.0
 10
91.16032712564743
 20
-154.3065158034372
 30
0.0
 10
91.3675496190852
 20
-154.3065158034372
 30
0.0
 10
91.3675496190852
 20
-154.3065158034372
 30
0.0
 10
91.3992444975495
 20
-154.2134982253355
 30
0.0
 10
91.42249889207494
 20
-154.1287488763983
 30
0.0
 10
91.44592554137464
 20
-153.99990230525
 30
0.0
 10
91.44592554137464
 20
-153.99990230525
 30
0.0
 10
91.07988414606685
 20
-153.99990230525
 30
0.0
 10
91.07988414606685
 20
-153.99990230525
 30
0.0
  0
SPLINE
  5
148
330
142
100
AcDbEntity
  8
レイヤー 1
100
AcDbSpline
210
0.0
220
0.0
230
1.0
 70
     9
 71
     3
 72
   242
 73
   238
 74
     0
 42
0.0000000001
 43
0.0000000001
 40
0.0
 40
0.0
 40
0.0
 40
0.0
 40
1.0
 40
1.0
 40
1.0
 40
2.0
 40
2.0
 40
2.0
 40
3.0
 40
3.0
 40
3.0
 40
4.0
 40
4.0
 40
4.0
 40
5.0
 40
5.0
 40
5.0
 40
6.0
 40
6.0
 40
6.0
 40
7.0
 40
7.0
 40
7.0
 40
8.0
 40
8.0
 40
8.0
 40
9.0
 40
9.0
 40
9.0
 40
10.0
 40
10.0
 40
10.0
 40
11.0
 40
11.0
 40
11.0
 40
12.0
 40
12.0
 40
12.0
 40
13.0
 40
13.0
 40
13.0
 40
14.0
 40
14.0
 40
14.0
 40
15.0
 40
15.0
 40
15.0
 40
16.0
 40
16.0
 40
16.0
 40
17.0
 40
17.0
 40
17.0
 40
18.0
 40
18.0
 40
18.0
 40
19.0
 40
19.0
 40
19.0
 40
20.0
 40
20.0
 40
20.0
 40
21.0
 40
21.0
 40
21.0
 40
22.0
 40
22.0
 40
22.0
 40
23.0
 40
23.0
 40
23.0
 40
24.0
 40
24.0
 40
24.0
 40
25.0
 40
25.0
 40
25.0
 40
26.0
 40
26.0
 40
26.0
 40
27.0
 40
27.0
 40
27.0
 40
28.0
 40
28.0
 40
28.0
 40
29.0
 40
29.0
 40
29.0
 40
30.0
 40
30.0
 40
30.0
 40
31.0
 40
31.0
 40
31.0
 40
32.0
 40
32.0
 40
32.0
 40
33.0
 40
33.0
 40
33.0
 40
34.0
 40
34.0
 40
34.0
 40
35.0
 40
35.0
 40
35.0
 40
36.0
 40
36.0
 40
36.0
 40
37.0
 40
37.0
 40
37.0
 40
38.0
 40
38.0
 40
38.0
 40
39.0
 40
39.0
 40
39.0
 40
40.0
 40
40.0
 40
40.0
 40
41.0
 40
41.0
 40
41.0
 40
42.0
 40
42.0
 40
42.0
 40
43.0
 40
43.0
 40
43.0
 40
44.0
 40
44.0
 40
44.0
 40
45.0
 40
45.0
 40
45.0
 40
46.0
 40
46.0
 40
46.0
 40
47.0
 40
47.0
 40
47.0
 40
48.0
 40
48.0
 40
48.0
 40
49.0
 40
49.0
 40
49.0
 40
50.0
 40
50.0
 40
50.0
 40
51.0
 40
51.0
 40
51.0
 40
52.0
 40
52.0
 40
52.0
 40
53.0
 40
53.0
 40
53.0
 40
54.0
 40
54.0
 40
54.0
 40
55.0
 40
55.0
 40
55.0
 40
56.0
 40
56.0
 40
56.0
 40
57.0
 40
57.0
 40
57.0
 40
58.0
 40
58.0
 40
58.0
 40
59.0
 40
59.0
 40
59.0
 40
60.0
 40
60.0
 40
60.0
 40
61.0
 40
61.0
 40
61.0
 40
62.0
 40
62.0
 40
62.0
 40
63.0
 40
63.0
 40
63.0
 40
64.0
 40
64.0
 40
64.0
 40
65.0
 40
65.0
 40
65.0
 40
66.0
 40
66.0
 40
66.0
 40
67.0
 40
67.0
 40
67.0
 40
68.0
 40
68.0
 40
68.0
 40
69.0
 40
69.0
 40
69.0
 40
70.0
 40
70.0
 40
70.0
 40
71.0
 40
71.0
 40
71.0
 40
72.0
 40
72.0
 40
72.0
 40
73.0
 40
73.0
 40
73.0
 40
74.0
 40
74.0
 40
74.0
 40
75.0
 40
75.0
 40
75.0
 40
76.0
 40
76.0
 40
76.0
 40
77.0
 40
77.0
 40
77.0
 40
78.0
 40
78.0
 40
78.0
 40
79.0
 40
79.0
 40
79.0
 40
79.0
 10
91.70809730780215
 20
-154.4653347053072
 30
0.0
 10
91.70809730780215
 20
-154.4653347053072
 30
0.0
 10
91.45436602531349
 20
-154.4653347053072
 30
0.0
 10
91.45436602531349
 20
-154.4653347053072
 30
0.0
 10
91.45436602531349
 20
-154.4653347053072
 30
0.0
 10
91.17720809352515
 20
-154.4653347053072
 30
0.0
 10
91.17720809352515
 20
-154.4653347053072
 30
0.0
 10
91.17720809352515
 20
-154.4653347053072
 30
0.0
 10
91.30415986215661
 20
-154.5077093797758
 30
0.0
 10
91.30415986215661
 20
-154.5077093797758
 30
0.0
 10
91.31466740338662
 20
-154.5118434943581
 30
0.0
 10
91.32741425668204
 20
-154.5180446662316
 30
0.0
 10
91.32741425668204
 20
-154.530791519527
 30
0.0
 10
91.32741425668204
 20
-154.5521511115356
 30
0.0
 10
91.29571937821774
 20
-154.558352283409
 30
0.0
 10
91.27453204098346
 20
-154.5624863979913
 30
0.0
 10
91.26385224497918
 20
-154.585913047291
 30
0.0
 10
91.23422442380602
 20
-154.6513698615108
 30
0.0
 10
91.21527639863716
 20
-154.6958115932705
 30
0.0
 10
91.21527639863716
 20
-154.6958115932705
 30
0.0
 10
91.4860609037778
 20
-154.6958115932705
 30
0.0
 10
91.4860609037778
 20
-154.6958115932705
 30
0.0
 10
91.57701142458838
 20
-154.6958115932705
 30
0.0
 10
91.77372637679615
 20
-154.6916774786882
 30
0.0
 10
91.91549205601418
 20
-154.683064739975
 30
0.0
 10
91.91549205601418
 20
-154.683064739975
 30
0.0
 10
91.91549205601418
 20
-154.8608316670139
 30
0.0
 10
91.91549205601418
 20
-154.8608316670139
 30
0.0
 10
91.83298201914245
 20
-154.8566975524316
 30
0.0
 10
91.81179468190817
 20
-154.8566975524316
 30
0.0
 10
91.63196069757812
 20
-154.8525634378493
 30
0.0
 10
91.60026581911383
 20
-155.0069037155885
 30
0.0
 10
91.5558240873541
 20
-155.0871744403949
 30
0.0
 10
91.51138235559438
 20
-155.1571098787454
 30
0.0
 10
91.63196069757812
 20
-155.2163655210917
 30
0.0
 10
91.7377251289753
 20
-155.2838893926026
 30
0.0
 10
91.84142250308132
 20
-155.3665716842486
 30
0.0
 10
91.84142250308132
 20
-155.3665716842486
 30
0.0
 10
91.72291121838872
 20
-155.5336588152832
 30
0.0
 10
91.72291121838872
 20
-155.5336588152832
 30
0.0
 10
91.69965682386328
 20
-155.5147107901144
 30
0.0
 10
91.68708222534212
 20
-155.5060980514013
 30
0.0
 10
91.57494436729724
 20
-155.4213487024641
 30
0.0
 10
91.52619626618095
 20
-155.3834526521264
 30
0.0
 10
91.46694062383465
 20
-155.3472791495312
 30
0.0
 10
91.38666989902834
 20
-155.3028374177715
 30
0.0
 10
91.17514103623399
 20
-155.4892170835235
 30
0.0
 10
90.96981334531312
 20
-155.5122992232747
 30
0.0
 10
90.68008081500359
 20
-155.5419270444478
 30
0.0
 10
90.68008081500359
 20
-155.5419270444478
 30
0.0
 10
90.57638344089758
 20
-155.3620930601178
 30
0.0
 10
90.57638344089758
 20
-155.3620930601178
 30
0.0
 10
90.89367673508908
 20
-155.3579589455355
 30
0.0
 10
91.06920435006257
 20
-155.3324652389447
 30
0.0
 10
91.22164982528486
 20
-155.2225666929652
 30
0.0
 10
91.10313854059226
 20
-155.171923789332
 30
0.0
 10
91.01425507707283
 20
-155.14436302545
 30
0.0
 10
90.97825382925197
 20
-155.1316161721546
 30
0.0
 10
90.9593058040831
 20
-155.1591769360366
 30
0.0
 10
90.94449189349651
 20
-155.1781249612054
 30
0.0
 10
90.91693112961452
 20
-155.2118868969609
 30
0.0
 10
90.91693112961452
 20
-155.2118868969609
 30
0.0
 10
90.72021617740675
 20
-155.1295491148635
 30
0.0
 10
90.72021617740675
 20
-155.1295491148635
 30
0.0
 10
90.8027262142785
 20
-155.0492783900571
 30
0.0
 10
90.86404891391593
 20
-154.9538492451157
 30
0.0
 10
90.92123749897108
 20
-154.8525634378493
 30
0.0
 10
90.73072371863677
 20
-154.8566975524316
 30
0.0
 10
90.70970863617674
 20
-154.8566975524316
 30
0.0
 10
90.62719859930501
 20
-154.8608316670139
 30
0.0
 10
90.62719859930501
 20
-154.8608316670139
 30
0.0
 10
90.62719859930501
 20
-154.683064739975
 30
0.0
 10
90.62719859930501
 20
-154.683064739975
 30
0.0
 10
90.76672496645763
 20
-154.689610421397
 30
0.0
 10
90.97618677196081
 20
-154.6937445359793
 30
0.0
 10
91.0015082237774
 20
-154.6937445359793
 30
0.0
 10
91.01856144642939
 20
-154.6599826002239
 30
0.0
 10
91.07351071941913
 20
-154.5394042582401
 30
0.0
 10
91.09263099936226
 20
-154.4653347053072
 30
0.0
 10
91.07351071941913
 20
-154.4653347053072
 30
0.0
 10
90.89574379238023
 20
-154.4715358771807
 30
0.0
 10
90.70109589746362
 20
-154.4842827304761
 30
0.0
 10
90.70109589746362
 20
-154.4842827304761
 30
0.0
 10
90.70109589746362
 20
-154.6176079257553
 30
0.0
 10
90.70109589746362
 20
-154.6176079257553
 30
0.0
 10
90.6525200511216
 20
-154.6431016323461
 30
0.0
 10
90.5932644087753
 20
-154.6747965108104
 30
0.0
 10
90.45993921349612
 20
-154.7402533250302
 30
0.0
 10
90.45993921349612
 20
-154.7402533250302
 30
0.0
 10
90.45993921349612
 20
-154.8863253736048
 30
0.0
 10
90.45993921349612
 20
-154.8863253736048
 30
0.0
 10
90.45993921349612
 20
-154.8863253736048
 30
0.0
 10
90.45993921349612
 20
-155.3538248309532
 30
0.0
 10
90.45993921349612
 20
-155.3538248309532
 30
0.0
 10
90.45993921349612
 20
-155.4806043448104
 30
0.0
 10
90.42411022044953
 20
-155.5398599871567
 30
0.0
 10
90.14057886201348
 20
-155.5315917579921
 30
0.0
 10
90.14057886201348
 20
-155.5315917579921
 30
0.0
 10
90.03688148790745
 20
-155.3241970097801
 30
0.0
 10
90.03688148790745
 20
-155.3241970097801
 30
0.0
 10
90.10044349961031
 20
-155.3369438630755
 30
0.0
 10
90.14901934595235
 20
-155.3410779776578
 30
0.0
 10
90.18915470835549
 20
-155.3410779776578
 30
0.0
 10
90.26546357335377
 20
-155.3410779776578
 30
0.0
 10
90.27597111458378
 20
-155.3176513283581
 30
0.0
 10
90.27597111458378
 20
-155.2521945141383
 30
0.0
 10
90.27597111458378
 20
-155.2521945141383
 30
0.0
 10
90.27597111458378
 20
-154.8229356166762
 30
0.0
 10
90.27597111458378
 20
-154.8229356166762
 30
0.0
 10
90.17864716712548
 20
-154.8628987243051
 30
0.0
 10
90.16176619924776
 20
-154.8694444057271
 30
0.0
 10
90.11525741019688
 20
-154.888392430896
 30
0.0
 10
90.11095104084033
 20
-154.909407513356
 30
0.0
 10
90.10664467148377
 20
-154.9390353345291
 30
0.0
 10
90.08769664631488
 20
-154.9390353345291
 30
0.0
 10
90.07925616237603
 20
-154.9390353345291
 30
0.0
 10
90.06857636637175
 20
-154.9349012199468
 30
0.0
 10
90.06237519449831
 20
-154.9114745706471
 30
0.0
 10
90.06237519449831
 20
-154.9114745706471
 30
0.0
 10
90.00949297879971
 20
-154.7192382425702
 30
0.0
 10
90.00949297879971
 20
-154.7192382425702
 30
0.0
 10
90.15539277260003
 20
-154.6727294535193
 30
0.0
 10
90.22102184159406
 20
-154.6493028042196
 30
0.0
 10
90.27597111458378
 20
-154.6282877217596
 30
0.0
 10
90.27597111458378
 20
-154.6282877217596
 30
0.0
 10
90.27597111458378
 20
-154.2155652826266
 30
0.0
 10
90.27597111458378
 20
-154.2155652826266
 30
0.0
 10
90.27597111458378
 20
-154.2155652826266
 30
0.0
 10
90.2230888988852
 20
-154.2155652826266
 30
0.0
 10
90.2230888988852
 20
-154.2155652826266
 30
0.0
 10
90.2230888988852
 20
-154.2155652826266
 30
0.0
 10
90.14488523137002
 20
-154.2155652826266
 30
0.0
 10
90.14488523137002
 20
-154.2155652826266
 30
0.0
 10
90.07718910508486
 20
-154.2155652826266
 30
0.0
 10
90.06857636637175
 20
-154.2155652826266
 30
0.0
 10
90.03274737332516
 20
-154.2221109640486
 30
0.0
 10
90.03274737332516
 20
-154.2221109640486
 30
0.0
 10
90.03274737332516
 20
-154.027463069132
 30
0.0
 10
90.03274737332516
 20
-154.027463069132
 30
0.0
 10
90.06013588243289
 20
-154.0336642410055
 30
0.0
 10
90.06857636637175
 20
-154.0336642410055
 30
0.0
 10
90.13851180472233
 20
-154.0336642410055
 30
0.0
 10
90.13851180472233
 20
-154.0336642410055
 30
0.0
 10
90.27166474522722
 20
-154.0336642410055
 30
0.0
 10
90.27166474522722
 20
-154.0336642410055
 30
0.0
 10
90.27166474522722
 20
-153.9637288026549
 30
0.0
 10
90.27166474522722
 20
-153.8813910205574
 30
0.0
 10
90.26959768793608
 20
-153.8772569059751
 30
0.0
 10
90.26115720399721
 20
-153.6974229216451
 30
0.0
 10
90.26115720399721
 20
-153.6781303869277
 30
0.0
 10
90.25909014670608
 20
-153.6316215978768
 30
0.0
 10
90.25909014670608
 20
-153.6316215978768
 30
0.0
 10
90.47475312408272
 20
-153.6402343365899
 30
0.0
 10
90.47475312408272
 20
-153.6402343365899
 30
0.0
 10
90.48543292008698
 20
-153.6402343365899
 30
0.0
 10
90.50662025732126
 20
-153.6423013938811
 30
0.0
 10
90.50662025732126
 20
-153.6591823617588
 30
0.0
 10
90.50662025732126
 20
-153.6781303869277
 30
0.0
 10
90.49180634673469
 20
-153.6888101829319
 30
0.0
 10
90.46631264014385
 20
-153.7077582081008
 30
0.0
 10
90.46631264014385
 20
-153.7587456212825
 30
0.0
 10
90.45993921349612
 20
-153.9871554519546
 30
0.0
 10
90.46217852556154
 20
-154.0336642410055
 30
0.0
 10
90.59119735148415
 20
-154.0336642410055
 30
0.0
 10
90.60394420477958
 20
-154.0336642410055
 30
0.0
 10
90.70109589746362
 20
-154.0253960118409
 30
0.0
 10
90.70109589746362
 20
-154.0253960118409
 30
0.0
 10
90.70109589746362
 20
-154.219699397209
 30
0.0
 10
90.70109589746362
 20
-154.219699397209
 30
0.0
 10
90.66302759235162
 20
-154.2176323399178
 30
0.0
 10
90.59533146606645
 20
-154.2134982253355
 30
0.0
 10
90.45993921349612
 20
-154.2155652826266
 30
0.0
 10
90.45993921349612
 20
-154.2155652826266
 30
0.0
 10
90.45993921349612
 20
-154.5542181688267
 30
0.0
 10
90.45993921349612
 20
-154.5542181688267
 30
0.0
 10
90.51506074126013
 20
-154.530791519527
 30
0.0
 10
90.58051755547987
 20
-154.503230755645
 30
0.0
 10
90.62926565659616
 20
-154.4801486158938
 30
0.0
 10
90.62926565659616
 20
-154.4801486158938
 30
0.0
 10
90.62926565659616
 20
-154.3023816888549
 30
0.0
 10
90.62926565659616
 20
-154.3023816888549
 30
0.0
 10
90.7434705719322
 20
-154.3151285421504
 30
0.0
 10
90.86198185662478
 20
-154.3151285421504
 30
0.0
 10
90.97825382925197
 20
-154.3151285421504
 30
0.0
 10
90.95499943472653
 20
-154.219699397209
 30
0.0
 10
90.92761092561879
 20
-154.1373616151115
 30
0.0
 10
90.86404891391593
 20
-154.0040364198323
 30
0.0
 10
90.81960718215622
 20
-154.0061034771234
 30
0.0
 10
90.73709714528447
 20
-154.0105821012543
 30
0.0
 10
90.69902884017247
 20
-154.0126491585454
 30
0.0
 10
90.69902884017247
 20
-154.0126491585454
 30
0.0
 10
90.69902884017247
 20
-153.8328151742154
 30
0.0
 10
90.69902884017247
 20
-153.8328151742154
 30
0.0
 10
90.82391355151278
 20
-153.84108340338
 30
0.0
 10
90.99737410919511
 20
-153.8455620275108
 30
0.0
 10
91.07988414606685
 20
-153.8455620275108
 30
0.0
 10
91.07988414606685
 20
-153.8455620275108
 30
0.0
 10
91.16239418293856
 20
-153.8455620275108
 30
0.0
 10
91.16239418293856
 20
-153.8455620275108
 30
0.0
 10
91.16239418293856
 20
-153.6826090110585
 30
0.0
 10
91.16239418293856
 20
-153.6719292150542
 30
0.0
 10
91.16032712564743
 20
-153.6168076872902
 30
0.0
 10
91.16032712564743
 20
-153.6168076872902
 30
0.0
 10
91.38443058696292
 20
-153.6423013938811
 30
0.0
 10
91.38443058696292
 20
-153.6423013938811
 30
0.0
 10
91.38873695631948
 20
-153.6423013938811
 30
0.0
 10
91.40992429355376
 20
-153.6443684511722
 30
0.0
 10
91.40992429355376
 20
-153.6612494190499
 30
0.0
 10
91.40992429355376
 20
-153.6760633296365
 30
0.0
 10
91.3992444975495
 20
-153.6846760683496
 30
0.0
 10
91.37185598844176
 20
-153.6994899789362
 30
0.0
 10
91.36548256179406
 20
-153.764946793156
 30
0.0
 10
91.36341550450289
 20
-153.7863063851645
 30
0.0
 10
91.36341550450289
 20
-153.8455620275108
 30
0.0
 10
91.36341550450289
 20
-153.8455620275108
 30
0.0
 10
91.45850013989578
 20
-153.8455620275108
 30
0.0
 10
91.45850013989578
 20
-153.8455620275108
 30
0.0
 10
91.54101017676753
 20
-153.8455620275108
 30
0.0
 10
91.71447073444985
 20
-153.84108340338
 30
0.0
 10
91.83935544579016
 20
-153.8328151742154
 30
0.0
 10
91.83935544579016
 20
-153.8328151742154
 30
0.0
 10
91.83935544579016
 20
-154.0126491585454
 30
0.0
 10
91.83935544579016
 20
-154.0126491585454
 30
0.0
 10
91.80972762461701
 20
-154.0105821012543
 30
0.0
 10
91.69121633992443
 20
-154.0061034771234
 30
0.0
 10
91.65108097752126
 20
-154.0040364198323
 30
0.0
 10
91.63626706693468
 20
-154.055023833014
 30
0.0
 10
91.60233287640497
 20
-154.1669894362846
 30
0.0
 10
91.53687606218523
 20
-154.3065158034372
 30
0.0
 10
91.57907848187953
 20
-154.3065158034372
 30
0.0
 10
91.85623641366788
 20
-154.2875677782684
 30
0.0
 10
91.91755911330533
 20
-154.2855007209772
 30
0.0
 10
91.91755911330533
 20
-154.2855007209772
 30
0.0
 10
91.91755911330533
 20
-154.4694688198896
 30
0.0
 10
91.91755911330533
 20
-154.4694688198896
 30
0.0
 10
91.8879312921322
 20
-154.4694688198896
 30
0.0
 10
91.87105032425447
 20
-154.4653347053072
 30
0.0
 10
91.70809730780215
 20
-154.4653347053072
 30
0.0
  0
HATCH
  5
149
330
142
100
AcDbEntity
  8
レイヤー 1
 62
    18
420
        0
440
 33554687
100
AcDbHatch
 10
0.0
 20
0.0
 30
0.0
210
0.0
220
0.0
230
1.0
  2
SOLID
 70
     1
 71
     1
 91
        3
 92
        1
 93
        1
 72
     4
 94
        3
 73
     0
 74
     0
 95
       17
 96
       13
 40
0.0
 40
0.0
 40
0.0
 40
0.0
 40
1.0
 40
1.0
 40
1.0
 40
2.0
 40
2.0
 40
2.0
 40
3.0
 40
3.0
 40
3.0
 40
4.0
 40
4.0
 40
4.0
 40
4.0
 10
91.14327390299543
 20
-154.8501518710097
 10
91.12639293511771
 20
-154.8797796921828
 10
91.07557777671027
 20
-154.9731417798331
 10
91.06507023548026
 20
-154.992089805002
 10
91.25541176104032
 20
-155.0513454473482
 10
91.2765990982746
 20
-155.0575466192217
 10
91.34860159391633
 20
-155.0851073831037
 10
91.40355086690606
 20
-154.9982909768754
 10
91.4268052614315
 20
-154.9242214239425
 10
91.44161917201806
 20
-154.8501518710097
 10
91.44161917201806
 20
-154.8501518710097
 10
91.14327390299543
 20
-154.8501518710097
 10
91.14327390299543
 20
-154.8501518710097
 97
        0
 97
        1
330
146
 92
        1
 93
        1
 72
     4
 94
        3
 73
     0
 74
     0
 95
       20
 96
       16
 40
0.0
 40
0.0
 40
0.0
 40
0.0
 40
1.0
 40
1.0
 40
1.0
 40
2.0
 40
2.0
 40
2.0
 40
3.0
 40
3.0
 40
3.0
 40
4.0
 40
4.0
 40
4.0
 40
5.0
 40
5.0
 40
5.0
 40
5.0
 10
91.07988414606685
 20
-153.99990230525
 10
91.07988414606685
 20
-153.99990230525
 10
91.04818926760254
 20
-153.99990230525
 10
91.04818926760254
 20
-153.99990230525
 10
91.09469805665341
 20
-154.0991210552252
 10
91.12639293511771
 20
-154.17973628958
 10
91.16032712564743
 20
-154.3065158034372
 10
91.16032712564743
 20
-154.3065158034372
 10
91.3675496190852
 20
-154.3065158034372
 10
91.3675496190852
 20
-154.3065158034372
 10
91.3992444975495
 20
-154.2134982253355
 10
91.42249889207494
 20
-154.1287488763983
 10
91.44592554137464
 20
-153.99990230525
 10
91.44592554137464
 20
-153.99990230525
 10
91.07988414606685
 20
-153.99990230525
 10
91.07988414606685
 20
-153.99990230525
 97
        0
 97
        1
330
147
 92
        1
 93
        1
 72
     4
 94
        3
 73
     0
 74
     0
 95
      242
 96
      238
 40
0.0
 40
0.0
 40
0.0
 40
0.0
 40
1.0
 40
1.0
 40
1.0
 40
2.0
 40
2.0
 40
2.0
 40
3.0
 40
3.0
 40
3.0
 40
4.0
 40
4.0
 40
4.0
 40
5.0
 40
5.0
 40
5.0
 40
6.0
 40
6.0
 40
6.0
 40
7.0
 40
7.0
 40
7.0
 40
8.0
 40
8.0
 40
8.0
 40
9.0
 40
9.0
 40
9.0
 40
10.0
 40
10.0
 40
10.0
 40
11.0
 40
11.0
 40
11.0
 40
12.0
 40
12.0
 40
12.0
 40
13.0
 40
13.0
 40
13.0
 40
14.0
 40
14.0
 40
14.0
 40
15.0
 40
15.0
 40
15.0
 40
16.0
 40
16.0
 40
16.0
 40
17.0
 40
17.0
 40
17.0
 40
18.0
 40
18.0
 40
18.0
 40
19.0
 40
19.0
 40
19.0
 40
20.0
 40
20.0
 40
20.0
 40
21.0
 40
21.0
 40
21.0
 40
22.0
 40
22.0
 40
22.0
 40
23.0
 40
23.0
 40
23.0
 40
24.0
 40
24.0
 40
24.0
 40
25.0
 40
25.0
 40
25.0
 40
26.0
 40
26.0
 40
26.0
 40
27.0
 40
27.0
 40
27.0
 40
28.0
 40
28.0
 40
28.0
 40
29.0
 40
29.0
 40
29.0
 40
30.0
 40
30.0
 40
30.0
 40
31.0
 40
31.0
 40
31.0
 40
32.0
 40
32.0
 40
32.0
 40
33.0
 40
33.0
 40
33.0
 40
34.0
 40
34.0
 40
34.0
 40
35.0
 40
35.0
 40
35.0
 40
36.0
 40
36.0
 40
36.0
 40
37.0
 40
37.0
 40
37.0
 40
38.0
 40
38.0
 40
38.0
 40
39.0
 40
39.0
 40
39.0
 40
40.0
 40
40.0
 40
40.0
 40
41.0
 40
41.0
 40
41.0
 40
42.0
 40
42.0
 40
42.0
 40
43.0
 40
43.0
 40
43.0
 40
44.0
 40
44.0
 40
44.0
 40
45.0
 40
45.0
 40
45.0
 40
46.0
 40
46.0
 40
46.0
 40
47.0
 40
47.0
 40
47.0
 40
48.0
 40
48.0
 40
48.0
 40
49.0
 40
49.0
 40
49.0
 40
50.0
 40
50.0
 40
50.0
 40
51.0
 40
51.0
 40
51.0
 40
52.0
 40
52.0
 40
52.0
 40
53.0
 40
53.0
 40
53.0
 40
54.0
 40
54.0
 40
54.0
 40
55.0
 40
55.0
 40
55.0
 40
56.0
 40
56.0
 40
56.0
 40
57.0
 40
57.0
 40
57.0
 40
58.0
 40
58.0
 40
58.0
 40
59.0
 40
59.0
 40
59.0
 40
60.0
 40
60.0
 40
60.0
 40
61.0
 40
61.0
 40
61.0
 40
62.0
 40
62.0
 40
62.0
 40
63.0
 40
63.0
 40
63.0
 40
64.0
 40
64.0
 40
64.0
 40
65.0
 40
65.0
 40
65.0
 40
66.0
 40
66.0
 40
66.0
 40
67.0
 40
67.0
 40
67.0
 40
68.0
 40
68.0
 40
68.0
 40
69.0
 40
69.0
 40
69.0
 40
70.0
 40
70.0
 40
70.0
 40
71.0
 40
71.0
 40
71.0
 40
72.0
 40
72.0
 40
72.0
 40
73.0
 40
73.0
 40
73.0
 40
74.0
 40
74.0
 40
74.0
 40
75.0
 40
75.0
 40
75.0
 40
76.0
 40
76.0
 40
76.0
 40
77.0
 40
77.0
 40
77.0
 40
78.0
 40
78.0
 40
78.0
 40
79.0
 40
79.0
 40
79.0
 40
79.0
 10
91.70809730780215
 20
-154.4653347053072
 10
91.70809730780215
 20
-154.4653347053072
 10
91.45436602531349
 20
-154.4653347053072
 10
91.45436602531349
 20
-154.4653347053072
 10
91.45436602531349
 20
-154.4653347053072
 10
91.17720809352515
 20
-154.4653347053072
 10
91.17720809352515
 20
-154.4653347053072
 10
91.17720809352515
 20
-154.4653347053072
 10
91.30415986215661
 20
-154.5077093797758
 10
91.30415986215661
 20
-154.5077093797758
 10
91.31466740338662
 20
-154.5118434943581
 10
91.32741425668204
 20
-154.5180446662316
 10
91.32741425668204
 20
-154.530791519527
 10
91.32741425668204
 20
-154.5521511115356
 10
91.29571937821774
 20
-154.558352283409
 10
91.27453204098346
 20
-154.5624863979913
 10
91.26385224497918
 20
-154.585913047291
 10
91.23422442380602
 20
-154.6513698615108
 10
91.21527639863716
 20
-154.6958115932705
 10
91.21527639863716
 20
-154.6958115932705
 10
91.4860609037778
 20
-154.6958115932705
 10
91.4860609037778
 20
-154.6958115932705
 10
91.57701142458838
 20
-154.6958115932705
 10
91.77372637679615
 20
-154.6916774786882
 10
91.91549205601418
 20
-154.683064739975
 10
91.91549205601418
 20
-154.683064739975
 10
91.91549205601418
 20
-154.8608316670139
 10
91.91549205601418
 20
-154.8608316670139
 10
91.83298201914245
 20
-154.8566975524316
 10
91.81179468190817
 20
-154.8566975524316
 10
91.63196069757812
 20
-154.8525634378493
 10
91.60026581911383
 20
-155.0069037155885
 10
91.5558240873541
 20
-155.0871744403949
 10
91.51138235559438
 20
-155.1571098787454
 10
91.63196069757812
 20
-155.2163655210917
 10
91.7377251289753
 20
-155.2838893926026
 10
91.84142250308132
 20
-155.3665716842486
 10
91.84142250308132
 20
-155.3665716842486
 10
91.72291121838872
 20
-155.5336588152832
 10
91.72291121838872
 20
-155.5336588152832
 10
91.69965682386328
 20
-155.5147107901144
 10
91.68708222534212
 20
-155.5060980514013
 10
91.57494436729724
 20
-155.4213487024641
 10
91.52619626618095
 20
-155.3834526521264
 10
91.46694062383465
 20
-155.3472791495312
 10
91.38666989902834
 20
-155.3028374177715
 10
91.17514103623399
 20
-155.4892170835235
 10
90.96981334531312
 20
-155.5122992232747
 10
90.68008081500359
 20
-155.5419270444478
 10
90.68008081500359
 20
-155.5419270444478
 10
90.57638344089758
 20
-155.3620930601178
 10
90.57638344089758
 20
-155.3620930601178
 10
90.89367673508908
 20
-155.3579589455355
 10
91.06920435006257
 20
-155.3324652389447
 10
91.22164982528486
 20
-155.2225666929652
 10
91.10313854059226
 20
-155.171923789332
 10
91.01425507707283
 20
-155.14436302545
 10
90.97825382925197
 20
-155.1316161721546
 10
90.9593058040831
 20
-155.1591769360366
 10
90.94449189349651
 20
-155.1781249612054
 10
90.91693112961452
 20
-155.2118868969609
 10
90.91693112961452
 20
-155.2118868969609
 10
90.72021617740675
 20
-155.1295491148635
 10
90.72021617740675
 20
-155.1295491148635
 10
90.8027262142785
 20
-155.0492783900571
 10
90.86404891391593
 20
-154.9538492451157
 10
90.92123749897108
 20
-154.8525634378493
 10
90.73072371863677
 20
-154.8566975524316
 10
90.70970863617674
 20
-154.8566975524316
 10
90.62719859930501
 20
-154.8608316670139
 10
90.62719859930501
 20
-154.8608316670139
 10
90.62719859930501
 20
-154.683064739975
 10
90.62719859930501
 20
-154.683064739975
 10
90.76672496645763
 20
-154.689610421397
 10
90.97618677196081
 20
-154.6937445359793
 10
91.0015082237774
 20
-154.6937445359793
 10
91.01856144642939
 20
-154.6599826002239
 10
91.07351071941913
 20
-154.5394042582401
 10
91.09263099936226
 20
-154.4653347053072
 10
91.07351071941913
 20
-154.4653347053072
 10
90.89574379238023
 20
-154.4715358771807
 10
90.70109589746362
 20
-154.4842827304761
 10
90.70109589746362
 20
-154.4842827304761
 10
90.70109589746362
 20
-154.6176079257553
 10
90.70109589746362
 20
-154.6176079257553
 10
90.6525200511216
 20
-154.6431016323461
 10
90.5932644087753
 20
-154.6747965108104
 10
90.45993921349612
 20
-154.7402533250302
 10
90.45993921349612
 20
-154.7402533250302
 10
90.45993921349612
 20
-154.8863253736048
 10
90.45993921349612
 20
-154.8863253736048
 10
90.45993921349612
 20
-154.8863253736048
 10
90.45993921349612
 20
-155.3538248309532
 10
90.45993921349612
 20
-155.3538248309532
 10
90.45993921349612
 20
-155.4806043448104
 10
90.42411022044953
 20
-155.5398599871567
 10
90.14057886201348
 20
-155.5315917579921
 10
90.14057886201348
 20
-155.5315917579921
 10
90.03688148790745
 20
-155.3241970097801
 10
90.03688148790745
 20
-155.3241970097801
 10
90.10044349961031
 20
-155.3369438630755
 10
90.14901934595235
 20
-155.3410779776578
 10
90.18915470835549
 20
-155.3410779776578
 10
90.26546357335377
 20
-155.3410779776578
 10
90.27597111458378
 20
-155.3176513283581
 10
90.27597111458378
 20
-155.2521945141383
 10
90.27597111458378
 20
-155.2521945141383
 10
90.27597111458378
 20
-154.8229356166762
 10
90.27597111458378
 20
-154.8229356166762
 10
90.17864716712548
 20
-154.8628987243051
 10
90.16176619924776
 20
-154.8694444057271
 10
90.11525741019688
 20
-154.888392430896
 10
90.11095104084033
 20
-154.909407513356
 10
90.10664467148377
 20
-154.9390353345291
 10
90.08769664631488
 20
-154.9390353345291
 10
90.07925616237603
 20
-154.9390353345291
 10
90.06857636637175
 20
-154.9349012199468
 10
90.06237519449831
 20
-154.9114745706471
 10
90.06237519449831
 20
-154.9114745706471
 10
90.00949297879971
 20
-154.7192382425702
 10
90.00949297879971
 20
-154.7192382425702
 10
90.15539277260003
 20
-154.6727294535193
 10
90.22102184159406
 20
-154.6493028042196
 10
90.27597111458378
 20
-154.6282877217596
 10
90.27597111458378
 20
-154.6282877217596
 10
90.27597111458378
 20
-154.2155652826266
 10
90.27597111458378
 20
-154.2155652826266
 10
90.27597111458378
 20
-154.2155652826266
 10
90.2230888988852
 20
-154.2155652826266
 10
90.2230888988852
 20
-154.2155652826266
 10
90.2230888988852
 20
-154.2155652826266
 10
90.14488523137002
 20
-154.2155652826266
 10
90.14488523137002
 20
-154.2155652826266
 10
90.07718910508486
 20
-154.2155652826266
 10
90.06857636637175
 20
-154.2155652826266
 10
90.03274737332516
 20
-154.2221109640486
 10
90.03274737332516
 20
-154.2221109640486
 10
90.03274737332516
 20
-154.027463069132
 10
90.03274737332516
 20
-154.027463069132
 10
90.06013588243289
 20
-154.0336642410055
 10
90.06857636637175
 20
-154.0336642410055
 10
90.13851180472233
 20
-154.0336642410055
 10
90.13851180472233
 20
-154.0336642410055
 10
90.27166474522722
 20
-154.0336642410055
 10
90.27166474522722
 20
-154.0336642410055
 10
90.27166474522722
 20
-153.9637288026549
 10
90.27166474522722
 20
-153.8813910205574
 10
90.26959768793608
 20
-153.8772569059751
 10
90.26115720399721
 20
-153.6974229216451
 10
90.26115720399721
 20
-153.6781303869277
 10
90.25909014670608
 20
-153.6316215978768
 10
90.25909014670608
 20
-153.6316215978768
 10
90.47475312408272
 20
-153.6402343365899
 10
90.47475312408272
 20
-153.6402343365899
 10
90.48543292008698
 20
-153.6402343365899
 10
90.50662025732126
 20
-153.6423013938811
 10
90.50662025732126
 20
-153.6591823617588
 10
90.50662025732126
 20
-153.6781303869277
 10
90.49180634673469
 20
-153.6888101829319
 10
90.46631264014385
 20
-153.7077582081008
 10
90.46631264014385
 20
-153.7587456212825
 10
90.45993921349612
 20
-153.9871554519546
 10
90.46217852556154
 20
-154.0336642410055
 10
90.59119735148415
 20
-154.0336642410055
 10
90.60394420477958
 20
-154.0336642410055
 10
90.70109589746362
 20
-154.0253960118409
 10
90.70109589746362
 20
-154.0253960118409
 10
90.70109589746362
 20
-154.219699397209
 10
90.70109589746362
 20
-154.219699397209
 10
90.66302759235162
 20
-154.2176323399178
 10
90.59533146606645
 20
-154.2134982253355
 10
90.45993921349612
 20
-154.2155652826266
 10
90.45993921349612
 20
-154.2155652826266
 10
90.45993921349612
 20
-154.5542181688267
 10
90.45993921349612
 20
-154.5542181688267
 10
90.51506074126013
 20
-154.530791519527
 10
90.58051755547987
 20
-154.503230755645
 10
90.62926565659616
 20
-154.4801486158938
 10
90.62926565659616
 20
-154.4801486158938
 10
90.62926565659616
 20
-154.3023816888549
 10
90.62926565659616
 20
-154.3023816888549
 10
90.7434705719322
 20
-154.3151285421504
 10
90.86198185662478
 20
-154.3151285421504
 10
90.97825382925197
 20
-154.3151285421504
 10
90.95499943472653
 20
-154.219699397209
 10
90.92761092561879
 20
-154.1373616151115
 10
90.86404891391593
 20
-154.0040364198323
 10
90.81960718215622
 20
-154.0061034771234
 10
90.73709714528447
 20
-154.0105821012543
 10
90.69902884017247
 20
-154.0126491585454
 10
90.69902884017247
 20
-154.0126491585454
 10
90.69902884017247
 20
-153.8328151742154
 10
90.69902884017247
 20
-153.8328151742154
 10
90.82391355151278
 20
-153.84108340338
 10
90.99737410919511
 20
-153.8455620275108
 10
91.07988414606685
 20
-153.8455620275108
 10
91.07988414606685
 20
-153.8455620275108
 10
91.16239418293856
 20
-153.8455620275108
 10
91.16239418293856
 20
-153.8455620275108
 10
91.16239418293856
 20
-153.6826090110585
 10
91.16239418293856
 20
-153.6719292150542
 10
91.16032712564743
 20
-153.6168076872902
 10
91.16032712564743
 20
-153.6168076872902
 10
91.38443058696292
 20
-153.6423013938811
 10
91.38443058696292
 20
-153.6423013938811
 10
91.38873695631948
 20
-153.6423013938811
 10
91.40992429355376
 20
-153.6443684511722
 10
91.40992429355376
 20
-153.6612494190499
 10
91.40992429355376
 20
-153.6760633296365
 10
91.3992444975495
 20
-153.6846760683496
 10
91.37185598844176
 20
-153.6994899789362
 10
91.36548256179406
 20
-153.764946793156
 10
91.36341550450289
 20
-153.7863063851645
 10
91.36341550450289
 20
-153.8455620275108
 10
91.36341550450289
 20
-153.8455620275108
 10
91.45850013989578
 20
-153.8455620275108
 10
91.45850013989578
 20
-153.8455620275108
 10
91.54101017676753
 20
-153.8455620275108
 10
91.71447073444985
 20
-153.84108340338
 10
91.83935544579016
 20
-153.8328151742154
 10
91.83935544579016
 20
-153.8328151742154
 10
91.83935544579016
 20
-154.0126491585454
 10
91.83935544579016
 20
-154.0126491585454
 10
91.80972762461701
 20
-154.0105821012543
 10
91.69121633992443
 20
-154.0061034771234
 10
91.65108097752126
 20
-154.0040364198323
 10
91.63626706693468
 20
-154.055023833014
 10
91.60233287640497
 20
-154.1669894362846
 10
91.53687606218523
 20
-154.3065158034372
 10
91.57907848187953
 20
-154.3065158034372
 10
91.85623641366788
 20
-154.2875677782684
 10
91.91755911330533
 20
-154.2855007209772
 10
91.91755911330533
 20
-154.2855007209772
 10
91.91755911330533
 20
-154.4694688198896
 10
91.91755911330533
 20
-154.4694688198896
 10
91.8879312921322
 20
-154.4694688198896
 10
91.87105032425447
 20
-154.4653347053072
 10
91.70809730780215
 20
-154.4653347053072
 97
        0
 97
        1
330
148
 75
     2
 76
     1
 98
        1
 10
0.0
 20
0.0
450
        0
451
        0
460
0.0
461
0.0
452
        0
462
0.0
453
        0
470

  0
SPLINE
  5
14A
330
142
100
AcDbEntity
  8
レイヤー 1
100
AcDbSpline
210
0.0
220
0.0
230
1.0
 70
    11
 71
     3
 72
    17
 73
    13
 74
     0
 42
0.0000000001
 43
0.0000000001
 40
0.0
 40
0.0
 40
0.0
 40
0.0
 40
1.0
 40
1.0
 40
1.0
 40
2.0
 40
2.0
 40
2.0
 40
3.0
 40
3.0
 40
3.0
 40
4.0
 40
4.0
 40
4.0
 40
4.0
 10
93.56465926480328
 20
-155.2649413674338
 30
0.0
 10
93.56465926480328
 20
-155.2649413674338
 30
0.0
 10
92.85807018077854
 20
-155.2649413674338
 30
0.0
 10
92.85807018077854
 20
-155.2649413674338
 30
0.0
 10
92.85807018077854
 20
-155.2649413674338
 30
0.0
 10
92.85807018077854
 20
-155.379318537544
 30
0.0
 10
92.85807018077854
 20
-155.379318537544
 30
0.0
 10
92.85807018077854
 20
-155.379318537544
 30
0.0
 10
93.56465926480328
 20
-155.379318537544
 30
0.0
 10
93.56465926480328
 20
-155.379318537544
 30
0.0
 10
93.56465926480328
 20
-155.379318537544
 30
0.0
 10
93.56465926480328
 20
-155.2649413674338
 30
0.0
 10
93.56465926480328
 20
-155.2649413674338
 30
0.0
  0
SPLINE
  5
14B
330
142
100
AcDbEntity
  8
レイヤー 1
100
AcDbSpline
210
0.0
220
0.0
230
1.0
 70
    11
 71
     3
 72
    17
 73
    13
 74
     0
 42
0.0000000001
 43
0.0000000001
 40
0.0
 40
0.0
 40
0.0
 40
0.0
 40
1.0
 40
1.0
 40
1.0
 40
2.0
 40
2.0
 40
2.0
 40
3.0
 40
3.0
 40
3.0
 40
4.0
 40
4.0
 40
4.0
 40
4.0
 10
93.56465926480328
 20
-155.0217176261751
 30
0.0
 10
93.56465926480328
 20
-155.0217176261751
 30
0.0
 10
92.85807018077854
 20
-155.0217176261751
 30
0.0
 10
92.85807018077854
 20
-155.0217176261751
 30
0.0
 10
92.85807018077854
 20
-155.0217176261751
 30
0.0
 10
92.85807018077854
 20
-155.1357502867369
 30
0.0
 10
92.85807018077854
 20
-155.1357502867369
 30
0.0
 10
92.85807018077854
 20
-155.1357502867369
 30
0.0
 10
93.56465926480328
 20
-155.1357502867369
 30
0.0
 10
93.56465926480328
 20
-155.1357502867369
 30
0.0
 10
93.56465926480328
 20
-155.1357502867369
 30
0.0
 10
93.56465926480328
 20
-155.0217176261751
 30
0.0
 10
93.56465926480328
 20
-155.0217176261751
 30
0.0
  0
SPLINE
  5
14C
330
142
100
AcDbEntity
  8
レイヤー 1
100
AcDbSpline
210
0.0
220
0.0
230
1.0
 70
    11
 71
     3
 72
    17
 73
    13
 74
     0
 42
0.0000000001
 43
0.0000000001
 40
0.0
 40
0.0
 40
0.0
 40
0.0
 40
1.0
 40
1.0
 40
1.0
 40
2.0
 40
2.0
 40
2.0
 40
3.0
 40
3.0
 40
3.0
 40
4.0
 40
4.0
 40
4.0
 40
4.0
 10
93.56465926480328
 20
-154.7888291713722
 30
0.0
 10
93.56465926480328
 20
-154.7888291713722
 30
0.0
 10
92.85807018077854
 20
-154.7888291713722
 30
0.0
 10
92.85807018077854
 20
-154.7888291713722
 30
0.0
 10
92.85807018077854
 20
-154.7888291713722
 30
0.0
 10
92.85807018077854
 20
-154.8966606600606
 30
0.0
 10
92.85807018077854
 20
-154.8966606600606
 30
0.0
 10
92.85807018077854
 20
-154.8966606600606
 30
0.0
 10
93.56465926480328
 20
-154.8966606600606
 30
0.0
 10
93.56465926480328
 20
-154.8966606600606
 30
0.0
 10
93.56465926480328
 20
-154.8966606600606
 30
0.0
 10
93.56465926480328
 20
-154.7888291713722
 30
0.0
 10
93.56465926480328
 20
-154.7888291713722
 30
0.0
  0
SPLINE
  5
14D
330
142
100
AcDbEntity
  8
レイヤー 1
100
AcDbSpline
210
0.0
220
0.0
230
1.0
 70
     9
 71
     3
 72
   203
 73
   199
 74
     0
 42
0.0000000001
 43
0.0000000001
 40
0.0
 40
0.0
 40
0.0
 40
0.0
 40
1.0
 40
1.0
 40
1.0
 40
2.0
 40
2.0
 40
2.0
 40
3.0
 40
3.0
 40
3.0
 40
4.0
 40
4.0
 40
4.0
 40
5.0
 40
5.0
 40
5.0
 40
6.0
 40
6.0
 40
6.0
 40
7.0
 40
7.0
 40
7.0
 40
8.0
 40
8.0
 40
8.0
 40
9.0
 40
9.0
 40
9.0
 40
10.0
 40
10.0
 40
10.0
 40
11.0
 40
11.0
 40
11.0
 40
12.0
 40
12.0
 40
12.0
 40
13.0
 40
13.0
 40
13.0
 40
14.0
 40
14.0
 40
14.0
 40
15.0
 40
15.0
 40
15.0
 40
16.0
 40
16.0
 40
16.0
 40
17.0
 40
17.0
 40
17.0
 40
18.0
 40
18.0
 40
18.0
 40
19.0
 40
19.0
 40
19.0
 40
20.0
 40
20.0
 40
20.0
 40
21.0
 40
21.0
 40
21.0
 40
22.0
 40
22.0
 40
22.0
 40
23.0
 40
23.0
 40
23.0
 40
24.0
 40
24.0
 40
24.0
 40
25.0
 40
25.0
 40
25.0
 40
26.0
 40
26.0
 40
26.0
 40
27.0
 40
27.0
 40
27.0
 40
28.0
 40
28.0
 40
28.0
 40
29.0
 40
29.0
 40
29.0
 40
30.0
 40
30.0
 40
30.0
 40
31.0
 40
31.0
 40
31.0
 40
32.0
 40
32.0
 40
32.0
 40
33.0
 40
33.0
 40
33.0
 40
34.0
 40
34.0
 40
34.0
 40
35.0
 40
35.0
 40
35.0
 40
36.0
 40
36.0
 40
36.0
 40
37.0
 40
37.0
 40
37.0
 40
38.0
 40
38.0
 40
38.0
 40
39.0
 40
39.0
 40
39.0
 40
40.0
 40
40.0
 40
40.0
 40
41.0
 40
41.0
 40
41.0
 40
42.0
 40
42.0
 40
42.0
 40
43.0
 40
43.0
 40
43.0
 40
44.0
 40
44.0
 40
44.0
 40
45.0
 40
45.0
 40
45.0
 40
46.0
 40
46.0
 40
46.0
 40
47.0
 40
47.0
 40
47.0
 40
48.0
 40
48.0
 40
48.0
 40
49.0
 40
49.0
 40
49.0
 40
50.0
 40
50.0
 40
50.0
 40
51.0
 40
51.0
 40
51.0
 40
52.0
 40
52.0
 40
52.0
 40
53.0
 40
53.0
 40
53.0
 40
54.0
 40
54.0
 40
54.0
 40
55.0
 40
55.0
 40
55.0
 40
56.0
 40
56.0
 40
56.0
 40
57.0
 40
57.0
 40
57.0
 40
58.0
 40
58.0
 40
58.0
 40
59.0
 40
59.0
 40
59.0
 40
60.0
 40
60.0
 40
60.0
 40
61.0
 40
61.0
 40
61.0
 40
62.0
 40
62.0
 40
62.0
 40
63.0
 40
63.0
 40
63.0
 40
64.0
 40
64.0
 40
64.0
 40
65.0
 40
65.0
 40
65.0
 40
66.0
 40
66.0
 40
66.0
 40
66.0
 10
93.39963919105981
 20
-154.5328585768181
 30
0.0
 10
93.39963919105981
 20
-154.5328585768181
 30
0.0
 10
92.84118921290081
 20
-154.5328585768181
 30
0.0
 10
92.84118921290081
 20
-154.5328585768181
 30
0.0
 10
92.83050941689655
 20
-154.5773003085779
 30
0.0
 10
92.82206893295768
 20
-154.6089951870422
 30
0.0
 10
92.80932207966225
 20
-154.6472357469285
 30
0.0
 10
92.83481578625311
 20
-154.6472357469285
 30
0.0
 10
92.84962969683968
 20
-154.6493028042196
 30
0.0
 10
92.85600312348739
 20
-154.6493028042196
 30
0.0
 10
92.85600312348739
 20
-154.6493028042196
 30
0.0
 10
93.04427759175629
 20
-154.6493028042196
 30
0.0
 10
93.04427759175629
 20
-154.6493028042196
 30
0.0
 10
93.04427759175629
 20
-154.6493028042196
 30
0.0
 10
93.41858721622868
 20
-154.6493028042196
 30
0.0
 10
93.41858721622868
 20
-154.6493028042196
 30
0.0
 10
93.46940237463613
 20
-154.6493028042196
 30
0.0
 10
93.75293373307219
 20
-154.6365559509242
 30
0.0
 10
93.78462861153648
 20
-154.6365559509242
 30
0.0
 10
93.78256155424534
 20
-154.6641167148062
 30
0.0
 10
93.78032224217992
 20
-154.683064739975
 30
0.0
 10
93.78032224217992
 20
-154.7126925611482
 30
0.0
 10
93.77825518488878
 20
-154.7443874396125
 30
0.0
 10
93.77825518488878
 20
-154.8797796921828
 30
0.0
 10
93.77825518488878
 20
-154.9073404560648
 30
0.0
 10
93.77825518488878
 20
-154.9073404560648
 30
0.0
 10
93.77825518488878
 20
-155.1526312546146
 30
0.0
 10
93.77825518488878
 20
-155.1526312546146
 30
0.0
 10
93.77825518488878
 20
-155.1970729863743
 30
0.0
 10
93.78256155424534
 20
-155.3941324481306
 30
0.0
 10
93.78669566882763
 20
-155.5464056685786
 30
0.0
 10
93.78669566882763
 20
-155.5464056685786
 30
0.0
 10
93.56035289544673
 20
-155.5464056685786
 30
0.0
 10
93.56035289544673
 20
-155.5464056685786
 30
0.0
 10
93.56035289544673
 20
-155.5464056685786
 30
0.0
 10
93.56259220751214
 20
-155.5122992232747
 30
0.0
 10
93.56259220751214
 20
-155.5122992232747
 30
0.0
 10
93.56259220751214
 20
-155.5122992232747
 30
0.0
 10
92.8601372380697
 20
-155.5122992232747
 30
0.0
 10
92.8601372380697
 20
-155.5122992232747
 30
0.0
 10
92.8601372380697
 20
-155.5122992232747
 30
0.0
 10
92.86220429536085
 20
-155.5464056685786
 30
0.0
 10
92.86220429536085
 20
-155.5464056685786
 30
0.0
 10
92.86220429536085
 20
-155.5464056685786
 30
0.0
 10
92.64430200591879
 20
-155.5464056685786
 30
0.0
 10
92.64430200591879
 20
-155.5464056685786
 30
0.0
 10
92.64860837527535
 20
-155.4912841408147
 30
0.0
 10
92.64860837527535
 20
-155.4785372875192
 30
0.0
 10
92.65498180192308
 20
-155.3645046269575
 30
0.0
 10
92.65704885921421
 20
-155.3369438630755
 30
0.0
 10
92.65911591650537
 20
-155.2036186677963
 30
0.0
 10
92.65911591650537
 20
-155.1846706426274
 30
0.0
 10
92.65911591650537
 20
-155.1846706426274
 30
0.0
 10
92.65911591650537
 20
-154.9814100089977
 30
0.0
 10
92.65911591650537
 20
-154.9814100089977
 30
0.0
 10
92.51958954935274
 20
-155.2311794316783
 30
0.0
 10
92.3502631062527
 20
-155.3620930601178
 30
0.0
 10
92.24449867485555
 20
-155.4278943838861
 30
0.0
 10
92.24449867485555
 20
-155.4278943838861
 30
0.0
 10
92.07103811717322
 20
-155.2880235071849
 30
0.0
 10
92.07103811717322
 20
-155.2880235071849
 30
0.0
 10
92.15992158069267
 20
-155.2373806035517
 30
0.0
 10
92.30375431720185
 20
-155.1505641973235
 30
0.0
 10
92.4412136270633
 20
-154.9559163024068
 30
0.0
 10
92.53233640264816
 20
-154.8291367885497
 30
0.0
 10
92.5977932168679
 20
-154.6851317972662
 30
0.0
 10
92.63172740739763
 20
-154.5328585768181
 30
0.0
 10
92.4031453219513
 20
-154.5349256341093
 30
0.0
 10
92.22331133762125
 20
-154.5414713155313
 30
0.0
 10
92.12822670222836
 20
-154.5435383728224
 30
0.0
 10
92.12822670222836
 20
-154.5435383728224
 30
0.0
 10
92.12822670222836
 20
-154.3657714457835
 30
0.0
 10
92.12822670222836
 20
-154.3657714457835
 30
0.0
 10
92.32494165443613
 20
-154.3723171272055
 30
0.0
 10
92.60847301287219
 20
-154.3764512417878
 30
0.0
 10
92.75867917602909
 20
-154.3764512417878
 30
0.0
 10
92.75867917602909
 20
-154.3764512417878
 30
0.0
 10
92.97227509611458
 20
-154.3764512417878
 30
0.0
 10
92.97227509611458
 20
-154.3764512417878
 30
0.0
 10
92.97227509611458
 20
-154.3764512417878
 30
0.0
 10
92.97227509611458
 20
-154.2686197530995
 30
0.0
 10
92.97227509611458
 20
-154.2686197530995
 30
0.0
 10
92.97227509611458
 20
-154.2686197530995
 30
0.0
 10
92.82637530231424
 20
-154.2686197530995
 30
0.0
 10
92.82637530231424
 20
-154.2686197530995
 30
0.0
 10
92.65704885921421
 20
-154.2686197530995
 30
0.0
 10
92.48789467088846
 20
-154.2727538676818
 30
0.0
 10
92.32063528507955
 20
-154.2789550395552
 30
0.0
 10
92.32063528507955
 20
-154.2789550395552
 30
0.0
 10
92.32063528507955
 20
-154.1077337939383
 30
0.0
 10
92.32063528507955
 20
-154.1077337939383
 30
0.0
 10
92.47514781759303
 20
-154.1184135899426
 30
0.0
 10
92.66135522857076
 20
-154.1184135899426
 30
0.0
 10
92.82637530231424
 20
-154.1184135899426
 30
0.0
 10
92.82637530231424
 20
-154.1184135899426
 30
0.0
 10
92.97227509611458
 20
-154.1184135899426
 30
0.0
 10
92.97227509611458
 20
-154.1184135899426
 30
0.0
 10
92.97227509611458
 20
-154.1184135899426
 30
0.0
 10
92.97227509611458
 20
-153.99990230525
 30
0.0
 10
92.97227509611458
 20
-153.99990230525
 30
0.0
 10
92.97227509611458
 20
-153.99990230525
 30
0.0
 10
92.84118921290081
 20
-153.99990230525
 30
0.0
 10
92.84118921290081
 20
-153.99990230525
 30
0.0
 10
92.79450816907568
 20
-153.99990230525
 30
0.0
 10
92.5914197902202
 20
-154.0081705344146
 30
0.0
 10
92.54921737052589
 20
-154.0081705344146
 30
0.0
 10
92.34612899167041
 20
-154.0126491585454
 30
0.0
 10
92.26999238144641
 20
-154.0147162158366
 30
0.0
 10
92.19161645915695
 20
-154.0167832731277
 30
0.0
 10
92.19161645915695
 20
-154.0167832731277
 30
0.0
 10
92.19161645915695
 20
-153.8328151742154
 30
0.0
 10
92.19161645915695
 20
-153.8328151742154
 30
0.0
 10
92.305821374493
 20
-153.84108340338
 30
0.0
 10
92.3502631062527
 20
-153.84108340338
 30
0.0
 10
92.73318546943825
 20
-153.8496961420931
 30
0.0
 10
92.66979571250963
 20
-153.7546115067002
 30
0.0
 10
92.64223494862765
 20
-153.7270507428182
 30
0.0
 10
92.60623370080677
 20
-153.6908772402231
 30
0.0
 10
92.60623370080677
 20
-153.6908772402231
 30
0.0
 10
92.78193357055451
 20
-153.6085394581256
 30
0.0
 10
92.78193357055451
 20
-153.6085394581256
 30
0.0
 10
92.82206893295768
 20
-153.6443684511722
 30
0.0
 10
92.8665106647174
 20
-153.6867431256408
 30
0.0
 10
92.94058021765028
 20
-153.7966416716202
 30
0.0
 10
92.94058021765028
 20
-153.7966416716202
 30
0.0
 10
92.82637530231424
 20
-153.8517631993843
 30
0.0
 10
92.82637530231424
 20
-153.8517631993843
 30
0.0
 10
92.82637530231424
 20
-153.8517631993843
 30
0.0
 10
92.83688284354425
 20
-153.8517631993843
 30
0.0
 10
92.83688284354425
 20
-153.8517631993843
 30
0.0
 10
92.83688284354425
 20
-153.8517631993843
 30
0.0
 10
93.3593315738824
 20
-153.8517631993843
 30
0.0
 10
93.3593315738824
 20
-153.8517631993843
 30
0.0
 10
93.3593315738824
 20
-153.8517631993843
 30
0.0
 10
93.26424693848949
 20
-153.8073214676245
 30
0.0
 10
93.26424693848949
 20
-153.8073214676245
 30
0.0
 10
93.29180770237149
 20
-153.7694254172868
 30
0.0
 10
93.34882403265238
 20
-153.6888101829319
 30
0.0
 10
93.36363794323895
 20
-153.6147406299991
 30
0.0
 10
93.36363794323895
 20
-153.6147406299991
 30
0.0
 10
93.57723386332445
 20
-153.6781303869277
 30
0.0
 10
93.57723386332445
 20
-153.6781303869277
 30
0.0
 10
93.58584660203758
 20
-153.6805419537673
 30
0.0
 10
93.60686168449758
 20
-153.6908772402231
 30
0.0
 10
93.60686168449758
 20
-153.7122368322316
 30
0.0
 10
93.60686168449758
 20
-153.7501328825694
 30
0.0
 10
93.54140487027784
 20
-153.7501328825694
 30
0.0
 10
93.5222845903347
 20
-153.7501328825694
 30
0.0
 10
93.51177704910469
 20
-153.7694254172868
 30
0.0
 10
93.48852265457926
 20
-153.8093885249157
 30
0.0
 10
93.45889483340611
 20
-153.8496961420931
 30
0.0
 10
93.85869816446936
 20
-153.8431504606711
 30
0.0
 10
93.88832598564251
 20
-153.84108340338
 30
0.0
 10
93.96446259586651
 20
-153.8348822315065
 30
0.0
 10
93.96446259586651
 20
-153.8348822315065
 30
0.0
 10
93.96446259586651
 20
-154.0167832731277
 30
0.0
 10
93.96446259586651
 20
-154.0167832731277
 30
0.0
 10
93.9453423159234
 20
-154.0167832731277
 30
0.0
 10
93.92002086410681
 20
-154.0147162158366
 30
0.0
 10
93.70005151737361
 20
-154.0061034771234
 30
0.0
 10
93.64923635896616
 20
-154.0040364198323
 30
0.0
 10
93.42926701223296
 20
-153.99990230525
 30
0.0
 10
93.38482528047324
 20
-153.99990230525
 30
0.0
 10
93.38482528047324
 20
-153.99990230525
 30
0.0
 10
93.16899004832235
 20
-153.99990230525
 30
0.0
 10
93.16899004832235
 20
-153.99990230525
 30
0.0
 10
93.16899004832235
 20
-153.99990230525
 30
0.0
 10
93.16899004832235
 20
-154.1184135899426
 30
0.0
 10
93.16899004832235
 20
-154.1184135899426
 30
0.0
 10
93.16899004832235
 20
-154.1184135899426
 30
0.0
 10
93.34245060600467
 20
-154.1184135899426
 30
0.0
 10
93.34245060600467
 20
-154.1184135899426
 30
0.0
 10
93.50540362245698
 20
-154.1184135899426
 30
0.0
 10
93.69574514801703
 20
-154.1184135899426
 30
0.0
 10
93.85232473782165
 20
-154.1077337939383
 30
0.0
 10
93.85232473782165
 20
-154.1077337939383
 30
0.0
 10
93.85232473782165
 20
-154.2789550395552
 30
0.0
 10
93.85232473782165
 20
-154.2789550395552
 30
0.0
 10
93.64286293231845
 20
-154.2706868103906
 30
0.0
 10
93.4461479801107
 20
-154.2686197530995
 30
0.0
 10
93.34245060600467
 20
-154.2686197530995
 30
0.0
 10
93.34245060600467
 20
-154.2686197530995
 30
0.0
 10
93.16899004832235
 20
-154.2686197530995
 30
0.0
 10
93.16899004832235
 20
-154.2686197530995
 30
0.0
 10
93.16899004832235
 20
-154.2686197530995
 30
0.0
 10
93.16899004832235
 20
-154.3764512417878
 30
0.0
 10
93.16899004832235
 20
-154.3764512417878
 30
0.0
 10
93.16899004832235
 20
-154.3764512417878
 30
0.0
 10
93.39963919105981
 20
-154.3764512417878
 30
0.0
 10
93.39963919105981
 20
-154.3764512417878
 30
0.0
 10
93.53296438633899
 20
-154.3764512417878
 30
0.0
 10
93.82062985935736
 20
-154.3723171272055
 30
0.0
 10
94.03009166486054
 20
-154.3657714457835
 30
0.0
 10
94.03009166486054
 20
-154.3657714457835
 30
0.0
 10
94.03009166486054
 20
-154.5435383728224
 30
0.0
 10
94.03009166486054
 20
-154.5435383728224
 30
0.0
 10
93.83751082723506
 20
-154.537337200949
 30
0.0
 10
93.52435164762587
 20
-154.5328585768181
 30
0.0
 10
93.39963919105981
 20
-154.5328585768181
 30
0.0
  0
HATCH
  5
14E
330
142
100
AcDbEntity
  8
レイヤー 1
 62
    18
420
        0
440
 33554687
100
AcDbHatch
 10
0.0
 20
0.0
 30
0.0
210
0.0
220
0.0
230
1.0
  2
SOLID
 70
     1
 71
     1
 91
        4
 92
        1
 93
        1
 72
     4
 94
        3
 73
     0
 74
     0
 95
       17
 96
       13
 40
0.0
 40
0.0
 40
0.0
 40
0.0
 40
1.0
 40
1.0
 40
1.0
 40
2.0
 40
2.0
 40
2.0
 40
3.0
 40
3.0
 40
3.0
 40
4.0
 40
4.0
 40
4.0
 40
4.0
 10
93.56465926480328
 20
-155.2649413674338
 10
93.56465926480328
 20
-155.2649413674338
 10
92.85807018077854
 20
-155.2649413674338
 10
92.85807018077854
 20
-155.2649413674338
 10
92.85807018077854
 20
-155.2649413674338
 10
92.85807018077854
 20
-155.379318537544
 10
92.85807018077854
 20
-155.379318537544
 10
92.85807018077854
 20
-155.379318537544
 10
93.56465926480328
 20
-155.379318537544
 10
93.56465926480328
 20
-155.379318537544
 10
93.56465926480328
 20
-155.379318537544
 10
93.56465926480328
 20
-155.2649413674338
 10
93.56465926480328
 20
-155.2649413674338
 97
        0
 97
        1
330
14A
 92
        1
 93
        1
 72
     4
 94
        3
 73
     0
 74
     0
 95
       17
 96
       13
 40
0.0
 40
0.0
 40
0.0
 40
0.0
 40
1.0
 40
1.0
 40
1.0
 40
2.0
 40
2.0
 40
2.0
 40
3.0
 40
3.0
 40
3.0
 40
4.0
 40
4.0
 40
4.0
 40
4.0
 10
93.56465926480328
 20
-155.0217176261751
 10
93.56465926480328
 20
-155.0217176261751
 10
92.85807018077854
 20
-155.0217176261751
 10
92.85807018077854
 20
-155.0217176261751
 10
92.85807018077854
 20
-155.0217176261751
 10
92.85807018077854
 20
-155.1357502867369
 10
92.85807018077854
 20
-155.1357502867369
 10
92.85807018077854
 20
-155.1357502867369
 10
93.56465926480328
 20
-155.1357502867369
 10
93.56465926480328
 20
-155.1357502867369
 10
93.56465926480328
 20
-155.1357502867369
 10
93.56465926480328
 20
-155.0217176261751
 10
93.56465926480328
 20
-155.0217176261751
 97
        0
 97
        1
330
14B
 92
        1
 93
        1
 72
     4
 94
        3
 73
     0
 74
     0
 95
       17
 96
       13
 40
0.0
 40
0.0
 40
0.0
 40
0.0
 40
1.0
 40
1.0
 40
1.0
 40
2.0
 40
2.0
 40
2.0
 40
3.0
 40
3.0
 40
3.0
 40
4.0
 40
4.0
 40
4.0
 40
4.0
 10
93.56465926480328
 20
-154.7888291713722
 10
93.56465926480328
 20
-154.7888291713722
 10
92.85807018077854
 20
-154.7888291713722
 10
92.85807018077854
 20
-154.7888291713722
 10
92.85807018077854
 20
-154.7888291713722
 10
92.85807018077854
 20
-154.8966606600606
 10
92.85807018077854
 20
-154.8966606600606
 10
92.85807018077854
 20
-154.8966606600606
 10
93.56465926480328
 20
-154.8966606600606
 10
93.56465926480328
 20
-154.8966606600606
 10
93.56465926480328
 20
-154.8966606600606
 10
93.56465926480328
 20
-154.7888291713722
 10
93.56465926480328
 20
-154.7888291713722
 97
        0
 97
        1
330
14C
 92
        1
 93
        1
 72
     4
 94
        3
 73
     0
 74
     0
 95
      203
 96
      199
 40
0.0
 40
0.0
 40
0.0
 40
0.0
 40
1.0
 40
1.0
 40
1.0
 40
2.0
 40
2.0
 40
2.0
 40
3.0
 40
3.0
 40
3.0
 40
4.0
 40
4.0
 40
4.0
 40
5.0
 40
5.0
 40
5.0
 40
6.0
 40
6.0
 40
6.0
 40
7.0
 40
7.0
 40
7.0
 40
8.0
 40
8.0
 40
8.0
 40
9.0
 40
9.0
 40
9.0
 40
10.0
 40
10.0
 40
10.0
 40
11.0
 40
11.0
 40
11.0
 40
12.0
 40
12.0
 40
12.0
 40
13.0
 40
13.0
 40
13.0
 40
14.0
 40
14.0
 40
14.0
 40
15.0
 40
15.0
 40
15.0
 40
16.0
 40
16.0
 40
16.0
 40
17.0
 40
17.0
 40
17.0
 40
18.0
 40
18.0
 40
18.0
 40
19.0
 40
19.0
 40
19.0
 40
20.0
 40
20.0
 40
20.0
 40
21.0
 40
21.0
 40
21.0
 40
22.0
 40
22.0
 40
22.0
 40
23.0
 40
23.0
 40
23.0
 40
24.0
 40
24.0
 40
24.0
 40
25.0
 40
25.0
 40
25.0
 40
26.0
 40
26.0
 40
26.0
 40
27.0
 40
27.0
 40
27.0
 40
28.0
 40
28.0
 40
28.0
 40
29.0
 40
29.0
 40
29.0
 40
30.0
 40
30.0
 40
30.0
 40
31.0
 40
31.0
 40
31.0
 40
32.0
 40
32.0
 40
32.0
 40
33.0
 40
33.0
 40
33.0
 40
34.0
 40
34.0
 40
34.0
 40
35.0
 40
35.0
 40
35.0
 40
36.0
 40
36.0
 40
36.0
 40
37.0
 40
37.0
 40
37.0
 40
38.0
 40
38.0
 40
38.0
 40
39.0
 40
39.0
 40
39.0
 40
40.0
 40
40.0
 40
40.0
 40
41.0
 40
41.0
 40
41.0
 40
42.0
 40
42.0
 40
42.0
 40
43.0
 40
43.0
 40
43.0
 40
44.0
 40
44.0
 40
44.0
 40
45.0
 40
45.0
 40
45.0
 40
46.0
 40
46.0
 40
46.0
 40
47.0
 40
47.0
 40
47.0
 40
48.0
 40
48.0
 40
48.0
 40
49.0
 40
49.0
 40
49.0
 40
50.0
 40
50.0
 40
50.0
 40
51.0
 40
51.0
 40
51.0
 40
52.0
 40
52.0
 40
52.0
 40
53.0
 40
53.0
 40
53.0
 40
54.0
 40
54.0
 40
54.0
 40
55.0
 40
55.0
 40
55.0
 40
56.0
 40
56.0
 40
56.0
 40
57.0
 40
57.0
 40
57.0
 40
58.0
 40
58.0
 40
58.0
 40
59.0
 40
59.0
 40
59.0
 40
60.0
 40
60.0
 40
60.0
 40
61.0
 40
61.0
 40
61.0
 40
62.0
 40
62.0
 40
62.0
 40
63.0
 40
63.0
 40
63.0
 40
64.0
 40
64.0
 40
64.0
 40
65.0
 40
65.0
 40
65.0
 40
66.0
 40
66.0
 40
66.0
 40
66.0
 10
93.39963919105981
 20
-154.5328585768181
 10
93.39963919105981
 20
-154.5328585768181
 10
92.84118921290081
 20
-154.5328585768181
 10
92.84118921290081
 20
-154.5328585768181
 10
92.83050941689655
 20
-154.5773003085779
 10
92.82206893295768
 20
-154.6089951870422
 10
92.80932207966225
 20
-154.6472357469285
 10
92.83481578625311
 20
-154.6472357469285
 10
92.84962969683968
 20
-154.6493028042196
 10
92.85600312348739
 20
-154.6493028042196
 10
92.85600312348739
 20
-154.6493028042196
 10
93.04427759175629
 20
-154.6493028042196
 10
93.04427759175629
 20
-154.6493028042196
 10
93.04427759175629
 20
-154.6493028042196
 10
93.41858721622868
 20
-154.6493028042196
 10
93.41858721622868
 20
-154.6493028042196
 10
93.46940237463613
 20
-154.6493028042196
 10
93.75293373307219
 20
-154.6365559509242
 10
93.78462861153648
 20
-154.6365559509242
 10
93.78256155424534
 20
-154.6641167148062
 10
93.78032224217992
 20
-154.683064739975
 10
93.78032224217992
 20
-154.7126925611482
 10
93.77825518488878
 20
-154.7443874396125
 10
93.77825518488878
 20
-154.8797796921828
 10
93.77825518488878
 20
-154.9073404560648
 10
93.77825518488878
 20
-154.9073404560648
 10
93.77825518488878
 20
-155.1526312546146
 10
93.77825518488878
 20
-155.1526312546146
 10
93.77825518488878
 20
-155.1970729863743
 10
93.78256155424534
 20
-155.3941324481306
 10
93.78669566882763
 20
-155.5464056685786
 10
93.78669566882763
 20
-155.5464056685786
 10
93.56035289544673
 20
-155.5464056685786
 10
93.56035289544673
 20
-155.5464056685786
 10
93.56035289544673
 20
-155.5464056685786
 10
93.56259220751214
 20
-155.5122992232747
 10
93.56259220751214
 20
-155.5122992232747
 10
93.56259220751214
 20
-155.5122992232747
 10
92.8601372380697
 20
-155.5122992232747
 10
92.8601372380697
 20
-155.5122992232747
 10
92.8601372380697
 20
-155.5122992232747
 10
92.86220429536085
 20
-155.5464056685786
 10
92.86220429536085
 20
-155.5464056685786
 10
92.86220429536085
 20
-155.5464056685786
 10
92.64430200591879
 20
-155.5464056685786
 10
92.64430200591879
 20
-155.5464056685786
 10
92.64860837527535
 20
-155.4912841408147
 10
92.64860837527535
 20
-155.4785372875192
 10
92.65498180192308
 20
-155.3645046269575
 10
92.65704885921421
 20
-155.3369438630755
 10
92.65911591650537
 20
-155.2036186677963
 10
92.65911591650537
 20
-155.1846706426274
 10
92.65911591650537
 20
-155.1846706426274
 10
92.65911591650537
 20
-154.9814100089977
 10
92.65911591650537
 20
-154.9814100089977
 10
92.51958954935274
 20
-155.2311794316783
 10
92.3502631062527
 20
-155.3620930601178
 10
92.24449867485555
 20
-155.4278943838861
 10
92.24449867485555
 20
-155.4278943838861
 10
92.07103811717322
 20
-155.2880235071849
 10
92.07103811717322
 20
-155.2880235071849
 10
92.15992158069267
 20
-155.2373806035517
 10
92.30375431720185
 20
-155.1505641973235
 10
92.4412136270633
 20
-154.9559163024068
 10
92.53233640264816
 20
-154.8291367885497
 10
92.5977932168679
 20
-154.6851317972662
 10
92.63172740739763
 20
-154.5328585768181
 10
92.4031453219513
 20
-154.5349256341093
 10
92.22331133762125
 20
-154.5414713155313
 10
92.12822670222836
 20
-154.5435383728224
 10
92.12822670222836
 20
-154.5435383728224
 10
92.12822670222836
 20
-154.3657714457835
 10
92.12822670222836
 20
-154.3657714457835
 10
92.32494165443613
 20
-154.3723171272055
 10
92.60847301287219
 20
-154.3764512417878
 10
92.75867917602909
 20
-154.3764512417878
 10
92.75867917602909
 20
-154.3764512417878
 10
92.97227509611458
 20
-154.3764512417878
 10
92.97227509611458
 20
-154.3764512417878
 10
92.97227509611458
 20
-154.3764512417878
 10
92.97227509611458
 20
-154.2686197530995
 10
92.97227509611458
 20
-154.2686197530995
 10
92.97227509611458
 20
-154.2686197530995
 10
92.82637530231424
 20
-154.2686197530995
 10
92.82637530231424
 20
-154.2686197530995
 10
92.65704885921421
 20
-154.2686197530995
 10
92.48789467088846
 20
-154.2727538676818
 10
92.32063528507955
 20
-154.2789550395552
 10
92.32063528507955
 20
-154.2789550395552
 10
92.32063528507955
 20
-154.1077337939383
 10
92.32063528507955
 20
-154.1077337939383
 10
92.47514781759303
 20
-154.1184135899426
 10
92.66135522857076
 20
-154.1184135899426
 10
92.82637530231424
 20
-154.1184135899426
 10
92.82637530231424
 20
-154.1184135899426
 10
92.97227509611458
 20
-154.1184135899426
 10
92.97227509611458
 20
-154.1184135899426
 10
92.97227509611458
 20
-154.1184135899426
 10
92.97227509611458
 20
-153.99990230525
 10
92.97227509611458
 20
-153.99990230525
 10
92.97227509611458
 20
-153.99990230525
 10
92.84118921290081
 20
-153.99990230525
 10
92.84118921290081
 20
-153.99990230525
 10
92.79450816907568
 20
-153.99990230525
 10
92.5914197902202
 20
-154.0081705344146
 10
92.54921737052589
 20
-154.0081705344146
 10
92.34612899167041
 20
-154.0126491585454
 10
92.26999238144641
 20
-154.0147162158366
 10
92.19161645915695
 20
-154.0167832731277
 10
92.19161645915695
 20
-154.0167832731277
 10
92.19161645915695
 20
-153.8328151742154
 10
92.19161645915695
 20
-153.8328151742154
 10
92.305821374493
 20
-153.84108340338
 10
92.3502631062527
 20
-153.84108340338
 10
92.73318546943825
 20
-153.8496961420931
 10
92.66979571250963
 20
-153.7546115067002
 10
92.64223494862765
 20
-153.7270507428182
 10
92.60623370080677
 20
-153.6908772402231
 10
92.60623370080677
 20
-153.6908772402231
 10
92.78193357055451
 20
-153.6085394581256
 10
92.78193357055451
 20
-153.6085394581256
 10
92.82206893295768
 20
-153.6443684511722
 10
92.8665106647174
 20
-153.6867431256408
 10
92.94058021765028
 20
-153.7966416716202
 10
92.94058021765028
 20
-153.7966416716202
 10
92.82637530231424
 20
-153.8517631993843
 10
92.82637530231424
 20
-153.8517631993843
 10
92.82637530231424
 20
-153.8517631993843
 10
92.83688284354425
 20
-153.8517631993843
 10
92.83688284354425
 20
-153.8517631993843
 10
92.83688284354425
 20
-153.8517631993843
 10
93.3593315738824
 20
-153.8517631993843
 10
93.3593315738824
 20
-153.8517631993843
 10
93.3593315738824
 20
-153.8517631993843
 10
93.26424693848949
 20
-153.8073214676245
 10
93.26424693848949
 20
-153.8073214676245
 10
93.29180770237149
 20
-153.7694254172868
 10
93.34882403265238
 20
-153.6888101829319
 10
93.36363794323895
 20
-153.6147406299991
 10
93.36363794323895
 20
-153.6147406299991
 10
93.57723386332445
 20
-153.6781303869277
 10
93.57723386332445
 20
-153.6781303869277
 10
93.58584660203758
 20
-153.6805419537673
 10
93.60686168449758
 20
-153.6908772402231
 10
93.60686168449758
 20
-153.7122368322316
 10
93.60686168449758
 20
-153.7501328825694
 10
93.54140487027784
 20
-153.7501328825694
 10
93.5222845903347
 20
-153.7501328825694
 10
93.51177704910469
 20
-153.7694254172868
 10
93.48852265457926
 20
-153.8093885249157
 10
93.45889483340611
 20
-153.8496961420931
 10
93.85869816446936
 20
-153.8431504606711
 10
93.88832598564251
 20
-153.84108340338
 10
93.96446259586651
 20
-153.8348822315065
 10
93.96446259586651
 20
-153.8348822315065
 10
93.96446259586651
 20
-154.0167832731277
 10
93.96446259586651
 20
-154.0167832731277
 10
93.9453423159234
 20
-154.0167832731277
 10
93.92002086410681
 20
-154.0147162158366
 10
93.70005151737361
 20
-154.0061034771234
 10
93.64923635896616
 20
-154.0040364198323
 10
93.42926701223296
 20
-153.99990230525
 10
93.38482528047324
 20
-153.99990230525
 10
93.38482528047324
 20
-153.99990230525
 10
93.16899004832235
 20
-153.99990230525
 10
93.16899004832235
 20
-153.99990230525
 10
93.16899004832235
 20
-153.99990230525
 10
93.16899004832235
 20
-154.1184135899426
 10
93.16899004832235
 20
-154.1184135899426
 10
93.16899004832235
 20
-154.1184135899426
 10
93.34245060600467
 20
-154.1184135899426
 10
93.34245060600467
 20
-154.1184135899426
 10
93.50540362245698
 20
-154.1184135899426
 10
93.69574514801703
 20
-154.1184135899426
 10
93.85232473782165
 20
-154.1077337939383
 10
93.85232473782165
 20
-154.1077337939383
 10
93.85232473782165
 20
-154.2789550395552
 10
93.85232473782165
 20
-154.2789550395552
 10
93.64286293231845
 20
-154.2706868103906
 10
93.4461479801107
 20
-154.2686197530995
 10
93.34245060600467
 20
-154.2686197530995
 10
93.34245060600467
 20
-154.2686197530995
 10
93.16899004832235
 20
-154.2686197530995
 10
93.16899004832235
 20
-154.2686197530995
 10
93.16899004832235
 20
-154.2686197530995
 10
93.16899004832235
 20
-154.3764512417878
 10
93.16899004832235
 20
-154.3764512417878
 10
93.16899004832235
 20
-154.3764512417878
 10
93.39963919105981
 20
-154.3764512417878
 10
93.39963919105981
 20
-154.3764512417878
 10
93.53296438633899
 20
-154.3764512417878
 10
93.82062985935736
 20
-154.3723171272055
 10
94.03009166486054
 20
-154.3657714457835
 10
94.03009166486054
 20
-154.3657714457835
 10
94.03009166486054
 20
-154.5435383728224
 10
94.03009166486054
 20
-154.5435383728224
 10
93.83751082723506
 20
-154.537337200949
 10
93.52435164762587
 20
-154.5328585768181
 10
93.39963919105981
 20
-154.5328585768181
 97
        0
 97
        1
330
14D
 75
     2
 76
     1
 98
        1
 10
0.0
 20
0.0
450
        0
451
        0
460
0.0
461
0.0
452
        0
462
0.0
453
        0
470

  0
SPLINE
  5
14F
330
142
100
AcDbEntity
  8
レイヤー 1
100
AcDbSpline
210
0.0
220
0.0
230
1.0
 70
     9
 71
     3
 72
    29
 73
    25
 74
     0
 42
0.0000000001
 43
0.0000000001
 40
0.0
 40
0.0
 40
0.0
 40
0.0
 40
1.0
 40
1.0
 40
1.0
 40
2.0
 40
2.0
 40
2.0
 40
3.0
 40
3.0
 40
3.0
 40
4.0
 40
4.0
 40
4.0
 40
5.0
 40
5.0
 40
5.0
 40
6.0
 40
6.0
 40
6.0
 40
7.0
 40
7.0
 40
7.0
 40
8.0
 40
8.0
 40
8.0
 40
8.0
 10
95.27514917322983
 20
-153.9809542800811
 30
0.0
 10
95.27514917322983
 20
-153.9809542800811
 30
0.0
 10
94.92185463121746
 20
-153.9809542800811
 30
0.0
 10
94.92185463121746
 20
-153.9809542800811
 30
0.0
 10
94.80971677317258
 20
-153.9809542800811
 30
0.0
 10
94.6700181512457
 20
-153.9871554519546
 30
0.0
 10
94.56218666255738
 20
-153.99990230525
 30
0.0
 10
94.56218666255738
 20
-153.99990230525
 30
0.0
 10
94.56218666255738
 20
-153.764946793156
 30
0.0
 10
94.56218666255738
 20
-153.764946793156
 30
0.0
 10
94.68069794724996
 20
-153.7797607037425
 30
0.0
 10
94.8646660461623
 20
-153.7842393278734
 30
0.0
 10
94.92185463121746
 20
-153.7842393278734
 30
0.0
 10
94.92185463121746
 20
-153.7842393278734
 30
0.0
 10
95.27514917322983
 20
-153.7842393278734
 30
0.0
 10
95.27514917322983
 20
-153.7842393278734
 30
0.0
 10
95.2940971983987
 20
-153.7842393278734
 30
0.0
 10
95.49718557725418
 20
-153.7842393278734
 30
0.0
 10
95.63895125647221
 20
-153.764946793156
 30
0.0
 10
95.63895125647221
 20
-153.764946793156
 30
0.0
 10
95.63895125647221
 20
-153.99990230525
 30
0.0
 10
95.63895125647221
 20
-153.99990230525
 30
0.0
 10
95.4823716666676
 20
-153.9809542800811
 30
0.0
 10
95.29203014110754
 20
-153.9809542800811
 30
0.0
 10
95.27514917322983
 20
-153.9809542800811
 30
0.0
  0
SPLINE
  5
150
330
142
100
AcDbEntity
  8
レイヤー 1
100
AcDbSpline
210
0.0
220
0.0
230
1.0
 70
     9
 71
     3
 72
    47
 73
    43
 74
     0
 42
0.0000000001
 43
0.0000000001
 40
0.0
 40
0.0
 40
0.0
 40
0.0
 40
1.0
 40
1.0
 40
1.0
 40
2.0
 40
2.0
 40
2.0
 40
3.0
 40
3.0
 40
3.0
 40
4.0
 40
4.0
 40
4.0
 40
5.0
 40
5.0
 40
5.0
 40
6.0
 40
6.0
 40
6.0
 40
7.0
 40
7.0
 40
7.0
 40
8.0
 40
8.0
 40
8.0
 40
9.0
 40
9.0
 40
9.0
 40
10.0
 40
10.0
 40
10.0
 40
11.0
 40
11.0
 40
11.0
 40
12.0
 40
12.0
 40
12.0
 40
13.0
 40
13.0
 40
13.0
 40
14.0
 40
14.0
 40
14.0
 40
14.0
 10
95.37660723527045
 20
-154.509776437067
 30
0.0
 10
95.37660723527045
 20
-154.509776437067
 30
0.0
 10
95.27514917322983
 20
-154.509776437067
 30
0.0
 10
95.27514917322983
 20
-154.509776437067
 30
0.0
 10
95.27514917322983
 20
-154.5965928432953
 30
0.0
 10
95.25396183599553
 20
-154.98554412358
 30
0.0
 10
95.05724688378776
 20
-155.2056857250875
 30
0.0
 10
94.90480140856547
 20
-155.3748399134132
 30
0.0
 10
94.69757891512768
 20
-155.4447753517638
 30
0.0
 10
94.61300182096481
 20
-155.4723361156458
 30
0.0
 10
94.61300182096481
 20
-155.4723361156458
 30
0.0
 10
94.4183539260482
 20
-155.3052489846112
 30
0.0
 10
94.4183539260482
 20
-155.3052489846112
 30
0.0
 10
94.51567787350651
 20
-155.2925021313157
 30
0.0
 10
94.69120548847998
 20
-155.269075482016
 30
0.0
 10
94.87947995674888
 20
-155.0809732685214
 30
0.0
 10
94.95354950968176
 20
-155.0089707728797
 30
0.0
 10
95.05724688378776
 20
-154.8694444057271
 30
0.0
 10
95.05724688378776
 20
-154.509776437067
 30
0.0
 10
95.05724688378776
 20
-154.509776437067
 30
0.0
 10
94.82659774105028
 20
-154.509776437067
 30
0.0
 10
94.82659774105028
 20
-154.509776437067
 30
0.0
 10
94.64039033007255
 20
-154.509776437067
 30
0.0
 10
94.45418291909479
 20
-154.5139105516493
 30
0.0
 10
94.26814776289131
 20
-154.5287244622359
 30
0.0
 10
94.26814776289131
 20
-154.5287244622359
 30
0.0
 10
94.26814776289131
 20
-154.3085828607284
 30
0.0
 10
94.26814776289131
 20
-154.3085828607284
 30
0.0
 10
94.45642223116021
 20
-154.323396771315
 30
0.0
 10
94.74202064688741
 20
-154.3278753954458
 30
0.0
 10
94.82659774105028
 20
-154.3278753954458
 30
0.0
 10
94.82659774105028
 20
-154.3278753954458
 30
0.0
 10
95.37660723527045
 20
-154.3278753954458
 30
0.0
 10
95.37660723527045
 20
-154.3278753954458
 30
0.0
 10
95.39572751521358
 20
-154.3278753954458
 30
0.0
 10
95.71302080940508
 20
-154.3278753954458
 30
0.0
 10
95.94143064007715
 20
-154.3085828607284
 30
0.0
 10
95.94143064007715
 20
-154.3085828607284
 30
0.0
 10
95.94143064007715
 20
-154.5287244622359
 30
0.0
 10
95.94143064007715
 20
-154.5287244622359
 30
0.0
 10
95.75315617180825
 20
-154.5139105516493
 30
0.0
 10
95.56488170353935
 20
-154.509776437067
 30
0.0
 10
95.37660723527045
 20
-154.509776437067
 30
0.0
  0
HATCH
  5
151
330
142
100
AcDbEntity
  8
レイヤー 1
 62
    18
420
        0
440
 33554687
100
AcDbHatch
 10
0.0
 20
0.0
 30
0.0
210
0.0
220
0.0
230
1.0
  2
SOLID
 70
     1
 71
     1
 91
        2
 92
        1
 93
        1
 72
     4
 94
        3
 73
     0
 74
     0
 95
       29
 96
       25
 40
0.0
 40
0.0
 40
0.0
 40
0.0
 40
1.0
 40
1.0
 40
1.0
 40
2.0
 40
2.0
 40
2.0
 40
3.0
 40
3.0
 40
3.0
 40
4.0
 40
4.0
 40
4.0
 40
5.0
 40
5.0
 40
5.0
 40
6.0
 40
6.0
 40
6.0
 40
7.0
 40
7.0
 40
7.0
 40
8.0
 40
8.0
 40
8.0
 40
8.0
 10
95.27514917322983
 20
-153.9809542800811
 10
95.27514917322983
 20
-153.9809542800811
 10
94.92185463121746
 20
-153.9809542800811
 10
94.92185463121746
 20
-153.9809542800811
 10
94.80971677317258
 20
-153.9809542800811
 10
94.6700181512457
 20
-153.9871554519546
 10
94.56218666255738
 20
-153.99990230525
 10
94.56218666255738
 20
-153.99990230525
 10
94.56218666255738
 20
-153.764946793156
 10
94.56218666255738
 20
-153.764946793156
 10
94.68069794724996
 20
-153.7797607037425
 10
94.8646660461623
 20
-153.7842393278734
 10
94.92185463121746
 20
-153.7842393278734
 10
94.92185463121746
 20
-153.7842393278734
 10
95.27514917322983
 20
-153.7842393278734
 10
95.27514917322983
 20
-153.7842393278734
 10
95.2940971983987
 20
-153.7842393278734
 10
95.49718557725418
 20
-153.7842393278734
 10
95.63895125647221
 20
-153.764946793156
 10
95.63895125647221
 20
-153.764946793156
 10
95.63895125647221
 20
-153.99990230525
 10
95.63895125647221
 20
-153.99990230525
 10
95.4823716666676
 20
-153.9809542800811
 10
95.29203014110754
 20
-153.9809542800811
 10
95.27514917322983
 20
-153.9809542800811
 97
        0
 97
        1
330
14F
 92
        1
 93
        1
 72
     4
 94
        3
 73
     0
 74
     0
 95
       47
 96
       43
 40
0.0
 40
0.0
 40
0.0
 40
0.0
 40
1.0
 40
1.0
 40
1.0
 40
2.0
 40
2.0
 40
2.0
 40
3.0
 40
3.0
 40
3.0
 40
4.0
 40
4.0
 40
4.0
 40
5.0
 40
5.0
 40
5.0
 40
6.0
 40
6.0
 40
6.0
 40
7.0
 40
7.0
 40
7.0
 40
8.0
 40
8.0
 40
8.0
 40
9.0
 40
9.0
 40
9.0
 40
10.0
 40
10.0
 40
10.0
 40
11.0
 40
11.0
 40
11.0
 40
12.0
 40
12.0
 40
12.0
 40
13.0
 40
13.0
 40
13.0
 40
14.0
 40
14.0
 40
14.0
 40
14.0
 10
95.37660723527045
 20
-154.509776437067
 10
95.37660723527045
 20
-154.509776437067
 10
95.27514917322983
 20
-154.509776437067
 10
95.27514917322983
 20
-154.509776437067
 10
95.27514917322983
 20
-154.5965928432953
 10
95.25396183599553
 20
-154.98554412358
 10
95.05724688378776
 20
-155.2056857250875
 10
94.90480140856547
 20
-155.3748399134132
 10
94.69757891512768
 20
-155.4447753517638
 10
94.61300182096481
 20
-155.4723361156458
 10
94.61300182096481
 20
-155.4723361156458
 10
94.4183539260482
 20
-155.3052489846112
 10
94.4183539260482
 20
-155.3052489846112
 10
94.51567787350651
 20
-155.2925021313157
 10
94.69120548847998
 20
-155.269075482016
 10
94.87947995674888
 20
-155.0809732685214
 10
94.95354950968176
 20
-155.0089707728797
 10
95.05724688378776
 20
-154.8694444057271
 10
95.05724688378776
 20
-154.509776437067
 10
95.05724688378776
 20
-154.509776437067
 10
94.82659774105028
 20
-154.509776437067
 10
94.82659774105028
 20
-154.509776437067
 10
94.64039033007255
 20
-154.509776437067
 10
94.45418291909479
 20
-154.5139105516493
 10
94.26814776289131
 20
-154.5287244622359
 10
94.26814776289131
 20
-154.5287244622359
 10
94.26814776289131
 20
-154.3085828607284
 10
94.26814776289131
 20
-154.3085828607284
 10
94.45642223116021
 20
-154.323396771315
 10
94.74202064688741
 20
-154.3278753954458
 10
94.82659774105028
 20
-154.3278753954458
 10
94.82659774105028
 20
-154.3278753954458
 10
95.37660723527045
 20
-154.3278753954458
 10
95.37660723527045
 20
-154.3278753954458
 10
95.39572751521358
 20
-154.3278753954458
 10
95.71302080940508
 20
-154.3278753954458
 10
95.94143064007715
 20
-154.3085828607284
 10
95.94143064007715
 20
-154.3085828607284
 10
95.94143064007715
 20
-154.5287244622359
 10
95.94143064007715
 20
-154.5287244622359
 10
95.75315617180825
 20
-154.5139105516493
 10
95.56488170353935
 20
-154.509776437067
 10
95.37660723527045
 20
-154.509776437067
 97
        0
 97
        1
330
150
 75
     2
 76
     1
 98
        1
 10
0.0
 20
0.0
450
        0
451
        0
460
0.0
461
0.0
452
        0
462
0.0
453
        0
470

  0
SPLINE
  5
152
330
142
100
AcDbEntity
  8
レイヤー 1
100
AcDbSpline
210
0.0
220
0.0
230
1.0
 70
     9
 71
     3
 72
    29
 73
    25
 74
     0
 42
0.0000000001
 43
0.0000000001
 40
0.0
 40
0.0
 40
0.0
 40
0.0
 40
1.0
 40
1.0
 40
1.0
 40
2.0
 40
2.0
 40
2.0
 40
3.0
 40
3.0
 40
3.0
 40
4.0
 40
4.0
 40
4.0
 40
5.0
 40
5.0
 40
5.0
 40
6.0
 40
6.0
 40
6.0
 40
7.0
 40
7.0
 40
7.0
 40
8.0
 40
8.0
 40
8.0
 40
8.0
 10
97.22231714149303
 20
-154.6727294535193
 30
0.0
 10
97.22231714149303
 20
-154.6727294535193
 30
0.0
 10
96.73793671626691
 20
-154.6727294535193
 30
0.0
 10
96.73793671626691
 20
-154.6727294535193
 30
0.0
 10
96.71037595238491
 20
-154.6727294535193
 30
0.0
 10
96.39308265819341
 20
-154.6727294535193
 30
0.0
 10
96.18155379539906
 20
-154.6978786505616
 30
0.0
 10
96.18155379539906
 20
-154.6978786505616
 30
0.0
 10
96.18155379539906
 20
-154.4674017625984
 30
0.0
 10
96.18155379539906
 20
-154.4674017625984
 30
0.0
 10
96.34020044249481
 20
-154.4904839023496
 30
0.0
 10
96.53054196805486
 20
-154.4928954691892
 30
0.0
 10
96.73793671626691
 20
-154.4928954691892
 30
0.0
 10
96.73793671626691
 20
-154.4928954691892
 30
0.0
 10
97.22231714149303
 20
-154.4928954691892
 30
0.0
 10
97.22231714149303
 20
-154.4928954691892
 30
0.0
 10
97.40852455247079
 20
-154.4928954691892
 30
0.0
 10
97.59473196344854
 20
-154.4904839023496
 30
0.0
 10
97.77870006236089
 20
-154.4674017625984
 30
0.0
 10
97.77870006236089
 20
-154.4674017625984
 30
0.0
 10
97.77870006236089
 20
-154.6978786505616
 30
0.0
 10
97.77870006236089
 20
-154.6978786505616
 30
0.0
 10
97.59473196344854
 20
-154.6747965108104
 30
0.0
 10
97.34720185283334
 20
-154.6727294535193
 30
0.0
 10
97.22231714149303
 20
-154.6727294535193
 30
0.0
  0
HATCH
  5
153
330
142
100
AcDbEntity
  8
レイヤー 1
 62
    18
420
        0
440
 33554687
100
AcDbHatch
 10
0.0
 20
0.0
 30
0.0
210
0.0
220
0.0
230
1.0
  2
SOLID
 70
     1
 71
     1
 91
        1
 92
        1
 93
        1
 72
     4
 94
        3
 73
     0
 74
     0
 95
       29
 96
       25
 40
0.0
 40
0.0
 40
0.0
 40
0.0
 40
1.0
 40
1.0
 40
1.0
 40
2.0
 40
2.0
 40
2.0
 40
3.0
 40
3.0
 40
3.0
 40
4.0
 40
4.0
 40
4.0
 40
5.0
 40
5.0
 40
5.0
 40
6.0
 40
6.0
 40
6.0
 40
7.0
 40
7.0
 40
7.0
 40
8.0
 40
8.0
 40
8.0
 40
8.0
 10
97.22231714149303
 20
-154.6727294535193
 10
97.22231714149303
 20
-154.6727294535193
 10
96.73793671626691
 20
-154.6727294535193
 10
96.73793671626691
 20
-154.6727294535193
 10
96.71037595238491
 20
-154.6727294535193
 10
96.39308265819341
 20
-154.6727294535193
 10
96.18155379539906
 20
-154.6978786505616
 10
96.18155379539906
 20
-154.6978786505616
 10
96.18155379539906
 20
-154.4674017625984
 10
96.18155379539906
 20
-154.4674017625984
 10
96.34020044249481
 20
-154.4904839023496
 10
96.53054196805486
 20
-154.4928954691892
 10
96.73793671626691
 20
-154.4928954691892
 10
96.73793671626691
 20
-154.4928954691892
 10
97.22231714149303
 20
-154.4928954691892
 10
97.22231714149303
 20
-154.4928954691892
 10
97.40852455247079
 20
-154.4928954691892
 10
97.59473196344854
 20
-154.4904839023496
 10
97.77870006236089
 20
-154.4674017625984
 10
97.77870006236089
 20
-154.4674017625984
 10
97.77870006236089
 20
-154.6978786505616
 10
97.77870006236089
 20
-154.6978786505616
 10
97.59473196344854
 20
-154.6747965108104
 10
97.34720185283334
 20
-154.6727294535193
 10
97.22231714149303
 20
-154.6727294535193
 97
        0
 97
        1
330
152
 75
     2
 76
     1
 98
        1
 10
0.0
 20
0.0
450
        0
451
        0
460
0.0
461
0.0
452
        0
462
0.0
453
        0
470

  0
SPLINE
  5
154
330
142
100
AcDbEntity
  8
レイヤー 1
100
AcDbSpline
210
0.0
220
0.0
230
1.0
 70
     9
 71
     3
 72
    47
 73
    43
 74
     0
 42
0.0000000001
 43
0.0000000001
 40
0.0
 40
0.0
 40
0.0
 40
0.0
 40
1.0
 40
1.0
 40
1.0
 40
2.0
 40
2.0
 40
2.0
 40
3.0
 40
3.0
 40
3.0
 40
4.0
 40
4.0
 40
4.0
 40
5.0
 40
5.0
 40
5.0
 40
6.0
 40
6.0
 40
6.0
 40
7.0
 40
7.0
 40
7.0
 40
8.0
 40
8.0
 40
8.0
 40
9.0
 40
9.0
 40
9.0
 40
10.0
 40
10.0
 40
10.0
 40
11.0
 40
11.0
 40
11.0
 40
12.0
 40
12.0
 40
12.0
 40
13.0
 40
13.0
 40
13.0
 40
14.0
 40
14.0
 40
14.0
 40
14.0
 10
99.4425089269623
 20
-154.0781059727652
 30
0.0
 10
99.372745743386
 20
-154.3575032166189
 30
0.0
 10
99.29660913316197
 20
-154.662049657515
 30
0.0
 10
98.98344995355275
 20
-154.9941568622931
 30
0.0
 10
98.74659963894183
 20
-155.2439262849737
 30
0.0
 10
98.50113658561777
 20
-155.3431450349489
 30
0.0
 10
98.39537215422062
 20
-155.3855197094175
 30
0.0
 10
98.39537215422062
 20
-155.3855197094175
 30
0.0
 10
98.20072425930399
 20
-155.2036186677963
 30
0.0
 10
98.20072425930399
 20
-155.2036186677963
 30
0.0
 10
98.38693167028175
 20
-155.1571098787454
 30
0.0
 10
98.74866669623298
 20
-155.0640923006437
 30
0.0
 10
99.0447726531902
 20
-154.5690320794133
 30
0.0
 10
99.20565861235138
 20
-154.3023816888549
 30
0.0
 10
99.21823321087252
 20
-154.1287488763983
 30
0.0
 10
99.22684594958566
 20
-154.0377983555877
 30
0.0
 10
99.22684594958566
 20
-154.0377983555877
 30
0.0
 10
98.72110593235099
 20
-154.0377983555877
 30
0.0
 10
98.72110593235099
 20
-154.0377983555877
 30
0.0
 10
98.60276690243265
 20
-154.0377983555877
 30
0.0
 10
98.18177623413511
 20
-154.0570908903051
 30
0.0
 10
98.02933075891282
 20
-154.0674261767609
 30
0.0
 10
98.02933075891282
 20
-154.0674261767609
 30
0.0
 10
98.02933075891282
 20
-153.8579643712577
 30
0.0
 10
98.02933075891282
 20
-153.8579643712577
 30
0.0
 10
98.17109643813084
 20
-153.8707112245531
 30
0.0
 10
98.4482543699192
 20
-153.875189848684
 30
0.0
 10
98.56469859732063
 20
-153.875189848684
 30
0.0
 10
98.56469859732063
 20
-153.875189848684
 30
0.0
 10
98.92006019662415
 20
-153.875189848684
 30
0.0
 10
98.92006019662415
 20
-153.875189848684
 30
0.0
 10
98.94744870573189
 20
-153.875189848684
 30
0.0
 10
99.10833466489307
 20
-153.8727782818443
 30
0.0
 10
99.21823321087252
 20
-153.8579643712577
 30
0.0
 10
99.27542179592768
 20
-153.8517631993843
 30
0.0
 10
99.2923027638054
 20
-153.8328151742154
 30
0.0
 10
99.31555715833084
 20
-153.8093885249157
 30
0.0
 10
99.31555715833084
 20
-153.8093885249157
 30
0.0
 10
99.50383162659974
 20
-153.9595946880726
 30
0.0
 10
99.50383162659974
 20
-153.9595946880726
 30
0.0
 10
99.48901771601317
 20
-153.9892225092457
 30
0.0
 10
99.47851017478315
 20
-154.0081705344146
 30
0.0
 10
99.4425089269623
 20
-154.0781059727652
 30
0.0
  0
HATCH
  5
155
330
142
100
AcDbEntity
  8
レイヤー 1
 62
    18
420
        0
440
 33554687
100
AcDbHatch
 10
0.0
 20
0.0
 30
0.0
210
0.0
220
0.0
230
1.0
  2
SOLID
 70
     1
 71
     1
 91
        1
 92
        1
 93
        1
 72
     4
 94
        3
 73
     0
 74
     0
 95
       47
 96
       43
 40
0.0
 40
0.0
 40
0.0
 40
0.0
 40
1.0
 40
1.0
 40
1.0
 40
2.0
 40
2.0
 40
2.0
 40
3.0
 40
3.0
 40
3.0
 40
4.0
 40
4.0
 40
4.0
 40
5.0
 40
5.0
 40
5.0
 40
6.0
 40
6.0
 40
6.0
 40
7.0
 40
7.0
 40
7.0
 40
8.0
 40
8.0
 40
8.0
 40
9.0
 40
9.0
 40
9.0
 40
10.0
 40
10.0
 40
10.0
 40
11.0
 40
11.0
 40
11.0
 40
12.0
 40
12.0
 40
12.0
 40
13.0
 40
13.0
 40
13.0
 40
14.0
 40
14.0
 40
14.0
 40
14.0
 10
99.4425089269623
 20
-154.0781059727652
 10
99.372745743386
 20
-154.3575032166189
 10
99.29660913316197
 20
-154.662049657515
 10
98.98344995355275
 20
-154.9941568622931
 10
98.74659963894183
 20
-155.2439262849737
 10
98.50113658561777
 20
-155.3431450349489
 10
98.39537215422062
 20
-155.3855197094175
 10
98.39537215422062
 20
-155.3855197094175
 10
98.20072425930399
 20
-155.2036186677963
 10
98.20072425930399
 20
-155.2036186677963
 10
98.38693167028175
 20
-155.1571098787454
 10
98.74866669623298
 20
-155.0640923006437
 10
99.0447726531902
 20
-154.5690320794133
 10
99.20565861235138
 20
-154.3023816888549
 10
99.21823321087252
 20
-154.1287488763983
 10
99.22684594958566
 20
-154.0377983555877
 10
99.22684594958566
 20
-154.0377983555877
 10
98.72110593235099
 20
-154.0377983555877
 10
98.72110593235099
 20
-154.0377983555877
 10
98.60276690243265
 20
-154.0377983555877
 10
98.18177623413511
 20
-154.0570908903051
 10
98.02933075891282
 20
-154.0674261767609
 10
98.02933075891282
 20
-154.0674261767609
 10
98.02933075891282
 20
-153.8579643712577
 10
98.02933075891282
 20
-153.8579643712577
 10
98.17109643813084
 20
-153.8707112245531
 10
98.4482543699192
 20
-153.875189848684
 10
98.56469859732063
 20
-153.875189848684
 10
98.56469859732063
 20
-153.875189848684
 10
98.92006019662415
 20
-153.875189848684
 10
98.92006019662415
 20
-153.875189848684
 10
98.94744870573189
 20
-153.875189848684
 10
99.10833466489307
 20
-153.8727782818443
 10
99.21823321087252
 20
-153.8579643712577
 10
99.27542179592768
 20
-153.8517631993843
 10
99.2923027638054
 20
-153.8328151742154
 10
99.31555715833084
 20
-153.8093885249157
 10
99.31555715833084
 20
-153.8093885249157
 10
99.50383162659974
 20
-153.9595946880726
 10
99.50383162659974
 20
-153.9595946880726
 10
99.48901771601317
 20
-153.9892225092457
 10
99.47851017478315
 20
-154.0081705344146
 10
99.4425089269623
 20
-154.0781059727652
 97
        0
 97
        1
330
154
 75
     2
 76
     1
 98
        1
 10
0.0
 20
0.0
450
        0
451
        0
460
0.0
461
0.0
452
        0
462
0.0
453
        0
470

  0
SPLINE
  5
156
330
142
100
AcDbEntity
  8
レイヤー 1
100
AcDbSpline
210
0.0
220
0.0
230
1.0
 70
    11
 71
     3
 72
    17
 73
    13
 74
     0
 42
0.0000000001
 43
0.0000000001
 40
0.0
 40
0.0
 40
0.0
 40
0.0
 40
1.0
 40
1.0
 40
1.0
 40
2.0
 40
2.0
 40
2.0
 40
3.0
 40
3.0
 40
3.0
 40
4.0
 40
4.0
 40
4.0
 40
4.0
 10
99.83283824544109
 20
-153.8603759380974
 30
0.0
 10
99.83283824544109
 20
-153.9196315804437
 30
0.0
 10
99.87934703449198
 20
-153.9661403694946
 30
0.0
 10
99.93860267683828
 20
-153.9661403694946
 30
0.0
 10
99.99785831918458
 20
-153.9661403694946
 30
0.0
 10
100.0464341655266
 20
-153.9196315804437
 30
0.0
 10
100.0464341655266
 20
-153.8603759380974
 30
0.0
 10
100.0464341655266
 20
-153.8011202957511
 30
0.0
 10
99.99785831918458
 20
-153.7521999398605
 30
0.0
 10
99.93860267683828
 20
-153.7521999398605
 30
0.0
 10
99.87934703449198
 20
-153.7521999398605
 30
0.0
 10
99.83283824544109
 20
-153.8011202957511
 30
0.0
 10
99.83283824544109
 20
-153.8603759380974
 30
0.0
  0
SPLINE
  5
157
330
142
100
AcDbEntity
  8
レイヤー 1
100
AcDbSpline
210
0.0
220
0.0
230
1.0
 70
     9
 71
     3
 72
    17
 73
    13
 74
     0
 42
0.0000000001
 43
0.0000000001
 40
0.0
 40
0.0
 40
0.0
 40
0.0
 40
1.0
 40
1.0
 40
1.0
 40
2.0
 40
2.0
 40
2.0
 40
3.0
 40
3.0
 40
3.0
 40
4.0
 40
4.0
 40
4.0
 40
4.0
 10
100.1480644823414
 20
-153.8603759380974
 30
0.0
 10
100.1480644823414
 20
-153.9744085986592
 30
0.0
 10
100.0548746494654
 20
-154.0694932340521
 30
0.0
 10
99.93860267683828
 20
-154.0694932340521
 30
0.0
 10
99.82439776150224
 20
-154.0694932340521
 30
0.0
 10
99.72914087133508
 20
-153.9744085986592
 30
0.0
 10
99.72914087133508
 20
-153.8603759380974
 30
0.0
 10
99.72914087133508
 20
-153.7439317106959
 30
0.0
 10
99.82439776150224
 20
-153.6509141325942
 30
0.0
 10
99.93860267683828
 20
-153.6509141325942
 30
0.0
 10
100.0528075921743
 20
-153.6509141325942
 30
0.0
 10
100.1480644823414
 20
-153.7439317106959
 30
0.0
 10
100.1480644823414
 20
-153.8603759380974
 30
0.0
  0
HATCH
  5
158
330
142
100
AcDbEntity
  8
レイヤー 1
 62
    18
420
        0
440
 33554687
100
AcDbHatch
 10
0.0
 20
0.0
 30
0.0
210
0.0
220
0.0
230
1.0
  2
SOLID
 70
     1
 71
     1
 91
        2
 92
        1
 93
        1
 72
     4
 94
        3
 73
     0
 74
     0
 95
       17
 96
       13
 40
0.0
 40
0.0
 40
0.0
 40
0.0
 40
1.0
 40
1.0
 40
1.0
 40
2.0
 40
2.0
 40
2.0
 40
3.0
 40
3.0
 40
3.0
 40
4.0
 40
4.0
 40
4.0
 40
4.0
 10
99.83283824544109
 20
-153.8603759380974
 10
99.83283824544109
 20
-153.9196315804437
 10
99.87934703449198
 20
-153.9661403694946
 10
99.93860267683828
 20
-153.9661403694946
 10
99.99785831918458
 20
-153.9661403694946
 10
100.0464341655266
 20
-153.9196315804437
 10
100.0464341655266
 20
-153.8603759380974
 10
100.0464341655266
 20
-153.8011202957511
 10
99.99785831918458
 20
-153.7521999398605
 10
99.93860267683828
 20
-153.7521999398605
 10
99.87934703449198
 20
-153.7521999398605
 10
99.83283824544109
 20
-153.8011202957511
 10
99.83283824544109
 20
-153.8603759380974
 97
        0
 97
        1
330
156
 92
        1
 93
        1
 72
     4
 94
        3
 73
     0
 74
     0
 95
       17
 96
       13
 40
0.0
 40
0.0
 40
0.0
 40
0.0
 40
1.0
 40
1.0
 40
1.0
 40
2.0
 40
2.0
 40
2.0
 40
3.0
 40
3.0
 40
3.0
 40
4.0
 40
4.0
 40
4.0
 40
4.0
 10
100.1480644823414
 20
-153.8603759380974
 10
100.1480644823414
 20
-153.9744085986592
 10
100.0548746494654
 20
-154.0694932340521
 10
99.93860267683828
 20
-154.0694932340521
 10
99.82439776150224
 20
-154.0694932340521
 10
99.72914087133508
 20
-153.9744085986592
 10
99.72914087133508
 20
-153.8603759380974
 10
99.72914087133508
 20
-153.7439317106959
 10
99.82439776150224
 20
-153.6509141325942
 10
99.93860267683828
 20
-153.6509141325942
 10
100.0528075921743
 20
-153.6509141325942
 10
100.1480644823414
 20
-153.7439317106959
 10
100.1480644823414
 20
-153.8603759380974
 97
        0
 97
        1
330
157
 75
     2
 76
     1
 98
        1
 10
0.0
 20
0.0
450
        0
451
        0
460
0.0
461
0.0
452
        0
462
0.0
453
        0
470

  0
ENDBLK
  5
145
330
142
100
AcDbEntity
  8
0
100
AcDbBlockEnd
  0
BLOCK
  5
15B
330
159
100
AcDbEntity
  8
0
100
AcDbBlockBegin
  2
Block_18
 70
     0
 10
0.0
 20
0.0
 30
0.0
  3
Block_18
  1

  0
INSERT
  5
15E
330
159
100
AcDbEntity
  8
レイヤー 1
100
AcDbBlockReference
  2
Block_19
 10
0.0
 20
0.0
 30
0.0
  0
LINE
  5
163
330
159
100
AcDbEntity
  8
レイヤー 1
 62
    18
420
        0
370
     9
100
AcDbLine
 10
89.58771769566846
 20
-148.4238325335446
 30
0.0
 11
94.3755470179652
 21
-153.3659669767536
 31
0.0
  0
ENDBLK
  5
15C
330
159
100
AcDbEntity
  8
0
100
AcDbBlockEnd
  0
BLOCK
  5
15F
330
15D
100
AcDbEntity
  8
0
100
AcDbBlockBegin
  2
Block_19
 70
     0
 10
0.0
 20
0.0
 30
0.0
  3
Block_19
  1

  0
LINE
  5
161
330
15D
100
AcDbEntity
  8
レイヤー 1
 62
    18
420
        0
370
     9
100
AcDbLine
 10
89.54566658563017
 20
-148.3710922557802
 30
0.0
 11
90.40214045266859
 21
-148.8878764223173
 31
0.0
  0
LINE
  5
162
330
15D
100
AcDbEntity
  8
レイヤー 1
 62
    18
420
        0
370
     9
100
AcDbLine
 10
90.02936018440122
 20
-149.2466867000057
 30
0.0
 11
89.54566658563017
 21
-148.3710922557802
 31
0.0
  0
ENDBLK
  5
160
330
15D
100
AcDbEntity
  8
0
100
AcDbBlockEnd
  0
ENDSEC
  0
SECTION
  2
ENTITIES
  0
INSERT
  5
7A
330
70
100
AcDbEntity
  8
レイヤー 1
100
AcDbBlockReference
  2
Block_0
 10
0.0
 20
0.0
 30
0.0
  0
ENDSEC
  0
SECTION
  2
OBJECTS
  0
DICTIONARY
  5
C
330
0
100
AcDbDictionary
281
     1
  3
ACAD_COLOR
350
63
  3
ACAD_DETAILVIEWSTYLE
350
6A
  3
ACAD_GROUP
350
D
  3
ACAD_LAYOUT
350
62
  3
ACAD_MATERIAL
350
10
  3
ACAD_MLEADERSTYLE
350
66
  3
ACAD_MLINESTYLE
350
5F
  3
ACAD_PLOTSETTINGS
350
61
  3
ACAD_PLOTSTYLENAME
350
E
  3
ACAD_SCALELIST
350
42
  3
ACAD_SECTIONVIEWSTYLE
350
68
  3
ACAD_TABLESTYLE
350
64
  3
ACAD_VISUALSTYLE
350
29
  3
ACDB_RECOMPOSE_DATA
350
16C
  3
AcDbVariableDictionary
350
164
  0
DICTIONARY
  5
63
102
{ACAD_REACTORS
330
C
102
}
330
C
100
AcDbDictionary
281
     1
  0
DICTIONARY
  5
6A
102
{ACAD_REACTORS
330
C
102
}
330
C
100
AcDbDictionary
281
     1
  3
Imperial24
350
6B
  0
DICTIONARY
  5
D
102
{ACAD_REACTORS
330
C
102
}
330
C
100
AcDbDictionary
281
     1
  0
DICTIONARY
  5
62
102
{ACAD_REACTORS
330
C
102
}
330
C
100
AcDbDictionary
281
     1
  3
Layout1
350
6F
  3
Layout2
350
77
  3
Model
350
73
  0
DICTIONARY
  5
10
102
{ACAD_REACTORS
330
C
102
}
330
C
100
AcDbDictionary
281
     1
  3
ByBlock
350
19
  3
ByLayer
350
11
  3
Global
350
21
  0
DICTIONARY
  5
66
102
{ACAD_REACTORS
330
C
102
}
330
C
100
AcDbDictionary
281
     1
  3
Standard
350
67
  0
DICTIONARY
  5
5F
102
{ACAD_REACTORS
330
C
102
}
330
C
100
AcDbDictionary
281
     1
  3
Standard
350
60
  0
DICTIONARY
  5
61
102
{ACAD_REACTORS
330
C
102
}
330
C
100
AcDbDictionary
281
     1
  0
ACDBDICTIONARYWDFLT
  5
E
102
{ACAD_REACTORS
330
C
102
}
330
C
100
AcDbDictionary
281
     1
  3
Normal
350
F
100
AcDbDictionaryWithDefault
340
F
  0
DICTIONARY
  5
42
102
{ACAD_REACTORS
330
C
102
}
330
C
100
AcDbDictionary
281
     1
  3
A0
350
43
  3
A1
350
44
  3
A2
350
45
  3
A3
350
46
  3
A4
350
47
  3
A5
350
48
  3
A6
350
49
  3
A7
350
4A
  3
A8
350
4B
  3
A9
350
4C
  3
B0
350
4D
  3
B1
350
4E
  3
B2
350
4F
  3
B3
350
50
  3
B4
350
51
  3
B5
350
52
  3
B6
350
53
  0
DICTIONARY
  5
68
102
{ACAD_REACTORS
330
C
102
}
330
C
100
AcDbDictionary
281
     1
  3
Imperial24
350
69
  0
DICTIONARY
  5
64
102
{ACAD_REACTORS
330
C
102
}
330
C
100
AcDbDictionary
281
     1
  3
Standard
350
65
  0
DICTIONARY
  5
29
102
{ACAD_REACTORS
330
C
102
}
330
C
100
AcDbDictionary
281
     1
  3
2dWireframe
350
2F
  3
Basic
350
2E
  3
Brighten
350
35
  3
ColorChange
350
39
  3
Conceptual
350
32
  3
Dim
350
34
  3
EdgeColorOff
350
41
  3
Facepattern
350
38
  3
Flat
350
2A
  3
FlatWithEdges
350
2B
  3
Gouraud
350
2C
  3
GouraudWithEdges
350
2D
  3
Hidden
350
31
  3
JitterOff
350
3F
  3
Linepattern
350
37
  3
OverhangOff
350
40
  3
Realistic
350
33
  3
Shaded
350
3E
  3
Shaded with edges
350
3D
  3
Shades of Gray
350
3A
  3
Sketchy
350
3B
  3
Thicken
350
36
  3
Wireframe
350
30
  3
X-Ray
350
3C
  0
XRECORD
  5
16C
102
{ACAD_REACTORS
330
C
102
}
330
C
100
AcDbXrecord
280
     1
 90
        1
330
65
  0
DICTIONARY
  5
164
102
{ACAD_REACTORS
330
C
102
}
330
C
100
AcDbDictionary
281
     1
  3
CANNOSCALE
350
169
  3
CMLEADERSTYLE
350
166
  3
CTABLESTYLE
350
165
  3
CVIEWDETAILSTYLE
350
167
  3
CVIEWSECTIONSTYLE
350
168
  0
ACDBDETAILVIEWSTYLE
  5
6B
102
{ACAD_XDICTIONARY
360
1A1
102
}
102
{ACAD_REACTORS
330
6A
102
}
330
6A
100
AcDbModelDocViewStyle
 70
     0
  3
Imperial24
290
     0
100
AcDbDetailViewStyle
 70
     0
 71
     0
 90
        3
 71
     1
340
55
 62
   256
 40
0.24
340
0
 62
   256
 40
0.24
300

 40
0.36
280
     3
 71
     2
340
5D
 90
       25
 62
   256
 71
     3
340
55
 62
   256
 40
0.24
 90
        1
 40
0.75
 90
        1
300
%<\AcVar ViewType \f "%tc1">% %<\AcVar ViewDetailId>%\PSCALE %<\AcVar ViewScale \f "%sn">%
 71
     4
340
5D
 90
       25
 62
   256
340
5D
 90
       25
 62
   256
280
     0
  0
LAYOUT
  5
6F
102
{ACAD_REACTORS
330
62
102
}
330
62
100
AcDbPlotSettings
  1

  2

  4

  6

 40
0.0
 41
0.0
 42
0.0
 43
0.0
 44
0.0
 45
0.0
 46
0.0
 47
0.0
 48
0.0
 49
0.0
140
0.0
141
0.0
142
1.0
143
1.0
 70
   688
 72
     0
 73
     0
 74
     5
  7

 75
    16
147
1.0
 76
     0
 77
     2
 78
   300
148
0.0
149
0.0
100
AcDbLayout
  1
Layout1
 70
     1
 71
     1
 10
0.0
 20
0.0
 11
12.0
 21
9.0
 12
0.0
 22
0.0
 32
0.0
 14
0.0
 24
0.0
 34
0.0
 15
0.0
 25
0.0
 35
0.0
146
0.0
 13
0.0
 23
0.0
 33
0.0
 16
1.0
 26
0.0
 36
0.0
 17
0.0
 27
1.0
 37
0.0
 76
     0
330
6C
  0
LAYOUT
  5
77
102
{ACAD_REACTORS
330
62
102
}
330
62
100
AcDbPlotSettings
  1

  2

  4

  6

 40
0.0
 41
0.0
 42
0.0
 43
0.0
 44
0.0
 45
0.0
 46
0.0
 47
0.0
 48
0.0
 49
0.0
140
0.0
141
0.0
142
1.0
143
1.0
 70
   688
 72
     0
 73
     0
 74
     5
  7

 75
    16
147
1.0
 76
     0
 77
     2
 78
   300
148
0.0
149
0.0
100
AcDbLayout
  1
Layout2
 70
     1
 71
     2
 10
0.0
 20
0.0
 11
12.0
 21
9.0
 12
0.0
 22
0.0
 32
0.0
 14
0.0
 24
0.0
 34
0.0
 15
0.0
 25
0.0
 35
0.0
146
0.0
 13
0.0
 23
0.0
 33
0.0
 16
1.0
 26
0.0
 36
0.0
 17
0.0
 27
1.0
 37
0.0
 76
     0
330
74
  0
LAYOUT
  5
73
102
{ACAD_REACTORS
330
62
102
}
330
62
100
AcDbPlotSettings
  1

  2

  4

  6

 40
0.0
 41
0.0
 42
0.0
 43
0.0
 44
0.0
 45
0.0
 46
0.0
 47
0.0
 48
0.0
 49
0.0
140
0.0
141
0.0
142
1.0
143
1.0
 70
  1712
 72
     0
 73
     0
 74
     0
  7

 75
     0
147
1.0
 76
     0
 77
     2
 78
   300
148
0.0
149
0.0
100
AcDbLayout
  1
Model
 70
     1
 71
     0
 10
0.0
 20
0.0
 11
12.0
 21
9.0
 12
0.0
 22
0.0
 32
0.0
 14
0.0
 24
0.0
 34
0.0
 15
0.0
 25
0.0
 35
0.0
146
0.0
 13
0.0
 23
0.0
 33
0.0
 16
1.0
 26
0.0
 36
0.0
 17
0.0
 27
1.0
 37
0.0
 76
     0
330
70
  0
MATERIAL
  5
19
102
{ACAD_XDICTIONARY
360
1A
102
}
102
{ACAD_REACTORS
330
10
102
}
330
10
100
AcDbMaterial
  1
ByBlock
 72
     0
 43
0.0208333333333333
 43
0.0
 43
0.0
 43
0.0
 43
0.0
 43
0.0208333333333333
 43
0.0
 43
0.0
 43
0.0
 43
0.0
 43
1.0
 43
0.0
 43
0.0
 43
0.0
 43
0.0
 43
1.0
 77
     0
 47
0.0208333333333333
 47
0.0
 47
0.0
 47
0.0
 47
0.0
 47
0.0208333333333333
 47
0.0
 47
0.0
 47
0.0
 47
0.0
 47
1.0
 47
0.0
 47
0.0
 47
0.0
 47
0.0
 47
1.0
171
     0
 49
0.0208333333333333
 49
0.0
 49
0.0
 49
0.0
 49
0.0
 49
0.0208333333333333
 49
0.0
 49
0.0
 49
0.0
 49
0.0
 49
1.0
 49
0.0
 49
0.0
 49
0.0
 49
0.0
 49
1.0
175
     0
142
0.0208333333333333
142
0.0
142
0.0
142
0.0
142
0.0
142
0.0208333333333333
142
0.0
142
0.0
142
0.0
142
0.0
142
1.0
142
0.0
142
0.0
142
0.0
142
0.0
142
1.0
179
     0
144
0.0208333333333333
144
0.0
144
0.0
144
0.0
144
0.0
144
0.0208333333333333
144
0.0
144
0.0
144
0.0
144
0.0
144
1.0
144
0.0
144
0.0
144
0.0
144
0.0
144
1.0
147
0.0208333333333333
147
0.0
147
0.0
147
0.0
147
0.0
147
0.0208333333333333
147
0.0
147
0.0
147
0.0
147
0.0
147
1.0
147
0.0
147
0.0
147
0.0
147
0.0
147
1.0
  0
MATERIAL
  5
11
102
{ACAD_XDICTIONARY
360
12
102
}
102
{ACAD_REACTORS
330
10
102
}
330
10
100
AcDbMaterial
  1
ByLayer
 72
     0
 43
0.0208333333333333
 43
0.0
 43
0.0
 43
0.0
 43
0.0
 43
0.0208333333333333
 43
0.0
 43
0.0
 43
0.0
 43
0.0
 43
1.0
 43
0.0
 43
0.0
 43
0.0
 43
0.0
 43
1.0
 77
     0
 47
0.0208333333333333
 47
0.0
 47
0.0
 47
0.0
 47
0.0
 47
0.0208333333333333
 47
0.0
 47
0.0
 47
0.0
 47
0.0
 47
1.0
 47
0.0
 47
0.0
 47
0.0
 47
0.0
 47
1.0
171
     0
 49
0.0208333333333333
 49
0.0
 49
0.0
 49
0.0
 49
0.0
 49
0.0208333333333333
 49
0.0
 49
0.0
 49
0.0
 49
0.0
 49
1.0
 49
0.0
 49
0.0
 49
0.0
 49
0.0
 49
1.0
175
     0
142
0.0208333333333333
142
0.0
142
0.0
142
0.0
142
0.0
142
0.0208333333333333
142
0.0
142
0.0
142
0.0
142
0.0
142
1.0
142
0.0
142
0.0
142
0.0
142
0.0
142
1.0
179
     0
144
0.0208333333333333
144
0.0
144
0.0
144
0.0
144
0.0
144
0.0208333333333333
144
0.0
144
0.0
144
0.0
144
0.0
144
1.0
144
0.0
144
0.0
144
0.0
144
0.0
144
1.0
147
0.0208333333333333
147
0.0
147
0.0
147
0.0
147
0.0
147
0.0208333333333333
147
0.0
147
0.0
147
0.0
147
0.0
147
1.0
147
0.0
147
0.0
147
0.0
147
0.0
147
1.0
  0
MATERIAL
  5
21
102
{ACAD_XDICTIONARY
360
22
102
}
102
{ACAD_REACTORS
330
10
102
}
330
10
100
AcDbMaterial
  1
Global
 72
     0
 43
0.0208333333333333
 43
0.0
 43
0.0
 43
0.0
 43
0.0
 43
0.0208333333333333
 43
0.0
 43
0.0
 43
0.0
 43
0.0
 43
1.0
 43
0.0
 43
0.0
 43
0.0
 43
0.0
 43
1.0
 77
     0
 47
0.0208333333333333
 47
0.0
 47
0.0
 47
0.0
 47
0.0
 47
0.0208333333333333
 47
0.0
 47
0.0
 47
0.0
 47
0.0
 47
1.0
 47
0.0
 47
0.0
 47
0.0
 47
0.0
 47
1.0
171
     0
 49
0.0208333333333333
 49
0.0
 49
0.0
 49
0.0
 49
0.0
 49
0.0208333333333333
 49
0.0
 49
0.0
 49
0.0
 49
0.0
 49
1.0
 49
0.0
 49
0.0
 49
0.0
 49
0.0
 49
1.0
175
     0
142
0.0208333333333333
142
0.0
142
0.0
142
0.0
142
0.0
142
0.0208333333333333
142
0.0
142
0.0
142
0.0
142
0.0
142
1.0
142
0.0
142
0.0
142
0.0
142
0.0
142
1.0
179
     0
144
0.0208333333333333
144
0.0
144
0.0
144
0.0
144
0.0
144
0.0208333333333333
144
0.0
144
0.0
144
0.0
144
0.0
144
1.0
144
0.0
144
0.0
144
0.0
144
0.0
144
1.0
147
0.0208333333333333
147
0.0
147
0.0
147
0.0
147
0.0
147
0.0208333333333333
147
0.0
147
0.0
147
0.0
147
0.0
147
1.0
147
0.0
147
0.0
147
0.0
147
0.0
147
1.0
  0
MLEADERSTYLE
  5
67
102
{ACAD_XDICTIONARY
360
19D
102
}
102
{ACAD_REACTORS
330
66
102
}
330
66
100
AcDbMLeaderStyle
179
     2
170
     2
171
     1
172
     0
 90
        2
 40
0.0
 41
0.0
173
     1
 91
-1056964608
340
5B
 92
       -2
290
     1
 42
0.09
291
     1
 43
0.36
  3
Standard
 44
0.18
300

342
55
174
     1
178
     6
175
     1
176
     0
 93
-1056964608
 45
0.18
292
     0
297
     0
 46
0.18
 94
-1056964608
 47
1.0
 49
1.0
140
1.0
293
     1
141
0.0
294
     1
177
     0
142
1.0
295
     0
296
     0
143
0.125
271
     0
272
     9
273
     9
  0
MLINESTYLE
  5
60
102
{ACAD_REACTORS
330
5F
102
}
330
5F
100
AcDbMlineStyle
  2
STANDARD
 70
     0
  3

 62
   256
 51
90.0
 52
90.0
 71
     2
 49
0.5
 62
   256
  6
BYLAYER
 49
-0.5
 62
   256
  6
BYLAYER
  0
ACDBPLACEHOLDER
  5
F
102
{ACAD_REACTORS
330
E
102
}
330
E
  0
SCALE
  5
43
102
{ACAD_REACTORS
330
42
102
}
330
42
100
AcDbScale
 70
     0
300
1:1
140
1.0
141
1.0
290
     1
  0
SCALE
  5
44
102
{ACAD_REACTORS
330
42
102
}
330
42
100
AcDbScale
 70
     0
300
1/128" = 1'-0"
140
0.0078125
141
12.0
290
     0
  0
SCALE
  5
45
102
{ACAD_REACTORS
330
42
102
}
330
42
100
AcDbScale
 70
     0
300
1/64" = 1'-0"
140
0.015625
141
12.0
290
     0
  0
SCALE
  5
46
102
{ACAD_REACTORS
330
42
102
}
330
42
100
AcDbScale
 70
     0
300
1/32" = 1'-0"
140
0.03125
141
12.0
290
     0
  0
SCALE
  5
47
102
{ACAD_REACTORS
330
42
102
}
330
42
100
AcDbScale
 70
     0
300
1/16" = 1'-0"
140
0.0625
141
12.0
290
     0
  0
SCALE
  5
48
102
{ACAD_REACTORS
330
42
102
}
330
42
100
AcDbScale
 70
     0
300
3/32" = 1'-0"
140
0.09375
141
12.0
290
     0
  0
SCALE
  5
49
102
{ACAD_REACTORS
330
42
102
}
330
42
100
AcDbScale
 70
     0
300
1/8" = 1'-0"
140
0.125
141
12.0
290
     0
  0
SCALE
  5
4A
102
{ACAD_REACTORS
330
42
102
}
330
42
100
AcDbScale
 70
     0
300
3/16" = 1'-0"
140
0.1875
141
12.0
290
     0
  0
SCALE
  5
4B
102
{ACAD_REACTORS
330
42
102
}
330
42
100
AcDbScale
 70
     0
300
1/4" = 1'-0"
140
0.25
141
12.0
290
     0
  0
SCALE
  5
4C
102
{ACAD_REACTORS
330
42
102
}
330
42
100
AcDbScale
 70
     0
300
3/8" = 1'-0"
140
0.375
141
12.0
290
     0
  0
SCALE
  5
4D
102
{ACAD_REACTORS
330
42
102
}
330
42
100
AcDbScale
 70
     0
300
1/2" = 1'-0"
140
0.5
141
12.0
290
     0
  0
SCALE
  5
4E
102
{ACAD_REACTORS
330
42
102
}
330
42
100
AcDbScale
 70
     0
300
3/4" = 1'-0"
140
0.75
141
12.0
290
     0
  0
SCALE
  5
4F
102
{ACAD_REACTORS
330
42
102
}
330
42
100
AcDbScale
 70
     0
300
1" = 1'-0"
140
1.0
141
12.0
290
     0
  0
SCALE
  5
50
102
{ACAD_REACTORS
330
42
102
}
330
42
100
AcDbScale
 70
     0
300
1-1/2" = 1'-0"
140
1.5
141
12.0
290
     0
  0
SCALE
  5
51
102
{ACAD_REACTORS
330
42
102
}
330
42
100
AcDbScale
 70
     0
300
3" = 1'-0"
140
3.0
141
12.0
290
     0
  0
SCALE
  5
52
102
{ACAD_REACTORS
330
42
102
}
330
42
100
AcDbScale
 70
     0
300
6" = 1'-0"
140
6.0
141
12.0
290
     0
  0
SCALE
  5
53
102
{ACAD_REACTORS
330
42
102
}
330
42
100
AcDbScale
 70
     0
300
1'-0" = 1'-0"
140
12.0
141
12.0
290
     0
  0
ACDBSECTIONVIEWSTYLE
  5
69
102
{ACAD_XDICTIONARY
360
19F
102
}
102
{ACAD_REACTORS
330
68
102
}
330
68
100
AcDbModelDocViewStyle
 70
     0
  3
Imperial24
290
     0
100
AcDbSectionViewStyle
 70
     0
 71
     0
 90
       78
 71
     1
340
55
 62
   256
 40
0.24
340
0
340
0
 62
   256
 40
0.24
300
I, O, Q, S, X, Z
 40
0.48
 90
        3
 40
0.18
 90
        1
 71
     2
340
5D
 90
       25
 62
   256
340
5D
 90
       50
 62
   256
 40
0.24
 40
0.0
 40
0.24
 71
     3
340
55
 62
   256
 40
0.24
 90
        1
 40
0.75
 90
        1
300
%<\AcVar ViewType \f "%tc1">% %<\AcVar ViewSectionStartId>%-%<\AcVar ViewSectionEndId>%\PSCALE %<\AcVar ViewScale \f "%sn">%
 71
     4
 62
   256
 62
   257
300
ANSI31
 40
1.0
 90
        0
290
     0
290
     0
 90
        6
 40
0.0
 40
1.570796326794896
 40
0.2617993877991494
 40
1.308996938995747
 40
-0.2617993877991494
 40
1.832595714594046
  0
TABLESTYLE
  5
65
102
{ACAD_XDICTIONARY
360
16A
102
}
102
{ACAD_REACTORS
330
64
102
}
330
64
100
AcDbTableStyle
280
     0
  3
Standard
 70
     0
 71
     0
 40
0.06
 41
0.06
280
     0
281
     0
  7
Standard
140
0.18
170
     2
 62
     0
 63
     7
283
     0
 90
      512
 91
        0
  1

274
    -2
284
     1
 64
     0
275
    -2
285
     1
 65
     0
276
    -2
286
     1
 66
     0
277
    -2
287
     1
 67
     0
278
    -2
288
     1
 68
     0
279
    -2
289
     1
 69
     0
  7
Standard
140
0.25
170
     5
 62
     0
 63
     7
283
     0
 90
      512
 91
        0
  1

274
    -2
284
     1
 64
     0
275
    -2
285
     1
 65
     0
276
    -2
286
     1
 66
     0
277
    -2
287
     1
 67
     0
278
    -2
288
     1
 68
     0
279
    -2
289
     1
 69
     0
  7
Standard
140
0.18
170
     5
 62
     0
 63
     7
283
     0
 90
      512
 91
        0
  1

274
    -2
284
     1
 64
     0
275
    -2
285
     1
 65
     0
276
    -2
286
     1
 66
     0
277
    -2
287
     1
 67
     0
278
    -2
288
     1
 68
     0
279
    -2
289
     1
 69
     0
  0
VISUALSTYLE
  5
2F
102
{ACAD_XDICTIONARY
360
177
102
}
102
{ACAD_REACTORS
330
29
102
}
330
29
100
AcDbVisualStyle
  2
2dWireframe
 70
     4
177
     2
291
     0
 71
     0
176
     1
 72
     2
176
     1
 73
     0
176
     1
 90
        0
176
     1
 40
0.6
176
     1
 41
30.0
176
     1
 63
     7
421
 16777215
176
     1
 74
     1
176
     1
 91
        4
176
     1
 64
     7
176
     1
 65
   257
176
     1
 75
     1
176
     1
175
     1
176
     1
 42
1.0
176
     1
 92
        0
176
     1
 66
   257
176
     1
 43
1.0
176
     1
 76
     1
176
     1
 77
     6
176
     1
 78
     2
176
     1
 67
     7
176
     1
 79
     5
176
     1
170
     0
176
     1
171
     0
176
     1
290
     0
176
     1
 93
        1
176
     1
 44
0.0
176
     1
173
     0
176
     1
1001
ACAD
1000
AcDbSavedByObjectVersion
1070
     0
  0
VISUALSTYLE
  5
2E
102
{ACAD_XDICTIONARY
360
175
102
}
102
{ACAD_REACTORS
330
29
102
}
330
29
100
AcDbVisualStyle
  2
Basic
 70
     7
177
     2
291
     1
 71
     1
176
     1
 72
     0
176
     1
 73
     1
176
     1
 90
        0
176
     1
 40
0.6
176
     1
 41
30.0
176
     1
 63
     7
421
 16777215
176
     1
 74
     0
176
     1
 91
        4
176
     1
 64
     7
176
     1
 65
   257
176
     1
 75
     1
176
     1
175
     1
176
     1
 42
1.0
176
     1
 92
        8
176
     1
 66
     7
176
     1
 43
1.0
176
     1
 76
     1
176
     1
 77
     6
176
     1
 78
     2
176
     1
 67
     7
176
     1
 79
     5
176
     1
170
     0
176
     1
171
     0
176
     1
290
     0
176
     1
 93
        1
176
     1
 44
0.0
176
     1
173
     0
176
     1
1001
ACAD
1000
AcDbSavedByObjectVersion
1070
     0
  0
VISUALSTYLE
  5
35
102
{ACAD_XDICTIONARY
360
183
102
}
102
{ACAD_REACTORS
330
29
102
}
330
29
100
AcDbVisualStyle
  2
Brighten
 70
    12
177
     2
291
     1
 71
     2
176
     1
 72
     2
176
     1
 73
     0
176
     1
 90
        0
176
     1
 40
0.6
176
     1
 41
30.0
176
     1
 63
     7
421
 16777215
176
     1
 74
     1
176
     1
 91
        4
176
     1
 64
     7
176
     1
 65
   257
176
     1
 75
     1
176
     1
175
     1
176
     1
 42
1.0
176
     1
 92
        8
176
     1
 66
     7
176
     1
 43
1.0
176
     1
 76
     1
176
     1
 77
     6
176
     1
 78
     2
176
     1
 67
     7
176
     1
 79
     5
176
     1
170
     0
176
     1
171
     0
176
     1
290
     0
176
     1
 93
        1
176
     1
 44
50.0
176
     1
173
     0
176
     1
1001
ACAD
1000
AcDbSavedByObjectVersion
1070
     0
  0
VISUALSTYLE
  5
39
102
{ACAD_XDICTIONARY
360
18B
102
}
102
{ACAD_REACTORS
330
29
102
}
330
29
100
AcDbVisualStyle
  2
ColorChange
 70
    16
177
     2
291
     1
 71
     2
176
     1
 72
     2
176
     1
 73
     3
176
     1
 90
        0
176
     1
 40
0.6
176
     1
 41
30.0
176
     1
 63
     8
421
  8421504
176
     1
 74
     1
176
     1
 91
        4
176
     1
 64
     7
176
     1
 65
   257
176
     1
 75
     1
176
     1
175
     1
176
     1
 42
1.0
176
     1
 92
        8
176
     1
 66
     8
424
  8421504
176
     1
 43
1.0
176
     1
 76
     1
176
     1
 77
     6
176
     1
 78
     2
176
     1
 67
     7
176
     1
 79
     5
176
     1
170
     0
176
     1
171
     0
176
     1
290
     0
176
     1
 93
        1
176
     1
 44
0.0
176
     1
173
     0
176
     1
1001
ACAD
1000
AcDbSavedByObjectVersion
1070
     0
  0
VISUALSTYLE
  5
32
102
{ACAD_XDICTIONARY
360
17D
102
}
102
{ACAD_REACTORS
330
29
102
}
330
29
100
AcDbVisualStyle
  2
Conceptual
 70
     9
177
     2
291
     0
 71
     3
176
     1
 72
     2
176
     1
 73
     0
176
     1
 90
        0
176
     1
 40
0.6
176
     1
 41
30.0
176
     1
 63
     7
421
 16777215
176
     1
 74
     2
176
     1
 91
        2
176
     1
 64
     7
176
     1
 65
   257
176
     1
 75
     1
176
     1
175
     1
176
     1
 42
179.0
176
     1
 92
        8
176
     1
 66
     7
176
     1
 43
1.0
176
     1
 76
     1
176
     1
 77
     6
176
     1
 78
     2
176
     1
 67
     7
176
     1
 79
     3
176
     1
170
     0
176
     1
171
     0
176
     1
290
     0
176
     1
 93
        1
176
     1
 44
0.0
176
     1
173
     0
176
     1
1001
ACAD
1000
AcDbSavedByObjectVersion
1070
     0
  0
VISUALSTYLE
  5
34
102
{ACAD_XDICTIONARY
360
181
102
}
102
{ACAD_REACTORS
330
29
102
}
330
29
100
AcDbVisualStyle
  2
Dim
 70
    11
177
     2
291
     1
 71
     2
176
     1
 72
     2
176
     1
 73
     0
176
     1
 90
        0
176
     1
 40
0.6
176
     1
 41
30.0
176
     1
 63
     7
421
 16777215
176
     1
 74
     1
176
     1
 91
        4
176
     1
 64
     7
176
     1
 65
   257
176
     1
 75
     1
176
     1
175
     1
176
     1
 42
1.0
176
     1
 92
        8
176
     1
 66
     7
176
     1
 43
1.0
176
     1
 76
     1
176
     1
 77
     6
176
     1
 78
     2
176
     1
 67
     7
176
     1
 79
     5
176
     1
170
     0
176
     1
171
     0
176
     1
290
     0
176
     1
 93
        1
176
     1
 44
-50.0
176
     1
173
     0
176
     1
1001
ACAD
1000
AcDbSavedByObjectVersion
1070
     0
  0
VISUALSTYLE
  5
41
102
{ACAD_XDICTIONARY
360
19B
102
}
102
{ACAD_REACTORS
330
29
102
}
330
29
100
AcDbVisualStyle
  2
EdgeColorOff
 70
    22
177
     2
291
     1
 71
     2
176
     0
 72
     2
176
     0
 73
     0
176
     0
 90
        0
176
     0
 40
0.6
176
     0
 41
30.0
176
     0
 63
     7
421
 16777215
176
     0
 74
     1
176
     0
 91
        4
176
     0
 64
     7
176
     0
 65
   257
176
     0
 75
     1
176
     0
175
     1
176
     0
 42
1.0
176
     0
 92
        8
176
     2
 66
     7
176
     0
 43
1.0
176
     0
 76
     1
176
     0
 77
     6
176
     0
 78
     2
176
     0
 67
     7
176
     0
 79
     5
176
     0
170
     0
176
     0
171
     0
176
     0
290
     0
176
     0
 93
        1
176
     0
 44
0.0
176
     0
173
     0
176
     0
1001
ACAD
1000
AcDbSavedByObjectVersion
1070
     0
  0
VISUALSTYLE
  5
38
102
{ACAD_XDICTIONARY
360
189
102
}
102
{ACAD_REACTORS
330
29
102
}
330
29
100
AcDbVisualStyle
  2
Facepattern
 70
    15
177
     2
291
     1
 71
     2
176
     1
 72
     2
176
     1
 73
     0
176
     1
 90
        0
176
     1
 40
0.6
176
     1
 41
30.0
176
     1
 63
     7
421
 16777215
176
     1
 74
     1
176
     1
 91
        4
176
     1
 64
     7
176
     1
 65
   257
176
     1
 75
     1
176
     1
175
     1
176
     1
 42
1.0
176
     1
 92
        8
176
     1
 66
     7
176
     1
 43
1.0
176
     1
 76
     1
176
     1
 77
     6
176
     1
 78
     2
176
     1
 67
     7
176
     1
 79
     5
176
     1
170
     0
176
     1
171
     0
176
     1
290
     0
176
     1
 93
        1
176
     1
 44
0.0
176
     1
173
     0
176
     1
1001
ACAD
1000
AcDbSavedByObjectVersion
1070
     0
  0
VISUALSTYLE
  5
2A
102
{ACAD_XDICTIONARY
360
16D
102
}
102
{ACAD_REACTORS
330
29
102
}
330
29
100
AcDbVisualStyle
  2
Flat
 70
     0
177
     2
291
     1
 71
     2
176
     1
 72
     1
176
     1
 73
     1
176
     1
 90
        2
176
     1
 40
0.6
176
     1
 41
30.0
176
     1
 63
     7
421
 16777215
176
     1
 74
     0
176
     1
 91
        0
176
     1
 64
     7
176
     1
 65
   257
176
     1
 75
     1
176
     1
175
     1
176
     1
 42
1.0
176
     1
 92
        8
176
     1
 66
     7
176
     1
 43
1.0
176
     1
 76
     1
176
     1
 77
     6
176
     1
 78
     2
176
     1
 67
     7
176
     1
 79
     5
176
     1
170
     0
176
     1
171
     0
176
     1
290
     0
176
     1
 93
       13
176
     1
 44
0.0
176
     1
173
     0
176
     1
1001
ACAD
1000
AcDbSavedByObjectVersion
1070
     0
  0
VISUALSTYLE
  5
2B
102
{ACAD_XDICTIONARY
360
16F
102
}
102
{ACAD_REACTORS
330
29
102
}
330
29
100
AcDbVisualStyle
  2
FlatWithEdges
 70
     1
177
     2
291
     1
 71
     2
176
     1
 72
     1
176
     1
 73
     1
176
     1
 90
        2
176
     1
 40
0.6
176
     1
 41
30.0
176
     1
 63
     7
421
 16777215
176
     1
 74
     1
176
     1
 91
        0
176
     1
 64
     7
176
     1
 65
   257
176
     1
 75
     1
176
     1
175
     1
176
     1
 42
1.0
176
     1
 92
        0
176
     1
 66
   257
176
     1
 43
1.0
176
     1
 76
     1
176
     1
 77
     6
176
     1
 78
     2
176
     1
 67
     7
176
     1
 79
     5
176
     1
170
     0
176
     1
171
     0
176
     1
290
     0
176
     1
 93
       13
176
     1
 44
0.0
176
     1
173
     0
176
     1
1001
ACAD
1000
AcDbSavedByObjectVersion
1070
     0
  0
VISUALSTYLE
  5
2C
102
{ACAD_XDICTIONARY
360
171
102
}
102
{ACAD_REACTORS
330
29
102
}
330
29
100
AcDbVisualStyle
  2
Gouraud
 70
     2
177
     2
291
     1
 71
     2
176
     1
 72
     2
176
     1
 73
     1
176
     1
 90
        2
176
     1
 40
0.6
176
     1
 41
30.0
176
     1
 63
     7
421
 16777215
176
     1
 74
     0
176
     1
 91
        0
176
     1
 64
     7
176
     1
 65
   257
176
     1
 75
     1
176
     1
175
     1
176
     1
 42
1.0
176
     1
 92
        0
176
     1
 66
     7
176
     1
 43
1.0
176
     1
 76
     1
176
     1
 77
     6
176
     1
 78
     2
176
     1
 67
     7
176
     1
 79
     5
176
     1
170
     0
176
     1
171
     0
176
     1
290
     0
176
     1
 93
       13
176
     1
 44
0.0
176
     1
173
     0
176
     1
1001
ACAD
1000
AcDbSavedByObjectVersion
1070
     0
  0
VISUALSTYLE
  5
2D
102
{ACAD_XDICTIONARY
360
173
102
}
102
{ACAD_REACTORS
330
29
102
}
330
29
100
AcDbVisualStyle
  2
GouraudWithEdges
 70
     3
177
     2
291
     1
 71
     2
176
     1
 72
     2
176
     1
 73
     1
176
     1
 90
        2
176
     1
 40
0.6
176
     1
 41
30.0
176
     1
 63
     7
421
 16777215
176
     1
 74
     1
176
     1
 91
        0
176
     1
 64
     7
176
     1
 65
   257
176
     1
 75
     1
176
     1
175
     1
176
     1
 42
1.0
176
     1
 92
        0
176
     1
 66
   257
176
     1
 43
1.0
176
     1
 76
     1
176
     1
 77
     6
176
     1
 78
     2
176
     1
 67
     7
176
     1
 79
     5
176
     1
170
     0
176
     1
171
     0
176
     1
290
     0
176
     1
 93
       13
176
     1
 44
0.0
176
     1
173
     0
176
     1
1001
ACAD
1000
AcDbSavedByObjectVersion
1070
     0
  0
VISUALSTYLE
  5
31
102
{ACAD_XDICTIONARY
360
17B
102
}
102
{ACAD_REACTORS
330
29
102
}
330
29
100
AcDbVisualStyle
  2
Hidden
 70
     6
177
     2
291
     0
 71
     1
176
     1
 72
     2
176
     1
 73
     2
176
     1
 90
        0
176
     1
 40
0.6
176
     1
 41
30.0
176
     1
 63
     7
421
 16777215
176
     1
 74
     2
176
     1
 91
        2
176
     1
 64
     7
176
     1
 65
   257
176
     1
 75
     2
176
     1
175
     1
176
     1
 42
40.0
176
     1
 92
        0
176
     1
 66
   257
176
     1
 43
1.0
176
     1
 76
     1
176
     1
 77
     6
176
     1
 78
     2
176
     1
 67
     7
176
     1
 79
     3
176
     1
170
     0
176
     1
171
     0
176
     1
290
     0
176
     1
 93
        1
176
     1
 44
0.0
176
     1
173
     0
176
     1
1001
ACAD
1000
AcDbSavedByObjectVersion
1070
     0
  0
VISUALSTYLE
  5
3F
102
{ACAD_XDICTIONARY
360
197
102
}
102
{ACAD_REACTORS
330
29
102
}
330
29
100
AcDbVisualStyle
  2
JitterOff
 70
    20
177
     2
291
     1
 71
     2
176
     0
 72
     2
176
     0
 73
     0
176
     0
 90
        0
176
     0
 40
0.6
176
     0
 41
30.0
176
     0
 63
     7
421
 16777215
176
     0
 74
     1
176
     0
 91
        4
176
     0
 64
     7
176
     0
 65
   257
176
     0
 75
     1
176
     0
175
     1
176
     0
 42
1.0
176
     0
 92
       10
176
     2
 66
     7
176
     0
 43
1.0
176
     0
 76
     1
176
     0
 77
     6
176
     0
 78
     2
176
     0
 67
     7
176
     0
 79
     5
176
     0
170
     0
176
     0
171
     0
176
     0
290
     0
176
     0
 93
        1
176
     0
 44
0.0
176
     0
173
     0
176
     0
1001
ACAD
1000
AcDbSavedByObjectVersion
1070
     0
  0
VISUALSTYLE
  5
37
102
{ACAD_XDICTIONARY
360
187
102
}
102
{ACAD_REACTORS
330
29
102
}
330
29
100
AcDbVisualStyle
  2
Linepattern
 70
    14
177
     2
291
     1
 71
     2
176
     1
 72
     2
176
     1
 73
     0
176
     1
 90
        0
176
     1
 40
0.6
176
     1
 41
30.0
176
     1
 63
     7
421
 16777215
176
     1
 74
     1
176
     1
 91
        4
176
     1
 64
     7
176
     1
 65
   257
176
     1
 75
     7
176
     1
175
     7
176
     1
 42
1.0
176
     1
 92
        8
176
     1
 66
     7
176
     1
 43
1.0
176
     1
 76
     1
176
     1
 77
     6
176
     1
 78
     2
176
     1
 67
     7
176
     1
 79
     5
176
     1
170
     0
176
     1
171
     0
176
     1
290
     0
176
     1
 93
        1
176
     1
 44
0.0
176
     1
173
     0
176
     1
1001
ACAD
1000
AcDbSavedByObjectVersion
1070
     0
  0
VISUALSTYLE
  5
40
102
{ACAD_XDICTIONARY
360
199
102
}
102
{ACAD_REACTORS
330
29
102
}
330
29
100
AcDbVisualStyle
  2
OverhangOff
 70
    21
177
     2
291
     1
 71
     2
176
     0
 72
     2
176
     0
 73
     0
176
     0
 90
        0
176
     0
 40
0.6
176
     0
 41
30.0
176
     0
 63
     7
421
 16777215
176
     0
 74
     1
176
     0
 91
        4
176
     0
 64
     7
176
     0
 65
   257
176
     0
 75
     1
176
     0
175
     1
176
     0
 42
1.0
176
     0
 92
        9
176
     2
 66
     7
176
     0
 43
1.0
176
     0
 76
     1
176
     0
 77
     6
176
     0
 78
     2
176
     0
 67
     7
176
     0
 79
     5
176
     0
170
     0
176
     0
171
     0
176
     0
290
     0
176
     0
 93
        1
176
     0
 44
0.0
176
     0
173
     0
176
     0
1001
ACAD
1000
AcDbSavedByObjectVersion
1070
     0
  0
VISUALSTYLE
  5
33
102
{ACAD_XDICTIONARY
360
17F
102
}
102
{ACAD_REACTORS
330
29
102
}
330
29
100
AcDbVisualStyle
  2
Realistic
 70
     8
177
     2
291
     0
 71
     2
176
     1
 72
     3
176
     1
 73
     0
176
     1
 90
        2
176
     1
 40
0.6
176
     1
 41
30.0
176
     1
 63
     7
421
 16777215
176
     1
 74
     0
176
     1
 91
        0
176
     1
 64
     7
176
     1
 65
   257
176
     1
 75
     1
176
     1
175
     1
176
     1
 42
1.0
176
     1
 92
        8
176
     1
 66
   257
176
     1
 43
1.0
176
     1
 76
     1
176
     1
 77
     6
176
     1
 78
     2
176
     1
 67
     7
176
     1
 79
     3
176
     1
170
     0
176
     1
171
     0
176
     1
290
     0
176
     1
 93
       13
176
     1
 44
0.0
176
     1
173
     0
176
     1
1001
ACAD
1000
AcDbSavedByObjectVersion
1070
     0
  0
VISUALSTYLE
  5
3E
102
{ACAD_XDICTIONARY
360
195
102
}
102
{ACAD_REACTORS
330
29
102
}
330
29
100
AcDbVisualStyle
  2
Shaded
 70
    27
177
     2
291
     0
 71
     2
176
     1
 72
     2
176
     1
 73
     1
176
     1
 90
        2
176
     1
 40
0.6
176
     1
 41
30.0
176
     1
 63
     7
421
 16777215
176
     1
 74
     0
176
     1
 91
        4
176
     1
 64
     7
176
     1
 65
   257
176
     1
 75
     1
176
     1
175
     1
176
     1
 42
1.0
176
     1
 92
        8
176
     1
 66
   257
176
     1
 43
1.0
176
     1
 76
     1
176
     1
 77
     6
176
     1
 78
     2
176
     1
 67
     8
425
  7895160
176
     1
 79
     3
176
     1
170
     0
176
     1
171
     0
176
     1
290
     0
176
     1
 93
        5
176
     1
 44
0.0
176
     1
173
     0
176
     1
1001
ACAD
1000
AcDbSavedByObjectVersion
1070
     0
  0
VISUALSTYLE
  5
3D
102
{ACAD_XDICTIONARY
360
193
102
}
102
{ACAD_REACTORS
330
29
102
}
330
29
100
AcDbVisualStyle
  2
Shaded with edges
 70
    26
177
     2
291
     0
 71
     2
176
     1
 72
     2
176
     1
 73
     1
176
     1
 90
        2
176
     1
 40
0.6
176
     1
 41
30.0
176
     1
 63
     7
421
 16777215
176
     1
 74
     1
176
     1
 91
        2
176
     1
 64
     7
176
     1
 65
   257
176
     1
 75
     2
176
     1
175
     1
176
     1
 42
1.0
176
     1
 92
        8
176
     1
 66
   257
176
     1
 43
1.0
176
     1
 76
     1
176
     1
 77
     6
176
     1
 78
     2
176
     1
 67
     7
176
     1
 79
     3
176
     1
170
     0
176
     1
171
     0
176
     1
290
     0
176
     1
 93
        5
176
     1
 44
0.0
176
     1
173
     0
176
     1
1001
ACAD
1000
AcDbSavedByObjectVersion
1070
     0
  0
VISUALSTYLE
  5
3A
102
{ACAD_XDICTIONARY
360
18D
102
}
102
{ACAD_REACTORS
330
29
102
}
330
29
100
AcDbVisualStyle
  2
Shades of Gray
 70
    23
177
     2
291
     0
 71
     2
176
     1
 72
     2
176
     1
 73
     3
176
     1
 90
        0
176
     1
 40
0.6
176
     1
 41
30.0
176
     1
 63
     7
421
 16777215
176
     1
 74
     2
176
     1
 91
        2
176
     1
 64
     7
176
     1
 65
     7
176
     1
 75
     1
176
     1
175
     1
176
     1
 42
40.0
176
     1
 92
        8
176
     1
 66
     7
176
     1
 43
1.0
176
     1
 76
     1
176
     1
 77
     6
176
     1
 78
     2
176
     1
 67
     7
176
     1
 79
     3
176
     1
170
     0
176
     1
171
     0
176
     1
290
     0
176
     1
 93
        1
176
     1
 44
0.0
176
     1
173
     0
176
     1
1001
ACAD
1000
AcDbSavedByObjectVersion
1070
     0
  0
VISUALSTYLE
  5
3B
102
{ACAD_XDICTIONARY
360
18F
102
}
102
{ACAD_REACTORS
330
29
102
}
330
29
100
AcDbVisualStyle
  2
Sketchy
 70
    24
177
     2
291
     0
 71
     1
176
     1
 72
     2
176
     1
 73
     2
176
     1
 90
        0
176
     1
 40
0.6
176
     1
 41
30.0
176
     1
 63
     7
421
 16777215
176
     1
 74
     2
176
     1
 91
        2
176
     1
 64
     7
176
     1
 65
     7
176
     1
 75
     1
176
     1
175
     1
176
     1
 42
40.0
176
     1
 92
       11
176
     1
 66
     7
176
     1
 43
1.0
176
     1
 76
     1
176
     1
 77
     6
176
     1
 78
     2
176
     1
 67
     7
176
     1
 79
     6
176
     1
170
     0
176
     1
171
     0
176
     1
290
     0
176
     1
 93
        1
176
     1
 44
0.0
176
     1
173
     0
176
     1
1001
ACAD
1000
AcDbSavedByObjectVersion
1070
     0
  0
VISUALSTYLE
  5
36
102
{ACAD_XDICTIONARY
360
185
102
}
102
{ACAD_REACTORS
330
29
102
}
330
29
100
AcDbVisualStyle
  2
Thicken
 70
    13
177
     2
291
     1
 71
     2
176
     1
 72
     2
176
     1
 73
     0
176
     1
 90
        0
176
     1
 40
0.6
176
     1
 41
30.0
176
     1
 63
     7
421
 16777215
176
     1
 74
     1
176
     1
 91
        4
176
     1
 64
     7
176
     1
 65
   257
176
     1
 75
     1
176
     1
175
     1
176
     1
 42
1.0
176
     1
 92
       12
176
     1
 66
     7
176
     1
 43
1.0
176
     1
 76
     1
176
     1
 77
     6
176
     1
 78
     2
176
     1
 67
     7
176
     1
 79
     5
176
     1
170
     0
176
     1
171
     0
176
     1
290
     0
176
     1
 93
        1
176
     1
 44
0.0
176
     1
173
     0
176
     1
1001
ACAD
1000
AcDbSavedByObjectVersion
1070
     0
  0
VISUALSTYLE
  5
30
102
{ACAD_XDICTIONARY
360
179
102
}
102
{ACAD_REACTORS
330
29
102
}
330
29
100
AcDbVisualStyle
  2
Wireframe
 70
     5
177
     2
291
     0
 71
     0
176
     1
 72
     2
176
     1
 73
     0
176
     1
 90
        0
176
     1
 40
0.6
176
     1
 41
30.0
176
     1
 63
     7
421
 16777215
176
     1
 74
     1
176
     1
 91
        4
176
     1
 64
     7
176
     1
 65
   257
176
     1
 75
     1
176
     1
175
     1
176
     1
 42
1.0
176
     1
 92
        0
176
     1
 66
   257
176
     1
 43
1.0
176
     1
 76
     1
176
     1
 77
     6
176
     1
 78
     2
176
     1
 67
     7
176
     1
 79
     3
176
     1
170
     0
176
     1
171
     0
176
     1
290
     0
176
     1
 93
        1
176
     1
 44
0.0
176
     1
173
     0
176
     1
1001
ACAD
1000
AcDbSavedByObjectVersion
1070
     0
  0
VISUALSTYLE
  5
3C
102
{ACAD_XDICTIONARY
360
191
102
}
102
{ACAD_REACTORS
330
29
102
}
330
29
100
AcDbVisualStyle
  2
X-Ray
 70
    25
177
     2
291
     0
 71
     2
176
     1
 72
     2
176
     1
 73
     1
176
     1
 90
        1
176
     1
 40
0.5
176
     1
 41
30.0
176
     1
 63
     7
421
 16777215
176
     1
 74
     1
176
     1
 91
        0
176
     1
 64
     7
176
     1
 65
   257
176
     1
 75
     1
176
     1
175
     1
176
     1
 42
1.0
176
     1
 92
        8
176
     1
 66
     7
176
     1
 43
1.0
176
     1
 76
     1
176
     1
 77
     6
176
     1
 78
     2
176
     1
 67
     7
176
     1
 79
     3
176
     1
170
     0
176
     1
171
     0
176
     1
290
     0
176
     1
 93
       13
176
     1
 44
0.0
176
     1
173
     0
176
     1
1001
ACAD
1000
AcDbSavedByObjectVersion
1070
     0
  0
DICTIONARYVAR
  5
169
102
{ACAD_REACTORS
330
164
102
}
330
164
100
DictionaryVariables
280
     0
  1
1:1
  0
DICTIONARYVAR
  5
166
102
{ACAD_REACTORS
330
164
102
}
330
164
100
DictionaryVariables
280
     0
  1
STANDARD
  0
DICTIONARYVAR
  5
165
102
{ACAD_REACTORS
330
164
102
}
330
164
100
DictionaryVariables
280
     0
  1
STANDARD
  0
DICTIONARYVAR
  5
167
102
{ACAD_REACTORS
330
164
102
}
330
164
100
DictionaryVariables
280
     0
  1
Imperial24
  0
DICTIONARYVAR
  5
168
102
{ACAD_REACTORS
330
164
102
}
330
164
100
DictionaryVariables
280
     0
  1
Imperial24
  0
DICTIONARY
  5
1A1
330
6B
100
AcDbDictionary
280
     1
281
     1
  3
ACAD_XREC_ROUNDTRIP
360
1A2
  0
DICTIONARY
  5
1A
330
19
100
AcDbDictionary
280
     1
281
     1
  3
BUMPTILE
360
1C
  3
DIFFUSETILE
360
1B
  3
OPACITYTILE
360
1F
  3
REFLECTIONTILE
360
1E
  3
REFRACTIONTILE
360
20
  3
SPECULARTILE
360
1D
  0
DICTIONARY
  5
12
330
11
100
AcDbDictionary
280
     1
281
     1
  3
BUMPTILE
360
14
  3
DIFFUSETILE
360
13
  3
OPACITYTILE
360
17
  3
REFLECTIONTILE
360
16
  3
REFRACTIONTILE
360
18
  3
SPECULARTILE
360
15
  0
DICTIONARY
  5
22
330
21
100
AcDbDictionary
280
     1
281
     1
  3
BUMPTILE
360
24
  3
DIFFUSETILE
360
23
  3
OPACITYTILE
360
27
  3
REFLECTIONTILE
360
26
  3
REFRACTIONTILE
360
28
  3
SPECULARTILE
360
25
  0
DICTIONARY
  5
19D
330
67
100
AcDbDictionary
280
     1
281
     1
  3
ACAD_XREC_ROUNDTRIP
360
19E
  0
DICTIONARY
  5
19F
330
69
100
AcDbDictionary
280
     1
281
     1
  3
ACAD_XREC_ROUNDTRIP
360
1A0
  0
DICTIONARY
  5
16A
330
65
100
AcDbDictionary
280
     1
281
     1
  3
ACAD_ROUNDTRIP_2008_TABLESTYLE_CELLSTYLEMAP
360
16B
  0
DICTIONARY
  5
177
330
2F
100
AcDbDictionary
280
     1
281
     1
  3
ACAD_XREC_ROUNDTRIP
360
178
  0
DICTIONARY
  5
175
330
2E
100
AcDbDictionary
280
     1
281
     1
  3
ACAD_XREC_ROUNDTRIP
360
176
  0
DICTIONARY
  5
183
330
35
100
AcDbDictionary
280
     1
281
     1
  3
ACAD_XREC_ROUNDTRIP
360
184
  0
DICTIONARY
  5
18B
330
39
100
AcDbDictionary
280
     1
281
     1
  3
ACAD_XREC_ROUNDTRIP
360
18C
  0
DICTIONARY
  5
17D
330
32
100
AcDbDictionary
280
     1
281
     1
  3
ACAD_XREC_ROUNDTRIP
360
17E
  0
DICTIONARY
  5
181
330
34
100
AcDbDictionary
280
     1
281
     1
  3
ACAD_XREC_ROUNDTRIP
360
182
  0
DICTIONARY
  5
19B
330
41
100
AcDbDictionary
280
     1
281
     1
  3
ACAD_XREC_ROUNDTRIP
360
19C
  0
DICTIONARY
  5
189
330
38
100
AcDbDictionary
280
     1
281
     1
  3
ACAD_XREC_ROUNDTRIP
360
18A
  0
DICTIONARY
  5
16D
330
2A
100
AcDbDictionary
280
     1
281
     1
  3
ACAD_XREC_ROUNDTRIP
360
16E
  0
DICTIONARY
  5
16F
330
2B
100
AcDbDictionary
280
     1
281
     1
  3
ACAD_XREC_ROUNDTRIP
360
170
  0
DICTIONARY
  5
171
330
2C
100
AcDbDictionary
280
     1
281
     1
  3
ACAD_XREC_ROUNDTRIP
360
172
  0
DICTIONARY
  5
173
330
2D
100
AcDbDictionary
280
     1
281
     1
  3
ACAD_XREC_ROUNDTRIP
360
174
  0
DICTIONARY
  5
17B
330
31
100
AcDbDictionary
280
     1
281
     1
  3
ACAD_XREC_ROUNDTRIP
360
17C
  0
DICTIONARY
  5
197
330
3F
100
AcDbDictionary
280
     1
281
     1
  3
ACAD_XREC_ROUNDTRIP
360
198
  0
DICTIONARY
  5
187
330
37
100
AcDbDictionary
280
     1
281
     1
  3
ACAD_XREC_ROUNDTRIP
360
188
  0
DICTIONARY
  5
199
330
40
100
AcDbDictionary
280
     1
281
     1
  3
ACAD_XREC_ROUNDTRIP
360
19A
  0
DICTIONARY
  5
17F
330
33
100
AcDbDictionary
280
     1
281
     1
  3
ACAD_XREC_ROUNDTRIP
360
180
  0
DICTIONARY
  5
195
330
3E
100
AcDbDictionary
280
     1
281
     1
  3
ACAD_XREC_ROUNDTRIP
360
196
  0
DICTIONARY
  5
193
330
3D
100
AcDbDictionary
280
     1
281
     1
  3
ACAD_XREC_ROUNDTRIP
360
194
  0
DICTIONARY
  5
18D
330
3A
100
AcDbDictionary
280
     1
281
     1
  3
ACAD_XREC_ROUNDTRIP
360
18E
  0
DICTIONARY
  5
18F
330
3B
100
AcDbDictionary
280
     1
281
     1
  3
ACAD_XREC_ROUNDTRIP
360
190
  0
DICTIONARY
  5
185
330
36
100
AcDbDictionary
280
     1
281
     1
  3
ACAD_XREC_ROUNDTRIP
360
186
  0
DICTIONARY
  5
179
330
30
100
AcDbDictionary
280
     1
281
     1
  3
ACAD_XREC_ROUNDTRIP
360
17A
  0
DICTIONARY
  5
191
330
3C
100
AcDbDictionary
280
     1
281
     1
  3
ACAD_XREC_ROUNDTRIP
360
192
  0
XRECORD
  5
1A2
102
{ACAD_REACTORS
330
1A1
102
}
330
1A1
100
AcDbXrecord
280
     1
102
DISPLAYNAME
  1
Imperial24
102
FLAGS
 90
        0
  0
XRECORD
  5
1C
102
{ACAD_REACTORS
330
1A
102
}
330
1A
100
AcDbXrecord
280
     1
270
     1
271
     1
  0
XRECORD
  5
1B
102
{ACAD_REACTORS
330
1A
102
}
330
1A
100
AcDbXrecord
280
     1
270
     1
271
     1
  0
XRECORD
  5
1F
102
{ACAD_REACTORS
330
1A
102
}
330
1A
100
AcDbXrecord
280
     1
270
     1
271
     1
  0
XRECORD
  5
1E
102
{ACAD_REACTORS
330
1A
102
}
330
1A
100
AcDbXrecord
280
     1
270
     1
271
     1
  0
XRECORD
  5
20
102
{ACAD_REACTORS
330
1A
102
}
330
1A
100
AcDbXrecord
280
     1
270
     1
271
     1
  0
XRECORD
  5
1D
102
{ACAD_REACTORS
330
1A
102
}
330
1A
100
AcDbXrecord
280
     1
270
     1
271
     1
  0
XRECORD
  5
14
102
{ACAD_REACTORS
330
12
102
}
330
12
100
AcDbXrecord
280
     1
270
     1
271
     1
  0
XRECORD
  5
13
102
{ACAD_REACTORS
330
12
102
}
330
12
100
AcDbXrecord
280
     1
270
     1
271
     1
  0
XRECORD
  5
17
102
{ACAD_REACTORS
330
12
102
}
330
12
100
AcDbXrecord
280
     1
270
     1
271
     1
  0
XRECORD
  5
16
102
{ACAD_REACTORS
330
12
102
}
330
12
100
AcDbXrecord
280
     1
270
     1
271
     1
  0
XRECORD
  5
18
102
{ACAD_REACTORS
330
12
102
}
330
12
100
AcDbXrecord
280
     1
270
     1
271
     1
  0
XRECORD
  5
15
102
{ACAD_REACTORS
330
12
102
}
330
12
100
AcDbXrecord
280
     1
270
     1
271
     1
  0
XRECORD
  5
24
102
{ACAD_REACTORS
330
22
102
}
330
22
100
AcDbXrecord
280
     1
270
     1
271
     1
  0
XRECORD
  5
23
102
{ACAD_REACTORS
330
22
102
}
330
22
100
AcDbXrecord
280
     1
270
     1
271
     1
  0
XRECORD
  5
27
102
{ACAD_REACTORS
330
22
102
}
330
22
100
AcDbXrecord
280
     1
270
     1
271
     1
  0
XRECORD
  5
26
102
{ACAD_REACTORS
330
22
102
}
330
22
100
AcDbXrecord
280
     1
270
     1
271
     1
  0
XRECORD
  5
28
102
{ACAD_REACTORS
330
22
102
}
330
22
100
AcDbXrecord
280
     1
270
     1
271
     1
  0
XRECORD
  5
25
102
{ACAD_REACTORS
330
22
102
}
330
22
100
AcDbXrecord
280
     1
270
     1
271
     1
  0
XRECORD
  5
19E
102
{ACAD_REACTORS
330
19D
102
}
330
19D
100
AcDbXrecord
280
     1
102
ACAD_ROUNDTRIP_2012_MLEADER_STYLE
298
     1
  0
XRECORD
  5
1A0
102
{ACAD_REACTORS
330
19F
102
}
330
19F
100
AcDbXrecord
280
     1
102
DISPLAYNAME
  1
Imperial24
102
FLAGS
 90
        0
  0
CELLSTYLEMAP
  5
16B
102
{ACAD_REACTORS
330
16A
102
}
330
16A
100
AcDbCellStyleMap
 90
        3
300
CELLSTYLE
  1
TABLEFORMAT_BEGIN
 90
        5
170
     1
 91
        0
 92
    32768
 62
   257
 93
        1
300
CONTENTFORMAT
  1
CONTENTFORMAT_BEGIN
 90
        0
 91
        0
 92
      512
 93
        0
300

 40
0.0
140
1.0
 94
        5
 62
     0
340
55
144
0.25
309
CONTENTFORMAT_END
171
     0
 94
        0
309
TABLEFORMAT_END
  1
CELLSTYLE_BEGIN
 90
        1
 91
        1
300
_TITLE
309
CELLSTYLE_END
300
CELLSTYLE
  1
TABLEFORMAT_BEGIN
 90
        5
170
     1
 91
        0
 92
        0
 62
   257
 93
        1
300
CONTENTFORMAT
  1
CONTENTFORMAT_BEGIN
 90
        0
 91
        0
 92
      512
 93
        0
300

 40
0.0
140
1.0
 94
        5
 62
     0
340
55
144
0.18
309
CONTENTFORMAT_END
171
     0
 94
        0
309
TABLEFORMAT_END
  1
CELLSTYLE_BEGIN
 90
        2
 91
        1
300
_HEADER
309
CELLSTYLE_END
300
CELLSTYLE
  1
TABLEFORMAT_BEGIN
 90
        5
170
     1
 91
        0
 92
        0
 62
   257
 93
        1
300
CONTENTFORMAT
  1
CONTENTFORMAT_BEGIN
 90
        0
 91
        0
 92
      512
 93
        0
300

 40
0.0
140
1.0
 94
        2
 62
     0
340
55
144
0.18
309
CONTENTFORMAT_END
171
     0
 94
        0
309
TABLEFORMAT_END
  1
CELLSTYLE_BEGIN
 90
        3
 91
        2
300
_DATA
309
CELLSTYLE_END
  0
XRECORD
  5
178
102
{ACAD_REACTORS
330
177
102
}
330
177
100
AcDbXrecord
280
     1
102
RTVSPost2010Prop28
280
     1
102
RTVSPost2010PropOp28
 70
     1
102
RTVSPost2010Prop29
280
     1
102
RTVSPost2010PropOp29
 70
     1
102
RTVSPost2010Prop30
280
     0
102
RTVSPost2010PropOp30
 70
     1
102
RTVSPost2010Prop31
280
     0
102
RTVSPost2010PropOp31
 70
     1
102
RTVSPost2010Prop32
280
     0
102
RTVSPost2010PropOp32
 70
     1
102
RTVSPost2010Prop33
280
     0
102
RTVSPost2010PropOp33
 70
     1
102
RTVSPost2010Prop34
280
     0
102
RTVSPost2010PropOp34
 70
     1
102
RTVSPost2010Prop35
280
     0
102
RTVSPost2010PropOp35
 70
     1
102
RTVSPost2010Prop36
280
     0
102
RTVSPost2010PropOp36
 70
     1
102
RTVSPost2010Prop37
 90
       50
102
RTVSPost2010PropOp37
 70
     1
102
RTVSPost2010Prop38
140
0.0
102
RTVSPost2010PropOp38
 70
     1
102
RTVSPost2010Prop39
140
1.0
102
RTVSPost2010PropOp39
 70
     1
102
RTVSPost2010Prop40
 90
        0
102
RTVSPost2010PropOp40
 70
     1
102
RTVSPost2010Prop41ColorIndex
 90
       18
102
RTVSPost2010Prop41ColorRGB
 90
        0
102
RTVSPost2010PropOp41
 70
     1
102
RTVSPost2010Prop42
 90
       50
102
RTVSPost2010PropOp42
 70
     1
102
RTVSPost2010Prop43
 90
        3
102
RTVSPost2010PropOp43
 70
     1
102
RTVSPost2010Prop44ColorIndex
 90
        5
102
RTVSPost2010Prop44ColorRGB
 90
      255
102
RTVSPost2010PropOp44
 70
     1
102
RTVSPost2010Prop45
280
     0
102
RTVSPost2010PropOp45
 70
     1
102
RTVSPost2010Prop46
 90
       50
102
RTVSPost2010PropOp46
 70
     1
102
RTVSPost2010Prop47
 90
       50
102
RTVSPost2010PropOp47
 70
     1
102
RTVSPost2010Prop48
 90
       50
102
RTVSPost2010PropOp48
 70
     1
102
RTVSPost2010Prop49
280
     0
102
RTVSPost2010PropOp49
 70
     1
102
RTVSPost2010Prop50
 90
       50
102
RTVSPost2010PropOp50
 70
     1
102
RTVSPost2010Prop51ColorIndex
 90
      256
102
RTVSPost2010Prop51ColorRGB
 90
-16777216
102
RTVSPost2010PropOp51
 70
     0
102
RTVSPost2010Prop52
140
1.0
102
RTVSPost2010PropOp52
 70
     0
102
RTVSPost2010Prop53
 90
        2
102
RTVSPost2010PropOp53
 70
     1
102
RTVSPost2010Prop54
  1
strokes_ogs.tif
102
RTVSPost2010PropOp54
 70
     1
102
RTVSPost2010Prop55
280
     0
102
RTVSPost2010PropOp55
 70
     1
102
RTVSPost2010Prop56
140
1.0
102
RTVSPost2010PropOp56
 70
     1
102
RTVSPost2010Prop57
140
1.0
102
RTVSPost2010PropOp57
 70
     1
  0
XRECORD
  5
176
102
{ACAD_REACTORS
330
175
102
}
330
175
100
AcDbXrecord
280
     1
102
RTVSPost2010Prop28
280
     0
102
RTVSPost2010PropOp28
 70
     1
102
RTVSPost2010Prop29
280
     1
102
RTVSPost2010PropOp29
 70
     1
102
RTVSPost2010Prop30
280
     1
102
RTVSPost2010PropOp30
 70
     1
102
RTVSPost2010Prop31
280
     0
102
RTVSPost2010PropOp31
 70
     1
102
RTVSPost2010Prop32
280
     0
102
RTVSPost2010PropOp32
 70
     1
102
RTVSPost2010Prop33
280
     0
102
RTVSPost2010PropOp33
 70
     1
102
RTVSPost2010Prop34
280
     0
102
RTVSPost2010PropOp34
 70
     1
102
RTVSPost2010Prop35
280
     0
102
RTVSPost2010PropOp35
 70
     1
102
RTVSPost2010Prop36
280
     0
102
RTVSPost2010PropOp36
 70
     1
102
RTVSPost2010Prop37
 90
       50
102
RTVSPost2010PropOp37
 70
     1
102
RTVSPost2010Prop38
140
0.0
102
RTVSPost2010PropOp38
 70
     1
102
RTVSPost2010Prop39
140
1.0
102
RTVSPost2010PropOp39
 70
     1
102
RTVSPost2010Prop40
 90
        0
102
RTVSPost2010PropOp40
 70
     1
102
RTVSPost2010Prop41ColorIndex
 90
       18
102
RTVSPost2010Prop41ColorRGB
 90
        0
102
RTVSPost2010PropOp41
 70
     1
102
RTVSPost2010Prop42
 90
       50
102
RTVSPost2010PropOp42
 70
     1
102
RTVSPost2010Prop43
 90
        3
102
RTVSPost2010PropOp43
 70
     1
102
RTVSPost2010Prop44ColorIndex
 90
        5
102
RTVSPost2010Prop44ColorRGB
 90
      255
102
RTVSPost2010PropOp44
 70
     1
102
RTVSPost2010Prop45
280
     0
102
RTVSPost2010PropOp45
 70
     1
102
RTVSPost2010Prop46
 90
       50
102
RTVSPost2010PropOp46
 70
     1
102
RTVSPost2010Prop47
 90
       50
102
RTVSPost2010PropOp47
 70
     1
102
RTVSPost2010Prop48
 90
       50
102
RTVSPost2010PropOp48
 70
     1
102
RTVSPost2010Prop49
280
     0
102
RTVSPost2010PropOp49
 70
     1
102
RTVSPost2010Prop50
 90
       50
102
RTVSPost2010PropOp50
 70
     1
102
RTVSPost2010Prop51ColorIndex
 90
      256
102
RTVSPost2010Prop51ColorRGB
 90
-16777216
102
RTVSPost2010PropOp51
 70
     0
102
RTVSPost2010Prop52
140
1.0
102
RTVSPost2010PropOp52
 70
     0
102
RTVSPost2010Prop53
 90
        2
102
RTVSPost2010PropOp53
 70
     1
102
RTVSPost2010Prop54
  1
strokes_ogs.tif
102
RTVSPost2010PropOp54
 70
     1
102
RTVSPost2010Prop55
280
     0
102
RTVSPost2010PropOp55
 70
     1
102
RTVSPost2010Prop56
140
1.0
102
RTVSPost2010PropOp56
 70
     1
102
RTVSPost2010Prop57
140
1.0
102
RTVSPost2010PropOp57
 70
     1
  0
XRECORD
  5
184
102
{ACAD_REACTORS
330
183
102
}
330
183
100
AcDbXrecord
280
     1
102
RTVSPost2010Prop28
280
     0
102
RTVSPost2010PropOp28
 70
     1
102
RTVSPost2010Prop29
280
     1
102
RTVSPost2010PropOp29
 70
     1
102
RTVSPost2010Prop30
280
     1
102
RTVSPost2010PropOp30
 70
     1
102
RTVSPost2010Prop31
280
     0
102
RTVSPost2010PropOp31
 70
     1
102
RTVSPost2010Prop32
280
     0
102
RTVSPost2010PropOp32
 70
     1
102
RTVSPost2010Prop33
280
     0
102
RTVSPost2010PropOp33
 70
     1
102
RTVSPost2010Prop34
280
     0
102
RTVSPost2010PropOp34
 70
     1
102
RTVSPost2010Prop35
280
     0
102
RTVSPost2010PropOp35
 70
     1
102
RTVSPost2010Prop36
280
     0
102
RTVSPost2010PropOp36
 70
     1
102
RTVSPost2010Prop37
 90
       50
102
RTVSPost2010PropOp37
 70
     1
102
RTVSPost2010Prop38
140
0.0
102
RTVSPost2010PropOp38
 70
     1
102
RTVSPost2010Prop39
140
1.0
102
RTVSPost2010PropOp39
 70
     1
102
RTVSPost2010Prop40
 90
        0
102
RTVSPost2010PropOp40
 70
     1
102
RTVSPost2010Prop41ColorIndex
 90
       18
102
RTVSPost2010Prop41ColorRGB
 90
        0
102
RTVSPost2010PropOp41
 70
     1
102
RTVSPost2010Prop42
 90
       50
102
RTVSPost2010PropOp42
 70
     1
102
RTVSPost2010Prop43
 90
        3
102
RTVSPost2010PropOp43
 70
     1
102
RTVSPost2010Prop44ColorIndex
 90
        5
102
RTVSPost2010Prop44ColorRGB
 90
      255
102
RTVSPost2010PropOp44
 70
     1
102
RTVSPost2010Prop45
280
     0
102
RTVSPost2010PropOp45
 70
     1
102
RTVSPost2010Prop46
 90
       50
102
RTVSPost2010PropOp46
 70
     1
102
RTVSPost2010Prop47
 90
       50
102
RTVSPost2010PropOp47
 70
     1
102
RTVSPost2010Prop48
 90
       50
102
RTVSPost2010PropOp48
 70
     1
102
RTVSPost2010Prop49
280
     0
102
RTVSPost2010PropOp49
 70
     1
102
RTVSPost2010Prop50
 90
       50
102
RTVSPost2010PropOp50
 70
     1
102
RTVSPost2010Prop51ColorIndex
 90
      256
102
RTVSPost2010Prop51ColorRGB
 90
-16777216
102
RTVSPost2010PropOp51
 70
     0
102
RTVSPost2010Prop52
140
1.0
102
RTVSPost2010PropOp52
 70
     0
102
RTVSPost2010Prop53
 90
        2
102
RTVSPost2010PropOp53
 70
     1
102
RTVSPost2010Prop54
  1
strokes_ogs.tif
102
RTVSPost2010PropOp54
 70
     1
102
RTVSPost2010Prop55
280
     0
102
RTVSPost2010PropOp55
 70
     1
102
RTVSPost2010Prop56
140
1.0
102
RTVSPost2010PropOp56
 70
     1
102
RTVSPost2010Prop57
140
1.0
102
RTVSPost2010PropOp57
 70
     1
  0
XRECORD
  5
18C
102
{ACAD_REACTORS
330
18B
102
}
330
18B
100
AcDbXrecord
280
     1
102
RTVSPost2010Prop28
280
     0
102
RTVSPost2010PropOp28
 70
     1
102
RTVSPost2010Prop29
280
     1
102
RTVSPost2010PropOp29
 70
     1
102
RTVSPost2010Prop30
280
     1
102
RTVSPost2010PropOp30
 70
     1
102
RTVSPost2010Prop31
280
     0
102
RTVSPost2010PropOp31
 70
     1
102
RTVSPost2010Prop32
280
     0
102
RTVSPost2010PropOp32
 70
     1
102
RTVSPost2010Prop33
280
     0
102
RTVSPost2010PropOp33
 70
     1
102
RTVSPost2010Prop34
280
     0
102
RTVSPost2010PropOp34
 70
     1
102
RTVSPost2010Prop35
280
     0
102
RTVSPost2010PropOp35
 70
     1
102
RTVSPost2010Prop36
280
     0
102
RTVSPost2010PropOp36
 70
     1
102
RTVSPost2010Prop37
 90
       50
102
RTVSPost2010PropOp37
 70
     1
102
RTVSPost2010Prop38
140
0.0
102
RTVSPost2010PropOp38
 70
     1
102
RTVSPost2010Prop39
140
1.0
102
RTVSPost2010PropOp39
 70
     1
102
RTVSPost2010Prop40
 90
        0
102
RTVSPost2010PropOp40
 70
     1
102
RTVSPost2010Prop41ColorIndex
 90
       18
102
RTVSPost2010Prop41ColorRGB
 90
        0
102
RTVSPost2010PropOp41
 70
     1
102
RTVSPost2010Prop42
 90
       50
102
RTVSPost2010PropOp42
 70
     1
102
RTVSPost2010Prop43
 90
        3
102
RTVSPost2010PropOp43
 70
     1
102
RTVSPost2010Prop44ColorIndex
 90
        5
102
RTVSPost2010Prop44ColorRGB
 90
      255
102
RTVSPost2010PropOp44
 70
     1
102
RTVSPost2010Prop45
280
     0
102
RTVSPost2010PropOp45
 70
     1
102
RTVSPost2010Prop46
 90
       50
102
RTVSPost2010PropOp46
 70
     1
102
RTVSPost2010Prop47
 90
       50
102
RTVSPost2010PropOp47
 70
     1
102
RTVSPost2010Prop48
 90
       50
102
RTVSPost2010PropOp48
 70
     1
102
RTVSPost2010Prop49
280
     0
102
RTVSPost2010PropOp49
 70
     1
102
RTVSPost2010Prop50
 90
       50
102
RTVSPost2010PropOp50
 70
     1
102
RTVSPost2010Prop51ColorIndex
 90
      256
102
RTVSPost2010Prop51ColorRGB
 90
-16777216
102
RTVSPost2010PropOp51
 70
     0
102
RTVSPost2010Prop52
140
1.0
102
RTVSPost2010PropOp52
 70
     0
102
RTVSPost2010Prop53
 90
        2
102
RTVSPost2010PropOp53
 70
     1
102
RTVSPost2010Prop54
  1
strokes_ogs.tif
102
RTVSPost2010PropOp54
 70
     1
102
RTVSPost2010Prop55
280
     0
102
RTVSPost2010PropOp55
 70
     1
102
RTVSPost2010Prop56
140
1.0
102
RTVSPost2010PropOp56
 70
     1
102
RTVSPost2010Prop57
140
1.0
102
RTVSPost2010PropOp57
 70
     1
  0
XRECORD
  5
17E
102
{ACAD_REACTORS
330
17D
102
}
330
17D
100
AcDbXrecord
280
     1
102
RTVSPost2010Prop28
280
     0
102
RTVSPost2010PropOp28
 70
     1
102
RTVSPost2010Prop29
280
     1
102
RTVSPost2010PropOp29
 70
     1
102
RTVSPost2010Prop30
280
     1
102
RTVSPost2010PropOp30
 70
     1
102
RTVSPost2010Prop31
280
     0
102
RTVSPost2010PropOp31
 70
     1
102
RTVSPost2010Prop32
280
     0
102
RTVSPost2010PropOp32
 70
     1
102
RTVSPost2010Prop33
280
     0
102
RTVSPost2010PropOp33
 70
     1
102
RTVSPost2010Prop34
280
     0
102
RTVSPost2010PropOp34
 70
     1
102
RTVSPost2010Prop35
280
     0
102
RTVSPost2010PropOp35
 70
     1
102
RTVSPost2010Prop36
280
     0
102
RTVSPost2010PropOp36
 70
     1
102
RTVSPost2010Prop37
 90
       50
102
RTVSPost2010PropOp37
 70
     1
102
RTVSPost2010Prop38
140
0.0
102
RTVSPost2010PropOp38
 70
     1
102
RTVSPost2010Prop39
140
1.0
102
RTVSPost2010PropOp39
 70
     1
102
RTVSPost2010Prop40
 90
        0
102
RTVSPost2010PropOp40
 70
     1
102
RTVSPost2010Prop41ColorIndex
 90
       18
102
RTVSPost2010Prop41ColorRGB
 90
        0
102
RTVSPost2010PropOp41
 70
     1
102
RTVSPost2010Prop42
 90
       50
102
RTVSPost2010PropOp42
 70
     1
102
RTVSPost2010Prop43
 90
        3
102
RTVSPost2010PropOp43
 70
     1
102
RTVSPost2010Prop44ColorIndex
 90
        5
102
RTVSPost2010Prop44ColorRGB
 90
      255
102
RTVSPost2010PropOp44
 70
     1
102
RTVSPost2010Prop45
280
     0
102
RTVSPost2010PropOp45
 70
     1
102
RTVSPost2010Prop46
 90
       50
102
RTVSPost2010PropOp46
 70
     1
102
RTVSPost2010Prop47
 90
       50
102
RTVSPost2010PropOp47
 70
     1
102
RTVSPost2010Prop48
 90
       50
102
RTVSPost2010PropOp48
 70
     1
102
RTVSPost2010Prop49
280
     0
102
RTVSPost2010PropOp49
 70
     1
102
RTVSPost2010Prop50
 90
       50
102
RTVSPost2010PropOp50
 70
     1
102
RTVSPost2010Prop51ColorIndex
 90
      256
102
RTVSPost2010Prop51ColorRGB
 90
-16777216
102
RTVSPost2010PropOp51
 70
     0
102
RTVSPost2010Prop52
140
1.0
102
RTVSPost2010PropOp52
 70
     0
102
RTVSPost2010Prop53
 90
        2
102
RTVSPost2010PropOp53
 70
     1
102
RTVSPost2010Prop54
  1
strokes_ogs.tif
102
RTVSPost2010PropOp54
 70
     1
102
RTVSPost2010Prop55
280
     0
102
RTVSPost2010PropOp55
 70
     1
102
RTVSPost2010Prop56
140
1.0
102
RTVSPost2010PropOp56
 70
     1
102
RTVSPost2010Prop57
140
1.0
102
RTVSPost2010PropOp57
 70
     1
  0
XRECORD
  5
182
102
{ACAD_REACTORS
330
181
102
}
330
181
100
AcDbXrecord
280
     1
102
RTVSPost2010Prop28
280
     0
102
RTVSPost2010PropOp28
 70
     1
102
RTVSPost2010Prop29
280
     1
102
RTVSPost2010PropOp29
 70
     1
102
RTVSPost2010Prop30
280
     1
102
RTVSPost2010PropOp30
 70
     1
102
RTVSPost2010Prop31
280
     0
102
RTVSPost2010PropOp31
 70
     1
102
RTVSPost2010Prop32
280
     0
102
RTVSPost2010PropOp32
 70
     1
102
RTVSPost2010Prop33
280
     0
102
RTVSPost2010PropOp33
 70
     1
102
RTVSPost2010Prop34
280
     0
102
RTVSPost2010PropOp34
 70
     1
102
RTVSPost2010Prop35
280
     0
102
RTVSPost2010PropOp35
 70
     1
102
RTVSPost2010Prop36
280
     0
102
RTVSPost2010PropOp36
 70
     1
102
RTVSPost2010Prop37
 90
       50
102
RTVSPost2010PropOp37
 70
     1
102
RTVSPost2010Prop38
140
0.0
102
RTVSPost2010PropOp38
 70
     1
102
RTVSPost2010Prop39
140
1.0
102
RTVSPost2010PropOp39
 70
     1
102
RTVSPost2010Prop40
 90
        0
102
RTVSPost2010PropOp40
 70
     1
102
RTVSPost2010Prop41ColorIndex
 90
       18
102
RTVSPost2010Prop41ColorRGB
 90
        0
102
RTVSPost2010PropOp41
 70
     1
102
RTVSPost2010Prop42
 90
       50
102
RTVSPost2010PropOp42
 70
     1
102
RTVSPost2010Prop43
 90
        3
102
RTVSPost2010PropOp43
 70
     1
102
RTVSPost2010Prop44ColorIndex
 90
        5
102
RTVSPost2010Prop44ColorRGB
 90
      255
102
RTVSPost2010PropOp44
 70
     1
102
RTVSPost2010Prop45
280
     0
102
RTVSPost2010PropOp45
 70
     1
102
RTVSPost2010Prop46
 90
       50
102
RTVSPost2010PropOp46
 70
     1
102
RTVSPost2010Prop47
 90
       50
102
RTVSPost2010PropOp47
 70
     1
102
RTVSPost2010Prop48
 90
       50
102
RTVSPost2010PropOp48
 70
     1
102
RTVSPost2010Prop49
280
     0
102
RTVSPost2010PropOp49
 70
     1
102
RTVSPost2010Prop50
 90
       50
102
RTVSPost2010PropOp50
 70
     1
102
RTVSPost2010Prop51ColorIndex
 90
      256
102
RTVSPost2010Prop51ColorRGB
 90
-16777216
102
RTVSPost2010PropOp51
 70
     0
102
RTVSPost2010Prop52
140
1.0
102
RTVSPost2010PropOp52
 70
     0
102
RTVSPost2010Prop53
 90
        2
102
RTVSPost2010PropOp53
 70
     1
102
RTVSPost2010Prop54
  1
strokes_ogs.tif
102
RTVSPost2010PropOp54
 70
     1
102
RTVSPost2010Prop55
280
     0
102
RTVSPost2010PropOp55
 70
     1
102
RTVSPost2010Prop56
140
1.0
102
RTVSPost2010PropOp56
 70
     1
102
RTVSPost2010Prop57
140
1.0
102
RTVSPost2010PropOp57
 70
     1
  0
XRECORD
  5
19C
102
{ACAD_REACTORS
330
19B
102
}
330
19B
100
AcDbXrecord
280
     1
102
RTVSPost2010Prop28
280
     0
102
RTVSPost2010PropOp28
 70
     0
102
RTVSPost2010Prop29
280
     1
102
RTVSPost2010PropOp29
 70
     0
102
RTVSPost2010Prop30
280
     1
102
RTVSPost2010PropOp30
 70
     0
102
RTVSPost2010Prop31
280
     0
102
RTVSPost2010PropOp31
 70
     0
102
RTVSPost2010Prop32
280
     0
102
RTVSPost2010PropOp32
 70
     0
102
RTVSPost2010Prop33
280
     0
102
RTVSPost2010PropOp33
 70
     0
102
RTVSPost2010Prop34
280
     0
102
RTVSPost2010PropOp34
 70
     0
102
RTVSPost2010Prop35
280
     0
102
RTVSPost2010PropOp35
 70
     0
102
RTVSPost2010Prop36
280
     0
102
RTVSPost2010PropOp36
 70
     0
102
RTVSPost2010Prop37
 90
       50
102
RTVSPost2010PropOp37
 70
     0
102
RTVSPost2010Prop38
140
0.0
102
RTVSPost2010PropOp38
 70
     0
102
RTVSPost2010Prop39
140
1.0
102
RTVSPost2010PropOp39
 70
     0
102
RTVSPost2010Prop40
 90
        0
102
RTVSPost2010PropOp40
 70
     0
102
RTVSPost2010Prop41ColorIndex
 90
       18
102
RTVSPost2010Prop41ColorRGB
 90
        0
102
RTVSPost2010PropOp41
 70
     0
102
RTVSPost2010Prop42
 90
       50
102
RTVSPost2010PropOp42
 70
     0
102
RTVSPost2010Prop43
 90
        3
102
RTVSPost2010PropOp43
 70
     0
102
RTVSPost2010Prop44ColorIndex
 90
        5
102
RTVSPost2010Prop44ColorRGB
 90
      255
102
RTVSPost2010PropOp44
 70
     0
102
RTVSPost2010Prop45
280
     0
102
RTVSPost2010PropOp45
 70
     0
102
RTVSPost2010Prop46
 90
       50
102
RTVSPost2010PropOp46
 70
     0
102
RTVSPost2010Prop47
 90
       50
102
RTVSPost2010PropOp47
 70
     0
102
RTVSPost2010Prop48
 90
       50
102
RTVSPost2010PropOp48
 70
     0
102
RTVSPost2010Prop49
280
     0
102
RTVSPost2010PropOp49
 70
     0
102
RTVSPost2010Prop50
 90
       50
102
RTVSPost2010PropOp50
 70
     0
102
RTVSPost2010Prop51ColorIndex
 90
      256
102
RTVSPost2010Prop51ColorRGB
 90
-16777216
102
RTVSPost2010PropOp51
 70
     0
102
RTVSPost2010Prop52
140
1.0
102
RTVSPost2010PropOp52
 70
     0
102
RTVSPost2010Prop53
 90
        2
102
RTVSPost2010PropOp53
 70
     0
102
RTVSPost2010Prop54
  1
strokes_ogs.tif
102
RTVSPost2010PropOp54
 70
     0
102
RTVSPost2010Prop55
280
     0
102
RTVSPost2010PropOp55
 70
     0
102
RTVSPost2010Prop56
140
1.0
102
RTVSPost2010PropOp56
 70
     0
102
RTVSPost2010Prop57
140
1.0
102
RTVSPost2010PropOp57
 70
     0
  0
XRECORD
  5
18A
102
{ACAD_REACTORS
330
189
102
}
330
189
100
AcDbXrecord
280
     1
102
RTVSPost2010Prop28
280
     0
102
RTVSPost2010PropOp28
 70
     1
102
RTVSPost2010Prop29
280
     1
102
RTVSPost2010PropOp29
 70
     1
102
RTVSPost2010Prop30
280
     1
102
RTVSPost2010PropOp30
 70
     1
102
RTVSPost2010Prop31
280
     0
102
RTVSPost2010PropOp31
 70
     1
102
RTVSPost2010Prop32
280
     0
102
RTVSPost2010PropOp32
 70
     1
102
RTVSPost2010Prop33
280
     0
102
RTVSPost2010PropOp33
 70
     1
102
RTVSPost2010Prop34
280
     0
102
RTVSPost2010PropOp34
 70
     1
102
RTVSPost2010Prop35
280
     0
102
RTVSPost2010PropOp35
 70
     1
102
RTVSPost2010Prop36
280
     0
102
RTVSPost2010PropOp36
 70
     1
102
RTVSPost2010Prop37
 90
       50
102
RTVSPost2010PropOp37
 70
     1
102
RTVSPost2010Prop38
140
0.0
102
RTVSPost2010PropOp38
 70
     1
102
RTVSPost2010Prop39
140
1.0
102
RTVSPost2010PropOp39
 70
     1
102
RTVSPost2010Prop40
 90
        0
102
RTVSPost2010PropOp40
 70
     1
102
RTVSPost2010Prop41ColorIndex
 90
       18
102
RTVSPost2010Prop41ColorRGB
 90
        0
102
RTVSPost2010PropOp41
 70
     1
102
RTVSPost2010Prop42
 90
       50
102
RTVSPost2010PropOp42
 70
     1
102
RTVSPost2010Prop43
 90
        3
102
RTVSPost2010PropOp43
 70
     1
102
RTVSPost2010Prop44ColorIndex
 90
        5
102
RTVSPost2010Prop44ColorRGB
 90
      255
102
RTVSPost2010PropOp44
 70
     1
102
RTVSPost2010Prop45
280
     0
102
RTVSPost2010PropOp45
 70
     1
102
RTVSPost2010Prop46
 90
       50
102
RTVSPost2010PropOp46
 70
     1
102
RTVSPost2010Prop47
 90
       50
102
RTVSPost2010PropOp47
 70
     1
102
RTVSPost2010Prop48
 90
       50
102
RTVSPost2010PropOp48
 70
     1
102
RTVSPost2010Prop49
280
     0
102
RTVSPost2010PropOp49
 70
     1
102
RTVSPost2010Prop50
 90
       50
102
RTVSPost2010PropOp50
 70
     1
102
RTVSPost2010Prop51ColorIndex
 90
      256
102
RTVSPost2010Prop51ColorRGB
 90
-16777216
102
RTVSPost2010PropOp51
 70
     0
102
RTVSPost2010Prop52
140
1.0
102
RTVSPost2010PropOp52
 70
     0
102
RTVSPost2010Prop53
 90
        2
102
RTVSPost2010PropOp53
 70
     1
102
RTVSPost2010Prop54
  1
strokes_ogs.tif
102
RTVSPost2010PropOp54
 70
     1
102
RTVSPost2010Prop55
280
     0
102
RTVSPost2010PropOp55
 70
     1
102
RTVSPost2010Prop56
140
1.0
102
RTVSPost2010PropOp56
 70
     1
102
RTVSPost2010Prop57
140
1.0
102
RTVSPost2010PropOp57
 70
     1
  0
XRECORD
  5
16E
102
{ACAD_REACTORS
330
16D
102
}
330
16D
100
AcDbXrecord
280
     1
102
RTVSPost2010Prop28
280
     0
102
RTVSPost2010PropOp28
 70
     1
102
RTVSPost2010Prop29
280
     1
102
RTVSPost2010PropOp29
 70
     1
102
RTVSPost2010Prop30
280
     1
102
RTVSPost2010PropOp30
 70
     1
102
RTVSPost2010Prop31
280
     0
102
RTVSPost2010PropOp31
 70
     1
102
RTVSPost2010Prop32
280
     0
102
RTVSPost2010PropOp32
 70
     1
102
RTVSPost2010Prop33
280
     0
102
RTVSPost2010PropOp33
 70
     1
102
RTVSPost2010Prop34
280
     0
102
RTVSPost2010PropOp34
 70
     1
102
RTVSPost2010Prop35
280
     0
102
RTVSPost2010PropOp35
 70
     1
102
RTVSPost2010Prop36
280
     0
102
RTVSPost2010PropOp36
 70
     1
102
RTVSPost2010Prop37
 90
       50
102
RTVSPost2010PropOp37
 70
     1
102
RTVSPost2010Prop38
140
0.0
102
RTVSPost2010PropOp38
 70
     1
102
RTVSPost2010Prop39
140
1.0
102
RTVSPost2010PropOp39
 70
     1
102
RTVSPost2010Prop40
 90
        0
102
RTVSPost2010PropOp40
 70
     1
102
RTVSPost2010Prop41ColorIndex
 90
       18
102
RTVSPost2010Prop41ColorRGB
 90
        0
102
RTVSPost2010PropOp41
 70
     1
102
RTVSPost2010Prop42
 90
       50
102
RTVSPost2010PropOp42
 70
     1
102
RTVSPost2010Prop43
 90
        3
102
RTVSPost2010PropOp43
 70
     1
102
RTVSPost2010Prop44ColorIndex
 90
        5
102
RTVSPost2010Prop44ColorRGB
 90
      255
102
RTVSPost2010PropOp44
 70
     1
102
RTVSPost2010Prop45
280
     0
102
RTVSPost2010PropOp45
 70
     1
102
RTVSPost2010Prop46
 90
       50
102
RTVSPost2010PropOp46
 70
     1
102
RTVSPost2010Prop47
 90
       50
102
RTVSPost2010PropOp47
 70
     1
102
RTVSPost2010Prop48
 90
       50
102
RTVSPost2010PropOp48
 70
     1
102
RTVSPost2010Prop49
280
     0
102
RTVSPost2010PropOp49
 70
     1
102
RTVSPost2010Prop50
 90
       50
102
RTVSPost2010PropOp50
 70
     1
102
RTVSPost2010Prop51ColorIndex
 90
      256
102
RTVSPost2010Prop51ColorRGB
 90
-16777216
102
RTVSPost2010PropOp51
 70
     0
102
RTVSPost2010Prop52
140
1.0
102
RTVSPost2010PropOp52
 70
     0
102
RTVSPost2010Prop53
 90
        2
102
RTVSPost2010PropOp53
 70
     1
102
RTVSPost2010Prop54
  1
strokes_ogs.tif
102
RTVSPost2010PropOp54
 70
     1
102
RTVSPost2010Prop55
280
     0
102
RTVSPost2010PropOp55
 70
     1
102
RTVSPost2010Prop56
140
1.0
102
RTVSPost2010PropOp56
 70
     1
102
RTVSPost2010Prop57
140
1.0
102
RTVSPost2010PropOp57
 70
     1
  0
XRECORD
  5
170
102
{ACAD_REACTORS
330
16F
102
}
330
16F
100
AcDbXrecord
280
     1
102
RTVSPost2010Prop28
280
     0
102
RTVSPost2010PropOp28
 70
     1
102
RTVSPost2010Prop29
280
     1
102
RTVSPost2010PropOp29
 70
     1
102
RTVSPost2010Prop30
280
     1
102
RTVSPost2010PropOp30
 70
     1
102
RTVSPost2010Prop31
280
     0
102
RTVSPost2010PropOp31
 70
     1
102
RTVSPost2010Prop32
280
     0
102
RTVSPost2010PropOp32
 70
     1
102
RTVSPost2010Prop33
280
     0
102
RTVSPost2010PropOp33
 70
     1
102
RTVSPost2010Prop34
280
     0
102
RTVSPost2010PropOp34
 70
     1
102
RTVSPost2010Prop35
280
     0
102
RTVSPost2010PropOp35
 70
     1
102
RTVSPost2010Prop36
280
     0
102
RTVSPost2010PropOp36
 70
     1
102
RTVSPost2010Prop37
 90
       50
102
RTVSPost2010PropOp37
 70
     1
102
RTVSPost2010Prop38
140
0.0
102
RTVSPost2010PropOp38
 70
     1
102
RTVSPost2010Prop39
140
1.0
102
RTVSPost2010PropOp39
 70
     1
102
RTVSPost2010Prop40
 90
        0
102
RTVSPost2010PropOp40
 70
     1
102
RTVSPost2010Prop41ColorIndex
 90
       18
102
RTVSPost2010Prop41ColorRGB
 90
        0
102
RTVSPost2010PropOp41
 70
     1
102
RTVSPost2010Prop42
 90
       50
102
RTVSPost2010PropOp42
 70
     1
102
RTVSPost2010Prop43
 90
        3
102
RTVSPost2010PropOp43
 70
     1
102
RTVSPost2010Prop44ColorIndex
 90
        5
102
RTVSPost2010Prop44ColorRGB
 90
      255
102
RTVSPost2010PropOp44
 70
     1
102
RTVSPost2010Prop45
280
     0
102
RTVSPost2010PropOp45
 70
     1
102
RTVSPost2010Prop46
 90
       50
102
RTVSPost2010PropOp46
 70
     1
102
RTVSPost2010Prop47
 90
       50
102
RTVSPost2010PropOp47
 70
     1
102
RTVSPost2010Prop48
 90
       50
102
RTVSPost2010PropOp48
 70
     1
102
RTVSPost2010Prop49
280
     0
102
RTVSPost2010PropOp49
 70
     1
102
RTVSPost2010Prop50
 90
       50
102
RTVSPost2010PropOp50
 70
     1
102
RTVSPost2010Prop51ColorIndex
 90
      256
102
RTVSPost2010Prop51ColorRGB
 90
-16777216
102
RTVSPost2010PropOp51
 70
     0
102
RTVSPost2010Prop52
140
1.0
102
RTVSPost2010PropOp52
 70
     0
102
RTVSPost2010Prop53
 90
        2
102
RTVSPost2010PropOp53
 70
     1
102
RTVSPost2010Prop54
  1
strokes_ogs.tif
102
RTVSPost2010PropOp54
 70
     1
102
RTVSPost2010Prop55
280
     0
102
RTVSPost2010PropOp55
 70
     1
102
RTVSPost2010Prop56
140
1.0
102
RTVSPost2010PropOp56
 70
     1
102
RTVSPost2010Prop57
140
1.0
102
RTVSPost2010PropOp57
 70
     1
  0
XRECORD
  5
172
102
{ACAD_REACTORS
330
171
102
}
330
171
100
AcDbXrecord
280
     1
102
RTVSPost2010Prop28
280
     0
102
RTVSPost2010PropOp28
 70
     1
102
RTVSPost2010Prop29
280
     1
102
RTVSPost2010PropOp29
 70
     1
102
RTVSPost2010Prop30
280
     1
102
RTVSPost2010PropOp30
 70
     1
102
RTVSPost2010Prop31
280
     0
102
RTVSPost2010PropOp31
 70
     1
102
RTVSPost2010Prop32
280
     0
102
RTVSPost2010PropOp32
 70
     1
102
RTVSPost2010Prop33
280
     0
102
RTVSPost2010PropOp33
 70
     1
102
RTVSPost2010Prop34
280
     0
102
RTVSPost2010PropOp34
 70
     1
102
RTVSPost2010Prop35
280
     0
102
RTVSPost2010PropOp35
 70
     1
102
RTVSPost2010Prop36
280
     0
102
RTVSPost2010PropOp36
 70
     1
102
RTVSPost2010Prop37
 90
       50
102
RTVSPost2010PropOp37
 70
     1
102
RTVSPost2010Prop38
140
0.0
102
RTVSPost2010PropOp38
 70
     1
102
RTVSPost2010Prop39
140
1.0
102
RTVSPost2010PropOp39
 70
     1
102
RTVSPost2010Prop40
 90
        0
102
RTVSPost2010PropOp40
 70
     1
102
RTVSPost2010Prop41ColorIndex
 90
       18
102
RTVSPost2010Prop41ColorRGB
 90
        0
102
RTVSPost2010PropOp41
 70
     1
102
RTVSPost2010Prop42
 90
       50
102
RTVSPost2010PropOp42
 70
     1
102
RTVSPost2010Prop43
 90
        3
102
RTVSPost2010PropOp43
 70
     1
102
RTVSPost2010Prop44ColorIndex
 90
        5
102
RTVSPost2010Prop44ColorRGB
 90
      255
102
RTVSPost2010PropOp44
 70
     1
102
RTVSPost2010Prop45
280
     0
102
RTVSPost2010PropOp45
 70
     1
102
RTVSPost2010Prop46
 90
       50
102
RTVSPost2010PropOp46
 70
     1
102
RTVSPost2010Prop47
 90
       50
102
RTVSPost2010PropOp47
 70
     1
102
RTVSPost2010Prop48
 90
       50
102
RTVSPost2010PropOp48
 70
     1
102
RTVSPost2010Prop49
280
     0
102
RTVSPost2010PropOp49
 70
     1
102
RTVSPost2010Prop50
 90
       50
102
RTVSPost2010PropOp50
 70
     1
102
RTVSPost2010Prop51ColorIndex
 90
      256
102
RTVSPost2010Prop51ColorRGB
 90
-16777216
102
RTVSPost2010PropOp51
 70
     0
102
RTVSPost2010Prop52
140
1.0
102
RTVSPost2010PropOp52
 70
     0
102
RTVSPost2010Prop53
 90
        2
102
RTVSPost2010PropOp53
 70
     1
102
RTVSPost2010Prop54
  1
strokes_ogs.tif
102
RTVSPost2010PropOp54
 70
     1
102
RTVSPost2010Prop55
280
     0
102
RTVSPost2010PropOp55
 70
     1
102
RTVSPost2010Prop56
140
1.0
102
RTVSPost2010PropOp56
 70
     1
102
RTVSPost2010Prop57
140
1.0
102
RTVSPost2010PropOp57
 70
     1
  0
XRECORD
  5
174
102
{ACAD_REACTORS
330
173
102
}
330
173
100
AcDbXrecord
280
     1
102
RTVSPost2010Prop28
280
     0
102
RTVSPost2010PropOp28
 70
     1
102
RTVSPost2010Prop29
280
     1
102
RTVSPost2010PropOp29
 70
     1
102
RTVSPost2010Prop30
280
     1
102
RTVSPost2010PropOp30
 70
     1
102
RTVSPost2010Prop31
280
     0
102
RTVSPost2010PropOp31
 70
     1
102
RTVSPost2010Prop32
280
     0
102
RTVSPost2010PropOp32
 70
     1
102
RTVSPost2010Prop33
280
     0
102
RTVSPost2010PropOp33
 70
     1
102
RTVSPost2010Prop34
280
     0
102
RTVSPost2010PropOp34
 70
     1
102
RTVSPost2010Prop35
280
     0
102
RTVSPost2010PropOp35
 70
     1
102
RTVSPost2010Prop36
280
     0
102
RTVSPost2010PropOp36
 70
     1
102
RTVSPost2010Prop37
 90
       50
102
RTVSPost2010PropOp37
 70
     1
102
RTVSPost2010Prop38
140
0.0
102
RTVSPost2010PropOp38
 70
     1
102
RTVSPost2010Prop39
140
1.0
102
RTVSPost2010PropOp39
 70
     1
102
RTVSPost2010Prop40
 90
        0
102
RTVSPost2010PropOp40
 70
     1
102
RTVSPost2010Prop41ColorIndex
 90
       18
102
RTVSPost2010Prop41ColorRGB
 90
        0
102
RTVSPost2010PropOp41
 70
     1
102
RTVSPost2010Prop42
 90
       50
102
RTVSPost2010PropOp42
 70
     1
102
RTVSPost2010Prop43
 90
        3
102
RTVSPost2010PropOp43
 70
     1
102
RTVSPost2010Prop44ColorIndex
 90
        5
102
RTVSPost2010Prop44ColorRGB
 90
      255
102
RTVSPost2010PropOp44
 70
     1
102
RTVSPost2010Prop45
280
     0
102
RTVSPost2010PropOp45
 70
     1
102
RTVSPost2010Prop46
 90
       50
102
RTVSPost2010PropOp46
 70
     1
102
RTVSPost2010Prop47
 90
       50
102
RTVSPost2010PropOp47
 70
     1
102
RTVSPost2010Prop48
 90
       50
102
RTVSPost2010PropOp48
 70
     1
102
RTVSPost2010Prop49
280
     0
102
RTVSPost2010PropOp49
 70
     1
102
RTVSPost2010Prop50
 90
       50
102
RTVSPost2010PropOp50
 70
     1
102
RTVSPost2010Prop51ColorIndex
 90
      256
102
RTVSPost2010Prop51ColorRGB
 90
-16777216
102
RTVSPost2010PropOp51
 70
     0
102
RTVSPost2010Prop52
140
1.0
102
RTVSPost2010PropOp52
 70
     0
102
RTVSPost2010Prop53
 90
        2
102
RTVSPost2010PropOp53
 70
     1
102
RTVSPost2010Prop54
  1
strokes_ogs.tif
102
RTVSPost2010PropOp54
 70
     1
102
RTVSPost2010Prop55
280
     0
102
RTVSPost2010PropOp55
 70
     1
102
RTVSPost2010Prop56
140
1.0
102
RTVSPost2010PropOp56
 70
     1
102
RTVSPost2010Prop57
140
1.0
102
RTVSPost2010PropOp57
 70
     1
  0
XRECORD
  5
17C
102
{ACAD_REACTORS
330
17B
102
}
330
17B
100
AcDbXrecord
280
     1
102
RTVSPost2010Prop28
280
     0
102
RTVSPost2010PropOp28
 70
     1
102
RTVSPost2010Prop29
280
     1
102
RTVSPost2010PropOp29
 70
     1
102
RTVSPost2010Prop30
280
     1
102
RTVSPost2010PropOp30
 70
     1
102
RTVSPost2010Prop31
280
     0
102
RTVSPost2010PropOp31
 70
     1
102
RTVSPost2010Prop32
280
     0
102
RTVSPost2010PropOp32
 70
     1
102
RTVSPost2010Prop33
280
     0
102
RTVSPost2010PropOp33
 70
     1
102
RTVSPost2010Prop34
280
     0
102
RTVSPost2010PropOp34
 70
     1
102
RTVSPost2010Prop35
280
     0
102
RTVSPost2010PropOp35
 70
     1
102
RTVSPost2010Prop36
280
     0
102
RTVSPost2010PropOp36
 70
     1
102
RTVSPost2010Prop37
 90
       50
102
RTVSPost2010PropOp37
 70
     1
102
RTVSPost2010Prop38
140
0.0
102
RTVSPost2010PropOp38
 70
     1
102
RTVSPost2010Prop39
140
1.0
102
RTVSPost2010PropOp39
 70
     1
102
RTVSPost2010Prop40
 90
        0
102
RTVSPost2010PropOp40
 70
     1
102
RTVSPost2010Prop41ColorIndex
 90
       18
102
RTVSPost2010Prop41ColorRGB
 90
        0
102
RTVSPost2010PropOp41
 70
     1
102
RTVSPost2010Prop42
 90
       50
102
RTVSPost2010PropOp42
 70
     1
102
RTVSPost2010Prop43
 90
        3
102
RTVSPost2010PropOp43
 70
     1
102
RTVSPost2010Prop44ColorIndex
 90
        5
102
RTVSPost2010Prop44ColorRGB
 90
      255
102
RTVSPost2010PropOp44
 70
     1
102
RTVSPost2010Prop45
280
     0
102
RTVSPost2010PropOp45
 70
     1
102
RTVSPost2010Prop46
 90
       50
102
RTVSPost2010PropOp46
 70
     1
102
RTVSPost2010Prop47
 90
       50
102
RTVSPost2010PropOp47
 70
     1
102
RTVSPost2010Prop48
 90
       50
102
RTVSPost2010PropOp48
 70
     1
102
RTVSPost2010Prop49
280
     0
102
RTVSPost2010PropOp49
 70
     1
102
RTVSPost2010Prop50
 90
       50
102
RTVSPost2010PropOp50
 70
     1
102
RTVSPost2010Prop51ColorIndex
 90
      256
102
RTVSPost2010Prop51ColorRGB
 90
-16777216
102
RTVSPost2010PropOp51
 70
     0
102
RTVSPost2010Prop52
140
1.0
102
RTVSPost2010PropOp52
 70
     0
102
RTVSPost2010Prop53
 90
        2
102
RTVSPost2010PropOp53
 70
     1
102
RTVSPost2010Prop54
  1
strokes_ogs.tif
102
RTVSPost2010PropOp54
 70
     1
102
RTVSPost2010Prop55
280
     0
102
RTVSPost2010PropOp55
 70
     1
102
RTVSPost2010Prop56
140
1.0
102
RTVSPost2010PropOp56
 70
     1
102
RTVSPost2010Prop57
140
1.0
102
RTVSPost2010PropOp57
 70
     1
  0
XRECORD
  5
198
102
{ACAD_REACTORS
330
197
102
}
330
197
100
AcDbXrecord
280
     1
102
RTVSPost2010Prop28
280
     0
102
RTVSPost2010PropOp28
 70
     0
102
RTVSPost2010Prop29
280
     1
102
RTVSPost2010PropOp29
 70
     0
102
RTVSPost2010Prop30
280
     1
102
RTVSPost2010PropOp30
 70
     0
102
RTVSPost2010Prop31
280
     0
102
RTVSPost2010PropOp31
 70
     0
102
RTVSPost2010Prop32
280
     0
102
RTVSPost2010PropOp32
 70
     0
102
RTVSPost2010Prop33
280
     0
102
RTVSPost2010PropOp33
 70
     0
102
RTVSPost2010Prop34
280
     0
102
RTVSPost2010PropOp34
 70
     0
102
RTVSPost2010Prop35
280
     0
102
RTVSPost2010PropOp35
 70
     0
102
RTVSPost2010Prop36
280
     0
102
RTVSPost2010PropOp36
 70
     0
102
RTVSPost2010Prop37
 90
       50
102
RTVSPost2010PropOp37
 70
     0
102
RTVSPost2010Prop38
140
0.0
102
RTVSPost2010PropOp38
 70
     0
102
RTVSPost2010Prop39
140
1.0
102
RTVSPost2010PropOp39
 70
     0
102
RTVSPost2010Prop40
 90
        0
102
RTVSPost2010PropOp40
 70
     0
102
RTVSPost2010Prop41ColorIndex
 90
       18
102
RTVSPost2010Prop41ColorRGB
 90
        0
102
RTVSPost2010PropOp41
 70
     0
102
RTVSPost2010Prop42
 90
       50
102
RTVSPost2010PropOp42
 70
     0
102
RTVSPost2010Prop43
 90
        3
102
RTVSPost2010PropOp43
 70
     0
102
RTVSPost2010Prop44ColorIndex
 90
        5
102
RTVSPost2010Prop44ColorRGB
 90
      255
102
RTVSPost2010PropOp44
 70
     0
102
RTVSPost2010Prop45
280
     0
102
RTVSPost2010PropOp45
 70
     0
102
RTVSPost2010Prop46
 90
       50
102
RTVSPost2010PropOp46
 70
     0
102
RTVSPost2010Prop47
 90
       50
102
RTVSPost2010PropOp47
 70
     0
102
RTVSPost2010Prop48
 90
       50
102
RTVSPost2010PropOp48
 70
     0
102
RTVSPost2010Prop49
280
     0
102
RTVSPost2010PropOp49
 70
     0
102
RTVSPost2010Prop50
 90
       50
102
RTVSPost2010PropOp50
 70
     0
102
RTVSPost2010Prop51ColorIndex
 90
      256
102
RTVSPost2010Prop51ColorRGB
 90
-16777216
102
RTVSPost2010PropOp51
 70
     0
102
RTVSPost2010Prop52
140
1.0
102
RTVSPost2010PropOp52
 70
     0
102
RTVSPost2010Prop53
 90
        2
102
RTVSPost2010PropOp53
 70
     0
102
RTVSPost2010Prop54
  1
strokes_ogs.tif
102
RTVSPost2010PropOp54
 70
     0
102
RTVSPost2010Prop55
280
     0
102
RTVSPost2010PropOp55
 70
     0
102
RTVSPost2010Prop56
140
1.0
102
RTVSPost2010PropOp56
 70
     0
102
RTVSPost2010Prop57
140
1.0
102
RTVSPost2010PropOp57
 70
     0
  0
XRECORD
  5
188
102
{ACAD_REACTORS
330
187
102
}
330
187
100
AcDbXrecord
280
     1
102
RTVSPost2010Prop28
280
     0
102
RTVSPost2010PropOp28
 70
     1
102
RTVSPost2010Prop29
280
     1
102
RTVSPost2010PropOp29
 70
     1
102
RTVSPost2010Prop30
280
     1
102
RTVSPost2010PropOp30
 70
     1
102
RTVSPost2010Prop31
280
     0
102
RTVSPost2010PropOp31
 70
     1
102
RTVSPost2010Prop32
280
     0
102
RTVSPost2010PropOp32
 70
     1
102
RTVSPost2010Prop33
280
     0
102
RTVSPost2010PropOp33
 70
     1
102
RTVSPost2010Prop34
280
     0
102
RTVSPost2010PropOp34
 70
     1
102
RTVSPost2010Prop35
280
     0
102
RTVSPost2010PropOp35
 70
     1
102
RTVSPost2010Prop36
280
     0
102
RTVSPost2010PropOp36
 70
     1
102
RTVSPost2010Prop37
 90
       50
102
RTVSPost2010PropOp37
 70
     1
102
RTVSPost2010Prop38
140
0.0
102
RTVSPost2010PropOp38
 70
     1
102
RTVSPost2010Prop39
140
1.0
102
RTVSPost2010PropOp39
 70
     1
102
RTVSPost2010Prop40
 90
        0
102
RTVSPost2010PropOp40
 70
     1
102
RTVSPost2010Prop41ColorIndex
 90
       18
102
RTVSPost2010Prop41ColorRGB
 90
        0
102
RTVSPost2010PropOp41
 70
     1
102
RTVSPost2010Prop42
 90
       50
102
RTVSPost2010PropOp42
 70
     1
102
RTVSPost2010Prop43
 90
        3
102
RTVSPost2010PropOp43
 70
     1
102
RTVSPost2010Prop44ColorIndex
 90
        5
102
RTVSPost2010Prop44ColorRGB
 90
      255
102
RTVSPost2010PropOp44
 70
     1
102
RTVSPost2010Prop45
280
     0
102
RTVSPost2010PropOp45
 70
     1
102
RTVSPost2010Prop46
 90
       50
102
RTVSPost2010PropOp46
 70
     1
102
RTVSPost2010Prop47
 90
       50
102
RTVSPost2010PropOp47
 70
     1
102
RTVSPost2010Prop48
 90
       50
102
RTVSPost2010PropOp48
 70
     1
102
RTVSPost2010Prop49
280
     0
102
RTVSPost2010PropOp49
 70
     1
102
RTVSPost2010Prop50
 90
       50
102
RTVSPost2010PropOp50
 70
     1
102
RTVSPost2010Prop51ColorIndex
 90
      256
102
RTVSPost2010Prop51ColorRGB
 90
-16777216
102
RTVSPost2010PropOp51
 70
     0
102
RTVSPost2010Prop52
140
1.0
102
RTVSPost2010PropOp52
 70
     0
102
RTVSPost2010Prop53
 90
        2
102
RTVSPost2010PropOp53
 70
     1
102
RTVSPost2010Prop54
  1
strokes_ogs.tif
102
RTVSPost2010PropOp54
 70
     1
102
RTVSPost2010Prop55
280
     0
102
RTVSPost2010PropOp55
 70
     1
102
RTVSPost2010Prop56
140
1.0
102
RTVSPost2010PropOp56
 70
     1
102
RTVSPost2010Prop57
140
1.0
102
RTVSPost2010PropOp57
 70
     1
  0
XRECORD
  5
19A
102
{ACAD_REACTORS
330
199
102
}
330
199
100
AcDbXrecord
280
     1
102
RTVSPost2010Prop28
280
     0
102
RTVSPost2010PropOp28
 70
     0
102
RTVSPost2010Prop29
280
     1
102
RTVSPost2010PropOp29
 70
     0
102
RTVSPost2010Prop30
280
     1
102
RTVSPost2010PropOp30
 70
     0
102
RTVSPost2010Prop31
280
     0
102
RTVSPost2010PropOp31
 70
     0
102
RTVSPost2010Prop32
280
     0
102
RTVSPost2010PropOp32
 70
     0
102
RTVSPost2010Prop33
280
     0
102
RTVSPost2010PropOp33
 70
     0
102
RTVSPost2010Prop34
280
     0
102
RTVSPost2010PropOp34
 70
     0
102
RTVSPost2010Prop35
280
     0
102
RTVSPost2010PropOp35
 70
     0
102
RTVSPost2010Prop36
280
     0
102
RTVSPost2010PropOp36
 70
     0
102
RTVSPost2010Prop37
 90
       50
102
RTVSPost2010PropOp37
 70
     0
102
RTVSPost2010Prop38
140
0.0
102
RTVSPost2010PropOp38
 70
     0
102
RTVSPost2010Prop39
140
1.0
102
RTVSPost2010PropOp39
 70
     0
102
RTVSPost2010Prop40
 90
        0
102
RTVSPost2010PropOp40
 70
     0
102
RTVSPost2010Prop41ColorIndex
 90
       18
102
RTVSPost2010Prop41ColorRGB
 90
        0
102
RTVSPost2010PropOp41
 70
     0
102
RTVSPost2010Prop42
 90
       50
102
RTVSPost2010PropOp42
 70
     0
102
RTVSPost2010Prop43
 90
        3
102
RTVSPost2010PropOp43
 70
     0
102
RTVSPost2010Prop44ColorIndex
 90
        5
102
RTVSPost2010Prop44ColorRGB
 90
      255
102
RTVSPost2010PropOp44
 70
     0
102
RTVSPost2010Prop45
280
     0
102
RTVSPost2010PropOp45
 70
     0
102
RTVSPost2010Prop46
 90
       50
102
RTVSPost2010PropOp46
 70
     0
102
RTVSPost2010Prop47
 90
       50
102
RTVSPost2010PropOp47
 70
     0
102
RTVSPost2010Prop48
 90
       50
102
RTVSPost2010PropOp48
 70
     0
102
RTVSPost2010Prop49
280
     0
102
RTVSPost2010PropOp49
 70
     0
102
RTVSPost2010Prop50
 90
       50
102
RTVSPost2010PropOp50
 70
     0
102
RTVSPost2010Prop51ColorIndex
 90
      256
102
RTVSPost2010Prop51ColorRGB
 90
-16777216
102
RTVSPost2010PropOp51
 70
     0
102
RTVSPost2010Prop52
140
1.0
102
RTVSPost2010PropOp52
 70
     0
102
RTVSPost2010Prop53
 90
        2
102
RTVSPost2010PropOp53
 70
     0
102
RTVSPost2010Prop54
  1
strokes_ogs.tif
102
RTVSPost2010PropOp54
 70
     0
102
RTVSPost2010Prop55
280
     0
102
RTVSPost2010PropOp55
 70
     0
102
RTVSPost2010Prop56
140
1.0
102
RTVSPost2010PropOp56
 70
     0
102
RTVSPost2010Prop57
140
1.0
102
RTVSPost2010PropOp57
 70
     0
  0
XRECORD
  5
180
102
{ACAD_REACTORS
330
17F
102
}
330
17F
100
AcDbXrecord
280
     1
102
RTVSPost2010Prop28
280
     0
102
RTVSPost2010PropOp28
 70
     1
102
RTVSPost2010Prop29
280
     1
102
RTVSPost2010PropOp29
 70
     1
102
RTVSPost2010Prop30
280
     1
102
RTVSPost2010PropOp30
 70
     1
102
RTVSPost2010Prop31
280
     0
102
RTVSPost2010PropOp31
 70
     1
102
RTVSPost2010Prop32
280
     0
102
RTVSPost2010PropOp32
 70
     1
102
RTVSPost2010Prop33
280
     0
102
RTVSPost2010PropOp33
 70
     1
102
RTVSPost2010Prop34
280
     0
102
RTVSPost2010PropOp34
 70
     1
102
RTVSPost2010Prop35
280
     0
102
RTVSPost2010PropOp35
 70
     1
102
RTVSPost2010Prop36
280
     0
102
RTVSPost2010PropOp36
 70
     1
102
RTVSPost2010Prop37
 90
       50
102
RTVSPost2010PropOp37
 70
     1
102
RTVSPost2010Prop38
140
0.0
102
RTVSPost2010PropOp38
 70
     1
102
RTVSPost2010Prop39
140
1.0
102
RTVSPost2010PropOp39
 70
     1
102
RTVSPost2010Prop40
 90
        0
102
RTVSPost2010PropOp40
 70
     1
102
RTVSPost2010Prop41ColorIndex
 90
       18
102
RTVSPost2010Prop41ColorRGB
 90
        0
102
RTVSPost2010PropOp41
 70
     1
102
RTVSPost2010Prop42
 90
       50
102
RTVSPost2010PropOp42
 70
     1
102
RTVSPost2010Prop43
 90
        3
102
RTVSPost2010PropOp43
 70
     1
102
RTVSPost2010Prop44ColorIndex
 90
        5
102
RTVSPost2010Prop44ColorRGB
 90
      255
102
RTVSPost2010PropOp44
 70
     1
102
RTVSPost2010Prop45
280
     0
102
RTVSPost2010PropOp45
 70
     1
102
RTVSPost2010Prop46
 90
       50
102
RTVSPost2010PropOp46
 70
     1
102
RTVSPost2010Prop47
 90
       50
102
RTVSPost2010PropOp47
 70
     1
102
RTVSPost2010Prop48
 90
       50
102
RTVSPost2010PropOp48
 70
     1
102
RTVSPost2010Prop49
280
     0
102
RTVSPost2010PropOp49
 70
     1
102
RTVSPost2010Prop50
 90
       50
102
RTVSPost2010PropOp50
 70
     1
102
RTVSPost2010Prop51ColorIndex
 90
      256
102
RTVSPost2010Prop51ColorRGB
 90
-16777216
102
RTVSPost2010PropOp51
 70
     0
102
RTVSPost2010Prop52
140
1.0
102
RTVSPost2010PropOp52
 70
     0
102
RTVSPost2010Prop53
 90
        2
102
RTVSPost2010PropOp53
 70
     1
102
RTVSPost2010Prop54
  1
strokes_ogs.tif
102
RTVSPost2010PropOp54
 70
     1
102
RTVSPost2010Prop55
280
     0
102
RTVSPost2010PropOp55
 70
     1
102
RTVSPost2010Prop56
140
1.0
102
RTVSPost2010PropOp56
 70
     1
102
RTVSPost2010Prop57
140
1.0
102
RTVSPost2010PropOp57
 70
     1
  0
XRECORD
  5
196
102
{ACAD_REACTORS
330
195
102
}
330
195
100
AcDbXrecord
280
     1
102
RTVSPost2010Prop28
280
     0
102
RTVSPost2010PropOp28
 70
     1
102
RTVSPost2010Prop29
280
     1
102
RTVSPost2010PropOp29
 70
     1
102
RTVSPost2010Prop30
280
     1
102
RTVSPost2010PropOp30
 70
     1
102
RTVSPost2010Prop31
280
     0
102
RTVSPost2010PropOp31
 70
     1
102
RTVSPost2010Prop32
280
     0
102
RTVSPost2010PropOp32
 70
     1
102
RTVSPost2010Prop33
280
     0
102
RTVSPost2010PropOp33
 70
     1
102
RTVSPost2010Prop34
280
     0
102
RTVSPost2010PropOp34
 70
     1
102
RTVSPost2010Prop35
280
     0
102
RTVSPost2010PropOp35
 70
     1
102
RTVSPost2010Prop36
280
     0
102
RTVSPost2010PropOp36
 70
     1
102
RTVSPost2010Prop37
 90
       50
102
RTVSPost2010PropOp37
 70
     1
102
RTVSPost2010Prop38
140
0.0
102
RTVSPost2010PropOp38
 70
     1
102
RTVSPost2010Prop39
140
1.0
102
RTVSPost2010PropOp39
 70
     1
102
RTVSPost2010Prop40
 90
        0
102
RTVSPost2010PropOp40
 70
     1
102
RTVSPost2010Prop41ColorIndex
 90
       18
102
RTVSPost2010Prop41ColorRGB
 90
        0
102
RTVSPost2010PropOp41
 70
     1
102
RTVSPost2010Prop42
 90
       50
102
RTVSPost2010PropOp42
 70
     1
102
RTVSPost2010Prop43
 90
        3
102
RTVSPost2010PropOp43
 70
     1
102
RTVSPost2010Prop44ColorIndex
 90
        5
102
RTVSPost2010Prop44ColorRGB
 90
      255
102
RTVSPost2010PropOp44
 70
     1
102
RTVSPost2010Prop45
280
     0
102
RTVSPost2010PropOp45
 70
     1
102
RTVSPost2010Prop46
 90
       50
102
RTVSPost2010PropOp46
 70
     1
102
RTVSPost2010Prop47
 90
       50
102
RTVSPost2010PropOp47
 70
     1
102
RTVSPost2010Prop48
 90
       50
102
RTVSPost2010PropOp48
 70
     1
102
RTVSPost2010Prop49
280
     0
102
RTVSPost2010PropOp49
 70
     1
102
RTVSPost2010Prop50
 90
       50
102
RTVSPost2010PropOp50
 70
     1
102
RTVSPost2010Prop51ColorIndex
 90
      256
102
RTVSPost2010Prop51ColorRGB
 90
-16777216
102
RTVSPost2010PropOp51
 70
     0
102
RTVSPost2010Prop52
140
1.0
102
RTVSPost2010PropOp52
 70
     0
102
RTVSPost2010Prop53
 90
        2
102
RTVSPost2010PropOp53
 70
     1
102
RTVSPost2010Prop54
  1
strokes_ogs.tif
102
RTVSPost2010PropOp54
 70
     1
102
RTVSPost2010Prop55
280
     0
102
RTVSPost2010PropOp55
 70
     1
102
RTVSPost2010Prop56
140
1.0
102
RTVSPost2010PropOp56
 70
     1
102
RTVSPost2010Prop57
140
1.0
102
RTVSPost2010PropOp57
 70
     1
  0
XRECORD
  5
194
102
{ACAD_REACTORS
330
193
102
}
330
193
100
AcDbXrecord
280
     1
102
RTVSPost2010Prop28
280
     0
102
RTVSPost2010PropOp28
 70
     1
102
RTVSPost2010Prop29
280
     1
102
RTVSPost2010PropOp29
 70
     1
102
RTVSPost2010Prop30
280
     1
102
RTVSPost2010PropOp30
 70
     1
102
RTVSPost2010Prop31
280
     0
102
RTVSPost2010PropOp31
 70
     1
102
RTVSPost2010Prop32
280
     0
102
RTVSPost2010PropOp32
 70
     1
102
RTVSPost2010Prop33
280
     0
102
RTVSPost2010PropOp33
 70
     1
102
RTVSPost2010Prop34
280
     0
102
RTVSPost2010PropOp34
 70
     1
102
RTVSPost2010Prop35
280
     0
102
RTVSPost2010PropOp35
 70
     1
102
RTVSPost2010Prop36
280
     0
102
RTVSPost2010PropOp36
 70
     1
102
RTVSPost2010Prop37
 90
       50
102
RTVSPost2010PropOp37
 70
     1
102
RTVSPost2010Prop38
140
0.0
102
RTVSPost2010PropOp38
 70
     1
102
RTVSPost2010Prop39
140
1.0
102
RTVSPost2010PropOp39
 70
     1
102
RTVSPost2010Prop40
 90
        0
102
RTVSPost2010PropOp40
 70
     1
102
RTVSPost2010Prop41ColorIndex
 90
       18
102
RTVSPost2010Prop41ColorRGB
 90
        0
102
RTVSPost2010PropOp41
 70
     1
102
RTVSPost2010Prop42
 90
       50
102
RTVSPost2010PropOp42
 70
     1
102
RTVSPost2010Prop43
 90
        3
102
RTVSPost2010PropOp43
 70
     1
102
RTVSPost2010Prop44ColorIndex
 90
        5
102
RTVSPost2010Prop44ColorRGB
 90
      255
102
RTVSPost2010PropOp44
 70
     1
102
RTVSPost2010Prop45
280
     0
102
RTVSPost2010PropOp45
 70
     1
102
RTVSPost2010Prop46
 90
       50
102
RTVSPost2010PropOp46
 70
     1
102
RTVSPost2010Prop47
 90
       50
102
RTVSPost2010PropOp47
 70
     1
102
RTVSPost2010Prop48
 90
       50
102
RTVSPost2010PropOp48
 70
     1
102
RTVSPost2010Prop49
280
     0
102
RTVSPost2010PropOp49
 70
     1
102
RTVSPost2010Prop50
 90
       50
102
RTVSPost2010PropOp50
 70
     1
102
RTVSPost2010Prop51ColorIndex
 90
      256
102
RTVSPost2010Prop51ColorRGB
 90
-16777216
102
RTVSPost2010PropOp51
 70
     0
102
RTVSPost2010Prop52
140
1.0
102
RTVSPost2010PropOp52
 70
     0
102
RTVSPost2010Prop53
 90
        2
102
RTVSPost2010PropOp53
 70
     1
102
RTVSPost2010Prop54
  1
strokes_ogs.tif
102
RTVSPost2010PropOp54
 70
     1
102
RTVSPost2010Prop55
280
     0
102
RTVSPost2010PropOp55
 70
     1
102
RTVSPost2010Prop56
140
1.0
102
RTVSPost2010PropOp56
 70
     1
102
RTVSPost2010Prop57
140
1.0
102
RTVSPost2010PropOp57
 70
     1
  0
XRECORD
  5
18E
102
{ACAD_REACTORS
330
18D
102
}
330
18D
100
AcDbXrecord
280
     1
102
RTVSPost2010Prop28
280
     0
102
RTVSPost2010PropOp28
 70
     1
102
RTVSPost2010Prop29
280
     1
102
RTVSPost2010PropOp29
 70
     1
102
RTVSPost2010Prop30
280
     1
102
RTVSPost2010PropOp30
 70
     1
102
RTVSPost2010Prop31
280
     0
102
RTVSPost2010PropOp31
 70
     1
102
RTVSPost2010Prop32
280
     0
102
RTVSPost2010PropOp32
 70
     1
102
RTVSPost2010Prop33
280
     0
102
RTVSPost2010PropOp33
 70
     1
102
RTVSPost2010Prop34
280
     0
102
RTVSPost2010PropOp34
 70
     1
102
RTVSPost2010Prop35
280
     0
102
RTVSPost2010PropOp35
 70
     1
102
RTVSPost2010Prop36
280
     0
102
RTVSPost2010PropOp36
 70
     1
102
RTVSPost2010Prop37
 90
       50
102
RTVSPost2010PropOp37
 70
     1
102
RTVSPost2010Prop38
140
0.0
102
RTVSPost2010PropOp38
 70
     1
102
RTVSPost2010Prop39
140
1.0
102
RTVSPost2010PropOp39
 70
     1
102
RTVSPost2010Prop40
 90
        0
102
RTVSPost2010PropOp40
 70
     1
102
RTVSPost2010Prop41ColorIndex
 90
       18
102
RTVSPost2010Prop41ColorRGB
 90
        0
102
RTVSPost2010PropOp41
 70
     1
102
RTVSPost2010Prop42
 90
       50
102
RTVSPost2010PropOp42
 70
     1
102
RTVSPost2010Prop43
 90
        3
102
RTVSPost2010PropOp43
 70
     1
102
RTVSPost2010Prop44ColorIndex
 90
        5
102
RTVSPost2010Prop44ColorRGB
 90
      255
102
RTVSPost2010PropOp44
 70
     1
102
RTVSPost2010Prop45
280
     0
102
RTVSPost2010PropOp45
 70
     1
102
RTVSPost2010Prop46
 90
       50
102
RTVSPost2010PropOp46
 70
     1
102
RTVSPost2010Prop47
 90
       50
102
RTVSPost2010PropOp47
 70
     1
102
RTVSPost2010Prop48
 90
       50
102
RTVSPost2010PropOp48
 70
     1
102
RTVSPost2010Prop49
280
     0
102
RTVSPost2010PropOp49
 70
     1
102
RTVSPost2010Prop50
 90
       50
102
RTVSPost2010PropOp50
 70
     1
102
RTVSPost2010Prop51ColorIndex
 90
      256
102
RTVSPost2010Prop51ColorRGB
 90
-16777216
102
RTVSPost2010PropOp51
 70
     0
102
RTVSPost2010Prop52
140
1.0
102
RTVSPost2010PropOp52
 70
     0
102
RTVSPost2010Prop53
 90
        2
102
RTVSPost2010PropOp53
 70
     1
102
RTVSPost2010Prop54
  1
strokes_ogs.tif
102
RTVSPost2010PropOp54
 70
     1
102
RTVSPost2010Prop55
280
     0
102
RTVSPost2010PropOp55
 70
     1
102
RTVSPost2010Prop56
140
1.0
102
RTVSPost2010PropOp56
 70
     1
102
RTVSPost2010Prop57
140
1.0
102
RTVSPost2010PropOp57
 70
     1
  0
XRECORD
  5
190
102
{ACAD_REACTORS
330
18F
102
}
330
18F
100
AcDbXrecord
280
     1
102
RTVSPost2010Prop28
280
     0
102
RTVSPost2010PropOp28
 70
     1
102
RTVSPost2010Prop29
280
     1
102
RTVSPost2010PropOp29
 70
     1
102
RTVSPost2010Prop30
280
     1
102
RTVSPost2010PropOp30
 70
     1
102
RTVSPost2010Prop31
280
     0
102
RTVSPost2010PropOp31
 70
     1
102
RTVSPost2010Prop32
280
     0
102
RTVSPost2010PropOp32
 70
     1
102
RTVSPost2010Prop33
280
     0
102
RTVSPost2010PropOp33
 70
     1
102
RTVSPost2010Prop34
280
     0
102
RTVSPost2010PropOp34
 70
     1
102
RTVSPost2010Prop35
280
     0
102
RTVSPost2010PropOp35
 70
     1
102
RTVSPost2010Prop36
280
     0
102
RTVSPost2010PropOp36
 70
     1
102
RTVSPost2010Prop37
 90
       50
102
RTVSPost2010PropOp37
 70
     1
102
RTVSPost2010Prop38
140
0.0
102
RTVSPost2010PropOp38
 70
     1
102
RTVSPost2010Prop39
140
1.0
102
RTVSPost2010PropOp39
 70
     1
102
RTVSPost2010Prop40
 90
        0
102
RTVSPost2010PropOp40
 70
     1
102
RTVSPost2010Prop41ColorIndex
 90
       18
102
RTVSPost2010Prop41ColorRGB
 90
        0
102
RTVSPost2010PropOp41
 70
     1
102
RTVSPost2010Prop42
 90
       50
102
RTVSPost2010PropOp42
 70
     1
102
RTVSPost2010Prop43
 90
        3
102
RTVSPost2010PropOp43
 70
     1
102
RTVSPost2010Prop44ColorIndex
 90
        5
102
RTVSPost2010Prop44ColorRGB
 90
      255
102
RTVSPost2010PropOp44
 70
     1
102
RTVSPost2010Prop45
280
     0
102
RTVSPost2010PropOp45
 70
     1
102
RTVSPost2010Prop46
 90
       50
102
RTVSPost2010PropOp46
 70
     1
102
RTVSPost2010Prop47
 90
       50
102
RTVSPost2010PropOp47
 70
     1
102
RTVSPost2010Prop48
 90
       50
102
RTVSPost2010PropOp48
 70
     1
102
RTVSPost2010Prop49
280
     0
102
RTVSPost2010PropOp49
 70
     1
102
RTVSPost2010Prop50
 90
       50
102
RTVSPost2010PropOp50
 70
     1
102
RTVSPost2010Prop51ColorIndex
 90
      256
102
RTVSPost2010Prop51ColorRGB
 90
-16777216
102
RTVSPost2010PropOp51
 70
     0
102
RTVSPost2010Prop52
140
1.0
102
RTVSPost2010PropOp52
 70
     0
102
RTVSPost2010Prop53
 90
        2
102
RTVSPost2010PropOp53
 70
     1
102
RTVSPost2010Prop54
  1
strokes_ogs.tif
102
RTVSPost2010PropOp54
 70
     1
102
RTVSPost2010Prop55
280
     0
102
RTVSPost2010PropOp55
 70
     1
102
RTVSPost2010Prop56
140
1.0
102
RTVSPost2010PropOp56
 70
     1
102
RTVSPost2010Prop57
140
1.0
102
RTVSPost2010PropOp57
 70
     1
  0
XRECORD
  5
186
102
{ACAD_REACTORS
330
185
102
}
330
185
100
AcDbXrecord
280
     1
102
RTVSPost2010Prop28
280
     0
102
RTVSPost2010PropOp28
 70
     1
102
RTVSPost2010Prop29
280
     1
102
RTVSPost2010PropOp29
 70
     1
102
RTVSPost2010Prop30
280
     1
102
RTVSPost2010PropOp30
 70
     1
102
RTVSPost2010Prop31
280
     0
102
RTVSPost2010PropOp31
 70
     1
102
RTVSPost2010Prop32
280
     0
102
RTVSPost2010PropOp32
 70
     1
102
RTVSPost2010Prop33
280
     0
102
RTVSPost2010PropOp33
 70
     1
102
RTVSPost2010Prop34
280
     0
102
RTVSPost2010PropOp34
 70
     1
102
RTVSPost2010Prop35
280
     0
102
RTVSPost2010PropOp35
 70
     1
102
RTVSPost2010Prop36
280
     0
102
RTVSPost2010PropOp36
 70
     1
102
RTVSPost2010Prop37
 90
       50
102
RTVSPost2010PropOp37
 70
     1
102
RTVSPost2010Prop38
140
0.0
102
RTVSPost2010PropOp38
 70
     1
102
RTVSPost2010Prop39
140
1.0
102
RTVSPost2010PropOp39
 70
     1
102
RTVSPost2010Prop40
 90
        0
102
RTVSPost2010PropOp40
 70
     1
102
RTVSPost2010Prop41ColorIndex
 90
       18
102
RTVSPost2010Prop41ColorRGB
 90
        0
102
RTVSPost2010PropOp41
 70
     1
102
RTVSPost2010Prop42
 90
       50
102
RTVSPost2010PropOp42
 70
     1
102
RTVSPost2010Prop43
 90
        3
102
RTVSPost2010PropOp43
 70
     1
102
RTVSPost2010Prop44ColorIndex
 90
        5
102
RTVSPost2010Prop44ColorRGB
 90
      255
102
RTVSPost2010PropOp44
 70
     1
102
RTVSPost2010Prop45
280
     0
102
RTVSPost2010PropOp45
 70
     1
102
RTVSPost2010Prop46
 90
       50
102
RTVSPost2010PropOp46
 70
     1
102
RTVSPost2010Prop47
 90
       50
102
RTVSPost2010PropOp47
 70
     1
102
RTVSPost2010Prop48
 90
       50
102
RTVSPost2010PropOp48
 70
     1
102
RTVSPost2010Prop49
280
     0
102
RTVSPost2010PropOp49
 70
     1
102
RTVSPost2010Prop50
 90
       50
102
RTVSPost2010PropOp50
 70
     1
102
RTVSPost2010Prop51ColorIndex
 90
      256
102
RTVSPost2010Prop51ColorRGB
 90
-16777216
102
RTVSPost2010PropOp51
 70
     0
102
RTVSPost2010Prop52
140
1.0
102
RTVSPost2010PropOp52
 70
     0
102
RTVSPost2010Prop53
 90
        2
102
RTVSPost2010PropOp53
 70
     1
102
RTVSPost2010Prop54
  1
strokes_ogs.tif
102
RTVSPost2010PropOp54
 70
     1
102
RTVSPost2010Prop55
280
     0
102
RTVSPost2010PropOp55
 70
     1
102
RTVSPost2010Prop56
140
1.0
102
RTVSPost2010PropOp56
 70
     1
102
RTVSPost2010Prop57
140
1.0
102
RTVSPost2010PropOp57
 70
     1
  0
XRECORD
  5
17A
102
{ACAD_REACTORS
330
179
102
}
330
179
100
AcDbXrecord
280
     1
102
RTVSPost2010Prop28
280
     0
102
RTVSPost2010PropOp28
 70
     1
102
RTVSPost2010Prop29
280
     1
102
RTVSPost2010PropOp29
 70
     1
102
RTVSPost2010Prop30
280
     1
102
RTVSPost2010PropOp30
 70
     1
102
RTVSPost2010Prop31
280
     0
102
RTVSPost2010PropOp31
 70
     1
102
RTVSPost2010Prop32
280
     0
102
RTVSPost2010PropOp32
 70
     1
102
RTVSPost2010Prop33
280
     0
102
RTVSPost2010PropOp33
 70
     1
102
RTVSPost2010Prop34
280
     0
102
RTVSPost2010PropOp34
 70
     1
102
RTVSPost2010Prop35
280
     0
102
RTVSPost2010PropOp35
 70
     1
102
RTVSPost2010Prop36
280
     0
102
RTVSPost2010PropOp36
 70
     1
102
RTVSPost2010Prop37
 90
       50
102
RTVSPost2010PropOp37
 70
     1
102
RTVSPost2010Prop38
140
0.0
102
RTVSPost2010PropOp38
 70
     1
102
RTVSPost2010Prop39
140
1.0
102
RTVSPost2010PropOp39
 70
     1
102
RTVSPost2010Prop40
 90
        0
102
RTVSPost2010PropOp40
 70
     1
102
RTVSPost2010Prop41ColorIndex
 90
       18
102
RTVSPost2010Prop41ColorRGB
 90
        0
102
RTVSPost2010PropOp41
 70
     1
102
RTVSPost2010Prop42
 90
       50
102
RTVSPost2010PropOp42
 70
     1
102
RTVSPost2010Prop43
 90
        3
102
RTVSPost2010PropOp43
 70
     1
102
RTVSPost2010Prop44ColorIndex
 90
        5
102
RTVSPost2010Prop44ColorRGB
 90
      255
102
RTVSPost2010PropOp44
 70
     1
102
RTVSPost2010Prop45
280
     0
102
RTVSPost2010PropOp45
 70
     1
102
RTVSPost2010Prop46
 90
       50
102
RTVSPost2010PropOp46
 70
     1
102
RTVSPost2010Prop47
 90
       50
102
RTVSPost2010PropOp47
 70
     1
102
RTVSPost2010Prop48
 90
       50
102
RTVSPost2010PropOp48
 70
     1
102
RTVSPost2010Prop49
280
     0
102
RTVSPost2010PropOp49
 70
     1
102
RTVSPost2010Prop50
 90
       50
102
RTVSPost2010PropOp50
 70
     1
102
RTVSPost2010Prop51ColorIndex
 90
      256
102
RTVSPost2010Prop51ColorRGB
 90
-16777216
102
RTVSPost2010PropOp51
 70
     0
102
RTVSPost2010Prop52
140
1.0
102
RTVSPost2010PropOp52
 70
     0
102
RTVSPost2010Prop53
 90
        2
102
RTVSPost2010PropOp53
 70
     1
102
RTVSPost2010Prop54
  1
strokes_ogs.tif
102
RTVSPost2010PropOp54
 70
     1
102
RTVSPost2010Prop55
280
     0
102
RTVSPost2010PropOp55
 70
     1
102
RTVSPost2010Prop56
140
1.0
102
RTVSPost2010PropOp56
 70
     1
102
RTVSPost2010Prop57
140
1.0
102
RTVSPost2010PropOp57
 70
     1
  0
XRECORD
  5
192
102
{ACAD_REACTORS
330
191
102
}
330
191
100
AcDbXrecord
280
     1
102
RTVSPost2010Prop28
280
     0
102
RTVSPost2010PropOp28
 70
     1
102
RTVSPost2010Prop29
280
     1
102
RTVSPost2010PropOp29
 70
     1
102
RTVSPost2010Prop30
280
     1
102
RTVSPost2010PropOp30
 70
     1
102
RTVSPost2010Prop31
280
     0
102
RTVSPost2010PropOp31
 70
     1
102
RTVSPost2010Prop32
280
     0
102
RTVSPost2010PropOp32
 70
     1
102
RTVSPost2010Prop33
280
     0
102
RTVSPost2010PropOp33
 70
     1
102
RTVSPost2010Prop34
280
     0
102
RTVSPost2010PropOp34
 70
     1
102
RTVSPost2010Prop35
280
     0
102
RTVSPost2010PropOp35
 70
     1
102
RTVSPost2010Prop36
280
     0
102
RTVSPost2010PropOp36
 70
     1
102
RTVSPost2010Prop37
 90
       50
102
RTVSPost2010PropOp37
 70
     1
102
RTVSPost2010Prop38
140
0.0
102
RTVSPost2010PropOp38
 70
     1
102
RTVSPost2010Prop39
140
1.0
102
RTVSPost2010PropOp39
 70
     1
102
RTVSPost2010Prop40
 90
        0
102
RTVSPost2010PropOp40
 70
     1
102
RTVSPost2010Prop41ColorIndex
 90
       18
102
RTVSPost2010Prop41ColorRGB
 90
        0
102
RTVSPost2010PropOp41
 70
     1
102
RTVSPost2010Prop42
 90
       50
102
RTVSPost2010PropOp42
 70
     1
102
RTVSPost2010Prop43
 90
        3
102
RTVSPost2010PropOp43
 70
     1
102
RTVSPost2010Prop44ColorIndex
 90
        5
102
RTVSPost2010Prop44ColorRGB
 90
      255
102
RTVSPost2010PropOp44
 70
     1
102
RTVSPost2010Prop45
280
     0
102
RTVSPost2010PropOp45
 70
     1
102
RTVSPost2010Prop46
 90
       50
102
RTVSPost2010PropOp46
 70
     1
102
RTVSPost2010Prop47
 90
       50
102
RTVSPost2010PropOp47
 70
     1
102
RTVSPost2010Prop48
 90
       50
102
RTVSPost2010PropOp48
 70
     1
102
RTVSPost2010Prop49
280
     0
102
RTVSPost2010PropOp49
 70
     1
102
RTVSPost2010Prop50
 90
       50
102
RTVSPost2010PropOp50
 70
     1
102
RTVSPost2010Prop51ColorIndex
 90
      256
102
RTVSPost2010Prop51ColorRGB
 90
-16777216
102
RTVSPost2010PropOp51
 70
     0
102
RTVSPost2010Prop52
140
1.0
102
RTVSPost2010PropOp52
 70
     0
102
RTVSPost2010Prop53
 90
        2
102
RTVSPost2010PropOp53
 70
     1
102
RTVSPost2010Prop54
  1
strokes_ogs.tif
102
RTVSPost2010PropOp54
 70
     1
102
RTVSPost2010Prop55
280
     0
102
RTVSPost2010PropOp55
 70
     1
102
RTVSPost2010Prop56
140
1.0
102
RTVSPost2010PropOp56
 70
     1
102
RTVSPost2010Prop57
140
1.0
102
RTVSPost2010PropOp57
 70
     1
  0
ENDSEC
  0
EOF
