  0
SECTION
  2
HEADER
  9
$ACADVER
  1
AC1024
  9
$ACADMAINTVER
 70
     6
  9
$DWGCODEPAGE
  3
UNDEFINED
  9
$INSBASE
 10
0.0
 20
0.0
 30
0.0
  9
$EXTMIN
 10
1.000000000000000E+20
 20
1.000000000000000E+20
 30
1.000000000000000E+20
  9
$EXTMAX
 10
-1.000000000000000E+20
 20
-1.000000000000000E+20
 30
-1.000000000000000E+20
  9
$LIMMIN
 10
0.0
 20
0.0
  9
$LIMMAX
 10
12.0
 20
9.0
  9
$ORTHOMODE
 70
     0
  9
$REGENMODE
 70
     1
  9
$FILLMODE
 70
     1
  9
$QTEXTMODE
 70
     0
  9
$MIRRTEXT
 70
     1
  9
$LTSCALE
 40
1.0
  9
$ATTMODE
 70
     1
  9
$TEXTSIZE
 40
0.2
  9
$TRACEWID
 40
0.05
  9
$TEXTSTYLE
  7
Standard
  9
$CLAYER
  8
0
  9
$CELTYPE
  6
ByLayer
  9
$CECOLOR
 62
   256
  9
$CELTSCALE
 40
1.0
  9
$DISPSILH
 70
     0
  9
$DIMSCALE
 40
1.0
  9
$DIMASZ
 40
0.18
  9
$DIMEXO
 40
0.0625
  9
$DIMDLI
 40
0.38
  9
$DIMRND
 40
0.0
  9
$DIMDLE
 40
0.0
  9
$DIMEXE
 40
0.18
  9
$DIMTP
 40
0.0
  9
$DIMTM
 40
0.0
  9
$DIMTXT
 40
0.18
  9
$DIMCEN
 40
0.09
  9
$DIMTSZ
 40
0.0
  9
$DIMTOL
 70
     0
  9
$DIMLIM
 70
     0
  9
$DIMTIH
 70
     1
  9
$DIMTOH
 70
     1
  9
$DIMSE1
 70
     0
  9
$DIMSE2
 70
     0
  9
$DIMTAD
 70
     0
  9
$DIMZIN
 70
     0
  9
$DIMBLK
  1

  9
$DIMASO
 70
     1
  9
$DIMSHO
 70
     1
  9
$DIMPOST
  1

  9
$DIMAPOST
  1

  9
$DIMALT
 70
     0
  9
$DIMALTD
 70
     2
  9
$DIMALTF
 40
25.4
  9
$DIMLFAC
 40
1.0
  9
$DIMTOFL
 70
     0
  9
$DIMTVP
 40
0.0
  9
$DIMTIX
 70
     0
  9
$DIMSOXD
 70
     0
  9
$DIMSAH
 70
     0
  9
$DIMBLK1
  1

  9
$DIMBLK2
  1

  9
$DIMSTYLE
  2
Standard
  9
$DIMCLRD
 70
     0
  9
$DIMCLRE
 70
     0
  9
$DIMCLRT
 70
     0
  9
$DIMTFAC
 40
1.0
  9
$DIMGAP
 40
0.09
  9
$DIMJUST
 70
     0
  9
$DIMSD1
 70
     0
  9
$DIMSD2
 70
     0
  9
$DIMTOLJ
 70
     1
  9
$DIMTZIN
 70
     0
  9
$DIMALTZ
 70
     0
  9
$DIMALTTZ
 70
     0
  9
$DIMUPT
 70
     0
  9
$DIMDEC
 70
     4
  9
$DIMTDEC
 70
     4
  9
$DIMALTU
 70
     2
  9
$DIMALTTD
 70
     2
  9
$DIMTXSTY
  7
Standard
  9
$DIMAUNIT
 70
     0
  9
$DIMADEC
 70
     0
  9
$DIMALTRND
 40
0.0
  9
$DIMAZIN
 70
     0
  9
$DIMDSEP
 70
    46
  9
$DIMATFIT
 70
     3
  9
$DIMFRAC
 70
     0
  9
$DIMLDRBLK
  1

  9
$DIMLUNIT
 70
     2
  9
$DIMLWD
 70
    -2
  9
$DIMLWE
 70
    -2
  9
$DIMTMOVE
 70
     0
  9
$DIMFXL
 40
1.0
  9
$DIMFXLON
 70
     0
  9
$DIMJOGANG
 40
0.7853981633974483
  9
$DIMTFILL
 70
     0
  9
$DIMTFILLCLR
 70
     0
  9
$DIMARCSYM
 70
     0
  9
$DIMLTYPE
  6

  9
$DIMLTEX1
  6

  9
$DIMLTEX2
  6

  9
$DIMTXTDIRECTION
 70
     0
  9
$LUNITS
 70
     2
  9
$LUPREC
 70
     4
  9
$SKETCHINC
 40
0.1
  9
$FILLETRAD
 40
0.5
  9
$AUNITS
 70
     0
  9
$AUPREC
 70
     0
  9
$MENU
  1
.
  9
$ELEVATION
 40
0.0
  9
$PELEVATION
 40
0.0
  9
$THICKNESS
 40
0.0
  9
$LIMCHECK
 70
     0
  9
$CHAMFERA
 40
0.5
  9
$CHAMFERB
 40
0.5
  9
$CHAMFERC
 40
1.0
  9
$CHAMFERD
 40
0.0
  9
$SKPOLY
 70
     0
  9
$TDCREATE
 40
2457917.60119213
  9
$TDUCREATE
 40
2457917.22619213
  9
$TDUPDATE
 40
2457917.60119213
  9
$TDUUPDATE
 40
2457917.22619213
  9
$TDINDWG
 40
0.0000000116
  9
$TDUSRTIMER
 40
0.0000000116
  9
$USRTIMER
 70
     1
  9
$ANGBASE
 50
0.0
  9
$ANGDIR
 70
     0
  9
$PDMODE
 70
     0
  9
$PDSIZE
 40
0.0
  9
$PLINEWID
 40
0.0
  9
$SPLFRAME
 70
     0
  9
$SPLINETYPE
 70
     6
  9
$SPLINESEGS
 70
     8
  9
$HANDSEED
  5
126
  9
$SURFTAB1
 70
     6
  9
$SURFTAB2
 70
     6
  9
$SURFTYPE
 70
     6
  9
$SURFU
 70
     6
  9
$SURFV
 70
     6
  9
$UCSBASE
  2

  9
$UCSNAME
  2

  9
$UCSORG
 10
0.0
 20
0.0
 30
0.0
  9
$UCSXDIR
 10
1.0
 20
0.0
 30
0.0
  9
$UCSYDIR
 10
0.0
 20
1.0
 30
0.0
  9
$UCSORTHOREF
  2

  9
$UCSORTHOVIEW
 70
     0
  9
$UCSORGTOP
 10
0.0
 20
0.0
 30
0.0
  9
$UCSORGBOTTOM
 10
0.0
 20
0.0
 30
0.0
  9
$UCSORGLEFT
 10
0.0
 20
0.0
 30
0.0
  9
$UCSORGRIGHT
 10
0.0
 20
0.0
 30
0.0
  9
$UCSORGFRONT
 10
0.0
 20
0.0
 30
0.0
  9
$UCSORGBACK
 10
0.0
 20
0.0
 30
0.0
  9
$PUCSBASE
  2

  9
$PUCSNAME
  2

  9
$PUCSORG
 10
0.0
 20
0.0
 30
0.0
  9
$PUCSXDIR
 10
1.0
 20
0.0
 30
0.0
  9
$PUCSYDIR
 10
0.0
 20
1.0
 30
0.0
  9
$PUCSORTHOREF
  2

  9
$PUCSORTHOVIEW
 70
     0
  9
$PUCSORGTOP
 10
0.0
 20
0.0
 30
0.0
  9
$PUCSORGBOTTOM
 10
0.0
 20
0.0
 30
0.0
  9
$PUCSORGLEFT
 10
0.0
 20
0.0
 30
0.0
  9
$PUCSORGRIGHT
 10
0.0
 20
0.0
 30
0.0
  9
$PUCSORGFRONT
 10
0.0
 20
0.0
 30
0.0
  9
$PUCSORGBACK
 10
0.0
 20
0.0
 30
0.0
  9
$USERI1
 70
     0
  9
$USERI2
 70
     0
  9
$USERI3
 70
     0
  9
$USERI4
 70
     0
  9
$USERI5
 70
     0
  9
$USERR1
 40
0.0
  9
$USERR2
 40
0.0
  9
$USERR3
 40
0.0
  9
$USERR4
 40
0.0
  9
$USERR5
 40
0.0
  9
$WORLDVIEW
 70
     1
  9
$SHADEDGE
 70
     3
  9
$SHADEDIF
 70
    70
  9
$TILEMODE
 70
     1
  9
$MAXACTVP
 70
    64
  9
$PINSBASE
 10
0.0
 20
0.0
 30
0.0
  9
$PLIMCHECK
 70
     0
  9
$PEXTMIN
 10
1.000000000000000E+20
 20
1.000000000000000E+20
 30
1.000000000000000E+20
  9
$PEXTMAX
 10
-1.000000000000000E+20
 20
-1.000000000000000E+20
 30
-1.000000000000000E+20
  9
$PLIMMIN
 10
0.0
 20
0.0
  9
$PLIMMAX
 10
12.0
 20
9.0
  9
$UNITMODE
 70
     0
  9
$VISRETAIN
 70
     1
  9
$PLINEGEN
 70
     0
  9
$PSLTSCALE
 70
     1
  9
$TREEDEPTH
 70
  3020
  9
$CMLSTYLE
  2
Standard
  9
$CMLJUST
 70
     0
  9
$CMLSCALE
 40
1.0
  9
$PROXYGRAPHICS
 70
     1
  9
$MEASUREMENT
 70
     0
  9
$CELWEIGHT
370
    -1
  9
$ENDCAPS
280
     0
  9
$JOINSTYLE
280
     0
  9
$LWDISPLAY
290
     1
  9
$INSUNITS
 70
     1
  9
$HYPERLINKBASE
  1

  9
$STYLESHEET
  1

  9
$XEDIT
290
     1
  9
$CEPSNTYPE
380
     0
  9
$PSTYLEMODE
290
     1
  9
$FINGERPRINTGUID
  2
{7A2C33AC-6B56-7A8B-09E8-F39DBFDA45AE}
  9
$VERSIONGUID
  2
{FAEB1C32-E019-11D5-929B-00C0DF256EC4}
  9
$EXTNAMES
290
     1
  9
$PSVPSCALE
 40
0.0
  9
$OLESTARTUP
290
     0
  9
$SORTENTS
280
   127
  9
$INDEXCTL
280
     0
  9
$HIDETEXT
280
     1
  9
$XCLIPFRAME
280
     2
  9
$HALOGAP
280
     0
  9
$OBSCOLOR
 70
   257
  9
$OBSLTYPE
280
     0
  9
$INTERSECTIONDISPLAY
280
     0
  9
$INTERSECTIONCOLOR
 70
   257
  9
$DIMASSOC
280
     2
  9
$PROJECTNAME
  1

  9
$CAMERADISPLAY
290
     0
  9
$LENSLENGTH
 40
50.0
  9
$CAMERAHEIGHT
 40
0.0
  9
$STEPSPERSEC
 40
2.0
  9
$STEPSIZE
 40
6.0
  9
$3DDWFPREC
 40
2.0
  9
$PSOLWIDTH
 40
0.25
  9
$PSOLHEIGHT
 40
4.0
  9
$LOFTANG1
 40
1.570796326794897
  9
$LOFTANG2
 40
1.570796326794897
  9
$LOFTMAG1
 40
0.0
  9
$LOFTMAG2
 40
0.0
  9
$LOFTPARAM
 70
     7
  9
$LOFTNORMALS
280
     1
  9
$LATITUDE
 40
37.795
  9
$LONGITUDE
 40
-122.394
  9
$NORTHDIRECTION
 40
0.0
  9
$TIMEZONE
 70
 -8000
  9
$LIGHTGLYPHDISPLAY
280
     1
  9
$TILEMODELIGHTSYNCH
280
     1
  9
$CMATERIAL
347
3C
  9
$SOLIDHIST
280
     1
  9
$SHOWHIST
280
     1
  9
$DWFFRAME
280
     2
  9
$DGNFRAME
280
     2
  9
$REALWORLDSCALE
290
     1
  9
$INTERFERECOLOR
 62
   256
  9
$CSHADOW
280
     0
  9
$SHADOWPLANELOCATION
 40
0.0
  0
ENDSEC
  0
SECTION
  2
CLASSES
  0
CLASS
  1
ACDBDICTIONARYWDFLT
  2
AcDbDictionaryWithDefault
  3
ObjectDBX Classes
 90
        0
 91
        4
280
     0
281
     0
  0
CLASS
  1
VISUALSTYLE
  2
AcDbVisualStyle
  3
ObjectDBX Classes
 90
     4095
 91
        4
280
     0
281
     0
  0
CLASS
  1
MATERIAL
  2
AcDbMaterial
  3
ObjectDBX Classes
 90
     1153
 91
        4
280
     0
281
     0
  0
CLASS
  1
SUN
  2
AcDbSun
  3
SCENEOE
 90
     1024
 91
        4
280
     0
281
     0
  0
ENDSEC
  0
SECTION
  2
TABLES
  0
TABLE
  2
VPORT
  5
8
330
0
100
AcDbSymbolTable
 70
     1
  0
VPORT
  5
29
330
8
100
AcDbSymbolTableRecord
100
AcDbViewportTableRecord
  2
*Active
 70
     0
 10
0.0
 20
0.0
 11
1.0
 21
1.0
 12
0.0
 22
0.0
 13
0.0
 23
0.0
 14
0.5
 24
0.5
 15
0.5
 25
0.5
 16
0.0
 26
0.0
 36
1.0
 17
91.00082462281999
 27
-128.4993055234307
 37
0.0
 40
256.9986110468615
 41
0.7081814508812795
 42
50.0
 43
0.0
 44
0.0
 50
0.0
 51
0.0
 71
     0
 72
   100
 73
     1
 74
     3
 75
     0
 76
     0
 77
     0
 78
     0
281
     0
 65
     1
110
0.0
120
0.0
130
0.0
111
1.0
121
0.0
131
0.0
112
0.0
122
1.0
132
0.0
 79
     0
146
0.0
 60
     3
 61
     5
292
     1
282
     1
141
0.0
142
0.0
 63
   250
361
3F
  0
ENDTAB
  0
TABLE
  2
LTYPE
  5
5
330
0
100
AcDbSymbolTable
 70
     1
  0
LTYPE
  5
14
330
5
100
AcDbSymbolTableRecord
100
AcDbLinetypeTableRecord
  2
ByBlock
 70
     0
  3

 72
    65
 73
     0
 40
0.0
  0
LTYPE
  5
15
330
5
100
AcDbSymbolTableRecord
100
AcDbLinetypeTableRecord
  2
ByLayer
 70
     0
  3

 72
    65
 73
     0
 40
0.0
  0
LTYPE
  5
16
330
5
100
AcDbSymbolTableRecord
100
AcDbLinetypeTableRecord
  2
Continuous
 70
     0
  3
Solid line
 72
    65
 73
     0
 40
0.0
  0
ENDTAB
  0
TABLE
  2
LAYER
  5
2
330
0
100
AcDbSymbolTable
 70
     2
  0
LAYER
  5
10
330
2
100
AcDbSymbolTableRecord
100
AcDbLayerTableRecord
  2
0
 70
     0
 62
     7
  6
Continuous
370
    -3
390
F
347
3E
  0
LAYER
  5
40
330
2
100
AcDbSymbolTableRecord
100
AcDbLayerTableRecord
  2
_U+30EC_U+30A4_U+30E4_U+30FC 1
 70
     0
 62
     7
  6
Continuous
370
    -3
390
F
347
3E
  0
ENDTAB
  0
TABLE
  2
STYLE
  5
3
330
0
100
AcDbSymbolTable
 70
     1
  0
STYLE
  5
11
330
3
100
AcDbSymbolTableRecord
100
AcDbTextStyleTableRecord
  2
Standard
 70
     0
 40
0.0
 41
1.0
 50
0.0
 71
     0
 42
0.2
  3
txt
  4

  0
ENDTAB
  0
TABLE
  2
VIEW
  5
6
330
0
100
AcDbSymbolTable
 70
     0
  0
ENDTAB
  0
TABLE
  2
UCS
  5
7
330
0
100
AcDbSymbolTable
 70
     0
  0
ENDTAB
  0
TABLE
  2
APPID
  5
9
330
0
100
AcDbSymbolTable
 70
     1
  0
APPID
  5
12
330
9
100
AcDbSymbolTableRecord
100
AcDbRegAppTableRecord
  2
ACAD
 70
     0
  0
ENDTAB
  0
TABLE
  2
DIMSTYLE
  5
A
330
0
100
AcDbSymbolTable
 70
     1
100
AcDbDimStyleTable
  0
DIMSTYLE
105
27
330
A
100
AcDbSymbolTableRecord
100
AcDbDimStyleTableRecord
  2
Standard
 70
     0
178
     0
340
11
  0
ENDTAB
  0
TABLE
  2
BLOCK_RECORD
  5
1
330
0
100
AcDbSymbolTable
 70
     9
  0
BLOCK_RECORD
  5
1F
330
1
100
AcDbSymbolTableRecord
100
AcDbBlockTableRecord
  2
*Model_Space
340
22
 70
     0
280
     1
281
     0
  0
BLOCK_RECORD
  5
1B
330
1
100
AcDbSymbolTableRecord
100
AcDbBlockTableRecord
  2
*Paper_Space
340
1E
 70
     0
280
     1
281
     0
  0
BLOCK_RECORD
  5
23
330
1
100
AcDbSymbolTableRecord
100
AcDbBlockTableRecord
  2
*Paper_Space0
340
26
 70
     0
280
     1
281
     0
  0
BLOCK_RECORD
  5
4D
330
1
100
AcDbSymbolTableRecord
100
AcDbBlockTableRecord
  2
block 2
340
0
102
{BLKREFS
331
4E
102
}
 70
     0
280
     1
281
     0
  0
BLOCK_RECORD
  5
69
330
1
100
AcDbSymbolTableRecord
100
AcDbBlockTableRecord
  2
block 3
340
0
102
{BLKREFS
331
6A
102
}
 70
     0
280
     1
281
     0
  0
BLOCK_RECORD
  5
9B
330
1
100
AcDbSymbolTableRecord
100
AcDbBlockTableRecord
  2
block 4
340
0
102
{BLKREFS
331
9C
102
}
 70
     0
280
     1
281
     0
  0
BLOCK_RECORD
  5
AB
330
1
100
AcDbSymbolTableRecord
100
AcDbBlockTableRecord
  2
block 5
340
0
102
{BLKREFS
331
AC
102
}
 70
     0
280
     1
281
     0
  0
BLOCK_RECORD
  5
B1
330
1
100
AcDbSymbolTableRecord
100
AcDbBlockTableRecord
  2
block 6
340
0
102
{BLKREFS
331
B2
102
}
 70
     0
280
     1
281
     0
  0
BLOCK_RECORD
  5
C5
330
1
100
AcDbSymbolTableRecord
100
AcDbBlockTableRecord
  2
block 7
340
0
102
{BLKREFS
331
C6
102
}
 70
     0
280
     1
281
     0
  0
BLOCK_RECORD
  5
E0
330
1
100
AcDbSymbolTableRecord
100
AcDbBlockTableRecord
  2
block 8
340
0
102
{BLKREFS
331
E1
102
}
 70
     0
280
     1
281
     0
  0
BLOCK_RECORD
  5
100
330
1
100
AcDbSymbolTableRecord
100
AcDbBlockTableRecord
  2
block 9
340
0
102
{BLKREFS
331
101
102
}
 70
     0
280
     1
281
     0
  0
ENDTAB
  0
ENDSEC
  0
SECTION
  2
BLOCKS
  0
BLOCK
  5
20
330
1F
100
AcDbEntity
  8
0
100
AcDbBlockBegin
  2
*Model_Space
 70
     0
 10
0.0
 20
0.0
 30
0.0
  3
*Model_Space
  1

  0
ENDBLK
  5
21
330
1F
100
AcDbEntity
  8
0
100
AcDbBlockEnd
  0
BLOCK
  5
1C
330
1B
100
AcDbEntity
 67
     1
  8
0
100
AcDbBlockBegin
  2
*Paper_Space
 70
     0
 10
0.0
 20
0.0
 30
0.0
  3
*Paper_Space
  1

  0
ENDBLK
  5
1D
330
1B
100
AcDbEntity
 67
     1
  8
0
100
AcDbBlockEnd
  0
BLOCK
  5
24
330
23
100
AcDbEntity
  8
0
100
AcDbBlockBegin
  2
*Paper_Space0
 70
     0
 10
0.0
 20
0.0
 30
0.0
  3
*Paper_Space0
  1

  0
ENDBLK
  5
25
330
23
100
AcDbEntity
  8
0
100
AcDbBlockEnd
  0
BLOCK
  5
4F
330
4D
100
AcDbEntity
  8
0
100
AcDbBlockBegin
  2
block 2
 70
     0
 10
0.0
 20
0.0
 30
0.0
  3
block 2
  1

  0
POLYLINE
  5
51
330
4D
100
AcDbEntity
  8
_U+30EC_U+30A4_U+30E4_U+30FC 1
370
     0
100
AcDb2dPolyline
 66
     1
 10
0.0
 20
0.0
 30
0.0
  0
VERTEX
  5
52
330
51
100
AcDbEntity
  8
_U+30EC_U+30A4_U+30E4_U+30FC 1
370
     0
100
AcDbVertex
100
AcDb2dVertex
 10
91.19374455185435
 20
-113.7994275974182
 30
0.0
  0
VERTEX
  5
53
330
51
100
AcDbEntity
  8
_U+30EC_U+30A4_U+30E4_U+30FC 1
370
     0
100
AcDbVertex
100
AcDb2dVertex
 10
91.19374455185435
 20
-114.1463487127829
 30
0.0
  0
VERTEX
  5
54
330
51
100
AcDbEntity
  8
_U+30EC_U+30A4_U+30E4_U+30FC 1
370
     0
100
AcDbVertex
100
AcDb2dVertex
 10
90.96102835182572
 20
-114.1463487127829
 30
0.0
  0
VERTEX
  5
55
330
51
100
AcDbEntity
  8
_U+30EC_U+30A4_U+30E4_U+30FC 1
370
     0
100
AcDbVertex
100
AcDb2dVertex
 10
90.96102835182572
 20
-113.7994275974182
 30
0.0
  0
VERTEX
  5
56
330
51
100
AcDbEntity
  8
_U+30EC_U+30A4_U+30E4_U+30FC 1
370
     0
100
AcDbVertex
100
AcDb2dVertex
 10
90.26012367535164
 20
-113.7994275974182
 30
0.0
  0
VERTEX
  5
57
330
51
100
AcDbEntity
  8
_U+30EC_U+30A4_U+30E4_U+30FC 1
370
     0
100
AcDbVertex
100
AcDb2dVertex
 10
90.26012367535164
 20
-113.5751518813284
 30
0.0
  0
VERTEX
  5
58
330
51
100
AcDbEntity
  8
_U+30EC_U+30A4_U+30E4_U+30FC 1
370
     0
100
AcDbVertex
100
AcDb2dVertex
 10
90.98583303931952
 20
-112.6019124067454
 30
0.0
  0
VERTEX
  5
59
330
51
100
AcDbEntity
  8
_U+30EC_U+30A4_U+30E4_U+30FC 1
370
     0
100
AcDbVertex
100
AcDb2dVertex
 10
91.19374455185435
 20
-112.6019124067454
 30
0.0
  0
VERTEX
  5
5A
330
51
100
AcDbEntity
  8
_U+30EC_U+30A4_U+30E4_U+30FC 1
370
     0
100
AcDbVertex
100
AcDb2dVertex
 10
91.19374455185435
 20
-113.6006455879193
 30
0.0
  0
VERTEX
  5
5B
330
51
100
AcDbEntity
  8
_U+30EC_U+30A4_U+30E4_U+30FC 1
370
     0
100
AcDbVertex
100
AcDb2dVertex
 10
91.41560870110443
 20
-113.6006455879193
 30
0.0
  0
VERTEX
  5
5C
330
51
100
AcDbEntity
  8
_U+30EC_U+30A4_U+30E4_U+30FC 1
370
     0
100
AcDbVertex
100
AcDb2dVertex
 10
91.41560870110443
 20
-113.7994275974182
 30
0.0
  0
VERTEX
  5
5D
330
51
100
AcDbEntity
  8
_U+30EC_U+30A4_U+30E4_U+30FC 1
370
     0
100
AcDbVertex
100
AcDb2dVertex
 10
91.19374455185435
 20
-113.7994275974182
 30
0.0
  0
SEQEND
  5
5E
330
51
100
AcDbEntity
  8
_U+30EC_U+30A4_U+30E4_U+30FC 1
370
     0
  0
POLYLINE
  5
5F
330
4D
100
AcDbEntity
  8
_U+30EC_U+30A4_U+30E4_U+30FC 1
370
     0
100
AcDb2dPolyline
 66
     1
 10
0.0
 20
0.0
 30
0.0
  0
VERTEX
  5
60
330
5F
100
AcDbEntity
  8
_U+30EC_U+30A4_U+30E4_U+30FC 1
370
     0
100
AcDbVertex
100
AcDb2dVertex
 10
90.96102835182572
 20
-112.9446994075277
 30
0.0
  0
VERTEX
  5
61
330
5F
100
AcDbEntity
  8
_U+30EC_U+30A4_U+30E4_U+30FC 1
370
     0
100
AcDbVertex
100
AcDb2dVertex
 10
90.4725138120173
 20
-113.6006455879193
 30
0.0
  0
VERTEX
  5
62
330
5F
100
AcDbEntity
  8
_U+30EC_U+30A4_U+30E4_U+30FC 1
370
     0
100
AcDbVertex
100
AcDb2dVertex
 10
90.96102835182572
 20
-113.6006455879193
 30
0.0
  0
VERTEX
  5
63
330
5F
100
AcDbEntity
  8
_U+30EC_U+30A4_U+30E4_U+30FC 1
370
     0
100
AcDbVertex
100
AcDb2dVertex
 10
90.96102835182572
 20
-112.9446994075277
 30
0.0
  0
SEQEND
  5
64
330
5F
100
AcDbEntity
  8
_U+30EC_U+30A4_U+30E4_U+30FC 1
370
     0
  0
HATCH
  5
65
330
4D
100
AcDbEntity
  8
_U+30EC_U+30A4_U+30E4_U+30FC 1
 62
   179
420
  2234388
100
AcDbHatch
 10
0.0
 20
0.0
 30
0.0
210
0.0
220
0.0
230
1.0
  2
SOLID
 70
     1
 71
     0
 91
        2
 92
        1
 93
       11
 72
     1
 10
91.19374455185435
 20
-113.7994275974182
 11
91.19374455185435
 21
-114.1463487127829
 72
     1
 10
91.19374455185435
 20
-114.1463487127829
 11
90.96102835182572
 21
-114.1463487127829
 72
     1
 10
90.96102835182572
 20
-114.1463487127829
 11
90.96102835182572
 21
-113.7994275974182
 72
     1
 10
90.96102835182572
 20
-113.7994275974182
 11
90.26012367535164
 21
-113.7994275974182
 72
     1
 10
90.26012367535164
 20
-113.7994275974182
 11
90.26012367535164
 21
-113.5751518813284
 72
     1
 10
90.26012367535164
 20
-113.5751518813284
 11
90.98583303931952
 21
-112.6019124067454
 72
     1
 10
90.98583303931952
 20
-112.6019124067454
 11
91.19374455185435
 21
-112.6019124067454
 72
     1
 10
91.19374455185435
 20
-112.6019124067454
 11
91.19374455185435
 21
-113.6006455879193
 72
     1
 10
91.19374455185435
 20
-113.6006455879193
 11
91.41560870110443
 21
-113.6006455879193
 72
     1
 10
91.41560870110443
 20
-113.6006455879193
 11
91.41560870110443
 21
-113.7994275974182
 72
     1
 10
91.41560870110443
 20
-113.7994275974182
 11
91.19374455185435
 21
-113.7994275974182
 97
        0
 92
        1
 93
        3
 72
     1
 10
90.96102835182572
 20
-112.9446994075277
 11
90.4725138120173
 21
-113.6006455879193
 72
     1
 10
90.4725138120173
 20
-113.6006455879193
 11
90.96102835182572
 21
-113.6006455879193
 72
     1
 10
90.96102835182572
 20
-113.6006455879193
 11
90.96102835182572
 21
-112.9446994075277
 97
        0
 75
     2
 76
     1
 98
        0
  0
SPLINE
  5
66
330
4D
100
AcDbEntity
  8
_U+30EC_U+30A4_U+30E4_U+30FC 1
370
     0
100
AcDbSpline
210
0.0
220
0.0
230
1.0
 70
    11
 71
     3
 72
    29
 73
    25
 74
     0
 42
0.0000000001
 43
0.0000000001
 12
1.0
 22
0.0
 32
0.0
 13
1.0
 23
0.0
 33
0.0
 40
0.0
 40
0.0
 40
0.0
 40
0.0
 40
1.0
 40
1.0
 40
1.0
 40
2.0
 40
2.0
 40
2.0
 40
3.0
 40
3.0
 40
3.0
 40
4.0
 40
4.0
 40
4.0
 40
5.0
 40
5.0
 40
5.0
 40
6.0
 40
6.0
 40
6.0
 40
7.0
 40
7.0
 40
7.0
 40
8.0
 40
8.0
 40
8.0
 40
8.0
 10
92.52148435186963
 20
-113.968581785744
 30
0.0
 10
92.40641816266229
 20
-114.1780435912472
 30
0.0
 10
92.22107202555584
 20
-114.196991616416
 30
0.0
 10
92.09670407853832
 20
-114.196991616416
 30
0.0
 10
91.92479381382437
 20
-114.196991616416
 30
0.0
 10
91.77320961247337
 20
-114.1504828273652
 30
0.0
 10
91.6715792956585
 20
-113.968581785744
 30
0.0
 10
91.56099173058197
 20
-113.7739338908274
 30
0.0
 10
91.54032115767048
 20
-113.5369113214422
 30
0.0
 10
91.54032115767048
 20
-113.3743028145384
 30
0.0
 10
91.54032115767048
 20
-113.2302978232549
 30
0.0
 10
91.5585801637423
 20
-112.9784613432832
 30
0.0
 10
91.6715792956585
 20
-112.7796793337843
 30
0.0
 10
91.78698999441437
 20
-112.576763209703
 30
0.0
 10
91.95855574957982
 20
-112.5533365604033
 30
0.0
 10
92.09670407853832
 20
-112.5533365604033
 30
0.0
 10
92.26620277641263
 20
-112.5533365604033
 30
0.0
 10
92.4201985446033
 20
-112.5977782921631
 30
0.0
 10
92.52148435186963
 20
-112.7796793337843
 30
0.0
 10
92.62793780236386
 20
-112.9722601714097
 30
0.0
 10
92.65308699940617
 20
-113.2006700020818
 30
0.0
 10
92.65308699940617
 20
-113.3743028145384
 30
0.0
 10
92.65308699940617
 20
-113.5455240601553
 30
0.0
 10
92.63034936920353
 20
-113.7760009481185
 30
0.0
 10
92.52148435186963
 20
-113.968581785744
 30
0.0
  0
SPLINE
  5
67
330
4D
100
AcDbEntity
  8
_U+30EC_U+30A4_U+30E4_U+30FC 1
370
     0
100
AcDbSpline
210
0.0
220
0.0
230
1.0
 70
    11
 71
     3
 72
    17
 73
    13
 74
     0
 42
0.0000000001
 43
0.0000000001
 12
1.0
 22
0.0
 32
0.0
 13
1.0
 23
0.0
 33
0.0
 40
0.0
 40
0.0
 40
0.0
 40
0.0
 40
1.0
 40
1.0
 40
1.0
 40
2.0
 40
2.0
 40
2.0
 40
3.0
 40
3.0
 40
3.0
 40
4.0
 40
4.0
 40
4.0
 40
4.0
 10
92.09670407853832
 20
-112.7459173980288
 30
0.0
 10
91.82970917843147
 20
-112.7459173980288
 30
0.0
 10
91.78009980344387
 20
-113.0294487564649
 30
0.0
 10
91.78009980344387
 20
-113.3743028145384
 30
0.0
 10
91.78009980344387
 20
-113.693663166021
 30
0.0
 10
91.81868487287866
 20
-114.0023437214994
 30
0.0
 10
92.09670407853832
 20
-114.0023437214994
 30
0.0
 10
92.360942902257
 20
-114.0023437214994
 30
0.0
 10
92.41330835363279
 20
-113.721223929903
 30
0.0
 10
92.41330835363279
 20
-113.3743028145384
 30
0.0
 10
92.41330835363279
 20
-113.0545979535072
 30
0.0
 10
92.37265622690684
 20
-112.7459173980288
 30
0.0
 10
92.09670407853832
 20
-112.7459173980288
 30
0.0
  0
HATCH
  5
68
330
4D
100
AcDbEntity
  8
_U+30EC_U+30A4_U+30E4_U+30FC 1
 62
   179
420
  2234388
100
AcDbHatch
 10
0.0
 20
0.0
 30
0.0
210
0.0
220
0.0
230
1.0
  2
SOLID
 70
     1
 71
     0
 91
        2
 92
        1
 93
        1
 72
     4
 94
        3
 73
     0
 74
     1
 95
       29
 96
       25
 40
0.0
 40
0.0
 40
0.0
 40
0.0
 40
1.0
 40
1.0
 40
1.0
 40
2.0
 40
2.0
 40
2.0
 40
3.0
 40
3.0
 40
3.0
 40
4.0
 40
4.0
 40
4.0
 40
5.0
 40
5.0
 40
5.0
 40
6.0
 40
6.0
 40
6.0
 40
7.0
 40
7.0
 40
7.0
 40
8.0
 40
8.0
 40
8.0
 40
8.0
 10
92.52148435186963
 20
-113.968581785744
 10
92.40641816266229
 20
-114.1780435912472
 10
92.22107202555584
 20
-114.196991616416
 10
92.09670407853832
 20
-114.196991616416
 10
91.92479381382437
 20
-114.196991616416
 10
91.77320961247337
 20
-114.1504828273652
 10
91.6715792956585
 20
-113.968581785744
 10
91.56099173058197
 20
-113.7739338908274
 10
91.54032115767048
 20
-113.5369113214422
 10
91.54032115767048
 20
-113.3743028145384
 10
91.54032115767048
 20
-113.2302978232549
 10
91.5585801637423
 20
-112.9784613432832
 10
91.6715792956585
 20
-112.7796793337843
 10
91.78698999441437
 20
-112.576763209703
 10
91.95855574957982
 20
-112.5533365604033
 10
92.09670407853832
 20
-112.5533365604033
 10
92.26620277641263
 20
-112.5533365604033
 10
92.4201985446033
 20
-112.5977782921631
 10
92.52148435186963
 20
-112.7796793337843
 10
92.62793780236386
 20
-112.9722601714097
 10
92.65308699940617
 20
-113.2006700020818
 10
92.65308699940617
 20
-113.3743028145384
 10
92.65308699940617
 20
-113.5455240601553
 10
92.63034936920353
 20
-113.7760009481185
 10
92.52148435186963
 20
-113.968581785744
 97
        0
 97
        0
 92
        1
 93
        1
 72
     4
 94
        3
 73
     0
 74
     1
 95
       17
 96
       13
 40
0.0
 40
0.0
 40
0.0
 40
0.0
 40
1.0
 40
1.0
 40
1.0
 40
2.0
 40
2.0
 40
2.0
 40
3.0
 40
3.0
 40
3.0
 40
4.0
 40
4.0
 40
4.0
 40
4.0
 10
92.09670407853832
 20
-112.7459173980288
 10
91.82970917843147
 20
-112.7459173980288
 10
91.78009980344387
 20
-113.0294487564649
 10
91.78009980344387
 20
-113.3743028145384
 10
91.78009980344387
 20
-113.693663166021
 10
91.81868487287866
 20
-114.0023437214994
 10
92.09670407853832
 20
-114.0023437214994
 10
92.360942902257
 20
-114.0023437214994
 10
92.41330835363279
 20
-113.721223929903
 10
92.41330835363279
 20
-113.3743028145384
 10
92.41330835363279
 20
-113.0545979535072
 10
92.37265622690684
 20
-112.7459173980288
 10
92.09670407853832
 20
-112.7459173980288
 97
        0
 97
        0
 75
     2
 76
     1
 98
        0
  0
ENDBLK
  5
50
330
4D
100
AcDbEntity
  8
0
100
AcDbBlockEnd
  0
BLOCK
  5
6B
330
69
100
AcDbEntity
  8
0
100
AcDbBlockBegin
  2
block 3
 70
     0
 10
0.0
 20
0.0
 30
0.0
  3
block 3
  1

  0
SPLINE
  5
6D
330
69
100
AcDbEntity
  8
_U+30EC_U+30A4_U+30E4_U+30FC 1
370
     0
100
AcDbSpline
210
0.0
220
0.0
230
1.0
 70
    11
 71
     3
 72
    26
 73
    22
 74
     0
 42
0.0000000001
 43
0.0000000001
 12
1.0
 22
0.0
 32
0.0
 13
1.0
 23
0.0
 33
0.0
 40
0.0
 40
0.0
 40
0.0
 40
0.0
 40
1.0
 40
1.0
 40
1.0
 40
2.0
 40
2.0
 40
2.0
 40
3.0
 40
3.0
 40
3.0
 40
4.0
 40
4.0
 40
4.0
 40
5.0
 40
5.0
 40
5.0
 40
6.0
 40
6.0
 40
6.0
 40
7.0
 40
7.0
 40
7.0
 40
7.0
 10
75.44104544554946
 20
-147.0290961003955
 30
0.0
 10
75.44104544554946
 20
-147.0290961003955
 30
0.0
 10
75.44104544554946
 20
-145.9249429973729
 30
0.0
 10
75.44104544554946
 20
-145.9249429973729
 30
0.0
 10
75.44104544554946
 20
-145.9249429973729
 30
0.0
 10
75.08826766785988
 20
-145.9249429973729
 30
0.0
 10
75.08826766785988
 20
-145.9249429973729
 30
0.0
 10
75.08826766785988
 20
-145.9249429973729
 30
0.0
 10
75.08826766785988
 20
-145.7768038915072
 30
0.0
 10
75.08826766785988
 20
-145.7768038915072
 30
0.0
 10
75.44328475761488
 20
-145.7619899809206
 30
0.0
 10
75.49306638737674
 20
-145.5990369644683
 30
0.0
 10
75.52458901106677
 20
-145.484659794358
 30
0.0
 10
75.52458901106677
 20
-145.484659794358
 30
0.0
 10
75.68065183654859
 20
-145.484659794358
 30
0.0
 10
75.68065183654859
 20
-145.484659794358
 30
0.0
 10
75.68065183654859
 20
-145.484659794358
 30
0.0
 10
75.68065183654859
 20
-147.0290961003955
 30
0.0
 10
75.68065183654859
 20
-147.0290961003955
 30
0.0
 10
75.68065183654859
 20
-147.0290961003955
 30
0.0
 10
75.44104544554946
 20
-147.0290961003955
 30
0.0
 10
75.44104544554946
 20
-147.0290961003955
 30
0.0
  0
HATCH
  5
6E
330
69
100
AcDbEntity
  8
_U+30EC_U+30A4_U+30E4_U+30FC 1
 62
   179
420
  2234388
100
AcDbHatch
 10
0.0
 20
0.0
 30
0.0
210
0.0
220
0.0
230
1.0
  2
SOLID
 70
     1
 71
     0
 91
        1
 92
        1
 93
        1
 72
     4
 94
        3
 73
     0
 74
     1
 95
       26
 96
       22
 40
0.0
 40
0.0
 40
0.0
 40
0.0
 40
1.0
 40
1.0
 40
1.0
 40
2.0
 40
2.0
 40
2.0
 40
3.0
 40
3.0
 40
3.0
 40
4.0
 40
4.0
 40
4.0
 40
5.0
 40
5.0
 40
5.0
 40
6.0
 40
6.0
 40
6.0
 40
7.0
 40
7.0
 40
7.0
 40
7.0
 10
75.44104544554946
 20
-147.0290961003955
 10
75.44104544554946
 20
-147.0290961003955
 10
75.44104544554946
 20
-145.9249429973729
 10
75.44104544554946
 20
-145.9249429973729
 10
75.44104544554946
 20
-145.9249429973729
 10
75.08826766785988
 20
-145.9249429973729
 10
75.08826766785988
 20
-145.9249429973729
 10
75.08826766785988
 20
-145.9249429973729
 10
75.08826766785988
 20
-145.7768038915072
 10
75.08826766785988
 20
-145.7768038915072
 10
75.44328475761488
 20
-145.7619899809206
 10
75.49306638737674
 20
-145.5990369644683
 10
75.52458901106677
 20
-145.484659794358
 10
75.52458901106677
 20
-145.484659794358
 10
75.68065183654859
 20
-145.484659794358
 10
75.68065183654859
 20
-145.484659794358
 10
75.68065183654859
 20
-145.484659794358
 10
75.68065183654859
 20
-147.0290961003955
 10
75.68065183654859
 20
-147.0290961003955
 10
75.68065183654859
 20
-147.0290961003955
 10
75.44104544554946
 20
-147.0290961003955
 10
75.44104544554946
 20
-147.0290961003955
 97
        0
 97
        0
 75
     2
 76
     1
 98
        0
  0
SPLINE
  5
6F
330
69
100
AcDbEntity
  8
_U+30EC_U+30A4_U+30E4_U+30FC 1
370
     0
100
AcDbSpline
210
0.0
220
0.0
230
1.0
 70
    11
 71
     3
 72
    29
 73
    25
 74
     0
 42
0.0000000001
 43
0.0000000001
 12
1.0
 22
0.0
 32
0.0
 13
1.0
 23
0.0
 33
0.0
 40
0.0
 40
0.0
 40
0.0
 40
0.0
 40
1.0
 40
1.0
 40
1.0
 40
2.0
 40
2.0
 40
2.0
 40
3.0
 40
3.0
 40
3.0
 40
4.0
 40
4.0
 40
4.0
 40
5.0
 40
5.0
 40
5.0
 40
6.0
 40
6.0
 40
6.0
 40
7.0
 40
7.0
 40
7.0
 40
8.0
 40
8.0
 40
8.0
 40
8.0
 10
77.17582327714702
 20
-146.8513291733566
 30
0.0
 10
77.06058483316541
 20
-147.0607909788598
 30
0.0
 10
76.87523869605897
 20
-147.0797390040287
 30
0.0
 10
76.75087074904145
 20
-147.0797390040287
 30
0.0
 10
76.57896048432748
 20
-147.0797390040287
 30
0.0
 10
76.42754853775075
 20
-147.0332302149778
 30
0.0
 10
76.32574596616162
 20
-146.8513291733566
 30
0.0
 10
76.21498614631084
 20
-146.65668127844
 30
0.0
 10
76.19466008294786
 20
-146.4196587090548
 30
0.0
 10
76.19466008294786
 20
-146.257050202151
 30
0.0
 10
76.19466008294786
 20
-146.1130452108676
 30
0.0
 10
76.21274683424542
 20
-145.8612087308958
 30
0.0
 10
76.32574596616162
 20
-145.6624267213969
 30
0.0
 10
76.44115666491749
 20
-145.4595105973157
 30
0.0
 10
76.6128946748572
 20
-145.436083948016
 30
0.0
 10
76.75087074904145
 20
-145.436083948016
 30
0.0
 10
76.92036944691574
 20
-145.436083948016
 30
0.0
 10
77.07419296033216
 20
-145.4805256797757
 30
0.0
 10
77.17582327714702
 20
-145.6624267213969
 30
0.0
 10
77.28210447286698
 20
-145.8550075590224
 30
0.0
 10
77.30708141513504
 20
-146.0834173896944
 30
0.0
 10
77.30708141513504
 20
-146.257050202151
 30
0.0
 10
77.30708141513504
 20
-146.4282714477679
 30
0.0
 10
77.28434378493239
 20
-146.6587483357312
 30
0.0
 10
77.17582327714702
 20
-146.8513291733566
 30
0.0
  0
SPLINE
  5
70
330
69
100
AcDbEntity
  8
_U+30EC_U+30A4_U+30E4_U+30FC 1
370
     0
100
AcDbSpline
210
0.0
220
0.0
230
1.0
 70
    11
 71
     3
 72
    17
 73
    13
 74
     0
 42
0.0000000001
 43
0.0000000001
 12
1.0
 22
0.0
 32
0.0
 13
1.0
 23
0.0
 33
0.0
 40
0.0
 40
0.0
 40
0.0
 40
0.0
 40
1.0
 40
1.0
 40
1.0
 40
2.0
 40
2.0
 40
2.0
 40
3.0
 40
3.0
 40
3.0
 40
4.0
 40
4.0
 40
4.0
 40
4.0
 10
76.75087074904145
 20
-145.6286647856415
 30
0.0
 10
76.48404810370886
 20
-145.6286647856415
 30
0.0
 10
76.43426647394699
 20
-145.9121961440775
 30
0.0
 10
76.43426647394699
 20
-146.257050202151
 30
0.0
 10
76.43426647394699
 20
-146.5764105536337
 30
0.0
 10
76.47267928860752
 20
-146.8850911091121
 30
0.0
 10
76.75087074904145
 20
-146.8850911091121
 30
0.0
 10
77.01528182753438
 20
-146.8850911091121
 30
0.0
 10
77.06730276936165
 20
-146.6039713175157
 30
0.0
 10
77.06730276936165
 20
-146.257050202151
 30
0.0
 10
77.06730276936165
 20
-145.9373453411199
 30
0.0
 10
77.0266506426357
 20
-145.6286647856415
 30
0.0
 10
76.75087074904145
 20
-145.6286647856415
 30
0.0
  0
HATCH
  5
71
330
69
100
AcDbEntity
  8
_U+30EC_U+30A4_U+30E4_U+30FC 1
 62
   179
420
  2234388
100
AcDbHatch
 10
0.0
 20
0.0
 30
0.0
210
0.0
220
0.0
230
1.0
  2
SOLID
 70
     1
 71
     0
 91
        2
 92
        1
 93
        1
 72
     4
 94
        3
 73
     0
 74
     1
 95
       29
 96
       25
 40
0.0
 40
0.0
 40
0.0
 40
0.0
 40
1.0
 40
1.0
 40
1.0
 40
2.0
 40
2.0
 40
2.0
 40
3.0
 40
3.0
 40
3.0
 40
4.0
 40
4.0
 40
4.0
 40
5.0
 40
5.0
 40
5.0
 40
6.0
 40
6.0
 40
6.0
 40
7.0
 40
7.0
 40
7.0
 40
8.0
 40
8.0
 40
8.0
 40
8.0
 10
77.17582327714702
 20
-146.8513291733566
 10
77.06058483316541
 20
-147.0607909788598
 10
76.87523869605897
 20
-147.0797390040287
 10
76.75087074904145
 20
-147.0797390040287
 10
76.57896048432748
 20
-147.0797390040287
 10
76.42754853775075
 20
-147.0332302149778
 10
76.32574596616162
 20
-146.8513291733566
 10
76.21498614631084
 20
-146.65668127844
 10
76.19466008294786
 20
-146.4196587090548
 10
76.19466008294786
 20
-146.257050202151
 10
76.19466008294786
 20
-146.1130452108676
 10
76.21274683424542
 20
-145.8612087308958
 10
76.32574596616162
 20
-145.6624267213969
 10
76.44115666491749
 20
-145.4595105973157
 10
76.6128946748572
 20
-145.436083948016
 10
76.75087074904145
 20
-145.436083948016
 10
76.92036944691574
 20
-145.436083948016
 10
77.07419296033216
 20
-145.4805256797757
 10
77.17582327714702
 20
-145.6624267213969
 10
77.28210447286698
 20
-145.8550075590224
 10
77.30708141513504
 20
-146.0834173896944
 10
77.30708141513504
 20
-146.257050202151
 10
77.30708141513504
 20
-146.4282714477679
 10
77.28434378493239
 20
-146.6587483357312
 10
77.17582327714702
 20
-146.8513291733566
 97
        0
 97
        0
 92
        1
 93
        1
 72
     4
 94
        3
 73
     0
 74
     1
 95
       17
 96
       13
 40
0.0
 40
0.0
 40
0.0
 40
0.0
 40
1.0
 40
1.0
 40
1.0
 40
2.0
 40
2.0
 40
2.0
 40
3.0
 40
3.0
 40
3.0
 40
4.0
 40
4.0
 40
4.0
 40
4.0
 10
76.75087074904145
 20
-145.6286647856415
 10
76.48404810370886
 20
-145.6286647856415
 10
76.43426647394699
 20
-145.9121961440775
 10
76.43426647394699
 20
-146.257050202151
 10
76.43426647394699
 20
-146.5764105536337
 10
76.47267928860752
 20
-146.8850911091121
 10
76.75087074904145
 20
-146.8850911091121
 10
77.01528182753438
 20
-146.8850911091121
 10
77.06730276936165
 20
-146.6039713175157
 10
77.06730276936165
 20
-146.257050202151
 10
77.06730276936165
 20
-145.9373453411199
 10
77.0266506426357
 20
-145.6286647856415
 10
76.75087074904145
 20
-145.6286647856415
 97
        0
 97
        0
 75
     2
 76
     1
 98
        0
  0
ENDBLK
  5
6C
330
69
100
AcDbEntity
  8
0
100
AcDbBlockEnd
  0
BLOCK
  5
9D
330
9B
100
AcDbEntity
  8
0
100
AcDbBlockBegin
  2
block 4
 70
     0
 10
0.0
 20
0.0
 30
0.0
  3
block 4
  1

  0
SPLINE
  5
9F
330
9B
100
AcDbEntity
  8
_U+30EC_U+30A4_U+30E4_U+30FC 1
370
     0
100
AcDbSpline
210
0.0
220
0.0
230
1.0
 70
    11
 71
     3
 72
    62
 73
    58
 74
     0
 42
0.0000000001
 43
0.0000000001
 12
1.0
 22
0.0
 32
0.0
 13
1.0
 23
0.0
 33
0.0
 40
0.0
 40
0.0
 40
0.0
 40
0.0
 40
1.0
 40
1.0
 40
1.0
 40
2.0
 40
2.0
 40
2.0
 40
3.0
 40
3.0
 40
3.0
 40
4.0
 40
4.0
 40
4.0
 40
5.0
 40
5.0
 40
5.0
 40
6.0
 40
6.0
 40
6.0
 40
7.0
 40
7.0
 40
7.0
 40
8.0
 40
8.0
 40
8.0
 40
9.0
 40
9.0
 40
9.0
 40
10.0
 40
10.0
 40
10.0
 40
11.0
 40
11.0
 40
11.0
 40
12.0
 40
12.0
 40
12.0
 40
13.0
 40
13.0
 40
13.0
 40
14.0
 40
14.0
 40
14.0
 40
15.0
 40
15.0
 40
15.0
 40
16.0
 40
16.0
 40
16.0
 40
17.0
 40
17.0
 40
17.0
 40
18.0
 40
18.0
 40
18.0
 40
19.0
 40
19.0
 40
19.0
 40
19.0
 10
80.7296115249565
 20
-119.7787353216178
 30
0.0
 10
80.7296115249565
 20
-119.8803656384327
 30
0.0
 10
80.70859644249647
 20
-120.1132540932356
 30
0.0
 10
80.52256128629297
 20
-120.246751543289
 30
0.0
 10
80.41025117347382
 20
-120.3258164846755
 30
0.0
 10
80.31103242349863
 20
-120.3302951088063
 30
0.0
 10
80.2262830745615
 20
-120.3347737329372
 30
0.0
 10
80.2262830745615
 20
-120.3347737329372
 30
0.0
 10
80.2262830745615
 20
-120.0998182208431
 30
0.0
 10
80.2262830745615
 20
-120.0998182208431
 30
0.0
 10
80.30035262749436
 20
-120.0974066540034
 30
0.0
 10
80.53496363003987
 20
-120.0862100936764
 30
0.0
 10
80.53496363003987
 20
-119.7832139457486
 30
0.0
 10
80.53496363003987
 20
-119.6362806233027
 30
0.0
 10
80.46537270123783
 20
-119.4734998616247
 30
0.0
 10
80.23696287056576
 20
-119.4734998616247
 30
0.0
 10
80.12051864316432
 20
-119.4734998616247
 30
0.0
 10
80.0719427968223
 20
-119.5141519883506
 30
0.0
 10
80.04024791835799
 20
-119.5480861788803
 30
0.0
 10
79.96617836542512
 20
-119.6271511202668
 30
0.0
 10
79.9534315121297
 20
-119.7515190672843
 30
0.0
 10
79.9534315121297
 20
-119.8104302000821
 30
0.0
 10
79.9534315121297
 20
-119.8307562634451
 30
0.0
 10
79.95549856942085
 20
-119.8691690781056
 30
0.0
 10
79.95963268400315
 20
-119.8984523897303
 30
0.0
 10
79.95963268400315
 20
-119.8984523897303
 30
0.0
 10
79.76498478908654
 20
-119.8984523897303
 30
0.0
 10
79.76498478908654
 20
-119.8984523897303
 30
0.0
 10
79.77153047050851
 20
-119.8578002630043
 30
0.0
 10
79.77359752779967
 20
-119.8126695121475
 30
0.0
 10
79.77359752779967
 20
-119.805779321177
 30
0.0
 10
79.77359752779967
 20
-119.7356716280522
 30
0.0
 10
79.75223793579111
 20
-119.5232814913865
 30
0.0
 10
79.51555987595445
 20
-119.5232814913865
 30
0.0
 10
79.33779294891555
 20
-119.5232814913865
 30
0.0
 10
79.28267142115156
 20
-119.6633246228619
 30
0.0
 10
79.28267142115156
 20
-119.7809746336832
 30
0.0
 10
79.28267142115156
 20
-120.063644718248
 30
0.0
 10
79.51555987595445
 20
-120.0726019665096
 30
0.0
 10
79.58721786204764
 20
-120.0770805906405
 30
0.0
 10
79.58721786204764
 20
-120.0770805906405
 30
0.0
 10
79.58721786204764
 20
-120.2941216062112
 30
0.0
 10
79.58721786204764
 20
-120.2941216062112
 30
0.0
 10
79.4625054054816
 20
-120.2851643579496
 30
0.0
 10
79.08595646894379
 20
-120.2557087915507
 30
0.0
 10
79.08595646894379
 20
-119.7673665065165
 30
0.0
 10
79.08595646894379
 20
-119.5277601155174
 30
0.0
 10
79.2130804923495
 20
-119.2700669732207
 30
0.0
 10
79.50901419453247
 20
-119.2700669732207
 30
0.0
 10
79.69539386028448
 20
-119.2700669732207
 30
0.0
 10
79.77773164238197
 20
-119.3716972900356
 30
0.0
 10
79.83905434201941
 20
-119.4779784857555
 30
0.0
 10
79.8666151059014
 20
-119.4125216715358
 30
0.0
 10
79.94688583070773
 20
-119.2180460313934
 30
0.0
 10
80.22421601727034
 20
-119.2180460313934
 30
0.0
 10
80.56252439392188
 20
-119.2180460313934
 30
0.0
 10
80.7296115249565
 20
-119.4824571098863
 30
0.0
 10
80.7296115249565
 20
-119.7787353216178
 30
0.0
  0
HATCH
  5
A0
330
9B
100
AcDbEntity
  8
_U+30EC_U+30A4_U+30E4_U+30FC 1
 62
   179
420
  2234388
100
AcDbHatch
 10
0.0
 20
0.0
 30
0.0
210
0.0
220
0.0
230
1.0
  2
SOLID
 70
     1
 71
     0
 91
        1
 92
        1
 93
        1
 72
     4
 94
        3
 73
     0
 74
     1
 95
       62
 96
       58
 40
0.0
 40
0.0
 40
0.0
 40
0.0
 40
1.0
 40
1.0
 40
1.0
 40
2.0
 40
2.0
 40
2.0
 40
3.0
 40
3.0
 40
3.0
 40
4.0
 40
4.0
 40
4.0
 40
5.0
 40
5.0
 40
5.0
 40
6.0
 40
6.0
 40
6.0
 40
7.0
 40
7.0
 40
7.0
 40
8.0
 40
8.0
 40
8.0
 40
9.0
 40
9.0
 40
9.0
 40
10.0
 40
10.0
 40
10.0
 40
11.0
 40
11.0
 40
11.0
 40
12.0
 40
12.0
 40
12.0
 40
13.0
 40
13.0
 40
13.0
 40
14.0
 40
14.0
 40
14.0
 40
15.0
 40
15.0
 40
15.0
 40
16.0
 40
16.0
 40
16.0
 40
17.0
 40
17.0
 40
17.0
 40
18.0
 40
18.0
 40
18.0
 40
19.0
 40
19.0
 40
19.0
 40
19.0
 10
80.7296115249565
 20
-119.7787353216178
 10
80.7296115249565
 20
-119.8803656384327
 10
80.70859644249647
 20
-120.1132540932356
 10
80.52256128629297
 20
-120.246751543289
 10
80.41025117347382
 20
-120.3258164846755
 10
80.31103242349863
 20
-120.3302951088063
 10
80.2262830745615
 20
-120.3347737329372
 10
80.2262830745615
 20
-120.3347737329372
 10
80.2262830745615
 20
-120.0998182208431
 10
80.2262830745615
 20
-120.0998182208431
 10
80.30035262749436
 20
-120.0974066540034
 10
80.53496363003987
 20
-120.0862100936764
 10
80.53496363003987
 20
-119.7832139457486
 10
80.53496363003987
 20
-119.6362806233027
 10
80.46537270123783
 20
-119.4734998616247
 10
80.23696287056576
 20
-119.4734998616247
 10
80.12051864316432
 20
-119.4734998616247
 10
80.0719427968223
 20
-119.5141519883506
 10
80.04024791835799
 20
-119.5480861788803
 10
79.96617836542512
 20
-119.6271511202668
 10
79.9534315121297
 20
-119.7515190672843
 10
79.9534315121297
 20
-119.8104302000821
 10
79.9534315121297
 20
-119.8307562634451
 10
79.95549856942085
 20
-119.8691690781056
 10
79.95963268400315
 20
-119.8984523897303
 10
79.95963268400315
 20
-119.8984523897303
 10
79.76498478908654
 20
-119.8984523897303
 10
79.76498478908654
 20
-119.8984523897303
 10
79.77153047050851
 20
-119.8578002630043
 10
79.77359752779967
 20
-119.8126695121475
 10
79.77359752779967
 20
-119.805779321177
 10
79.77359752779967
 20
-119.7356716280522
 10
79.75223793579111
 20
-119.5232814913865
 10
79.51555987595445
 20
-119.5232814913865
 10
79.33779294891555
 20
-119.5232814913865
 10
79.28267142115156
 20
-119.6633246228619
 10
79.28267142115156
 20
-119.7809746336832
 10
79.28267142115156
 20
-120.063644718248
 10
79.51555987595445
 20
-120.0726019665096
 10
79.58721786204764
 20
-120.0770805906405
 10
79.58721786204764
 20
-120.0770805906405
 10
79.58721786204764
 20
-120.2941216062112
 10
79.58721786204764
 20
-120.2941216062112
 10
79.4625054054816
 20
-120.2851643579496
 10
79.08595646894379
 20
-120.2557087915507
 10
79.08595646894379
 20
-119.7673665065165
 10
79.08595646894379
 20
-119.5277601155174
 10
79.2130804923495
 20
-119.2700669732207
 10
79.50901419453247
 20
-119.2700669732207
 10
79.69539386028448
 20
-119.2700669732207
 10
79.77773164238197
 20
-119.3716972900356
 10
79.83905434201941
 20
-119.4779784857555
 10
79.8666151059014
 20
-119.4125216715358
 10
79.94688583070773
 20
-119.2180460313934
 10
80.22421601727034
 20
-119.2180460313934
 10
80.56252439392188
 20
-119.2180460313934
 10
80.7296115249565
 20
-119.4824571098863
 10
80.7296115249565
 20
-119.7787353216178
 97
        0
 97
        0
 75
     2
 76
     1
 98
        0
  0
ENDBLK
  5
9E
330
9B
100
AcDbEntity
  8
0
100
AcDbBlockEnd
  0
BLOCK
  5
AD
330
AB
100
AcDbEntity
  8
0
100
AcDbBlockBegin
  2
block 5
 70
     0
 10
0.0
 20
0.0
 30
0.0
  3
block 5
  1

  0
SPLINE
  5
AF
330
AB
100
AcDbEntity
  8
_U+30EC_U+30A4_U+30E4_U+30FC 1
370
     0
100
AcDbSpline
210
0.0
220
0.0
230
1.0
 70
    11
 71
     3
 72
    62
 73
    58
 74
     0
 42
0.0000000001
 43
0.0000000001
 12
1.0
 22
0.0
 32
0.0
 13
1.0
 23
0.0
 33
0.0
 40
0.0
 40
0.0
 40
0.0
 40
0.0
 40
1.0
 40
1.0
 40
1.0
 40
2.0
 40
2.0
 40
2.0
 40
3.0
 40
3.0
 40
3.0
 40
4.0
 40
4.0
 40
4.0
 40
5.0
 40
5.0
 40
5.0
 40
6.0
 40
6.0
 40
6.0
 40
7.0
 40
7.0
 40
7.0
 40
8.0
 40
8.0
 40
8.0
 40
9.0
 40
9.0
 40
9.0
 40
10.0
 40
10.0
 40
10.0
 40
11.0
 40
11.0
 40
11.0
 40
12.0
 40
12.0
 40
12.0
 40
13.0
 40
13.0
 40
13.0
 40
14.0
 40
14.0
 40
14.0
 40
15.0
 40
15.0
 40
15.0
 40
16.0
 40
16.0
 40
16.0
 40
17.0
 40
17.0
 40
17.0
 40
18.0
 40
18.0
 40
18.0
 40
19.0
 40
19.0
 40
19.0
 40
19.0
 10
115.9570908998302
 20
-140.9013047607816
 30
0.0
 10
115.9570908998302
 20
-141.0029350775965
 30
0.0
 10
115.9360758173702
 20
-141.2358235323994
 30
0.0
 10
115.7500406611667
 20
-141.3694932372271
 30
0.0
 10
115.6377305483475
 20
-141.4483859238393
 30
0.0
 10
115.5385117983723
 20
-141.4528645479701
 30
0.0
 10
115.4537624494352
 20
-141.457343172101
 30
0.0
 10
115.4537624494352
 20
-141.457343172101
 30
0.0
 10
115.4537624494352
 20
-141.2223876600069
 30
0.0
 10
115.4537624494352
 20
-141.2223876600069
 30
0.0
 10
115.527832002368
 20
-141.2199760931672
 30
0.0
 10
115.7624430049136
 20
-141.2089517876144
 30
0.0
 10
115.7624430049136
 20
-140.9057833849124
 30
0.0
 10
115.7624430049136
 20
-140.7590223172408
 30
0.0
 10
115.6928520761115
 20
-140.5960693007885
 30
0.0
 10
115.4644422454395
 20
-140.5960693007885
 30
0.0
 10
115.347998018038
 20
-140.5960693007885
 30
0.0
 10
115.299422171696
 20
-140.6367214275144
 30
0.0
 10
115.2677272932317
 20
-140.6708278728184
 30
0.0
 10
115.1936577402988
 20
-140.7497205594306
 30
0.0
 10
115.1809108870034
 20
-140.8740885064481
 30
0.0
 10
115.1809108870034
 20
-140.9329996392459
 30
0.0
 10
115.1809108870034
 20
-140.9533257026089
 30
0.0
 10
115.1829779442945
 20
-140.9919107720437
 30
0.0
 10
115.1871120588768
 20
-141.0208495741198
 30
0.0
 10
115.1871120588768
 20
-141.0208495741198
 30
0.0
 10
114.9924641639602
 20
-141.0208495741198
 30
0.0
 10
114.9924641639602
 20
-141.0208495741198
 30
0.0
 10
114.9990098453822
 20
-140.9801974473938
 30
0.0
 10
115.0010769026733
 20
-140.9354112060856
 30
0.0
 10
115.0010769026733
 20
-140.9285210151151
 30
0.0
 10
115.0010769026733
 20
-140.858241067216
 30
0.0
 10
114.9797173106648
 20
-140.6460231853246
 30
0.0
 10
114.7430392508281
 20
-140.6460231853246
 30
0.0
 10
114.5652723237892
 20
-140.6460231853246
 30
0.0
 10
114.5101507960252
 20
-140.7858940620258
 30
0.0
 10
114.5101507960252
 20
-140.9037163276213
 30
0.0
 10
114.5101507960252
 20
-141.1862141574118
 30
0.0
 10
114.7430392508281
 20
-141.1951714056734
 30
0.0
 10
114.8146972369213
 20
-141.1996500298043
 30
0.0
 10
114.8146972369213
 20
-141.1996500298043
 30
0.0
 10
114.8146972369213
 20
-141.416691045375
 30
0.0
 10
114.8146972369213
 20
-141.416691045375
 30
0.0
 10
114.6899847803553
 20
-141.4077337971133
 30
0.0
 10
114.3134358438175
 20
-141.3784504854887
 30
0.0
 10
114.3134358438175
 20
-140.8899359456803
 30
0.0
 10
114.3134358438175
 20
-140.6501572999069
 30
0.0
 10
114.4405598672232
 20
-140.3924641576102
 30
0.0
 10
114.7364935694062
 20
-140.3924641576102
 30
0.0
 10
114.9228732351582
 20
-140.3924641576102
 30
0.0
 10
115.0052110172556
 20
-140.4944389839736
 30
0.0
 10
115.0665337168931
 20
-140.6005479249193
 30
0.0
 10
115.0940944807751
 20
-140.5350911106996
 30
0.0
 10
115.1743652055814
 20
-140.3407877253315
 30
0.0
 10
115.451695392144
 20
-140.3407877253315
 30
0.0
 10
115.7900037687956
 20
-140.3407877253315
 30
0.0
 10
115.9570908998302
 20
-140.6050265490501
 30
0.0
 10
115.9570908998302
 20
-140.9013047607816
 30
0.0
  0
HATCH
  5
B0
330
AB
100
AcDbEntity
  8
_U+30EC_U+30A4_U+30E4_U+30FC 1
 62
   179
420
  2234388
100
AcDbHatch
 10
0.0
 20
0.0
 30
0.0
210
0.0
220
0.0
230
1.0
  2
SOLID
 70
     1
 71
     0
 91
        1
 92
        1
 93
        1
 72
     4
 94
        3
 73
     0
 74
     1
 95
       62
 96
       58
 40
0.0
 40
0.0
 40
0.0
 40
0.0
 40
1.0
 40
1.0
 40
1.0
 40
2.0
 40
2.0
 40
2.0
 40
3.0
 40
3.0
 40
3.0
 40
4.0
 40
4.0
 40
4.0
 40
5.0
 40
5.0
 40
5.0
 40
6.0
 40
6.0
 40
6.0
 40
7.0
 40
7.0
 40
7.0
 40
8.0
 40
8.0
 40
8.0
 40
9.0
 40
9.0
 40
9.0
 40
10.0
 40
10.0
 40
10.0
 40
11.0
 40
11.0
 40
11.0
 40
12.0
 40
12.0
 40
12.0
 40
13.0
 40
13.0
 40
13.0
 40
14.0
 40
14.0
 40
14.0
 40
15.0
 40
15.0
 40
15.0
 40
16.0
 40
16.0
 40
16.0
 40
17.0
 40
17.0
 40
17.0
 40
18.0
 40
18.0
 40
18.0
 40
19.0
 40
19.0
 40
19.0
 40
19.0
 10
115.9570908998302
 20
-140.9013047607816
 10
115.9570908998302
 20
-141.0029350775965
 10
115.9360758173702
 20
-141.2358235323994
 10
115.7500406611667
 20
-141.3694932372271
 10
115.6377305483475
 20
-141.4483859238393
 10
115.5385117983723
 20
-141.4528645479701
 10
115.4537624494352
 20
-141.457343172101
 10
115.4537624494352
 20
-141.457343172101
 10
115.4537624494352
 20
-141.2223876600069
 10
115.4537624494352
 20
-141.2223876600069
 10
115.527832002368
 20
-141.2199760931672
 10
115.7624430049136
 20
-141.2089517876144
 10
115.7624430049136
 20
-140.9057833849124
 10
115.7624430049136
 20
-140.7590223172408
 10
115.6928520761115
 20
-140.5960693007885
 10
115.4644422454395
 20
-140.5960693007885
 10
115.347998018038
 20
-140.5960693007885
 10
115.299422171696
 20
-140.6367214275144
 10
115.2677272932317
 20
-140.6708278728184
 10
115.1936577402988
 20
-140.7497205594306
 10
115.1809108870034
 20
-140.8740885064481
 10
115.1809108870034
 20
-140.9329996392459
 10
115.1809108870034
 20
-140.9533257026089
 10
115.1829779442945
 20
-140.9919107720437
 10
115.1871120588768
 20
-141.0208495741198
 10
115.1871120588768
 20
-141.0208495741198
 10
114.9924641639602
 20
-141.0208495741198
 10
114.9924641639602
 20
-141.0208495741198
 10
114.9990098453822
 20
-140.9801974473938
 10
115.0010769026733
 20
-140.9354112060856
 10
115.0010769026733
 20
-140.9285210151151
 10
115.0010769026733
 20
-140.858241067216
 10
114.9797173106648
 20
-140.6460231853246
 10
114.7430392508281
 20
-140.6460231853246
 10
114.5652723237892
 20
-140.6460231853246
 10
114.5101507960252
 20
-140.7858940620258
 10
114.5101507960252
 20
-140.9037163276213
 10
114.5101507960252
 20
-141.1862141574118
 10
114.7430392508281
 20
-141.1951714056734
 10
114.8146972369213
 20
-141.1996500298043
 10
114.8146972369213
 20
-141.1996500298043
 10
114.8146972369213
 20
-141.416691045375
 10
114.8146972369213
 20
-141.416691045375
 10
114.6899847803553
 20
-141.4077337971133
 10
114.3134358438175
 20
-141.3784504854887
 10
114.3134358438175
 20
-140.8899359456803
 10
114.3134358438175
 20
-140.6501572999069
 10
114.4405598672232
 20
-140.3924641576102
 10
114.7364935694062
 20
-140.3924641576102
 10
114.9228732351582
 20
-140.3924641576102
 10
115.0052110172556
 20
-140.4944389839736
 10
115.0665337168931
 20
-140.6005479249193
 10
115.0940944807751
 20
-140.5350911106996
 10
115.1743652055814
 20
-140.3407877253315
 10
115.451695392144
 20
-140.3407877253315
 10
115.7900037687956
 20
-140.3407877253315
 10
115.9570908998302
 20
-140.6050265490501
 10
115.9570908998302
 20
-140.9013047607816
 97
        0
 97
        0
 75
     2
 76
     1
 98
        0
  0
ENDBLK
  5
AE
330
AB
100
AcDbEntity
  8
0
100
AcDbBlockEnd
  0
BLOCK
  5
B3
330
B1
100
AcDbEntity
  8
0
100
AcDbBlockBegin
  2
block 6
 70
     0
 10
0.0
 20
0.0
 30
0.0
  3
block 6
  1

  0
SPLINE
  5
B5
330
B1
100
AcDbEntity
  8
_U+30EC_U+30A4_U+30E4_U+30FC 1
370
     0
100
AcDbSpline
210
0.0
220
0.0
230
1.0
 70
    11
 71
     3
 72
    26
 73
    22
 74
     0
 42
0.0000000001
 43
0.0000000001
 12
1.0
 22
0.0
 32
0.0
 13
1.0
 23
0.0
 33
0.0
 40
0.0
 40
0.0
 40
0.0
 40
0.0
 40
1.0
 40
1.0
 40
1.0
 40
2.0
 40
2.0
 40
2.0
 40
3.0
 40
3.0
 40
3.0
 40
4.0
 40
4.0
 40
4.0
 40
5.0
 40
5.0
 40
5.0
 40
6.0
 40
6.0
 40
6.0
 40
7.0
 40
7.0
 40
7.0
 40
7.0
 10
115.906447996197
 20
-134.432448968128
 30
0.0
 10
115.906447996197
 20
-134.432448968128
 30
0.0
 10
114.8022948931744
 20
-134.432448968128
 30
0.0
 10
114.8022948931744
 20
-134.432448968128
 30
0.0
 10
114.8022948931744
 20
-134.432448968128
 30
0.0
 10
114.8022948931744
 20
-134.7852267458176
 30
0.0
 10
114.8022948931744
 20
-134.7852267458176
 30
0.0
 10
114.8022948931744
 20
-134.7852267458176
 30
0.0
 10
114.6541557873087
 20
-134.7852267458176
 30
0.0
 10
114.6541557873087
 20
-134.7852267458176
 30
0.0
 10
114.6393418767221
 20
-134.4300374012883
 30
0.0
 10
114.4763888602698
 20
-134.3800835167522
 30
0.0
 10
114.3620116901595
 20
-134.3487331478364
 30
0.0
 10
114.3620116901595
 20
-134.3487331478364
 30
0.0
 10
114.3620116901595
 20
-134.1926703223546
 30
0.0
 10
114.3620116901595
 20
-134.1926703223546
 30
0.0
 10
114.3620116901595
 20
-134.1926703223546
 30
0.0
 10
115.906447996197
 20
-134.1926703223546
 30
0.0
 10
115.906447996197
 20
-134.1926703223546
 30
0.0
 10
115.906447996197
 20
-134.1926703223546
 30
0.0
 10
115.906447996197
 20
-134.432448968128
 30
0.0
 10
115.906447996197
 20
-134.432448968128
 30
0.0
  0
HATCH
  5
B6
330
B1
100
AcDbEntity
  8
_U+30EC_U+30A4_U+30E4_U+30FC 1
 62
   179
420
  2234388
100
AcDbHatch
 10
0.0
 20
0.0
 30
0.0
210
0.0
220
0.0
230
1.0
  2
SOLID
 70
     1
 71
     0
 91
        1
 92
        1
 93
        1
 72
     4
 94
        3
 73
     0
 74
     1
 95
       26
 96
       22
 40
0.0
 40
0.0
 40
0.0
 40
0.0
 40
1.0
 40
1.0
 40
1.0
 40
2.0
 40
2.0
 40
2.0
 40
3.0
 40
3.0
 40
3.0
 40
4.0
 40
4.0
 40
4.0
 40
5.0
 40
5.0
 40
5.0
 40
6.0
 40
6.0
 40
6.0
 40
7.0
 40
7.0
 40
7.0
 40
7.0
 10
115.906447996197
 20
-134.432448968128
 10
115.906447996197
 20
-134.432448968128
 10
114.8022948931744
 20
-134.432448968128
 10
114.8022948931744
 20
-134.432448968128
 10
114.8022948931744
 20
-134.432448968128
 10
114.8022948931744
 20
-134.7852267458176
 10
114.8022948931744
 20
-134.7852267458176
 10
114.8022948931744
 20
-134.7852267458176
 10
114.6541557873087
 20
-134.7852267458176
 10
114.6541557873087
 20
-134.7852267458176
 10
114.6393418767221
 20
-134.4300374012883
 10
114.4763888602698
 20
-134.3800835167522
 10
114.3620116901595
 20
-134.3487331478364
 10
114.3620116901595
 20
-134.3487331478364
 10
114.3620116901595
 20
-134.1926703223546
 10
114.3620116901595
 20
-134.1926703223546
 10
114.3620116901595
 20
-134.1926703223546
 10
115.906447996197
 20
-134.1926703223546
 10
115.906447996197
 20
-134.1926703223546
 10
115.906447996197
 20
-134.1926703223546
 10
115.906447996197
 20
-134.432448968128
 10
115.906447996197
 20
-134.432448968128
 97
        0
 97
        0
 75
     2
 76
     1
 98
        0
  0
SPLINE
  5
B7
330
B1
100
AcDbEntity
  8
_U+30EC_U+30A4_U+30E4_U+30FC 1
370
     0
100
AcDbSpline
210
0.0
220
0.0
230
1.0
 70
    11
 71
     3
 72
    44
 73
    40
 74
     0
 42
0.0000000001
 43
0.0000000001
 12
1.0
 22
0.0
 32
0.0
 13
1.0
 23
0.0
 33
0.0
 40
0.0
 40
0.0
 40
0.0
 40
0.0
 40
1.0
 40
1.0
 40
1.0
 40
2.0
 40
2.0
 40
2.0
 40
3.0
 40
3.0
 40
3.0
 40
4.0
 40
4.0
 40
4.0
 40
5.0
 40
5.0
 40
5.0
 40
6.0
 40
6.0
 40
6.0
 40
7.0
 40
7.0
 40
7.0
 40
8.0
 40
8.0
 40
8.0
 40
9.0
 40
9.0
 40
9.0
 40
10.0
 40
10.0
 40
10.0
 40
11.0
 40
11.0
 40
11.0
 40
12.0
 40
12.0
 40
12.0
 40
13.0
 40
13.0
 40
13.0
 40
13.0
 10
115.3245713687383
 20
-133.0230604051123
 30
0.0
 10
115.4833902706083
 20
-133.2559488599152
 30
0.0
 10
115.5574598235412
 20
-133.3555121194389
 30
0.0
 10
115.7011203052761
 20
-133.4071885517177
 30
0.0
 10
115.7011203052761
 20
-133.4071885517177
 30
0.0
 10
115.7011203052761
 20
-132.5755425015784
 30
0.0
 10
115.7011203052761
 20
-132.5755425015784
 30
0.0
 10
115.7011203052761
 20
-132.5755425015784
 30
0.0
 10
115.906447996197
 20
-132.5755425015784
 30
0.0
 10
115.906447996197
 20
-132.5755425015784
 30
0.0
 10
115.906447996197
 20
-132.5755425015784
 30
0.0
 10
115.906447996197
 20
-133.6741834518245
 30
0.0
 10
115.906447996197
 20
-133.6741834518245
 30
0.0
 10
115.5488470848281
 20
-133.6400770065206
 30
0.0
 10
115.4706434173129
 20
-133.57014156817
 30
0.0
 10
115.1722981482903
 20
-133.1584526576826
 30
0.0
 10
114.9735161387914
 20
-132.8849120761538
 30
0.0
 10
114.9056477577319
 20
-132.8149766378032
 30
0.0
 10
114.7681884478705
 20
-132.8149766378032
 30
0.0
 10
114.6496771631779
 20
-132.8149766378032
 30
0.0
 10
114.5187635347384
 20
-132.8918022671243
 30
0.0
 10
114.5187635347384
 20
-133.1019530917245
 30
0.0
 10
114.5187635347384
 20
-133.3803168069327
 30
0.0
 10
114.7492404227016
 20
-133.3892740551944
 30
0.0
 10
114.865684650103
 20
-133.3937526793252
 30
0.0
 10
114.865684650103
 20
-133.3937526793252
 30
0.0
 10
114.865684650103
 20
-133.6335313250986
 30
0.0
 10
114.865684650103
 20
-133.6335313250986
 30
0.0
 10
114.7385606266973
 20
-133.6242295672884
 30
0.0
 10
114.6265950234267
 20
-133.6132052617356
 30
0.0
 10
114.5080837387341
 20
-133.5270778746043
 30
0.0
 10
114.3471977795729
 20
-133.4096001185573
 30
0.0
 10
114.3134358438175
 20
-133.2108181090584
 30
0.0
 10
114.3134358438175
 20
-133.0861056524924
 30
0.0
 10
114.3134358438175
 20
-132.7901719503094
 30
0.0
 10
114.4974039427298
 20
-132.5686523106078
 30
0.0
 10
114.7702555051616
 20
-132.5686523106078
 30
0.0
 10
114.9990098453822
 20
-132.5686523106078
 30
0.0
 10
115.0982285953574
 20
-132.6930202576254
 30
0.0
 10
115.3245713687383
 20
-133.0230604051123
 30
0.0
  0
HATCH
  5
B8
330
B1
100
AcDbEntity
  8
_U+30EC_U+30A4_U+30E4_U+30FC 1
 62
   179
420
  2234388
100
AcDbHatch
 10
0.0
 20
0.0
 30
0.0
210
0.0
220
0.0
230
1.0
  2
SOLID
 70
     1
 71
     0
 91
        1
 92
        1
 93
        1
 72
     4
 94
        3
 73
     0
 74
     1
 95
       44
 96
       40
 40
0.0
 40
0.0
 40
0.0
 40
0.0
 40
1.0
 40
1.0
 40
1.0
 40
2.0
 40
2.0
 40
2.0
 40
3.0
 40
3.0
 40
3.0
 40
4.0
 40
4.0
 40
4.0
 40
5.0
 40
5.0
 40
5.0
 40
6.0
 40
6.0
 40
6.0
 40
7.0
 40
7.0
 40
7.0
 40
8.0
 40
8.0
 40
8.0
 40
9.0
 40
9.0
 40
9.0
 40
10.0
 40
10.0
 40
10.0
 40
11.0
 40
11.0
 40
11.0
 40
12.0
 40
12.0
 40
12.0
 40
13.0
 40
13.0
 40
13.0
 40
13.0
 10
115.3245713687383
 20
-133.0230604051123
 10
115.4833902706083
 20
-133.2559488599152
 10
115.5574598235412
 20
-133.3555121194389
 10
115.7011203052761
 20
-133.4071885517177
 10
115.7011203052761
 20
-133.4071885517177
 10
115.7011203052761
 20
-132.5755425015784
 10
115.7011203052761
 20
-132.5755425015784
 10
115.7011203052761
 20
-132.5755425015784
 10
115.906447996197
 20
-132.5755425015784
 10
115.906447996197
 20
-132.5755425015784
 10
115.906447996197
 20
-132.5755425015784
 10
115.906447996197
 20
-133.6741834518245
 10
115.906447996197
 20
-133.6741834518245
 10
115.5488470848281
 20
-133.6400770065206
 10
115.4706434173129
 20
-133.57014156817
 10
115.1722981482903
 20
-133.1584526576826
 10
114.9735161387914
 20
-132.8849120761538
 10
114.9056477577319
 20
-132.8149766378032
 10
114.7681884478705
 20
-132.8149766378032
 10
114.6496771631779
 20
-132.8149766378032
 10
114.5187635347384
 20
-132.8918022671243
 10
114.5187635347384
 20
-133.1019530917245
 10
114.5187635347384
 20
-133.3803168069327
 10
114.7492404227016
 20
-133.3892740551944
 10
114.865684650103
 20
-133.3937526793252
 10
114.865684650103
 20
-133.3937526793252
 10
114.865684650103
 20
-133.6335313250986
 10
114.865684650103
 20
-133.6335313250986
 10
114.7385606266973
 20
-133.6242295672884
 10
114.6265950234267
 20
-133.6132052617356
 10
114.5080837387341
 20
-133.5270778746043
 10
114.3471977795729
 20
-133.4096001185573
 10
114.3134358438175
 20
-133.2108181090584
 10
114.3134358438175
 20
-133.0861056524924
 10
114.3134358438175
 20
-132.7901719503094
 10
114.4974039427298
 20
-132.5686523106078
 10
114.7702555051616
 20
-132.5686523106078
 10
114.9990098453822
 20
-132.5686523106078
 10
115.0982285953574
 20
-132.6930202576254
 10
115.3245713687383
 20
-133.0230604051123
 97
        0
 97
        0
 75
     2
 76
     1
 98
        0
  0
POLYLINE
  5
B9
330
B1
100
AcDbEntity
  8
_U+30EC_U+30A4_U+30E4_U+30FC 1
370
     0
100
AcDb2dPolyline
 66
     1
 10
0.0
 20
0.0
 30
0.0
  0
VERTEX
  5
BA
330
B9
100
AcDbEntity
  8
_U+30EC_U+30A4_U+30E4_U+30FC 1
370
     0
100
AcDbVertex
100
AcDb2dVertex
 10
115.906447996197
 20
-132.3350748367079
 30
0.0
  0
VERTEX
  5
BB
330
B9
100
AcDbEntity
  8
_U+30EC_U+30A4_U+30E4_U+30FC 1
370
     0
100
AcDbVertex
100
AcDb2dVertex
 10
115.6546115162252
 20
-132.3350748367079
 30
0.0
  0
VERTEX
  5
BC
330
B9
100
AcDbEntity
  8
_U+30EC_U+30A4_U+30E4_U+30FC 1
370
     0
100
AcDbVertex
100
AcDb2dVertex
 10
115.6546115162252
 20
-132.0656683697614
 30
0.0
  0
VERTEX
  5
BD
330
B9
100
AcDbEntity
  8
_U+30EC_U+30A4_U+30E4_U+30FC 1
370
     0
100
AcDbVertex
100
AcDb2dVertex
 10
115.906447996197
 20
-132.0656683697614
 30
0.0
  0
VERTEX
  5
BE
330
B9
100
AcDbEntity
  8
_U+30EC_U+30A4_U+30E4_U+30FC 1
370
     0
100
AcDbVertex
100
AcDb2dVertex
 10
115.906447996197
 20
-132.3350748367079
 30
0.0
  0
SEQEND
  5
BF
330
B9
100
AcDbEntity
  8
_U+30EC_U+30A4_U+30E4_U+30FC 1
370
     0
  0
HATCH
  5
C0
330
B1
100
AcDbEntity
  8
_U+30EC_U+30A4_U+30E4_U+30FC 1
 62
   179
420
  2234388
100
AcDbHatch
 10
0.0
 20
0.0
 30
0.0
210
0.0
220
0.0
230
1.0
  2
SOLID
 70
     1
 71
     0
 91
        1
 92
        1
 93
        4
 72
     1
 10
115.906447996197
 20
-132.3350748367079
 11
115.6546115162252
 21
-132.3350748367079
 72
     1
 10
115.6546115162252
 20
-132.3350748367079
 11
115.6546115162252
 21
-132.0656683697614
 72
     1
 10
115.6546115162252
 20
-132.0656683697614
 11
115.906447996197
 21
-132.0656683697614
 72
     1
 10
115.906447996197
 20
-132.0656683697614
 11
115.906447996197
 21
-132.3350748367079
 97
        0
 75
     2
 76
     1
 98
        0
  0
SPLINE
  5
C1
330
B1
100
AcDbEntity
  8
_U+30EC_U+30A4_U+30E4_U+30FC 1
370
     0
100
AcDbSpline
210
0.0
220
0.0
230
1.0
 70
    11
 71
     3
 72
    29
 73
    25
 74
     0
 42
0.0000000001
 43
0.0000000001
 12
1.0
 22
0.0
 32
0.0
 13
1.0
 23
0.0
 33
0.0
 40
0.0
 40
0.0
 40
0.0
 40
0.0
 40
1.0
 40
1.0
 40
1.0
 40
2.0
 40
2.0
 40
2.0
 40
3.0
 40
3.0
 40
3.0
 40
4.0
 40
4.0
 40
4.0
 40
5.0
 40
5.0
 40
5.0
 40
6.0
 40
6.0
 40
6.0
 40
7.0
 40
7.0
 40
7.0
 40
8.0
 40
8.0
 40
8.0
 40
8.0
 10
115.9570908998302
 20
-131.2788085609303
 30
0.0
 10
115.9570908998302
 20
-131.5637179575605
 30
0.0
 10
115.8196315899687
 20
-131.8348469722496
 30
0.0
 10
115.4706434173129
 20
-131.8348469722496
 30
0.0
 10
115.2146728227588
 20
-131.8348469722496
 30
0.0
 10
115.1195881873659
 20
-131.6836072804471
 30
0.0
 10
115.0582654877285
 20
-131.5702636389825
 30
0.0
 10
114.9990098453822
 20
-131.7039333438101
 30
0.0
 10
114.8846326752719
 20
-131.785237597262
 30
0.0
 10
114.7237467161107
 20
-131.785237597262
 30
0.0
 10
114.4488280963878
 20
-131.785237597262
 30
0.0
 10
114.3134358438175
 20
-131.5726752058221
 30
0.0
 10
114.3134358438175
 20
-131.2788085609303
 30
0.0
 10
114.3134358438175
 20
-130.9759846677769
 30
0.0
 10
114.4574408351009
 20
-130.7723795245986
 30
0.0
 10
114.7237467161107
 20
-130.7723795245986
 30
0.0
 10
114.8846326752719
 20
-130.7723795245986
 30
0.0
 10
114.9990098453822
 20
-130.8560953448902
 30
0.0
 10
115.0582654877285
 20
-130.9894205401693
 30
0.0
 10
115.1089083913617
 20
-130.8943359047764
 30
0.0
 10
115.2039930267546
 20
-130.7248372069021
 30
0.0
 10
115.4665093027306
 20
-130.7248372069021
 30
0.0
 10
115.8409911819773
 20
-130.7248372069021
 30
0.0
 10
115.9570908998302
 20
-131.0231824759248
 30
0.0
 10
115.9570908998302
 20
-131.2788085609303
 30
0.0
  0
SPLINE
  5
C2
330
B1
100
AcDbEntity
  8
_U+30EC_U+30A4_U+30E4_U+30FC 1
370
     0
100
AcDbSpline
210
0.0
220
0.0
230
1.0
 70
    11
 71
     3
 72
    17
 73
    13
 74
     0
 42
0.0000000001
 43
0.0000000001
 12
1.0
 22
0.0
 32
0.0
 13
1.0
 23
0.0
 33
0.0
 40
0.0
 40
0.0
 40
0.0
 40
0.0
 40
1.0
 40
1.0
 40
1.0
 40
2.0
 40
2.0
 40
2.0
 40
3.0
 40
3.0
 40
3.0
 40
4.0
 40
4.0
 40
4.0
 40
4.0
 10
114.5060166814429
 20
-131.2788085609303
 30
0.0
 10
114.5060166814429
 20
-131.4551974497751
 30
0.0
 10
114.6011013168358
 20
-131.5454589514887
 30
0.0
 10
114.7364935694062
 20
-131.5454589514887
 30
0.0
 10
114.8591389686811
 20
-131.5454589514887
 30
0.0
 10
114.9776502533737
 20
-131.4689778317161
 30
0.0
 10
114.9776502533737
 20
-131.2788085609303
 30
0.0
 10
114.9776502533737
 20
-131.088983799693
 30
0.0
 10
114.8591389686811
 20
-131.012158170372
 30
0.0
 10
114.7364935694062
 20
-131.012158170372
 30
0.0
 10
114.6011013168358
 20
-131.012158170372
 30
0.0
 10
114.5060166814429
 20
-131.1048312389252
 30
0.0
 10
114.5060166814429
 20
-131.2788085609303
 30
0.0
  0
SPLINE
  5
C3
330
B1
100
AcDbEntity
  8
_U+30EC_U+30A4_U+30E4_U+30FC 1
370
     0
100
AcDbSpline
210
0.0
220
0.0
230
1.0
 70
    11
 71
     3
 72
    17
 73
    13
 74
     0
 42
0.0000000001
 43
0.0000000001
 12
1.0
 22
0.0
 32
0.0
 13
1.0
 23
0.0
 33
0.0
 40
0.0
 40
0.0
 40
0.0
 40
0.0
 40
1.0
 40
1.0
 40
1.0
 40
2.0
 40
2.0
 40
2.0
 40
3.0
 40
3.0
 40
3.0
 40
4.0
 40
4.0
 40
4.0
 40
4.0
 10
115.1660969764168
 20
-131.2788085609303
 30
0.0
 10
115.1660969764168
 20
-131.4324598195724
 30
0.0
 10
115.2529133826451
 20
-131.5954128360248
 30
0.0
 10
115.4558295067263
 20
-131.5954128360248
 30
0.0
 10
115.6611571976472
 20
-131.5954128360248
 30
0.0
 10
115.7624430049136
 20
-131.4596760739059
 30
0.0
 10
115.7624430049136
 20
-131.2788085609303
 30
0.0
 10
115.7624430049136
 20
-131.0796820418829
 30
0.0
 10
115.6397976056387
 20
-130.9625487953844
 30
0.0
 10
115.4620306785998
 20
-130.9625487953844
 30
0.0
 10
115.2401665293497
 20
-130.9625487953844
 30
0.0
 10
115.1660969764168
 20
-131.136181607841
 30
0.0
 10
115.1660969764168
 20
-131.2788085609303
 30
0.0
  0
HATCH
  5
C4
330
B1
100
AcDbEntity
  8
_U+30EC_U+30A4_U+30E4_U+30FC 1
 62
   179
420
  2234388
100
AcDbHatch
 10
0.0
 20
0.0
 30
0.0
210
0.0
220
0.0
230
1.0
  2
SOLID
 70
     1
 71
     0
 91
        3
 92
        1
 93
        1
 72
     4
 94
        3
 73
     0
 74
     1
 95
       29
 96
       25
 40
0.0
 40
0.0
 40
0.0
 40
0.0
 40
1.0
 40
1.0
 40
1.0
 40
2.0
 40
2.0
 40
2.0
 40
3.0
 40
3.0
 40
3.0
 40
4.0
 40
4.0
 40
4.0
 40
5.0
 40
5.0
 40
5.0
 40
6.0
 40
6.0
 40
6.0
 40
7.0
 40
7.0
 40
7.0
 40
8.0
 40
8.0
 40
8.0
 40
8.0
 10
115.9570908998302
 20
-131.2788085609303
 10
115.9570908998302
 20
-131.5637179575605
 10
115.8196315899687
 20
-131.8348469722496
 10
115.4706434173129
 20
-131.8348469722496
 10
115.2146728227588
 20
-131.8348469722496
 10
115.1195881873659
 20
-131.6836072804471
 10
115.0582654877285
 20
-131.5702636389825
 10
114.9990098453822
 20
-131.7039333438101
 10
114.8846326752719
 20
-131.785237597262
 10
114.7237467161107
 20
-131.785237597262
 10
114.4488280963878
 20
-131.785237597262
 10
114.3134358438175
 20
-131.5726752058221
 10
114.3134358438175
 20
-131.2788085609303
 10
114.3134358438175
 20
-130.9759846677769
 10
114.4574408351009
 20
-130.7723795245986
 10
114.7237467161107
 20
-130.7723795245986
 10
114.8846326752719
 20
-130.7723795245986
 10
114.9990098453822
 20
-130.8560953448902
 10
115.0582654877285
 20
-130.9894205401693
 10
115.1089083913617
 20
-130.8943359047764
 10
115.2039930267546
 20
-130.7248372069021
 10
115.4665093027306
 20
-130.7248372069021
 10
115.8409911819773
 20
-130.7248372069021
 10
115.9570908998302
 20
-131.0231824759248
 10
115.9570908998302
 20
-131.2788085609303
 97
        0
 97
        0
 92
        1
 93
        1
 72
     4
 94
        3
 73
     0
 74
     1
 95
       17
 96
       13
 40
0.0
 40
0.0
 40
0.0
 40
0.0
 40
1.0
 40
1.0
 40
1.0
 40
2.0
 40
2.0
 40
2.0
 40
3.0
 40
3.0
 40
3.0
 40
4.0
 40
4.0
 40
4.0
 40
4.0
 10
114.5060166814429
 20
-131.2788085609303
 10
114.5060166814429
 20
-131.4551974497751
 10
114.6011013168358
 20
-131.5454589514887
 10
114.7364935694062
 20
-131.5454589514887
 10
114.8591389686811
 20
-131.5454589514887
 10
114.9776502533737
 20
-131.4689778317161
 10
114.9776502533737
 20
-131.2788085609303
 10
114.9776502533737
 20
-131.088983799693
 10
114.8591389686811
 20
-131.012158170372
 10
114.7364935694062
 20
-131.012158170372
 10
114.6011013168358
 20
-131.012158170372
 10
114.5060166814429
 20
-131.1048312389252
 10
114.5060166814429
 20
-131.2788085609303
 97
        0
 97
        0
 92
        1
 93
        1
 72
     4
 94
        3
 73
     0
 74
     1
 95
       17
 96
       13
 40
0.0
 40
0.0
 40
0.0
 40
0.0
 40
1.0
 40
1.0
 40
1.0
 40
2.0
 40
2.0
 40
2.0
 40
3.0
 40
3.0
 40
3.0
 40
4.0
 40
4.0
 40
4.0
 40
4.0
 10
115.1660969764168
 20
-131.2788085609303
 10
115.1660969764168
 20
-131.4324598195724
 10
115.2529133826451
 20
-131.5954128360248
 10
115.4558295067263
 20
-131.5954128360248
 10
115.6611571976472
 20
-131.5954128360248
 10
115.7624430049136
 20
-131.4596760739059
 10
115.7624430049136
 20
-131.2788085609303
 10
115.7624430049136
 20
-131.0796820418829
 10
115.6397976056387
 20
-130.9625487953844
 10
115.4620306785998
 20
-130.9625487953844
 10
115.2401665293497
 20
-130.9625487953844
 10
115.1660969764168
 20
-131.136181607841
 10
115.1660969764168
 20
-131.2788085609303
 97
        0
 97
        0
 75
     2
 76
     1
 98
        0
  0
ENDBLK
  5
B4
330
B1
100
AcDbEntity
  8
0
100
AcDbBlockEnd
  0
BLOCK
  5
C7
330
C5
100
AcDbEntity
  8
0
100
AcDbBlockBegin
  2
block 7
 70
     0
 10
0.0
 20
0.0
 30
0.0
  3
block 7
  1

  0
SPLINE
  5
C9
330
C5
100
AcDbEntity
  8
_U+30EC_U+30A4_U+30E4_U+30FC 1
370
     0
100
AcDbSpline
210
0.0
220
0.0
230
1.0
 70
    11
 71
     3
 72
    44
 73
    40
 74
     0
 42
0.0000000001
 43
0.0000000001
 12
1.0
 22
0.0
 32
0.0
 13
1.0
 23
0.0
 33
0.0
 40
0.0
 40
0.0
 40
0.0
 40
0.0
 40
1.0
 40
1.0
 40
1.0
 40
2.0
 40
2.0
 40
2.0
 40
3.0
 40
3.0
 40
3.0
 40
4.0
 40
4.0
 40
4.0
 40
5.0
 40
5.0
 40
5.0
 40
6.0
 40
6.0
 40
6.0
 40
7.0
 40
7.0
 40
7.0
 40
8.0
 40
8.0
 40
8.0
 40
9.0
 40
9.0
 40
9.0
 40
10.0
 40
10.0
 40
10.0
 40
11.0
 40
11.0
 40
11.0
 40
12.0
 40
12.0
 40
12.0
 40
13.0
 40
13.0
 40
13.0
 40
13.0
 10
66.20784503553138
 20
-130.6910752711467
 30
0.0
 10
66.3666639374014
 20
-130.9239637259496
 30
0.0
 10
66.44073349033427
 20
-131.0231824759248
 30
0.0
 10
66.58439397206918
 20
-131.0755479273006
 30
0.0
 10
66.58439397206918
 20
-131.0755479273006
 30
0.0
 10
66.58439397206918
 20
-130.2432128580642
 30
0.0
 10
66.58439397206918
 20
-130.2432128580642
 30
0.0
 10
66.58439397206918
 20
-130.2432128580642
 30
0.0
 10
66.78972166299008
 20
-130.2432128580642
 30
0.0
 10
66.78972166299008
 20
-130.2432128580642
 30
0.0
 10
66.78972166299008
 20
-130.2432128580642
 30
0.0
 10
66.78972166299008
 20
-131.3421983178589
 30
0.0
 10
66.78972166299008
 20
-131.3421983178589
 30
0.0
 10
66.43212075162114
 20
-131.3084363821035
 30
0.0
 10
66.35391708410597
 20
-131.2381564342043
 30
0.0
 10
66.05557181508333
 20
-130.8268120332655
 30
0.0
 10
65.85678980558441
 20
-130.5532714517367
 30
0.0
 10
65.788921424525
 20
-130.4829915038376
 30
0.0
 10
65.65146211466353
 20
-130.4829915038376
 30
0.0
 10
65.53295082997093
 20
-130.4829915038376
 30
0.0
 10
65.40203720153144
 20
-130.5598171331587
 30
0.0
 10
65.40203720153144
 20
-130.7703124673074
 30
0.0
 10
65.40203720153144
 20
-131.0483316729671
 30
0.0
 10
65.63251408949465
 20
-131.0572889212287
 30
0.0
 10
65.7489583168961
 20
-131.0617675453596
 30
0.0
 10
65.7489583168961
 20
-131.0617675453596
 30
0.0
 10
65.7489583168961
 20
-131.301546191133
 30
0.0
 10
65.7489583168961
 20
-131.301546191133
 30
0.0
 10
65.62183429349038
 20
-131.2925889428713
 30
0.0
 10
65.50986869021976
 20
-131.2808756182214
 30
0.0
 10
65.39135740552716
 20
-131.1954372501873
 30
0.0
 10
65.230471446366
 20
-131.0776149845917
 30
0.0
 10
65.19670951061055
 20
-130.8784884655443
 30
0.0
 10
65.19670951061055
 20
-130.7544650280753
 30
0.0
 10
65.19670951061055
 20
-130.4581868163438
 30
0.0
 10
65.38067760952289
 20
-130.2366671766422
 30
0.0
 10
65.65352917195467
 20
-130.2366671766422
 30
0.0
 10
65.88228351217526
 20
-130.2366671766422
 30
0.0
 10
65.98150226215046
 20
-130.3610351236597
 30
0.0
 10
66.20784503553138
 20
-130.6910752711467
 30
0.0
  0
HATCH
  5
CA
330
C5
100
AcDbEntity
  8
_U+30EC_U+30A4_U+30E4_U+30FC 1
 62
   179
420
  2234388
100
AcDbHatch
 10
0.0
 20
0.0
 30
0.0
210
0.0
220
0.0
230
1.0
  2
SOLID
 70
     1
 71
     0
 91
        1
 92
        1
 93
        1
 72
     4
 94
        3
 73
     0
 74
     1
 95
       44
 96
       40
 40
0.0
 40
0.0
 40
0.0
 40
0.0
 40
1.0
 40
1.0
 40
1.0
 40
2.0
 40
2.0
 40
2.0
 40
3.0
 40
3.0
 40
3.0
 40
4.0
 40
4.0
 40
4.0
 40
5.0
 40
5.0
 40
5.0
 40
6.0
 40
6.0
 40
6.0
 40
7.0
 40
7.0
 40
7.0
 40
8.0
 40
8.0
 40
8.0
 40
9.0
 40
9.0
 40
9.0
 40
10.0
 40
10.0
 40
10.0
 40
11.0
 40
11.0
 40
11.0
 40
12.0
 40
12.0
 40
12.0
 40
13.0
 40
13.0
 40
13.0
 40
13.0
 10
66.20784503553138
 20
-130.6910752711467
 10
66.3666639374014
 20
-130.9239637259496
 10
66.44073349033427
 20
-131.0231824759248
 10
66.58439397206918
 20
-131.0755479273006
 10
66.58439397206918
 20
-131.0755479273006
 10
66.58439397206918
 20
-130.2432128580642
 10
66.58439397206918
 20
-130.2432128580642
 10
66.58439397206918
 20
-130.2432128580642
 10
66.78972166299008
 20
-130.2432128580642
 10
66.78972166299008
 20
-130.2432128580642
 10
66.78972166299008
 20
-130.2432128580642
 10
66.78972166299008
 20
-131.3421983178589
 10
66.78972166299008
 20
-131.3421983178589
 10
66.43212075162114
 20
-131.3084363821035
 10
66.35391708410597
 20
-131.2381564342043
 10
66.05557181508333
 20
-130.8268120332655
 10
65.85678980558441
 20
-130.5532714517367
 10
65.788921424525
 20
-130.4829915038376
 10
65.65146211466353
 20
-130.4829915038376
 10
65.53295082997093
 20
-130.4829915038376
 10
65.40203720153144
 20
-130.5598171331587
 10
65.40203720153144
 20
-130.7703124673074
 10
65.40203720153144
 20
-131.0483316729671
 10
65.63251408949465
 20
-131.0572889212287
 10
65.7489583168961
 20
-131.0617675453596
 10
65.7489583168961
 20
-131.0617675453596
 10
65.7489583168961
 20
-131.301546191133
 10
65.7489583168961
 20
-131.301546191133
 10
65.62183429349038
 20
-131.2925889428713
 10
65.50986869021976
 20
-131.2808756182214
 10
65.39135740552716
 20
-131.1954372501873
 10
65.230471446366
 20
-131.0776149845917
 10
65.19670951061055
 20
-130.8784884655443
 10
65.19670951061055
 20
-130.7544650280753
 10
65.19670951061055
 20
-130.4581868163438
 10
65.38067760952289
 20
-130.2366671766422
 10
65.65352917195467
 20
-130.2366671766422
 10
65.88228351217526
 20
-130.2366671766422
 10
65.98150226215046
 20
-130.3610351236597
 10
66.20784503553138
 20
-130.6910752711467
 97
        0
 97
        0
 75
     2
 76
     1
 98
        0
  0
POLYLINE
  5
CB
330
C5
100
AcDbEntity
  8
_U+30EC_U+30A4_U+30E4_U+30FC 1
370
     0
100
AcDb2dPolyline
 66
     1
 10
0.0
 20
0.0
 30
0.0
  0
VERTEX
  5
CC
330
CB
100
AcDbEntity
  8
_U+30EC_U+30A4_U+30E4_U+30FC 1
370
     0
100
AcDbVertex
100
AcDb2dVertex
 10
66.44280054762541
 20
-129.1779893340249
 30
0.0
  0
VERTEX
  5
CD
330
CB
100
AcDbEntity
  8
_U+30EC_U+30A4_U+30E4_U+30FC 1
370
     0
100
AcDbVertex
100
AcDb2dVertex
 10
66.78972166299008
 20
-129.1779893340249
 30
0.0
  0
VERTEX
  5
CE
330
CB
100
AcDbEntity
  8
_U+30EC_U+30A4_U+30E4_U+30FC 1
370
     0
100
AcDbVertex
100
AcDb2dVertex
 10
66.78972166299008
 20
-129.4105332792793
 30
0.0
  0
VERTEX
  5
CF
330
CB
100
AcDbEntity
  8
_U+30EC_U+30A4_U+30E4_U+30FC 1
370
     0
100
AcDbVertex
100
AcDb2dVertex
 10
66.44280054762541
 20
-129.4105332792793
 30
0.0
  0
VERTEX
  5
D0
330
CB
100
AcDbEntity
  8
_U+30EC_U+30A4_U+30E4_U+30FC 1
370
     0
100
AcDbVertex
100
AcDb2dVertex
 10
66.44280054762541
 20
-130.1116102105277
 30
0.0
  0
VERTEX
  5
D1
330
CB
100
AcDbEntity
  8
_U+30EC_U+30A4_U+30E4_U+30FC 1
370
     0
100
AcDbVertex
100
AcDb2dVertex
 10
66.21852483153565
 20
-130.1116102105277
 30
0.0
  0
VERTEX
  5
D2
330
CB
100
AcDbEntity
  8
_U+30EC_U+30A4_U+30E4_U+30FC 1
370
     0
100
AcDbVertex
100
AcDb2dVertex
 10
65.24528535695256
 20
-129.3857285917855
 30
0.0
  0
VERTEX
  5
D3
330
CB
100
AcDbEntity
  8
_U+30EC_U+30A4_U+30E4_U+30FC 1
370
     0
100
AcDbVertex
100
AcDb2dVertex
 10
65.24528535695256
 20
-129.1779893340249
 30
0.0
  0
VERTEX
  5
D4
330
CB
100
AcDbEntity
  8
_U+30EC_U+30A4_U+30E4_U+30FC 1
370
     0
100
AcDbVertex
100
AcDb2dVertex
 10
66.2440185381265
 20
-129.1779893340249
 30
0.0
  0
VERTEX
  5
D5
330
CB
100
AcDbEntity
  8
_U+30EC_U+30A4_U+30E4_U+30FC 1
370
     0
100
AcDbVertex
100
AcDb2dVertex
 10
66.2440185381265
 20
-128.9561251847749
 30
0.0
  0
VERTEX
  5
D6
330
CB
100
AcDbEntity
  8
_U+30EC_U+30A4_U+30E4_U+30FC 1
370
     0
100
AcDbVertex
100
AcDb2dVertex
 10
66.44280054762541
 20
-128.9561251847749
 30
0.0
  0
VERTEX
  5
D7
330
CB
100
AcDbEntity
  8
_U+30EC_U+30A4_U+30E4_U+30FC 1
370
     0
100
AcDbVertex
100
AcDb2dVertex
 10
66.44280054762541
 20
-129.1779893340249
 30
0.0
  0
SEQEND
  5
D8
330
CB
100
AcDbEntity
  8
_U+30EC_U+30A4_U+30E4_U+30FC 1
370
     0
  0
POLYLINE
  5
D9
330
C5
100
AcDbEntity
  8
_U+30EC_U+30A4_U+30E4_U+30FC 1
370
     0
100
AcDb2dPolyline
 66
     1
 10
0.0
 20
0.0
 30
0.0
  0
VERTEX
  5
DA
330
D9
100
AcDbEntity
  8
_U+30EC_U+30A4_U+30E4_U+30FC 1
370
     0
100
AcDbVertex
100
AcDb2dVertex
 10
65.58807235773493
 20
-129.4105332792793
 30
0.0
  0
VERTEX
  5
DB
330
D9
100
AcDbEntity
  8
_U+30EC_U+30A4_U+30E4_U+30FC 1
370
     0
100
AcDbVertex
100
AcDb2dVertex
 10
66.2440185381265
 20
-129.8990478190877
 30
0.0
  0
VERTEX
  5
DC
330
D9
100
AcDbEntity
  8
_U+30EC_U+30A4_U+30E4_U+30FC 1
370
     0
100
AcDbVertex
100
AcDb2dVertex
 10
66.2440185381265
 20
-129.4105332792793
 30
0.0
  0
VERTEX
  5
DD
330
D9
100
AcDbEntity
  8
_U+30EC_U+30A4_U+30E4_U+30FC 1
370
     0
100
AcDbVertex
100
AcDb2dVertex
 10
65.58807235773493
 20
-129.4105332792793
 30
0.0
  0
SEQEND
  5
DE
330
D9
100
AcDbEntity
  8
_U+30EC_U+30A4_U+30E4_U+30FC 1
370
     0
  0
HATCH
  5
DF
330
C5
100
AcDbEntity
  8
_U+30EC_U+30A4_U+30E4_U+30FC 1
 62
   179
420
  2234388
100
AcDbHatch
 10
0.0
 20
0.0
 30
0.0
210
0.0
220
0.0
230
1.0
  2
SOLID
 70
     1
 71
     0
 91
        2
 92
        1
 93
       11
 72
     1
 10
66.44280054762541
 20
-129.1779893340249
 11
66.78972166299008
 21
-129.1779893340249
 72
     1
 10
66.78972166299008
 20
-129.1779893340249
 11
66.78972166299008
 21
-129.4105332792793
 72
     1
 10
66.78972166299008
 20
-129.4105332792793
 11
66.44280054762541
 21
-129.4105332792793
 72
     1
 10
66.44280054762541
 20
-129.4105332792793
 11
66.44280054762541
 21
-130.1116102105277
 72
     1
 10
66.44280054762541
 20
-130.1116102105277
 11
66.21852483153565
 21
-130.1116102105277
 72
     1
 10
66.21852483153565
 20
-130.1116102105277
 11
65.24528535695256
 21
-129.3857285917855
 72
     1
 10
65.24528535695256
 20
-129.3857285917855
 11
65.24528535695256
 21
-129.1779893340249
 72
     1
 10
65.24528535695256
 20
-129.1779893340249
 11
66.2440185381265
 21
-129.1779893340249
 72
     1
 10
66.2440185381265
 20
-129.1779893340249
 11
66.2440185381265
 21
-128.9561251847749
 72
     1
 10
66.2440185381265
 20
-128.9561251847749
 11
66.44280054762541
 21
-128.9561251847749
 72
     1
 10
66.44280054762541
 20
-128.9561251847749
 11
66.44280054762541
 21
-129.1779893340249
 97
        0
 92
        1
 93
        3
 72
     1
 10
65.58807235773493
 20
-129.4105332792793
 11
66.2440185381265
 21
-129.8990478190877
 72
     1
 10
66.2440185381265
 20
-129.8990478190877
 11
66.2440185381265
 21
-129.4105332792793
 72
     1
 10
66.2440185381265
 20
-129.4105332792793
 11
65.58807235773493
 21
-129.4105332792793
 97
        0
 75
     2
 76
     1
 98
        0
  0
ENDBLK
  5
C8
330
C5
100
AcDbEntity
  8
0
100
AcDbBlockEnd
  0
BLOCK
  5
E2
330
E0
100
AcDbEntity
  8
0
100
AcDbBlockBegin
  2
block 8
 70
     0
 10
0.0
 20
0.0
 30
0.0
  3
block 8
  1

  0
SPLINE
  5
E4
330
E0
100
AcDbEntity
  8
_U+30EC_U+30A4_U+30E4_U+30FC 1
370
     0
100
AcDbSpline
210
0.0
220
0.0
230
1.0
 70
    11
 71
     3
 72
    26
 73
    22
 74
     0
 42
0.0000000001
 43
0.0000000001
 12
1.0
 22
0.0
 32
0.0
 13
1.0
 23
0.0
 33
0.0
 40
0.0
 40
0.0
 40
0.0
 40
0.0
 40
1.0
 40
1.0
 40
1.0
 40
2.0
 40
2.0
 40
2.0
 40
3.0
 40
3.0
 40
3.0
 40
4.0
 40
4.0
 40
4.0
 40
5.0
 40
5.0
 40
5.0
 40
6.0
 40
6.0
 40
6.0
 40
7.0
 40
7.0
 40
7.0
 40
7.0
 10
115.906447996197
 20
-124.3195434259514
 30
0.0
 10
115.906447996197
 20
-124.3195434259514
 30
0.0
 10
114.8022948931744
 20
-124.3195434259514
 30
0.0
 10
114.8022948931744
 20
-124.3195434259514
 30
0.0
 10
114.8022948931744
 20
-124.3195434259514
 30
0.0
 10
114.8022948931744
 20
-124.6723212036409
 30
0.0
 10
114.8022948931744
 20
-124.6723212036409
 30
0.0
 10
114.8022948931744
 20
-124.6723212036409
 30
0.0
 10
114.6541557873087
 20
-124.6723212036409
 30
0.0
 10
114.6541557873087
 20
-124.6723212036409
 30
0.0
 10
114.6393418767221
 20
-124.317304113886
 30
0.0
 10
114.4763888602698
 20
-124.2675224841241
 30
0.0
 10
114.3620116901595
 20
-124.2359998604341
 30
0.0
 10
114.3620116901595
 20
-124.2359998604341
 30
0.0
 10
114.3620116901595
 20
-124.0799370349522
 30
0.0
 10
114.3620116901595
 20
-124.0799370349522
 30
0.0
 10
114.3620116901595
 20
-124.0799370349522
 30
0.0
 10
115.906447996197
 20
-124.0799370349522
 30
0.0
 10
115.906447996197
 20
-124.0799370349522
 30
0.0
 10
115.906447996197
 20
-124.0799370349522
 30
0.0
 10
115.906447996197
 20
-124.3195434259514
 30
0.0
 10
115.906447996197
 20
-124.3195434259514
 30
0.0
  0
HATCH
  5
E5
330
E0
100
AcDbEntity
  8
_U+30EC_U+30A4_U+30E4_U+30FC 1
 62
   179
420
  2234388
100
AcDbHatch
 10
0.0
 20
0.0
 30
0.0
210
0.0
220
0.0
230
1.0
  2
SOLID
 70
     1
 71
     0
 91
        1
 92
        1
 93
        1
 72
     4
 94
        3
 73
     0
 74
     1
 95
       26
 96
       22
 40
0.0
 40
0.0
 40
0.0
 40
0.0
 40
1.0
 40
1.0
 40
1.0
 40
2.0
 40
2.0
 40
2.0
 40
3.0
 40
3.0
 40
3.0
 40
4.0
 40
4.0
 40
4.0
 40
5.0
 40
5.0
 40
5.0
 40
6.0
 40
6.0
 40
6.0
 40
7.0
 40
7.0
 40
7.0
 40
7.0
 10
115.906447996197
 20
-124.3195434259514
 10
115.906447996197
 20
-124.3195434259514
 10
114.8022948931744
 20
-124.3195434259514
 10
114.8022948931744
 20
-124.3195434259514
 10
114.8022948931744
 20
-124.3195434259514
 10
114.8022948931744
 20
-124.6723212036409
 10
114.8022948931744
 20
-124.6723212036409
 10
114.8022948931744
 20
-124.6723212036409
 10
114.6541557873087
 20
-124.6723212036409
 10
114.6541557873087
 20
-124.6723212036409
 10
114.6393418767221
 20
-124.317304113886
 10
114.4763888602698
 20
-124.2675224841241
 10
114.3620116901595
 20
-124.2359998604341
 10
114.3620116901595
 20
-124.2359998604341
 10
114.3620116901595
 20
-124.0799370349522
 10
114.3620116901595
 20
-124.0799370349522
 10
114.3620116901595
 20
-124.0799370349522
 10
115.906447996197
 20
-124.0799370349522
 10
115.906447996197
 20
-124.0799370349522
 10
115.906447996197
 20
-124.0799370349522
 10
115.906447996197
 20
-124.3195434259514
 10
115.906447996197
 20
-124.3195434259514
 97
        0
 97
        0
 75
     2
 76
     1
 98
        0
  0
ENDBLK
  5
E3
330
E0
100
AcDbEntity
  8
0
100
AcDbBlockEnd
  0
BLOCK
  5
102
330
100
100
AcDbEntity
  8
0
100
AcDbBlockBegin
  2
block 9
 70
     0
 10
0.0
 20
0.0
 30
0.0
  3
block 9
  1

  0
SPLINE
  5
104
330
100
100
AcDbEntity
  8
_U+30EC_U+30A4_U+30E4_U+30FC 1
370
     0
100
AcDbSpline
210
0.0
220
0.0
230
1.0
 70
    11
 71
     3
 72
    62
 73
    58
 74
     0
 42
0.0000000001
 43
0.0000000001
 12
1.0
 22
0.0
 32
0.0
 13
1.0
 23
0.0
 33
0.0
 40
0.0
 40
0.0
 40
0.0
 40
0.0
 40
1.0
 40
1.0
 40
1.0
 40
2.0
 40
2.0
 40
2.0
 40
3.0
 40
3.0
 40
3.0
 40
4.0
 40
4.0
 40
4.0
 40
5.0
 40
5.0
 40
5.0
 40
6.0
 40
6.0
 40
6.0
 40
7.0
 40
7.0
 40
7.0
 40
8.0
 40
8.0
 40
8.0
 40
9.0
 40
9.0
 40
9.0
 40
10.0
 40
10.0
 40
10.0
 40
11.0
 40
11.0
 40
11.0
 40
12.0
 40
12.0
 40
12.0
 40
13.0
 40
13.0
 40
13.0
 40
14.0
 40
14.0
 40
14.0
 40
15.0
 40
15.0
 40
15.0
 40
16.0
 40
16.0
 40
16.0
 40
17.0
 40
17.0
 40
17.0
 40
18.0
 40
18.0
 40
18.0
 40
19.0
 40
19.0
 40
19.0
 40
19.0
 10
72.99692245353897
 20
-111.1866671814047
 30
0.0
 10
72.8952921367241
 20
-111.1866671814047
 30
0.0
 10
72.6624036819212
 20
-111.1656520989447
 30
0.0
 10
72.52890623186778
 20
-110.9796169427412
 30
0.0
 10
72.44984129048129
 20
-110.8673068299221
 30
0.0
 10
72.44536266635046
 20
-110.7680880799469
 30
0.0
 10
72.44088404221965
 20
-110.6833387310097
 30
0.0
 10
72.44088404221965
 20
-110.6833387310097
 30
0.0
 10
72.67583955431368
 20
-110.6833387310097
 30
0.0
 10
72.67583955431368
 20
-110.6833387310097
 30
0.0
 10
72.67825112115335
 20
-110.7574082839426
 30
0.0
 10
72.68944768148042
 20
-110.9920192864881
 30
0.0
 10
72.99244382940815
 20
-110.9920192864881
 30
0.0
 10
73.13937715185405
 20
-110.9920192864881
 30
0.0
 10
73.3021579135321
 20
-110.9224283576861
 30
0.0
 10
73.3021579135321
 20
-110.694018527014
 30
0.0
 10
73.3021579135321
 20
-110.5775742996126
 30
0.0
 10
73.26150578680615
 20
-110.5289984532705
 30
0.0
 10
73.22757159627645
 20
-110.4973035748062
 30
0.0
 10
73.14850665488996
 20
-110.4232340218734
 30
0.0
 10
73.02413870787244
 20
-110.4104871685779
 30
0.0
 10
72.96522757507466
 20
-110.4104871685779
 30
0.0
 10
72.94490151171169
 20
-110.4104871685779
 30
0.0
 10
72.90648869705116
 20
-110.4125542258691
 30
0.0
 10
72.87720538542654
 20
-110.4166883404514
 30
0.0
 10
72.87720538542654
 20
-110.4166883404514
 30
0.0
 10
72.87720538542654
 20
-110.2220404455348
 30
0.0
 10
72.87720538542654
 20
-110.2220404455348
 30
0.0
 10
72.91785751215248
 20
-110.2285861269567
 30
0.0
 10
72.96298826300925
 20
-110.2306531842479
 30
0.0
 10
72.96987845397976
 20
-110.2306531842479
 30
0.0
 10
73.03998614710459
 20
-110.2306531842479
 30
0.0
 10
73.25237628377025
 20
-110.2092935922393
 30
0.0
 10
73.25237628377025
 20
-109.9726155324027
 30
0.0
 10
73.25237628377025
 20
-109.7948486053638
 30
0.0
 10
73.11233315229484
 20
-109.7397270775998
 30
0.0
 10
72.99468314147356
 20
-109.7397270775998
 30
0.0
 10
72.7120130569088
 20
-109.7397270775998
 30
0.0
 10
72.70305580864715
 20
-109.9726155324027
 30
0.0
 10
72.69857718451632
 20
-110.0442735184959
 30
0.0
 10
72.69857718451632
 20
-110.0442735184959
 30
0.0
 10
72.4815361689456
 20
-110.0442735184959
 30
0.0
 10
72.4815361689456
 20
-110.0442735184959
 30
0.0
 10
72.49049341720725
 20
-109.9195610619298
 30
0.0
 10
72.51994898360613
 20
-109.543012125392
 30
0.0
 10
73.00829126864029
 20
-109.543012125392
 30
0.0
 10
73.24789765963942
 20
-109.543012125392
 30
0.0
 10
73.50559080193611
 20
-109.6701361487978
 30
0.0
 10
73.50559080193611
 20
-109.9660698509807
 30
0.0
 10
73.50559080193611
 20
-110.1524495167327
 30
0.0
 10
73.40396048512123
 20
-110.2347872988302
 30
0.0
 10
73.29767928940127
 20
-110.2961099984676
 30
0.0
 10
73.36313610362103
 20
-110.3236707623496
 30
0.0
 10
73.55761174376337
 20
-110.403941487156
 30
0.0
 10
73.55761174376337
 20
-110.6812716737186
 30
0.0
 10
73.55761174376337
 20
-111.0195800503701
 30
0.0
 10
73.29320066527045
 20
-111.1866671814047
 30
0.0
 10
72.99692245353897
 20
-111.1866671814047
 30
0.0
  0
HATCH
  5
105
330
100
100
AcDbEntity
  8
_U+30EC_U+30A4_U+30E4_U+30FC 1
 62
   179
420
  2234388
100
AcDbHatch
 10
0.0
 20
0.0
 30
0.0
210
0.0
220
0.0
230
1.0
  2
SOLID
 70
     1
 71
     0
 91
        1
 92
        1
 93
        1
 72
     4
 94
        3
 73
     0
 74
     1
 95
       62
 96
       58
 40
0.0
 40
0.0
 40
0.0
 40
0.0
 40
1.0
 40
1.0
 40
1.0
 40
2.0
 40
2.0
 40
2.0
 40
3.0
 40
3.0
 40
3.0
 40
4.0
 40
4.0
 40
4.0
 40
5.0
 40
5.0
 40
5.0
 40
6.0
 40
6.0
 40
6.0
 40
7.0
 40
7.0
 40
7.0
 40
8.0
 40
8.0
 40
8.0
 40
9.0
 40
9.0
 40
9.0
 40
10.0
 40
10.0
 40
10.0
 40
11.0
 40
11.0
 40
11.0
 40
12.0
 40
12.0
 40
12.0
 40
13.0
 40
13.0
 40
13.0
 40
14.0
 40
14.0
 40
14.0
 40
15.0
 40
15.0
 40
15.0
 40
16.0
 40
16.0
 40
16.0
 40
17.0
 40
17.0
 40
17.0
 40
18.0
 40
18.0
 40
18.0
 40
19.0
 40
19.0
 40
19.0
 40
19.0
 10
72.99692245353897
 20
-111.1866671814047
 10
72.8952921367241
 20
-111.1866671814047
 10
72.6624036819212
 20
-111.1656520989447
 10
72.52890623186778
 20
-110.9796169427412
 10
72.44984129048129
 20
-110.8673068299221
 10
72.44536266635046
 20
-110.7680880799469
 10
72.44088404221965
 20
-110.6833387310097
 10
72.44088404221965
 20
-110.6833387310097
 10
72.67583955431368
 20
-110.6833387310097
 10
72.67583955431368
 20
-110.6833387310097
 10
72.67825112115335
 20
-110.7574082839426
 10
72.68944768148042
 20
-110.9920192864881
 10
72.99244382940815
 20
-110.9920192864881
 10
73.13937715185405
 20
-110.9920192864881
 10
73.3021579135321
 20
-110.9224283576861
 10
73.3021579135321
 20
-110.694018527014
 10
73.3021579135321
 20
-110.5775742996126
 10
73.26150578680615
 20
-110.5289984532705
 10
73.22757159627645
 20
-110.4973035748062
 10
73.14850665488996
 20
-110.4232340218734
 10
73.02413870787244
 20
-110.4104871685779
 10
72.96522757507466
 20
-110.4104871685779
 10
72.94490151171169
 20
-110.4104871685779
 10
72.90648869705116
 20
-110.4125542258691
 10
72.87720538542654
 20
-110.4166883404514
 10
72.87720538542654
 20
-110.4166883404514
 10
72.87720538542654
 20
-110.2220404455348
 10
72.87720538542654
 20
-110.2220404455348
 10
72.91785751215248
 20
-110.2285861269567
 10
72.96298826300925
 20
-110.2306531842479
 10
72.96987845397976
 20
-110.2306531842479
 10
73.03998614710459
 20
-110.2306531842479
 10
73.25237628377025
 20
-110.2092935922393
 10
73.25237628377025
 20
-109.9726155324027
 10
73.25237628377025
 20
-109.7948486053638
 10
73.11233315229484
 20
-109.7397270775998
 10
72.99468314147356
 20
-109.7397270775998
 10
72.7120130569088
 20
-109.7397270775998
 10
72.70305580864715
 20
-109.9726155324027
 10
72.69857718451632
 20
-110.0442735184959
 10
72.69857718451632
 20
-110.0442735184959
 10
72.4815361689456
 20
-110.0442735184959
 10
72.4815361689456
 20
-110.0442735184959
 10
72.49049341720725
 20
-109.9195610619298
 10
72.51994898360613
 20
-109.543012125392
 10
73.00829126864029
 20
-109.543012125392
 10
73.24789765963942
 20
-109.543012125392
 10
73.50559080193611
 20
-109.6701361487978
 10
73.50559080193611
 20
-109.9660698509807
 10
73.50559080193611
 20
-110.1524495167327
 10
73.40396048512123
 20
-110.2347872988302
 10
73.29767928940127
 20
-110.2961099984676
 10
73.36313610362103
 20
-110.3236707623496
 10
73.55761174376337
 20
-110.403941487156
 10
73.55761174376337
 20
-110.6812716737186
 10
73.55761174376337
 20
-111.0195800503701
 10
73.29320066527045
 20
-111.1866671814047
 10
72.99692245353897
 20
-111.1866671814047
 97
        0
 97
        0
 75
     2
 76
     1
 98
        0
  0
ENDBLK
  5
103
330
100
100
AcDbEntity
  8
0
100
AcDbBlockEnd
  0
ENDSEC
  0
SECTION
  2
ENTITIES
  0
POLYLINE
  5
41
330
1F
100
AcDbEntity
  8
_U+30EC_U+30A4_U+30E4_U+30FC 1
 62
   179
420
  2234388
370
     9
100
AcDb2dPolyline
 66
     1
 10
0.0
 20
0.0
 30
0.0
  0
VERTEX
  5
42
330
41
100
AcDbEntity
  8
_U+30EC_U+30A4_U+30E4_U+30FC 1
 62
   179
420
  2234388
370
     9
100
AcDbVertex
100
AcDb2dVertex
 10
116.5144889719122
 20
-123.3401069136095
 30
0.0
  0
VERTEX
  5
43
330
41
100
AcDbEntity
  8
_U+30EC_U+30A4_U+30E4_U+30FC 1
 62
   179
420
  2234388
370
     9
100
AcDbVertex
100
AcDb2dVertex
 10
116.4979789723334
 20
-143.2512021864093
 30
0.0
  0
SEQEND
  5
44
330
41
100
AcDbEntity
  8
_U+30EC_U+30A4_U+30E4_U+30FC 1
 62
   179
420
  2234388
370
     9
  0
POLYLINE
  5
45
330
1F
100
AcDbEntity
  8
_U+30EC_U+30A4_U+30E4_U+30FC 1
 62
   179
420
  2234388
370
     9
100
AcDb2dPolyline
 66
     1
 10
0.0
 20
0.0
 30
0.0
  0
VERTEX
  5
46
330
45
100
AcDbEntity
  8
_U+30EC_U+30A4_U+30E4_U+30FC 1
 62
   179
420
  2234388
370
     9
100
AcDbVertex
100
AcDb2dVertex
 10
71.36771873481337
 20
-114.5261658047017
 30
0.0
  0
VERTEX
  5
47
330
45
100
AcDbEntity
  8
_U+30EC_U+30A4_U+30E4_U+30FC 1
 62
   179
420
  2234388
370
     9
100
AcDbVertex
100
AcDb2dVertex
 10
111.3675318809998
 20
-114.5261658047017
 30
0.0
  0
SEQEND
  5
48
330
45
100
AcDbEntity
  8
_U+30EC_U+30A4_U+30E4_U+30FC 1
 62
   179
420
  2234388
370
     9
  0
POLYLINE
  5
49
330
1F
100
AcDbEntity
  8
_U+30EC_U+30A4_U+30E4_U+30FC 1
 62
   179
420
  2234388
370
     9
100
AcDb2dPolyline
 66
     1
 10
0.0
 20
0.0
 30
0.0
  0
VERTEX
  5
4A
330
49
100
AcDbEntity
  8
_U+30EC_U+30A4_U+30E4_U+30FC 1
 62
   179
420
  2234388
370
     9
100
AcDbVertex
100
AcDb2dVertex
 10
71.23542707152174
 20
-147.3543252409391
 30
0.0
  0
VERTEX
  5
4B
330
49
100
AcDbEntity
  8
_U+30EC_U+30A4_U+30E4_U+30FC 1
 62
   179
420
  2234388
370
     9
100
AcDbVertex
100
AcDb2dVertex
 10
81.12770376359317
 20
-147.3543252409391
 30
0.0
  0
SEQEND
  5
4C
330
49
100
AcDbEntity
  8
_U+30EC_U+30A4_U+30E4_U+30FC 1
 62
   179
420
  2234388
370
     9
  0
INSERT
  5
4E
330
1F
100
AcDbEntity
  8
_U+30EC_U+30A4_U+30E4_U+30FC 1
100
AcDbBlockReference
  2
block 2
 10
0.0
 20
0.0
 30
0.0
  0
INSERT
  5
6A
330
1F
100
AcDbEntity
  8
_U+30EC_U+30A4_U+30E4_U+30FC 1
100
AcDbBlockReference
  2
block 3
 10
0.0
 20
0.0
 30
0.0
  0
POLYLINE
  5
72
330
1F
100
AcDbEntity
  8
_U+30EC_U+30A4_U+30E4_U+30FC 1
 62
   179
420
  2234388
370
    25
100
AcDb2dPolyline
 66
     1
 10
0.0
 20
0.0
 30
0.0
  0
VERTEX
  5
73
330
72
100
AcDbEntity
  8
_U+30EC_U+30A4_U+30E4_U+30FC 1
 62
   179
420
  2234388
370
    25
100
AcDbVertex
100
AcDb2dVertex
 10
71.23542707152174
 20
-118.2213719148892
 30
0.0
  0
VERTEX
  5
74
330
72
100
AcDbEntity
  8
_U+30EC_U+30A4_U+30E4_U+30FC 1
 62
   179
420
  2234388
370
    25
100
AcDbVertex
100
AcDb2dVertex
 10
74.30018393777772
 20
-118.2213719148892
 30
0.0
  0
VERTEX
  5
75
330
72
100
AcDbEntity
  8
_U+30EC_U+30A4_U+30E4_U+30FC 1
 62
   179
420
  2234388
370
    25
100
AcDbVertex
100
AcDb2dVertex
 10
74.30018393777772
 20
-119.1915108035356
 30
0.0
  0
VERTEX
  5
76
330
72
100
AcDbEntity
  8
_U+30EC_U+30A4_U+30E4_U+30FC 1
 62
   179
420
  2234388
370
    25
100
AcDbVertex
100
AcDb2dVertex
 10
72.29376037785474
 20
-121.0656427475115
 30
0.0
  0
VERTEX
  5
77
330
72
100
AcDbEntity
  8
_U+30EC_U+30A4_U+30E4_U+30FC 1
 62
   179
420
  2234388
370
    25
100
AcDbVertex
100
AcDb2dVertex
 10
72.29376037785474
 20
-125.5043280241794
 30
0.0
  0
VERTEX
  5
78
330
72
100
AcDbEntity
  8
_U+30EC_U+30A4_U+30E4_U+30FC 1
 62
   179
420
  2234388
370
    25
100
AcDbVertex
100
AcDb2dVertex
 10
111.4412624346743
 20
-125.5043280241794
 30
0.0
  0
VERTEX
  5
79
330
72
100
AcDbEntity
  8
_U+30EC_U+30A4_U+30E4_U+30FC 1
 62
   179
420
  2234388
370
    25
100
AcDbVertex
100
AcDb2dVertex
 10
111.4412624346743
 20
-126.5033946905965
 30
0.0
  0
VERTEX
  5
7A
330
72
100
AcDbEntity
  8
_U+30EC_U+30A4_U+30E4_U+30FC 1
 62
   179
420
  2234388
370
    25
100
AcDbVertex
100
AcDb2dVertex
 10
72.29376037785474
 20
-126.5033946905965
 30
0.0
  0
VERTEX
  5
7B
330
72
100
AcDbEntity
  8
_U+30EC_U+30A4_U+30E4_U+30FC 1
 62
   179
420
  2234388
370
    25
100
AcDbVertex
100
AcDb2dVertex
 10
72.29376037785474
 20
-139.3175888540592
 30
0.0
  0
VERTEX
  5
7C
330
72
100
AcDbEntity
  8
_U+30EC_U+30A4_U+30E4_U+30FC 1
 62
   179
420
  2234388
370
    25
100
AcDbVertex
100
AcDb2dVertex
 10
81.11320459729642
 20
-139.3175888540592
 30
0.0
  0
VERTEX
  5
7D
330
72
100
AcDbEntity
  8
_U+30EC_U+30A4_U+30E4_U+30FC 1
 62
   179
420
  2234388
370
    25
100
AcDbVertex
100
AcDb2dVertex
 10
81.09701209770952
 20
-142.2273352422209
 30
0.0
  0
VERTEX
  5
7E
330
72
100
AcDbEntity
  8
_U+30EC_U+30A4_U+30E4_U+30FC 1
 62
   179
420
  2234388
370
    25
100
AcDbVertex
100
AcDb2dVertex
 10
71.21923457193485
 20
-142.2273352422209
 30
0.0
  0
VERTEX
  5
7F
330
72
100
AcDbEntity
  8
_U+30EC_U+30A4_U+30E4_U+30FC 1
 62
   179
420
  2234388
370
    25
100
AcDbVertex
100
AcDb2dVertex
 10
71.23542707152174
 20
-118.2213719148892
 30
0.0
  0
SEQEND
  5
80
330
72
100
AcDbEntity
  8
_U+30EC_U+30A4_U+30E4_U+30FC 1
 62
   179
420
  2234388
370
    25
  0
POLYLINE
  5
81
330
1F
100
AcDbEntity
  8
_U+30EC_U+30A4_U+30E4_U+30FC 1
 62
   179
420
  2234388
370
    25
100
AcDb2dPolyline
 66
     1
 10
0.0
 20
0.0
 30
0.0
  0
VERTEX
  5
82
330
81
100
AcDbEntity
  8
_U+30EC_U+30A4_U+30E4_U+30FC 1
 62
   179
420
  2234388
370
    25
100
AcDbVertex
100
AcDb2dVertex
 10
71.23542707152174
 20
-118.2213719148892
 30
0.0
  0
VERTEX
  5
83
330
81
100
AcDbEntity
  8
_U+30EC_U+30A4_U+30E4_U+30FC 1
 62
   179
420
  2234388
370
    25
100
AcDbVertex
100
AcDb2dVertex
 10
72.2920670445646
 20
-119.2025527479771
 30
0.0
  0
VERTEX
  5
84
330
81
100
AcDbEntity
  8
_U+30EC_U+30A4_U+30E4_U+30FC 1
 62
   179
420
  2234388
370
    25
100
AcDbVertex
100
AcDb2dVertex
 10
72.29376037785474
 20
-121.0656427475115
 30
0.0
  0
SEQEND
  5
85
330
81
100
AcDbEntity
  8
_U+30EC_U+30A4_U+30E4_U+30FC 1
 62
   179
420
  2234388
370
    25
  0
POLYLINE
  5
86
330
1F
100
AcDbEntity
  8
_U+30EC_U+30A4_U+30E4_U+30FC 1
 62
   179
420
  2234388
370
    25
100
AcDb2dPolyline
 66
     1
 10
0.0
 20
0.0
 30
0.0
  0
VERTEX
  5
87
330
86
100
AcDbEntity
  8
_U+30EC_U+30A4_U+30E4_U+30FC 1
 62
   179
420
  2234388
370
    25
100
AcDbVertex
100
AcDb2dVertex
 10
72.29376037785474
 20
-139.3175888540592
 30
0.0
  0
VERTEX
  5
88
330
86
100
AcDbEntity
  8
_U+30EC_U+30A4_U+30E4_U+30FC 1
 62
   179
420
  2234388
370
    25
100
AcDbVertex
100
AcDb2dVertex
 10
72.29376037785474
 20
-141.2275630202484
 30
0.0
  0
VERTEX
  5
89
330
86
100
AcDbEntity
  8
_U+30EC_U+30A4_U+30E4_U+30FC 1
 62
   179
420
  2234388
370
    25
100
AcDbVertex
100
AcDb2dVertex
 10
71.21923457193485
 20
-142.2273352422209
 30
0.0
  0
SEQEND
  5
8A
330
86
100
AcDbEntity
  8
_U+30EC_U+30A4_U+30E4_U+30FC 1
 62
   179
420
  2234388
370
    25
  0
SPLINE
  5
8B
330
1F
100
AcDbEntity
  8
_U+30EC_U+30A4_U+30E4_U+30FC 1
 62
   179
420
  2234388
370
     9
100
AcDbSpline
210
0.0
220
0.0
230
1.0
 70
    11
 71
     3
 72
    17
 73
    13
 74
     0
 42
0.0000000001
 43
0.0000000001
 12
1.0
 22
0.0
 32
0.0
 13
1.0
 23
0.0
 33
0.0
 40
0.0
 40
0.0
 40
0.0
 40
0.0
 40
1.0
 40
1.0
 40
1.0
 40
2.0
 40
2.0
 40
2.0
 40
3.0
 40
3.0
 40
3.0
 40
4.0
 40
4.0
 40
4.0
 40
4.0
 10
116.6151011915676
 20
-125.510501635289
 30
0.0
 10
116.6151011915676
 20
-125.4546921908586
 30
0.0
 10
116.5702984149328
 20
-125.4099246908697
 30
0.0
 10
116.5151945274497
 20
-125.4099246908697
 30
0.0
 10
116.4600583042182
 20
-125.4099246908697
 30
0.0
 10
116.4152878633319
 20
-125.4546921908586
 30
0.0
 10
116.4152878633319
 20
-125.510501635289
 30
0.0
 10
116.4152878633319
 20
-125.5656408019421
 30
0.0
 10
116.4600583042182
 20
-125.6104083019306
 30
0.0
 10
116.5151945274497
 20
-125.6104083019306
 30
0.0
 10
116.5702984149328
 20
-125.6104083019306
 30
0.0
 10
116.6151011915676
 20
-125.5656408019421
 30
0.0
 10
116.6151011915676
 20
-125.510501635289
 30
0.0
  0
SPLINE
  5
8C
330
1F
100
AcDbEntity
  8
_U+30EC_U+30A4_U+30E4_U+30FC 1
 62
   179
420
  2234388
370
     9
100
AcDbSpline
210
0.0
220
0.0
230
1.0
 70
    11
 71
     3
 72
    17
 73
    13
 74
     0
 42
0.0000000001
 43
0.0000000001
 12
1.0
 22
0.0
 32
0.0
 13
1.0
 23
0.0
 33
0.0
 40
0.0
 40
0.0
 40
0.0
 40
0.0
 40
1.0
 40
1.0
 40
1.0
 40
2.0
 40
2.0
 40
2.0
 40
3.0
 40
3.0
 40
3.0
 40
4.0
 40
4.0
 40
4.0
 40
4.0
 10
116.6151011915676
 20
-126.4992671905975
 30
0.0
 10
116.6151011915676
 20
-126.4434577461671
 30
0.0
 10
116.5702984149328
 20
-126.3986549684003
 30
0.0
 10
116.5151945274497
 20
-126.3986549684003
 30
0.0
 10
116.4600583042182
 20
-126.3986549684003
 30
0.0
 10
116.4152878633319
 20
-126.4434577461671
 30
0.0
 10
116.4152878633319
 20
-126.4992671905975
 30
0.0
 10
116.4152878633319
 20
-126.5543710794724
 30
0.0
 10
116.4600583042182
 20
-126.5991738572391
 30
0.0
 10
116.5151945274497
 20
-126.5991738572391
 30
0.0
 10
116.5702984149328
 20
-126.5991738572391
 30
0.0
 10
116.6151011915676
 20
-126.5543710794724
 30
0.0
 10
116.6151011915676
 20
-126.4992671905975
 30
0.0
  0
SPLINE
  5
8D
330
1F
100
AcDbEntity
  8
_U+30EC_U+30A4_U+30E4_U+30FC 1
 62
   179
420
  2234388
370
     9
100
AcDbSpline
210
0.0
220
0.0
230
1.0
 70
    11
 71
     3
 72
    17
 73
    13
 74
     0
 42
0.0000000001
 43
0.0000000001
 12
1.0
 22
0.0
 32
0.0
 13
1.0
 23
0.0
 33
0.0
 40
0.0
 40
0.0
 40
0.0
 40
0.0
 40
1.0
 40
1.0
 40
1.0
 40
2.0
 40
2.0
 40
2.0
 40
3.0
 40
3.0
 40
3.0
 40
4.0
 40
4.0
 40
4.0
 40
4.0
 10
81.42587153376407
 20
-118.2275808037766
 30
0.0
 10
81.42587153376407
 20
-118.1724769149014
 30
0.0
 10
81.3810687571293
 20
-118.1276741371346
 30
0.0
 10
81.32596486964623
 20
-118.1276741371346
 30
0.0
 10
81.27082775746
 20
-118.1276741371346
 30
0.0
 10
81.22605820552839
 20
-118.1724769149014
 30
0.0
 10
81.22605820552839
 20
-118.2275808037766
 30
0.0
 10
81.22605820552839
 20
-118.2827199704294
 30
0.0
 10
81.27082775746
 20
-118.3274874704182
 30
0.0
 10
81.32596486964623
 20
-118.3274874704182
 30
0.0
 10
81.3810687571293
 20
-118.3274874704182
 30
0.0
 10
81.42587153376407
 20
-118.2827199704294
 30
0.0
 10
81.42587153376407
 20
-118.2275808037766
 30
0.0
  0
SPLINE
  5
8E
330
1F
100
AcDbEntity
  8
_U+30EC_U+30A4_U+30E4_U+30FC 1
 62
   179
420
  2234388
370
     9
100
AcDbSpline
210
0.0
220
0.0
230
1.0
 70
    11
 71
     3
 72
    17
 73
    13
 74
     0
 42
0.0000000001
 43
0.0000000001
 12
1.0
 22
0.0
 32
0.0
 13
1.0
 23
0.0
 33
0.0
 40
0.0
 40
0.0
 40
0.0
 40
0.0
 40
1.0
 40
1.0
 40
1.0
 40
2.0
 40
2.0
 40
2.0
 40
3.0
 40
3.0
 40
3.0
 40
4.0
 40
4.0
 40
4.0
 40
4.0
 10
81.42587153376407
 20
-121.2365283030241
 30
0.0
 10
81.42587153376407
 20
-121.1813891363713
 30
0.0
 10
81.3810687571293
 20
-121.1366216363824
 30
0.0
 10
81.32596486964623
 20
-121.1366216363824
 30
0.0
 10
81.27082775746
 20
-121.1366216363824
 30
0.0
 10
81.22605820552839
 20
-121.1813891363713
 30
0.0
 10
81.22605820552839
 20
-121.2365283030241
 30
0.0
 10
81.22605820552839
 20
-121.2916321918993
 30
0.0
 10
81.27082775746
 20
-121.336434969666
 30
0.0
 10
81.32596486964623
 20
-121.336434969666
 30
0.0
 10
81.3810687571293
 20
-121.336434969666
 30
0.0
 10
81.42587153376407
 20
-121.2916321918993
 30
0.0
 10
81.42587153376407
 20
-121.2365283030241
 30
0.0
  0
POLYLINE
  5
8F
330
1F
100
AcDbEntity
  8
_U+30EC_U+30A4_U+30E4_U+30FC 1
 62
   179
420
  2234388
370
     9
100
AcDb2dPolyline
 66
     1
 10
0.0
 20
0.0
 30
0.0
  0
VERTEX
  5
90
330
8F
100
AcDbEntity
  8
_U+30EC_U+30A4_U+30E4_U+30FC 1
 62
   179
420
  2234388
370
     9
100
AcDbVertex
100
AcDb2dVertex
 10
81.32596486964623
 20
-118.2275808037766
 30
0.0
  0
VERTEX
  5
91
330
8F
100
AcDbEntity
  8
_U+30EC_U+30A4_U+30E4_U+30FC 1
 62
   179
420
  2234388
370
     9
100
AcDbVertex
100
AcDb2dVertex
 10
81.32596486964623
 20
-121.2275677474709
 30
0.0
  0
SEQEND
  5
92
330
8F
100
AcDbEntity
  8
_U+30EC_U+30A4_U+30E4_U+30FC 1
 62
   179
420
  2234388
370
     9
  0
POLYLINE
  5
93
330
1F
100
AcDbEntity
  8
_U+30EC_U+30A4_U+30E4_U+30FC 1
 62
   179
420
  2234388
370
     9
100
AcDb2dPolyline
 66
     1
 10
0.0
 20
0.0
 30
0.0
  0
VERTEX
  5
94
330
93
100
AcDbEntity
  8
_U+30EC_U+30A4_U+30E4_U+30FC 1
 62
   179
420
  2234388
370
     9
100
AcDbVertex
100
AcDb2dVertex
 10
76.80046109621256
 20
-118.2275808037766
 30
0.0
  0
VERTEX
  5
95
330
93
100
AcDbEntity
  8
_U+30EC_U+30A4_U+30E4_U+30FC 1
 62
   179
420
  2234388
370
     9
100
AcDbVertex
100
AcDb2dVertex
 10
82.34778567691075
 20
-118.2275808037766
 30
0.0
  0
SEQEND
  5
96
330
93
100
AcDbEntity
  8
_U+30EC_U+30A4_U+30E4_U+30FC 1
 62
   179
420
  2234388
370
     9
  0
POLYLINE
  5
97
330
1F
100
AcDbEntity
  8
_U+30EC_U+30A4_U+30E4_U+30FC 1
 62
   179
420
  2234388
370
     9
100
AcDb2dPolyline
 66
     1
 10
0.0
 20
0.0
 30
0.0
  0
VERTEX
  5
98
330
97
100
AcDbEntity
  8
_U+30EC_U+30A4_U+30E4_U+30FC 1
 62
   179
420
  2234388
370
     9
100
AcDbVertex
100
AcDb2dVertex
 10
76.76670026374053
 20
-121.2296491363593
 30
0.0
  0
VERTEX
  5
99
330
97
100
AcDbEntity
  8
_U+30EC_U+30A4_U+30E4_U+30FC 1
 62
   179
420
  2234388
370
     9
100
AcDbVertex
100
AcDb2dVertex
 10
82.34778567691075
 20
-121.2296491363593
 30
0.0
  0
SEQEND
  5
9A
330
97
100
AcDbEntity
  8
_U+30EC_U+30A4_U+30E4_U+30FC 1
 62
   179
420
  2234388
370
     9
  0
INSERT
  5
9C
330
1F
100
AcDbEntity
  8
_U+30EC_U+30A4_U+30E4_U+30FC 1
100
AcDbBlockReference
  2
block 4
 10
0.0
 20
0.0
 30
0.0
  0
SPLINE
  5
A1
330
1F
100
AcDbEntity
  8
_U+30EC_U+30A4_U+30E4_U+30FC 1
 62
   179
420
  2234388
370
     9
100
AcDbSpline
210
0.0
220
0.0
230
1.0
 70
    11
 71
     3
 72
    17
 73
    13
 74
     0
 42
0.0000000001
 43
0.0000000001
 12
1.0
 22
0.0
 32
0.0
 13
1.0
 23
0.0
 33
0.0
 40
0.0
 40
0.0
 40
0.0
 40
0.0
 40
1.0
 40
1.0
 40
1.0
 40
2.0
 40
2.0
 40
2.0
 40
3.0
 40
3.0
 40
3.0
 40
4.0
 40
4.0
 40
4.0
 40
4.0
 10
116.5958042476154
 20
-139.3244680207243
 30
0.0
 10
116.5958042476154
 20
-139.2693641318494
 30
0.0
 10
116.5510367487576
 20
-139.2245613540827
 30
0.0
 10
116.4958975834976
 20
-139.2245613540827
 30
0.0
 10
116.4407936960145
 20
-139.2245613540827
 30
0.0
 10
116.3959909193798
 20
-139.2693641318494
 30
0.0
 10
116.3959909193798
 20
-139.3244680207243
 30
0.0
 10
116.3959909193798
 20
-139.3796071873774
 30
0.0
 10
116.4407936960145
 20
-139.4244099651441
 30
0.0
 10
116.4958975834976
 20
-139.4244099651441
 30
0.0
 10
116.5510367487576
 20
-139.4244099651441
 30
0.0
 10
116.5958042476154
 20
-139.3796071873774
 30
0.0
 10
116.5958042476154
 20
-139.3244680207243
 30
0.0
  0
SPLINE
  5
A2
330
1F
100
AcDbEntity
  8
_U+30EC_U+30A4_U+30E4_U+30FC 1
 62
   179
420
  2234388
370
     9
100
AcDbSpline
210
0.0
220
0.0
230
1.0
 70
    11
 71
     3
 72
    17
 73
    13
 74
     0
 42
0.0000000001
 43
0.0000000001
 12
1.0
 22
0.0
 32
0.0
 13
1.0
 23
0.0
 33
0.0
 40
0.0
 40
0.0
 40
0.0
 40
0.0
 40
1.0
 40
1.0
 40
1.0
 40
2.0
 40
2.0
 40
2.0
 40
3.0
 40
3.0
 40
3.0
 40
4.0
 40
4.0
 40
4.0
 40
4.0
 10
116.5799645257973
 20
-142.2225021866668
 30
0.0
 10
116.5799645257973
 20
-142.1673630200137
 30
0.0
 10
116.5351617491626
 20
-142.1225955200251
 30
0.0
 10
116.4800578616795
 20
-142.1225955200251
 30
0.0
 10
116.4249186964195
 20
-142.1225955200251
 30
0.0
 10
116.3801511975616
 20
-142.1673630200137
 30
0.0
 10
116.3801511975616
 20
-142.2225021866668
 30
0.0
 10
116.3801511975616
 20
-142.2776060755417
 30
0.0
 10
116.4249186964195
 20
-142.3224088533084
 30
0.0
 10
116.4800578616795
 20
-142.3224088533084
 30
0.0
 10
116.5351617491626
 20
-142.3224088533084
 30
0.0
 10
116.5799645257973
 20
-142.2776060755417
 30
0.0
 10
116.5799645257973
 20
-142.2225021866668
 30
0.0
  0
POLYLINE
  5
A3
330
1F
100
AcDbEntity
  8
_U+30EC_U+30A4_U+30E4_U+30FC 1
 62
   179
420
  2234388
370
     9
100
AcDb2dPolyline
 66
     1
 10
0.0
 20
0.0
 30
0.0
  0
VERTEX
  5
A4
330
A3
100
AcDbEntity
  8
_U+30EC_U+30A4_U+30E4_U+30FC 1
 62
   179
420
  2234388
370
     9
100
AcDbVertex
100
AcDb2dVertex
 10
83.60300425599856
 20
-139.3272549651682
 30
0.0
  0
VERTEX
  5
A5
330
A3
100
AcDbEntity
  8
_U+30EC_U+30A4_U+30E4_U+30FC 1
 62
   179
420
  2234388
370
     9
100
AcDbVertex
100
AcDb2dVertex
 10
117.5142611686281
 20
-139.3244680207243
 30
0.0
  0
SEQEND
  5
A6
330
A3
100
AcDbEntity
  8
_U+30EC_U+30A4_U+30E4_U+30FC 1
 62
   179
420
  2234388
370
     9
  0
POLYLINE
  5
A7
330
1F
100
AcDbEntity
  8
_U+30EC_U+30A4_U+30E4_U+30FC 1
 62
   179
420
  2234388
370
     9
100
AcDb2dPolyline
 66
     1
 10
0.0
 20
0.0
 30
0.0
  0
VERTEX
  5
A8
330
A7
100
AcDbEntity
  8
_U+30EC_U+30A4_U+30E4_U+30FC 1
 62
   179
420
  2234388
370
     9
100
AcDbVertex
100
AcDb2dVertex
 10
83.60300425599856
 20
-142.2169988533346
 30
0.0
  0
VERTEX
  5
A9
330
A7
100
AcDbEntity
  8
_U+30EC_U+30A4_U+30E4_U+30FC 1
 62
   179
420
  2234388
370
     9
100
AcDbVertex
100
AcDb2dVertex
 10
117.4997972801082
 20
-142.2162932977791
 30
0.0
  0
SEQEND
  5
AA
330
A7
100
AcDbEntity
  8
_U+30EC_U+30A4_U+30E4_U+30FC 1
 62
   179
420
  2234388
370
     9
  0
INSERT
  5
AC
330
1F
100
AcDbEntity
  8
_U+30EC_U+30A4_U+30E4_U+30FC 1
100
AcDbBlockReference
  2
block 5
 10
0.0
 20
0.0
 30
0.0
  0
INSERT
  5
B2
330
1F
100
AcDbEntity
  8
_U+30EC_U+30A4_U+30E4_U+30FC 1
100
AcDbBlockReference
  2
block 6
 10
0.0
 20
0.0
 30
0.0
  0
INSERT
  5
C6
330
1F
100
AcDbEntity
  8
_U+30EC_U+30A4_U+30E4_U+30FC 1
100
AcDbBlockReference
  2
block 7
 10
0.0
 20
0.0
 30
0.0
  0
INSERT
  5
E1
330
1F
100
AcDbEntity
  8
_U+30EC_U+30A4_U+30E4_U+30FC 1
100
AcDbBlockReference
  2
block 8
 10
0.0
 20
0.0
 30
0.0
  0
POLYLINE
  5
E6
330
1F
100
AcDbEntity
  8
_U+30EC_U+30A4_U+30E4_U+30FC 1
 62
   179
420
  2234388
370
     9
100
AcDb2dPolyline
 66
     1
 10
0.0
 20
0.0
 30
0.0
  0
VERTEX
  5
E7
330
E6
100
AcDbEntity
  8
_U+30EC_U+30A4_U+30E4_U+30FC 1
 62
   179
420
  2234388
370
     9
100
AcDbVertex
100
AcDb2dVertex
 10
113.9499709817829
 20
-125.5043280241794
 30
0.0
  0
VERTEX
  5
E8
330
E6
100
AcDbEntity
  8
_U+30EC_U+30A4_U+30E4_U+30FC 1
 62
   179
420
  2234388
370
     9
100
AcDbVertex
100
AcDb2dVertex
 10
117.4095567268549
 20
-125.5043280241794
 30
0.0
  0
SEQEND
  5
E9
330
E6
100
AcDbEntity
  8
_U+30EC_U+30A4_U+30E4_U+30FC 1
 62
   179
420
  2234388
370
     9
  0
POLYLINE
  5
EA
330
1F
100
AcDbEntity
  8
_U+30EC_U+30A4_U+30E4_U+30FC 1
 62
   179
420
  2234388
370
     9
100
AcDb2dPolyline
 66
     1
 10
0.0
 20
0.0
 30
0.0
  0
VERTEX
  5
EB
330
EA
100
AcDbEntity
  8
_U+30EC_U+30A4_U+30E4_U+30FC 1
 62
   179
420
  2234388
370
     9
100
AcDbVertex
100
AcDb2dVertex
 10
113.9499709817829
 20
-126.5006430239304
 30
0.0
  0
VERTEX
  5
EC
330
EA
100
AcDbEntity
  8
_U+30EC_U+30A4_U+30E4_U+30FC 1
 62
   179
420
  2234388
370
     9
100
AcDbVertex
100
AcDb2dVertex
 10
117.4095567268549
 20
-126.5006430239304
 30
0.0
  0
SEQEND
  5
ED
330
EA
100
AcDbEntity
  8
_U+30EC_U+30A4_U+30E4_U+30FC 1
 62
   179
420
  2234388
370
     9
  0
SPLINE
  5
EE
330
1F
100
AcDbEntity
  8
_U+30EC_U+30A4_U+30E4_U+30FC 1
 62
   179
420
  2234388
370
     9
100
AcDbSpline
210
0.0
220
0.0
230
1.0
 70
    11
 71
     3
 72
    17
 73
    13
 74
     0
 42
0.0000000001
 43
0.0000000001
 12
1.0
 22
0.0
 32
0.0
 13
1.0
 23
0.0
 33
0.0
 40
0.0
 40
0.0
 40
0.0
 40
0.0
 40
1.0
 40
1.0
 40
1.0
 40
2.0
 40
2.0
 40
2.0
 40
3.0
 40
3.0
 40
3.0
 40
4.0
 40
4.0
 40
4.0
 40
4.0
 10
71.47316400990101
 20
-114.5275416380349
 30
0.0
 10
71.47316400990101
 20
-114.4724377491597
 30
0.0
 10
71.42836123326624
 20
-114.427634971393
 30
0.0
 10
71.37325734578317
 20
-114.427634971393
 30
0.0
 10
71.31811818052323
 20
-114.427634971393
 30
0.0
 10
71.27335068166533
 20
-114.4724377491597
 30
0.0
 10
71.27335068166533
 20
-114.5275416380349
 30
0.0
 10
71.27335068166533
 20
-114.5826808046877
 30
0.0
 10
71.31811818052323
 20
-114.6274483046766
 30
0.0
 10
71.37325734578317
 20
-114.6274483046766
 30
0.0
 10
71.42836123326624
 20
-114.6274483046766
 30
0.0
 10
71.47316400990101
 20
-114.5826808046877
 30
0.0
 10
71.47316400990101
 20
-114.5275416380349
 30
0.0
  0
SPLINE
  5
EF
330
1F
100
AcDbEntity
  8
_U+30EC_U+30A4_U+30E4_U+30FC 1
 62
   179
420
  2234388
370
     9
100
AcDbSpline
210
0.0
220
0.0
230
1.0
 70
    11
 71
     3
 72
    17
 73
    13
 74
     0
 42
0.0000000001
 43
0.0000000001
 12
1.0
 22
0.0
 32
0.0
 13
1.0
 23
0.0
 33
0.0
 40
0.0
 40
0.0
 40
0.0
 40
0.0
 40
1.0
 40
1.0
 40
1.0
 40
2.0
 40
2.0
 40
2.0
 40
3.0
 40
3.0
 40
3.0
 40
4.0
 40
4.0
 40
4.0
 40
4.0
 10
111.5480482652833
 20
-114.5316691380336
 30
0.0
 10
111.5480482652833
 20
-114.4758596936032
 30
0.0
 10
111.5032807664254
 20
-114.4310921936146
 30
0.0
 10
111.4481444165822
 20
-114.4310921936146
 30
0.0
 10
111.3930377136824
 20
-114.4310921936146
 30
0.0
 10
111.3482349370476
 20
-114.4758596936032
 30
0.0
 10
111.3482349370476
 20
-114.5316691380336
 30
0.0
 10
111.3482349370476
 20
-114.5868083046867
 30
0.0
 10
111.3930377136824
 20
-114.6315758046755
 30
0.0
 10
111.4481444165822
 20
-114.6315758046755
 30
0.0
 10
111.5032807664254
 20
-114.6315758046755
 30
0.0
 10
111.5480482652833
 20
-114.5868083046867
 30
0.0
 10
111.5480482652833
 20
-114.5316691380336
 30
0.0
  0
POLYLINE
  5
F0
330
1F
100
AcDbEntity
  8
_U+30EC_U+30A4_U+30E4_U+30FC 1
 62
   179
420
  2234388
370
     9
100
AcDb2dPolyline
 66
     1
 10
0.0
 20
0.0
 30
0.0
  0
VERTEX
  5
F1
330
F0
100
AcDbEntity
  8
_U+30EC_U+30A4_U+30E4_U+30FC 1
 62
   179
420
  2234388
370
     9
100
AcDbVertex
100
AcDb2dVertex
 10
71.36771873481337
 20
-113.5656930271641
 30
0.0
  0
VERTEX
  5
F2
330
F0
100
AcDbEntity
  8
_U+30EC_U+30A4_U+30E4_U+30FC 1
 62
   179
420
  2234388
370
     9
100
AcDbVertex
100
AcDb2dVertex
 10
71.36771873481337
 20
-115.7140391377383
 30
0.0
  0
SEQEND
  5
F3
330
F0
100
AcDbEntity
  8
_U+30EC_U+30A4_U+30E4_U+30FC 1
 62
   179
420
  2234388
370
     9
  0
POLYLINE
  5
F4
330
1F
100
AcDbEntity
  8
_U+30EC_U+30A4_U+30E4_U+30FC 1
 62
   179
420
  2234388
370
     9
100
AcDb2dPolyline
 66
     1
 10
0.0
 20
0.0
 30
0.0
  0
VERTEX
  5
F5
330
F4
100
AcDbEntity
  8
_U+30EC_U+30A4_U+30E4_U+30FC 1
 62
   179
420
  2234388
370
     9
100
AcDbVertex
100
AcDb2dVertex
 10
111.4522691010602
 20
-113.5656930271641
 30
0.0
  0
VERTEX
  5
F6
330
F4
100
AcDbEntity
  8
_U+30EC_U+30A4_U+30E4_U+30FC 1
 62
   179
420
  2234388
370
     9
100
AcDbVertex
100
AcDb2dVertex
 10
111.4522691010602
 20
-122.9625288581482
 30
0.0
  0
SEQEND
  5
F7
330
F4
100
AcDbEntity
  8
_U+30EC_U+30A4_U+30E4_U+30FC 1
 62
   179
420
  2234388
370
     9
  0
POLYLINE
  5
F8
330
1F
100
AcDbEntity
  8
_U+30EC_U+30A4_U+30E4_U+30FC 1
 62
   179
420
  2234388
370
     9
100
AcDb2dPolyline
 66
     1
 10
0.0
 20
0.0
 30
0.0
  0
VERTEX
  5
F9
330
F8
100
AcDbEntity
  8
_U+30EC_U+30A4_U+30E4_U+30FC 1
 62
   179
420
  2234388
370
     9
100
AcDbVertex
100
AcDb2dVertex
 10
67.51214164978849
 20
-118.2289566371095
 30
0.0
  0
VERTEX
  5
FA
330
F8
100
AcDbEntity
  8
_U+30EC_U+30A4_U+30E4_U+30FC 1
 62
   179
420
  2234388
370
     9
100
AcDbVertex
100
AcDb2dVertex
 10
67.52318188845122
 20
-142.2287110755538
 30
0.0
  0
SEQEND
  5
FB
330
F8
100
AcDbEntity
  8
_U+30EC_U+30A4_U+30E4_U+30FC 1
 62
   179
420
  2234388
370
     9
  0
POLYLINE
  5
FC
330
1F
100
AcDbEntity
  8
_U+30EC_U+30A4_U+30E4_U+30FC 1
 62
   179
420
  2234388
370
     9
100
AcDb2dPolyline
 66
     1
 10
0.0
 20
0.0
 30
0.0
  0
VERTEX
  5
FD
330
FC
100
AcDbEntity
  8
_U+30EC_U+30A4_U+30E4_U+30FC 1
 62
   179
420
  2234388
370
     9
100
AcDbVertex
100
AcDb2dVertex
 10
70.90505069106145
 20
-111.6474638609769
 30
0.0
  0
VERTEX
  5
FE
330
FC
100
AcDbEntity
  8
_U+30EC_U+30A4_U+30E4_U+30FC 1
 62
   179
420
  2234388
370
     9
100
AcDbVertex
100
AcDb2dVertex
 10
75.07223808474764
 20
-111.6474638609769
 30
0.0
  0
SEQEND
  5
FF
330
FC
100
AcDbEntity
  8
_U+30EC_U+30A4_U+30E4_U+30FC 1
 62
   179
420
  2234388
370
     9
  0
INSERT
  5
101
330
1F
100
AcDbEntity
  8
_U+30EC_U+30A4_U+30E4_U+30FC 1
100
AcDbBlockReference
  2
block 9
 10
0.0
 20
0.0
 30
0.0
  0
SPLINE
  5
106
330
1F
100
AcDbEntity
  8
_U+30EC_U+30A4_U+30E4_U+30FC 1
 62
   179
420
  2234388
370
     9
100
AcDbSpline
210
0.0
220
0.0
230
1.0
 70
    11
 71
     3
 72
    17
 73
    13
 74
     0
 42
0.0000000001
 43
0.0000000001
 12
1.0
 22
0.0
 32
0.0
 13
1.0
 23
0.0
 33
0.0
 40
0.0
 40
0.0
 40
0.0
 40
0.0
 40
1.0
 40
1.0
 40
1.0
 40
2.0
 40
2.0
 40
2.0
 40
3.0
 40
3.0
 40
3.0
 40
4.0
 40
4.0
 40
4.0
 40
4.0
 10
71.56756734082592
 20
-111.6433010832001
 30
0.0
 10
71.56756734082592
 20
-111.5881971943252
 30
0.0
 10
71.52276456419115
 20
-111.5433944165585
 30
0.0
 10
71.4676253989312
 20
-111.5433944165585
 30
0.0
 10
71.41252151144813
 20
-111.5433944165585
 30
0.0
 10
71.36771873481337
 20
-111.5881971943252
 30
0.0
 10
71.36771873481337
 20
-111.6433010832001
 30
0.0
 10
71.36771873481337
 20
-111.6984402498532
 30
0.0
 10
71.41252151144813
 20
-111.7432077498421
 30
0.0
 10
71.4676253989312
 20
-111.7432077498421
 30
0.0
 10
71.52276456419115
 20
-111.7432077498421
 30
0.0
 10
71.56756734082592
 20
-111.6984402498532
 30
0.0
 10
71.56756734082592
 20
-111.6433010832001
 30
0.0
  0
SPLINE
  5
107
330
1F
100
AcDbEntity
  8
_U+30EC_U+30A4_U+30E4_U+30FC 1
 62
   179
420
  2234388
370
     9
100
AcDbSpline
210
0.0
220
0.0
230
1.0
 70
    11
 71
     3
 72
    17
 73
    13
 74
     0
 42
0.0000000001
 43
0.0000000001
 12
1.0
 22
0.0
 32
0.0
 13
1.0
 23
0.0
 33
0.0
 40
0.0
 40
0.0
 40
0.0
 40
0.0
 40
1.0
 40
1.0
 40
1.0
 40
2.0
 40
2.0
 40
2.0
 40
3.0
 40
3.0
 40
3.0
 40
4.0
 40
4.0
 40
4.0
 40
4.0
 10
74.57718504182195
 20
-111.6488396943102
 30
0.0
 10
74.57718504182195
 20
-111.5937005276571
 30
0.0
 10
74.53238226518718
 20
-111.5489330276682
 30
0.0
 10
74.47727837770411
 20
-111.5489330276682
 30
0.0
 10
74.42213921244416
 20
-111.5489330276682
 30
0.0
 10
74.37737171358627
 20
-111.5937005276571
 30
0.0
 10
74.37737171358627
 20
-111.6488396943102
 30
0.0
 10
74.37737171358627
 20
-111.7039435831851
 30
0.0
 10
74.42213921244416
 20
-111.7487463609518
 30
0.0
 10
74.47727837770411
 20
-111.7487463609518
 30
0.0
 10
74.53238226518718
 20
-111.7487463609518
 30
0.0
 10
74.57718504182195
 20
-111.7039435831851
 30
0.0
 10
74.57718504182195
 20
-111.6488396943102
 30
0.0
  0
POLYLINE
  5
108
330
1F
100
AcDbEntity
  8
_U+30EC_U+30A4_U+30E4_U+30FC 1
 62
   179
420
  2234388
370
     9
100
AcDb2dPolyline
 66
     1
 10
0.0
 20
0.0
 30
0.0
  0
VERTEX
  5
109
330
108
100
AcDbEntity
  8
_U+30EC_U+30A4_U+30E4_U+30FC 1
 62
   179
420
  2234388
370
     9
100
AcDbVertex
100
AcDb2dVertex
 10
71.4676253989312
 20
-110.7682710834191
 30
0.0
  0
VERTEX
  5
10A
330
108
100
AcDbEntity
  8
_U+30EC_U+30A4_U+30E4_U+30FC 1
 62
   179
420
  2234388
370
     9
100
AcDbVertex
100
AcDb2dVertex
 10
71.4676253989312
 20
-112.4253388607824
 30
0.0
  0
SEQEND
  5
10B
330
108
100
AcDbEntity
  8
_U+30EC_U+30A4_U+30E4_U+30FC 1
 62
   179
420
  2234388
370
     9
  0
POLYLINE
  5
10C
330
1F
100
AcDbEntity
  8
_U+30EC_U+30A4_U+30E4_U+30FC 1
 62
   179
420
  2234388
370
     9
100
AcDb2dPolyline
 66
     1
 10
0.0
 20
0.0
 30
0.0
  0
VERTEX
  5
10D
330
10C
100
AcDbEntity
  8
_U+30EC_U+30A4_U+30E4_U+30FC 1
 62
   179
420
  2234388
370
     9
100
AcDbVertex
100
AcDb2dVertex
 10
74.47727837770411
 20
-110.7716930278625
 30
0.0
  0
VERTEX
  5
10E
330
10C
100
AcDbEntity
  8
_U+30EC_U+30A4_U+30E4_U+30FC 1
 62
   179
420
  2234388
370
     9
100
AcDbVertex
100
AcDb2dVertex
 10
74.47727837770411
 20
-112.4253388607824
 30
0.0
  0
SEQEND
  5
10F
330
10C
100
AcDbEntity
  8
_U+30EC_U+30A4_U+30E4_U+30FC 1
 62
   179
420
  2234388
370
     9
  0
SPLINE
  5
110
330
1F
100
AcDbEntity
  8
_U+30EC_U+30A4_U+30E4_U+30FC 1
 62
   179
420
  2234388
370
     9
100
AcDbSpline
210
0.0
220
0.0
230
1.0
 70
    11
 71
     3
 72
    17
 73
    13
 74
     0
 42
0.0000000001
 43
0.0000000001
 12
1.0
 22
0.0
 32
0.0
 13
1.0
 23
0.0
 33
0.0
 40
0.0
 40
0.0
 40
0.0
 40
0.0
 40
1.0
 40
1.0
 40
1.0
 40
2.0
 40
2.0
 40
2.0
 40
3.0
 40
3.0
 40
3.0
 40
4.0
 40
4.0
 40
4.0
 40
4.0
 10
67.60516744191516
 20
-118.2351655259969
 30
0.0
 10
67.60516744191516
 20
-118.1793560815664
 30
0.0
 10
67.56039994305726
 20
-118.1345533037997
 30
0.0
 10
67.50526077779732
 20
-118.1345533037997
 30
0.0
 10
67.45015689031425
 20
-118.1345533037997
 30
0.0
 10
67.40535411367948
 20
-118.1793560815664
 30
0.0
 10
67.40535411367948
 20
-118.2351655259969
 30
0.0
 10
67.40535411367948
 20
-118.2902694148718
 30
0.0
 10
67.45015689031425
 20
-118.3350721926385
 30
0.0
 10
67.50526077779732
 20
-118.3350721926385
 30
0.0
 10
67.56039994305726
 20
-118.3350721926385
 30
0.0
 10
67.60516744191516
 20
-118.2902694148718
 30
0.0
 10
67.60516744191516
 20
-118.2351655259969
 30
0.0
  0
SPLINE
  5
111
330
1F
100
AcDbEntity
  8
_U+30EC_U+30A4_U+30E4_U+30FC 1
 62
   179
420
  2234388
370
     9
100
AcDbSpline
210
0.0
220
0.0
230
1.0
 70
    11
 71
     3
 72
    17
 73
    13
 74
     0
 42
0.0000000001
 43
0.0000000001
 12
1.0
 22
0.0
 32
0.0
 13
1.0
 23
0.0
 33
0.0
 40
0.0
 40
0.0
 40
0.0
 40
0.0
 40
1.0
 40
1.0
 40
1.0
 40
2.0
 40
2.0
 40
2.0
 40
3.0
 40
3.0
 40
3.0
 40
4.0
 40
4.0
 40
4.0
 40
4.0
 10
67.60897744181796
 20
-142.2135416311133
 30
0.0
 10
67.60897744181796
 20
-142.1584377422384
 30
0.0
 10
67.56417466518319
 20
-142.1143405200272
 30
0.0
 10
67.50907077770012
 20
-142.1143405200272
 30
0.0
 10
67.45393331646972
 20
-142.1143405200272
 30
0.0
 10
67.40916411358228
 20
-142.1584377422384
 30
0.0
 10
67.40916411358228
 20
-142.2135416311133
 30
0.0
 10
67.40916411358228
 20
-142.2686807977664
 30
0.0
 10
67.45393331646972
 20
-142.3134482977549
 30
0.0
 10
67.50907077770012
 20
-142.3134482977549
 30
0.0
 10
67.56417466518319
 20
-142.3134482977549
 30
0.0
 10
67.60897744181796
 20
-142.2686807977664
 30
0.0
 10
67.60897744181796
 20
-142.2135416311133
 30
0.0
  0
SPLINE
  5
112
330
1F
100
AcDbEntity
  8
_U+30EC_U+30A4_U+30E4_U+30FC 1
 62
   179
420
  2234388
370
     9
100
AcDbSpline
210
0.0
220
0.0
230
1.0
 70
    11
 71
     3
 72
    17
 73
    13
 74
     0
 42
0.0000000001
 43
0.0000000001
 12
1.0
 22
0.0
 32
0.0
 13
1.0
 23
0.0
 33
0.0
 40
0.0
 40
0.0
 40
0.0
 40
0.0
 40
1.0
 40
1.0
 40
1.0
 40
2.0
 40
2.0
 40
2.0
 40
3.0
 40
3.0
 40
3.0
 40
4.0
 40
4.0
 40
4.0
 40
4.0
 10
71.34087234660939
 20
-147.3598285742713
 30
0.0
 10
71.34087234660939
 20
-147.3046894076182
 30
0.0
 10
71.29606956997462
 20
-147.2599219076297
 30
0.0
 10
71.24096568249155
 20
-147.2599219076297
 30
0.0
 10
71.1858265172316
 20
-147.2599219076297
 30
0.0
 10
71.14105901837371
 20
-147.3046894076182
 30
0.0
 10
71.14105901837371
 20
-147.3598285742713
 30
0.0
 10
71.14105901837371
 20
-147.4149324631462
 30
0.0
 10
71.1858265172316
 20
-147.4597352409129
 30
0.0
 10
71.24096568249155
 20
-147.4597352409129
 30
0.0
 10
71.29606956997462
 20
-147.4597352409129
 30
0.0
 10
71.34087234660939
 20
-147.4149324631462
 30
0.0
 10
71.34087234660939
 20
-147.3598285742713
 30
0.0
  0
SPLINE
  5
113
330
1F
100
AcDbEntity
  8
_U+30EC_U+30A4_U+30E4_U+30FC 1
 62
   179
420
  2234388
370
     9
100
AcDbSpline
210
0.0
220
0.0
230
1.0
 70
    11
 71
     3
 72
    17
 73
    13
 74
     0
 42
0.0000000001
 43
0.0000000001
 12
1.0
 22
0.0
 32
0.0
 13
1.0
 23
0.0
 33
0.0
 40
0.0
 40
0.0
 40
0.0
 40
0.0
 40
1.0
 40
1.0
 40
1.0
 40
2.0
 40
2.0
 40
2.0
 40
3.0
 40
3.0
 40
3.0
 40
4.0
 40
4.0
 40
4.0
 40
4.0
 10
81.224153205577
 20
-147.3543252409391
 30
0.0
 10
81.224153205577
 20
-147.2991860742861
 30
0.0
 10
81.17935042894223
 20
-147.2544185742975
 30
0.0
 10
81.12424654145916
 20
-147.2544185742975
 30
0.0
 10
81.06910737619921
 20
-147.2544185742975
 30
0.0
 10
81.02433987734132
 20
-147.2991860742861
 30
0.0
 10
81.02433987734132
 20
-147.3543252409391
 30
0.0
 10
81.02433987734132
 20
-147.409429129814
 30
0.0
 10
81.06910737619921
 20
-147.4542319075808
 30
0.0
 10
81.12424654145916
 20
-147.4542319075808
 30
0.0
 10
81.17935042894223
 20
-147.4542319075808
 30
0.0
 10
81.224153205577
 20
-147.409429129814
 30
0.0
 10
81.224153205577
 20
-147.3543252409391
 30
0.0
  0
POLYLINE
  5
114
330
1F
100
AcDbEntity
  8
_U+30EC_U+30A4_U+30E4_U+30FC 1
 62
   179
420
  2234388
370
     9
100
AcDb2dPolyline
 66
     1
 10
0.0
 20
0.0
 30
0.0
  0
VERTEX
  5
115
330
114
100
AcDbEntity
  8
_U+30EC_U+30A4_U+30E4_U+30FC 1
 62
   179
420
  2234388
370
     9
100
AcDbVertex
100
AcDb2dVertex
 10
66.4932824702817
 20
-118.2289566371095
 30
0.0
  0
VERTEX
  5
116
330
114
100
AcDbEntity
  8
_U+30EC_U+30A4_U+30E4_U+30FC 1
 62
   179
420
  2234388
370
     9
100
AcDbVertex
100
AcDb2dVertex
 10
68.69779074737335
 20
-118.2289566371095
 30
0.0
  0
SEQEND
  5
117
330
114
100
AcDbEntity
  8
_U+30EC_U+30A4_U+30E4_U+30FC 1
 62
   179
420
  2234388
370
     9
  0
POLYLINE
  5
118
330
1F
100
AcDbEntity
  8
_U+30EC_U+30A4_U+30E4_U+30FC 1
 62
   179
420
  2234388
370
     9
100
AcDb2dPolyline
 66
     1
 10
0.0
 20
0.0
 30
0.0
  0
VERTEX
  5
119
330
118
100
AcDbEntity
  8
_U+30EC_U+30A4_U+30E4_U+30FC 1
 62
   179
420
  2234388
370
     9
100
AcDbVertex
100
AcDb2dVertex
 10
66.48929608149452
 20
-142.2128360755578
 30
0.0
  0
VERTEX
  5
11A
330
118
100
AcDbEntity
  8
_U+30EC_U+30A4_U+30E4_U+30FC 1
 62
   179
420
  2234388
370
     9
100
AcDbVertex
100
AcDb2dVertex
 10
68.69383963636304
 20
-142.2128360755578
 30
0.0
  0
SEQEND
  5
11B
330
118
100
AcDbEntity
  8
_U+30EC_U+30A4_U+30E4_U+30FC 1
 62
   179
420
  2234388
370
     9
  0
POLYLINE
  5
11C
330
1F
100
AcDbEntity
  8
_U+30EC_U+30A4_U+30E4_U+30FC 1
 62
   179
420
  2234388
370
     9
100
AcDb2dPolyline
 66
     1
 10
0.0
 20
0.0
 30
0.0
  0
VERTEX
  5
11D
330
11C
100
AcDbEntity
  8
_U+30EC_U+30A4_U+30E4_U+30FC 1
 62
   179
420
  2234388
370
     9
100
AcDbVertex
100
AcDb2dVertex
 10
71.23542707152174
 20
-144.7257074638187
 30
0.0
  0
VERTEX
  5
11E
330
11C
100
AcDbEntity
  8
_U+30EC_U+30A4_U+30E4_U+30FC 1
 62
   179
420
  2234388
370
     9
100
AcDbVertex
100
AcDb2dVertex
 10
71.23542707152174
 20
-148.2521094073816
 30
0.0
  0
SEQEND
  5
11F
330
11C
100
AcDbEntity
  8
_U+30EC_U+30A4_U+30E4_U+30FC 1
 62
   179
420
  2234388
370
     9
  0
POLYLINE
  5
120
330
1F
100
AcDbEntity
  8
_U+30EC_U+30A4_U+30E4_U+30FC 1
 62
   179
420
  2234388
370
     9
100
AcDb2dPolyline
 66
     1
 10
0.0
 20
0.0
 30
0.0
  0
VERTEX
  5
121
330
120
100
AcDbEntity
  8
_U+30EC_U+30A4_U+30E4_U+30FC 1
 62
   179
420
  2234388
370
     9
100
AcDbVertex
100
AcDb2dVertex
 10
81.12770376359317
 20
-144.7257074638187
 30
0.0
  0
VERTEX
  5
122
330
120
100
AcDbEntity
  8
_U+30EC_U+30A4_U+30E4_U+30FC 1
 62
   179
420
  2234388
370
     9
100
AcDbVertex
100
AcDb2dVertex
 10
81.12770376359317
 20
-148.2521094073816
 30
0.0
  0
SEQEND
  5
123
330
120
100
AcDbEntity
  8
_U+30EC_U+30A4_U+30E4_U+30FC 1
 62
   179
420
  2234388
370
     9
  0
ENDSEC
  0
SECTION
  2
OBJECTS
  0
DICTIONARY
  5
C
330
0
100
AcDbDictionary
281
     1
  3
ACAD_GROUP
350
D
  3
ACAD_LAYOUT
350
1A
  3
ACAD_MATERIAL
350
3B
  3
ACAD_MLEADERSTYLE
350
125
  3
ACAD_MLINESTYLE
350
17
  3
ACAD_PLOTSETTINGS
350
19
  3
ACAD_PLOTSTYLENAME
350
E
  3
ACAD_TABLESTYLE
350
124
  3
ACAD_VISUALSTYLE
350
2A
  0
SUN
  5
3F
330
29
100
AcDbSun
 90
        1
290
     0
 63
     7
421
 16777215
 40
1.0
291
     1
 91
  2455826
 92
 54000000
292
     0
 70
     2
 71
   256
280
     1
  0
DICTIONARY
  5
D
102
{ACAD_REACTORS
330
C
102
}
330
C
100
AcDbDictionary
281
     1
  0
DICTIONARY
  5
1A
102
{ACAD_REACTORS
330
C
102
}
330
C
100
AcDbDictionary
281
     1
  3
Layout1
350
1E
  3
Layout2
350
26
  3
Model
350
22
  0
DICTIONARY
  5
3B
102
{ACAD_REACTORS
330
C
102
}
330
C
100
AcDbDictionary
281
     1
  3
ByBlock
350
3D
  3
ByLayer
350
3C
  3
Global
350
3E
  0
DICTIONARY
  5
125
102
{ACAD_REACTORS
330
C
102
}
330
C
100
AcDbDictionary
281
     1
  0
DICTIONARY
  5
17
102
{ACAD_REACTORS
330
C
102
}
330
C
100
AcDbDictionary
281
     1
  3
Standard
350
18
  0
DICTIONARY
  5
19
102
{ACAD_REACTORS
330
C
102
}
330
C
100
AcDbDictionary
281
     1
  0
ACDBDICTIONARYWDFLT
  5
E
102
{ACAD_REACTORS
330
C
102
}
330
C
100
AcDbDictionary
281
     1
  3
Normal
350
F
100
AcDbDictionaryWithDefault
340
F
  0
DICTIONARY
  5
124
102
{ACAD_REACTORS
330
C
102
}
330
C
100
AcDbDictionary
281
     1
  0
DICTIONARY
  5
2A
102
{ACAD_REACTORS
330
C
102
}
330
C
100
AcDbDictionary
281
     1
  3
2dWireframe
350
2F
  3
3D Hidden
350
31
  3
3dWireframe
350
30
  3
Basic
350
32
  3
Brighten
350
36
  3
ColorChange
350
3A
  3
Conceptual
350
34
  3
Dim
350
35
  3
Facepattern
350
39
  3
Flat
350
2B
  3
FlatWithEdges
350
2C
  3
Gouraud
350
2D
  3
GouraudWithEdges
350
2E
  3
Linepattern
350
38
  3
Realistic
350
33
  3
Thicken
350
37
  0
LAYOUT
  5
1E
102
{ACAD_REACTORS
330
1A
102
}
330
1A
100
AcDbPlotSettings
  1

  2
none_device
  4

  6

 40
0.0
 41
0.0
 42
0.0
 43
0.0
 44
0.0
 45
0.0
 46
0.0
 47
0.0
 48
0.0
 49
0.0
140
0.0
141
0.0
142
1.0
143
1.0
 70
   688
 72
     0
 73
     0
 74
     5
  7

 75
    16
 76
     0
 77
     2
 78
   300
147
1.0
148
0.0
149
0.0
100
AcDbLayout
  1
Layout1
 70
     1
 71
     1
 10
0.0
 20
0.0
 11
12.0
 21
9.0
 12
0.0
 22
0.0
 32
0.0
 14
1.000000000000000E+20
 24
1.000000000000000E+20
 34
1.000000000000000E+20
 15
-1.000000000000000E+20
 25
-1.000000000000000E+20
 35
-1.000000000000000E+20
146
0.0
 13
0.0
 23
0.0
 33
0.0
 16
1.0
 26
0.0
 36
0.0
 17
0.0
 27
1.0
 37
0.0
 76
     0
330
1B
  0
LAYOUT
  5
26
102
{ACAD_REACTORS
330
1A
102
}
330
1A
100
AcDbPlotSettings
  1

  2
none_device
  4

  6

 40
0.0
 41
0.0
 42
0.0
 43
0.0
 44
0.0
 45
0.0
 46
0.0
 47
0.0
 48
0.0
 49
0.0
140
0.0
141
0.0
142
1.0
143
1.0
 70
   688
 72
     0
 73
     0
 74
     5
  7

 75
    16
 76
     0
 77
     2
 78
   300
147
1.0
148
0.0
149
0.0
100
AcDbLayout
  1
Layout2
 70
     1
 71
     2
 10
0.0
 20
0.0
 11
0.0
 21
0.0
 12
0.0
 22
0.0
 32
0.0
 14
0.0
 24
0.0
 34
0.0
 15
0.0
 25
0.0
 35
0.0
146
0.0
 13
0.0
 23
0.0
 33
0.0
 16
1.0
 26
0.0
 36
0.0
 17
0.0
 27
1.0
 37
0.0
 76
     0
330
23
  0
LAYOUT
  5
22
102
{ACAD_REACTORS
330
1A
102
}
330
1A
100
AcDbPlotSettings
  1

  2
none_device
  4

  6

 40
0.0
 41
0.0
 42
0.0
 43
0.0
 44
0.0
 45
0.0
 46
0.0
 47
0.0
 48
0.0
 49
0.0
140
0.0
141
0.0
142
1.0
143
1.0
 70
  1712
 72
     0
 73
     0
 74
     0
  7

 75
     0
 76
     0
 77
     2
 78
   300
147
1.0
148
0.0
149
0.0
100
AcDbLayout
  1
Model
 70
     1
 71
     0
 10
0.0
 20
0.0
 11
12.0
 21
9.0
 12
0.0
 22
0.0
 32
0.0
 14
1.000000000000000E+20
 24
1.000000000000000E+20
 34
1.000000000000000E+20
 15
-1.000000000000000E+20
 25
-1.000000000000000E+20
 35
-1.000000000000000E+20
146
0.0
 13
0.0
 23
0.0
 33
0.0
 16
1.0
 26
0.0
 36
0.0
 17
0.0
 27
1.0
 37
0.0
 76
     0
330
1F
331
29
  0
MATERIAL
  5
3D
102
{ACAD_REACTORS
330
3B
102
}
330
3B
100
AcDbMaterial
  1
ByBlock
 72
     1
 94
      127
  0
MATERIAL
  5
3C
102
{ACAD_REACTORS
330
3B
102
}
330
3B
100
AcDbMaterial
  1
ByLayer
 72
     1
 94
      127
  0
MATERIAL
  5
3E
102
{ACAD_REACTORS
330
3B
102
}
330
3B
100
AcDbMaterial
  1
Global
 72
     1
 94
      127
  0
MLINESTYLE
  5
18
102
{ACAD_REACTORS
330
17
102
}
330
17
100
AcDbMlineStyle
  2
Standard
 70
     0
  3

 62
   256
 51
90.0
 52
90.0
 71
     2
 49
0.5
 62
   256
  6
BYLAYER
 49
-0.5
 62
   256
  6
BYLAYER
  0
ACDBPLACEHOLDER
  5
F
102
{ACAD_REACTORS
330
E
102
}
330
E
  0
VISUALSTYLE
  5
2F
102
{ACAD_REACTORS
330
2A
102
}
330
2A
100
AcDbVisualStyle
  2
2dWireframe
 70
     4
177
     2
291
     0
 71
     0
176
     1
 72
     2
176
     1
 73
     0
176
     1
 90
        0
176
     1
 40
-0.6
176
     1
 41
-30.0
176
     1
 62
     5
 63
     7
421
 16777215
176
     1
 74
     1
176
     1
 91
        4
176
     1
 64
     7
176
     1
 65
   257
176
     1
 75
     1
176
     1
175
     1
176
     1
 42
1.0
176
     1
 92
        0
176
     1
 66
   257
176
     1
 43
1.0
176
     1
 76
     1
176
     1
 77
     6
176
     1
 78
     2
176
     1
 67
     7
176
     1
 79
     5
176
     1
170
     0
176
     1
171
     0
176
     1
290
     0
176
     1
 93
        1
176
     1
 44
0.0
176
     1
173
     0
176
     1
  0
VISUALSTYLE
  5
31
102
{ACAD_REACTORS
330
2A
102
}
330
2A
100
AcDbVisualStyle
  2
3D Hidden
 70
     6
177
     2
291
     0
 71
     1
176
     1
 72
     2
176
     1
 73
     2
176
     1
 90
        0
176
     1
 40
-0.6
176
     1
 41
-30.0
176
     1
 62
     5
 63
     7
421
 16777215
176
     1
 74
     2
176
     1
 91
        2
176
     1
 64
     7
176
     1
 65
   257
176
     1
 75
     2
176
     1
175
     1
176
     1
 42
40.0
176
     1
 92
        0
176
     1
 66
   257
176
     1
 43
1.0
176
     1
 76
     1
176
     1
 77
     6
176
     1
 78
     2
176
     1
 67
     7
176
     1
 79
     3
176
     1
170
     0
176
     1
171
     0
176
     1
290
     0
176
     1
 93
        1
176
     1
 44
0.0
176
     1
173
     0
176
     1
  0
VISUALSTYLE
  5
30
102
{ACAD_REACTORS
330
2A
102
}
330
2A
100
AcDbVisualStyle
  2
3dWireframe
 70
     5
177
     2
291
     0
 71
     0
176
     1
 72
     2
176
     1
 73
     0
176
     1
 90
        0
176
     1
 40
-0.6
176
     1
 41
-30.0
176
     1
 62
     5
 63
     7
421
 16777215
176
     1
 74
     1
176
     1
 91
        4
176
     1
 64
     7
176
     1
 65
   257
176
     1
 75
     1
176
     1
175
     1
176
     1
 42
1.0
176
     1
 92
        0
176
     1
 66
   257
176
     1
 43
1.0
176
     1
 76
     1
176
     1
 77
     6
176
     1
 78
     2
176
     1
 67
     7
176
     1
 79
     5
176
     1
170
     0
176
     1
171
     0
176
     1
290
     0
176
     1
 93
        1
176
     1
 44
0.0
176
     1
173
     0
176
     1
  0
VISUALSTYLE
  5
32
102
{ACAD_REACTORS
330
2A
102
}
330
2A
100
AcDbVisualStyle
  2
Basic
 70
     7
177
     2
291
     1
 71
     1
176
     1
 72
     0
176
     1
 73
     1
176
     1
 90
        0
176
     1
 40
-0.6
176
     1
 41
-30.0
176
     1
 62
     5
 63
     7
421
 16777215
176
     1
 74
     0
176
     1
 91
        4
176
     1
 64
     7
176
     1
 65
   257
176
     1
 75
     1
176
     1
175
     1
176
     1
 42
1.0
176
     1
 92
        8
176
     1
 66
     7
176
     1
 43
1.0
176
     1
 76
     1
176
     1
 77
     6
176
     1
 78
     2
176
     1
 67
     7
176
     1
 79
     5
176
     1
170
     0
176
     1
171
     0
176
     1
290
     0
176
     1
 93
        1
176
     1
 44
0.0
176
     1
173
     0
176
     1
  0
VISUALSTYLE
  5
36
102
{ACAD_REACTORS
330
2A
102
}
330
2A
100
AcDbVisualStyle
  2
Brighten
 70
    12
177
     2
291
     1
 71
     2
176
     1
 72
     2
176
     1
 73
     0
176
     1
 90
        0
176
     1
 40
-0.6
176
     1
 41
-30.0
176
     1
 62
     5
 63
     7
421
 16777215
176
     1
 74
     1
176
     1
 91
        4
176
     1
 64
     7
176
     1
 65
   257
176
     1
 75
     1
176
     1
175
     1
176
     1
 42
1.0
176
     1
 92
        8
176
     1
 66
     7
176
     1
 43
1.0
176
     1
 76
     1
176
     1
 77
     6
176
     1
 78
     2
176
     1
 67
     7
176
     1
 79
     5
176
     1
170
     0
176
     1
171
     0
176
     1
290
     0
176
     1
 93
        1
176
     1
 44
50.0
176
     1
173
     0
176
     1
  0
VISUALSTYLE
  5
3A
102
{ACAD_REACTORS
330
2A
102
}
330
2A
100
AcDbVisualStyle
  2
ColorChange
 70
    16
177
     2
291
     1
 71
     2
176
     1
 72
     2
176
     1
 73
     3
176
     1
 90
        0
176
     1
 40
-0.6
176
     1
 41
-30.0
176
     1
 62
     5
 63
     8
421
  8421504
176
     1
 74
     1
176
     1
 91
        4
176
     1
 64
     7
176
     1
 65
   257
176
     1
 75
     1
176
     1
175
     1
176
     1
 42
1.0
176
     1
 92
        8
176
     1
 66
     8
424
  8421504
176
     1
 43
1.0
176
     1
 76
     1
176
     1
 77
     6
176
     1
 78
     2
176
     1
 67
     7
176
     1
 79
     5
176
     1
170
     0
176
     1
171
     0
176
     1
290
     0
176
     1
 93
        1
176
     1
 44
0.0
176
     1
173
     0
176
     1
  0
VISUALSTYLE
  5
34
102
{ACAD_REACTORS
330
2A
102
}
330
2A
100
AcDbVisualStyle
  2
Conceptual
 70
     9
177
     2
291
     0
 71
     3
176
     1
 72
     2
176
     1
 73
     0
176
     1
 90
        0
176
     1
 40
-0.6
176
     1
 41
-30.0
176
     1
 62
     5
 63
     7
421
 16777215
176
     1
 74
     2
176
     1
 91
        2
176
     1
 64
     7
176
     1
 65
   257
176
     1
 75
     1
176
     1
175
     1
176
     1
 42
40.0
176
     1
 92
        8
176
     1
 66
     7
176
     1
 43
1.0
176
     1
 76
     1
176
     1
 77
     6
176
     1
 78
     2
176
     1
 67
     7
176
     1
 79
     3
176
     1
170
     0
176
     1
171
     0
176
     1
290
     0
176
     1
 93
        1
176
     1
 44
0.0
176
     1
173
     0
176
     1
  0
VISUALSTYLE
  5
35
102
{ACAD_REACTORS
330
2A
102
}
330
2A
100
AcDbVisualStyle
  2
Dim
 70
    11
177
     2
291
     1
 71
     2
176
     1
 72
     2
176
     1
 73
     0
176
     1
 90
        0
176
     1
 40
-0.6
176
     1
 41
-30.0
176
     1
 62
     5
 63
     7
421
 16777215
176
     1
 74
     1
176
     1
 91
        4
176
     1
 64
     7
176
     1
 65
   257
176
     1
 75
     1
176
     1
175
     1
176
     1
 42
1.0
176
     1
 92
        8
176
     1
 66
     7
176
     1
 43
1.0
176
     1
 76
     1
176
     1
 77
     6
176
     1
 78
     2
176
     1
 67
     7
176
     1
 79
     5
176
     1
170
     0
176
     1
171
     0
176
     1
290
     0
176
     1
 93
        1
176
     1
 44
-50.0
176
     1
173
     0
176
     1
  0
VISUALSTYLE
  5
39
102
{ACAD_REACTORS
330
2A
102
}
330
2A
100
AcDbVisualStyle
  2
Facepattern
 70
    15
177
     2
291
     1
 71
     2
176
     1
 72
     2
176
     1
 73
     0
176
     1
 90
        0
176
     1
 40
-0.6
176
     1
 41
-30.0
176
     1
 62
     5
 63
     7
421
 16777215
176
     1
 74
     1
176
     1
 91
        4
176
     1
 64
     7
176
     1
 65
   257
176
     1
 75
     1
176
     1
175
     1
176
     1
 42
1.0
176
     1
 92
        8
176
     1
 66
     7
176
     1
 43
1.0
176
     1
 76
     1
176
     1
 77
     6
176
     1
 78
     2
176
     1
 67
     7
176
     1
 79
     5
176
     1
170
     0
176
     1
171
     0
176
     1
290
     0
176
     1
 93
        1
176
     1
 44
0.0
176
     1
173
     0
176
     1
  0
VISUALSTYLE
  5
2B
102
{ACAD_REACTORS
330
2A
102
}
330
2A
100
AcDbVisualStyle
  2
Flat
 70
     0
177
     2
291
     1
 71
     2
176
     1
 72
     1
176
     1
 73
     1
176
     1
 90
        2
176
     1
 40
-0.6
176
     1
 41
30.0
176
     1
 62
     5
 63
     7
421
 16777215
176
     1
 74
     0
176
     1
 91
        4
176
     1
 64
     7
176
     1
 65
   257
176
     1
 75
     1
176
     1
175
     1
176
     1
 42
1.0
176
     1
 92
        8
176
     1
 66
     7
176
     1
 43
1.0
176
     1
 76
     1
176
     1
 77
     6
176
     1
 78
     2
176
     1
 67
     7
176
     1
 79
     5
176
     1
170
     0
176
     1
171
     0
176
     1
290
     0
176
     1
 93
       13
176
     1
 44
0.0
176
     1
173
     0
176
     1
  0
VISUALSTYLE
  5
2C
102
{ACAD_REACTORS
330
2A
102
}
330
2A
100
AcDbVisualStyle
  2
FlatWithEdges
 70
     1
177
     2
291
     1
 71
     2
176
     1
 72
     1
176
     1
 73
     1
176
     1
 90
        2
176
     1
 40
-0.6
176
     1
 41
30.0
176
     1
 62
     5
 63
     7
421
 16777215
176
     1
 74
     1
176
     1
 91
        4
176
     1
 64
     7
176
     1
 65
   257
176
     1
 75
     1
176
     1
175
     1
176
     1
 42
1.0
176
     1
 92
        0
176
     1
 66
   257
176
     1
 43
1.0
176
     1
 76
     1
176
     1
 77
     6
176
     1
 78
     2
176
     1
 67
     7
176
     1
 79
     5
176
     1
170
     0
176
     1
171
     0
176
     1
290
     0
176
     1
 93
       13
176
     1
 44
0.0
176
     1
173
     0
176
     1
  0
VISUALSTYLE
  5
2D
102
{ACAD_REACTORS
330
2A
102
}
330
2A
100
AcDbVisualStyle
  2
Gouraud
 70
     2
177
     2
291
     1
 71
     2
176
     1
 72
     2
176
     1
 73
     1
176
     1
 90
        2
176
     1
 40
-0.6
176
     1
 41
30.0
176
     1
 62
     5
 63
     7
421
 16777215
176
     1
 74
     0
176
     1
 91
        4
176
     1
 64
     7
176
     1
 65
   257
176
     1
 75
     1
176
     1
175
     1
176
     1
 42
1.0
176
     1
 92
        0
176
     1
 66
     7
176
     1
 43
1.0
176
     1
 76
     1
176
     1
 77
     6
176
     1
 78
     2
176
     1
 67
     7
176
     1
 79
     5
176
     1
170
     0
176
     1
171
     0
176
     1
290
     0
176
     1
 93
       13
176
     1
 44
0.0
176
     1
173
     0
176
     1
  0
VISUALSTYLE
  5
2E
102
{ACAD_REACTORS
330
2A
102
}
330
2A
100
AcDbVisualStyle
  2
GouraudWithEdges
 70
     3
177
     2
291
     1
 71
     2
176
     1
 72
     2
176
     1
 73
     1
176
     1
 90
        2
176
     1
 40
-0.6
176
     1
 41
30.0
176
     1
 62
     5
 63
     7
421
 16777215
176
     1
 74
     1
176
     1
 91
        4
176
     1
 64
     7
176
     1
 65
   257
176
     1
 75
     1
176
     1
175
     1
176
     1
 42
1.0
176
     1
 92
        0
176
     1
 66
   257
176
     1
 43
1.0
176
     1
 76
     1
176
     1
 77
     6
176
     1
 78
     2
176
     1
 67
     7
176
     1
 79
     5
176
     1
170
     0
176
     1
171
     0
176
     1
290
     0
176
     1
 93
       13
176
     1
 44
0.0
176
     1
173
     0
176
     1
  0
VISUALSTYLE
  5
38
102
{ACAD_REACTORS
330
2A
102
}
330
2A
100
AcDbVisualStyle
  2
Linepattern
 70
    14
177
     2
291
     1
 71
     2
176
     1
 72
     2
176
     1
 73
     0
176
     1
 90
        0
176
     1
 40
-0.6
176
     1
 41
-30.0
176
     1
 62
     5
 63
     7
421
 16777215
176
     1
 74
     1
176
     1
 91
        4
176
     1
 64
     7
176
     1
 65
   257
176
     1
 75
     7
176
     1
175
     7
176
     1
 42
1.0
176
     1
 92
        8
176
     1
 66
     7
176
     1
 43
1.0
176
     1
 76
     1
176
     1
 77
     6
176
     1
 78
     2
176
     1
 67
     7
176
     1
 79
     5
176
     1
170
     0
176
     1
171
     0
176
     1
290
     0
176
     1
 93
        1
176
     1
 44
0.0
176
     1
173
     0
176
     1
  0
VISUALSTYLE
  5
33
102
{ACAD_REACTORS
330
2A
102
}
330
2A
100
AcDbVisualStyle
  2
Realistic
 70
     8
177
     2
291
     0
 71
     2
176
     1
 72
     2
176
     1
 73
     0
176
     1
 90
        0
176
     1
 40
-0.6
176
     1
 41
-30.0
176
     1
 62
     5
 63
     7
421
 16777215
176
     1
 74
     1
176
     1
 91
        0
176
     1
 64
     7
176
     1
 65
   257
176
     1
 75
     1
176
     1
175
     1
176
     1
 42
1.0
176
     1
 92
        8
176
     1
 66
     8
424
  7895160
176
     1
 43
1.0
176
     1
 76
     1
176
     1
 77
     6
176
     1
 78
     2
176
     1
 67
     7
176
     1
 79
     5
176
     1
170
     0
176
     1
171
     0
176
     1
290
     0
176
     1
 93
       13
176
     1
 44
0.0
176
     1
173
     0
176
     1
  0
VISUALSTYLE
  5
37
102
{ACAD_REACTORS
330
2A
102
}
330
2A
100
AcDbVisualStyle
  2
Thicken
 70
    13
177
     2
291
     1
 71
     2
176
     1
 72
     2
176
     1
 73
     0
176
     1
 90
        0
176
     1
 40
-0.6
176
     1
 41
-30.0
176
     1
 62
     5
 63
     7
421
 16777215
176
     1
 74
     1
176
     1
 91
        4
176
     1
 64
     7
176
     1
 65
   257
176
     1
 75
     1
176
     1
175
     1
176
     1
 42
1.0
176
     1
 92
       12
176
     1
 66
     7
176
     1
 43
1.0
176
     1
 76
     1
176
     1
 77
     6
176
     1
 78
     2
176
     1
 67
     7
176
     1
 79
     5
176
     1
170
     0
176
     1
171
     0
176
     1
290
     0
176
     1
 93
        1
176
     1
 44
0.0
176
     1
173
     0
176
     1
  0
ENDSEC
  0
EOF
