  0
SECTION
  2
HEADER
  9
$ACADVER
  1
AC1024
  9
$ACADMAINTVER
 70
     6
  9
$DWGCODEPAGE
  3
UNDEFINED
  9
$INSBASE
 10
0.0
 20
0.0
 30
0.0
  9
$EXTMIN
 10
1.000000000000000E+20
 20
1.000000000000000E+20
 30
1.000000000000000E+20
  9
$EXTMAX
 10
-1.000000000000000E+20
 20
-1.000000000000000E+20
 30
-1.000000000000000E+20
  9
$LIMMIN
 10
0.0
 20
0.0
  9
$LIMMAX
 10
12.0
 20
9.0
  9
$ORTHOMODE
 70
     0
  9
$REGENMODE
 70
     1
  9
$FILLMODE
 70
     1
  9
$QTEXTMODE
 70
     0
  9
$MIRRTEXT
 70
     1
  9
$LTSCALE
 40
1.0
  9
$ATTMODE
 70
     1
  9
$TEXTSIZE
 40
0.2
  9
$TRACEWID
 40
0.05
  9
$TEXTSTYLE
  7
Standard
  9
$CLAYER
  8
0
  9
$CELTYPE
  6
ByLayer
  9
$CECOLOR
 62
   256
  9
$CELTSCALE
 40
1.0
  9
$DISPSILH
 70
     0
  9
$DIMSCALE
 40
1.0
  9
$DIMASZ
 40
0.18
  9
$DIMEXO
 40
0.0625
  9
$DIMDLI
 40
0.38
  9
$DIMRND
 40
0.0
  9
$DIMDLE
 40
0.0
  9
$DIMEXE
 40
0.18
  9
$DIMTP
 40
0.0
  9
$DIMTM
 40
0.0
  9
$DIMTXT
 40
0.18
  9
$DIMCEN
 40
0.09
  9
$DIMTSZ
 40
0.0
  9
$DIMTOL
 70
     0
  9
$DIMLIM
 70
     0
  9
$DIMTIH
 70
     1
  9
$DIMTOH
 70
     1
  9
$DIMSE1
 70
     0
  9
$DIMSE2
 70
     0
  9
$DIMTAD
 70
     0
  9
$DIMZIN
 70
     0
  9
$DIMBLK
  1

  9
$DIMASO
 70
     1
  9
$DIMSHO
 70
     1
  9
$DIMPOST
  1

  9
$DIMAPOST
  1

  9
$DIMALT
 70
     0
  9
$DIMALTD
 70
     2
  9
$DIMALTF
 40
25.4
  9
$DIMLFAC
 40
1.0
  9
$DIMTOFL
 70
     0
  9
$DIMTVP
 40
0.0
  9
$DIMTIX
 70
     0
  9
$DIMSOXD
 70
     0
  9
$DIMSAH
 70
     0
  9
$DIMBLK1
  1

  9
$DIMBLK2
  1

  9
$DIMSTYLE
  2
Standard
  9
$DIMCLRD
 70
     0
  9
$DIMCLRE
 70
     0
  9
$DIMCLRT
 70
     0
  9
$DIMTFAC
 40
1.0
  9
$DIMGAP
 40
0.09
  9
$DIMJUST
 70
     0
  9
$DIMSD1
 70
     0
  9
$DIMSD2
 70
     0
  9
$DIMTOLJ
 70
     1
  9
$DIMTZIN
 70
     0
  9
$DIMALTZ
 70
     0
  9
$DIMALTTZ
 70
     0
  9
$DIMUPT
 70
     0
  9
$DIMDEC
 70
     4
  9
$DIMTDEC
 70
     4
  9
$DIMALTU
 70
     2
  9
$DIMALTTD
 70
     2
  9
$DIMTXSTY
  7
Standard
  9
$DIMAUNIT
 70
     0
  9
$DIMADEC
 70
     0
  9
$DIMALTRND
 40
0.0
  9
$DIMAZIN
 70
     0
  9
$DIMDSEP
 70
    46
  9
$DIMATFIT
 70
     3
  9
$DIMFRAC
 70
     0
  9
$DIMLDRBLK
  1

  9
$DIMLUNIT
 70
     2
  9
$DIMLWD
 70
    -2
  9
$DIMLWE
 70
    -2
  9
$DIMTMOVE
 70
     0
  9
$DIMFXL
 40
1.0
  9
$DIMFXLON
 70
     0
  9
$DIMJOGANG
 40
0.7853981633974483
  9
$DIMTFILL
 70
     0
  9
$DIMTFILLCLR
 70
     0
  9
$DIMARCSYM
 70
     0
  9
$DIMLTYPE
  6

  9
$DIMLTEX1
  6

  9
$DIMLTEX2
  6

  9
$DIMTXTDIRECTION
 70
     0
  9
$LUNITS
 70
     2
  9
$LUPREC
 70
     4
  9
$SKETCHINC
 40
0.1
  9
$FILLETRAD
 40
0.5
  9
$AUNITS
 70
     0
  9
$AUPREC
 70
     0
  9
$MENU
  1
.
  9
$ELEVATION
 40
0.0
  9
$PELEVATION
 40
0.0
  9
$THICKNESS
 40
0.0
  9
$LIMCHECK
 70
     0
  9
$CHAMFERA
 40
0.5
  9
$CHAMFERB
 40
0.5
  9
$CHAMFERC
 40
1.0
  9
$CHAMFERD
 40
0.0
  9
$SKPOLY
 70
     0
  9
$TDCREATE
 40
2457917.601122685
  9
$TDUCREATE
 40
2457917.226122685
  9
$TDUPDATE
 40
2457917.601122685
  9
$TDUUPDATE
 40
2457917.226122685
  9
$TDINDWG
 40
0.0000000116
  9
$TDUSRTIMER
 40
0.0000000116
  9
$USRTIMER
 70
     1
  9
$ANGBASE
 50
0.0
  9
$ANGDIR
 70
     0
  9
$PDMODE
 70
     0
  9
$PDSIZE
 40
0.0
  9
$PLINEWID
 40
0.0
  9
$SPLFRAME
 70
     0
  9
$SPLINETYPE
 70
     6
  9
$SPLINESEGS
 70
     8
  9
$HANDSEED
  5
197
  9
$SURFTAB1
 70
     6
  9
$SURFTAB2
 70
     6
  9
$SURFTYPE
 70
     6
  9
$SURFU
 70
     6
  9
$SURFV
 70
     6
  9
$UCSBASE
  2

  9
$UCSNAME
  2

  9
$UCSORG
 10
0.0
 20
0.0
 30
0.0
  9
$UCSXDIR
 10
1.0
 20
0.0
 30
0.0
  9
$UCSYDIR
 10
0.0
 20
1.0
 30
0.0
  9
$UCSORTHOREF
  2

  9
$UCSORTHOVIEW
 70
     0
  9
$UCSORGTOP
 10
0.0
 20
0.0
 30
0.0
  9
$UCSORGBOTTOM
 10
0.0
 20
0.0
 30
0.0
  9
$UCSORGLEFT
 10
0.0
 20
0.0
 30
0.0
  9
$UCSORGRIGHT
 10
0.0
 20
0.0
 30
0.0
  9
$UCSORGFRONT
 10
0.0
 20
0.0
 30
0.0
  9
$UCSORGBACK
 10
0.0
 20
0.0
 30
0.0
  9
$PUCSBASE
  2

  9
$PUCSNAME
  2

  9
$PUCSORG
 10
0.0
 20
0.0
 30
0.0
  9
$PUCSXDIR
 10
1.0
 20
0.0
 30
0.0
  9
$PUCSYDIR
 10
0.0
 20
1.0
 30
0.0
  9
$PUCSORTHOREF
  2

  9
$PUCSORTHOVIEW
 70
     0
  9
$PUCSORGTOP
 10
0.0
 20
0.0
 30
0.0
  9
$PUCSORGBOTTOM
 10
0.0
 20
0.0
 30
0.0
  9
$PUCSORGLEFT
 10
0.0
 20
0.0
 30
0.0
  9
$PUCSORGRIGHT
 10
0.0
 20
0.0
 30
0.0
  9
$PUCSORGFRONT
 10
0.0
 20
0.0
 30
0.0
  9
$PUCSORGBACK
 10
0.0
 20
0.0
 30
0.0
  9
$USERI1
 70
     0
  9
$USERI2
 70
     0
  9
$USERI3
 70
     0
  9
$USERI4
 70
     0
  9
$USERI5
 70
     0
  9
$USERR1
 40
0.0
  9
$USERR2
 40
0.0
  9
$USERR3
 40
0.0
  9
$USERR4
 40
0.0
  9
$USERR5
 40
0.0
  9
$WORLDVIEW
 70
     1
  9
$SHADEDGE
 70
     3
  9
$SHADEDIF
 70
    70
  9
$TILEMODE
 70
     1
  9
$MAXACTVP
 70
    64
  9
$PINSBASE
 10
0.0
 20
0.0
 30
0.0
  9
$PLIMCHECK
 70
     0
  9
$PEXTMIN
 10
1.000000000000000E+20
 20
1.000000000000000E+20
 30
1.000000000000000E+20
  9
$PEXTMAX
 10
-1.000000000000000E+20
 20
-1.000000000000000E+20
 30
-1.000000000000000E+20
  9
$PLIMMIN
 10
0.0
 20
0.0
  9
$PLIMMAX
 10
12.0
 20
9.0
  9
$UNITMODE
 70
     0
  9
$VISRETAIN
 70
     1
  9
$PLINEGEN
 70
     0
  9
$PSLTSCALE
 70
     1
  9
$TREEDEPTH
 70
  3020
  9
$CMLSTYLE
  2
Standard
  9
$CMLJUST
 70
     0
  9
$CMLSCALE
 40
1.0
  9
$PROXYGRAPHICS
 70
     1
  9
$MEASUREMENT
 70
     0
  9
$CELWEIGHT
370
    -1
  9
$ENDCAPS
280
     0
  9
$JOINSTYLE
280
     0
  9
$LWDISPLAY
290
     1
  9
$INSUNITS
 70
     1
  9
$HYPERLINKBASE
  1

  9
$STYLESHEET
  1

  9
$XEDIT
290
     1
  9
$CEPSNTYPE
380
     0
  9
$PSTYLEMODE
290
     1
  9
$FINGERPRINTGUID
  2
{18D06454-74D8-BDF1-8D2D-B91AAD06EA9F}
  9
$VERSIONGUID
  2
{FAEB1C32-E019-11D5-929B-00C0DF256EC4}
  9
$EXTNAMES
290
     1
  9
$PSVPSCALE
 40
0.0
  9
$OLESTARTUP
290
     0
  9
$SORTENTS
280
   127
  9
$INDEXCTL
280
     0
  9
$HIDETEXT
280
     1
  9
$XCLIPFRAME
280
     2
  9
$HALOGAP
280
     0
  9
$OBSCOLOR
 70
   257
  9
$OBSLTYPE
280
     0
  9
$INTERSECTIONDISPLAY
280
     0
  9
$INTERSECTIONCOLOR
 70
   257
  9
$DIMASSOC
280
     2
  9
$PROJECTNAME
  1

  9
$CAMERADISPLAY
290
     0
  9
$LENSLENGTH
 40
50.0
  9
$CAMERAHEIGHT
 40
0.0
  9
$STEPSPERSEC
 40
2.0
  9
$STEPSIZE
 40
6.0
  9
$3DDWFPREC
 40
2.0
  9
$PSOLWIDTH
 40
0.25
  9
$PSOLHEIGHT
 40
4.0
  9
$LOFTANG1
 40
1.570796326794897
  9
$LOFTANG2
 40
1.570796326794897
  9
$LOFTMAG1
 40
0.0
  9
$LOFTMAG2
 40
0.0
  9
$LOFTPARAM
 70
     7
  9
$LOFTNORMALS
280
     1
  9
$LATITUDE
 40
37.795
  9
$LONGITUDE
 40
-122.394
  9
$NORTHDIRECTION
 40
0.0
  9
$TIMEZONE
 70
 -8000
  9
$LIGHTGLYPHDISPLAY
280
     1
  9
$TILEMODELIGHTSYNCH
280
     1
  9
$CMATERIAL
347
3C
  9
$SOLIDHIST
280
     1
  9
$SHOWHIST
280
     1
  9
$DWFFRAME
280
     2
  9
$DGNFRAME
280
     2
  9
$REALWORLDSCALE
290
     1
  9
$INTERFERECOLOR
 62
   256
  9
$CSHADOW
280
     0
  9
$SHADOWPLANELOCATION
 40
0.0
  0
ENDSEC
  0
SECTION
  2
CLASSES
  0
CLASS
  1
ACDBDICTIONARYWDFLT
  2
AcDbDictionaryWithDefault
  3
ObjectDBX Classes
 90
        0
 91
        4
280
     0
281
     0
  0
CLASS
  1
VISUALSTYLE
  2
AcDbVisualStyle
  3
ObjectDBX Classes
 90
     4095
 91
        4
280
     0
281
     0
  0
CLASS
  1
MATERIAL
  2
AcDbMaterial
  3
ObjectDBX Classes
 90
     1153
 91
        4
280
     0
281
     0
  0
CLASS
  1
SUN
  2
AcDbSun
  3
SCENEOE
 90
     1024
 91
        4
280
     0
281
     0
  0
ENDSEC
  0
SECTION
  2
TABLES
  0
TABLE
  2
VPORT
  5
8
330
0
100
AcDbSymbolTable
 70
     1
  0
VPORT
  5
29
330
8
100
AcDbSymbolTableRecord
100
AcDbViewportTableRecord
  2
*Active
 70
     0
 10
0.0
 20
0.0
 11
1.0
 21
1.0
 12
0.0
 22
0.0
 13
0.0
 23
0.0
 14
0.5
 24
0.5
 15
0.5
 25
0.5
 16
0.0
 26
0.0
 36
1.0
 17
91.00082462281999
 27
-128.4993055234307
 37
0.0
 40
256.9986110468615
 41
0.7081814508812795
 42
50.0
 43
0.0
 44
0.0
 50
0.0
 51
0.0
 71
     0
 72
   100
 73
     1
 74
     3
 75
     0
 76
     0
 77
     0
 78
     0
281
     0
 65
     1
110
0.0
120
0.0
130
0.0
111
1.0
121
0.0
131
0.0
112
0.0
122
1.0
132
0.0
 79
     0
146
0.0
 60
     3
 61
     5
292
     1
282
     1
141
0.0
142
0.0
 63
   250
361
3F
  0
ENDTAB
  0
TABLE
  2
LTYPE
  5
5
330
0
100
AcDbSymbolTable
 70
     2
  0
LTYPE
  5
14
330
5
100
AcDbSymbolTableRecord
100
AcDbLinetypeTableRecord
  2
ByBlock
 70
     0
  3

 72
    65
 73
     0
 40
0.0
  0
LTYPE
  5
15
330
5
100
AcDbSymbolTableRecord
100
AcDbLinetypeTableRecord
  2
ByLayer
 70
     0
  3

 72
    65
 73
     0
 40
0.0
  0
LTYPE
  5
16
330
5
100
AcDbSymbolTableRecord
100
AcDbLinetypeTableRecord
  2
Continuous
 70
     0
  3
Solid line
 72
    65
 73
     0
 40
0.0
  0
LTYPE
  5
9A
330
5
100
AcDbSymbolTableRecord
100
AcDbLinetypeTableRecord
  2
AI-Linetype-1
 70
     0
  3
Adobe Illustrator Linetype No. 1
 72
    65
 73
     2
 40
1.411111110758333
 49
0.7055555553791667
 74
     0
 49
-0.7055555553791667
 74
     0
  0
ENDTAB
  0
TABLE
  2
LAYER
  5
2
330
0
100
AcDbSymbolTable
 70
     2
  0
LAYER
  5
10
330
2
100
AcDbSymbolTableRecord
100
AcDbLayerTableRecord
  2
0
 70
     0
 62
     7
  6
Continuous
370
    -3
390
F
347
3E
  0
LAYER
  5
40
330
2
100
AcDbSymbolTableRecord
100
AcDbLayerTableRecord
  2
_U+30EC_U+30A4_U+30E4_U+30FC 1
 70
     0
 62
     7
  6
Continuous
370
    -3
390
F
347
3E
  0
ENDTAB
  0
TABLE
  2
STYLE
  5
3
330
0
100
AcDbSymbolTable
 70
     1
  0
STYLE
  5
11
330
3
100
AcDbSymbolTableRecord
100
AcDbTextStyleTableRecord
  2
Standard
 70
     0
 40
0.0
 41
1.0
 50
0.0
 71
     0
 42
0.2
  3
txt
  4

  0
ENDTAB
  0
TABLE
  2
VIEW
  5
6
330
0
100
AcDbSymbolTable
 70
     0
  0
ENDTAB
  0
TABLE
  2
UCS
  5
7
330
0
100
AcDbSymbolTable
 70
     0
  0
ENDTAB
  0
TABLE
  2
APPID
  5
9
330
0
100
AcDbSymbolTable
 70
     1
  0
APPID
  5
12
330
9
100
AcDbSymbolTableRecord
100
AcDbRegAppTableRecord
  2
ACAD
 70
     0
  0
ENDTAB
  0
TABLE
  2
DIMSTYLE
  5
A
330
0
100
AcDbSymbolTable
 70
     1
100
AcDbDimStyleTable
  0
DIMSTYLE
105
27
330
A
100
AcDbSymbolTableRecord
100
AcDbDimStyleTableRecord
  2
Standard
 70
     0
178
     0
340
11
  0
ENDTAB
  0
TABLE
  2
BLOCK_RECORD
  5
1
330
0
100
AcDbSymbolTable
 70
    10
  0
BLOCK_RECORD
  5
1F
330
1
100
AcDbSymbolTableRecord
100
AcDbBlockTableRecord
  2
*Model_Space
340
22
 70
     0
280
     1
281
     0
  0
BLOCK_RECORD
  5
1B
330
1
100
AcDbSymbolTableRecord
100
AcDbBlockTableRecord
  2
*Paper_Space
340
1E
 70
     0
280
     1
281
     0
  0
BLOCK_RECORD
  5
23
330
1
100
AcDbSymbolTableRecord
100
AcDbBlockTableRecord
  2
*Paper_Space0
340
26
 70
     0
280
     1
281
     0
  0
BLOCK_RECORD
  5
8E
330
1
100
AcDbSymbolTableRecord
100
AcDbBlockTableRecord
  2
block 2
340
0
102
{BLKREFS
331
8F
102
}
 70
     0
280
     1
281
     0
  0
BLOCK_RECORD
  5
AA
330
1
100
AcDbSymbolTableRecord
100
AcDbBlockTableRecord
  2
block 3
340
0
102
{BLKREFS
331
AB
102
}
 70
     0
280
     1
281
     0
  0
BLOCK_RECORD
  5
BC
330
1
100
AcDbSymbolTableRecord
100
AcDbBlockTableRecord
  2
block 4
340
0
102
{BLKREFS
331
BD
102
}
 70
     0
280
     1
281
     0
  0
BLOCK_RECORD
  5
D7
330
1
100
AcDbSymbolTableRecord
100
AcDbBlockTableRecord
  2
block 5
340
0
102
{BLKREFS
331
D8
102
}
 70
     0
280
     1
281
     0
  0
BLOCK_RECORD
  5
E0
330
1
100
AcDbSymbolTableRecord
100
AcDbBlockTableRecord
  2
block 6
340
0
102
{BLKREFS
331
E1
102
}
 70
     0
280
     1
281
     0
  0
BLOCK_RECORD
  5
116
330
1
100
AcDbSymbolTableRecord
100
AcDbBlockTableRecord
  2
block 7
340
0
102
{BLKREFS
331
117
102
}
 70
     0
280
     1
281
     0
  0
BLOCK_RECORD
  5
12F
330
1
100
AcDbSymbolTableRecord
100
AcDbBlockTableRecord
  2
block 8
340
0
102
{BLKREFS
331
130
102
}
 70
     0
280
     1
281
     0
  0
BLOCK_RECORD
  5
13F
330
1
100
AcDbSymbolTableRecord
100
AcDbBlockTableRecord
  2
block 9
340
0
102
{BLKREFS
331
140
102
}
 70
     0
280
     1
281
     0
  0
BLOCK_RECORD
  5
157
330
1
100
AcDbSymbolTableRecord
100
AcDbBlockTableRecord
  2
block 10
340
0
102
{BLKREFS
331
158
102
}
 70
     0
280
     1
281
     0
  0
ENDTAB
  0
ENDSEC
  0
SECTION
  2
BLOCKS
  0
BLOCK
  5
20
330
1F
100
AcDbEntity
  8
0
100
AcDbBlockBegin
  2
*Model_Space
 70
     0
 10
0.0
 20
0.0
 30
0.0
  3
*Model_Space
  1

  0
ENDBLK
  5
21
330
1F
100
AcDbEntity
  8
0
100
AcDbBlockEnd
  0
BLOCK
  5
1C
330
1B
100
AcDbEntity
 67
     1
  8
0
100
AcDbBlockBegin
  2
*Paper_Space
 70
     0
 10
0.0
 20
0.0
 30
0.0
  3
*Paper_Space
  1

  0
ENDBLK
  5
1D
330
1B
100
AcDbEntity
 67
     1
  8
0
100
AcDbBlockEnd
  0
BLOCK
  5
24
330
23
100
AcDbEntity
  8
0
100
AcDbBlockBegin
  2
*Paper_Space0
 70
     0
 10
0.0
 20
0.0
 30
0.0
  3
*Paper_Space0
  1

  0
ENDBLK
  5
25
330
23
100
AcDbEntity
  8
0
100
AcDbBlockEnd
  0
BLOCK
  5
90
330
8E
100
AcDbEntity
  8
0
100
AcDbBlockBegin
  2
block 2
 70
     0
 10
0.0
 20
0.0
 30
0.0
  3
block 2
  1

  0
SPLINE
  5
92
330
8E
100
AcDbEntity
  8
_U+30EC_U+30A4_U+30E4_U+30FC 1
370
     0
100
AcDbSpline
210
0.0
220
0.0
230
1.0
 70
    11
 71
     3
 72
    26
 73
    22
 74
     0
 42
0.0000000001
 43
0.0000000001
 12
1.0
 22
0.0
 32
0.0
 13
1.0
 23
0.0
 33
0.0
 40
0.0
 40
0.0
 40
0.0
 40
0.0
 40
1.0
 40
1.0
 40
1.0
 40
2.0
 40
2.0
 40
2.0
 40
3.0
 40
3.0
 40
3.0
 40
4.0
 40
4.0
 40
4.0
 40
5.0
 40
5.0
 40
5.0
 40
6.0
 40
6.0
 40
6.0
 40
7.0
 40
7.0
 40
7.0
 40
7.0
 10
88.81146102380409
 20
-102.8512586548428
 30
0.0
 10
88.81146102380409
 20
-102.8512586548428
 30
0.0
 10
88.81146102380409
 20
-101.7469332970459
 30
0.0
 10
88.81146102380409
 20
-101.7469332970459
 30
0.0
 10
88.81146102380409
 20
-101.7469332970459
 30
0.0
 10
88.48142087631715
 20
-101.7469332970459
 30
0.0
 10
88.48142087631715
 20
-101.7469332970459
 30
0.0
 10
88.48142087631715
 20
-101.7469332970459
 30
0.0
 10
88.48142087631715
 20
-101.5989664459544
 30
0.0
 10
88.48142087631715
 20
-101.5989664459544
 30
0.0
 10
88.81352808109523
 20
-101.5841525353678
 30
0.0
 10
88.8600368701461
 20
-101.4211995189155
 30
0.0
 10
88.88966469131925
 20
-101.3069946035795
 30
0.0
 10
88.88966469131925
 20
-101.3069946035795
 30
0.0
 10
89.03573673989385
 20
-101.3069946035795
 30
0.0
 10
89.03573673989385
 20
-101.3069946035795
 30
0.0
 10
89.03573673989385
 20
-101.3069946035795
 30
0.0
 10
89.03573673989385
 20
-102.8512586548428
 30
0.0
 10
89.03573673989385
 20
-102.8512586548428
 30
0.0
 10
89.03573673989385
 20
-102.8512586548428
 30
0.0
 10
88.81146102380409
 20
-102.8512586548428
 30
0.0
 10
88.81146102380409
 20
-102.8512586548428
 30
0.0
  0
HATCH
  5
93
330
8E
100
AcDbEntity
  8
_U+30EC_U+30A4_U+30E4_U+30FC 1
 62
   179
420
  2234388
100
AcDbHatch
 10
0.0
 20
0.0
 30
0.0
210
0.0
220
0.0
230
1.0
  2
SOLID
 70
     1
 71
     0
 91
        1
 92
        1
 93
        1
 72
     4
 94
        3
 73
     0
 74
     1
 95
       26
 96
       22
 40
0.0
 40
0.0
 40
0.0
 40
0.0
 40
1.0
 40
1.0
 40
1.0
 40
2.0
 40
2.0
 40
2.0
 40
3.0
 40
3.0
 40
3.0
 40
4.0
 40
4.0
 40
4.0
 40
5.0
 40
5.0
 40
5.0
 40
6.0
 40
6.0
 40
6.0
 40
7.0
 40
7.0
 40
7.0
 40
7.0
 10
88.81146102380409
 20
-102.8512586548428
 10
88.81146102380409
 20
-102.8512586548428
 10
88.81146102380409
 20
-101.7469332970459
 10
88.81146102380409
 20
-101.7469332970459
 10
88.81146102380409
 20
-101.7469332970459
 10
88.48142087631715
 20
-101.7469332970459
 10
88.48142087631715
 20
-101.7469332970459
 10
88.48142087631715
 20
-101.7469332970459
 10
88.48142087631715
 20
-101.5989664459544
 10
88.48142087631715
 20
-101.5989664459544
 10
88.81352808109523
 20
-101.5841525353678
 10
88.8600368701461
 20
-101.4211995189155
 10
88.88966469131925
 20
-101.3069946035795
 10
88.88966469131925
 20
-101.3069946035795
 10
89.03573673989385
 20
-101.3069946035795
 10
89.03573673989385
 20
-101.3069946035795
 10
89.03573673989385
 20
-101.3069946035795
 10
89.03573673989385
 20
-102.8512586548428
 10
89.03573673989385
 20
-102.8512586548428
 10
89.03573673989385
 20
-102.8512586548428
 10
88.81146102380409
 20
-102.8512586548428
 10
88.81146102380409
 20
-102.8512586548428
 97
        0
 97
        0
 75
     2
 76
     1
 98
        0
  0
ENDBLK
  5
91
330
8E
100
AcDbEntity
  8
0
100
AcDbBlockEnd
  0
BLOCK
  5
AC
330
AA
100
AcDbEntity
  8
0
100
AcDbBlockBegin
  2
block 3
 70
     0
 10
0.0
 20
0.0
 30
0.0
  3
block 3
  1

  0
SPLINE
  5
AE
330
AA
100
AcDbEntity
  8
_U+30EC_U+30A4_U+30E4_U+30FC 1
370
     0
100
AcDbSpline
210
0.0
220
0.0
230
1.0
 70
    11
 71
     3
 72
    26
 73
    22
 74
     0
 42
0.0000000001
 43
0.0000000001
 12
1.0
 22
0.0
 32
0.0
 13
1.0
 23
0.0
 33
0.0
 40
0.0
 40
0.0
 40
0.0
 40
0.0
 40
1.0
 40
1.0
 40
1.0
 40
2.0
 40
2.0
 40
2.0
 40
3.0
 40
3.0
 40
3.0
 40
4.0
 40
4.0
 40
4.0
 40
5.0
 40
5.0
 40
5.0
 40
6.0
 40
6.0
 40
6.0
 40
7.0
 40
7.0
 40
7.0
 40
7.0
 10
82.97099064766003
 20
-158.0699381115242
 30
0.0
 10
82.97099064766003
 20
-158.0699381115242
 30
0.0
 10
82.97099064766003
 20
-156.9657850085016
 30
0.0
 10
82.97099064766003
 20
-156.9657850085016
 30
0.0
 10
82.97099064766003
 20
-156.9657850085016
 30
0.0
 10
82.6409505001731
 20
-156.9657850085016
 30
0.0
 10
82.6409505001731
 20
-156.9657850085016
 30
0.0
 10
82.6409505001731
 20
-156.9657850085016
 30
0.0
 10
82.6409505001731
 20
-156.8176459026359
 30
0.0
 10
82.6409505001731
 20
-156.8176459026359
 30
0.0
 10
82.97305770495119
 20
-156.8028319920493
 30
0.0
 10
83.01956649400206
 20
-156.639878975597
 30
0.0
 10
83.0491943151752
 20
-156.5255018054867
 30
0.0
 10
83.0491943151752
 20
-156.5255018054867
 30
0.0
 10
83.1952663637498
 20
-156.5255018054867
 30
0.0
 10
83.1952663637498
 20
-156.5255018054867
 30
0.0
 10
83.1952663637498
 20
-156.5255018054867
 30
0.0
 10
83.1952663637498
 20
-158.0699381115242
 30
0.0
 10
83.1952663637498
 20
-158.0699381115242
 30
0.0
 10
83.1952663637498
 20
-158.0699381115242
 30
0.0
 10
82.97099064766003
 20
-158.0699381115242
 30
0.0
 10
82.97099064766003
 20
-158.0699381115242
 30
0.0
  0
HATCH
  5
AF
330
AA
100
AcDbEntity
  8
_U+30EC_U+30A4_U+30E4_U+30FC 1
 62
   179
420
  2234388
100
AcDbHatch
 10
0.0
 20
0.0
 30
0.0
210
0.0
220
0.0
230
1.0
  2
SOLID
 70
     1
 71
     0
 91
        1
 92
        1
 93
        1
 72
     4
 94
        3
 73
     0
 74
     1
 95
       26
 96
       22
 40
0.0
 40
0.0
 40
0.0
 40
0.0
 40
1.0
 40
1.0
 40
1.0
 40
2.0
 40
2.0
 40
2.0
 40
3.0
 40
3.0
 40
3.0
 40
4.0
 40
4.0
 40
4.0
 40
5.0
 40
5.0
 40
5.0
 40
6.0
 40
6.0
 40
6.0
 40
7.0
 40
7.0
 40
7.0
 40
7.0
 10
82.97099064766003
 20
-158.0699381115242
 10
82.97099064766003
 20
-158.0699381115242
 10
82.97099064766003
 20
-156.9657850085016
 10
82.97099064766003
 20
-156.9657850085016
 10
82.97099064766003
 20
-156.9657850085016
 10
82.6409505001731
 20
-156.9657850085016
 10
82.6409505001731
 20
-156.9657850085016
 10
82.6409505001731
 20
-156.9657850085016
 10
82.6409505001731
 20
-156.8176459026359
 10
82.6409505001731
 20
-156.8176459026359
 10
82.97305770495119
 20
-156.8028319920493
 10
83.01956649400206
 20
-156.639878975597
 10
83.0491943151752
 20
-156.5255018054867
 10
83.0491943151752
 20
-156.5255018054867
 10
83.1952663637498
 20
-156.5255018054867
 10
83.1952663637498
 20
-156.5255018054867
 10
83.1952663637498
 20
-156.5255018054867
 10
83.1952663637498
 20
-158.0699381115242
 10
83.1952663637498
 20
-158.0699381115242
 10
83.1952663637498
 20
-158.0699381115242
 10
82.97099064766003
 20
-158.0699381115242
 10
82.97099064766003
 20
-158.0699381115242
 97
        0
 97
        0
 75
     2
 76
     1
 98
        0
  0
SPLINE
  5
B0
330
AA
100
AcDbEntity
  8
_U+30EC_U+30A4_U+30E4_U+30FC 1
370
     0
100
AcDbSpline
210
0.0
220
0.0
230
1.0
 70
    11
 71
     3
 72
    32
 73
    28
 74
     0
 42
0.0000000001
 43
0.0000000001
 12
1.0
 22
0.0
 32
0.0
 13
1.0
 23
0.0
 33
0.0
 40
0.0
 40
0.0
 40
0.0
 40
0.0
 40
1.0
 40
1.0
 40
1.0
 40
2.0
 40
2.0
 40
2.0
 40
3.0
 40
3.0
 40
3.0
 40
4.0
 40
4.0
 40
4.0
 40
5.0
 40
5.0
 40
5.0
 40
6.0
 40
6.0
 40
6.0
 40
7.0
 40
7.0
 40
7.0
 40
8.0
 40
8.0
 40
8.0
 40
9.0
 40
9.0
 40
9.0
 40
9.0
 10
84.15403643729483
 20
-158.1205810151574
 30
0.0
 10
83.98074813438676
 20
-158.1205810151574
 30
0.0
 10
83.73511282628844
 20
-158.0509900863553
 30
0.0
 10
83.6972167759507
 20
-157.7188828815772
 30
0.0
 10
83.6972167759507
 20
-157.7188828815772
 30
0.0
 10
83.91081269603619
 20
-157.7188828815772
 30
0.0
 10
83.91081269603619
 20
-157.7188828815772
 30
0.0
 10
83.92149249204046
 20
-157.7781385239235
 30
0.0
 10
83.95318737050476
 20
-157.9259331202408
 30
0.0
 10
84.15610349458598
 20
-157.9259331202408
 30
0.0
 10
84.44824759173517
 20
-157.9259331202408
 30
0.0
 10
84.48614364207292
 20
-157.5958929727538
 30
0.0
 10
84.49889049536834
 20
-157.3909097913815
 30
0.0
 10
84.40793997455773
 20
-157.4711805161878
 30
0.0
 10
84.34041610304685
 20
-157.5283691012429
 30
0.0
 10
84.15851506142565
 20
-157.5283691012429
 30
0.0
 10
83.97868107709562
 20
-157.5283691012429
 30
0.0
 10
83.67620169349068
 20
-157.4226046698458
 30
0.0
 10
83.67620169349068
 20
-157.0164279121348
 30
0.0
 10
83.67620169349068
 20
-156.6970675606521
 30
0.0
 10
83.8749837029896
 20
-156.4769259591447
 30
0.0
 10
84.1922769971811
 20
-156.4769259591447
 30
0.0
 10
84.70628524358038
 20
-156.4769259591447
 30
0.0
 10
84.71696503958465
 20
-157.0312418227214
 30
0.0
 10
84.71696503958465
 20
-157.2448377428069
 30
0.0
 10
84.71696503958465
 20
-157.4753146307701
 30
0.0
 10
84.69767250486726
 20
-158.1205810151574
 30
0.0
 10
84.15403643729483
 20
-158.1205810151574
 30
0.0
  0
SPLINE
  5
B1
330
AA
100
AcDbEntity
  8
_U+30EC_U+30A4_U+30E4_U+30FC 1
370
     0
100
AcDbSpline
210
0.0
220
0.0
230
1.0
 70
    11
 71
     3
 72
    17
 73
    13
 74
     0
 42
0.0000000001
 43
0.0000000001
 12
1.0
 22
0.0
 32
0.0
 13
1.0
 23
0.0
 33
0.0
 40
0.0
 40
0.0
 40
0.0
 40
0.0
 40
1.0
 40
1.0
 40
1.0
 40
2.0
 40
2.0
 40
2.0
 40
3.0
 40
3.0
 40
3.0
 40
4.0
 40
4.0
 40
4.0
 40
4.0
 10
84.19434405447225
 20
-156.6695067967701
 30
0.0
 10
84.07583276977965
 20
-156.6695067967701
 30
0.0
 10
83.90013290003192
 20
-156.7266953818253
 30
0.0
 10
83.90013290003192
 20
-157.0122937975525
 30
0.0
 10
83.90013290003192
 20
-157.2386365709334
 30
0.0
 10
84.04000377673306
 20
-157.3337212063263
 30
0.0
 10
84.17539602930337
 20
-157.3337212063263
 30
0.0
 10
84.43756779573089
 20
-157.3337212063263
 30
0.0
 10
84.47580835561716
 20
-157.1242594008231
 30
0.0
 10
84.47580835561716
 20
-157.0078151734217
 30
0.0
 10
84.47580835561716
 20
-156.8324598132224
 30
0.0
 10
84.38037921067574
 20
-156.6695067967701
 30
0.0
 10
84.19434405447225
 20
-156.6695067967701
 30
0.0
  0
HATCH
  5
B2
330
AA
100
AcDbEntity
  8
_U+30EC_U+30A4_U+30E4_U+30FC 1
 62
   179
420
  2234388
100
AcDbHatch
 10
0.0
 20
0.0
 30
0.0
210
0.0
220
0.0
230
1.0
  2
SOLID
 70
     1
 71
     0
 91
        2
 92
        1
 93
        1
 72
     4
 94
        3
 73
     0
 74
     1
 95
       32
 96
       28
 40
0.0
 40
0.0
 40
0.0
 40
0.0
 40
1.0
 40
1.0
 40
1.0
 40
2.0
 40
2.0
 40
2.0
 40
3.0
 40
3.0
 40
3.0
 40
4.0
 40
4.0
 40
4.0
 40
5.0
 40
5.0
 40
5.0
 40
6.0
 40
6.0
 40
6.0
 40
7.0
 40
7.0
 40
7.0
 40
8.0
 40
8.0
 40
8.0
 40
9.0
 40
9.0
 40
9.0
 40
9.0
 10
84.15403643729483
 20
-158.1205810151574
 10
83.98074813438676
 20
-158.1205810151574
 10
83.73511282628844
 20
-158.0509900863553
 10
83.6972167759507
 20
-157.7188828815772
 10
83.6972167759507
 20
-157.7188828815772
 10
83.91081269603619
 20
-157.7188828815772
 10
83.91081269603619
 20
-157.7188828815772
 10
83.92149249204046
 20
-157.7781385239235
 10
83.95318737050476
 20
-157.9259331202408
 10
84.15610349458598
 20
-157.9259331202408
 10
84.44824759173517
 20
-157.9259331202408
 10
84.48614364207292
 20
-157.5958929727538
 10
84.49889049536834
 20
-157.3909097913815
 10
84.40793997455773
 20
-157.4711805161878
 10
84.34041610304685
 20
-157.5283691012429
 10
84.15851506142565
 20
-157.5283691012429
 10
83.97868107709562
 20
-157.5283691012429
 10
83.67620169349068
 20
-157.4226046698458
 10
83.67620169349068
 20
-157.0164279121348
 10
83.67620169349068
 20
-156.6970675606521
 10
83.8749837029896
 20
-156.4769259591447
 10
84.1922769971811
 20
-156.4769259591447
 10
84.70628524358038
 20
-156.4769259591447
 10
84.71696503958465
 20
-157.0312418227214
 10
84.71696503958465
 20
-157.2448377428069
 10
84.71696503958465
 20
-157.4753146307701
 10
84.69767250486726
 20
-158.1205810151574
 10
84.15403643729483
 20
-158.1205810151574
 97
        0
 97
        0
 92
        1
 93
        1
 72
     4
 94
        3
 73
     0
 74
     1
 95
       17
 96
       13
 40
0.0
 40
0.0
 40
0.0
 40
0.0
 40
1.0
 40
1.0
 40
1.0
 40
2.0
 40
2.0
 40
2.0
 40
3.0
 40
3.0
 40
3.0
 40
4.0
 40
4.0
 40
4.0
 40
4.0
 10
84.19434405447225
 20
-156.6695067967701
 10
84.07583276977965
 20
-156.6695067967701
 10
83.90013290003192
 20
-156.7266953818253
 10
83.90013290003192
 20
-157.0122937975525
 10
83.90013290003192
 20
-157.2386365709334
 10
84.04000377673306
 20
-157.3337212063263
 10
84.17539602930337
 20
-157.3337212063263
 10
84.43756779573089
 20
-157.3337212063263
 10
84.47580835561716
 20
-157.1242594008231
 10
84.47580835561716
 20
-157.0078151734217
 10
84.47580835561716
 20
-156.8324598132224
 10
84.38037921067574
 20
-156.6695067967701
 10
84.19434405447225
 20
-156.6695067967701
 97
        0
 97
        0
 75
     2
 76
     1
 98
        0
  0
ENDBLK
  5
AD
330
AA
100
AcDbEntity
  8
0
100
AcDbBlockEnd
  0
BLOCK
  5
BE
330
BC
100
AcDbEntity
  8
0
100
AcDbBlockBegin
  2
block 4
 70
     0
 10
0.0
 20
0.0
 30
0.0
  3
block 4
  1

  0
POLYLINE
  5
C0
330
BC
100
AcDbEntity
  8
_U+30EC_U+30A4_U+30E4_U+30FC 1
370
     0
100
AcDb2dPolyline
 66
     1
 10
0.0
 20
0.0
 30
0.0
  0
VERTEX
  5
C1
330
C0
100
AcDbEntity
  8
_U+30EC_U+30A4_U+30E4_U+30FC 1
370
     0
100
AcDbVertex
100
AcDb2dVertex
 10
98.62722708037792
 20
-118.2160400095085
 30
0.0
  0
VERTEX
  5
C2
330
C0
100
AcDbEntity
  8
_U+30EC_U+30A4_U+30E4_U+30FC 1
370
     0
100
AcDbVertex
100
AcDb2dVertex
 10
98.97414819574257
 20
-118.2160400095085
 30
0.0
  0
VERTEX
  5
C3
330
C0
100
AcDbEntity
  8
_U+30EC_U+30A4_U+30E4_U+30FC 1
370
     0
100
AcDbVertex
100
AcDb2dVertex
 10
98.97414819574257
 20
-118.4337700441763
 30
0.0
  0
VERTEX
  5
C4
330
C0
100
AcDbEntity
  8
_U+30EC_U+30A4_U+30E4_U+30FC 1
370
     0
100
AcDbVertex
100
AcDb2dVertex
 10
98.62722708037792
 20
-118.4337700441763
 30
0.0
  0
VERTEX
  5
C5
330
C0
100
AcDbEntity
  8
_U+30EC_U+30A4_U+30E4_U+30FC 1
370
     0
100
AcDbVertex
100
AcDb2dVertex
 10
98.62722708037792
 20
-119.0897162245679
 30
0.0
  0
VERTEX
  5
C6
330
C0
100
AcDbEntity
  8
_U+30EC_U+30A4_U+30E4_U+30FC 1
370
     0
100
AcDbVertex
100
AcDb2dVertex
 10
98.40295136428816
 20
-119.0897162245679
 30
0.0
  0
VERTEX
  5
C7
330
C0
100
AcDbEntity
  8
_U+30EC_U+30A4_U+30E4_U+30FC 1
370
     0
100
AcDbVertex
100
AcDb2dVertex
 10
97.42971188970508
 20
-118.4106879044251
 30
0.0
  0
VERTEX
  5
C8
330
C0
100
AcDbEntity
  8
_U+30EC_U+30A4_U+30E4_U+30FC 1
370
     0
100
AcDbVertex
100
AcDb2dVertex
 10
97.42971188970508
 20
-118.2160400095085
 30
0.0
  0
VERTEX
  5
C9
330
C0
100
AcDbEntity
  8
_U+30EC_U+30A4_U+30E4_U+30FC 1
370
     0
100
AcDbVertex
100
AcDb2dVertex
 10
98.42844507087901
 20
-118.2160400095085
 30
0.0
  0
VERTEX
  5
CA
330
C0
100
AcDbEntity
  8
_U+30EC_U+30A4_U+30E4_U+30FC 1
370
     0
100
AcDbVertex
100
AcDb2dVertex
 10
98.42844507087901
 20
-118.0086452612965
 30
0.0
  0
VERTEX
  5
CB
330
C0
100
AcDbEntity
  8
_U+30EC_U+30A4_U+30E4_U+30FC 1
370
     0
100
AcDbVertex
100
AcDb2dVertex
 10
98.62722708037792
 20
-118.0086452612965
 30
0.0
  0
VERTEX
  5
CC
330
C0
100
AcDbEntity
  8
_U+30EC_U+30A4_U+30E4_U+30FC 1
370
     0
100
AcDbVertex
100
AcDb2dVertex
 10
98.62722708037792
 20
-118.2160400095085
 30
0.0
  0
SEQEND
  5
CD
330
C0
100
AcDbEntity
  8
_U+30EC_U+30A4_U+30E4_U+30FC 1
370
     0
  0
POLYLINE
  5
CE
330
BC
100
AcDbEntity
  8
_U+30EC_U+30A4_U+30E4_U+30FC 1
370
     0
100
AcDb2dPolyline
 66
     1
 10
0.0
 20
0.0
 30
0.0
  0
VERTEX
  5
CF
330
CE
100
AcDbEntity
  8
_U+30EC_U+30A4_U+30E4_U+30FC 1
370
     0
100
AcDbVertex
100
AcDb2dVertex
 10
97.77249889048744
 20
-118.4337700441763
 30
0.0
  0
VERTEX
  5
D0
330
CE
100
AcDbEntity
  8
_U+30EC_U+30A4_U+30E4_U+30FC 1
370
     0
100
AcDbVertex
100
AcDb2dVertex
 10
98.42844507087901
 20
-118.8909342150689
 30
0.0
  0
VERTEX
  5
D1
330
CE
100
AcDbEntity
  8
_U+30EC_U+30A4_U+30E4_U+30FC 1
370
     0
100
AcDbVertex
100
AcDb2dVertex
 10
98.42844507087901
 20
-118.4337700441763
 30
0.0
  0
VERTEX
  5
D2
330
CE
100
AcDbEntity
  8
_U+30EC_U+30A4_U+30E4_U+30FC 1
370
     0
100
AcDbVertex
100
AcDb2dVertex
 10
97.77249889048744
 20
-118.4337700441763
 30
0.0
  0
SEQEND
  5
D3
330
CE
100
AcDbEntity
  8
_U+30EC_U+30A4_U+30E4_U+30FC 1
370
     0
  0
HATCH
  5
D4
330
BC
100
AcDbEntity
  8
_U+30EC_U+30A4_U+30E4_U+30FC 1
 62
   179
420
  2234388
100
AcDbHatch
 10
0.0
 20
0.0
 30
0.0
210
0.0
220
0.0
230
1.0
  2
SOLID
 70
     1
 71
     0
 91
        2
 92
        1
 93
       11
 72
     1
 10
98.62722708037792
 20
-118.2160400095085
 11
98.97414819574257
 21
-118.2160400095085
 72
     1
 10
98.97414819574257
 20
-118.2160400095085
 11
98.97414819574257
 21
-118.4337700441763
 72
     1
 10
98.97414819574257
 20
-118.4337700441763
 11
98.62722708037792
 21
-118.4337700441763
 72
     1
 10
98.62722708037792
 20
-118.4337700441763
 11
98.62722708037792
 21
-119.0897162245679
 72
     1
 10
98.62722708037792
 20
-119.0897162245679
 11
98.40295136428816
 21
-119.0897162245679
 72
     1
 10
98.40295136428816
 20
-119.0897162245679
 11
97.42971188970508
 21
-118.4106879044251
 72
     1
 10
97.42971188970508
 20
-118.4106879044251
 11
97.42971188970508
 21
-118.2160400095085
 72
     1
 10
97.42971188970508
 20
-118.2160400095085
 11
98.42844507087901
 21
-118.2160400095085
 72
     1
 10
98.42844507087901
 20
-118.2160400095085
 11
98.42844507087901
 21
-118.0086452612965
 72
     1
 10
98.42844507087901
 20
-118.0086452612965
 11
98.62722708037792
 21
-118.0086452612965
 72
     1
 10
98.62722708037792
 20
-118.0086452612965
 11
98.62722708037792
 21
-118.2160400095085
 97
        0
 92
        1
 93
        3
 72
     1
 10
97.77249889048744
 20
-118.4337700441763
 11
98.42844507087901
 21
-118.8909342150689
 72
     1
 10
98.42844507087901
 20
-118.8909342150689
 11
98.42844507087901
 21
-118.4337700441763
 72
     1
 10
98.42844507087901
 20
-118.4337700441763
 11
97.77249889048744
 21
-118.4337700441763
 97
        0
 75
     2
 76
     1
 98
        0
  0
SPLINE
  5
D5
330
BC
100
AcDbEntity
  8
_U+30EC_U+30A4_U+30E4_U+30FC 1
370
     0
100
AcDbSpline
210
0.0
220
0.0
230
1.0
 70
    11
 71
     3
 72
    53
 73
    49
 74
     0
 42
0.0000000001
 43
0.0000000001
 12
1.0
 22
0.0
 32
0.0
 13
1.0
 23
0.0
 33
0.0
 40
0.0
 40
0.0
 40
0.0
 40
0.0
 40
1.0
 40
1.0
 40
1.0
 40
2.0
 40
2.0
 40
2.0
 40
3.0
 40
3.0
 40
3.0
 40
4.0
 40
4.0
 40
4.0
 40
5.0
 40
5.0
 40
5.0
 40
6.0
 40
6.0
 40
6.0
 40
7.0
 40
7.0
 40
7.0
 40
8.0
 40
8.0
 40
8.0
 40
9.0
 40
9.0
 40
9.0
 40
10.0
 40
10.0
 40
10.0
 40
11.0
 40
11.0
 40
11.0
 40
12.0
 40
12.0
 40
12.0
 40
13.0
 40
13.0
 40
13.0
 40
14.0
 40
14.0
 40
14.0
 40
15.0
 40
15.0
 40
15.0
 40
16.0
 40
16.0
 40
16.0
 40
16.0
 10
99.02479109937575
 20
-117.3902506216941
 30
0.0
 10
99.02479109937575
 20
-117.4684542892093
 30
0.0
 10
99.00791013149802
 20
-117.5700846060242
 30
0.0
 10
98.94452037456944
 20
-117.671714922839
 30
0.0
 10
98.83462182858996
 20
-117.8450032257471
 30
0.0
 10
98.70336369060195
 20
-117.8663628177556
 30
0.0
 10
98.59553220191363
 20
-117.8853108429245
 30
0.0
 10
98.59553220191363
 20
-117.8853108429245
 30
0.0
 10
98.59553220191363
 20
-117.6631021841259
 30
0.0
 10
98.59553220191363
 20
-117.6631021841259
 30
0.0
 10
98.79431421141254
 20
-117.6083251659104
 30
0.0
 10
98.82394203258569
 20
-117.4812011425047
 30
0.0
 10
98.82394203258569
 20
-117.388183564403
 30
0.0
 10
98.82394203258569
 20
-117.2486571972503
 30
0.0
 10
98.72437877306197
 20
-117.0963839768023
 30
0.0
 10
98.49183482780761
 20
-117.0963839768023
 30
0.0
 10
98.23586423325354
 20
-117.0963839768023
 30
0.0
 10
98.16592879490297
 20
-117.2762179611323
 30
0.0
 10
98.16592879490297
 20
-117.3967963031161
 30
0.0
 10
98.16592879490297
 20
-117.4284911815804
 30
0.0
 10
98.16592879490297
 20
-117.5700846060242
 30
0.0
 10
98.29511987559984
 20
-117.6589680695436
 30
0.0
 10
98.29511987559984
 20
-117.6589680695436
 30
0.0
 10
98.27617185043096
 20
-117.8346679392913
 30
0.0
 10
98.27617185043096
 20
-117.8346679392913
 30
0.0
 10
98.27617185043096
 20
-117.8346679392913
 30
0.0
 10
97.42971188970508
 20
-117.7140895973076
 30
0.0
 10
97.42971188970508
 20
-117.7140895973076
 30
0.0
 10
97.42971188970508
 20
-117.7140895973076
 30
0.0
 10
97.42971188970508
 20
-116.9354980176411
 30
0.0
 10
97.42971188970508
 20
-116.9354980176411
 30
0.0
 10
97.42971188970508
 20
-116.9354980176411
 30
0.0
 10
97.62435978462169
 20
-116.9354980176411
 30
0.0
 10
97.62435978462169
 20
-116.9354980176411
 30
0.0
 10
97.62435978462169
 20
-116.9354980176411
 30
0.0
 10
97.62435978462169
 20
-117.5511365808553
 30
0.0
 10
97.62435978462169
 20
-117.5511365808553
 30
0.0
 10
97.62435978462169
 20
-117.5511365808553
 30
0.0
 10
98.04741751021037
 20
-117.616593395075
 30
0.0
 10
98.04741751021037
 20
-117.616593395075
 30
0.0
 10
98.01365557445493
 20
-117.5552706954376
 30
0.0
 10
97.9733479572775
 20
-117.4729329133401
 30
0.0
 10
97.9733479572775
 20
-117.3544216286475
 30
0.0
 10
97.9733479572775
 20
-117.1005180913846
 30
0.0
 10
98.15972762302951
 20
-116.8634955219994
 30
0.0
 10
98.47288680263873
 20
-116.8634955219994
 30
0.0
 10
98.79018009683024
 20
-116.8634955219994
 30
0.0
 10
99.02479109937575
 20
-117.0877712380892
 30
0.0
 10
99.02479109937575
 20
-117.3902506216941
 30
0.0
  0
HATCH
  5
D6
330
BC
100
AcDbEntity
  8
_U+30EC_U+30A4_U+30E4_U+30FC 1
 62
   179
420
  2234388
100
AcDbHatch
 10
0.0
 20
0.0
 30
0.0
210
0.0
220
0.0
230
1.0
  2
SOLID
 70
     1
 71
     0
 91
        1
 92
        1
 93
        1
 72
     4
 94
        3
 73
     0
 74
     1
 95
       53
 96
       49
 40
0.0
 40
0.0
 40
0.0
 40
0.0
 40
1.0
 40
1.0
 40
1.0
 40
2.0
 40
2.0
 40
2.0
 40
3.0
 40
3.0
 40
3.0
 40
4.0
 40
4.0
 40
4.0
 40
5.0
 40
5.0
 40
5.0
 40
6.0
 40
6.0
 40
6.0
 40
7.0
 40
7.0
 40
7.0
 40
8.0
 40
8.0
 40
8.0
 40
9.0
 40
9.0
 40
9.0
 40
10.0
 40
10.0
 40
10.0
 40
11.0
 40
11.0
 40
11.0
 40
12.0
 40
12.0
 40
12.0
 40
13.0
 40
13.0
 40
13.0
 40
14.0
 40
14.0
 40
14.0
 40
15.0
 40
15.0
 40
15.0
 40
16.0
 40
16.0
 40
16.0
 40
16.0
 10
99.02479109937575
 20
-117.3902506216941
 10
99.02479109937575
 20
-117.4684542892093
 10
99.00791013149802
 20
-117.5700846060242
 10
98.94452037456944
 20
-117.671714922839
 10
98.83462182858996
 20
-117.8450032257471
 10
98.70336369060195
 20
-117.8663628177556
 10
98.59553220191363
 20
-117.8853108429245
 10
98.59553220191363
 20
-117.8853108429245
 10
98.59553220191363
 20
-117.6631021841259
 10
98.59553220191363
 20
-117.6631021841259
 10
98.79431421141254
 20
-117.6083251659104
 10
98.82394203258569
 20
-117.4812011425047
 10
98.82394203258569
 20
-117.388183564403
 10
98.82394203258569
 20
-117.2486571972503
 10
98.72437877306197
 20
-117.0963839768023
 10
98.49183482780761
 20
-117.0963839768023
 10
98.23586423325354
 20
-117.0963839768023
 10
98.16592879490297
 20
-117.2762179611323
 10
98.16592879490297
 20
-117.3967963031161
 10
98.16592879490297
 20
-117.4284911815804
 10
98.16592879490297
 20
-117.5700846060242
 10
98.29511987559984
 20
-117.6589680695436
 10
98.29511987559984
 20
-117.6589680695436
 10
98.27617185043096
 20
-117.8346679392913
 10
98.27617185043096
 20
-117.8346679392913
 10
98.27617185043096
 20
-117.8346679392913
 10
97.42971188970508
 20
-117.7140895973076
 10
97.42971188970508
 20
-117.7140895973076
 10
97.42971188970508
 20
-117.7140895973076
 10
97.42971188970508
 20
-116.9354980176411
 10
97.42971188970508
 20
-116.9354980176411
 10
97.42971188970508
 20
-116.9354980176411
 10
97.62435978462169
 20
-116.9354980176411
 10
97.62435978462169
 20
-116.9354980176411
 10
97.62435978462169
 20
-116.9354980176411
 10
97.62435978462169
 20
-117.5511365808553
 10
97.62435978462169
 20
-117.5511365808553
 10
97.62435978462169
 20
-117.5511365808553
 10
98.04741751021037
 20
-117.616593395075
 10
98.04741751021037
 20
-117.616593395075
 10
98.01365557445493
 20
-117.5552706954376
 10
97.9733479572775
 20
-117.4729329133401
 10
97.9733479572775
 20
-117.3544216286475
 10
97.9733479572775
 20
-117.1005180913846
 10
98.15972762302951
 20
-116.8634955219994
 10
98.47288680263873
 20
-116.8634955219994
 10
98.79018009683024
 20
-116.8634955219994
 10
99.02479109937575
 20
-117.0877712380892
 10
99.02479109937575
 20
-117.3902506216941
 97
        0
 97
        0
 75
     2
 76
     1
 98
        0
  0
ENDBLK
  5
BF
330
BC
100
AcDbEntity
  8
0
100
AcDbBlockEnd
  0
BLOCK
  5
D9
330
D7
100
AcDbEntity
  8
0
100
AcDbBlockBegin
  2
block 5
 70
     0
 10
0.0
 20
0.0
 30
0.0
  3
block 5
  1

  0
SPLINE
  5
DB
330
D7
100
AcDbEntity
  8
_U+30EC_U+30A4_U+30E4_U+30FC 1
370
     0
100
AcDbSpline
210
0.0
220
0.0
230
1.0
 70
    11
 71
     3
 72
    26
 73
    22
 74
     0
 42
0.0000000001
 43
0.0000000001
 12
1.0
 22
0.0
 32
0.0
 13
1.0
 23
0.0
 33
0.0
 40
0.0
 40
0.0
 40
0.0
 40
0.0
 40
1.0
 40
1.0
 40
1.0
 40
2.0
 40
2.0
 40
2.0
 40
3.0
 40
3.0
 40
3.0
 40
4.0
 40
4.0
 40
4.0
 40
5.0
 40
5.0
 40
5.0
 40
6.0
 40
6.0
 40
6.0
 40
7.0
 40
7.0
 40
7.0
 40
7.0
 10
98.97414819574257
 20
-146.304937029396
 30
0.0
 10
98.97414819574257
 20
-146.304937029396
 30
0.0
 10
97.86999509272
 20
-146.304937029396
 30
0.0
 10
97.86999509272
 20
-146.304937029396
 30
0.0
 10
97.86999509272
 20
-146.304937029396
 30
0.0
 10
97.86999509272
 20
-146.6349771768829
 30
0.0
 10
97.86999509272
 20
-146.6349771768829
 30
0.0
 10
97.86999509272
 20
-146.6349771768829
 30
0.0
 10
97.72185598685427
 20
-146.6349771768829
 30
0.0
 10
97.72185598685427
 20
-146.6349771768829
 30
0.0
 10
97.70704207626768
 20
-146.3028699721048
 30
0.0
 10
97.54408905981538
 20
-146.256361183054
 30
0.0
 10
97.42971188970508
 20
-146.2267333618808
 30
0.0
 10
97.42971188970508
 20
-146.2267333618808
 30
0.0
 10
97.42971188970508
 20
-146.0806613133062
 30
0.0
 10
97.42971188970508
 20
-146.0806613133062
 30
0.0
 10
97.42971188970508
 20
-146.0806613133062
 30
0.0
 10
98.97414819574257
 20
-146.0806613133062
 30
0.0
 10
98.97414819574257
 20
-146.0806613133062
 30
0.0
 10
98.97414819574257
 20
-146.0806613133062
 30
0.0
 10
98.97414819574257
 20
-146.304937029396
 30
0.0
 10
98.97414819574257
 20
-146.304937029396
 30
0.0
  0
HATCH
  5
DC
330
D7
100
AcDbEntity
  8
_U+30EC_U+30A4_U+30E4_U+30FC 1
 62
   179
420
  2234388
100
AcDbHatch
 10
0.0
 20
0.0
 30
0.0
210
0.0
220
0.0
230
1.0
  2
SOLID
 70
     1
 71
     0
 91
        1
 92
        1
 93
        1
 72
     4
 94
        3
 73
     0
 74
     1
 95
       26
 96
       22
 40
0.0
 40
0.0
 40
0.0
 40
0.0
 40
1.0
 40
1.0
 40
1.0
 40
2.0
 40
2.0
 40
2.0
 40
3.0
 40
3.0
 40
3.0
 40
4.0
 40
4.0
 40
4.0
 40
5.0
 40
5.0
 40
5.0
 40
6.0
 40
6.0
 40
6.0
 40
7.0
 40
7.0
 40
7.0
 40
7.0
 10
98.97414819574257
 20
-146.304937029396
 10
98.97414819574257
 20
-146.304937029396
 10
97.86999509272
 20
-146.304937029396
 10
97.86999509272
 20
-146.304937029396
 10
97.86999509272
 20
-146.304937029396
 10
97.86999509272
 20
-146.6349771768829
 10
97.86999509272
 20
-146.6349771768829
 10
97.86999509272
 20
-146.6349771768829
 10
97.72185598685427
 20
-146.6349771768829
 10
97.72185598685427
 20
-146.6349771768829
 10
97.70704207626768
 20
-146.3028699721048
 10
97.54408905981538
 20
-146.256361183054
 10
97.42971188970508
 20
-146.2267333618808
 10
97.42971188970508
 20
-146.2267333618808
 10
97.42971188970508
 20
-146.0806613133062
 10
97.42971188970508
 20
-146.0806613133062
 10
97.42971188970508
 20
-146.0806613133062
 10
98.97414819574257
 20
-146.0806613133062
 10
98.97414819574257
 20
-146.0806613133062
 10
98.97414819574257
 20
-146.0806613133062
 10
98.97414819574257
 20
-146.304937029396
 10
98.97414819574257
 20
-146.304937029396
 97
        0
 97
        0
 75
     2
 76
     1
 98
        0
  0
SPLINE
  5
DD
330
D7
100
AcDbEntity
  8
_U+30EC_U+30A4_U+30E4_U+30FC 1
370
     0
100
AcDbSpline
210
0.0
220
0.0
230
1.0
 70
    11
 71
     3
 72
    29
 73
    25
 74
     0
 42
0.0000000001
 43
0.0000000001
 12
1.0
 22
0.0
 32
0.0
 13
1.0
 23
0.0
 33
0.0
 40
0.0
 40
0.0
 40
0.0
 40
0.0
 40
1.0
 40
1.0
 40
1.0
 40
2.0
 40
2.0
 40
2.0
 40
3.0
 40
3.0
 40
3.0
 40
4.0
 40
4.0
 40
4.0
 40
5.0
 40
5.0
 40
5.0
 40
6.0
 40
6.0
 40
6.0
 40
7.0
 40
7.0
 40
7.0
 40
8.0
 40
8.0
 40
8.0
 40
8.0
 10
98.79638126870368
 20
-144.6816080367463
 30
0.0
 10
99.00584307420688
 20
-144.7897840349831
 30
0.0
 10
99.02479109937575
 20
-144.9630723378912
 30
0.0
 10
99.02479109937575
 20
-145.0795165652926
 30
0.0
 10
99.02479109937575
 20
-145.2404025244538
 30
0.0
 10
98.97828231032487
 20
-145.3819959488976
 30
0.0
 10
98.79638126870368
 20
-145.4770805842905
 30
0.0
 10
98.60173337378707
 20
-145.5807779583965
 30
0.0
 10
98.3650553139504
 20
-145.6000704931139
 30
0.0
 10
98.20210229749809
 20
-145.6000704931139
 30
0.0
 10
98.05809730621465
 20
-145.6000704931139
 30
0.0
 10
97.80626082624288
 20
-145.5828450156876
 30
0.0
 10
97.60747881674396
 20
-145.4770805842905
 30
0.0
 10
97.40456269266275
 20
-145.3692490956021
 30
0.0
 10
97.38113604336306
 20
-145.208363136441
 30
0.0
 10
97.38113604336306
 20
-145.0795165652926
 30
0.0
 10
97.38113604336306
 20
-144.9206976634226
 30
0.0
 10
97.42557777512278
 20
-144.7770371816877
 30
0.0
 10
97.60747881674396
 20
-144.6816080367463
 30
0.0
 10
97.80005965436943
 20
-144.5823892867711
 30
0.0
 10
98.0284694850415
 20
-144.5589626374714
 30
0.0
 10
98.20210229749809
 20
-144.5589626374714
 30
0.0
 10
98.373323543115
 20
-144.5589626374714
 30
0.0
 10
98.60380043107823
 20
-144.5803222294799
 30
0.0
 10
98.79638126870368
 20
-144.6816080367463
 30
0.0
  0
SPLINE
  5
DE
330
D7
100
AcDbEntity
  8
_U+30EC_U+30A4_U+30E4_U+30FC 1
370
     0
100
AcDbSpline
210
0.0
220
0.0
230
1.0
 70
    11
 71
     3
 72
    17
 73
    13
 74
     0
 42
0.0000000001
 43
0.0000000001
 12
1.0
 22
0.0
 32
0.0
 13
1.0
 23
0.0
 33
0.0
 40
0.0
 40
0.0
 40
0.0
 40
0.0
 40
1.0
 40
1.0
 40
1.0
 40
2.0
 40
2.0
 40
2.0
 40
3.0
 40
3.0
 40
3.0
 40
4.0
 40
4.0
 40
4.0
 40
4.0
 10
97.57371688098851
 20
-145.0795165652926
 30
0.0
 10
97.57371688098851
 20
-145.3292859879732
 30
0.0
 10
97.85724823942458
 20
-145.3757947770241
 30
0.0
 10
98.20210229749809
 20
-145.3757947770241
 30
0.0
 10
98.52146264898074
 20
-145.3757947770241
 30
0.0
 10
98.83014320445913
 20
-145.339621274429
 30
0.0
 10
98.83014320445913
 20
-145.0795165652926
 30
0.0
 10
98.83014320445913
 20
-144.8318141999032
 30
0.0
 10
98.54902341286275
 20
-144.7832383535611
 30
0.0
 10
98.20210229749809
 20
-144.7832383535611
 30
0.0
 10
97.8823974364669
 20
-144.7832383535611
 30
0.0
 10
97.57371688098851
 20
-144.8214789134474
 30
0.0
 10
97.57371688098851
 20
-145.0795165652926
 30
0.0
  0
HATCH
  5
DF
330
D7
100
AcDbEntity
  8
_U+30EC_U+30A4_U+30E4_U+30FC 1
 62
   179
420
  2234388
100
AcDbHatch
 10
0.0
 20
0.0
 30
0.0
210
0.0
220
0.0
230
1.0
  2
SOLID
 70
     1
 71
     0
 91
        2
 92
        1
 93
        1
 72
     4
 94
        3
 73
     0
 74
     1
 95
       29
 96
       25
 40
0.0
 40
0.0
 40
0.0
 40
0.0
 40
1.0
 40
1.0
 40
1.0
 40
2.0
 40
2.0
 40
2.0
 40
3.0
 40
3.0
 40
3.0
 40
4.0
 40
4.0
 40
4.0
 40
5.0
 40
5.0
 40
5.0
 40
6.0
 40
6.0
 40
6.0
 40
7.0
 40
7.0
 40
7.0
 40
8.0
 40
8.0
 40
8.0
 40
8.0
 10
98.79638126870368
 20
-144.6816080367463
 10
99.00584307420688
 20
-144.7897840349831
 10
99.02479109937575
 20
-144.9630723378912
 10
99.02479109937575
 20
-145.0795165652926
 10
99.02479109937575
 20
-145.2404025244538
 10
98.97828231032487
 20
-145.3819959488976
 10
98.79638126870368
 20
-145.4770805842905
 10
98.60173337378707
 20
-145.5807779583965
 10
98.3650553139504
 20
-145.6000704931139
 10
98.20210229749809
 20
-145.6000704931139
 10
98.05809730621465
 20
-145.6000704931139
 10
97.80626082624288
 20
-145.5828450156876
 10
97.60747881674396
 20
-145.4770805842905
 10
97.40456269266275
 20
-145.3692490956021
 10
97.38113604336306
 20
-145.208363136441
 10
97.38113604336306
 20
-145.0795165652926
 10
97.38113604336306
 20
-144.9206976634226
 10
97.42557777512278
 20
-144.7770371816877
 10
97.60747881674396
 20
-144.6816080367463
 10
97.80005965436943
 20
-144.5823892867711
 10
98.0284694850415
 20
-144.5589626374714
 10
98.20210229749809
 20
-144.5589626374714
 10
98.373323543115
 20
-144.5589626374714
 10
98.60380043107823
 20
-144.5803222294799
 10
98.79638126870368
 20
-144.6816080367463
 97
        0
 97
        0
 92
        1
 93
        1
 72
     4
 94
        3
 73
     0
 74
     1
 95
       17
 96
       13
 40
0.0
 40
0.0
 40
0.0
 40
0.0
 40
1.0
 40
1.0
 40
1.0
 40
2.0
 40
2.0
 40
2.0
 40
3.0
 40
3.0
 40
3.0
 40
4.0
 40
4.0
 40
4.0
 40
4.0
 10
97.57371688098851
 20
-145.0795165652926
 10
97.57371688098851
 20
-145.3292859879732
 10
97.85724823942458
 20
-145.3757947770241
 10
98.20210229749809
 20
-145.3757947770241
 10
98.52146264898074
 20
-145.3757947770241
 10
98.83014320445913
 20
-145.339621274429
 10
98.83014320445913
 20
-145.0795165652926
 10
98.83014320445913
 20
-144.8318141999032
 10
98.54902341286275
 20
-144.7832383535611
 10
98.20210229749809
 20
-144.7832383535611
 10
97.8823974364669
 20
-144.7832383535611
 10
97.57371688098851
 20
-144.8214789134474
 10
97.57371688098851
 20
-145.0795165652926
 97
        0
 97
        0
 75
     2
 76
     1
 98
        0
  0
ENDBLK
  5
DA
330
D7
100
AcDbEntity
  8
0
100
AcDbBlockEnd
  0
BLOCK
  5
E2
330
E0
100
AcDbEntity
  8
0
100
AcDbBlockBegin
  2
block 6
 70
     0
 10
0.0
 20
0.0
 30
0.0
  3
block 6
  1

  0
POLYLINE
  5
E4
330
E0
100
AcDbEntity
  8
_U+30EC_U+30A4_U+30E4_U+30FC 1
370
     0
100
AcDb2dPolyline
 66
     1
 10
0.0
 20
0.0
 30
0.0
  0
VERTEX
  5
E5
330
E4
100
AcDbEntity
  8
_U+30EC_U+30A4_U+30E4_U+30FC 1
370
     0
100
AcDbVertex
100
AcDb2dVertex
 10
98.62722708037792
 20
-152.1736571885191
 30
0.0
  0
VERTEX
  5
E6
330
E4
100
AcDbEntity
  8
_U+30EC_U+30A4_U+30E4_U+30FC 1
370
     0
100
AcDbVertex
100
AcDb2dVertex
 10
98.97414819574257
 20
-152.1736571885191
 30
0.0
  0
VERTEX
  5
E7
330
E4
100
AcDbEntity
  8
_U+30EC_U+30A4_U+30E4_U+30FC 1
370
     0
100
AcDbVertex
100
AcDb2dVertex
 10
98.97414819574257
 20
-152.3913872231869
 30
0.0
  0
VERTEX
  5
E8
330
E4
100
AcDbEntity
  8
_U+30EC_U+30A4_U+30E4_U+30FC 1
370
     0
100
AcDbVertex
100
AcDb2dVertex
 10
98.62722708037792
 20
-152.3913872231869
 30
0.0
  0
VERTEX
  5
E9
330
E4
100
AcDbEntity
  8
_U+30EC_U+30A4_U+30E4_U+30FC 1
370
     0
100
AcDbVertex
100
AcDb2dVertex
 10
98.62722708037792
 20
-153.0473334035784
 30
0.0
  0
VERTEX
  5
EA
330
E4
100
AcDbEntity
  8
_U+30EC_U+30A4_U+30E4_U+30FC 1
370
     0
100
AcDbVertex
100
AcDb2dVertex
 10
98.40295136428816
 20
-153.0473334035784
 30
0.0
  0
VERTEX
  5
EB
330
E4
100
AcDbEntity
  8
_U+30EC_U+30A4_U+30E4_U+30FC 1
370
     0
100
AcDbVertex
100
AcDb2dVertex
 10
97.42971188970508
 20
-152.3683050834357
 30
0.0
  0
VERTEX
  5
EC
330
E4
100
AcDbEntity
  8
_U+30EC_U+30A4_U+30E4_U+30FC 1
370
     0
100
AcDbVertex
100
AcDb2dVertex
 10
97.42971188970508
 20
-152.1736571885191
 30
0.0
  0
VERTEX
  5
ED
330
E4
100
AcDbEntity
  8
_U+30EC_U+30A4_U+30E4_U+30FC 1
370
     0
100
AcDbVertex
100
AcDb2dVertex
 10
98.42844507087901
 20
-152.1736571885191
 30
0.0
  0
VERTEX
  5
EE
330
E4
100
AcDbEntity
  8
_U+30EC_U+30A4_U+30E4_U+30FC 1
370
     0
100
AcDbVertex
100
AcDb2dVertex
 10
98.42844507087901
 20
-151.966262440307
 30
0.0
  0
VERTEX
  5
EF
330
E4
100
AcDbEntity
  8
_U+30EC_U+30A4_U+30E4_U+30FC 1
370
     0
100
AcDbVertex
100
AcDb2dVertex
 10
98.62722708037792
 20
-151.966262440307
 30
0.0
  0
VERTEX
  5
F0
330
E4
100
AcDbEntity
  8
_U+30EC_U+30A4_U+30E4_U+30FC 1
370
     0
100
AcDbVertex
100
AcDb2dVertex
 10
98.62722708037792
 20
-152.1736571885191
 30
0.0
  0
SEQEND
  5
F1
330
E4
100
AcDbEntity
  8
_U+30EC_U+30A4_U+30E4_U+30FC 1
370
     0
  0
POLYLINE
  5
F2
330
E0
100
AcDbEntity
  8
_U+30EC_U+30A4_U+30E4_U+30FC 1
370
     0
100
AcDb2dPolyline
 66
     1
 10
0.0
 20
0.0
 30
0.0
  0
VERTEX
  5
F3
330
F2
100
AcDbEntity
  8
_U+30EC_U+30A4_U+30E4_U+30FC 1
370
     0
100
AcDbVertex
100
AcDb2dVertex
 10
97.77249889048744
 20
-152.3913872231869
 30
0.0
  0
VERTEX
  5
F4
330
F2
100
AcDbEntity
  8
_U+30EC_U+30A4_U+30E4_U+30FC 1
370
     0
100
AcDbVertex
100
AcDb2dVertex
 10
98.42844507087901
 20
-152.8485513940795
 30
0.0
  0
VERTEX
  5
F5
330
F2
100
AcDbEntity
  8
_U+30EC_U+30A4_U+30E4_U+30FC 1
370
     0
100
AcDbVertex
100
AcDb2dVertex
 10
98.42844507087901
 20
-152.3913872231869
 30
0.0
  0
VERTEX
  5
F6
330
F2
100
AcDbEntity
  8
_U+30EC_U+30A4_U+30E4_U+30FC 1
370
     0
100
AcDbVertex
100
AcDb2dVertex
 10
97.77249889048744
 20
-152.3913872231869
 30
0.0
  0
SEQEND
  5
F7
330
F2
100
AcDbEntity
  8
_U+30EC_U+30A4_U+30E4_U+30FC 1
370
     0
  0
HATCH
  5
F8
330
E0
100
AcDbEntity
  8
_U+30EC_U+30A4_U+30E4_U+30FC 1
 62
   179
420
  2234388
100
AcDbHatch
 10
0.0
 20
0.0
 30
0.0
210
0.0
220
0.0
230
1.0
  2
SOLID
 70
     1
 71
     0
 91
        2
 92
        1
 93
       11
 72
     1
 10
98.62722708037792
 20
-152.1736571885191
 11
98.97414819574257
 21
-152.1736571885191
 72
     1
 10
98.97414819574257
 20
-152.1736571885191
 11
98.97414819574257
 21
-152.3913872231869
 72
     1
 10
98.97414819574257
 20
-152.3913872231869
 11
98.62722708037792
 21
-152.3913872231869
 72
     1
 10
98.62722708037792
 20
-152.3913872231869
 11
98.62722708037792
 21
-153.0473334035784
 72
     1
 10
98.62722708037792
 20
-153.0473334035784
 11
98.40295136428816
 21
-153.0473334035784
 72
     1
 10
98.40295136428816
 20
-153.0473334035784
 11
97.42971188970508
 21
-152.3683050834357
 72
     1
 10
97.42971188970508
 20
-152.3683050834357
 11
97.42971188970508
 21
-152.1736571885191
 72
     1
 10
97.42971188970508
 20
-152.1736571885191
 11
98.42844507087901
 21
-152.1736571885191
 72
     1
 10
98.42844507087901
 20
-152.1736571885191
 11
98.42844507087901
 21
-151.966262440307
 72
     1
 10
98.42844507087901
 20
-151.966262440307
 11
98.62722708037792
 21
-151.966262440307
 72
     1
 10
98.62722708037792
 20
-151.966262440307
 11
98.62722708037792
 21
-152.1736571885191
 97
        0
 92
        1
 93
        3
 72
     1
 10
97.77249889048744
 20
-152.3913872231869
 11
98.42844507087901
 21
-152.8485513940795
 72
     1
 10
98.42844507087901
 20
-152.8485513940795
 11
98.42844507087901
 21
-152.3913872231869
 72
     1
 10
98.42844507087901
 20
-152.3913872231869
 11
97.77249889048744
 21
-152.3913872231869
 97
        0
 75
     2
 76
     1
 98
        0
  0
ENDBLK
  5
E3
330
E0
100
AcDbEntity
  8
0
100
AcDbBlockEnd
  0
BLOCK
  5
118
330
116
100
AcDbEntity
  8
0
100
AcDbBlockBegin
  2
block 7
 70
     0
 10
0.0
 20
0.0
 30
0.0
  3
block 7
  1

  0
POLYLINE
  5
11A
330
116
100
AcDbEntity
  8
_U+30EC_U+30A4_U+30E4_U+30FC 1
370
     0
100
AcDb2dPolyline
 66
     1
 10
0.0
 20
0.0
 30
0.0
  0
VERTEX
  5
11B
330
11A
100
AcDbEntity
  8
_U+30EC_U+30A4_U+30E4_U+30FC 1
370
     0
100
AcDbVertex
100
AcDb2dVertex
 10
76.34813908681575
 20
-130.2346001193511
 30
0.0
  0
VERTEX
  5
11C
330
11A
100
AcDbEntity
  8
_U+30EC_U+30A4_U+30E4_U+30FC 1
370
     0
100
AcDbVertex
100
AcDb2dVertex
 10
76.34813908681575
 20
-130.5815212347157
 30
0.0
  0
VERTEX
  5
11D
330
11A
100
AcDbEntity
  8
_U+30EC_U+30A4_U+30E4_U+30FC 1
370
     0
100
AcDbVertex
100
AcDb2dVertex
 10
76.13040905214795
 20
-130.5815212347157
 30
0.0
  0
VERTEX
  5
11E
330
11A
100
AcDbEntity
  8
_U+30EC_U+30A4_U+30E4_U+30FC 1
370
     0
100
AcDbVertex
100
AcDb2dVertex
 10
76.13040905214795
 20
-130.2346001193511
 30
0.0
  0
VERTEX
  5
11F
330
11A
100
AcDbEntity
  8
_U+30EC_U+30A4_U+30E4_U+30FC 1
370
     0
100
AcDbVertex
100
AcDb2dVertex
 10
75.47446287175639
 20
-130.2346001193511
 30
0.0
  0
VERTEX
  5
120
330
11A
100
AcDbEntity
  8
_U+30EC_U+30A4_U+30E4_U+30FC 1
370
     0
100
AcDbVertex
100
AcDb2dVertex
 10
75.47446287175639
 20
-130.0103244032613
 30
0.0
  0
VERTEX
  5
121
330
11A
100
AcDbEntity
  8
_U+30EC_U+30A4_U+30E4_U+30FC 1
370
     0
100
AcDbVertex
100
AcDb2dVertex
 10
76.15349119189914
 20
-129.0370849286782
 30
0.0
  0
VERTEX
  5
122
330
11A
100
AcDbEntity
  8
_U+30EC_U+30A4_U+30E4_U+30FC 1
370
     0
100
AcDbVertex
100
AcDb2dVertex
 10
76.34813908681575
 20
-129.0370849286782
 30
0.0
  0
VERTEX
  5
123
330
11A
100
AcDbEntity
  8
_U+30EC_U+30A4_U+30E4_U+30FC 1
370
     0
100
AcDbVertex
100
AcDb2dVertex
 10
76.34813908681575
 20
-130.0358181098522
 30
0.0
  0
VERTEX
  5
124
330
11A
100
AcDbEntity
  8
_U+30EC_U+30A4_U+30E4_U+30FC 1
370
     0
100
AcDbVertex
100
AcDb2dVertex
 10
76.55553383502779
 20
-130.0358181098522
 30
0.0
  0
VERTEX
  5
125
330
11A
100
AcDbEntity
  8
_U+30EC_U+30A4_U+30E4_U+30FC 1
370
     0
100
AcDbVertex
100
AcDb2dVertex
 10
76.55553383502779
 20
-130.2346001193511
 30
0.0
  0
VERTEX
  5
126
330
11A
100
AcDbEntity
  8
_U+30EC_U+30A4_U+30E4_U+30FC 1
370
     0
100
AcDbVertex
100
AcDb2dVertex
 10
76.34813908681575
 20
-130.2346001193511
 30
0.0
  0
SEQEND
  5
127
330
11A
100
AcDbEntity
  8
_U+30EC_U+30A4_U+30E4_U+30FC 1
370
     0
  0
POLYLINE
  5
128
330
116
100
AcDbEntity
  8
_U+30EC_U+30A4_U+30E4_U+30FC 1
370
     0
100
AcDb2dPolyline
 66
     1
 10
0.0
 20
0.0
 30
0.0
  0
VERTEX
  5
129
330
128
100
AcDbEntity
  8
_U+30EC_U+30A4_U+30E4_U+30FC 1
370
     0
100
AcDbVertex
100
AcDb2dVertex
 10
76.13040905214795
 20
-129.3798719294606
 30
0.0
  0
VERTEX
  5
12A
330
128
100
AcDbEntity
  8
_U+30EC_U+30A4_U+30E4_U+30FC 1
370
     0
100
AcDbVertex
100
AcDb2dVertex
 10
75.6732448812553
 20
-130.0358181098522
 30
0.0
  0
VERTEX
  5
12B
330
128
100
AcDbEntity
  8
_U+30EC_U+30A4_U+30E4_U+30FC 1
370
     0
100
AcDbVertex
100
AcDb2dVertex
 10
76.13040905214795
 20
-130.0358181098522
 30
0.0
  0
VERTEX
  5
12C
330
128
100
AcDbEntity
  8
_U+30EC_U+30A4_U+30E4_U+30FC 1
370
     0
100
AcDbVertex
100
AcDb2dVertex
 10
76.13040905214795
 20
-129.3798719294606
 30
0.0
  0
SEQEND
  5
12D
330
128
100
AcDbEntity
  8
_U+30EC_U+30A4_U+30E4_U+30FC 1
370
     0
  0
HATCH
  5
12E
330
116
100
AcDbEntity
  8
_U+30EC_U+30A4_U+30E4_U+30FC 1
 62
   179
420
  2234388
100
AcDbHatch
 10
0.0
 20
0.0
 30
0.0
210
0.0
220
0.0
230
1.0
  2
SOLID
 70
     1
 71
     0
 91
        2
 92
        1
 93
       11
 72
     1
 10
76.34813908681575
 20
-130.2346001193511
 11
76.34813908681575
 21
-130.5815212347157
 72
     1
 10
76.34813908681575
 20
-130.5815212347157
 11
76.13040905214795
 21
-130.5815212347157
 72
     1
 10
76.13040905214795
 20
-130.5815212347157
 11
76.13040905214795
 21
-130.2346001193511
 72
     1
 10
76.13040905214795
 20
-130.2346001193511
 11
75.47446287175639
 21
-130.2346001193511
 72
     1
 10
75.47446287175639
 20
-130.2346001193511
 11
75.47446287175639
 21
-130.0103244032613
 72
     1
 10
75.47446287175639
 20
-130.0103244032613
 11
76.15349119189914
 21
-129.0370849286782
 72
     1
 10
76.15349119189914
 20
-129.0370849286782
 11
76.34813908681575
 21
-129.0370849286782
 72
     1
 10
76.34813908681575
 20
-129.0370849286782
 11
76.34813908681575
 21
-130.0358181098522
 72
     1
 10
76.34813908681575
 20
-130.0358181098522
 11
76.55553383502779
 21
-130.0358181098522
 72
     1
 10
76.55553383502779
 20
-130.0358181098522
 11
76.55553383502779
 21
-130.2346001193511
 72
     1
 10
76.55553383502779
 20
-130.2346001193511
 11
76.34813908681575
 21
-130.2346001193511
 97
        0
 92
        1
 93
        3
 72
     1
 10
76.13040905214795
 20
-129.3798719294606
 11
75.6732448812553
 21
-130.0358181098522
 72
     1
 10
75.6732448812553
 20
-130.0358181098522
 11
76.13040905214795
 21
-130.0358181098522
 72
     1
 10
76.13040905214795
 20
-130.0358181098522
 11
76.13040905214795
 21
-129.3798719294606
 97
        0
 75
     2
 76
     1
 98
        0
  0
ENDBLK
  5
119
330
116
100
AcDbEntity
  8
0
100
AcDbBlockEnd
  0
BLOCK
  5
131
330
12F
100
AcDbEntity
  8
0
100
AcDbBlockBegin
  2
block 8
 70
     0
 10
0.0
 20
0.0
 30
0.0
  3
block 8
  1

  0
SPLINE
  5
133
330
12F
100
AcDbEntity
  8
_U+30EC_U+30A4_U+30E4_U+30FC 1
370
     0
100
AcDbSpline
210
0.0
220
0.0
230
1.0
 70
    11
 71
     3
 72
    26
 73
    22
 74
     0
 42
0.0000000001
 43
0.0000000001
 12
1.0
 22
0.0
 32
0.0
 13
1.0
 23
0.0
 33
0.0
 40
0.0
 40
0.0
 40
0.0
 40
0.0
 40
1.0
 40
1.0
 40
1.0
 40
2.0
 40
2.0
 40
2.0
 40
3.0
 40
3.0
 40
3.0
 40
4.0
 40
4.0
 40
4.0
 40
5.0
 40
5.0
 40
5.0
 40
6.0
 40
6.0
 40
6.0
 40
7.0
 40
7.0
 40
7.0
 40
7.0
 10
83.21972654169507
 20
-130.5815212347157
 30
0.0
 10
83.21972654169507
 20
-130.5815212347157
 30
0.0
 10
83.21972654169507
 20
-129.4773681316932
 30
0.0
 10
83.21972654169507
 20
-129.4773681316932
 30
0.0
 10
83.21972654169507
 20
-129.4773681316932
 30
0.0
 10
82.88968639420814
 20
-129.4773681316932
 30
0.0
 10
82.88968639420814
 20
-129.4773681316932
 30
0.0
 10
82.88968639420814
 20
-129.4773681316932
 30
0.0
 10
82.88968639420814
 20
-129.3292290258274
 30
0.0
 10
82.88968639420814
 20
-129.3292290258274
 30
0.0
 10
83.22179359898622
 20
-129.3144151152408
 30
0.0
 10
83.2683023880371
 20
-129.1514620987885
 30
0.0
 10
83.29793020921025
 20
-129.0370849286782
 30
0.0
 10
83.29793020921025
 20
-129.0370849286782
 30
0.0
 10
83.44400225778483
 20
-129.0370849286782
 30
0.0
 10
83.44400225778483
 20
-129.0370849286782
 30
0.0
 10
83.44400225778483
 20
-129.0370849286782
 30
0.0
 10
83.44400225778483
 20
-130.5815212347157
 30
0.0
 10
83.44400225778483
 20
-130.5815212347157
 30
0.0
 10
83.44400225778483
 20
-130.5815212347157
 30
0.0
 10
83.21972654169507
 20
-130.5815212347157
 30
0.0
 10
83.21972654169507
 20
-130.5815212347157
 30
0.0
  0
HATCH
  5
134
330
12F
100
AcDbEntity
  8
_U+30EC_U+30A4_U+30E4_U+30FC 1
 62
   179
420
  2234388
100
AcDbHatch
 10
0.0
 20
0.0
 30
0.0
210
0.0
220
0.0
230
1.0
  2
SOLID
 70
     1
 71
     0
 91
        1
 92
        1
 93
        1
 72
     4
 94
        3
 73
     0
 74
     1
 95
       26
 96
       22
 40
0.0
 40
0.0
 40
0.0
 40
0.0
 40
1.0
 40
1.0
 40
1.0
 40
2.0
 40
2.0
 40
2.0
 40
3.0
 40
3.0
 40
3.0
 40
4.0
 40
4.0
 40
4.0
 40
5.0
 40
5.0
 40
5.0
 40
6.0
 40
6.0
 40
6.0
 40
7.0
 40
7.0
 40
7.0
 40
7.0
 10
83.21972654169507
 20
-130.5815212347157
 10
83.21972654169507
 20
-130.5815212347157
 10
83.21972654169507
 20
-129.4773681316932
 10
83.21972654169507
 20
-129.4773681316932
 10
83.21972654169507
 20
-129.4773681316932
 10
82.88968639420814
 20
-129.4773681316932
 10
82.88968639420814
 20
-129.4773681316932
 10
82.88968639420814
 20
-129.4773681316932
 10
82.88968639420814
 20
-129.3292290258274
 10
82.88968639420814
 20
-129.3292290258274
 10
83.22179359898622
 20
-129.3144151152408
 10
83.2683023880371
 20
-129.1514620987885
 10
83.29793020921025
 20
-129.0370849286782
 10
83.29793020921025
 20
-129.0370849286782
 10
83.44400225778483
 20
-129.0370849286782
 10
83.44400225778483
 20
-129.0370849286782
 10
83.44400225778483
 20
-129.0370849286782
 10
83.44400225778483
 20
-130.5815212347157
 10
83.44400225778483
 20
-130.5815212347157
 10
83.44400225778483
 20
-130.5815212347157
 10
83.21972654169507
 20
-130.5815212347157
 10
83.21972654169507
 20
-130.5815212347157
 97
        0
 97
        0
 75
     2
 76
     1
 98
        0
  0
SPLINE
  5
135
330
12F
100
AcDbEntity
  8
_U+30EC_U+30A4_U+30E4_U+30FC 1
370
     0
100
AcDbSpline
210
0.0
220
0.0
230
1.0
 70
    11
 71
     3
 72
    62
 73
    58
 74
     0
 42
0.0000000001
 43
0.0000000001
 12
1.0
 22
0.0
 32
0.0
 13
1.0
 23
0.0
 33
0.0
 40
0.0
 40
0.0
 40
0.0
 40
0.0
 40
1.0
 40
1.0
 40
1.0
 40
2.0
 40
2.0
 40
2.0
 40
3.0
 40
3.0
 40
3.0
 40
4.0
 40
4.0
 40
4.0
 40
5.0
 40
5.0
 40
5.0
 40
6.0
 40
6.0
 40
6.0
 40
7.0
 40
7.0
 40
7.0
 40
8.0
 40
8.0
 40
8.0
 40
9.0
 40
9.0
 40
9.0
 40
10.0
 40
10.0
 40
10.0
 40
11.0
 40
11.0
 40
11.0
 40
12.0
 40
12.0
 40
12.0
 40
13.0
 40
13.0
 40
13.0
 40
14.0
 40
14.0
 40
14.0
 40
15.0
 40
15.0
 40
15.0
 40
16.0
 40
16.0
 40
16.0
 40
17.0
 40
17.0
 40
17.0
 40
18.0
 40
18.0
 40
18.0
 40
19.0
 40
19.0
 40
19.0
 40
19.0
 10
84.43687877663383
 20
-130.6321641383489
 30
0.0
 10
84.34144963169241
 20
-130.6321641383489
 30
0.0
 10
84.12371959702463
 20
-130.6111490558889
 30
0.0
 10
83.99866263091006
 20
-130.4251138996854
 30
0.0
 10
83.92459307797719
 20
-130.3128037868663
 30
0.0
 10
83.92045896339489
 20
-130.2135850368911
 30
0.0
 10
83.9163248488126
 20
-130.1288356879539
 30
0.0
 10
83.9163248488126
 20
-130.1288356879539
 30
0.0
 10
84.13646645032006
 20
-130.1288356879539
 30
0.0
 10
84.13646645032006
 20
-130.1288356879539
 30
0.0
 10
84.1385335076112
 20
-130.2029052408868
 30
0.0
 10
84.14886879406696
 20
-130.4375162434323
 30
0.0
 10
84.43240015250302
 20
-130.4375162434323
 30
0.0
 10
84.56985946236448
 20
-130.4375162434323
 30
0.0
 10
84.72247719236105
 20
-130.3679253146302
 30
0.0
 10
84.72247719236105
 20
-130.1395154839582
 30
0.0
 10
84.72247719236105
 20
-130.0230712565567
 30
0.0
 10
84.68423663247478
 20
-129.9744954102147
 30
0.0
 10
84.65254175401049
 20
-129.9428005317504
 30
0.0
 10
84.5784722010776
 20
-129.8687309788176
 30
0.0
 10
84.46202797367616
 20
-129.8559841255221
 30
0.0
 10
84.4072509554607
 20
-129.8559841255221
 30
0.0
 10
84.38795842074329
 20
-129.8559841255221
 30
0.0
 10
84.3521294276967
 20
-129.8580511828133
 30
0.0
 10
84.3245686638147
 20
-129.8621852973956
 30
0.0
 10
84.3245686638147
 20
-129.8621852973956
 30
0.0
 10
84.3245686638147
 20
-129.667537402479
 30
0.0
 10
84.3245686638147
 20
-129.667537402479
 30
0.0
 10
84.36280922370096
 20
-129.6740830839009
 30
0.0
 10
84.40483938862101
 20
-129.6761501411921
 30
0.0
 10
84.411385070043
 20
-129.6761501411921
 30
0.0
 10
84.47684188426274
 20
-129.6761501411921
 30
0.0
 10
84.67562389376165
 20
-129.6547905491835
 30
0.0
 10
84.67562389376165
 20
-129.4181124893469
 30
0.0
 10
84.67562389376165
 20
-129.240345562308
 30
0.0
 10
84.54471026532217
 20
-129.185224034544
 30
0.0
 10
84.43446720979416
 20
-129.185224034544
 30
0.0
 10
84.17022838607551
 20
-129.185224034544
 30
0.0
 10
84.16161564736238
 20
-129.4181124893469
 30
0.0
 10
84.15748153278008
 20
-129.4897704754401
 30
0.0
 10
84.15748153278008
 20
-129.4897704754401
 30
0.0
 10
83.95422089915034
 20
-129.4897704754401
 30
0.0
 10
83.95422089915034
 20
-129.4897704754401
 30
0.0
 10
83.96283363786347
 20
-129.365058018874
 30
0.0
 10
83.99039440174546
 20
-128.9885090823362
 30
0.0
 10
84.44721406308959
 20
-128.9885090823362
 30
0.0
 10
84.67148977917935
 20
-128.9885090823362
 30
0.0
 10
84.91264646314684
 20
-129.1156331057419
 30
0.0
 10
84.91264646314684
 20
-129.4115668079249
 30
0.0
 10
84.91264646314684
 20
-129.5979464736769
 30
0.0
 10
84.81756182775395
 20
-129.6802842557744
 30
0.0
 10
84.71799856823023
 20
-129.7416069554118
 30
0.0
 10
84.77932126786767
 20
-129.7691677192938
 30
0.0
 10
84.96122230948886
 20
-129.8494384441001
 30
0.0
 10
84.96122230948886
 20
-130.1267686306628
 30
0.0
 10
84.96122230948886
 20
-130.4650770073143
 30
0.0
 10
84.71386445364793
 20
-130.6321641383489
 30
0.0
 10
84.43687877663383
 20
-130.6321641383489
 30
0.0
  0
HATCH
  5
136
330
12F
100
AcDbEntity
  8
_U+30EC_U+30A4_U+30E4_U+30FC 1
 62
   179
420
  2234388
100
AcDbHatch
 10
0.0
 20
0.0
 30
0.0
210
0.0
220
0.0
230
1.0
  2
SOLID
 70
     1
 71
     0
 91
        1
 92
        1
 93
        1
 72
     4
 94
        3
 73
     0
 74
     1
 95
       62
 96
       58
 40
0.0
 40
0.0
 40
0.0
 40
0.0
 40
1.0
 40
1.0
 40
1.0
 40
2.0
 40
2.0
 40
2.0
 40
3.0
 40
3.0
 40
3.0
 40
4.0
 40
4.0
 40
4.0
 40
5.0
 40
5.0
 40
5.0
 40
6.0
 40
6.0
 40
6.0
 40
7.0
 40
7.0
 40
7.0
 40
8.0
 40
8.0
 40
8.0
 40
9.0
 40
9.0
 40
9.0
 40
10.0
 40
10.0
 40
10.0
 40
11.0
 40
11.0
 40
11.0
 40
12.0
 40
12.0
 40
12.0
 40
13.0
 40
13.0
 40
13.0
 40
14.0
 40
14.0
 40
14.0
 40
15.0
 40
15.0
 40
15.0
 40
16.0
 40
16.0
 40
16.0
 40
17.0
 40
17.0
 40
17.0
 40
18.0
 40
18.0
 40
18.0
 40
19.0
 40
19.0
 40
19.0
 40
19.0
 10
84.43687877663383
 20
-130.6321641383489
 10
84.34144963169241
 20
-130.6321641383489
 10
84.12371959702463
 20
-130.6111490558889
 10
83.99866263091006
 20
-130.4251138996854
 10
83.92459307797719
 20
-130.3128037868663
 10
83.92045896339489
 20
-130.2135850368911
 10
83.9163248488126
 20
-130.1288356879539
 10
83.9163248488126
 20
-130.1288356879539
 10
84.13646645032006
 20
-130.1288356879539
 10
84.13646645032006
 20
-130.1288356879539
 10
84.1385335076112
 20
-130.2029052408868
 10
84.14886879406696
 20
-130.4375162434323
 10
84.43240015250302
 20
-130.4375162434323
 10
84.56985946236448
 20
-130.4375162434323
 10
84.72247719236105
 20
-130.3679253146302
 10
84.72247719236105
 20
-130.1395154839582
 10
84.72247719236105
 20
-130.0230712565567
 10
84.68423663247478
 20
-129.9744954102147
 10
84.65254175401049
 20
-129.9428005317504
 10
84.5784722010776
 20
-129.8687309788176
 10
84.46202797367616
 20
-129.8559841255221
 10
84.4072509554607
 20
-129.8559841255221
 10
84.38795842074329
 20
-129.8559841255221
 10
84.3521294276967
 20
-129.8580511828133
 10
84.3245686638147
 20
-129.8621852973956
 10
84.3245686638147
 20
-129.8621852973956
 10
84.3245686638147
 20
-129.667537402479
 10
84.3245686638147
 20
-129.667537402479
 10
84.36280922370096
 20
-129.6740830839009
 10
84.40483938862101
 20
-129.6761501411921
 10
84.411385070043
 20
-129.6761501411921
 10
84.47684188426274
 20
-129.6761501411921
 10
84.67562389376165
 20
-129.6547905491835
 10
84.67562389376165
 20
-129.4181124893469
 10
84.67562389376165
 20
-129.240345562308
 10
84.54471026532217
 20
-129.185224034544
 10
84.43446720979416
 20
-129.185224034544
 10
84.17022838607551
 20
-129.185224034544
 10
84.16161564736238
 20
-129.4181124893469
 10
84.15748153278008
 20
-129.4897704754401
 10
84.15748153278008
 20
-129.4897704754401
 10
83.95422089915034
 20
-129.4897704754401
 10
83.95422089915034
 20
-129.4897704754401
 10
83.96283363786347
 20
-129.365058018874
 10
83.99039440174546
 20
-128.9885090823362
 10
84.44721406308959
 20
-128.9885090823362
 10
84.67148977917935
 20
-128.9885090823362
 10
84.91264646314684
 20
-129.1156331057419
 10
84.91264646314684
 20
-129.4115668079249
 10
84.91264646314684
 20
-129.5979464736769
 10
84.81756182775395
 20
-129.6802842557744
 10
84.71799856823023
 20
-129.7416069554118
 10
84.77932126786767
 20
-129.7691677192938
 10
84.96122230948886
 20
-129.8494384441001
 10
84.96122230948886
 20
-130.1267686306628
 10
84.96122230948886
 20
-130.4650770073143
 10
84.71386445364793
 20
-130.6321641383489
 10
84.43687877663383
 20
-130.6321641383489
 97
        0
 97
        0
 75
     2
 76
     1
 98
        0
  0
ENDBLK
  5
132
330
12F
100
AcDbEntity
  8
0
100
AcDbBlockEnd
  0
BLOCK
  5
141
330
13F
100
AcDbEntity
  8
0
100
AcDbBlockBegin
  2
block 9
 70
     0
 10
0.0
 20
0.0
 30
0.0
  3
block 9
  1

  0
SPLINE
  5
143
330
13F
100
AcDbEntity
  8
_U+30EC_U+30A4_U+30E4_U+30FC 1
370
     0
100
AcDbSpline
210
0.0
220
0.0
230
1.0
 70
    11
 71
     3
 72
    44
 73
    40
 74
     0
 42
0.0000000001
 43
0.0000000001
 12
1.0
 22
0.0
 32
0.0
 13
1.0
 23
0.0
 33
0.0
 40
0.0
 40
0.0
 40
0.0
 40
0.0
 40
1.0
 40
1.0
 40
1.0
 40
2.0
 40
2.0
 40
2.0
 40
3.0
 40
3.0
 40
3.0
 40
4.0
 40
4.0
 40
4.0
 40
5.0
 40
5.0
 40
5.0
 40
6.0
 40
6.0
 40
6.0
 40
7.0
 40
7.0
 40
7.0
 40
8.0
 40
8.0
 40
8.0
 40
9.0
 40
9.0
 40
9.0
 40
10.0
 40
10.0
 40
10.0
 40
11.0
 40
11.0
 40
11.0
 40
12.0
 40
12.0
 40
12.0
 40
13.0
 40
13.0
 40
13.0
 40
13.0
 10
69.64536131071367
 20
-144.9771972293807
 30
0.0
 10
69.80400795780942
 20
-145.195271773597
 30
0.0
 10
69.87807751074229
 20
-145.2886338612473
 30
0.0
 10
70.02191024725147
 20
-145.3368651980408
 30
0.0
 10
70.02191024725147
 20
-145.3368651980408
 30
0.0
 10
70.02191024725147
 20
-144.5586181279228
 30
0.0
 10
70.02191024725147
 20
-144.5586181279228
 30
0.0
 10
70.02191024725147
 20
-144.5586181279228
 30
0.0
 10
70.2270656833981
 20
-144.5586181279228
 30
0.0
 10
70.2270656833981
 20
-144.5586181279228
 30
0.0
 10
70.2270656833981
 20
-144.5586181279228
 30
0.0
 10
70.2270656833981
 20
-145.5866346207214
 30
0.0
 10
70.2270656833981
 20
-145.5866346207214
 30
0.0
 10
69.86946477202916
 20
-145.5549397422571
 30
0.0
 10
69.79126110451399
 20
-145.4894829280373
 30
0.0
 10
69.49291583549136
 20
-145.1043212527864
 30
0.0
 10
69.29413382599245
 20
-144.8483506582324
 30
0.0
 10
69.22643769970728
 20
-144.7828938440126
 30
0.0
 10
69.08897838984582
 20
-144.7828938440126
 30
0.0
 10
68.97046710515322
 20
-144.7828938440126
 30
0.0
 10
68.83938122193946
 20
-144.8545518301058
 30
0.0
 10
68.83938122193946
 20
-145.0516112918621
 30
0.0
 10
68.83938122193946
 20
-145.3117160009985
 30
0.0
 10
69.06985810990268
 20
-145.3203287397116
 30
0.0
 10
69.18630233730413
 20
-145.3244628542939
 30
0.0
 10
69.18630233730413
 20
-145.3244628542939
 30
0.0
 10
69.18630233730413
 20
-145.5483940608351
 30
0.0
 10
69.18630233730413
 20
-145.5483940608351
 30
0.0
 10
69.05935056867267
 20
-145.5401258316705
 30
0.0
 10
68.94721271062778
 20
-145.5297905452148
 30
0.0
 10
68.8287014259352
 20
-145.4491753108599
 30
0.0
 10
68.66798772154829
 20
-145.3392767648805
 30
0.0
 10
68.63405353101858
 20
-145.1528970991284
 30
0.0
 10
68.63405353101858
 20
-145.036452871727
 30
0.0
 10
68.63405353101858
 20
-144.7594671947129
 30
0.0
 10
68.81819388470518
 20
-144.5520724465009
 30
0.0
 10
69.09104544713696
 20
-144.5520724465009
 30
0.0
 10
69.31945527780903
 20
-144.5520724465009
 30
0.0
 10
69.41901853733275
 20
-144.6685166739023
 30
0.0
 10
69.64536131071367
 20
-144.9771972293807
 30
0.0
  0
HATCH
  5
144
330
13F
100
AcDbEntity
  8
_U+30EC_U+30A4_U+30E4_U+30FC 1
 62
   179
420
  2234388
100
AcDbHatch
 10
0.0
 20
0.0
 30
0.0
210
0.0
220
0.0
230
1.0
  2
SOLID
 70
     1
 71
     0
 91
        1
 92
        1
 93
        1
 72
     4
 94
        3
 73
     0
 74
     1
 95
       44
 96
       40
 40
0.0
 40
0.0
 40
0.0
 40
0.0
 40
1.0
 40
1.0
 40
1.0
 40
2.0
 40
2.0
 40
2.0
 40
3.0
 40
3.0
 40
3.0
 40
4.0
 40
4.0
 40
4.0
 40
5.0
 40
5.0
 40
5.0
 40
6.0
 40
6.0
 40
6.0
 40
7.0
 40
7.0
 40
7.0
 40
8.0
 40
8.0
 40
8.0
 40
9.0
 40
9.0
 40
9.0
 40
10.0
 40
10.0
 40
10.0
 40
11.0
 40
11.0
 40
11.0
 40
12.0
 40
12.0
 40
12.0
 40
13.0
 40
13.0
 40
13.0
 40
13.0
 10
69.64536131071367
 20
-144.9771972293807
 10
69.80400795780942
 20
-145.195271773597
 10
69.87807751074229
 20
-145.2886338612473
 10
70.02191024725147
 20
-145.3368651980408
 10
70.02191024725147
 20
-145.3368651980408
 10
70.02191024725147
 20
-144.5586181279228
 10
70.02191024725147
 20
-144.5586181279228
 10
70.02191024725147
 20
-144.5586181279228
 10
70.2270656833981
 20
-144.5586181279228
 10
70.2270656833981
 20
-144.5586181279228
 10
70.2270656833981
 20
-144.5586181279228
 10
70.2270656833981
 20
-145.5866346207214
 10
70.2270656833981
 20
-145.5866346207214
 10
69.86946477202916
 20
-145.5549397422571
 10
69.79126110451399
 20
-145.4894829280373
 10
69.49291583549136
 20
-145.1043212527864
 10
69.29413382599245
 20
-144.8483506582324
 10
69.22643769970728
 20
-144.7828938440126
 10
69.08897838984582
 20
-144.7828938440126
 10
68.97046710515322
 20
-144.7828938440126
 10
68.83938122193946
 20
-144.8545518301058
 10
68.83938122193946
 20
-145.0516112918621
 10
68.83938122193946
 20
-145.3117160009985
 10
69.06985810990268
 20
-145.3203287397116
 10
69.18630233730413
 20
-145.3244628542939
 10
69.18630233730413
 20
-145.3244628542939
 10
69.18630233730413
 20
-145.5483940608351
 10
69.18630233730413
 20
-145.5483940608351
 10
69.05935056867267
 20
-145.5401258316705
 10
68.94721271062778
 20
-145.5297905452148
 10
68.8287014259352
 20
-145.4491753108599
 10
68.66798772154829
 20
-145.3392767648805
 10
68.63405353101858
 20
-145.1528970991284
 10
68.63405353101858
 20
-145.036452871727
 10
68.63405353101858
 20
-144.7594671947129
 10
68.81819388470518
 20
-144.5520724465009
 10
69.09104544713696
 20
-144.5520724465009
 10
69.31945527780903
 20
-144.5520724465009
 10
69.41901853733275
 20
-144.6685166739023
 10
69.64536131071367
 20
-144.9771972293807
 97
        0
 97
        0
 75
     2
 76
     1
 98
        0
  0
SPLINE
  5
145
330
13F
100
AcDbEntity
  8
_U+30EC_U+30A4_U+30E4_U+30FC 1
370
     0
100
AcDbSpline
210
0.0
220
0.0
230
1.0
 70
    11
 71
     3
 72
    29
 73
    25
 74
     0
 42
0.0000000001
 43
0.0000000001
 12
1.0
 22
0.0
 32
0.0
 13
1.0
 23
0.0
 33
0.0
 40
0.0
 40
0.0
 40
0.0
 40
0.0
 40
1.0
 40
1.0
 40
1.0
 40
2.0
 40
2.0
 40
2.0
 40
3.0
 40
3.0
 40
3.0
 40
4.0
 40
4.0
 40
4.0
 40
5.0
 40
5.0
 40
5.0
 40
6.0
 40
6.0
 40
6.0
 40
7.0
 40
7.0
 40
7.0
 40
8.0
 40
8.0
 40
8.0
 40
8.0
 10
70.0492987563592
 20
-143.4958061707233
 30
0.0
 10
70.2587605618624
 20
-143.6039821689601
 30
0.0
 10
70.27788084180553
 20
-143.7772704718682
 30
0.0
 10
70.27788084180553
 20
-143.8937146992696
 30
0.0
 10
70.27788084180553
 20
-144.0546006584308
 30
0.0
 10
70.23137205275466
 20
-144.1961940828746
 30
0.0
 10
70.0492987563592
 20
-144.291623227816
 30
0.0
 10
69.8546508614426
 20
-144.3949760923735
 30
0.0
 10
69.61780054683166
 20
-144.4142686270909
 30
0.0
 10
69.45484753037935
 20
-144.4142686270909
 30
0.0
 10
69.31101479387017
 20
-144.4142686270909
 30
0.0
 10
69.05935056867267
 20
-144.3970431496646
 30
0.0
 10
68.86039630439949
 20
-144.291623227816
 30
0.0
 10
68.657307925544
 20
-144.1834472295791
 30
0.0
 10
68.63405353101858
 20
-144.0229057799665
 30
0.0
 10
68.63405353101858
 20
-143.8937146992696
 30
0.0
 10
68.63405353101858
 20
-143.7348957973996
 30
0.0
 10
68.6784952627783
 20
-143.5912353156647
 30
0.0
 10
68.86039630439949
 20
-143.4958061707233
 30
0.0
 10
69.05297714202496
 20
-143.3965874207481
 30
0.0
 10
69.28138697269702
 20
-143.3731607714484
 30
0.0
 10
69.45484753037935
 20
-143.3731607714484
 30
0.0
 10
69.62624103077053
 20
-143.3731607714484
 30
0.0
 10
69.856890173508
 20
-143.3945203634569
 30
0.0
 10
70.0492987563592
 20
-143.4958061707233
 30
0.0
  0
SPLINE
  5
146
330
13F
100
AcDbEntity
  8
_U+30EC_U+30A4_U+30E4_U+30FC 1
370
     0
100
AcDbSpline
210
0.0
220
0.0
230
1.0
 70
    11
 71
     3
 72
    17
 73
    13
 74
     0
 42
0.0000000001
 43
0.0000000001
 12
1.0
 22
0.0
 32
0.0
 13
1.0
 23
0.0
 33
0.0
 40
0.0
 40
0.0
 40
0.0
 40
0.0
 40
1.0
 40
1.0
 40
1.0
 40
2.0
 40
2.0
 40
2.0
 40
3.0
 40
3.0
 40
3.0
 40
4.0
 40
4.0
 40
4.0
 40
4.0
 10
68.82663436864404
 20
-143.8937146992696
 30
0.0
 10
68.82663436864404
 20
-144.1434841219503
 30
0.0
 10
69.1101657270801
 20
-144.1896484014526
 30
0.0
 10
69.45484753037935
 20
-144.1896484014526
 30
0.0
 10
69.77438013663627
 20
-144.1896484014526
 30
0.0
 10
70.08323294688891
 20
-144.153819408406
 30
0.0
 10
70.08323294688891
 20
-143.8937146992696
 30
0.0
 10
70.08323294688891
 20
-143.6460123338802
 30
0.0
 10
69.801768645744
 20
-143.5974364875381
 30
0.0
 10
69.45484753037935
 20
-143.5974364875381
 30
0.0
 10
69.13548717889668
 20
-143.5974364875381
 30
0.0
 10
68.82663436864404
 20
-143.6356770474244
 30
0.0
 10
68.82663436864404
 20
-143.8937146992696
 30
0.0
  0
HATCH
  5
147
330
13F
100
AcDbEntity
  8
_U+30EC_U+30A4_U+30E4_U+30FC 1
 62
   179
420
  2234388
100
AcDbHatch
 10
0.0
 20
0.0
 30
0.0
210
0.0
220
0.0
230
1.0
  2
SOLID
 70
     1
 71
     0
 91
        2
 92
        1
 93
        1
 72
     4
 94
        3
 73
     0
 74
     1
 95
       29
 96
       25
 40
0.0
 40
0.0
 40
0.0
 40
0.0
 40
1.0
 40
1.0
 40
1.0
 40
2.0
 40
2.0
 40
2.0
 40
3.0
 40
3.0
 40
3.0
 40
4.0
 40
4.0
 40
4.0
 40
5.0
 40
5.0
 40
5.0
 40
6.0
 40
6.0
 40
6.0
 40
7.0
 40
7.0
 40
7.0
 40
8.0
 40
8.0
 40
8.0
 40
8.0
 10
70.0492987563592
 20
-143.4958061707233
 10
70.2587605618624
 20
-143.6039821689601
 10
70.27788084180553
 20
-143.7772704718682
 10
70.27788084180553
 20
-143.8937146992696
 10
70.27788084180553
 20
-144.0546006584308
 10
70.23137205275466
 20
-144.1961940828746
 10
70.0492987563592
 20
-144.291623227816
 10
69.8546508614426
 20
-144.3949760923735
 10
69.61780054683166
 20
-144.4142686270909
 10
69.45484753037935
 20
-144.4142686270909
 10
69.31101479387017
 20
-144.4142686270909
 10
69.05935056867267
 20
-144.3970431496646
 10
68.86039630439949
 20
-144.291623227816
 10
68.657307925544
 20
-144.1834472295791
 10
68.63405353101858
 20
-144.0229057799665
 10
68.63405353101858
 20
-143.8937146992696
 10
68.63405353101858
 20
-143.7348957973996
 10
68.6784952627783
 20
-143.5912353156647
 10
68.86039630439949
 20
-143.4958061707233
 10
69.05297714202496
 20
-143.3965874207481
 10
69.28138697269702
 20
-143.3731607714484
 10
69.45484753037935
 20
-143.3731607714484
 10
69.62624103077053
 20
-143.3731607714484
 10
69.856890173508
 20
-143.3945203634569
 10
70.0492987563592
 20
-143.4958061707233
 97
        0
 97
        0
 92
        1
 93
        1
 72
     4
 94
        3
 73
     0
 74
     1
 95
       17
 96
       13
 40
0.0
 40
0.0
 40
0.0
 40
0.0
 40
1.0
 40
1.0
 40
1.0
 40
2.0
 40
2.0
 40
2.0
 40
3.0
 40
3.0
 40
3.0
 40
4.0
 40
4.0
 40
4.0
 40
4.0
 10
68.82663436864404
 20
-143.8937146992696
 10
68.82663436864404
 20
-144.1434841219503
 10
69.1101657270801
 20
-144.1896484014526
 10
69.45484753037935
 20
-144.1896484014526
 10
69.77438013663627
 20
-144.1896484014526
 10
70.08323294688891
 20
-144.153819408406
 10
70.08323294688891
 20
-143.8937146992696
 10
70.08323294688891
 20
-143.6460123338802
 10
69.801768645744
 20
-143.5974364875381
 10
69.45484753037935
 20
-143.5974364875381
 10
69.13548717889668
 20
-143.5974364875381
 10
68.82663436864404
 20
-143.6356770474244
 10
68.82663436864404
 20
-143.8937146992696
 97
        0
 97
        0
 75
     2
 76
     1
 98
        0
  0
ENDBLK
  5
142
330
13F
100
AcDbEntity
  8
0
100
AcDbBlockEnd
  0
BLOCK
  5
159
330
157
100
AcDbEntity
  8
0
100
AcDbBlockBegin
  2
block 10
 70
     0
 10
0.0
 20
0.0
 30
0.0
  3
block 10
  1

  0
SPLINE
  5
15B
330
157
100
AcDbEntity
  8
_U+30EC_U+30A4_U+30E4_U+30FC 1
370
     0
100
AcDbSpline
210
0.0
220
0.0
230
1.0
 70
    11
 71
     3
 72
    17
 73
    13
 74
     0
 42
0.0000000001
 43
0.0000000001
 12
1.0
 22
0.0
 32
0.0
 13
1.0
 23
0.0
 33
0.0
 40
0.0
 40
0.0
 40
0.0
 40
0.0
 40
1.0
 40
1.0
 40
1.0
 40
2.0
 40
2.0
 40
2.0
 40
3.0
 40
3.0
 40
3.0
 40
4.0
 40
4.0
 40
4.0
 40
4.0
 10
97.21680498871663
 20
-159.5995605069751
 30
0.0
 10
97.11104055731947
 20
-159.493796075578
 30
0.0
 10
97.03042532296462
 20
-159.4555555156917
 30
0.0
 10
96.93740774486288
 20
-159.4238606372274
 30
0.0
 10
96.93740774486288
 20
-159.4238606372274
 30
0.0
 10
97.04765080039087
 20
-159.2591850730324
 30
0.0
 10
97.04765080039087
 20
-159.2591850730324
 30
0.0
 10
97.14480249307492
 20
-159.3012152379525
 30
0.0
 10
97.26538083505866
 20
-159.3797634150162
 30
0.0
 10
97.31843530553151
 20
-159.4345404332317
 30
0.0
 10
97.31843530553151
 20
-159.4345404332317
 30
0.0
 10
97.21680498871663
 20
-159.5995605069751
 30
0.0
 10
97.21680498871663
 20
-159.5995605069751
 30
0.0
  0
SPLINE
  5
15C
330
157
100
AcDbEntity
  8
_U+30EC_U+30A4_U+30E4_U+30FC 1
370
     0
100
AcDbSpline
210
0.0
220
0.0
230
1.0
 70
    11
 71
     3
 72
   182
 73
   178
 74
     0
 42
0.0000000001
 43
0.0000000001
 12
1.0
 22
0.0
 32
0.0
 13
1.0
 23
0.0
 33
0.0
 40
0.0
 40
0.0
 40
0.0
 40
0.0
 40
1.0
 40
1.0
 40
1.0
 40
2.0
 40
2.0
 40
2.0
 40
3.0
 40
3.0
 40
3.0
 40
4.0
 40
4.0
 40
4.0
 40
5.0
 40
5.0
 40
5.0
 40
6.0
 40
6.0
 40
6.0
 40
7.0
 40
7.0
 40
7.0
 40
8.0
 40
8.0
 40
8.0
 40
9.0
 40
9.0
 40
9.0
 40
10.0
 40
10.0
 40
10.0
 40
11.0
 40
11.0
 40
11.0
 40
12.0
 40
12.0
 40
12.0
 40
13.0
 40
13.0
 40
13.0
 40
14.0
 40
14.0
 40
14.0
 40
15.0
 40
15.0
 40
15.0
 40
16.0
 40
16.0
 40
16.0
 40
17.0
 40
17.0
 40
17.0
 40
18.0
 40
18.0
 40
18.0
 40
19.0
 40
19.0
 40
19.0
 40
20.0
 40
20.0
 40
20.0
 40
21.0
 40
21.0
 40
21.0
 40
22.0
 40
22.0
 40
22.0
 40
23.0
 40
23.0
 40
23.0
 40
24.0
 40
24.0
 40
24.0
 40
25.0
 40
25.0
 40
25.0
 40
26.0
 40
26.0
 40
26.0
 40
27.0
 40
27.0
 40
27.0
 40
28.0
 40
28.0
 40
28.0
 40
29.0
 40
29.0
 40
29.0
 40
30.0
 40
30.0
 40
30.0
 40
31.0
 40
31.0
 40
31.0
 40
32.0
 40
32.0
 40
32.0
 40
33.0
 40
33.0
 40
33.0
 40
34.0
 40
34.0
 40
34.0
 40
35.0
 40
35.0
 40
35.0
 40
36.0
 40
36.0
 40
36.0
 40
37.0
 40
37.0
 40
37.0
 40
38.0
 40
38.0
 40
38.0
 40
39.0
 40
39.0
 40
39.0
 40
40.0
 40
40.0
 40
40.0
 40
41.0
 40
41.0
 40
41.0
 40
42.0
 40
42.0
 40
42.0
 40
43.0
 40
43.0
 40
43.0
 40
44.0
 40
44.0
 40
44.0
 40
45.0
 40
45.0
 40
45.0
 40
46.0
 40
46.0
 40
46.0
 40
47.0
 40
47.0
 40
47.0
 40
48.0
 40
48.0
 40
48.0
 40
49.0
 40
49.0
 40
49.0
 40
50.0
 40
50.0
 40
50.0
 40
51.0
 40
51.0
 40
51.0
 40
52.0
 40
52.0
 40
52.0
 40
53.0
 40
53.0
 40
53.0
 40
54.0
 40
54.0
 40
54.0
 40
55.0
 40
55.0
 40
55.0
 40
56.0
 40
56.0
 40
56.0
 40
57.0
 40
57.0
 40
57.0
 40
58.0
 40
58.0
 40
58.0
 40
59.0
 40
59.0
 40
59.0
 40
59.0
 10
98.26170244939291
 20
-160.7777831629306
 30
0.0
 10
98.26170244939291
 20
-160.7777831629306
 30
0.0
 10
97.62504880371874
 20
-160.7777831629306
 30
0.0
 10
97.62504880371874
 20
-160.7777831629306
 30
0.0
 10
97.41145288363325
 20
-160.7777831629306
 30
0.0
 10
97.19544539670808
 20
-160.7822617870614
 30
0.0
 10
96.9818494766226
 20
-160.7950086403568
 30
0.0
 10
96.9818494766226
 20
-160.7950086403568
 30
0.0
 10
96.9818494766226
 20
-160.5876138921448
 30
0.0
 10
96.9818494766226
 20
-160.5876138921448
 30
0.0
 10
97.2040581354212
 20
-160.6000162358917
 30
0.0
 10
97.52755260148618
 20
-160.6044948600225
 30
0.0
 10
97.62504880371874
 20
-160.6044948600225
 30
0.0
 10
97.62504880371874
 20
-160.6044948600225
 30
0.0
 10
97.8451904052262
 20
-160.6044948600225
 30
0.0
 10
97.8451904052262
 20
-160.6044948600225
 30
0.0
 10
97.8451904052262
 20
-160.6044948600225
 30
0.0
 10
97.8451904052262
 20
-160.4629014355787
 30
0.0
 10
97.8451904052262
 20
-160.4629014355787
 30
0.0
 10
97.8451904052262
 20
-160.4629014355787
 30
0.0
 10
97.68430444606504
 20
-160.4629014355787
 30
0.0
 10
97.68430444606504
 20
-160.4629014355787
 30
0.0
 10
97.51928437232158
 20
-160.4629014355787
 30
0.0
 10
97.3542642985781
 20
-160.467035550161
 30
0.0
 10
97.18924422483464
 20
-160.4818494607476
 30
0.0
 10
97.18924422483464
 20
-160.4818494607476
 30
0.0
 10
97.18924422483464
 20
-160.2723876552444
 30
0.0
 10
97.18924422483464
 20
-160.2723876552444
 30
0.0
 10
97.36046547045156
 20
-160.287201565831
 30
0.0
 10
97.60816783584102
 20
-160.2913356804133
 30
0.0
 10
97.68430444606504
 20
-160.2913356804133
 30
0.0
 10
97.68430444606504
 20
-160.2913356804133
 30
0.0
 10
97.8451904052262
 20
-160.2913356804133
 30
0.0
 10
97.8451904052262
 20
-160.2913356804133
 30
0.0
 10
97.84071178109538
 20
-160.2196776943201
 30
0.0
 10
97.84071178109538
 20
-160.2131320128981
 30
0.0
 10
97.83451060922194
 20
-160.1604220519738
 30
0.0
 10
97.83451060922194
 20
-160.1604220519738
 30
0.0
 10
97.97403697637455
 20
-160.1748914530118
 30
0.0
 10
97.97403697637455
 20
-160.1748914530118
 30
0.0
 10
97.97403697637455
 20
-160.1748914530118
 30
0.0
 10
97.87481822639936
 20
-160.0036702073949
 30
0.0
 10
97.87481822639936
 20
-160.0036702073949
 30
0.0
 10
97.92132701545023
 20
-160.0102158888169
 30
0.0
 10
97.9953965683831
 20
-160.0184841179815
 30
0.0
 10
98.01227753626083
 20
-160.0184841179815
 30
0.0
 10
98.062920439894
 20
-160.0184841179815
 30
0.0
 10
98.07980140777173
 20
-159.9971245259729
 30
0.0
 10
98.07980140777173
 20
-159.9402804504663
 30
0.0
 10
98.07980140777173
 20
-159.9402804504663
 30
0.0
 10
98.07980140777173
 20
-159.8028211406049
 30
0.0
 10
98.07980140777173
 20
-159.8028211406049
 30
0.0
 10
98.07980140777173
 20
-159.8028211406049
 30
0.0
 10
97.97403697637455
 20
-159.8028211406049
 30
0.0
 10
97.97403697637455
 20
-159.8028211406049
 30
0.0
 10
97.84071178109538
 20
-159.8028211406049
 30
0.0
 10
97.68430444606504
 20
-159.8028211406049
 30
0.0
 10
97.56165904679014
 20
-159.8152234843517
 30
0.0
 10
97.56165904679014
 20
-159.8152234843517
 30
0.0
 10
97.56165904679014
 20
-159.625054213566
 30
0.0
 10
97.56165904679014
 20
-159.625054213566
 30
0.0
 10
97.72874617782476
 20
-159.6419351814437
 30
0.0
 10
97.95922306578798
 20
-159.6440022387348
 30
0.0
 10
97.97403697637455
 20
-159.6440022387348
 30
0.0
 10
97.97403697637455
 20
-159.6440022387348
 30
0.0
 10
98.07980140777173
 20
-159.6440022387348
 30
0.0
 10
98.07980140777173
 20
-159.6440022387348
 30
0.0
 10
98.07980140777173
 20
-159.6440022387348
 30
0.0
 10
98.07980140777173
 20
-159.5127441007468
 30
0.0
 10
98.07980140777173
 20
-159.5127441007468
 30
0.0
 10
98.07980140777173
 20
-159.5127441007468
 30
0.0
 10
98.04190535743398
 20
-159.5127441007468
 30
0.0
 10
98.04190535743398
 20
-159.5127441007468
 30
0.0
 10
97.99746362567424
 20
-159.5127441007468
 30
0.0
 10
97.87240665955969
 20
-159.5168782153291
 30
0.0
 10
97.78352319604024
 20
-159.5254909540423
 30
0.0
 10
97.78352319604024
 20
-159.5254909540423
 30
0.0
 10
97.78352319604024
 20
-159.4452202292359
 30
0.0
 10
97.78352319604024
 20
-159.4452202292359
 30
0.0
 10
97.73081323511592
 20
-159.4831162795737
 30
0.0
 10
97.70531952852507
 20
-159.4982746997088
 30
0.0
 10
97.66294485405649
 20
-159.5213568394599
 30
0.0
 10
97.66294485405649
 20
-159.5213568394599
 30
0.0
 10
97.47484264056185
 20
-159.3921657587631
 30
0.0
 10
97.47484264056185
 20
-159.3921657587631
 30
0.0
 10
97.55304630807701
 20
-159.3584038230076
 30
0.0
 10
97.70979815265589
 20
-159.295014066079
 30
0.0
 10
97.86620548768623
 20
-159.1510090747956
 30
0.0
 10
97.9485432697837
 20
-159.0728054072804
 30
0.0
 10
98.0270914468474
 20
-158.9884005678918
 30
0.0
 10
98.07980140777173
 20
-158.8867702510769
 30
0.0
 10
98.07980140777173
 20
-158.8867702510769
 30
0.0
 10
98.29133027056606
 20
-158.9480929507144
 30
0.0
 10
98.29133027056606
 20
-158.9480929507144
 30
0.0
 10
98.31062280528346
 20
-158.9542941225878
 30
0.0
 10
98.32095809173921
 20
-158.962906861301
 30
0.0
 10
98.32095809173921
 20
-158.9753092050478
 30
0.0
 10
98.32095809173921
 20
-158.9925346824741
 30
0.0
 10
98.30821123844379
 20
-158.9987358543476
 30
0.0
 10
98.28306204140146
 20
-159.011482707643
 30
0.0
 10
98.36333276620778
 20
-159.1089789098755
 30
0.0
 10
98.5262857826601
 20
-159.2061306025596
 30
0.0
 10
98.56004771841555
 20
-159.2250786277285
 30
0.0
 10
98.71025388157244
 20
-159.3139620912479
 30
0.0
 10
98.82463105168273
 20
-159.3415228551299
 30
0.0
 10
98.90283471919791
 20
-159.3604708802988
 30
0.0
 10
98.90283471919791
 20
-159.3604708802988
 30
0.0
 10
98.78432343450531
 20
-159.5299695781731
 30
0.0
 10
98.78432343450531
 20
-159.5299695781731
 30
0.0
 10
98.69957408556817
 20
-159.5003417569999
 30
0.0
 10
98.648931181935
 20
-159.4810492222825
 30
0.0
 10
98.5304198972424
 20
-159.4155924080628
 30
0.0
 10
98.5304198972424
 20
-159.4155924080628
 30
0.0
 10
98.5304198972424
 20
-159.5254909540423
 30
0.0
 10
98.5304198972424
 20
-159.5254909540423
 30
0.0
 10
98.44808211514493
 20
-159.5168782153291
 30
0.0
 10
98.32095809173921
 20
-159.5127441007468
 30
0.0
 10
98.26824813081488
 20
-159.5127441007468
 30
0.0
 10
98.26824813081488
 20
-159.5127441007468
 30
0.0
 10
98.26824813081488
 20
-159.6440022387348
 30
0.0
 10
98.26824813081488
 20
-159.6440022387348
 30
0.0
 10
98.26824813081488
 20
-159.6440022387348
 30
0.0
 10
98.38882647279863
 20
-159.6440022387348
 30
0.0
 10
98.38882647279863
 20
-159.6440022387348
 30
0.0
 10
98.39089353008978
 20
-159.6440022387348
 30
0.0
 10
98.62343747534415
 20
-159.6419351814437
 30
0.0
 10
98.80120440238304
 20
-159.625054213566
 30
0.0
 10
98.80120440238304
 20
-159.625054213566
 30
0.0
 10
98.80120440238304
 20
-159.8152234843517
 30
0.0
 10
98.80120440238304
 20
-159.8152234843517
 30
0.0
 10
98.67235783123469
 20
-159.8028211406049
 30
0.0
 10
98.51560598665583
 20
-159.8028211406049
 30
0.0
 10
98.38882647279863
 20
-159.8028211406049
 30
0.0
 10
98.38882647279863
 20
-159.8028211406049
 30
0.0
 10
98.26824813081488
 20
-159.8028211406049
 30
0.0
 10
98.26824813081488
 20
-159.8028211406049
 30
0.0
 10
98.26824813081488
 20
-159.8028211406049
 30
0.0
 10
98.26824813081488
 20
-160.0288194044373
 30
0.0
 10
98.26824813081488
 20
-160.0288194044373
 30
0.0
 10
98.26824813081488
 20
-160.1473306891298
 30
0.0
 10
98.24275442422403
 20
-160.183504191725
 30
0.0
 10
98.08186846506287
 20
-160.1983181023115
 30
0.0
 10
98.0863470891937
 20
-160.2172661274804
 30
0.0
 10
98.07980140777173
 20
-160.2279459234847
 30
0.0
 10
98.04190535743398
 20
-160.2513725727844
 30
0.0
 10
98.03983830014282
 20
-160.2699760884047
 30
0.0
 10
98.03983830014282
 20
-160.2765217698267
 30
0.0
 10
98.03742673330315
 20
-160.2913356804133
 30
0.0
 10
98.03742673330315
 20
-160.2913356804133
 30
0.0
 10
98.17488604316462
 20
-160.2913356804133
 30
0.0
 10
98.17488604316462
 20
-160.2913356804133
 30
0.0
 10
98.33990611690808
 20
-160.2913356804133
 30
0.0
 10
98.50733775749123
 20
-160.287201565831
 30
0.0
 10
98.67442488852585
 20
-160.2723876552444
 30
0.0
 10
98.67442488852585
 20
-160.2723876552444
 30
0.0
 10
98.67442488852585
 20
-160.4794378939079
 30
0.0
 10
98.67442488852585
 20
-160.4794378939079
 30
0.0
 10
98.45841740160068
 20
-160.4629014355787
 30
0.0
 10
98.19417857788201
 20
-160.4629014355787
 30
0.0
 10
98.17488604316462
 20
-160.4629014355787
 30
0.0
 10
98.17488604316462
 20
-160.4629014355787
 30
0.0
 10
98.03535967601199
 20
-160.4629014355787
 30
0.0
 10
98.03535967601199
 20
-160.4629014355787
 30
0.0
 10
98.03535967601199
 20
-160.4629014355787
 30
0.0
 10
98.03535967601199
 20
-160.6044948600225
 30
0.0
 10
98.03535967601199
 20
-160.6044948600225
 30
0.0
 10
98.03535967601199
 20
-160.6044948600225
 30
0.0
 10
98.26170244939291
 20
-160.6044948600225
 30
0.0
 10
98.26170244939291
 20
-160.6044948600225
 30
0.0
 10
98.47770993631808
 20
-160.6044948600225
 30
0.0
 10
98.69543997098587
 20
-160.6000162358917
 30
0.0
 10
98.91110294836251
 20
-160.5876138921448
 30
0.0
 10
98.91110294836251
 20
-160.5876138921448
 30
0.0
 10
98.91110294836251
 20
-160.7950086403568
 30
0.0
 10
98.91110294836251
 20
-160.7950086403568
 30
0.0
 10
98.62998315676612
 20
-160.7777831629306
 30
0.0
 10
98.28512909869261
 20
-160.7777831629306
 30
0.0
 10
98.26170244939291
 20
-160.7777831629306
 30
0.0
  0
SPLINE
  5
15D
330
157
100
AcDbEntity
  8
_U+30EC_U+30A4_U+30E4_U+30FC 1
370
     0
100
AcDbSpline
210
0.0
220
0.0
230
1.0
 70
    11
 71
     3
 72
    23
 73
    19
 74
     0
 42
0.0000000001
 43
0.0000000001
 12
1.0
 22
0.0
 32
0.0
 13
1.0
 23
0.0
 33
0.0
 40
0.0
 40
0.0
 40
0.0
 40
0.0
 40
1.0
 40
1.0
 40
1.0
 40
2.0
 40
2.0
 40
2.0
 40
3.0
 40
3.0
 40
3.0
 40
4.0
 40
4.0
 40
4.0
 40
5.0
 40
5.0
 40
5.0
 40
6.0
 40
6.0
 40
6.0
 40
6.0
 10
97.14273543578376
 20
-160.149397746421
 30
0.0
 10
97.14273543578376
 20
-160.1707573384296
 30
0.0
 10
97.14480249307492
 20
-160.2086533887673
 30
0.0
 10
97.11930878648407
 20
-160.2086533887673
 30
0.0
 10
97.10897350002831
 20
-160.2086533887673
 30
0.0
 10
97.10036076131519
 20
-160.2024522168938
 30
0.0
 10
97.08968096531092
 20
-160.1855712490161
 30
0.0
 10
97.08968096531092
 20
-160.1855712490161
 30
0.0
 10
96.9859835912049
 20
-160.0036702073949
 30
0.0
 10
96.9859835912049
 20
-160.0036702073949
 30
0.0
 10
97.20199107813006
 20
-159.874479126698
 30
0.0
 10
97.39870603033783
 20
-159.597493449684
 30
0.0
 10
97.4452148193887
 20
-159.5254909540423
 30
0.0
 10
97.4452148193887
 20
-159.5254909540423
 30
0.0
 10
97.51721731503042
 20
-159.7053249383723
 30
0.0
 10
97.51721731503042
 20
-159.7053249383723
 30
0.0
 10
97.38389211975125
 20
-159.9020398905801
 30
0.0
 10
97.2081922500035
 20
-160.0860079894924
 30
0.0
 10
97.14273543578376
 20
-160.149397746421
 30
0.0
  0
SPLINE
  5
15E
330
157
100
AcDbEntity
  8
_U+30EC_U+30A4_U+30E4_U+30FC 1
370
     0
100
AcDbSpline
210
0.0
220
0.0
230
1.0
 70
    11
 71
     3
 72
    17
 73
    13
 74
     0
 42
0.0000000001
 43
0.0000000001
 12
1.0
 22
0.0
 32
0.0
 13
1.0
 23
0.0
 33
0.0
 40
0.0
 40
0.0
 40
0.0
 40
0.0
 40
1.0
 40
1.0
 40
1.0
 40
2.0
 40
2.0
 40
2.0
 40
3.0
 40
3.0
 40
3.0
 40
4.0
 40
4.0
 40
4.0
 40
4.0
 10
97.39663897304668
 20
-159.2547064489016
 30
0.0
 10
97.33531627340923
 20
-159.1785698386776
 30
0.0
 10
97.20612519271236
 20
-159.1024332284536
 30
0.0
 10
97.10242781860634
 20
-159.0728054072804
 30
0.0
 10
97.10242781860634
 20
-159.0728054072804
 30
0.0
 10
97.19785696354776
 20
-158.907785333537
 30
0.0
 10
97.19785696354776
 20
-158.907785333537
 30
0.0
 10
97.29914277081411
 20
-158.9436143265835
 30
0.0
 10
97.40490720221128
 20
-159.0008029116387
 30
0.0
 10
97.49379066573073
 20
-159.0814181459936
 30
0.0
 10
97.49379066573073
 20
-159.0814181459936
 30
0.0
 10
97.39663897304668
 20
-159.2547064489016
 30
0.0
 10
97.39663897304668
 20
-159.2547064489016
 30
0.0
  0
SPLINE
  5
15F
330
157
100
AcDbEntity
  8
_U+30EC_U+30A4_U+30E4_U+30FC 1
370
     0
100
AcDbSpline
210
0.0
220
0.0
230
1.0
 70
    11
 71
     3
 72
    23
 73
    19
 74
     0
 42
0.0000000001
 43
0.0000000001
 12
1.0
 22
0.0
 32
0.0
 13
1.0
 23
0.0
 33
0.0
 40
0.0
 40
0.0
 40
0.0
 40
0.0
 40
1.0
 40
1.0
 40
1.0
 40
2.0
 40
2.0
 40
2.0
 40
3.0
 40
3.0
 40
3.0
 40
4.0
 40
4.0
 40
4.0
 40
5.0
 40
5.0
 40
5.0
 40
6.0
 40
6.0
 40
6.0
 40
6.0
 10
97.8493245198085
 20
-159.9592284756352
 30
0.0
 10
97.82796492779995
 20
-159.9826551249349
 30
0.0
 10
97.73081323511592
 20
-160.0946207282055
 30
0.0
 10
97.59128686796329
 20
-160.1748914530118
 30
0.0
 10
97.59128686796329
 20
-160.1748914530118
 30
0.0
 10
97.42419973692867
 20
-160.0543131110281
 30
0.0
 10
97.42419973692867
 20
-160.0543131110281
 30
0.0
 10
97.57440590008557
 20
-159.9785210103526
 30
0.0
 10
97.67362465006076
 20
-159.8830918654112
 30
0.0
 10
97.72220049640279
 20
-159.8303819044869
 30
0.0
 10
97.72220049640279
 20
-159.8303819044869
 30
0.0
 10
97.89583330885938
 20
-159.9127196865843
 30
0.0
 10
97.89583330885938
 20
-159.9127196865843
 30
0.0
 10
97.90410153802398
 20
-159.9168538011666
 30
0.0
 10
97.9127142767371
 20
-159.9233994825886
 30
0.0
 10
97.9127142767371
 20
-159.9337347690443
 30
0.0
 10
97.9127142767371
 20
-159.9592284756352
 30
0.0
 10
97.8768852836905
 20
-159.9592284756352
 30
0.0
 10
97.8493245198085
 20
-159.9592284756352
 30
0.0
  0
SPLINE
  5
160
330
157
100
AcDbEntity
  8
_U+30EC_U+30A4_U+30E4_U+30FC 1
370
     0
100
AcDbSpline
210
0.0
220
0.0
230
1.0
 70
    11
 71
     3
 72
    20
 73
    16
 74
     0
 42
0.0000000001
 43
0.0000000001
 12
1.0
 22
0.0
 32
0.0
 13
1.0
 23
0.0
 33
0.0
 40
0.0
 40
0.0
 40
0.0
 40
0.0
 40
1.0
 40
1.0
 40
1.0
 40
2.0
 40
2.0
 40
2.0
 40
3.0
 40
3.0
 40
3.0
 40
4.0
 40
4.0
 40
4.0
 40
5.0
 40
5.0
 40
5.0
 40
5.0
 10
98.14766978883114
 20
-159.1172471390401
 30
0.0
 10
98.10942922894488
 20
-159.1661674949307
 30
0.0
 10
98.04810652930742
 20
-159.2440266528973
 30
0.0
 10
97.9085801621548
 20
-159.3542697084253
 30
0.0
 10
97.98885088696113
 20
-159.3584038230076
 30
0.0
 10
98.01847870813427
 20
-159.3584038230076
 30
0.0
 10
98.04190535743398
 20
-159.3584038230076
 30
0.0
 10
98.04190535743398
 20
-159.3584038230076
 30
0.0
 10
98.27031518810604
 20
-159.3584038230076
 30
0.0
 10
98.27031518810604
 20
-159.3584038230076
 30
0.0
 10
98.30201006657033
 20
-159.3584038230076
 30
0.0
 10
98.35058591291236
 20
-159.3563367657165
 30
0.0
 10
98.42465546584523
 20
-159.3542697084253
 30
0.0
 10
98.31268986257462
 20
-159.2802001554925
 30
0.0
 10
98.26376950668406
 20
-159.2336913664416
 30
0.0
 10
98.14766978883114
 20
-159.1172471390401
 30
0.0
  0
SPLINE
  5
161
330
157
100
AcDbEntity
  8
_U+30EC_U+30A4_U+30E4_U+30FC 1
370
     0
100
AcDbSpline
210
0.0
220
0.0
230
1.0
 70
    11
 71
     3
 72
    17
 73
    13
 74
     0
 42
0.0000000001
 43
0.0000000001
 12
1.0
 22
0.0
 32
0.0
 13
1.0
 23
0.0
 33
0.0
 40
0.0
 40
0.0
 40
0.0
 40
0.0
 40
1.0
 40
1.0
 40
1.0
 40
2.0
 40
2.0
 40
2.0
 40
3.0
 40
3.0
 40
3.0
 40
4.0
 40
4.0
 40
4.0
 40
4.0
 10
98.70818682428128
 20
-160.1728243957207
 30
0.0
 10
98.57279457171097
 20
-160.0608587924501
 30
0.0
 10
98.4670301403138
 20
-159.9971245259729
 30
0.0
 10
98.34851885562121
 20
-159.9337347690443
 30
0.0
 10
98.34851885562121
 20
-159.9337347690443
 30
0.0
 10
98.47529836947841
 20
-159.8217691657737
 30
0.0
 10
98.47529836947841
 20
-159.8217691657737
 30
0.0
 10
98.60655650746642
 20
-159.8682779548246
 30
0.0
 10
98.71645505344588
 20
-159.9254665398797
 30
0.0
 10
98.84151201956045
 20
-160.0267523471461
 30
0.0
 10
98.84151201956045
 20
-160.0267523471461
 30
0.0
 10
98.70818682428128
 20
-160.1728243957207
 30
0.0
 10
98.70818682428128
 20
-160.1728243957207
 30
0.0
  0
HATCH
  5
162
330
157
100
AcDbEntity
  8
_U+30EC_U+30A4_U+30E4_U+30FC 1
 62
   179
420
  2234388
100
AcDbHatch
 10
0.0
 20
0.0
 30
0.0
210
0.0
220
0.0
230
1.0
  2
SOLID
 70
     1
 71
     0
 91
        7
 92
        1
 93
        1
 72
     4
 94
        3
 73
     0
 74
     1
 95
       17
 96
       13
 40
0.0
 40
0.0
 40
0.0
 40
0.0
 40
1.0
 40
1.0
 40
1.0
 40
2.0
 40
2.0
 40
2.0
 40
3.0
 40
3.0
 40
3.0
 40
4.0
 40
4.0
 40
4.0
 40
4.0
 10
97.21680498871663
 20
-159.5995605069751
 10
97.11104055731947
 20
-159.493796075578
 10
97.03042532296462
 20
-159.4555555156917
 10
96.93740774486288
 20
-159.4238606372274
 10
96.93740774486288
 20
-159.4238606372274
 10
97.04765080039087
 20
-159.2591850730324
 10
97.04765080039087
 20
-159.2591850730324
 10
97.14480249307492
 20
-159.3012152379525
 10
97.26538083505866
 20
-159.3797634150162
 10
97.31843530553151
 20
-159.4345404332317
 10
97.31843530553151
 20
-159.4345404332317
 10
97.21680498871663
 20
-159.5995605069751
 10
97.21680498871663
 20
-159.5995605069751
 97
        0
 97
        0
 92
        1
 93
        1
 72
     4
 94
        3
 73
     0
 74
     1
 95
      182
 96
      178
 40
0.0
 40
0.0
 40
0.0
 40
0.0
 40
1.0
 40
1.0
 40
1.0
 40
2.0
 40
2.0
 40
2.0
 40
3.0
 40
3.0
 40
3.0
 40
4.0
 40
4.0
 40
4.0
 40
5.0
 40
5.0
 40
5.0
 40
6.0
 40
6.0
 40
6.0
 40
7.0
 40
7.0
 40
7.0
 40
8.0
 40
8.0
 40
8.0
 40
9.0
 40
9.0
 40
9.0
 40
10.0
 40
10.0
 40
10.0
 40
11.0
 40
11.0
 40
11.0
 40
12.0
 40
12.0
 40
12.0
 40
13.0
 40
13.0
 40
13.0
 40
14.0
 40
14.0
 40
14.0
 40
15.0
 40
15.0
 40
15.0
 40
16.0
 40
16.0
 40
16.0
 40
17.0
 40
17.0
 40
17.0
 40
18.0
 40
18.0
 40
18.0
 40
19.0
 40
19.0
 40
19.0
 40
20.0
 40
20.0
 40
20.0
 40
21.0
 40
21.0
 40
21.0
 40
22.0
 40
22.0
 40
22.0
 40
23.0
 40
23.0
 40
23.0
 40
24.0
 40
24.0
 40
24.0
 40
25.0
 40
25.0
 40
25.0
 40
26.0
 40
26.0
 40
26.0
 40
27.0
 40
27.0
 40
27.0
 40
28.0
 40
28.0
 40
28.0
 40
29.0
 40
29.0
 40
29.0
 40
30.0
 40
30.0
 40
30.0
 40
31.0
 40
31.0
 40
31.0
 40
32.0
 40
32.0
 40
32.0
 40
33.0
 40
33.0
 40
33.0
 40
34.0
 40
34.0
 40
34.0
 40
35.0
 40
35.0
 40
35.0
 40
36.0
 40
36.0
 40
36.0
 40
37.0
 40
37.0
 40
37.0
 40
38.0
 40
38.0
 40
38.0
 40
39.0
 40
39.0
 40
39.0
 40
40.0
 40
40.0
 40
40.0
 40
41.0
 40
41.0
 40
41.0
 40
42.0
 40
42.0
 40
42.0
 40
43.0
 40
43.0
 40
43.0
 40
44.0
 40
44.0
 40
44.0
 40
45.0
 40
45.0
 40
45.0
 40
46.0
 40
46.0
 40
46.0
 40
47.0
 40
47.0
 40
47.0
 40
48.0
 40
48.0
 40
48.0
 40
49.0
 40
49.0
 40
49.0
 40
50.0
 40
50.0
 40
50.0
 40
51.0
 40
51.0
 40
51.0
 40
52.0
 40
52.0
 40
52.0
 40
53.0
 40
53.0
 40
53.0
 40
54.0
 40
54.0
 40
54.0
 40
55.0
 40
55.0
 40
55.0
 40
56.0
 40
56.0
 40
56.0
 40
57.0
 40
57.0
 40
57.0
 40
58.0
 40
58.0
 40
58.0
 40
59.0
 40
59.0
 40
59.0
 40
59.0
 10
98.26170244939291
 20
-160.7777831629306
 10
98.26170244939291
 20
-160.7777831629306
 10
97.62504880371874
 20
-160.7777831629306
 10
97.62504880371874
 20
-160.7777831629306
 10
97.41145288363325
 20
-160.7777831629306
 10
97.19544539670808
 20
-160.7822617870614
 10
96.9818494766226
 20
-160.7950086403568
 10
96.9818494766226
 20
-160.7950086403568
 10
96.9818494766226
 20
-160.5876138921448
 10
96.9818494766226
 20
-160.5876138921448
 10
97.2040581354212
 20
-160.6000162358917
 10
97.52755260148618
 20
-160.6044948600225
 10
97.62504880371874
 20
-160.6044948600225
 10
97.62504880371874
 20
-160.6044948600225
 10
97.8451904052262
 20
-160.6044948600225
 10
97.8451904052262
 20
-160.6044948600225
 10
97.8451904052262
 20
-160.6044948600225
 10
97.8451904052262
 20
-160.4629014355787
 10
97.8451904052262
 20
-160.4629014355787
 10
97.8451904052262
 20
-160.4629014355787
 10
97.68430444606504
 20
-160.4629014355787
 10
97.68430444606504
 20
-160.4629014355787
 10
97.51928437232158
 20
-160.4629014355787
 10
97.3542642985781
 20
-160.467035550161
 10
97.18924422483464
 20
-160.4818494607476
 10
97.18924422483464
 20
-160.4818494607476
 10
97.18924422483464
 20
-160.2723876552444
 10
97.18924422483464
 20
-160.2723876552444
 10
97.36046547045156
 20
-160.287201565831
 10
97.60816783584102
 20
-160.2913356804133
 10
97.68430444606504
 20
-160.2913356804133
 10
97.68430444606504
 20
-160.2913356804133
 10
97.8451904052262
 20
-160.2913356804133
 10
97.8451904052262
 20
-160.2913356804133
 10
97.84071178109538
 20
-160.2196776943201
 10
97.84071178109538
 20
-160.2131320128981
 10
97.83451060922194
 20
-160.1604220519738
 10
97.83451060922194
 20
-160.1604220519738
 10
97.97403697637455
 20
-160.1748914530118
 10
97.97403697637455
 20
-160.1748914530118
 10
97.97403697637455
 20
-160.1748914530118
 10
97.87481822639936
 20
-160.0036702073949
 10
97.87481822639936
 20
-160.0036702073949
 10
97.92132701545023
 20
-160.0102158888169
 10
97.9953965683831
 20
-160.0184841179815
 10
98.01227753626083
 20
-160.0184841179815
 10
98.062920439894
 20
-160.0184841179815
 10
98.07980140777173
 20
-159.9971245259729
 10
98.07980140777173
 20
-159.9402804504663
 10
98.07980140777173
 20
-159.9402804504663
 10
98.07980140777173
 20
-159.8028211406049
 10
98.07980140777173
 20
-159.8028211406049
 10
98.07980140777173
 20
-159.8028211406049
 10
97.97403697637455
 20
-159.8028211406049
 10
97.97403697637455
 20
-159.8028211406049
 10
97.84071178109538
 20
-159.8028211406049
 10
97.68430444606504
 20
-159.8028211406049
 10
97.56165904679014
 20
-159.8152234843517
 10
97.56165904679014
 20
-159.8152234843517
 10
97.56165904679014
 20
-159.625054213566
 10
97.56165904679014
 20
-159.625054213566
 10
97.72874617782476
 20
-159.6419351814437
 10
97.95922306578798
 20
-159.6440022387348
 10
97.97403697637455
 20
-159.6440022387348
 10
97.97403697637455
 20
-159.6440022387348
 10
98.07980140777173
 20
-159.6440022387348
 10
98.07980140777173
 20
-159.6440022387348
 10
98.07980140777173
 20
-159.6440022387348
 10
98.07980140777173
 20
-159.5127441007468
 10
98.07980140777173
 20
-159.5127441007468
 10
98.07980140777173
 20
-159.5127441007468
 10
98.04190535743398
 20
-159.5127441007468
 10
98.04190535743398
 20
-159.5127441007468
 10
97.99746362567424
 20
-159.5127441007468
 10
97.87240665955969
 20
-159.5168782153291
 10
97.78352319604024
 20
-159.5254909540423
 10
97.78352319604024
 20
-159.5254909540423
 10
97.78352319604024
 20
-159.4452202292359
 10
97.78352319604024
 20
-159.4452202292359
 10
97.73081323511592
 20
-159.4831162795737
 10
97.70531952852507
 20
-159.4982746997088
 10
97.66294485405649
 20
-159.5213568394599
 10
97.66294485405649
 20
-159.5213568394599
 10
97.47484264056185
 20
-159.3921657587631
 10
97.47484264056185
 20
-159.3921657587631
 10
97.55304630807701
 20
-159.3584038230076
 10
97.70979815265589
 20
-159.295014066079
 10
97.86620548768623
 20
-159.1510090747956
 10
97.9485432697837
 20
-159.0728054072804
 10
98.0270914468474
 20
-158.9884005678918
 10
98.07980140777173
 20
-158.8867702510769
 10
98.07980140777173
 20
-158.8867702510769
 10
98.29133027056606
 20
-158.9480929507144
 10
98.29133027056606
 20
-158.9480929507144
 10
98.31062280528346
 20
-158.9542941225878
 10
98.32095809173921
 20
-158.962906861301
 10
98.32095809173921
 20
-158.9753092050478
 10
98.32095809173921
 20
-158.9925346824741
 10
98.30821123844379
 20
-158.9987358543476
 10
98.28306204140146
 20
-159.011482707643
 10
98.36333276620778
 20
-159.1089789098755
 10
98.5262857826601
 20
-159.2061306025596
 10
98.56004771841555
 20
-159.2250786277285
 10
98.71025388157244
 20
-159.3139620912479
 10
98.82463105168273
 20
-159.3415228551299
 10
98.90283471919791
 20
-159.3604708802988
 10
98.90283471919791
 20
-159.3604708802988
 10
98.78432343450531
 20
-159.5299695781731
 10
98.78432343450531
 20
-159.5299695781731
 10
98.69957408556817
 20
-159.5003417569999
 10
98.648931181935
 20
-159.4810492222825
 10
98.5304198972424
 20
-159.4155924080628
 10
98.5304198972424
 20
-159.4155924080628
 10
98.5304198972424
 20
-159.5254909540423
 10
98.5304198972424
 20
-159.5254909540423
 10
98.44808211514493
 20
-159.5168782153291
 10
98.32095809173921
 20
-159.5127441007468
 10
98.26824813081488
 20
-159.5127441007468
 10
98.26824813081488
 20
-159.5127441007468
 10
98.26824813081488
 20
-159.6440022387348
 10
98.26824813081488
 20
-159.6440022387348
 10
98.26824813081488
 20
-159.6440022387348
 10
98.38882647279863
 20
-159.6440022387348
 10
98.38882647279863
 20
-159.6440022387348
 10
98.39089353008978
 20
-159.6440022387348
 10
98.62343747534415
 20
-159.6419351814437
 10
98.80120440238304
 20
-159.625054213566
 10
98.80120440238304
 20
-159.625054213566
 10
98.80120440238304
 20
-159.8152234843517
 10
98.80120440238304
 20
-159.8152234843517
 10
98.67235783123469
 20
-159.8028211406049
 10
98.51560598665583
 20
-159.8028211406049
 10
98.38882647279863
 20
-159.8028211406049
 10
98.38882647279863
 20
-159.8028211406049
 10
98.26824813081488
 20
-159.8028211406049
 10
98.26824813081488
 20
-159.8028211406049
 10
98.26824813081488
 20
-159.8028211406049
 10
98.26824813081488
 20
-160.0288194044373
 10
98.26824813081488
 20
-160.0288194044373
 10
98.26824813081488
 20
-160.1473306891298
 10
98.24275442422403
 20
-160.183504191725
 10
98.08186846506287
 20
-160.1983181023115
 10
98.0863470891937
 20
-160.2172661274804
 10
98.07980140777173
 20
-160.2279459234847
 10
98.04190535743398
 20
-160.2513725727844
 10
98.03983830014282
 20
-160.2699760884047
 10
98.03983830014282
 20
-160.2765217698267
 10
98.03742673330315
 20
-160.2913356804133
 10
98.03742673330315
 20
-160.2913356804133
 10
98.17488604316462
 20
-160.2913356804133
 10
98.17488604316462
 20
-160.2913356804133
 10
98.33990611690808
 20
-160.2913356804133
 10
98.50733775749123
 20
-160.287201565831
 10
98.67442488852585
 20
-160.2723876552444
 10
98.67442488852585
 20
-160.2723876552444
 10
98.67442488852585
 20
-160.4794378939079
 10
98.67442488852585
 20
-160.4794378939079
 10
98.45841740160068
 20
-160.4629014355787
 10
98.19417857788201
 20
-160.4629014355787
 10
98.17488604316462
 20
-160.4629014355787
 10
98.17488604316462
 20
-160.4629014355787
 10
98.03535967601199
 20
-160.4629014355787
 10
98.03535967601199
 20
-160.4629014355787
 10
98.03535967601199
 20
-160.4629014355787
 10
98.03535967601199
 20
-160.6044948600225
 10
98.03535967601199
 20
-160.6044948600225
 10
98.03535967601199
 20
-160.6044948600225
 10
98.26170244939291
 20
-160.6044948600225
 10
98.26170244939291
 20
-160.6044948600225
 10
98.47770993631808
 20
-160.6044948600225
 10
98.69543997098587
 20
-160.6000162358917
 10
98.91110294836251
 20
-160.5876138921448
 10
98.91110294836251
 20
-160.5876138921448
 10
98.91110294836251
 20
-160.7950086403568
 10
98.91110294836251
 20
-160.7950086403568
 10
98.62998315676612
 20
-160.7777831629306
 10
98.28512909869261
 20
-160.7777831629306
 10
98.26170244939291
 20
-160.7777831629306
 97
        0
 97
        0
 92
        1
 93
        1
 72
     4
 94
        3
 73
     0
 74
     1
 95
       23
 96
       19
 40
0.0
 40
0.0
 40
0.0
 40
0.0
 40
1.0
 40
1.0
 40
1.0
 40
2.0
 40
2.0
 40
2.0
 40
3.0
 40
3.0
 40
3.0
 40
4.0
 40
4.0
 40
4.0
 40
5.0
 40
5.0
 40
5.0
 40
6.0
 40
6.0
 40
6.0
 40
6.0
 10
97.14273543578376
 20
-160.149397746421
 10
97.14273543578376
 20
-160.1707573384296
 10
97.14480249307492
 20
-160.2086533887673
 10
97.11930878648407
 20
-160.2086533887673
 10
97.10897350002831
 20
-160.2086533887673
 10
97.10036076131519
 20
-160.2024522168938
 10
97.08968096531092
 20
-160.1855712490161
 10
97.08968096531092
 20
-160.1855712490161
 10
96.9859835912049
 20
-160.0036702073949
 10
96.9859835912049
 20
-160.0036702073949
 10
97.20199107813006
 20
-159.874479126698
 10
97.39870603033783
 20
-159.597493449684
 10
97.4452148193887
 20
-159.5254909540423
 10
97.4452148193887
 20
-159.5254909540423
 10
97.51721731503042
 20
-159.7053249383723
 10
97.51721731503042
 20
-159.7053249383723
 10
97.38389211975125
 20
-159.9020398905801
 10
97.2081922500035
 20
-160.0860079894924
 10
97.14273543578376
 20
-160.149397746421
 97
        0
 97
        0
 92
        1
 93
        1
 72
     4
 94
        3
 73
     0
 74
     1
 95
       17
 96
       13
 40
0.0
 40
0.0
 40
0.0
 40
0.0
 40
1.0
 40
1.0
 40
1.0
 40
2.0
 40
2.0
 40
2.0
 40
3.0
 40
3.0
 40
3.0
 40
4.0
 40
4.0
 40
4.0
 40
4.0
 10
97.39663897304668
 20
-159.2547064489016
 10
97.33531627340923
 20
-159.1785698386776
 10
97.20612519271236
 20
-159.1024332284536
 10
97.10242781860634
 20
-159.0728054072804
 10
97.10242781860634
 20
-159.0728054072804
 10
97.19785696354776
 20
-158.907785333537
 10
97.19785696354776
 20
-158.907785333537
 10
97.29914277081411
 20
-158.9436143265835
 10
97.40490720221128
 20
-159.0008029116387
 10
97.49379066573073
 20
-159.0814181459936
 10
97.49379066573073
 20
-159.0814181459936
 10
97.39663897304668
 20
-159.2547064489016
 10
97.39663897304668
 20
-159.2547064489016
 97
        0
 97
        0
 92
        1
 93
        1
 72
     4
 94
        3
 73
     0
 74
     1
 95
       23
 96
       19
 40
0.0
 40
0.0
 40
0.0
 40
0.0
 40
1.0
 40
1.0
 40
1.0
 40
2.0
 40
2.0
 40
2.0
 40
3.0
 40
3.0
 40
3.0
 40
4.0
 40
4.0
 40
4.0
 40
5.0
 40
5.0
 40
5.0
 40
6.0
 40
6.0
 40
6.0
 40
6.0
 10
97.8493245198085
 20
-159.9592284756352
 10
97.82796492779995
 20
-159.9826551249349
 10
97.73081323511592
 20
-160.0946207282055
 10
97.59128686796329
 20
-160.1748914530118
 10
97.59128686796329
 20
-160.1748914530118
 10
97.42419973692867
 20
-160.0543131110281
 10
97.42419973692867
 20
-160.0543131110281
 10
97.57440590008557
 20
-159.9785210103526
 10
97.67362465006076
 20
-159.8830918654112
 10
97.72220049640279
 20
-159.8303819044869
 10
97.72220049640279
 20
-159.8303819044869
 10
97.89583330885938
 20
-159.9127196865843
 10
97.89583330885938
 20
-159.9127196865843
 10
97.90410153802398
 20
-159.9168538011666
 10
97.9127142767371
 20
-159.9233994825886
 10
97.9127142767371
 20
-159.9337347690443
 10
97.9127142767371
 20
-159.9592284756352
 10
97.8768852836905
 20
-159.9592284756352
 10
97.8493245198085
 20
-159.9592284756352
 97
        0
 97
        0
 92
        1
 93
        1
 72
     4
 94
        3
 73
     0
 74
     1
 95
       20
 96
       16
 40
0.0
 40
0.0
 40
0.0
 40
0.0
 40
1.0
 40
1.0
 40
1.0
 40
2.0
 40
2.0
 40
2.0
 40
3.0
 40
3.0
 40
3.0
 40
4.0
 40
4.0
 40
4.0
 40
5.0
 40
5.0
 40
5.0
 40
5.0
 10
98.14766978883114
 20
-159.1172471390401
 10
98.10942922894488
 20
-159.1661674949307
 10
98.04810652930742
 20
-159.2440266528973
 10
97.9085801621548
 20
-159.3542697084253
 10
97.98885088696113
 20
-159.3584038230076
 10
98.01847870813427
 20
-159.3584038230076
 10
98.04190535743398
 20
-159.3584038230076
 10
98.04190535743398
 20
-159.3584038230076
 10
98.27031518810604
 20
-159.3584038230076
 10
98.27031518810604
 20
-159.3584038230076
 10
98.30201006657033
 20
-159.3584038230076
 10
98.35058591291236
 20
-159.3563367657165
 10
98.42465546584523
 20
-159.3542697084253
 10
98.31268986257462
 20
-159.2802001554925
 10
98.26376950668406
 20
-159.2336913664416
 10
98.14766978883114
 20
-159.1172471390401
 97
        0
 97
        0
 92
        1
 93
        1
 72
     4
 94
        3
 73
     0
 74
     1
 95
       17
 96
       13
 40
0.0
 40
0.0
 40
0.0
 40
0.0
 40
1.0
 40
1.0
 40
1.0
 40
2.0
 40
2.0
 40
2.0
 40
3.0
 40
3.0
 40
3.0
 40
4.0
 40
4.0
 40
4.0
 40
4.0
 10
98.70818682428128
 20
-160.1728243957207
 10
98.57279457171097
 20
-160.0608587924501
 10
98.4670301403138
 20
-159.9971245259729
 10
98.34851885562121
 20
-159.9337347690443
 10
98.34851885562121
 20
-159.9337347690443
 10
98.47529836947841
 20
-159.8217691657737
 10
98.47529836947841
 20
-159.8217691657737
 10
98.60655650746642
 20
-159.8682779548246
 10
98.71645505344588
 20
-159.9254665398797
 10
98.84151201956045
 20
-160.0267523471461
 10
98.84151201956045
 20
-160.0267523471461
 10
98.70818682428128
 20
-160.1728243957207
 10
98.70818682428128
 20
-160.1728243957207
 97
        0
 97
        0
 75
     2
 76
     1
 98
        0
  0
SPLINE
  5
163
330
157
100
AcDbEntity
  8
_U+30EC_U+30A4_U+30E4_U+30FC 1
370
     0
100
AcDbSpline
210
0.0
220
0.0
230
1.0
 70
    11
 71
     3
 72
   113
 73
   109
 74
     0
 42
0.0000000001
 43
0.0000000001
 12
1.0
 22
0.0
 32
0.0
 13
1.0
 23
0.0
 33
0.0
 40
0.0
 40
0.0
 40
0.0
 40
0.0
 40
1.0
 40
1.0
 40
1.0
 40
2.0
 40
2.0
 40
2.0
 40
3.0
 40
3.0
 40
3.0
 40
4.0
 40
4.0
 40
4.0
 40
5.0
 40
5.0
 40
5.0
 40
6.0
 40
6.0
 40
6.0
 40
7.0
 40
7.0
 40
7.0
 40
8.0
 40
8.0
 40
8.0
 40
9.0
 40
9.0
 40
9.0
 40
10.0
 40
10.0
 40
10.0
 40
11.0
 40
11.0
 40
11.0
 40
12.0
 40
12.0
 40
12.0
 40
13.0
 40
13.0
 40
13.0
 40
14.0
 40
14.0
 40
14.0
 40
15.0
 40
15.0
 40
15.0
 40
16.0
 40
16.0
 40
16.0
 40
17.0
 40
17.0
 40
17.0
 40
18.0
 40
18.0
 40
18.0
 40
19.0
 40
19.0
 40
19.0
 40
20.0
 40
20.0
 40
20.0
 40
21.0
 40
21.0
 40
21.0
 40
22.0
 40
22.0
 40
22.0
 40
23.0
 40
23.0
 40
23.0
 40
24.0
 40
24.0
 40
24.0
 40
25.0
 40
25.0
 40
25.0
 40
26.0
 40
26.0
 40
26.0
 40
27.0
 40
27.0
 40
27.0
 40
28.0
 40
28.0
 40
28.0
 40
29.0
 40
29.0
 40
29.0
 40
30.0
 40
30.0
 40
30.0
 40
31.0
 40
31.0
 40
31.0
 40
32.0
 40
32.0
 40
32.0
 40
33.0
 40
33.0
 40
33.0
 40
34.0
 40
34.0
 40
34.0
 40
35.0
 40
35.0
 40
35.0
 40
36.0
 40
36.0
 40
36.0
 40
36.0
 10
100.5878309210336
 20
-160.149397746421
 30
0.0
 10
100.5878309210336
 20
-160.149397746421
 30
0.0
 10
100.6873941805573
 20
-160.2493055154932
 30
0.0
 10
100.6873941805573
 20
-160.2493055154932
 30
0.0
 10
100.6980739765616
 20
-160.259640801949
 30
0.0
 10
100.7084092630173
 20
-160.2723876552444
 30
0.0
 10
100.7084092630173
 20
-160.287201565831
 30
0.0
 10
100.7084092630173
 20
-160.2892686231221
 30
0.0
 10
100.7084092630173
 20
-160.3188964442953
 30
0.0
 10
100.6705132126796
 20
-160.3188964442953
 30
0.0
 10
100.6619004739665
 20
-160.3188964442953
 30
0.0
 10
100.6215928567891
 20
-160.314762329713
 30
0.0
 10
100.6153916849156
 20
-160.314762329713
 30
0.0
 10
100.5750840677382
 20
-160.3464572081773
 30
0.0
 10
100.5285752786873
 20
-160.3802191439327
 30
0.0
 10
100.4293565287121
 20
-160.4374077289879
 30
0.0
 10
100.5750840677382
 20
-160.5452392176762
 30
0.0
 10
100.7339029696082
 20
-160.6024278027313
 30
0.0
 10
101.00675453204
 20
-160.6406683626176
 30
0.0
 10
101.00675453204
 20
-160.6406683626176
 30
0.0
 10
100.8565483688831
 20
-160.8160237228168
 30
0.0
 10
100.8565483688831
 20
-160.8160237228168
 30
0.0
 10
100.5943766024556
 20
-160.7440212271751
 30
0.0
 10
100.4376247578767
 20
-160.6551377636557
 30
0.0
 10
100.3614881476527
 20
-160.6024278027313
 30
0.0
 10
100.2112819844958
 20
-160.5007974859165
 30
0.0
 10
100.0676215027609
 20
-160.3378444694642
 30
0.0
 10
99.99148489253686
 20
-160.1728243957207
 30
0.0
 10
99.92361651147743
 20
-160.2382812099404
 30
0.0
 10
99.84954695854456
 20
-160.2913356804133
 30
0.0
 10
99.7713432910294
 20
-160.3402560363038
 30
0.0
 10
99.7713432910294
 20
-160.3402560363038
 30
0.0
 10
99.7713432910294
 20
-160.5917480067271
 30
0.0
 10
99.7713432910294
 20
-160.5917480067271
 30
0.0
 10
99.9342963074817
 20
-160.5662543001362
 30
0.0
 10
100.1203314636852
 20
-160.522157077925
 30
0.0
 10
100.1837212206138
 20
-160.5069986577899
 30
0.0
 10
100.1837212206138
 20
-160.5069986577899
 30
0.0
 10
100.1540933994407
 20
-160.6764973556642
 30
0.0
 10
100.1540933994407
 20
-160.6764973556642
 30
0.0
 10
100.1520263421495
 20
-160.6764973556642
 30
0.0
 10
100.1330783169806
 20
-160.6826985275377
 30
0.0
 10
100.1310112596895
 20
-160.6826985275377
 30
0.0
 10
99.93222925019056
 20
-160.7205945778754
 30
0.0
 10
99.61493595599904
 20
-160.7863959016437
 30
0.0
 10
99.41787649424276
 20
-160.8225694042388
 30
0.0
 10
99.407541207787
 20
-160.839105862568
 30
0.0
 10
99.38411455848731
 20
-160.8708007410323
 30
0.0
 10
99.36103241873613
 20
-160.8708007410323
 30
0.0
 10
99.33347165485414
 20
-160.8708007410323
 30
0.0
 10
99.32933754027184
 20
-160.852197225412
 30
0.0
 10
99.32692597343217
 20
-160.8329046906946
 30
0.0
 10
99.32692597343217
 20
-160.8329046906946
 30
0.0
 10
99.30177677638984
 20
-160.659271878238
 30
0.0
 10
99.30177677638984
 20
-160.659271878238
 30
0.0
 10
99.37584632932271
 20
-160.6510036490734
 30
0.0
 10
99.48367781801103
 20
-160.6382567957779
 30
0.0
 10
99.59150930669935
 20
-160.6172417133179
 30
0.0
 10
99.59150930669935
 20
-160.6172417133179
 30
0.0
 10
99.59150930669935
 20
-160.439474786279
 30
0.0
 10
99.59150930669935
 20
-160.439474786279
 30
0.0
 10
99.44750431541591
 20
-160.5114772819207
 30
0.0
 10
99.352419680023
 20
-160.5407605935454
 30
0.0
 10
99.18739960627954
 20
-160.5703884147185
 30
0.0
 10
99.18739960627954
 20
-160.5703884147185
 30
0.0
 10
99.0668212642958
 20
-160.4015787359413
 30
0.0
 10
99.0668212642958
 20
-160.4015787359413
 30
0.0
 10
99.38411455848731
 20
-160.3740179720593
 30
0.0
 10
99.57669539611277
 20
-160.2810003939575
 30
0.0
 10
99.75446232315167
 20
-160.1473306891298
 30
0.0
 10
99.60839027457708
 20
-160.1473306891298
 30
0.0
 10
99.30797794826329
 20
-160.1518093132607
 30
0.0
 10
99.11126299605552
 20
-160.1583549946826
 30
0.0
 10
99.11126299605552
 20
-160.1583549946826
 30
0.0
 10
99.11126299605552
 20
-159.9805880676437
 30
0.0
 10
99.11126299605552
 20
-159.9805880676437
 30
0.0
 10
99.26560327379471
 20
-159.9867892395172
 30
0.0
 10
99.5618814855262
 20
-159.9929904113907
 30
0.0
 10
99.74584958443855
 20
-159.9929904113907
 30
0.0
 10
99.74584958443855
 20
-159.9929904113907
 30
0.0
 10
99.95737844723288
 20
-159.9929904113907
 30
0.0
 10
99.95737844723288
 20
-159.9929904113907
 30
0.0
 10
99.95737844723288
 20
-159.8979057759977
 30
0.0
 10
99.95531138994173
 20
-159.8469183628161
 30
0.0
 10
99.94911021806828
 20
-159.8007540833137
 30
0.0
 10
99.94911021806828
 20
-159.8007540833137
 30
0.0
 10
100.1647731954449
 20
-159.8172905416429
 30
0.0
 10
100.1647731954449
 20
-159.8172905416429
 30
0.0
 10
100.2133490417869
 20
-159.8217691657737
 30
0.0
 10
100.2219617805001
 20
-159.8365830763603
 30
0.0
 10
100.2219617805001
 20
-159.8513969869469
 30
0.0
 10
100.2219617805001
 20
-159.8765461839892
 30
0.0
 10
100.2050808126223
 20
-159.8851589227023
 30
0.0
 10
100.1540933994407
 20
-159.9106526292932
 30
0.0
 10
100.1520263421495
 20
-159.9358018263355
 30
0.0
 10
100.1520263421495
 20
-159.9423475077575
 30
0.0
 10
100.1499592848584
 20
-159.9929904113907
 30
0.0
 10
100.1499592848584
 20
-159.9929904113907
 30
0.0
 10
100.3804361728216
 20
-159.9929904113907
 30
0.0
 10
100.3804361728216
 20
-159.9929904113907
 30
0.0
 10
100.545456246565
 20
-159.9929904113907
 30
0.0
 10
100.8376003437142
 20
-159.9867892395172
 30
0.0
 10
101.0174343280443
 20
-159.9805880676437
 30
0.0
 10
101.0174343280443
 20
-159.9805880676437
 30
0.0
 10
101.0174343280443
 20
-160.1583549946826
 30
0.0
 10
101.0174343280443
 20
-160.1583549946826
 30
0.0
 10
100.8882432473474
 20
-160.1538763705518
 30
0.0
 10
100.8651611075962
 20
-160.1538763705518
 30
0.0
 10
100.5878309210336
 20
-160.149397746421
 30
0.0
  0
SPLINE
  5
164
330
157
100
AcDbEntity
  8
_U+30EC_U+30A4_U+30E4_U+30FC 1
370
     0
100
AcDbSpline
210
0.0
220
0.0
230
1.0
 70
    11
 71
     3
 72
    23
 73
    19
 74
     0
 42
0.0000000001
 43
0.0000000001
 12
1.0
 22
0.0
 32
0.0
 13
1.0
 23
0.0
 33
0.0
 40
0.0
 40
0.0
 40
0.0
 40
0.0
 40
1.0
 40
1.0
 40
1.0
 40
2.0
 40
2.0
 40
2.0
 40
3.0
 40
3.0
 40
3.0
 40
4.0
 40
4.0
 40
4.0
 40
5.0
 40
5.0
 40
5.0
 40
6.0
 40
6.0
 40
6.0
 40
6.0
 10
99.30384383368099
 20
-159.7986870260225
 30
0.0
 10
99.28696286580326
 20
-159.8386501336515
 30
0.0
 10
99.28041718438129
 20
-159.8555311015292
 30
0.0
 10
99.25940210192127
 20
-159.8555311015292
 30
0.0
 10
99.24458819133469
 20
-159.8555311015292
 30
0.0
 10
99.23390839533042
 20
-159.8386501336515
 30
0.0
 10
99.22770722345696
 20
-159.825903280356
 30
0.0
 10
99.22770722345696
 20
-159.825903280356
 30
0.0
 10
99.12814396393324
 20
-159.6608832066126
 30
0.0
 10
99.12814396393324
 20
-159.6608832066126
 30
0.0
 10
99.22977428074812
 20
-159.6291883281483
 30
0.0
 10
99.37998044390501
 20
-159.5740668003843
 30
0.0
 10
99.57876245340393
 20
-159.4114582934805
 30
0.0
 10
99.57876245340393
 20
-159.4114582934805
 30
0.0
 10
99.63595103845907
 20
-159.5847465963886
 30
0.0
 10
99.63595103845907
 20
-159.5847465963886
 30
0.0
 10
99.54293346035733
 20
-159.667084378486
 30
0.0
 10
99.45404999683788
 20
-159.7242729635412
 30
0.0
 10
99.30384383368099
 20
-159.7986870260225
 30
0.0
  0
SPLINE
  5
165
330
157
100
AcDbEntity
  8
_U+30EC_U+30A4_U+30E4_U+30FC 1
370
     0
100
AcDbSpline
210
0.0
220
0.0
230
1.0
 70
    11
 71
     3
 72
    17
 73
    13
 74
     0
 42
0.0000000001
 43
0.0000000001
 12
1.0
 22
0.0
 32
0.0
 13
1.0
 23
0.0
 33
0.0
 40
0.0
 40
0.0
 40
0.0
 40
0.0
 40
1.0
 40
1.0
 40
1.0
 40
2.0
 40
2.0
 40
2.0
 40
3.0
 40
3.0
 40
3.0
 40
4.0
 40
4.0
 40
4.0
 40
4.0
 10
99.45611705412902
 20
-159.3329101164168
 30
0.0
 10
99.42648923295589
 20
-159.2929470087879
 30
0.0
 10
99.35862085189646
 20
-159.1957953161038
 30
0.0
 10
99.17671981027527
 20
-159.0855522605758
 30
0.0
 10
99.17671981027527
 20
-159.0855522605758
 30
0.0
 10
99.30384383368099
 20
-158.9522270652967
 30
0.0
 10
99.30384383368099
 20
-158.9522270652967
 30
0.0
 10
99.48987898988447
 20
-159.0538573821115
 30
0.0
 10
99.54706757493963
 20
-159.142740845631
 30
0.0
 10
99.57462833882163
 20
-159.184771010551
 30
0.0
 10
99.57462833882163
 20
-159.184771010551
 30
0.0
 10
99.45611705412902
 20
-159.3329101164168
 30
0.0
 10
99.45611705412902
 20
-159.3329101164168
 30
0.0
  0
SPLINE
  5
166
330
157
100
AcDbEntity
  8
_U+30EC_U+30A4_U+30E4_U+30FC 1
370
     0
100
AcDbSpline
210
0.0
220
0.0
230
1.0
 70
    11
 71
     3
 72
    38
 73
    34
 74
     0
 42
0.0000000001
 43
0.0000000001
 12
1.0
 22
0.0
 32
0.0
 13
1.0
 23
0.0
 33
0.0
 40
0.0
 40
0.0
 40
0.0
 40
0.0
 40
1.0
 40
1.0
 40
1.0
 40
2.0
 40
2.0
 40
2.0
 40
3.0
 40
3.0
 40
3.0
 40
4.0
 40
4.0
 40
4.0
 40
5.0
 40
5.0
 40
5.0
 40
6.0
 40
6.0
 40
6.0
 40
7.0
 40
7.0
 40
7.0
 40
8.0
 40
8.0
 40
8.0
 40
9.0
 40
9.0
 40
9.0
 40
10.0
 40
10.0
 40
10.0
 40
11.0
 40
11.0
 40
11.0
 40
11.0
 10
99.82405325195371
 20
-159.0283636755207
 30
0.0
 10
99.82198619466256
 20
-159.0752169741201
 30
0.0
 10
99.81991913737141
 20
-159.191316691973
 30
0.0
 10
99.81991913737141
 20
-159.2357584237327
 30
0.0
 10
99.81991913737141
 20
-159.2357584237327
 30
0.0
 10
99.81991913737141
 20
-159.5826795390974
 30
0.0
 10
99.81991913737141
 20
-159.5826795390974
 30
0.0
 10
99.81991913737141
 20
-159.6694959453257
 30
0.0
 10
99.82198619466256
 20
-159.8110893697695
 30
0.0
 10
99.83266599066684
 20
-159.9316677117532
 30
0.0
 10
99.83266599066684
 20
-159.9316677117532
 30
0.0
 10
99.64215221033253
 20
-159.9316677117532
 30
0.0
 10
99.64215221033253
 20
-159.9316677117532
 30
0.0
 10
99.64663083446335
 20
-159.8682779548246
 30
0.0
 10
99.65076494904565
 20
-159.8152234843517
 30
0.0
 10
99.6528320063368
 20
-159.7604464661363
 30
0.0
 10
99.65489906362795
 20
-159.6374565573129
 30
0.0
 10
99.6569661209191
 20
-159.6229871562748
 30
0.0
 10
99.6569661209191
 20
-159.5782009149666
 30
0.0
 10
99.6569661209191
 20
-159.5782009149666
 30
0.0
 10
99.6569661209191
 20
-159.2571180157413
 30
0.0
 10
99.6569661209191
 20
-159.2571180157413
 30
0.0
 10
99.6569661209191
 20
-159.2019964879773
 30
0.0
 10
99.64421926762367
 20
-158.962906861301
 30
0.0
 10
99.64215221033253
 20
-158.9119194481192
 30
0.0
 10
99.64215221033253
 20
-158.9119194481192
 30
0.0
 10
99.84334578667111
 20
-158.9394802120013
 30
0.0
 10
99.84334578667111
 20
-158.9394802120013
 30
0.0
 10
99.86436086913113
 20
-158.9415472692924
 30
0.0
 10
99.89605574759544
 20
-158.9456813838747
 30
0.0
 10
99.89605574759544
 20
-158.9711750904656
 30
0.0
 10
99.89605574759544
 20
-158.9987358543476
 30
0.0
 10
99.84541284396227
 20
-159.0200954463561
 30
0.0
 10
99.82405325195371
 20
-159.0283636755207
 30
0.0
  0
SPLINE
  5
167
330
157
100
AcDbEntity
  8
_U+30EC_U+30A4_U+30E4_U+30FC 1
370
     0
100
AcDbSpline
210
0.0
220
0.0
230
1.0
 70
    11
 71
     3
 72
    83
 73
    79
 74
     0
 42
0.0000000001
 43
0.0000000001
 12
1.0
 22
0.0
 32
0.0
 13
1.0
 23
0.0
 33
0.0
 40
0.0
 40
0.0
 40
0.0
 40
0.0
 40
1.0
 40
1.0
 40
1.0
 40
2.0
 40
2.0
 40
2.0
 40
3.0
 40
3.0
 40
3.0
 40
4.0
 40
4.0
 40
4.0
 40
5.0
 40
5.0
 40
5.0
 40
6.0
 40
6.0
 40
6.0
 40
7.0
 40
7.0
 40
7.0
 40
8.0
 40
8.0
 40
8.0
 40
9.0
 40
9.0
 40
9.0
 40
10.0
 40
10.0
 40
10.0
 40
11.0
 40
11.0
 40
11.0
 40
12.0
 40
12.0
 40
12.0
 40
13.0
 40
13.0
 40
13.0
 40
14.0
 40
14.0
 40
14.0
 40
15.0
 40
15.0
 40
15.0
 40
16.0
 40
16.0
 40
16.0
 40
17.0
 40
17.0
 40
17.0
 40
18.0
 40
18.0
 40
18.0
 40
19.0
 40
19.0
 40
19.0
 40
20.0
 40
20.0
 40
20.0
 40
21.0
 40
21.0
 40
21.0
 40
22.0
 40
22.0
 40
22.0
 40
23.0
 40
23.0
 40
23.0
 40
24.0
 40
24.0
 40
24.0
 40
25.0
 40
25.0
 40
25.0
 40
26.0
 40
26.0
 40
26.0
 40
26.0
 10
100.6260714809199
 20
-159.350135593843
 30
0.0
 10
100.6260714809199
 20
-159.350135593843
 30
0.0
 10
100.5285752786873
 20
-159.350135593843
 30
0.0
 10
100.5285752786873
 20
-159.350135593843
 30
0.0
 10
100.5285752786873
 20
-159.350135593843
 30
0.0
 10
100.5285752786873
 20
-159.597493449684
 30
0.0
 10
100.5285752786873
 20
-159.597493449684
 30
0.0
 10
100.5285752786873
 20
-159.597493449684
 30
0.0
 10
100.6112575703333
 20
-159.597493449684
 30
0.0
 10
100.6112575703333
 20
-159.597493449684
 30
0.0
 10
100.6767143845531
 20
-159.597493449684
 30
0.0
 10
100.8162407517057
 20
-159.5933593351017
 30
0.0
 10
100.9158040112294
 20
-159.5847465963886
 30
0.0
 10
100.9158040112294
 20
-159.5847465963886
 30
0.0
 10
100.9158040112294
 20
-159.7645805807186
 30
0.0
 10
100.9158040112294
 20
-159.7645805807186
 30
0.0
 10
100.8227864331276
 20
-159.7559678420054
 30
0.0
 10
100.6725802699708
 20
-159.7518337274232
 30
0.0
 10
100.6112575703333
 20
-159.7518337274232
 30
0.0
 10
100.6112575703333
 20
-159.7518337274232
 30
0.0
 10
100.3063666198887
 20
-159.7518337274232
 30
0.0
 10
100.3063666198887
 20
-159.7518337274232
 30
0.0
 10
100.2536566589644
 20
-159.7518337274232
 30
0.0
 10
100.1075846103898
 20
-159.7559678420054
 30
0.0
 10
100.0018201789926
 20
-159.7645805807186
 30
0.0
 10
100.0018201789926
 20
-159.7645805807186
 30
0.0
 10
100.0018201789926
 20
-159.5847465963886
 30
0.0
 10
100.0018201789926
 20
-159.5847465963886
 30
0.0
 10
100.1013834385163
 20
-159.5933593351017
 30
0.0
 10
100.2409098056689
 20
-159.597493449684
 30
0.0
 10
100.3063666198887
 20
-159.597493449684
 30
0.0
 10
100.3063666198887
 20
-159.597493449684
 30
0.0
 10
100.3508083516484
 20
-159.597493449684
 30
0.0
 10
100.3508083516484
 20
-159.597493449684
 30
0.0
 10
100.3508083516484
 20
-159.597493449684
 30
0.0
 10
100.3508083516484
 20
-159.350135593843
 30
0.0
 10
100.3508083516484
 20
-159.350135593843
 30
0.0
 10
100.3508083516484
 20
-159.350135593843
 30
0.0
 10
100.2770833082641
 20
-159.350135593843
 30
0.0
 10
100.2770833082641
 20
-159.350135593843
 30
0.0
 10
100.2154160990781
 20
-159.350135593843
 30
0.0
 10
100.0483289680435
 20
-159.3542697084253
 30
0.0
 10
99.92775062605973
 20
-159.3625379375899
 30
0.0
 10
99.92775062605973
 20
-159.3625379375899
 30
0.0
 10
99.92775062605973
 20
-159.184771010551
 30
0.0
 10
99.92775062605973
 20
-159.184771010551
 30
0.0
 10
100.04212779617
 20
-159.191316691973
 30
0.0
 10
100.2006021884915
 20
-159.1957953161038
 30
0.0
 10
100.2770833082641
 20
-159.1957953161038
 30
0.0
 10
100.2770833082641
 20
-159.1957953161038
 30
0.0
 10
100.3487412943573
 20
-159.1957953161038
 30
0.0
 10
100.3487412943573
 20
-159.1957953161038
 30
0.0
 10
100.344607179775
 20
-159.0431775861073
 30
0.0
 10
100.3425401224838
 20
-159.0094156503518
 30
0.0
 10
100.3359944410618
 20
-158.9160535627016
 30
0.0
 10
100.3359944410618
 20
-158.9160535627016
 30
0.0
 10
100.5478678134047
 20
-158.9394802120013
 30
0.0
 10
100.5478678134047
 20
-158.9394802120013
 30
0.0
 10
100.573017010447
 20
-158.9415472692924
 30
0.0
 10
100.5964436597467
 20
-158.9456813838747
 30
0.0
 10
100.5964436597467
 20
-158.9691080331744
 30
0.0
 10
100.5964436597467
 20
-159.0008029116387
 30
0.0
 10
100.552001927987
 20
-159.0180283890649
 30
0.0
 10
100.5285752786873
 20
-159.0262966182295
 30
0.0
 10
100.5285752786873
 20
-159.0262966182295
 30
0.0
 10
100.5285752786873
 20
-159.1957953161038
 30
0.0
 10
100.5285752786873
 20
-159.1957953161038
 30
0.0
 10
100.5285752786873
 20
-159.1957953161038
 30
0.0
 10
100.6260714809199
 20
-159.1957953161038
 30
0.0
 10
100.6260714809199
 20
-159.1957953161038
 30
0.0
 10
100.7022080911439
 20
-159.1957953161038
 30
0.0
 10
100.8606824834654
 20
-159.191316691973
 30
0.0
 10
100.9771267108668
 20
-159.184771010551
 30
0.0
 10
100.9771267108668
 20
-159.184771010551
 30
0.0
 10
100.9771267108668
 20
-159.3625379375899
 30
0.0
 10
100.9771267108668
 20
-159.3625379375899
 30
0.0
 10
100.8692952221785
 20
-159.3563367657165
 30
0.0
 10
100.6956624097219
 20
-159.350135593843
 30
0.0
 10
100.6260714809199
 20
-159.350135593843
 30
0.0
  0
SPLINE
  5
168
330
157
100
AcDbEntity
  8
_U+30EC_U+30A4_U+30E4_U+30FC 1
370
     0
100
AcDbSpline
210
0.0
220
0.0
230
1.0
 70
    11
 71
     3
 72
    17
 73
    13
 74
     0
 42
0.0000000001
 43
0.0000000001
 12
1.0
 22
0.0
 32
0.0
 13
1.0
 23
0.0
 33
0.0
 40
0.0
 40
0.0
 40
0.0
 40
0.0
 40
1.0
 40
1.0
 40
1.0
 40
2.0
 40
2.0
 40
2.0
 40
3.0
 40
3.0
 40
3.0
 40
4.0
 40
4.0
 40
4.0
 40
4.0
 10
100.3804361728216
 20
-160.1473306891298
 30
0.0
 10
100.3804361728216
 20
-160.1473306891298
 30
0.0
 10
100.1775200487403
 20
-160.1473306891298
 30
0.0
 10
100.1775200487403
 20
-160.1473306891298
 30
0.0
 10
100.2050808126223
 20
-160.2065863314761
 30
0.0
 10
100.2598578308378
 20
-160.2789333366664
 30
0.0
 10
100.2874185947198
 20
-160.308216648291
 30
0.0
 10
100.3149793586018
 20
-160.2934027377044
 30
0.0
 10
100.4293565287121
 20
-160.2300129807758
 30
0.0
 10
100.5203070495227
 20
-160.1473306891298
 30
0.0
 10
100.5203070495227
 20
-160.1473306891298
 30
0.0
 10
100.3804361728216
 20
-160.1473306891298
 30
0.0
 10
100.3804361728216
 20
-160.1473306891298
 30
0.0
  0
HATCH
  5
169
330
157
100
AcDbEntity
  8
_U+30EC_U+30A4_U+30E4_U+30FC 1
 62
   179
420
  2234388
100
AcDbHatch
 10
0.0
 20
0.0
 30
0.0
210
0.0
220
0.0
230
1.0
  2
SOLID
 70
     1
 71
     0
 91
        6
 92
        1
 93
        1
 72
     4
 94
        3
 73
     0
 74
     1
 95
      113
 96
      109
 40
0.0
 40
0.0
 40
0.0
 40
0.0
 40
1.0
 40
1.0
 40
1.0
 40
2.0
 40
2.0
 40
2.0
 40
3.0
 40
3.0
 40
3.0
 40
4.0
 40
4.0
 40
4.0
 40
5.0
 40
5.0
 40
5.0
 40
6.0
 40
6.0
 40
6.0
 40
7.0
 40
7.0
 40
7.0
 40
8.0
 40
8.0
 40
8.0
 40
9.0
 40
9.0
 40
9.0
 40
10.0
 40
10.0
 40
10.0
 40
11.0
 40
11.0
 40
11.0
 40
12.0
 40
12.0
 40
12.0
 40
13.0
 40
13.0
 40
13.0
 40
14.0
 40
14.0
 40
14.0
 40
15.0
 40
15.0
 40
15.0
 40
16.0
 40
16.0
 40
16.0
 40
17.0
 40
17.0
 40
17.0
 40
18.0
 40
18.0
 40
18.0
 40
19.0
 40
19.0
 40
19.0
 40
20.0
 40
20.0
 40
20.0
 40
21.0
 40
21.0
 40
21.0
 40
22.0
 40
22.0
 40
22.0
 40
23.0
 40
23.0
 40
23.0
 40
24.0
 40
24.0
 40
24.0
 40
25.0
 40
25.0
 40
25.0
 40
26.0
 40
26.0
 40
26.0
 40
27.0
 40
27.0
 40
27.0
 40
28.0
 40
28.0
 40
28.0
 40
29.0
 40
29.0
 40
29.0
 40
30.0
 40
30.0
 40
30.0
 40
31.0
 40
31.0
 40
31.0
 40
32.0
 40
32.0
 40
32.0
 40
33.0
 40
33.0
 40
33.0
 40
34.0
 40
34.0
 40
34.0
 40
35.0
 40
35.0
 40
35.0
 40
36.0
 40
36.0
 40
36.0
 40
36.0
 10
100.5878309210336
 20
-160.149397746421
 10
100.5878309210336
 20
-160.149397746421
 10
100.6873941805573
 20
-160.2493055154932
 10
100.6873941805573
 20
-160.2493055154932
 10
100.6980739765616
 20
-160.259640801949
 10
100.7084092630173
 20
-160.2723876552444
 10
100.7084092630173
 20
-160.287201565831
 10
100.7084092630173
 20
-160.2892686231221
 10
100.7084092630173
 20
-160.3188964442953
 10
100.6705132126796
 20
-160.3188964442953
 10
100.6619004739665
 20
-160.3188964442953
 10
100.6215928567891
 20
-160.314762329713
 10
100.6153916849156
 20
-160.314762329713
 10
100.5750840677382
 20
-160.3464572081773
 10
100.5285752786873
 20
-160.3802191439327
 10
100.4293565287121
 20
-160.4374077289879
 10
100.5750840677382
 20
-160.5452392176762
 10
100.7339029696082
 20
-160.6024278027313
 10
101.00675453204
 20
-160.6406683626176
 10
101.00675453204
 20
-160.6406683626176
 10
100.8565483688831
 20
-160.8160237228168
 10
100.8565483688831
 20
-160.8160237228168
 10
100.5943766024556
 20
-160.7440212271751
 10
100.4376247578767
 20
-160.6551377636557
 10
100.3614881476527
 20
-160.6024278027313
 10
100.2112819844958
 20
-160.5007974859165
 10
100.0676215027609
 20
-160.3378444694642
 10
99.99148489253686
 20
-160.1728243957207
 10
99.92361651147743
 20
-160.2382812099404
 10
99.84954695854456
 20
-160.2913356804133
 10
99.7713432910294
 20
-160.3402560363038
 10
99.7713432910294
 20
-160.3402560363038
 10
99.7713432910294
 20
-160.5917480067271
 10
99.7713432910294
 20
-160.5917480067271
 10
99.9342963074817
 20
-160.5662543001362
 10
100.1203314636852
 20
-160.522157077925
 10
100.1837212206138
 20
-160.5069986577899
 10
100.1837212206138
 20
-160.5069986577899
 10
100.1540933994407
 20
-160.6764973556642
 10
100.1540933994407
 20
-160.6764973556642
 10
100.1520263421495
 20
-160.6764973556642
 10
100.1330783169806
 20
-160.6826985275377
 10
100.1310112596895
 20
-160.6826985275377
 10
99.93222925019056
 20
-160.7205945778754
 10
99.61493595599904
 20
-160.7863959016437
 10
99.41787649424276
 20
-160.8225694042388
 10
99.407541207787
 20
-160.839105862568
 10
99.38411455848731
 20
-160.8708007410323
 10
99.36103241873613
 20
-160.8708007410323
 10
99.33347165485414
 20
-160.8708007410323
 10
99.32933754027184
 20
-160.852197225412
 10
99.32692597343217
 20
-160.8329046906946
 10
99.32692597343217
 20
-160.8329046906946
 10
99.30177677638984
 20
-160.659271878238
 10
99.30177677638984
 20
-160.659271878238
 10
99.37584632932271
 20
-160.6510036490734
 10
99.48367781801103
 20
-160.6382567957779
 10
99.59150930669935
 20
-160.6172417133179
 10
99.59150930669935
 20
-160.6172417133179
 10
99.59150930669935
 20
-160.439474786279
 10
99.59150930669935
 20
-160.439474786279
 10
99.44750431541591
 20
-160.5114772819207
 10
99.352419680023
 20
-160.5407605935454
 10
99.18739960627954
 20
-160.5703884147185
 10
99.18739960627954
 20
-160.5703884147185
 10
99.0668212642958
 20
-160.4015787359413
 10
99.0668212642958
 20
-160.4015787359413
 10
99.38411455848731
 20
-160.3740179720593
 10
99.57669539611277
 20
-160.2810003939575
 10
99.75446232315167
 20
-160.1473306891298
 10
99.60839027457708
 20
-160.1473306891298
 10
99.30797794826329
 20
-160.1518093132607
 10
99.11126299605552
 20
-160.1583549946826
 10
99.11126299605552
 20
-160.1583549946826
 10
99.11126299605552
 20
-159.9805880676437
 10
99.11126299605552
 20
-159.9805880676437
 10
99.26560327379471
 20
-159.9867892395172
 10
99.5618814855262
 20
-159.9929904113907
 10
99.74584958443855
 20
-159.9929904113907
 10
99.74584958443855
 20
-159.9929904113907
 10
99.95737844723288
 20
-159.9929904113907
 10
99.95737844723288
 20
-159.9929904113907
 10
99.95737844723288
 20
-159.8979057759977
 10
99.95531138994173
 20
-159.8469183628161
 10
99.94911021806828
 20
-159.8007540833137
 10
99.94911021806828
 20
-159.8007540833137
 10
100.1647731954449
 20
-159.8172905416429
 10
100.1647731954449
 20
-159.8172905416429
 10
100.2133490417869
 20
-159.8217691657737
 10
100.2219617805001
 20
-159.8365830763603
 10
100.2219617805001
 20
-159.8513969869469
 10
100.2219617805001
 20
-159.8765461839892
 10
100.2050808126223
 20
-159.8851589227023
 10
100.1540933994407
 20
-159.9106526292932
 10
100.1520263421495
 20
-159.9358018263355
 10
100.1520263421495
 20
-159.9423475077575
 10
100.1499592848584
 20
-159.9929904113907
 10
100.1499592848584
 20
-159.9929904113907
 10
100.3804361728216
 20
-159.9929904113907
 10
100.3804361728216
 20
-159.9929904113907
 10
100.545456246565
 20
-159.9929904113907
 10
100.8376003437142
 20
-159.9867892395172
 10
101.0174343280443
 20
-159.9805880676437
 10
101.0174343280443
 20
-159.9805880676437
 10
101.0174343280443
 20
-160.1583549946826
 10
101.0174343280443
 20
-160.1583549946826
 10
100.8882432473474
 20
-160.1538763705518
 10
100.8651611075962
 20
-160.1538763705518
 10
100.5878309210336
 20
-160.149397746421
 97
        0
 97
        0
 92
        1
 93
        1
 72
     4
 94
        3
 73
     0
 74
     1
 95
       23
 96
       19
 40
0.0
 40
0.0
 40
0.0
 40
0.0
 40
1.0
 40
1.0
 40
1.0
 40
2.0
 40
2.0
 40
2.0
 40
3.0
 40
3.0
 40
3.0
 40
4.0
 40
4.0
 40
4.0
 40
5.0
 40
5.0
 40
5.0
 40
6.0
 40
6.0
 40
6.0
 40
6.0
 10
99.30384383368099
 20
-159.7986870260225
 10
99.28696286580326
 20
-159.8386501336515
 10
99.28041718438129
 20
-159.8555311015292
 10
99.25940210192127
 20
-159.8555311015292
 10
99.24458819133469
 20
-159.8555311015292
 10
99.23390839533042
 20
-159.8386501336515
 10
99.22770722345696
 20
-159.825903280356
 10
99.22770722345696
 20
-159.825903280356
 10
99.12814396393324
 20
-159.6608832066126
 10
99.12814396393324
 20
-159.6608832066126
 10
99.22977428074812
 20
-159.6291883281483
 10
99.37998044390501
 20
-159.5740668003843
 10
99.57876245340393
 20
-159.4114582934805
 10
99.57876245340393
 20
-159.4114582934805
 10
99.63595103845907
 20
-159.5847465963886
 10
99.63595103845907
 20
-159.5847465963886
 10
99.54293346035733
 20
-159.667084378486
 10
99.45404999683788
 20
-159.7242729635412
 10
99.30384383368099
 20
-159.7986870260225
 97
        0
 97
        0
 92
        1
 93
        1
 72
     4
 94
        3
 73
     0
 74
     1
 95
       17
 96
       13
 40
0.0
 40
0.0
 40
0.0
 40
0.0
 40
1.0
 40
1.0
 40
1.0
 40
2.0
 40
2.0
 40
2.0
 40
3.0
 40
3.0
 40
3.0
 40
4.0
 40
4.0
 40
4.0
 40
4.0
 10
99.45611705412902
 20
-159.3329101164168
 10
99.42648923295589
 20
-159.2929470087879
 10
99.35862085189646
 20
-159.1957953161038
 10
99.17671981027527
 20
-159.0855522605758
 10
99.17671981027527
 20
-159.0855522605758
 10
99.30384383368099
 20
-158.9522270652967
 10
99.30384383368099
 20
-158.9522270652967
 10
99.48987898988447
 20
-159.0538573821115
 10
99.54706757493963
 20
-159.142740845631
 10
99.57462833882163
 20
-159.184771010551
 10
99.57462833882163
 20
-159.184771010551
 10
99.45611705412902
 20
-159.3329101164168
 10
99.45611705412902
 20
-159.3329101164168
 97
        0
 97
        0
 92
        1
 93
        1
 72
     4
 94
        3
 73
     0
 74
     1
 95
       38
 96
       34
 40
0.0
 40
0.0
 40
0.0
 40
0.0
 40
1.0
 40
1.0
 40
1.0
 40
2.0
 40
2.0
 40
2.0
 40
3.0
 40
3.0
 40
3.0
 40
4.0
 40
4.0
 40
4.0
 40
5.0
 40
5.0
 40
5.0
 40
6.0
 40
6.0
 40
6.0
 40
7.0
 40
7.0
 40
7.0
 40
8.0
 40
8.0
 40
8.0
 40
9.0
 40
9.0
 40
9.0
 40
10.0
 40
10.0
 40
10.0
 40
11.0
 40
11.0
 40
11.0
 40
11.0
 10
99.82405325195371
 20
-159.0283636755207
 10
99.82198619466256
 20
-159.0752169741201
 10
99.81991913737141
 20
-159.191316691973
 10
99.81991913737141
 20
-159.2357584237327
 10
99.81991913737141
 20
-159.2357584237327
 10
99.81991913737141
 20
-159.5826795390974
 10
99.81991913737141
 20
-159.5826795390974
 10
99.81991913737141
 20
-159.6694959453257
 10
99.82198619466256
 20
-159.8110893697695
 10
99.83266599066684
 20
-159.9316677117532
 10
99.83266599066684
 20
-159.9316677117532
 10
99.64215221033253
 20
-159.9316677117532
 10
99.64215221033253
 20
-159.9316677117532
 10
99.64663083446335
 20
-159.8682779548246
 10
99.65076494904565
 20
-159.8152234843517
 10
99.6528320063368
 20
-159.7604464661363
 10
99.65489906362795
 20
-159.6374565573129
 10
99.6569661209191
 20
-159.6229871562748
 10
99.6569661209191
 20
-159.5782009149666
 10
99.6569661209191
 20
-159.5782009149666
 10
99.6569661209191
 20
-159.2571180157413
 10
99.6569661209191
 20
-159.2571180157413
 10
99.6569661209191
 20
-159.2019964879773
 10
99.64421926762367
 20
-158.962906861301
 10
99.64215221033253
 20
-158.9119194481192
 10
99.64215221033253
 20
-158.9119194481192
 10
99.84334578667111
 20
-158.9394802120013
 10
99.84334578667111
 20
-158.9394802120013
 10
99.86436086913113
 20
-158.9415472692924
 10
99.89605574759544
 20
-158.9456813838747
 10
99.89605574759544
 20
-158.9711750904656
 10
99.89605574759544
 20
-158.9987358543476
 10
99.84541284396227
 20
-159.0200954463561
 10
99.82405325195371
 20
-159.0283636755207
 97
        0
 97
        0
 92
        1
 93
        1
 72
     4
 94
        3
 73
     0
 74
     1
 95
       83
 96
       79
 40
0.0
 40
0.0
 40
0.0
 40
0.0
 40
1.0
 40
1.0
 40
1.0
 40
2.0
 40
2.0
 40
2.0
 40
3.0
 40
3.0
 40
3.0
 40
4.0
 40
4.0
 40
4.0
 40
5.0
 40
5.0
 40
5.0
 40
6.0
 40
6.0
 40
6.0
 40
7.0
 40
7.0
 40
7.0
 40
8.0
 40
8.0
 40
8.0
 40
9.0
 40
9.0
 40
9.0
 40
10.0
 40
10.0
 40
10.0
 40
11.0
 40
11.0
 40
11.0
 40
12.0
 40
12.0
 40
12.0
 40
13.0
 40
13.0
 40
13.0
 40
14.0
 40
14.0
 40
14.0
 40
15.0
 40
15.0
 40
15.0
 40
16.0
 40
16.0
 40
16.0
 40
17.0
 40
17.0
 40
17.0
 40
18.0
 40
18.0
 40
18.0
 40
19.0
 40
19.0
 40
19.0
 40
20.0
 40
20.0
 40
20.0
 40
21.0
 40
21.0
 40
21.0
 40
22.0
 40
22.0
 40
22.0
 40
23.0
 40
23.0
 40
23.0
 40
24.0
 40
24.0
 40
24.0
 40
25.0
 40
25.0
 40
25.0
 40
26.0
 40
26.0
 40
26.0
 40
26.0
 10
100.6260714809199
 20
-159.350135593843
 10
100.6260714809199
 20
-159.350135593843
 10
100.5285752786873
 20
-159.350135593843
 10
100.5285752786873
 20
-159.350135593843
 10
100.5285752786873
 20
-159.350135593843
 10
100.5285752786873
 20
-159.597493449684
 10
100.5285752786873
 20
-159.597493449684
 10
100.5285752786873
 20
-159.597493449684
 10
100.6112575703333
 20
-159.597493449684
 10
100.6112575703333
 20
-159.597493449684
 10
100.6767143845531
 20
-159.597493449684
 10
100.8162407517057
 20
-159.5933593351017
 10
100.9158040112294
 20
-159.5847465963886
 10
100.9158040112294
 20
-159.5847465963886
 10
100.9158040112294
 20
-159.7645805807186
 10
100.9158040112294
 20
-159.7645805807186
 10
100.8227864331276
 20
-159.7559678420054
 10
100.6725802699708
 20
-159.7518337274232
 10
100.6112575703333
 20
-159.7518337274232
 10
100.6112575703333
 20
-159.7518337274232
 10
100.3063666198887
 20
-159.7518337274232
 10
100.3063666198887
 20
-159.7518337274232
 10
100.2536566589644
 20
-159.7518337274232
 10
100.1075846103898
 20
-159.7559678420054
 10
100.0018201789926
 20
-159.7645805807186
 10
100.0018201789926
 20
-159.7645805807186
 10
100.0018201789926
 20
-159.5847465963886
 10
100.0018201789926
 20
-159.5847465963886
 10
100.1013834385163
 20
-159.5933593351017
 10
100.2409098056689
 20
-159.597493449684
 10
100.3063666198887
 20
-159.597493449684
 10
100.3063666198887
 20
-159.597493449684
 10
100.3508083516484
 20
-159.597493449684
 10
100.3508083516484
 20
-159.597493449684
 10
100.3508083516484
 20
-159.597493449684
 10
100.3508083516484
 20
-159.350135593843
 10
100.3508083516484
 20
-159.350135593843
 10
100.3508083516484
 20
-159.350135593843
 10
100.2770833082641
 20
-159.350135593843
 10
100.2770833082641
 20
-159.350135593843
 10
100.2154160990781
 20
-159.350135593843
 10
100.0483289680435
 20
-159.3542697084253
 10
99.92775062605973
 20
-159.3625379375899
 10
99.92775062605973
 20
-159.3625379375899
 10
99.92775062605973
 20
-159.184771010551
 10
99.92775062605973
 20
-159.184771010551
 10
100.04212779617
 20
-159.191316691973
 10
100.2006021884915
 20
-159.1957953161038
 10
100.2770833082641
 20
-159.1957953161038
 10
100.2770833082641
 20
-159.1957953161038
 10
100.3487412943573
 20
-159.1957953161038
 10
100.3487412943573
 20
-159.1957953161038
 10
100.344607179775
 20
-159.0431775861073
 10
100.3425401224838
 20
-159.0094156503518
 10
100.3359944410618
 20
-158.9160535627016
 10
100.3359944410618
 20
-158.9160535627016
 10
100.5478678134047
 20
-158.9394802120013
 10
100.5478678134047
 20
-158.9394802120013
 10
100.573017010447
 20
-158.9415472692924
 10
100.5964436597467
 20
-158.9456813838747
 10
100.5964436597467
 20
-158.9691080331744
 10
100.5964436597467
 20
-159.0008029116387
 10
100.552001927987
 20
-159.0180283890649
 10
100.5285752786873
 20
-159.0262966182295
 10
100.5285752786873
 20
-159.0262966182295
 10
100.5285752786873
 20
-159.1957953161038
 10
100.5285752786873
 20
-159.1957953161038
 10
100.5285752786873
 20
-159.1957953161038
 10
100.6260714809199
 20
-159.1957953161038
 10
100.6260714809199
 20
-159.1957953161038
 10
100.7022080911439
 20
-159.1957953161038
 10
100.8606824834654
 20
-159.191316691973
 10
100.9771267108668
 20
-159.184771010551
 10
100.9771267108668
 20
-159.184771010551
 10
100.9771267108668
 20
-159.3625379375899
 10
100.9771267108668
 20
-159.3625379375899
 10
100.8692952221785
 20
-159.3563367657165
 10
100.6956624097219
 20
-159.350135593843
 10
100.6260714809199
 20
-159.350135593843
 97
        0
 97
        0
 92
        1
 93
        1
 72
     4
 94
        3
 73
     0
 74
     1
 95
       17
 96
       13
 40
0.0
 40
0.0
 40
0.0
 40
0.0
 40
1.0
 40
1.0
 40
1.0
 40
2.0
 40
2.0
 40
2.0
 40
3.0
 40
3.0
 40
3.0
 40
4.0
 40
4.0
 40
4.0
 40
4.0
 10
100.3804361728216
 20
-160.1473306891298
 10
100.3804361728216
 20
-160.1473306891298
 10
100.1775200487403
 20
-160.1473306891298
 10
100.1775200487403
 20
-160.1473306891298
 10
100.2050808126223
 20
-160.2065863314761
 10
100.2598578308378
 20
-160.2789333366664
 10
100.2874185947198
 20
-160.308216648291
 10
100.3149793586018
 20
-160.2934027377044
 10
100.4293565287121
 20
-160.2300129807758
 10
100.5203070495227
 20
-160.1473306891298
 10
100.5203070495227
 20
-160.1473306891298
 10
100.3804361728216
 20
-160.1473306891298
 10
100.3804361728216
 20
-160.1473306891298
 97
        0
 97
        0
 75
     2
 76
     1
 98
        0
  0
SPLINE
  5
16A
330
157
100
AcDbEntity
  8
_U+30EC_U+30A4_U+30E4_U+30FC 1
370
     0
100
AcDbSpline
210
0.0
220
0.0
230
1.0
 70
    11
 71
     3
 72
    77
 73
    73
 74
     0
 42
0.0000000001
 43
0.0000000001
 12
1.0
 22
0.0
 32
0.0
 13
1.0
 23
0.0
 33
0.0
 40
0.0
 40
0.0
 40
0.0
 40
0.0
 40
1.0
 40
1.0
 40
1.0
 40
2.0
 40
2.0
 40
2.0
 40
3.0
 40
3.0
 40
3.0
 40
4.0
 40
4.0
 40
4.0
 40
5.0
 40
5.0
 40
5.0
 40
6.0
 40
6.0
 40
6.0
 40
7.0
 40
7.0
 40
7.0
 40
8.0
 40
8.0
 40
8.0
 40
9.0
 40
9.0
 40
9.0
 40
10.0
 40
10.0
 40
10.0
 40
11.0
 40
11.0
 40
11.0
 40
12.0
 40
12.0
 40
12.0
 40
13.0
 40
13.0
 40
13.0
 40
14.0
 40
14.0
 40
14.0
 40
15.0
 40
15.0
 40
15.0
 40
16.0
 40
16.0
 40
16.0
 40
17.0
 40
17.0
 40
17.0
 40
18.0
 40
18.0
 40
18.0
 40
19.0
 40
19.0
 40
19.0
 40
20.0
 40
20.0
 40
20.0
 40
21.0
 40
21.0
 40
21.0
 40
22.0
 40
22.0
 40
22.0
 40
23.0
 40
23.0
 40
23.0
 40
24.0
 40
24.0
 40
24.0
 40
24.0
 10
102.8715847182057
 20
-160.7777831629306
 30
0.0
 10
102.8250759291548
 20
-160.8032768695214
 30
0.0
 10
102.7003634725888
 20
-160.8160237228168
 30
0.0
 10
102.6218152955251
 20
-160.8160237228168
 30
0.0
 10
102.6094129517782
 20
-160.8160237228168
 30
0.0
 10
102.5839192451874
 20
-160.8160237228168
 30
0.0
 10
102.5501573094319
 20
-160.811545098686
 30
0.0
 10
102.5501573094319
 20
-160.811545098686
 30
0.0
 10
102.4526611071993
 20
-160.5855468348536
 30
0.0
 10
102.4526611071993
 20
-160.5855468348536
 30
0.0
 10
102.4822889283725
 20
-160.5917480067271
 30
0.0
 10
102.5394775134276
 20
-160.6000162358917
 30
0.0
 10
102.6559217408291
 20
-160.6000162358917
 30
0.0
 10
102.7341254083443
 20
-160.6000162358917
 30
0.0
 10
102.7361924656354
 20
-160.5579860709716
 30
0.0
 10
102.7361924656354
 20
-160.5007974859165
 30
0.0
 10
102.7361924656354
 20
-160.5007974859165
 30
0.0
 10
102.7361924656354
 20
-160.1518093132607
 30
0.0
 10
102.7361924656354
 20
-160.1518093132607
 30
0.0
 10
102.7361924656354
 20
-160.1518093132607
 30
0.0
 10
102.2769612374516
 20
-160.1518093132607
 30
0.0
 10
102.2769612374516
 20
-160.1518093132607
 30
0.0
 10
102.2793728042913
 20
-160.2892686231221
 30
0.0
 10
102.2814398615824
 20
-160.4880506326211
 30
0.0
 10
102.2876410334559
 20
-160.6213758279002
 30
0.0
 10
102.289708090747
 20
-160.6489365917822
 30
0.0
 10
102.289708090747
 20
-160.6933783235419
 30
0.0
 10
102.3024549440425
 20
-160.7547010231794
 30
0.0
 10
102.3024549440425
 20
-160.7547010231794
 30
0.0
 10
102.061298260075
 20
-160.7547010231794
 30
0.0
 10
102.061298260075
 20
-160.7547010231794
 30
0.0
 10
102.0867919666658
 20
-160.6296440570648
 30
0.0
 10
102.0867919666658
 20
-160.2892686231221
 30
0.0
 10
102.0867919666658
 20
-160.1518093132607
 30
0.0
 10
102.0867919666658
 20
-160.1518093132607
 30
0.0
 10
101.6444417063597
 20
-160.1518093132607
 30
0.0
 10
101.6444417063597
 20
-160.1518093132607
 30
0.0
 10
101.6213595666085
 20
-160.3588595519242
 30
0.0
 10
101.5559027523888
 20
-160.6275769997737
 30
0.0
 10
101.3588432906325
 20
-160.811545098686
 30
0.0
 10
101.3588432906325
 20
-160.811545098686
 30
0.0
 10
101.1707410771379
 20
-160.6888996994111
 30
0.0
 10
101.1707410771379
 20
-160.6888996994111
 30
0.0
 10
101.4246446144008
 20
-160.4691026074522
 30
0.0
 10
101.4563394928651
 20
-160.1369954026741
 30
0.0
 10
101.4563394928651
 20
-159.804888197896
 30
0.0
 10
101.4563394928651
 20
-159.804888197896
 30
0.0
 10
101.4563394928651
 20
-159.3690836190119
 30
0.0
 10
101.4563394928651
 20
-159.3690836190119
 30
0.0
 10
101.4563394928651
 20
-159.3329101164168
 30
0.0
 10
101.4542724355739
 20
-159.1003661711624
 30
0.0
 10
101.4456596968608
 20
-158.9987358543476
 30
0.0
 10
101.585530573562
 20
-159.0094156503518
 30
0.0
 10
101.8266872575294
 20
-159.0094156503518
 30
0.0
 10
101.9703477392644
 20
-159.0094156503518
 30
0.0
 10
101.9703477392644
 20
-159.0094156503518
 30
0.0
 10
102.4295789674482
 20
-159.0094156503518
 30
0.0
 10
102.4295789674482
 20
-159.0094156503518
 30
0.0
 10
102.4443928780347
 20
-159.0094156503518
 30
0.0
 10
102.7933810506905
 20
-159.0094156503518
 30
0.0
 10
102.951855443012
 20
-158.9987358543476
 30
0.0
 10
102.9497883857209
 20
-159.0517903248204
 30
0.0
 10
102.9435872138474
 20
-159.212331774433
 30
0.0
 10
102.9435872138474
 20
-159.2633191876147
 30
0.0
 10
102.9435872138474
 20
-159.2633191876147
 30
0.0
 10
102.9435872138474
 20
-159.8703450121158
 30
0.0
 10
102.9435872138474
 20
-159.8703450121158
 30
0.0
 10
102.9435872138474
 20
-159.8896375468331
 30
0.0
 10
102.9539225003032
 20
-160.4608343782876
 30
0.0
 10
102.9539225003032
 20
-160.5727999815582
 30
0.0
 10
102.9539225003032
 20
-160.6296440570648
 30
0.0
 10
102.9539225003032
 20
-160.7316188834282
 30
0.0
 10
102.8715847182057
 20
-160.7777831629306
 30
0.0
  0
POLYLINE
  5
16B
330
157
100
AcDbEntity
  8
_U+30EC_U+30A4_U+30E4_U+30FC 1
370
     0
100
AcDb2dPolyline
 66
     1
 10
0.0
 20
0.0
 30
0.0
  0
VERTEX
  5
16C
330
16B
100
AcDbEntity
  8
_U+30EC_U+30A4_U+30E4_U+30FC 1
370
     0
100
AcDbVertex
100
AcDb2dVertex
 10
102.0867919666658
 20
-159.191316691973
 30
0.0
  0
VERTEX
  5
16D
330
16B
100
AcDbEntity
  8
_U+30EC_U+30A4_U+30E4_U+30FC 1
370
     0
100
AcDbVertex
100
AcDb2dVertex
 10
101.6489203304906
 20
-159.191316691973
 30
0.0
  0
VERTEX
  5
16E
330
16B
100
AcDbEntity
  8
_U+30EC_U+30A4_U+30E4_U+30FC 1
370
     0
100
AcDbVertex
100
AcDb2dVertex
 10
101.6489203304906
 20
-159.4958631328691
 30
0.0
  0
VERTEX
  5
16F
330
16B
100
AcDbEntity
  8
_U+30EC_U+30A4_U+30E4_U+30FC 1
370
     0
100
AcDbVertex
100
AcDb2dVertex
 10
102.0867919666658
 20
-159.4958631328691
 30
0.0
  0
VERTEX
  5
170
330
16B
100
AcDbEntity
  8
_U+30EC_U+30A4_U+30E4_U+30FC 1
370
     0
100
AcDbVertex
100
AcDb2dVertex
 10
102.0867919666658
 20
-159.191316691973
 30
0.0
  0
SEQEND
  5
171
330
16B
100
AcDbEntity
  8
_U+30EC_U+30A4_U+30E4_U+30FC 1
370
     0
  0
POLYLINE
  5
172
330
157
100
AcDbEntity
  8
_U+30EC_U+30A4_U+30E4_U+30FC 1
370
     0
100
AcDb2dPolyline
 66
     1
 10
0.0
 20
0.0
 30
0.0
  0
VERTEX
  5
173
330
172
100
AcDbEntity
  8
_U+30EC_U+30A4_U+30E4_U+30FC 1
370
     0
100
AcDbVertex
100
AcDb2dVertex
 10
102.0867919666658
 20
-159.6629502639037
 30
0.0
  0
VERTEX
  5
174
330
172
100
AcDbEntity
  8
_U+30EC_U+30A4_U+30E4_U+30FC 1
370
     0
100
AcDbVertex
100
AcDb2dVertex
 10
101.6489203304906
 20
-159.6629502639037
 30
0.0
  0
VERTEX
  5
175
330
172
100
AcDbEntity
  8
_U+30EC_U+30A4_U+30E4_U+30FC 1
370
     0
100
AcDbVertex
100
AcDb2dVertex
 10
101.6489203304906
 20
-159.9719753289306
 30
0.0
  0
VERTEX
  5
176
330
172
100
AcDbEntity
  8
_U+30EC_U+30A4_U+30E4_U+30FC 1
370
     0
100
AcDbVertex
100
AcDb2dVertex
 10
102.0867919666658
 20
-159.9719753289306
 30
0.0
  0
VERTEX
  5
177
330
172
100
AcDbEntity
  8
_U+30EC_U+30A4_U+30E4_U+30FC 1
370
     0
100
AcDbVertex
100
AcDb2dVertex
 10
102.0867919666658
 20
-159.6629502639037
 30
0.0
  0
SEQEND
  5
178
330
172
100
AcDbEntity
  8
_U+30EC_U+30A4_U+30E4_U+30FC 1
370
     0
  0
POLYLINE
  5
179
330
157
100
AcDbEntity
  8
_U+30EC_U+30A4_U+30E4_U+30FC 1
370
     0
100
AcDb2dPolyline
 66
     1
 10
0.0
 20
0.0
 30
0.0
  0
VERTEX
  5
17A
330
179
100
AcDbEntity
  8
_U+30EC_U+30A4_U+30E4_U+30FC 1
370
     0
100
AcDbVertex
100
AcDb2dVertex
 10
102.7361924656354
 20
-159.191316691973
 30
0.0
  0
VERTEX
  5
17B
330
179
100
AcDbEntity
  8
_U+30EC_U+30A4_U+30E4_U+30FC 1
370
     0
100
AcDbVertex
100
AcDb2dVertex
 10
102.2769612374516
 20
-159.191316691973
 30
0.0
  0
VERTEX
  5
17C
330
179
100
AcDbEntity
  8
_U+30EC_U+30A4_U+30E4_U+30FC 1
370
     0
100
AcDbVertex
100
AcDb2dVertex
 10
102.2769612374516
 20
-159.4958631328691
 30
0.0
  0
VERTEX
  5
17D
330
179
100
AcDbEntity
  8
_U+30EC_U+30A4_U+30E4_U+30FC 1
370
     0
100
AcDbVertex
100
AcDb2dVertex
 10
102.7361924656354
 20
-159.4958631328691
 30
0.0
  0
VERTEX
  5
17E
330
179
100
AcDbEntity
  8
_U+30EC_U+30A4_U+30E4_U+30FC 1
370
     0
100
AcDbVertex
100
AcDb2dVertex
 10
102.7361924656354
 20
-159.191316691973
 30
0.0
  0
SEQEND
  5
17F
330
179
100
AcDbEntity
  8
_U+30EC_U+30A4_U+30E4_U+30FC 1
370
     0
  0
POLYLINE
  5
180
330
157
100
AcDbEntity
  8
_U+30EC_U+30A4_U+30E4_U+30FC 1
370
     0
100
AcDb2dPolyline
 66
     1
 10
0.0
 20
0.0
 30
0.0
  0
VERTEX
  5
181
330
180
100
AcDbEntity
  8
_U+30EC_U+30A4_U+30E4_U+30FC 1
370
     0
100
AcDbVertex
100
AcDb2dVertex
 10
102.7361924656354
 20
-159.6629502639037
 30
0.0
  0
VERTEX
  5
182
330
180
100
AcDbEntity
  8
_U+30EC_U+30A4_U+30E4_U+30FC 1
370
     0
100
AcDbVertex
100
AcDb2dVertex
 10
102.2769612374516
 20
-159.6629502639037
 30
0.0
  0
VERTEX
  5
183
330
180
100
AcDbEntity
  8
_U+30EC_U+30A4_U+30E4_U+30FC 1
370
     0
100
AcDbVertex
100
AcDb2dVertex
 10
102.2769612374516
 20
-159.9719753289306
 30
0.0
  0
VERTEX
  5
184
330
180
100
AcDbEntity
  8
_U+30EC_U+30A4_U+30E4_U+30FC 1
370
     0
100
AcDbVertex
100
AcDb2dVertex
 10
102.7361924656354
 20
-159.9719753289306
 30
0.0
  0
VERTEX
  5
185
330
180
100
AcDbEntity
  8
_U+30EC_U+30A4_U+30E4_U+30FC 1
370
     0
100
AcDbVertex
100
AcDb2dVertex
 10
102.7361924656354
 20
-159.6629502639037
 30
0.0
  0
SEQEND
  5
186
330
180
100
AcDbEntity
  8
_U+30EC_U+30A4_U+30E4_U+30FC 1
370
     0
  0
HATCH
  5
187
330
157
100
AcDbEntity
  8
_U+30EC_U+30A4_U+30E4_U+30FC 1
 62
   179
420
  2234388
100
AcDbHatch
 10
0.0
 20
0.0
 30
0.0
210
0.0
220
0.0
230
1.0
  2
SOLID
 70
     1
 71
     0
 91
        5
 92
        1
 93
        1
 72
     4
 94
        3
 73
     0
 74
     1
 95
       77
 96
       73
 40
0.0
 40
0.0
 40
0.0
 40
0.0
 40
1.0
 40
1.0
 40
1.0
 40
2.0
 40
2.0
 40
2.0
 40
3.0
 40
3.0
 40
3.0
 40
4.0
 40
4.0
 40
4.0
 40
5.0
 40
5.0
 40
5.0
 40
6.0
 40
6.0
 40
6.0
 40
7.0
 40
7.0
 40
7.0
 40
8.0
 40
8.0
 40
8.0
 40
9.0
 40
9.0
 40
9.0
 40
10.0
 40
10.0
 40
10.0
 40
11.0
 40
11.0
 40
11.0
 40
12.0
 40
12.0
 40
12.0
 40
13.0
 40
13.0
 40
13.0
 40
14.0
 40
14.0
 40
14.0
 40
15.0
 40
15.0
 40
15.0
 40
16.0
 40
16.0
 40
16.0
 40
17.0
 40
17.0
 40
17.0
 40
18.0
 40
18.0
 40
18.0
 40
19.0
 40
19.0
 40
19.0
 40
20.0
 40
20.0
 40
20.0
 40
21.0
 40
21.0
 40
21.0
 40
22.0
 40
22.0
 40
22.0
 40
23.0
 40
23.0
 40
23.0
 40
24.0
 40
24.0
 40
24.0
 40
24.0
 10
102.8715847182057
 20
-160.7777831629306
 10
102.8250759291548
 20
-160.8032768695214
 10
102.7003634725888
 20
-160.8160237228168
 10
102.6218152955251
 20
-160.8160237228168
 10
102.6094129517782
 20
-160.8160237228168
 10
102.5839192451874
 20
-160.8160237228168
 10
102.5501573094319
 20
-160.811545098686
 10
102.5501573094319
 20
-160.811545098686
 10
102.4526611071993
 20
-160.5855468348536
 10
102.4526611071993
 20
-160.5855468348536
 10
102.4822889283725
 20
-160.5917480067271
 10
102.5394775134276
 20
-160.6000162358917
 10
102.6559217408291
 20
-160.6000162358917
 10
102.7341254083443
 20
-160.6000162358917
 10
102.7361924656354
 20
-160.5579860709716
 10
102.7361924656354
 20
-160.5007974859165
 10
102.7361924656354
 20
-160.5007974859165
 10
102.7361924656354
 20
-160.1518093132607
 10
102.7361924656354
 20
-160.1518093132607
 10
102.7361924656354
 20
-160.1518093132607
 10
102.2769612374516
 20
-160.1518093132607
 10
102.2769612374516
 20
-160.1518093132607
 10
102.2793728042913
 20
-160.2892686231221
 10
102.2814398615824
 20
-160.4880506326211
 10
102.2876410334559
 20
-160.6213758279002
 10
102.289708090747
 20
-160.6489365917822
 10
102.289708090747
 20
-160.6933783235419
 10
102.3024549440425
 20
-160.7547010231794
 10
102.3024549440425
 20
-160.7547010231794
 10
102.061298260075
 20
-160.7547010231794
 10
102.061298260075
 20
-160.7547010231794
 10
102.0867919666658
 20
-160.6296440570648
 10
102.0867919666658
 20
-160.2892686231221
 10
102.0867919666658
 20
-160.1518093132607
 10
102.0867919666658
 20
-160.1518093132607
 10
101.6444417063597
 20
-160.1518093132607
 10
101.6444417063597
 20
-160.1518093132607
 10
101.6213595666085
 20
-160.3588595519242
 10
101.5559027523888
 20
-160.6275769997737
 10
101.3588432906325
 20
-160.811545098686
 10
101.3588432906325
 20
-160.811545098686
 10
101.1707410771379
 20
-160.6888996994111
 10
101.1707410771379
 20
-160.6888996994111
 10
101.4246446144008
 20
-160.4691026074522
 10
101.4563394928651
 20
-160.1369954026741
 10
101.4563394928651
 20
-159.804888197896
 10
101.4563394928651
 20
-159.804888197896
 10
101.4563394928651
 20
-159.3690836190119
 10
101.4563394928651
 20
-159.3690836190119
 10
101.4563394928651
 20
-159.3329101164168
 10
101.4542724355739
 20
-159.1003661711624
 10
101.4456596968608
 20
-158.9987358543476
 10
101.585530573562
 20
-159.0094156503518
 10
101.8266872575294
 20
-159.0094156503518
 10
101.9703477392644
 20
-159.0094156503518
 10
101.9703477392644
 20
-159.0094156503518
 10
102.4295789674482
 20
-159.0094156503518
 10
102.4295789674482
 20
-159.0094156503518
 10
102.4443928780347
 20
-159.0094156503518
 10
102.7933810506905
 20
-159.0094156503518
 10
102.951855443012
 20
-158.9987358543476
 10
102.9497883857209
 20
-159.0517903248204
 10
102.9435872138474
 20
-159.212331774433
 10
102.9435872138474
 20
-159.2633191876147
 10
102.9435872138474
 20
-159.2633191876147
 10
102.9435872138474
 20
-159.8703450121158
 10
102.9435872138474
 20
-159.8703450121158
 10
102.9435872138474
 20
-159.8896375468331
 10
102.9539225003032
 20
-160.4608343782876
 10
102.9539225003032
 20
-160.5727999815582
 10
102.9539225003032
 20
-160.6296440570648
 10
102.9539225003032
 20
-160.7316188834282
 10
102.8715847182057
 20
-160.7777831629306
 97
        0
 97
        0
 92
        1
 93
        4
 72
     1
 10
102.0867919666658
 20
-159.191316691973
 11
101.6489203304906
 21
-159.191316691973
 72
     1
 10
101.6489203304906
 20
-159.191316691973
 11
101.6489203304906
 21
-159.4958631328691
 72
     1
 10
101.6489203304906
 20
-159.4958631328691
 11
102.0867919666658
 21
-159.4958631328691
 72
     1
 10
102.0867919666658
 20
-159.4958631328691
 11
102.0867919666658
 21
-159.191316691973
 97
        0
 92
        1
 93
        4
 72
     1
 10
102.0867919666658
 20
-159.6629502639037
 11
101.6489203304906
 21
-159.6629502639037
 72
     1
 10
101.6489203304906
 20
-159.6629502639037
 11
101.6489203304906
 21
-159.9719753289306
 72
     1
 10
101.6489203304906
 20
-159.9719753289306
 11
102.0867919666658
 21
-159.9719753289306
 72
     1
 10
102.0867919666658
 20
-159.9719753289306
 11
102.0867919666658
 21
-159.6629502639037
 97
        0
 92
        1
 93
        4
 72
     1
 10
102.7361924656354
 20
-159.191316691973
 11
102.2769612374516
 21
-159.191316691973
 72
     1
 10
102.2769612374516
 20
-159.191316691973
 11
102.2769612374516
 21
-159.4958631328691
 72
     1
 10
102.2769612374516
 20
-159.4958631328691
 11
102.7361924656354
 21
-159.4958631328691
 72
     1
 10
102.7361924656354
 20
-159.4958631328691
 11
102.7361924656354
 21
-159.191316691973
 97
        0
 92
        1
 93
        4
 72
     1
 10
102.7361924656354
 20
-159.6629502639037
 11
102.2769612374516
 21
-159.6629502639037
 72
     1
 10
102.2769612374516
 20
-159.6629502639037
 11
102.2769612374516
 21
-159.9719753289306
 72
     1
 10
102.2769612374516
 20
-159.9719753289306
 11
102.7361924656354
 21
-159.9719753289306
 72
     1
 10
102.7361924656354
 20
-159.9719753289306
 11
102.7361924656354
 21
-159.6629502639037
 97
        0
 75
     2
 76
     1
 98
        0
  0
SPLINE
  5
188
330
157
100
AcDbEntity
  8
_U+30EC_U+30A4_U+30E4_U+30FC 1
370
     0
100
AcDbSpline
210
0.0
220
0.0
230
1.0
 70
    11
 71
     3
 72
    44
 73
    40
 74
     0
 42
0.0000000001
 43
0.0000000001
 12
1.0
 22
0.0
 32
0.0
 13
1.0
 23
0.0
 33
0.0
 40
0.0
 40
0.0
 40
0.0
 40
0.0
 40
1.0
 40
1.0
 40
1.0
 40
2.0
 40
2.0
 40
2.0
 40
3.0
 40
3.0
 40
3.0
 40
4.0
 40
4.0
 40
4.0
 40
5.0
 40
5.0
 40
5.0
 40
6.0
 40
6.0
 40
6.0
 40
7.0
 40
7.0
 40
7.0
 40
8.0
 40
8.0
 40
8.0
 40
9.0
 40
9.0
 40
9.0
 40
10.0
 40
10.0
 40
10.0
 40
11.0
 40
11.0
 40
11.0
 40
12.0
 40
12.0
 40
12.0
 40
13.0
 40
13.0
 40
13.0
 40
13.0
 10
104.7491617576669
 20
-159.5279025208819
 30
0.0
 10
104.6371961543963
 20
-159.8958387187066
 30
0.0
 10
104.5865532507631
 20
-160.0543131110281
 30
0.0
 10
104.3898382985553
 20
-160.3040825337087
 30
0.0
 10
104.2055256900945
 20
-160.5345594216719
 30
0.0
 10
103.9688476302578
 20
-160.7205945778754
 30
0.0
 10
103.689450386404
 20
-160.8139566655257
 30
0.0
 10
103.689450386404
 20
-160.8139566655257
 30
0.0
 10
103.4968695487786
 20
-160.6341226811956
 30
0.0
 10
103.4968695487786
 20
-160.6341226811956
 30
0.0
 10
104.1380018185836
 20
-160.4818494607476
 30
0.0
 10
104.4680419660705
 20
-159.9254665398797
 30
0.0
 10
104.5314317229991
 20
-159.4851833368648
 30
0.0
 10
104.5314317229991
 20
-159.4851833368648
 30
0.0
 10
103.7655869966281
 20
-159.4851833368648
 30
0.0
 10
103.7655869966281
 20
-159.4851833368648
 30
0.0
 10
103.6725694185263
 20
-159.4851833368648
 30
0.0
 10
103.488601319614
 20
-159.4896619609956
 30
0.0
 10
103.3318494750351
 20
-159.5086099861645
 30
0.0
 10
103.3318494750351
 20
-159.5086099861645
 30
0.0
 10
103.3318494750351
 20
-159.2888128942056
 30
0.0
 10
103.3318494750351
 20
-159.2888128942056
 30
0.0
 10
103.4186658812634
 20
-159.3098279766656
 30
0.0
 10
103.6705023612352
 20
-159.3098279766656
 30
0.0
 10
103.7697211112104
 20
-159.3098279766656
 30
0.0
 10
103.7697211112104
 20
-159.3098279766656
 30
0.0
 10
104.2013915755122
 20
-159.3098279766656
 30
0.0
 10
104.2013915755122
 20
-159.3098279766656
 30
0.0
 10
104.2437662499807
 20
-159.3098279766656
 30
0.0
 10
104.4783772525262
 20
-159.3074164098259
 30
0.0
 10
104.5166178124125
 20
-159.3012152379525
 30
0.0
 10
104.5589924868811
 20
-159.295014066079
 30
0.0
 10
104.5610595441722
 20
-159.2929470087879
 30
0.0
 10
104.6223822438097
 20
-159.2526393916105
 30
0.0
 10
104.6223822438097
 20
-159.2526393916105
 30
0.0
 10
104.8108289668529
 20
-159.4073241788982
 30
0.0
 10
104.8108289668529
 20
-159.4073241788982
 30
0.0
 10
104.7812011456797
 20
-159.4369520000713
 30
0.0
 10
104.7663872350931
 20
-159.4686468785356
 30
0.0
 10
104.7491617576669
 20
-159.5279025208819
 30
0.0
  0
SPLINE
  5
189
330
157
100
AcDbEntity
  8
_U+30EC_U+30A4_U+30E4_U+30FC 1
370
     0
100
AcDbSpline
210
0.0
220
0.0
230
1.0
 70
    11
 71
     3
 72
    17
 73
    13
 74
     0
 42
0.0000000001
 43
0.0000000001
 12
1.0
 22
0.0
 32
0.0
 13
1.0
 23
0.0
 33
0.0
 40
0.0
 40
0.0
 40
0.0
 40
0.0
 40
1.0
 40
1.0
 40
1.0
 40
2.0
 40
2.0
 40
2.0
 40
3.0
 40
3.0
 40
3.0
 40
4.0
 40
4.0
 40
4.0
 40
4.0
 10
104.9586235631701
 20
-159.3287760018345
 30
0.0
 10
104.8318440493129
 20
-159.3287760018345
 30
0.0
 10
104.730213732498
 20
-159.2274901945681
 30
0.0
 10
104.730213732498
 20
-159.1003661711624
 30
0.0
 10
104.730213732498
 20
-158.9732421477567
 30
0.0
 10
104.8318440493129
 20
-158.8698892831992
 30
0.0
 10
104.9586235631701
 20
-158.8698892831992
 30
0.0
 10
105.0857475865758
 20
-158.8698892831992
 30
0.0
 10
105.1894449606818
 20
-158.9732421477567
 30
0.0
 10
105.1894449606818
 20
-159.1003661711624
 30
0.0
 10
105.1894449606818
 20
-159.2274901945681
 30
0.0
 10
105.0857475865758
 20
-159.3287760018345
 30
0.0
 10
104.9586235631701
 20
-159.3287760018345
 30
0.0
  0
SPLINE
  5
18A
330
157
100
AcDbEntity
  8
_U+30EC_U+30A4_U+30E4_U+30FC 1
370
     0
100
AcDbSpline
210
0.0
220
0.0
230
1.0
 70
    11
 71
     3
 72
    17
 73
    13
 74
     0
 42
0.0000000001
 43
0.0000000001
 12
1.0
 22
0.0
 32
0.0
 13
1.0
 23
0.0
 33
0.0
 40
0.0
 40
0.0
 40
0.0
 40
0.0
 40
1.0
 40
1.0
 40
1.0
 40
2.0
 40
2.0
 40
2.0
 40
3.0
 40
3.0
 40
3.0
 40
4.0
 40
4.0
 40
4.0
 40
4.0
 10
104.9565565058789
 20
-158.9987358543476
 30
0.0
 10
104.9017794876634
 20
-158.9987358543476
 30
0.0
 10
104.8573377559037
 20
-159.0431775861073
 30
0.0
 10
104.8573377559037
 20
-159.0982991138713
 30
0.0
 10
104.8573377559037
 20
-159.1551431893779
 30
0.0
 10
104.9017794876634
 20
-159.2040635452684
 30
0.0
 10
104.9606906204612
 20
-159.2040635452684
 30
0.0
 10
105.0199462628075
 20
-159.2040635452684
 30
0.0
 10
105.0602538799849
 20
-159.1530761320867
 30
0.0
 10
105.0602538799849
 20
-159.1003661711624
 30
0.0
 10
105.0602538799849
 20
-159.0431775861073
 30
0.0
 10
105.0137450909341
 20
-158.9987358543476
 30
0.0
 10
104.9565565058789
 20
-158.9987358543476
 30
0.0
  0
HATCH
  5
18B
330
157
100
AcDbEntity
  8
_U+30EC_U+30A4_U+30E4_U+30FC 1
 62
   179
420
  2234388
100
AcDbHatch
 10
0.0
 20
0.0
 30
0.0
210
0.0
220
0.0
230
1.0
  2
SOLID
 70
     1
 71
     0
 91
        3
 92
        1
 93
        1
 72
     4
 94
        3
 73
     0
 74
     1
 95
       44
 96
       40
 40
0.0
 40
0.0
 40
0.0
 40
0.0
 40
1.0
 40
1.0
 40
1.0
 40
2.0
 40
2.0
 40
2.0
 40
3.0
 40
3.0
 40
3.0
 40
4.0
 40
4.0
 40
4.0
 40
5.0
 40
5.0
 40
5.0
 40
6.0
 40
6.0
 40
6.0
 40
7.0
 40
7.0
 40
7.0
 40
8.0
 40
8.0
 40
8.0
 40
9.0
 40
9.0
 40
9.0
 40
10.0
 40
10.0
 40
10.0
 40
11.0
 40
11.0
 40
11.0
 40
12.0
 40
12.0
 40
12.0
 40
13.0
 40
13.0
 40
13.0
 40
13.0
 10
104.7491617576669
 20
-159.5279025208819
 10
104.6371961543963
 20
-159.8958387187066
 10
104.5865532507631
 20
-160.0543131110281
 10
104.3898382985553
 20
-160.3040825337087
 10
104.2055256900945
 20
-160.5345594216719
 10
103.9688476302578
 20
-160.7205945778754
 10
103.689450386404
 20
-160.8139566655257
 10
103.689450386404
 20
-160.8139566655257
 10
103.4968695487786
 20
-160.6341226811956
 10
103.4968695487786
 20
-160.6341226811956
 10
104.1380018185836
 20
-160.4818494607476
 10
104.4680419660705
 20
-159.9254665398797
 10
104.5314317229991
 20
-159.4851833368648
 10
104.5314317229991
 20
-159.4851833368648
 10
103.7655869966281
 20
-159.4851833368648
 10
103.7655869966281
 20
-159.4851833368648
 10
103.6725694185263
 20
-159.4851833368648
 10
103.488601319614
 20
-159.4896619609956
 10
103.3318494750351
 20
-159.5086099861645
 10
103.3318494750351
 20
-159.5086099861645
 10
103.3318494750351
 20
-159.2888128942056
 10
103.3318494750351
 20
-159.2888128942056
 10
103.4186658812634
 20
-159.3098279766656
 10
103.6705023612352
 20
-159.3098279766656
 10
103.7697211112104
 20
-159.3098279766656
 10
103.7697211112104
 20
-159.3098279766656
 10
104.2013915755122
 20
-159.3098279766656
 10
104.2013915755122
 20
-159.3098279766656
 10
104.2437662499807
 20
-159.3098279766656
 10
104.4783772525262
 20
-159.3074164098259
 10
104.5166178124125
 20
-159.3012152379525
 10
104.5589924868811
 20
-159.295014066079
 10
104.5610595441722
 20
-159.2929470087879
 10
104.6223822438097
 20
-159.2526393916105
 10
104.6223822438097
 20
-159.2526393916105
 10
104.8108289668529
 20
-159.4073241788982
 10
104.8108289668529
 20
-159.4073241788982
 10
104.7812011456797
 20
-159.4369520000713
 10
104.7663872350931
 20
-159.4686468785356
 10
104.7491617576669
 20
-159.5279025208819
 97
        0
 97
        0
 92
        1
 93
        1
 72
     4
 94
        3
 73
     0
 74
     1
 95
       17
 96
       13
 40
0.0
 40
0.0
 40
0.0
 40
0.0
 40
1.0
 40
1.0
 40
1.0
 40
2.0
 40
2.0
 40
2.0
 40
3.0
 40
3.0
 40
3.0
 40
4.0
 40
4.0
 40
4.0
 40
4.0
 10
104.9586235631701
 20
-159.3287760018345
 10
104.8318440493129
 20
-159.3287760018345
 10
104.730213732498
 20
-159.2274901945681
 10
104.730213732498
 20
-159.1003661711624
 10
104.730213732498
 20
-158.9732421477567
 10
104.8318440493129
 20
-158.8698892831992
 10
104.9586235631701
 20
-158.8698892831992
 10
105.0857475865758
 20
-158.8698892831992
 10
105.1894449606818
 20
-158.9732421477567
 10
105.1894449606818
 20
-159.1003661711624
 10
105.1894449606818
 20
-159.2274901945681
 10
105.0857475865758
 20
-159.3287760018345
 10
104.9586235631701
 20
-159.3287760018345
 97
        0
 97
        0
 92
        1
 93
        1
 72
     4
 94
        3
 73
     0
 74
     1
 95
       17
 96
       13
 40
0.0
 40
0.0
 40
0.0
 40
0.0
 40
1.0
 40
1.0
 40
1.0
 40
2.0
 40
2.0
 40
2.0
 40
3.0
 40
3.0
 40
3.0
 40
4.0
 40
4.0
 40
4.0
 40
4.0
 10
104.9565565058789
 20
-158.9987358543476
 10
104.9017794876634
 20
-158.9987358543476
 10
104.8573377559037
 20
-159.0431775861073
 10
104.8573377559037
 20
-159.0982991138713
 10
104.8573377559037
 20
-159.1551431893779
 10
104.9017794876634
 20
-159.2040635452684
 10
104.9606906204612
 20
-159.2040635452684
 10
105.0199462628075
 20
-159.2040635452684
 10
105.0602538799849
 20
-159.1530761320867
 10
105.0602538799849
 20
-159.1003661711624
 10
105.0602538799849
 20
-159.0431775861073
 10
105.0137450909341
 20
-158.9987358543476
 10
104.9565565058789
 20
-158.9987358543476
 97
        0
 97
        0
 75
     2
 76
     1
 98
        0
  0
SPLINE
  5
18C
330
157
100
AcDbEntity
  8
_U+30EC_U+30A4_U+30E4_U+30FC 1
370
     0
100
AcDbSpline
210
0.0
220
0.0
230
1.0
 70
    11
 71
     3
 72
    50
 73
    46
 74
     0
 42
0.0000000001
 43
0.0000000001
 12
1.0
 22
0.0
 32
0.0
 13
1.0
 23
0.0
 33
0.0
 40
0.0
 40
0.0
 40
0.0
 40
0.0
 40
1.0
 40
1.0
 40
1.0
 40
2.0
 40
2.0
 40
2.0
 40
3.0
 40
3.0
 40
3.0
 40
4.0
 40
4.0
 40
4.0
 40
5.0
 40
5.0
 40
5.0
 40
6.0
 40
6.0
 40
6.0
 40
7.0
 40
7.0
 40
7.0
 40
8.0
 40
8.0
 40
8.0
 40
9.0
 40
9.0
 40
9.0
 40
10.0
 40
10.0
 40
10.0
 40
11.0
 40
11.0
 40
11.0
 40
12.0
 40
12.0
 40
12.0
 40
13.0
 40
13.0
 40
13.0
 40
14.0
 40
14.0
 40
14.0
 40
15.0
 40
15.0
 40
15.0
 40
15.0
 10
106.7538628205338
 20
-159.8365830763603
 30
0.0
 10
106.6753146434701
 20
-160.0143500033992
 30
0.0
 10
106.5399223908997
 20
-160.2217447516112
 30
0.0
 10
106.4024630810383
 20
-160.3612711187639
 30
0.0
 10
106.2333088927125
 20
-160.5324923643808
 30
0.0
 10
106.0703558762602
 20
-160.6213758279002
 30
0.0
 10
105.7509955247775
 20
-160.7633137618925
 30
0.0
 10
105.7509955247775
 20
-160.7633137618925
 30
0.0
 10
105.5818413364518
 20
-160.5748670388493
 30
0.0
 10
105.5818413364518
 20
-160.5748670388493
 30
0.0
 10
105.7678764926553
 20
-160.5517848990982
 30
0.0
 10
105.9390977382722
 20
-160.4649684928699
 30
0.0
 10
106.0917154682687
 20
-160.3588595519242
 30
0.0
 10
106.3538872346963
 20
-160.176958510303
 30
0.0
 10
106.5444010150306
 20
-159.8641438402423
 30
0.0
 10
106.5929768613726
 20
-159.6822427986211
 30
0.0
 10
106.5929768613726
 20
-159.6822427986211
 30
0.0
 10
105.9222167703945
 20
-159.6822427986211
 30
0.0
 10
105.9222167703945
 20
-159.6822427986211
 30
0.0
 10
105.763742378073
 20
-159.6822427986211
 30
0.0
 10
105.4715982809238
 20
-159.6905110277857
 30
0.0
 10
105.3193250604757
 20
-159.707736505212
 30
0.0
 10
105.3193250604757
 20
-159.707736505212
 30
0.0
 10
105.3193250604757
 20
-159.4789821649914
 30
0.0
 10
105.3193250604757
 20
-159.4789821649914
 30
0.0
 10
105.3534315057797
 20
-159.4851833368648
 30
0.0
 10
105.378580702822
 20
-159.4917290182868
 30
0.0
 10
105.4316351732949
 20
-159.4958631328691
 30
0.0
 10
105.5329209805612
 20
-159.5024088142911
 30
0.0
 10
105.7299804423175
 20
-159.5044758715822
 30
0.0
 10
105.8143852817061
 20
-159.5044758715822
 30
0.0
 10
105.8143852817061
 20
-159.5044758715822
 30
0.0
 10
106.3201252989408
 20
-159.5044758715822
 30
0.0
 10
106.3201252989408
 20
-159.5044758715822
 30
0.0
 10
106.3876491704517
 20
-159.5044758715822
 30
0.0
 10
106.5337212190263
 20
-159.5003417569999
 30
0.0
 10
106.5950439186637
 20
-159.493796075578
 30
0.0
 10
106.6670464143055
 20
-159.4851833368648
 30
0.0
 10
106.6946071781875
 20
-159.4707139358268
 30
0.0
 10
106.7283691139429
 20
-159.4472872865271
 30
0.0
 10
106.7283691139429
 20
-159.4472872865271
 30
0.0
 10
106.8933891876864
 20
-159.6143744175617
 30
0.0
 10
106.8933891876864
 20
-159.6143744175617
 30
0.0
 10
106.8234537493358
 20
-159.6822427986211
 30
0.0
 10
106.7769449602849
 20
-159.7855956631786
 30
0.0
 10
106.7538628205338
 20
-159.8365830763603
 30
0.0
  0
SPLINE
  5
18D
330
157
100
AcDbEntity
  8
_U+30EC_U+30A4_U+30E4_U+30FC 1
370
     0
100
AcDbSpline
210
0.0
220
0.0
230
1.0
 70
    11
 71
     3
 72
    29
 73
    25
 74
     0
 42
0.0000000001
 43
0.0000000001
 12
1.0
 22
0.0
 32
0.0
 13
1.0
 23
0.0
 33
0.0
 40
0.0
 40
0.0
 40
0.0
 40
0.0
 40
1.0
 40
1.0
 40
1.0
 40
2.0
 40
2.0
 40
2.0
 40
3.0
 40
3.0
 40
3.0
 40
4.0
 40
4.0
 40
4.0
 40
5.0
 40
5.0
 40
5.0
 40
6.0
 40
6.0
 40
6.0
 40
7.0
 40
7.0
 40
7.0
 40
8.0
 40
8.0
 40
8.0
 40
8.0
 10
106.2608696565945
 20
-159.2102647171419
 30
0.0
 10
106.2608696565945
 20
-159.2102647171419
 30
0.0
 10
105.9201497131033
 20
-159.2102647171419
 30
0.0
 10
105.9201497131033
 20
-159.2102647171419
 30
0.0
 10
105.8061170525415
 20
-159.2102647171419
 30
0.0
 10
105.6896728251401
 20
-159.2143988317242
 30
0.0
 10
105.5752956550298
 20
-159.2295572518593
 30
0.0
 10
105.5752956550298
 20
-159.2295572518593
 30
0.0
 10
105.5752956550298
 20
-159.0200954463561
 30
0.0
 10
105.5752956550298
 20
-159.0200954463561
 30
0.0
 10
105.6938069397224
 20
-159.0345648473941
 30
0.0
 10
105.867439752179
 20
-159.039043471525
 30
0.0
 10
105.9201497131033
 20
-159.039043471525
 30
0.0
 10
105.9201497131033
 20
-159.039043471525
 30
0.0
 10
106.2608696565945
 20
-159.039043471525
 30
0.0
 10
106.2608696565945
 20
-159.039043471525
 30
0.0
 10
106.377313883996
 20
-159.039043471525
 30
0.0
 10
106.4934136018489
 20
-159.0345648473941
 30
0.0
 10
106.6098578292503
 20
-159.0200954463561
 30
0.0
 10
106.6098578292503
 20
-159.0200954463561
 30
0.0
 10
106.6098578292503
 20
-159.2295572518593
 30
0.0
 10
106.6098578292503
 20
-159.2295572518593
 30
0.0
 10
106.4596516660934
 20
-159.2102647171419
 30
0.0
 10
106.2756835671811
 20
-159.2102647171419
 30
0.0
 10
106.2608696565945
 20
-159.2102647171419
 30
0.0
  0
HATCH
  5
18E
330
157
100
AcDbEntity
  8
_U+30EC_U+30A4_U+30E4_U+30FC 1
 62
   179
420
  2234388
100
AcDbHatch
 10
0.0
 20
0.0
 30
0.0
210
0.0
220
0.0
230
1.0
  2
SOLID
 70
     1
 71
     0
 91
        2
 92
        1
 93
        1
 72
     4
 94
        3
 73
     0
 74
     1
 95
       50
 96
       46
 40
0.0
 40
0.0
 40
0.0
 40
0.0
 40
1.0
 40
1.0
 40
1.0
 40
2.0
 40
2.0
 40
2.0
 40
3.0
 40
3.0
 40
3.0
 40
4.0
 40
4.0
 40
4.0
 40
5.0
 40
5.0
 40
5.0
 40
6.0
 40
6.0
 40
6.0
 40
7.0
 40
7.0
 40
7.0
 40
8.0
 40
8.0
 40
8.0
 40
9.0
 40
9.0
 40
9.0
 40
10.0
 40
10.0
 40
10.0
 40
11.0
 40
11.0
 40
11.0
 40
12.0
 40
12.0
 40
12.0
 40
13.0
 40
13.0
 40
13.0
 40
14.0
 40
14.0
 40
14.0
 40
15.0
 40
15.0
 40
15.0
 40
15.0
 10
106.7538628205338
 20
-159.8365830763603
 10
106.6753146434701
 20
-160.0143500033992
 10
106.5399223908997
 20
-160.2217447516112
 10
106.4024630810383
 20
-160.3612711187639
 10
106.2333088927125
 20
-160.5324923643808
 10
106.0703558762602
 20
-160.6213758279002
 10
105.7509955247775
 20
-160.7633137618925
 10
105.7509955247775
 20
-160.7633137618925
 10
105.5818413364518
 20
-160.5748670388493
 10
105.5818413364518
 20
-160.5748670388493
 10
105.7678764926553
 20
-160.5517848990982
 10
105.9390977382722
 20
-160.4649684928699
 10
106.0917154682687
 20
-160.3588595519242
 10
106.3538872346963
 20
-160.176958510303
 10
106.5444010150306
 20
-159.8641438402423
 10
106.5929768613726
 20
-159.6822427986211
 10
106.5929768613726
 20
-159.6822427986211
 10
105.9222167703945
 20
-159.6822427986211
 10
105.9222167703945
 20
-159.6822427986211
 10
105.763742378073
 20
-159.6822427986211
 10
105.4715982809238
 20
-159.6905110277857
 10
105.3193250604757
 20
-159.707736505212
 10
105.3193250604757
 20
-159.707736505212
 10
105.3193250604757
 20
-159.4789821649914
 10
105.3193250604757
 20
-159.4789821649914
 10
105.3534315057797
 20
-159.4851833368648
 10
105.378580702822
 20
-159.4917290182868
 10
105.4316351732949
 20
-159.4958631328691
 10
105.5329209805612
 20
-159.5024088142911
 10
105.7299804423175
 20
-159.5044758715822
 10
105.8143852817061
 20
-159.5044758715822
 10
105.8143852817061
 20
-159.5044758715822
 10
106.3201252989408
 20
-159.5044758715822
 10
106.3201252989408
 20
-159.5044758715822
 10
106.3876491704517
 20
-159.5044758715822
 10
106.5337212190263
 20
-159.5003417569999
 10
106.5950439186637
 20
-159.493796075578
 10
106.6670464143055
 20
-159.4851833368648
 10
106.6946071781875
 20
-159.4707139358268
 10
106.7283691139429
 20
-159.4472872865271
 10
106.7283691139429
 20
-159.4472872865271
 10
106.8933891876864
 20
-159.6143744175617
 10
106.8933891876864
 20
-159.6143744175617
 10
106.8234537493358
 20
-159.6822427986211
 10
106.7769449602849
 20
-159.7855956631786
 10
106.7538628205338
 20
-159.8365830763603
 97
        0
 97
        0
 92
        1
 93
        1
 72
     4
 94
        3
 73
     0
 74
     1
 95
       29
 96
       25
 40
0.0
 40
0.0
 40
0.0
 40
0.0
 40
1.0
 40
1.0
 40
1.0
 40
2.0
 40
2.0
 40
2.0
 40
3.0
 40
3.0
 40
3.0
 40
4.0
 40
4.0
 40
4.0
 40
5.0
 40
5.0
 40
5.0
 40
6.0
 40
6.0
 40
6.0
 40
7.0
 40
7.0
 40
7.0
 40
8.0
 40
8.0
 40
8.0
 40
8.0
 10
106.2608696565945
 20
-159.2102647171419
 10
106.2608696565945
 20
-159.2102647171419
 10
105.9201497131033
 20
-159.2102647171419
 10
105.9201497131033
 20
-159.2102647171419
 10
105.8061170525415
 20
-159.2102647171419
 10
105.6896728251401
 20
-159.2143988317242
 10
105.5752956550298
 20
-159.2295572518593
 10
105.5752956550298
 20
-159.2295572518593
 10
105.5752956550298
 20
-159.0200954463561
 10
105.5752956550298
 20
-159.0200954463561
 10
105.6938069397224
 20
-159.0345648473941
 10
105.867439752179
 20
-159.039043471525
 10
105.9201497131033
 20
-159.039043471525
 10
105.9201497131033
 20
-159.039043471525
 10
106.2608696565945
 20
-159.039043471525
 10
106.2608696565945
 20
-159.039043471525
 10
106.377313883996
 20
-159.039043471525
 10
106.4934136018489
 20
-159.0345648473941
 10
106.6098578292503
 20
-159.0200954463561
 10
106.6098578292503
 20
-159.0200954463561
 10
106.6098578292503
 20
-159.2295572518593
 10
106.6098578292503
 20
-159.2295572518593
 10
106.4596516660934
 20
-159.2102647171419
 10
106.2756835671811
 20
-159.2102647171419
 10
106.2608696565945
 20
-159.2102647171419
 97
        0
 97
        0
 75
     2
 76
     1
 98
        0
  0
SPLINE
  5
18F
330
157
100
AcDbEntity
  8
_U+30EC_U+30A4_U+30E4_U+30FC 1
370
     0
100
AcDbSpline
210
0.0
220
0.0
230
1.0
 70
    11
 71
     3
 72
    50
 73
    46
 74
     0
 42
0.0000000001
 43
0.0000000001
 12
1.0
 22
0.0
 32
0.0
 13
1.0
 23
0.0
 33
0.0
 40
0.0
 40
0.0
 40
0.0
 40
0.0
 40
1.0
 40
1.0
 40
1.0
 40
2.0
 40
2.0
 40
2.0
 40
3.0
 40
3.0
 40
3.0
 40
4.0
 40
4.0
 40
4.0
 40
5.0
 40
5.0
 40
5.0
 40
6.0
 40
6.0
 40
6.0
 40
7.0
 40
7.0
 40
7.0
 40
8.0
 40
8.0
 40
8.0
 40
9.0
 40
9.0
 40
9.0
 40
10.0
 40
10.0
 40
10.0
 40
11.0
 40
11.0
 40
11.0
 40
12.0
 40
12.0
 40
12.0
 40
13.0
 40
13.0
 40
13.0
 40
14.0
 40
14.0
 40
14.0
 40
15.0
 40
15.0
 40
15.0
 40
15.0
 10
108.4640082194118
 20
-159.1957953161038
 30
0.0
 10
108.2545464139086
 20
-159.4093912361893
 30
0.0
 10
108.1828884278154
 20
-159.4810492222825
 30
0.0
 10
108.0409504938231
 20
-159.5995605069751
 30
0.0
 10
108.0409504938231
 20
-159.5995605069751
 30
0.0
 10
108.0409504938231
 20
-160.1666232238472
 30
0.0
 10
108.0409504938231
 20
-160.1666232238472
 30
0.0
 10
108.0409504938231
 20
-160.3168293870041
 30
0.0
 10
108.0474961752451
 20
-160.335777412173
 30
0.0
 10
108.0516302898274
 20
-160.5135443392119
 30
0.0
 10
108.0536973471185
 20
-160.6448024771999
 30
0.0
 10
108.059898518992
 20
-160.6933783235419
 30
0.0
 10
108.066444200414
 20
-160.7526339658882
 30
0.0
 10
108.066444200414
 20
-160.7526339658882
 30
0.0
 10
107.840101427033
 20
-160.7526339658882
 30
0.0
 10
107.840101427033
 20
-160.7526339658882
 30
0.0
 10
107.8442355416153
 20
-160.7081922341285
 30
0.0
 10
107.8483696561976
 20
-160.6613389355291
 30
0.0
 10
107.8483696561976
 20
-160.6530707063645
 30
0.0
 10
107.8483696561976
 20
-160.5727999815582
 30
0.0
 10
107.8528482803285
 20
-160.2217447516112
 30
0.0
 10
107.8528482803285
 20
-160.149397746421
 30
0.0
 10
107.8528482803285
 20
-160.149397746421
 30
0.0
 10
107.8528482803285
 20
-159.7435654982586
 30
0.0
 10
107.8528482803285
 20
-159.7435654982586
 30
0.0
 10
107.6709472387073
 20
-159.8682779548246
 30
0.0
 10
107.4762993437907
 20
-159.9785210103526
 30
0.0
 10
107.2730387101609
 20
-160.0649929070324
 30
0.0
 10
107.2730387101609
 20
-160.0649929070324
 30
0.0
 10
107.0701225860797
 20
-159.9020398905801
 30
0.0
 10
107.0701225860797
 20
-159.9020398905801
 30
0.0
 10
107.1927679853546
 20
-159.8662108975334
 30
0.0
 10
107.4487385799086
 20
-159.7921413446006
 30
0.0
 10
107.7935926379822
 20
-159.5361707500465
 30
0.0
 10
108.0092556153588
 20
-159.377696357725
 30
0.0
 10
108.2018364529843
 20
-159.1892496346819
 30
0.0
 10
108.3541096734323
 20
-158.9691080331744
 30
0.0
 10
108.3541096734323
 20
-158.9691080331744
 30
0.0
 10
108.5466905110578
 20
-159.1131130244578
 30
0.0
 10
108.5466905110578
 20
-159.1131130244578
 30
0.0
 10
108.5594373643532
 20
-159.1234483109136
 30
0.0
 10
108.5677055935178
 20
-159.1386067310487
 30
0.0
 10
108.5677055935178
 20
-159.1510090747956
 30
0.0
 10
108.5677055935178
 20
-159.191316691973
 30
0.0
 10
108.5298095431801
 20
-159.191316691973
 30
0.0
 10
108.4640082194118
 20
-159.1957953161038
 30
0.0
  0
HATCH
  5
190
330
157
100
AcDbEntity
  8
_U+30EC_U+30A4_U+30E4_U+30FC 1
 62
   179
420
  2234388
100
AcDbHatch
 10
0.0
 20
0.0
 30
0.0
210
0.0
220
0.0
230
1.0
  2
SOLID
 70
     1
 71
     0
 91
        1
 92
        1
 93
        1
 72
     4
 94
        3
 73
     0
 74
     1
 95
       50
 96
       46
 40
0.0
 40
0.0
 40
0.0
 40
0.0
 40
1.0
 40
1.0
 40
1.0
 40
2.0
 40
2.0
 40
2.0
 40
3.0
 40
3.0
 40
3.0
 40
4.0
 40
4.0
 40
4.0
 40
5.0
 40
5.0
 40
5.0
 40
6.0
 40
6.0
 40
6.0
 40
7.0
 40
7.0
 40
7.0
 40
8.0
 40
8.0
 40
8.0
 40
9.0
 40
9.0
 40
9.0
 40
10.0
 40
10.0
 40
10.0
 40
11.0
 40
11.0
 40
11.0
 40
12.0
 40
12.0
 40
12.0
 40
13.0
 40
13.0
 40
13.0
 40
14.0
 40
14.0
 40
14.0
 40
15.0
 40
15.0
 40
15.0
 40
15.0
 10
108.4640082194118
 20
-159.1957953161038
 10
108.2545464139086
 20
-159.4093912361893
 10
108.1828884278154
 20
-159.4810492222825
 10
108.0409504938231
 20
-159.5995605069751
 10
108.0409504938231
 20
-159.5995605069751
 10
108.0409504938231
 20
-160.1666232238472
 10
108.0409504938231
 20
-160.1666232238472
 10
108.0409504938231
 20
-160.3168293870041
 10
108.0474961752451
 20
-160.335777412173
 10
108.0516302898274
 20
-160.5135443392119
 10
108.0536973471185
 20
-160.6448024771999
 10
108.059898518992
 20
-160.6933783235419
 10
108.066444200414
 20
-160.7526339658882
 10
108.066444200414
 20
-160.7526339658882
 10
107.840101427033
 20
-160.7526339658882
 10
107.840101427033
 20
-160.7526339658882
 10
107.8442355416153
 20
-160.7081922341285
 10
107.8483696561976
 20
-160.6613389355291
 10
107.8483696561976
 20
-160.6530707063645
 10
107.8483696561976
 20
-160.5727999815582
 10
107.8528482803285
 20
-160.2217447516112
 10
107.8528482803285
 20
-160.149397746421
 10
107.8528482803285
 20
-160.149397746421
 10
107.8528482803285
 20
-159.7435654982586
 10
107.8528482803285
 20
-159.7435654982586
 10
107.6709472387073
 20
-159.8682779548246
 10
107.4762993437907
 20
-159.9785210103526
 10
107.2730387101609
 20
-160.0649929070324
 10
107.2730387101609
 20
-160.0649929070324
 10
107.0701225860797
 20
-159.9020398905801
 10
107.0701225860797
 20
-159.9020398905801
 10
107.1927679853546
 20
-159.8662108975334
 10
107.4487385799086
 20
-159.7921413446006
 10
107.7935926379822
 20
-159.5361707500465
 10
108.0092556153588
 20
-159.377696357725
 10
108.2018364529843
 20
-159.1892496346819
 10
108.3541096734323
 20
-158.9691080331744
 10
108.3541096734323
 20
-158.9691080331744
 10
108.5466905110578
 20
-159.1131130244578
 10
108.5466905110578
 20
-159.1131130244578
 10
108.5594373643532
 20
-159.1234483109136
 10
108.5677055935178
 20
-159.1386067310487
 10
108.5677055935178
 20
-159.1510090747956
 10
108.5677055935178
 20
-159.191316691973
 10
108.5298095431801
 20
-159.191316691973
 10
108.4640082194118
 20
-159.1957953161038
 97
        0
 97
        0
 75
     2
 76
     1
 98
        0
  0
SPLINE
  5
191
330
157
100
AcDbEntity
  8
_U+30EC_U+30A4_U+30E4_U+30FC 1
370
     0
100
AcDbSpline
210
0.0
220
0.0
230
1.0
 70
    11
 71
     3
 72
    50
 73
    46
 74
     0
 42
0.0000000001
 43
0.0000000001
 12
1.0
 22
0.0
 32
0.0
 13
1.0
 23
0.0
 33
0.0
 40
0.0
 40
0.0
 40
0.0
 40
0.0
 40
1.0
 40
1.0
 40
1.0
 40
2.0
 40
2.0
 40
2.0
 40
3.0
 40
3.0
 40
3.0
 40
4.0
 40
4.0
 40
4.0
 40
5.0
 40
5.0
 40
5.0
 40
6.0
 40
6.0
 40
6.0
 40
7.0
 40
7.0
 40
7.0
 40
8.0
 40
8.0
 40
8.0
 40
9.0
 40
9.0
 40
9.0
 40
10.0
 40
10.0
 40
10.0
 40
11.0
 40
11.0
 40
11.0
 40
12.0
 40
12.0
 40
12.0
 40
13.0
 40
13.0
 40
13.0
 40
14.0
 40
14.0
 40
14.0
 40
15.0
 40
15.0
 40
15.0
 40
15.0
 10
110.1724310705472
 20
-159.72220590625
 30
0.0
 10
110.1111083709097
 20
-159.7942084018917
 30
0.0
 10
109.8506591522248
 20
-160.1115016960833
 30
0.0
 10
109.7938150767182
 20
-160.1748914530118
 30
0.0
 10
109.8782199161068
 20
-160.2723876552444
 30
0.0
 10
109.9292073292885
 20
-160.335777412173
 30
0.0
 10
109.9946641435083
 20
-160.4267279329836
 30
0.0
 10
109.9946641435083
 20
-160.4267279329836
 30
0.0
 10
109.8106960445959
 20
-160.5641872428451
 30
0.0
 10
109.8106960445959
 20
-160.5641872428451
 30
0.0
 10
109.6753037920256
 20
-160.3526583800507
 30
0.0
 10
109.5037380368602
 20
-160.1287271735095
 30
0.0
 10
109.2098713919684
 20
-159.9296006544621
 30
0.0
 10
109.2098713919684
 20
-159.9296006544621
 30
0.0
 10
109.3580104978341
 20
-159.7752603767229
 30
0.0
 10
109.3580104978341
 20
-159.7752603767229
 30
0.0
 10
109.4679090438136
 20
-159.8555311015292
 30
0.0
 10
109.5716064179196
 20
-159.9444145650486
 30
0.0
 10
109.6687581106036
 20
-160.03984370999
 30
0.0
 10
109.7366264916631
 20
-159.9633625902175
 30
0.0
 10
109.9395426157443
 20
-159.7201388489589
 30
0.0
 10
110.0728678110235
 20
-159.4917290182868
 30
0.0
 10
110.0728678110235
 20
-159.4917290182868
 30
0.0
 10
109.4000406627542
 20
-159.4917290182868
 30
0.0
 10
109.4000406627542
 20
-159.4917290182868
 30
0.0
 10
109.2753282061881
 20
-159.4917290182868
 30
0.0
 10
109.0234917262163
 20
-159.5003417569999
 30
0.0
 10
108.8140299207132
 20
-159.5106770434557
 30
0.0
 10
108.8140299207132
 20
-159.5106770434557
 30
0.0
 10
108.8140299207132
 20
-159.2908799514967
 30
0.0
 10
108.8140299207132
 20
-159.2908799514967
 30
0.0
 10
108.998342529174
 20
-159.3098279766656
 30
0.0
 10
109.2033257105464
 20
-159.3139620912479
 30
0.0
 10
109.3917724335896
 20
-159.3139620912479
 30
0.0
 10
109.3917724335896
 20
-159.3139620912479
 30
0.0
 10
109.8951008839846
 20
-159.3139620912479
 30
0.0
 10
109.8951008839846
 20
-159.3139620912479
 30
0.0
 10
110.2337537701846
 20
-159.3139620912479
 30
0.0
 10
110.2781955019443
 20
-159.2991481806613
 30
0.0
 10
110.3605332840418
 20
-159.2591850730324
 30
0.0
 10
110.3605332840418
 20
-159.2591850730324
 30
0.0
 10
110.5276204150764
 20
-159.4176594653539
 30
0.0
 10
110.5276204150764
 20
-159.4176594653539
 30
0.0
 10
110.3753471946284
 20
-159.4896619609956
 30
0.0
 10
110.2316867128935
 20
-159.652614977448
 30
0.0
 10
110.1724310705472
 20
-159.72220590625
 30
0.0
  0
HATCH
  5
192
330
157
100
AcDbEntity
  8
_U+30EC_U+30A4_U+30E4_U+30FC 1
 62
   179
420
  2234388
100
AcDbHatch
 10
0.0
 20
0.0
 30
0.0
210
0.0
220
0.0
230
1.0
  2
SOLID
 70
     1
 71
     0
 91
        1
 92
        1
 93
        1
 72
     4
 94
        3
 73
     0
 74
     1
 95
       50
 96
       46
 40
0.0
 40
0.0
 40
0.0
 40
0.0
 40
1.0
 40
1.0
 40
1.0
 40
2.0
 40
2.0
 40
2.0
 40
3.0
 40
3.0
 40
3.0
 40
4.0
 40
4.0
 40
4.0
 40
5.0
 40
5.0
 40
5.0
 40
6.0
 40
6.0
 40
6.0
 40
7.0
 40
7.0
 40
7.0
 40
8.0
 40
8.0
 40
8.0
 40
9.0
 40
9.0
 40
9.0
 40
10.0
 40
10.0
 40
10.0
 40
11.0
 40
11.0
 40
11.0
 40
12.0
 40
12.0
 40
12.0
 40
13.0
 40
13.0
 40
13.0
 40
14.0
 40
14.0
 40
14.0
 40
15.0
 40
15.0
 40
15.0
 40
15.0
 10
110.1724310705472
 20
-159.72220590625
 10
110.1111083709097
 20
-159.7942084018917
 10
109.8506591522248
 20
-160.1115016960833
 10
109.7938150767182
 20
-160.1748914530118
 10
109.8782199161068
 20
-160.2723876552444
 10
109.9292073292885
 20
-160.335777412173
 10
109.9946641435083
 20
-160.4267279329836
 10
109.9946641435083
 20
-160.4267279329836
 10
109.8106960445959
 20
-160.5641872428451
 10
109.8106960445959
 20
-160.5641872428451
 10
109.6753037920256
 20
-160.3526583800507
 10
109.5037380368602
 20
-160.1287271735095
 10
109.2098713919684
 20
-159.9296006544621
 10
109.2098713919684
 20
-159.9296006544621
 10
109.3580104978341
 20
-159.7752603767229
 10
109.3580104978341
 20
-159.7752603767229
 10
109.4679090438136
 20
-159.8555311015292
 10
109.5716064179196
 20
-159.9444145650486
 10
109.6687581106036
 20
-160.03984370999
 10
109.7366264916631
 20
-159.9633625902175
 10
109.9395426157443
 20
-159.7201388489589
 10
110.0728678110235
 20
-159.4917290182868
 10
110.0728678110235
 20
-159.4917290182868
 10
109.4000406627542
 20
-159.4917290182868
 10
109.4000406627542
 20
-159.4917290182868
 10
109.2753282061881
 20
-159.4917290182868
 10
109.0234917262163
 20
-159.5003417569999
 10
108.8140299207132
 20
-159.5106770434557
 10
108.8140299207132
 20
-159.5106770434557
 10
108.8140299207132
 20
-159.2908799514967
 10
108.8140299207132
 20
-159.2908799514967
 10
108.998342529174
 20
-159.3098279766656
 10
109.2033257105464
 20
-159.3139620912479
 10
109.3917724335896
 20
-159.3139620912479
 10
109.3917724335896
 20
-159.3139620912479
 10
109.8951008839846
 20
-159.3139620912479
 10
109.8951008839846
 20
-159.3139620912479
 10
110.2337537701846
 20
-159.3139620912479
 10
110.2781955019443
 20
-159.2991481806613
 10
110.3605332840418
 20
-159.2591850730324
 10
110.3605332840418
 20
-159.2591850730324
 10
110.5276204150764
 20
-159.4176594653539
 10
110.5276204150764
 20
-159.4176594653539
 10
110.3753471946284
 20
-159.4896619609956
 10
110.2316867128935
 20
-159.652614977448
 10
110.1724310705472
 20
-159.72220590625
 97
        0
 97
        0
 75
     2
 76
     1
 98
        0
  0
SPLINE
  5
193
330
157
100
AcDbEntity
  8
_U+30EC_U+30A4_U+30E4_U+30FC 1
370
     0
100
AcDbSpline
210
0.0
220
0.0
230
1.0
 70
    11
 71
     3
 72
    29
 73
    25
 74
     0
 42
0.0000000001
 43
0.0000000001
 12
1.0
 22
0.0
 32
0.0
 13
1.0
 23
0.0
 33
0.0
 40
0.0
 40
0.0
 40
0.0
 40
0.0
 40
1.0
 40
1.0
 40
1.0
 40
2.0
 40
2.0
 40
2.0
 40
3.0
 40
3.0
 40
3.0
 40
4.0
 40
4.0
 40
4.0
 40
5.0
 40
5.0
 40
5.0
 40
6.0
 40
6.0
 40
6.0
 40
7.0
 40
7.0
 40
7.0
 40
8.0
 40
8.0
 40
8.0
 40
8.0
 10
111.7957600631969
 20
-159.9654296475086
 30
0.0
 10
111.7957600631969
 20
-159.9654296475086
 30
0.0
 10
111.3113796379708
 20
-159.9654296475086
 30
0.0
 10
111.3113796379708
 20
-159.9654296475086
 30
0.0
 10
111.2838188740888
 20
-159.9654296475086
 30
0.0
 10
110.9665255798973
 20
-159.9654296475086
 30
0.0
 10
110.7549967171029
 20
-159.9909233540995
 30
0.0
 10
110.7549967171029
 20
-159.9909233540995
 30
0.0
 10
110.7549967171029
 20
-159.7604464661363
 30
0.0
 10
110.7549967171029
 20
-159.7604464661363
 30
0.0
 10
110.9134711094244
 20
-159.7835286058875
 30
0.0
 10
111.1039848897587
 20
-159.7855956631786
 30
0.0
 10
111.3113796379708
 20
-159.7855956631786
 30
0.0
 10
111.3113796379708
 20
-159.7855956631786
 30
0.0
 10
111.7957600631969
 20
-159.7855956631786
 30
0.0
 10
111.7957600631969
 20
-159.7855956631786
 30
0.0
 10
111.9817952194004
 20
-159.7855956631786
 30
0.0
 10
112.1681748851524
 20
-159.7835286058875
 30
0.0
 10
112.3521429840647
 20
-159.7604464661363
 30
0.0
 10
112.3521429840647
 20
-159.7604464661363
 30
0.0
 10
112.3521429840647
 20
-159.9909233540995
 30
0.0
 10
112.3521429840647
 20
-159.9909233540995
 30
0.0
 10
112.1681748851524
 20
-159.9674967047998
 30
0.0
 10
111.9204725197629
 20
-159.9654296475086
 30
0.0
 10
111.7957600631969
 20
-159.9654296475086
 30
0.0
  0
HATCH
  5
194
330
157
100
AcDbEntity
  8
_U+30EC_U+30A4_U+30E4_U+30FC 1
 62
   179
420
  2234388
100
AcDbHatch
 10
0.0
 20
0.0
 30
0.0
210
0.0
220
0.0
230
1.0
  2
SOLID
 70
     1
 71
     0
 91
        1
 92
        1
 93
        1
 72
     4
 94
        3
 73
     0
 74
     1
 95
       29
 96
       25
 40
0.0
 40
0.0
 40
0.0
 40
0.0
 40
1.0
 40
1.0
 40
1.0
 40
2.0
 40
2.0
 40
2.0
 40
3.0
 40
3.0
 40
3.0
 40
4.0
 40
4.0
 40
4.0
 40
5.0
 40
5.0
 40
5.0
 40
6.0
 40
6.0
 40
6.0
 40
7.0
 40
7.0
 40
7.0
 40
8.0
 40
8.0
 40
8.0
 40
8.0
 10
111.7957600631969
 20
-159.9654296475086
 10
111.7957600631969
 20
-159.9654296475086
 10
111.3113796379708
 20
-159.9654296475086
 10
111.3113796379708
 20
-159.9654296475086
 10
111.2838188740888
 20
-159.9654296475086
 10
110.9665255798973
 20
-159.9654296475086
 10
110.7549967171029
 20
-159.9909233540995
 10
110.7549967171029
 20
-159.9909233540995
 10
110.7549967171029
 20
-159.7604464661363
 10
110.7549967171029
 20
-159.7604464661363
 10
110.9134711094244
 20
-159.7835286058875
 10
111.1039848897587
 20
-159.7855956631786
 10
111.3113796379708
 20
-159.7855956631786
 10
111.3113796379708
 20
-159.7855956631786
 10
111.7957600631969
 20
-159.7855956631786
 10
111.7957600631969
 20
-159.7855956631786
 10
111.9817952194004
 20
-159.7855956631786
 10
112.1681748851524
 20
-159.7835286058875
 10
112.3521429840647
 20
-159.7604464661363
 10
112.3521429840647
 20
-159.7604464661363
 10
112.3521429840647
 20
-159.9909233540995
 10
112.3521429840647
 20
-159.9909233540995
 10
112.1681748851524
 20
-159.9674967047998
 10
111.9204725197629
 20
-159.9654296475086
 10
111.7957600631969
 20
-159.9654296475086
 97
        0
 97
        0
 75
     2
 76
     1
 98
        0
  0
ENDBLK
  5
15A
330
157
100
AcDbEntity
  8
0
100
AcDbBlockEnd
  0
ENDSEC
  0
SECTION
  2
ENTITIES
  0
POLYLINE
  5
41
330
1F
100
AcDbEntity
  8
_U+30EC_U+30A4_U+30E4_U+30FC 1
 62
   179
420
  2234388
370
    25
100
AcDb2dPolyline
 66
     1
 10
0.0
 20
0.0
 30
0.0
  0
VERTEX
  5
42
330
41
100
AcDbEntity
  8
_U+30EC_U+30A4_U+30E4_U+30FC 1
 62
   179
420
  2234388
370
    25
100
AcDbVertex
100
AcDb2dVertex
 10
73.96550553706425
 20
-154.4412074613895
 30
0.0
  0
VERTEX
  5
43
330
41
100
AcDbEntity
  8
_U+30EC_U+30A4_U+30E4_U+30FC 1
 62
   179
420
  2234388
370
    25
100
AcDbVertex
100
AcDb2dVertex
 10
92.96554985047345
 20
-154.4412074613895
 30
0.0
  0
SEQEND
  5
44
330
41
100
AcDbEntity
  8
_U+30EC_U+30A4_U+30E4_U+30FC 1
 62
   179
420
  2234388
370
    25
  0
POLYLINE
  5
45
330
1F
100
AcDbEntity
  8
_U+30EC_U+30A4_U+30E4_U+30FC 1
 62
   179
420
  2234388
370
    25
100
AcDb2dPolyline
 66
     1
 10
0.0
 20
0.0
 30
0.0
  0
VERTEX
  5
46
330
45
100
AcDbEntity
  8
_U+30EC_U+30A4_U+30E4_U+30FC 1
 62
   179
420
  2234388
370
    25
100
AcDbVertex
100
AcDb2dVertex
 10
90.96568795704974
 20
-95.44102914280651
 30
0.0
  0
VERTEX
  5
47
330
45
100
AcDbEntity
  8
_U+30EC_U+30A4_U+30E4_U+30FC 1
 62
   179
420
  2234388
370
    25
100
AcDbVertex
100
AcDb2dVertex
 10
91.96546015376565
 20
-95.44102914280651
 30
0.0
  0
SEQEND
  5
48
330
45
100
AcDbEntity
  8
_U+30EC_U+30A4_U+30E4_U+30FC 1
 62
   179
420
  2234388
370
    25
  0
POLYLINE
  5
49
330
1F
100
AcDbEntity
  8
_U+30EC_U+30A4_U+30E4_U+30FC 1
 62
   179
420
  2234388
370
    25
100
AcDb2dPolyline
 66
     1
 10
0.0
 20
0.0
 30
0.0
  0
VERTEX
  5
4A
330
49
100
AcDbEntity
  8
_U+30EC_U+30A4_U+30E4_U+30FC 1
 62
   179
420
  2234388
370
    25
100
AcDbVertex
100
AcDb2dVertex
 10
73.96550553706425
 20
-134.441071077501
 30
0.0
  0
VERTEX
  5
4B
330
49
100
AcDbEntity
  8
_U+30EC_U+30A4_U+30E4_U+30FC 1
 62
   179
420
  2234388
370
    25
100
AcDbVertex
100
AcDb2dVertex
 10
73.96550553706425
 20
-154.4412074613895
 30
0.0
  0
SEQEND
  5
4C
330
49
100
AcDbEntity
  8
_U+30EC_U+30A4_U+30E4_U+30FC 1
 62
   179
420
  2234388
370
    25
  0
POLYLINE
  5
4D
330
1F
100
AcDbEntity
  8
_U+30EC_U+30A4_U+30E4_U+30FC 1
 62
   179
420
  2234388
370
    25
100
AcDb2dPolyline
 66
     1
 10
0.0
 20
0.0
 30
0.0
  0
VERTEX
  5
4E
330
4D
100
AcDbEntity
  8
_U+30EC_U+30A4_U+30E4_U+30FC 1
 62
   179
420
  2234388
370
    25
100
AcDbVertex
100
AcDb2dVertex
 10
92.96554985047345
 20
-150.4414482957232
 30
0.0
  0
VERTEX
  5
4F
330
4D
100
AcDbEntity
  8
_U+30EC_U+30A4_U+30E4_U+30FC 1
 62
   179
420
  2234388
370
    25
100
AcDbVertex
100
AcDb2dVertex
 10
92.96554985047345
 20
-154.4412074613895
 30
0.0
  0
SEQEND
  5
50
330
4D
100
AcDbEntity
  8
_U+30EC_U+30A4_U+30E4_U+30FC 1
 62
   179
420
  2234388
370
    25
  0
POLYLINE
  5
51
330
1F
100
AcDbEntity
  8
_U+30EC_U+30A4_U+30E4_U+30FC 1
 62
   179
420
  2234388
370
    25
100
AcDb2dPolyline
 66
     1
 10
0.0
 20
0.0
 30
0.0
  0
VERTEX
  5
52
330
51
100
AcDbEntity
  8
_U+30EC_U+30A4_U+30E4_U+30FC 1
 62
   179
420
  2234388
370
    25
100
AcDbVertex
100
AcDb2dVertex
 10
88.96543800808037
 20
-150.4414482957232
 30
0.0
  0
VERTEX
  5
53
330
51
100
AcDbEntity
  8
_U+30EC_U+30A4_U+30E4_U+30FC 1
 62
   179
420
  2234388
370
    25
100
AcDbVertex
100
AcDb2dVertex
 10
92.96554985047345
 20
-150.4414482957232
 30
0.0
  0
SEQEND
  5
54
330
51
100
AcDbEntity
  8
_U+30EC_U+30A4_U+30E4_U+30FC 1
 62
   179
420
  2234388
370
    25
  0
POLYLINE
  5
55
330
1F
100
AcDbEntity
  8
_U+30EC_U+30A4_U+30E4_U+30FC 1
 62
   179
420
  2234388
370
    25
100
AcDb2dPolyline
 66
     1
 10
0.0
 20
0.0
 30
0.0
  0
VERTEX
  5
56
330
55
100
AcDbEntity
  8
_U+30EC_U+30A4_U+30E4_U+30FC 1
 62
   179
420
  2234388
370
    25
100
AcDbVertex
100
AcDb2dVertex
 10
91.96546015376565
 20
-151.4412205176951
 30
0.0
  0
VERTEX
  5
57
330
55
100
AcDbEntity
  8
_U+30EC_U+30A4_U+30E4_U+30FC 1
 62
   179
420
  2234388
370
    25
100
AcDbVertex
100
AcDb2dVertex
 10
91.96546015376565
 20
-153.4414352394176
 30
0.0
  0
SEQEND
  5
58
330
55
100
AcDbEntity
  8
_U+30EC_U+30A4_U+30E4_U+30FC 1
 62
   179
420
  2234388
370
    25
  0
POLYLINE
  5
59
330
1F
100
AcDbEntity
  8
_U+30EC_U+30A4_U+30E4_U+30FC 1
 62
   179
420
  2234388
370
    25
100
AcDb2dPolyline
 66
     1
 10
0.0
 20
0.0
 30
0.0
  0
VERTEX
  5
5A
330
59
100
AcDbEntity
  8
_U+30EC_U+30A4_U+30E4_U+30FC 1
 62
   179
420
  2234388
370
    25
100
AcDbVertex
100
AcDb2dVertex
 10
88.96543800808037
 20
-150.4414482957232
 30
0.0
  0
VERTEX
  5
5B
330
59
100
AcDbEntity
  8
_U+30EC_U+30A4_U+30E4_U+30FC 1
 62
   179
420
  2234388
370
    25
100
AcDbVertex
100
AcDb2dVertex
 10
88.96543800808037
 20
-151.4412205176951
 30
0.0
  0
SEQEND
  5
5C
330
59
100
AcDbEntity
  8
_U+30EC_U+30A4_U+30E4_U+30FC 1
 62
   179
420
  2234388
370
    25
  0
POLYLINE
  5
5D
330
1F
100
AcDbEntity
  8
_U+30EC_U+30A4_U+30E4_U+30FC 1
 62
   179
420
  2234388
370
    25
100
AcDb2dPolyline
 66
     1
 10
0.0
 20
0.0
 30
0.0
  0
VERTEX
  5
5E
330
5D
100
AcDbEntity
  8
_U+30EC_U+30A4_U+30E4_U+30FC 1
 62
   179
420
  2234388
370
    25
100
AcDbVertex
100
AcDb2dVertex
 10
88.96543800808037
 20
-151.4412205176951
 30
0.0
  0
VERTEX
  5
5F
330
5D
100
AcDbEntity
  8
_U+30EC_U+30A4_U+30E4_U+30FC 1
 62
   179
420
  2234388
370
    25
100
AcDbVertex
100
AcDb2dVertex
 10
91.96546015376565
 20
-151.4412205176951
 30
0.0
  0
SEQEND
  5
60
330
5D
100
AcDbEntity
  8
_U+30EC_U+30A4_U+30E4_U+30FC 1
 62
   179
420
  2234388
370
    25
  0
POLYLINE
  5
61
330
1F
100
AcDbEntity
  8
_U+30EC_U+30A4_U+30E4_U+30FC 1
 62
   179
420
  2234388
370
    25
100
AcDb2dPolyline
 66
     1
 10
0.0
 20
0.0
 30
0.0
  0
VERTEX
  5
62
330
61
100
AcDbEntity
  8
_U+30EC_U+30A4_U+30E4_U+30FC 1
 62
   179
420
  2234388
370
    25
100
AcDbVertex
100
AcDb2dVertex
 10
74.96527775903647
 20
-153.4414352394176
 30
0.0
  0
VERTEX
  5
63
330
61
100
AcDbEntity
  8
_U+30EC_U+30A4_U+30E4_U+30FC 1
 62
   179
420
  2234388
370
    25
100
AcDbVertex
100
AcDb2dVertex
 10
91.96546015376565
 20
-153.4414352394176
 30
0.0
  0
SEQEND
  5
64
330
61
100
AcDbEntity
  8
_U+30EC_U+30A4_U+30E4_U+30FC 1
 62
   179
420
  2234388
370
    25
  0
POLYLINE
  5
65
330
1F
100
AcDbEntity
  8
_U+30EC_U+30A4_U+30E4_U+30FC 1
 62
   179
420
  2234388
370
    25
100
AcDb2dPolyline
 66
     1
 10
0.0
 20
0.0
 30
0.0
  0
VERTEX
  5
66
330
65
100
AcDbEntity
  8
_U+30EC_U+30A4_U+30E4_U+30FC 1
 62
   179
420
  2234388
370
    25
100
AcDbVertex
100
AcDb2dVertex
 10
74.96527775903647
 20
-140.4410449648897
 30
0.0
  0
VERTEX
  5
67
330
65
100
AcDbEntity
  8
_U+30EC_U+30A4_U+30E4_U+30FC 1
 62
   179
420
  2234388
370
    25
100
AcDbVertex
100
AcDb2dVertex
 10
74.96527775903647
 20
-153.4414352394176
 30
0.0
  0
SEQEND
  5
68
330
65
100
AcDbEntity
  8
_U+30EC_U+30A4_U+30E4_U+30FC 1
 62
   179
420
  2234388
370
    25
  0
POLYLINE
  5
69
330
1F
100
AcDbEntity
  8
_U+30EC_U+30A4_U+30E4_U+30FC 1
 62
   179
420
  2234388
370
    25
100
AcDb2dPolyline
 66
     1
 10
0.0
 20
0.0
 30
0.0
  0
VERTEX
  5
6A
330
69
100
AcDbEntity
  8
_U+30EC_U+30A4_U+30E4_U+30FC 1
 62
   179
420
  2234388
370
    25
100
AcDbVertex
100
AcDb2dVertex
 10
74.96527775903647
 20
-140.4410449648897
 30
0.0
  0
VERTEX
  5
6B
330
69
100
AcDbEntity
  8
_U+30EC_U+30A4_U+30E4_U+30FC 1
 62
   179
420
  2234388
370
    25
100
AcDbVertex
100
AcDb2dVertex
 10
91.96546015376565
 20
-140.4410449648897
 30
0.0
  0
SEQEND
  5
6C
330
69
100
AcDbEntity
  8
_U+30EC_U+30A4_U+30E4_U+30FC 1
 62
   179
420
  2234388
370
    25
  0
POLYLINE
  5
6D
330
1F
100
AcDbEntity
  8
_U+30EC_U+30A4_U+30E4_U+30FC 1
 62
   179
420
  2234388
370
    25
100
AcDb2dPolyline
 66
     1
 10
0.0
 20
0.0
 30
0.0
  0
VERTEX
  5
6E
330
6D
100
AcDbEntity
  8
_U+30EC_U+30A4_U+30E4_U+30FC 1
 62
   179
420
  2234388
370
    25
100
AcDbVertex
100
AcDb2dVertex
 10
77.96526273316266
 20
-134.441071077501
 30
0.0
  0
VERTEX
  5
6F
330
6D
100
AcDbEntity
  8
_U+30EC_U+30A4_U+30E4_U+30FC 1
 62
   179
420
  2234388
370
    25
100
AcDbVertex
100
AcDb2dVertex
 10
77.96526273316266
 20
-135.4415135772509
 30
0.0
  0
SEQEND
  5
70
330
6D
100
AcDbEntity
  8
_U+30EC_U+30A4_U+30E4_U+30FC 1
 62
   179
420
  2234388
370
    25
  0
POLYLINE
  5
71
330
1F
100
AcDbEntity
  8
_U+30EC_U+30A4_U+30E4_U+30FC 1
 62
   179
420
  2234388
370
    25
100
AcDb2dPolyline
 66
     1
 10
0.0
 20
0.0
 30
0.0
  0
VERTEX
  5
72
330
71
100
AcDbEntity
  8
_U+30EC_U+30A4_U+30E4_U+30FC 1
 62
   179
420
  2234388
370
    25
100
AcDbVertex
100
AcDb2dVertex
 10
73.96550553706425
 20
-134.441071077501
 30
0.0
  0
VERTEX
  5
73
330
71
100
AcDbEntity
  8
_U+30EC_U+30A4_U+30E4_U+30FC 1
 62
   179
420
  2234388
370
    25
100
AcDbVertex
100
AcDb2dVertex
 10
77.96526273316266
 20
-134.441071077501
 30
0.0
  0
SEQEND
  5
74
330
71
100
AcDbEntity
  8
_U+30EC_U+30A4_U+30E4_U+30FC 1
 62
   179
420
  2234388
370
    25
  0
POLYLINE
  5
75
330
1F
100
AcDbEntity
  8
_U+30EC_U+30A4_U+30E4_U+30FC 1
 62
   179
420
  2234388
370
    25
100
AcDb2dPolyline
 66
     1
 10
0.0
 20
0.0
 30
0.0
  0
VERTEX
  5
76
330
75
100
AcDbEntity
  8
_U+30EC_U+30A4_U+30E4_U+30FC 1
 62
   179
420
  2234388
370
    25
100
AcDbVertex
100
AcDb2dVertex
 10
74.96527775903647
 20
-135.4415135772509
 30
0.0
  0
VERTEX
  5
77
330
75
100
AcDbEntity
  8
_U+30EC_U+30A4_U+30E4_U+30FC 1
 62
   179
420
  2234388
370
    25
100
AcDbVertex
100
AcDb2dVertex
 10
77.96526273316266
 20
-135.4415135772509
 30
0.0
  0
SEQEND
  5
78
330
75
100
AcDbEntity
  8
_U+30EC_U+30A4_U+30E4_U+30FC 1
 62
   179
420
  2234388
370
    25
  0
POLYLINE
  5
79
330
1F
100
AcDbEntity
  8
_U+30EC_U+30A4_U+30E4_U+30FC 1
 62
   179
420
  2234388
370
    25
100
AcDb2dPolyline
 66
     1
 10
0.0
 20
0.0
 30
0.0
  0
VERTEX
  5
7A
330
79
100
AcDbEntity
  8
_U+30EC_U+30A4_U+30E4_U+30FC 1
 62
   179
420
  2234388
370
    25
100
AcDbVertex
100
AcDb2dVertex
 10
90.96568795704974
 20
-95.44102914280651
 30
0.0
  0
VERTEX
  5
7B
330
79
100
AcDbEntity
  8
_U+30EC_U+30A4_U+30E4_U+30FC 1
 62
   179
420
  2234388
370
    25
100
AcDbVertex
100
AcDb2dVertex
 10
90.96568795704974
 20
-139.4412727429178
 30
0.0
  0
VERTEX
  5
7C
330
79
100
AcDbEntity
  8
_U+30EC_U+30A4_U+30E4_U+30FC 1
 62
   179
420
  2234388
370
    25
100
AcDbVertex
100
AcDb2dVertex
 10
74.96527775903647
 20
-139.4412727429178
 30
0.0
  0
SEQEND
  5
7D
330
79
100
AcDbEntity
  8
_U+30EC_U+30A4_U+30E4_U+30FC 1
 62
   179
420
  2234388
370
    25
  0
POLYLINE
  5
7E
330
1F
100
AcDbEntity
  8
_U+30EC_U+30A4_U+30E4_U+30FC 1
 62
   179
420
  2234388
370
    25
100
AcDb2dPolyline
 66
     1
 10
0.0
 20
0.0
 30
0.0
  0
VERTEX
  5
7F
330
7E
100
AcDbEntity
  8
_U+30EC_U+30A4_U+30E4_U+30FC 1
 62
   179
420
  2234388
370
    25
100
AcDbVertex
100
AcDb2dVertex
 10
91.96546015376565
 20
-95.44102914280651
 30
0.0
  0
VERTEX
  5
80
330
7E
100
AcDbEntity
  8
_U+30EC_U+30A4_U+30E4_U+30FC 1
 62
   179
420
  2234388
370
    25
100
AcDbVertex
100
AcDb2dVertex
 10
91.96546015376565
 20
-140.4410449648897
 30
0.0
  0
SEQEND
  5
81
330
7E
100
AcDbEntity
  8
_U+30EC_U+30A4_U+30E4_U+30FC 1
 62
   179
420
  2234388
370
    25
  0
POLYLINE
  5
82
330
1F
100
AcDbEntity
  8
_U+30EC_U+30A4_U+30E4_U+30FC 1
 62
   179
420
  2234388
370
    25
100
AcDb2dPolyline
 66
     1
 10
0.0
 20
0.0
 30
0.0
  0
VERTEX
  5
83
330
82
100
AcDbEntity
  8
_U+30EC_U+30A4_U+30E4_U+30FC 1
 62
   179
420
  2234388
370
    25
100
AcDbVertex
100
AcDb2dVertex
 10
74.96527775903647
 20
-135.4415135772509
 30
0.0
  0
VERTEX
  5
84
330
82
100
AcDbEntity
  8
_U+30EC_U+30A4_U+30E4_U+30FC 1
 62
   179
420
  2234388
370
    25
100
AcDbVertex
100
AcDb2dVertex
 10
74.96527775903647
 20
-139.4412727429178
 30
0.0
  0
SEQEND
  5
85
330
82
100
AcDbEntity
  8
_U+30EC_U+30A4_U+30E4_U+30FC 1
 62
   179
420
  2234388
370
    25
  0
POLYLINE
  5
86
330
1F
100
AcDbEntity
  8
_U+30EC_U+30A4_U+30E4_U+30FC 1
 62
   179
420
  2234388
370
     9
100
AcDb2dPolyline
 66
     1
 10
0.0
 20
0.0
 30
0.0
  0
VERTEX
  5
87
330
86
100
AcDbEntity
  8
_U+30EC_U+30A4_U+30E4_U+30FC 1
 62
   179
420
  2234388
370
     9
100
AcDbVertex
100
AcDb2dVertex
 10
92.18111320381944
 20
-103.4481321963602
 30
0.0
  0
VERTEX
  5
88
330
86
100
AcDbEntity
  8
_U+30EC_U+30A4_U+30E4_U+30FC 1
 62
   179
420
  2234388
370
     9
100
AcDbVertex
100
AcDb2dVertex
 10
88.91068689836607
 20
-103.4481321963602
 30
0.0
  0
SEQEND
  5
89
330
86
100
AcDbEntity
  8
_U+30EC_U+30A4_U+30E4_U+30FC 1
 62
   179
420
  2234388
370
     9
  0
POLYLINE
  5
8A
330
1F
100
AcDbEntity
  8
_U+30EC_U+30A4_U+30E4_U+30FC 1
 62
   179
420
  2234388
370
     9
100
AcDb2dPolyline
 66
     1
 10
0.0
 20
0.0
 30
0.0
  0
VERTEX
  5
8B
330
8A
100
AcDbEntity
  8
_U+30EC_U+30A4_U+30E4_U+30FC 1
 62
   179
420
  2234388
370
     9
100
AcDbVertex
100
AcDb2dVertex
 10
94.18097509724315
 20
-103.4481321963602
 30
0.0
  0
VERTEX
  5
8C
330
8A
100
AcDbEntity
  8
_U+30EC_U+30A4_U+30E4_U+30FC 1
 62
   179
420
  2234388
370
     9
100
AcDbVertex
100
AcDb2dVertex
 10
92.18111320381944
 20
-103.4481321963602
 30
0.0
  0
SEQEND
  5
8D
330
8A
100
AcDbEntity
  8
_U+30EC_U+30A4_U+30E4_U+30FC 1
 62
   179
420
  2234388
370
     9
  0
INSERT
  5
8F
330
1F
100
AcDbEntity
  8
_U+30EC_U+30A4_U+30E4_U+30FC 1
100
AcDbBlockReference
  2
block 2
 10
0.0
 20
0.0
 30
0.0
  0
POLYLINE
  5
94
330
1F
100
AcDbEntity
  8
_U+30EC_U+30A4_U+30E4_U+30FC 1
  6
AI-Linetype-1
 62
   154
420
    23468
370
    25
100
AcDb2dPolyline
 66
     1
 10
0.0
 20
0.0
 30
0.0
  0
VERTEX
  5
95
330
94
100
AcDbEntity
  8
_U+30EC_U+30A4_U+30E4_U+30FC 1
  6
AI-Linetype-1
 62
   154
420
    23468
370
    25
100
AcDbVertex
100
AcDb2dVertex
 10
93.96567482495814
 20
-150.4414482957232
 30
0.0
  0
VERTEX
  5
96
330
94
100
AcDbEntity
  8
_U+30EC_U+30A4_U+30E4_U+30FC 1
  6
AI-Linetype-1
 62
   154
420
    23468
370
    25
100
AcDbVertex
100
AcDb2dVertex
 10
93.96567482495814
 20
-155.440979683362
 30
0.0
  0
VERTEX
  5
97
330
94
100
AcDbEntity
  8
_U+30EC_U+30A4_U+30E4_U+30FC 1
  6
AI-Linetype-1
 62
   154
420
    23468
370
    25
100
AcDbVertex
100
AcDb2dVertex
 10
72.96573331509202
 20
-155.440979683362
 30
0.0
  0
VERTEX
  5
98
330
94
100
AcDbEntity
  8
_U+30EC_U+30A4_U+30E4_U+30FC 1
  6
AI-Linetype-1
 62
   154
420
    23468
370
    25
100
AcDbVertex
100
AcDb2dVertex
 10
72.96573331509202
 20
-133.4405932999729
 30
0.0
  0
VERTEX
  5
99
330
94
100
AcDbEntity
  8
_U+30EC_U+30A4_U+30E4_U+30FC 1
  6
AI-Linetype-1
 62
   154
420
    23468
370
    25
100
AcDbVertex
100
AcDb2dVertex
 10
77.96526273316266
 20
-133.4405932999729
 30
0.0
  0
SEQEND
  5
9B
330
94
100
AcDbEntity
  8
_U+30EC_U+30A4_U+30E4_U+30FC 1
  6
AI-Linetype-1
 62
   154
420
    23468
370
    25
  0
POLYLINE
  5
9C
330
1F
100
AcDbEntity
  8
_U+30EC_U+30A4_U+30E4_U+30FC 1
 62
   179
420
  2234388
370
     9
100
AcDb2dPolyline
 66
     1
 10
0.0
 20
0.0
 30
0.0
  0
VERTEX
  5
9D
330
9C
100
AcDbEntity
  8
_U+30EC_U+30A4_U+30E4_U+30FC 1
 62
   179
420
  2234388
370
     9
100
AcDbVertex
100
AcDb2dVertex
 10
73.97171255726883
 20
-158.6662857936665
 30
0.0
  0
VERTEX
  5
9E
330
9C
100
AcDbEntity
  8
_U+30EC_U+30A4_U+30E4_U+30FC 1
 62
   179
420
  2234388
370
     9
100
AcDbVertex
100
AcDb2dVertex
 10
92.97140831009023
 20
-158.6662857936665
 30
0.0
  0
SEQEND
  5
9F
330
9C
100
AcDbEntity
  8
_U+30EC_U+30A4_U+30E4_U+30FC 1
 62
   179
420
  2234388
370
     9
  0
SPLINE
  5
A0
330
1F
100
AcDbEntity
  8
_U+30EC_U+30A4_U+30E4_U+30FC 1
 62
   179
420
  2234388
370
     9
100
AcDbSpline
210
0.0
220
0.0
230
1.0
 70
    11
 71
     3
 72
    17
 73
    13
 74
     0
 42
0.0000000001
 43
0.0000000001
 12
1.0
 22
0.0
 32
0.0
 13
1.0
 23
0.0
 33
0.0
 40
0.0
 40
0.0
 40
0.0
 40
0.0
 40
1.0
 40
1.0
 40
1.0
 40
2.0
 40
2.0
 40
2.0
 40
3.0
 40
3.0
 40
3.0
 40
4.0
 40
4.0
 40
4.0
 40
4.0
 10
93.07201818109056
 20
-158.6662857936665
 30
0.0
 10
93.07201818109056
 20
-158.6111466270141
 30
0.0
 10
93.02721540445579
 20
-158.5663791270249
 30
0.0
 10
92.97140831009023
 20
-158.5663791270249
 30
0.0
 10
92.9163020739521
 20
-158.5663791270249
 30
0.0
 10
92.87149929731733
 20
-158.6111466270141
 30
0.0
 10
92.87149929731733
 20
-158.6662857936665
 30
0.0
 10
92.87149929731733
 20
-158.7213896825421
 30
0.0
 10
92.9163020739521
 20
-158.7661924603082
 30
0.0
 10
92.97140831009023
 20
-158.7661924603082
 30
0.0
 10
93.02721540445579
 20
-158.7661924603082
 30
0.0
 10
93.07201818109056
 20
-158.7213896825421
 30
0.0
 10
93.07201818109056
 20
-158.6662857936665
 30
0.0
  0
POLYLINE
  5
A1
330
1F
100
AcDbEntity
  8
_U+30EC_U+30A4_U+30E4_U+30FC 1
 62
   179
420
  2234388
370
     9
100
AcDb2dPolyline
 66
     1
 10
0.0
 20
0.0
 30
0.0
  0
VERTEX
  5
A2
330
A1
100
AcDbEntity
  8
_U+30EC_U+30A4_U+30E4_U+30FC 1
 62
   179
420
  2234388
370
     9
100
AcDbVertex
100
AcDb2dVertex
 10
92.97140831009023
 20
-156.2058019053929
 30
0.0
  0
VERTEX
  5
A3
330
A1
100
AcDbEntity
  8
_U+30EC_U+30A4_U+30E4_U+30FC 1
 62
   179
420
  2234388
370
     9
100
AcDbVertex
100
AcDb2dVertex
 10
92.97140831009023
 20
-159.6660580156391
 30
0.0
  0
SEQEND
  5
A4
330
A1
100
AcDbEntity
  8
_U+30EC_U+30A4_U+30E4_U+30FC 1
 62
   179
420
  2234388
370
     9
  0
SPLINE
  5
A5
330
1F
100
AcDbEntity
  8
_U+30EC_U+30A4_U+30E4_U+30FC 1
 62
   179
420
  2234388
370
     9
100
AcDbSpline
210
0.0
220
0.0
230
1.0
 70
    11
 71
     3
 72
    17
 73
    13
 74
     0
 42
0.0000000001
 43
0.0000000001
 12
1.0
 22
0.0
 32
0.0
 13
1.0
 23
0.0
 33
0.0
 40
0.0
 40
0.0
 40
0.0
 40
0.0
 40
1.0
 40
1.0
 40
1.0
 40
2.0
 40
2.0
 40
2.0
 40
3.0
 40
3.0
 40
3.0
 40
4.0
 40
4.0
 40
4.0
 40
4.0
 10
74.07232477692422
 20
-158.6662857936665
 30
0.0
 10
74.07232477692422
 20
-158.6111466270141
 30
0.0
 10
74.02752200028947
 20
-158.5663791270249
 30
0.0
 10
73.97171255726883
 20
-158.5663791270249
 30
0.0
 10
73.91657339200889
 20
-158.5663791270249
 30
0.0
 10
73.871805893151
 20
-158.6111466270141
 30
0.0
 10
73.871805893151
 20
-158.6662857936665
 30
0.0
 10
73.871805893151
 20
-158.7213896825421
 30
0.0
 10
73.91657339200889
 20
-158.7661924603082
 30
0.0
 10
73.97171255726883
 20
-158.7661924603082
 30
0.0
 10
74.02752200028947
 20
-158.7661924603082
 30
0.0
 10
74.07232477692422
 20
-158.7213896825421
 30
0.0
 10
74.07232477692422
 20
-158.6662857936665
 30
0.0
  0
POLYLINE
  5
A6
330
1F
100
AcDbEntity
  8
_U+30EC_U+30A4_U+30E4_U+30FC 1
 62
   179
420
  2234388
370
     9
100
AcDb2dPolyline
 66
     1
 10
0.0
 20
0.0
 30
0.0
  0
VERTEX
  5
A7
330
A6
100
AcDbEntity
  8
_U+30EC_U+30A4_U+30E4_U+30FC 1
 62
   179
420
  2234388
370
     9
100
AcDbVertex
100
AcDb2dVertex
 10
73.97171255726883
 20
-156.2058019053929
 30
0.0
  0
VERTEX
  5
A8
330
A6
100
AcDbEntity
  8
_U+30EC_U+30A4_U+30E4_U+30FC 1
 62
   179
420
  2234388
370
     9
100
AcDbVertex
100
AcDb2dVertex
 10
73.97171255726883
 20
-159.6660580156391
 30
0.0
  0
SEQEND
  5
A9
330
A6
100
AcDbEntity
  8
_U+30EC_U+30A4_U+30E4_U+30FC 1
 62
   179
420
  2234388
370
     9
  0
INSERT
  5
AB
330
1F
100
AcDbEntity
  8
_U+30EC_U+30A4_U+30E4_U+30FC 1
100
AcDbBlockReference
  2
block 3
 10
0.0
 20
0.0
 30
0.0
  0
SPLINE
  5
B3
330
1F
100
AcDbEntity
  8
_U+30EC_U+30A4_U+30E4_U+30FC 1
 62
   179
420
  2234388
370
     9
100
AcDbSpline
210
0.0
220
0.0
230
1.0
 70
    11
 71
     3
 72
    17
 73
    13
 74
     0
 42
0.0000000001
 43
0.0000000001
 12
1.0
 22
0.0
 32
0.0
 13
1.0
 23
0.0
 33
0.0
 40
0.0
 40
0.0
 40
0.0
 40
0.0
 40
1.0
 40
1.0
 40
1.0
 40
2.0
 40
2.0
 40
2.0
 40
3.0
 40
3.0
 40
3.0
 40
4.0
 40
4.0
 40
4.0
 40
4.0
 10
96.62942920144455
 20
-95.44102914280651
 30
0.0
 10
96.62942920144455
 20
-95.49616830945926
 30
0.0
 10
96.67419670030243
 20
-95.54093580944814
 30
0.0
 10
96.72933586556239
 20
-95.54093580944814
 30
0.0
 10
96.78443975304546
 20
-95.54093580944814
 30
0.0
 10
96.82924252968022
 20
-95.49616830945926
 30
0.0
 10
96.82924252968022
 20
-95.44102914280651
 30
0.0
 10
96.82924252968022
 20
-95.38521969837606
 30
0.0
 10
96.78443975304546
 20
-95.34041692060934
 30
0.0
 10
96.72933586556239
 20
-95.34041692060934
 30
0.0
 10
96.67419670030243
 20
-95.34041692060934
 30
0.0
 10
96.62942920144455
 20
-95.38521969837606
 30
0.0
 10
96.62942920144455
 20
-95.44102914280651
 30
0.0
  0
POLYLINE
  5
B4
330
1F
100
AcDbEntity
  8
_U+30EC_U+30A4_U+30E4_U+30FC 1
 62
   179
420
  2234388
370
     9
100
AcDb2dPolyline
 66
     1
 10
0.0
 20
0.0
 30
0.0
  0
VERTEX
  5
B5
330
B4
100
AcDbEntity
  8
_U+30EC_U+30A4_U+30E4_U+30FC 1
 62
   179
420
  2234388
370
     9
100
AcDbVertex
100
AcDb2dVertex
 10
96.72933586556239
 20
-95.44311053169491
 30
0.0
  0
VERTEX
  5
B6
330
B4
100
AcDbEntity
  8
_U+30EC_U+30A4_U+30E4_U+30FC 1
 62
   179
420
  2234388
370
     9
100
AcDbVertex
100
AcDb2dVertex
 10
96.72933586556239
 20
-154.4412074613895
 30
0.0
  0
SEQEND
  5
B7
330
B4
100
AcDbEntity
  8
_U+30EC_U+30A4_U+30E4_U+30FC 1
 62
   179
420
  2234388
370
     9
  0
POLYLINE
  5
B8
330
1F
100
AcDbEntity
  8
_U+30EC_U+30A4_U+30E4_U+30FC 1
 62
   179
420
  2234388
370
     9
100
AcDb2dPolyline
 66
     1
 10
0.0
 20
0.0
 30
0.0
  0
VERTEX
  5
B9
330
B8
100
AcDbEntity
  8
_U+30EC_U+30A4_U+30E4_U+30FC 1
 62
   179
420
  2234388
370
     9
100
AcDbVertex
100
AcDb2dVertex
 10
95.10528812921751
 20
-95.44102914280651
 30
0.0
  0
VERTEX
  5
BA
330
B8
100
AcDbEntity
  8
_U+30EC_U+30A4_U+30E4_U+30FC 1
 62
   179
420
  2234388
370
     9
100
AcDbVertex
100
AcDb2dVertex
 10
97.72907278450141
 20
-95.44102914280651
 30
0.0
  0
SEQEND
  5
BB
330
B8
100
AcDbEntity
  8
_U+30EC_U+30A4_U+30E4_U+30FC 1
 62
   179
420
  2234388
370
     9
  0
INSERT
  5
BD
330
1F
100
AcDbEntity
  8
_U+30EC_U+30A4_U+30E4_U+30FC 1
100
AcDbBlockReference
  2
block 4
 10
0.0
 20
0.0
 30
0.0
  0
INSERT
  5
D8
330
1F
100
AcDbEntity
  8
_U+30EC_U+30A4_U+30E4_U+30FC 1
100
AcDbBlockReference
  2
block 5
 10
0.0
 20
0.0
 30
0.0
  0
INSERT
  5
E1
330
1F
100
AcDbEntity
  8
_U+30EC_U+30A4_U+30E4_U+30FC 1
100
AcDbBlockReference
  2
block 6
 10
0.0
 20
0.0
 30
0.0
  0
SPLINE
  5
F9
330
1F
100
AcDbEntity
  8
_U+30EC_U+30A4_U+30E4_U+30FC 1
 62
   179
420
  2234388
370
     9
100
AcDbSpline
210
0.0
220
0.0
230
1.0
 70
    11
 71
     3
 72
    17
 73
    13
 74
     0
 42
0.0000000001
 43
0.0000000001
 12
1.0
 22
0.0
 32
0.0
 13
1.0
 23
0.0
 33
0.0
 40
0.0
 40
0.0
 40
0.0
 40
0.0
 40
1.0
 40
1.0
 40
1.0
 40
2.0
 40
2.0
 40
2.0
 40
3.0
 40
3.0
 40
3.0
 40
4.0
 40
4.0
 40
4.0
 40
4.0
 10
96.62942920144455
 20
-140.4410449648897
 30
0.0
 10
96.62942920144455
 20
-140.4961488537646
 30
0.0
 10
96.67419670030243
 20
-140.5409516315313
 30
0.0
 10
96.72933586556239
 20
-140.5409516315313
 30
0.0
 10
96.78443975304546
 20
-140.5409516315313
 30
0.0
 10
96.82924252968022
 20
-140.4961488537646
 30
0.0
 10
96.82924252968022
 20
-140.4410449648897
 30
0.0
 10
96.82924252968022
 20
-140.3852355204592
 30
0.0
 10
96.78443975304546
 20
-140.3404327426925
 30
0.0
 10
96.72933586556239
 20
-140.3404327426925
 30
0.0
 10
96.67419670030243
 20
-140.3404327426925
 30
0.0
 10
96.62942920144455
 20
-140.3852355204592
 30
0.0
 10
96.62942920144455
 20
-140.4410449648897
 30
0.0
  0
POLYLINE
  5
FA
330
1F
100
AcDbEntity
  8
_U+30EC_U+30A4_U+30E4_U+30FC 1
 62
   179
420
  2234388
370
     9
100
AcDb2dPolyline
 66
     1
 10
0.0
 20
0.0
 30
0.0
  0
VERTEX
  5
FB
330
FA
100
AcDbEntity
  8
_U+30EC_U+30A4_U+30E4_U+30FC 1
 62
   179
420
  2234388
370
     9
100
AcDbVertex
100
AcDb2dVertex
 10
95.10528812921751
 20
-140.4410449648897
 30
0.0
  0
VERTEX
  5
FC
330
FA
100
AcDbEntity
  8
_U+30EC_U+30A4_U+30E4_U+30FC 1
 62
   179
420
  2234388
370
     9
100
AcDbVertex
100
AcDb2dVertex
 10
97.72907278450141
 20
-140.4410449648897
 30
0.0
  0
SEQEND
  5
FD
330
FA
100
AcDbEntity
  8
_U+30EC_U+30A4_U+30E4_U+30FC 1
 62
   179
420
  2234388
370
     9
  0
SPLINE
  5
FE
330
1F
100
AcDbEntity
  8
_U+30EC_U+30A4_U+30E4_U+30FC 1
 62
   179
420
  2234388
370
     9
100
AcDbSpline
210
0.0
220
0.0
230
1.0
 70
    11
 71
     3
 72
    17
 73
    13
 74
     0
 42
0.0000000001
 43
0.0000000001
 12
1.0
 22
0.0
 32
0.0
 13
1.0
 23
0.0
 33
0.0
 40
0.0
 40
0.0
 40
0.0
 40
0.0
 40
1.0
 40
1.0
 40
1.0
 40
2.0
 40
2.0
 40
2.0
 40
3.0
 40
3.0
 40
3.0
 40
4.0
 40
4.0
 40
4.0
 40
4.0
 10
96.62942920144455
 20
-150.4407780179452
 30
0.0
 10
96.62942920144455
 20
-150.4958819068208
 30
0.0
 10
96.67419670030243
 20
-150.5406846845869
 30
0.0
 10
96.72933586556239
 20
-150.5406846845869
 30
0.0
 10
96.78443975304546
 20
-150.5406846845869
 30
0.0
 10
96.82924252968022
 20
-150.4958819068208
 30
0.0
 10
96.82924252968022
 20
-150.4407780179452
 30
0.0
 10
96.82924252968022
 20
-150.3849685735148
 30
0.0
 10
96.78443975304546
 20
-150.3401657957481
 30
0.0
 10
96.72933586556239
 20
-150.3401657957481
 30
0.0
 10
96.67419670030243
 20
-150.3401657957481
 30
0.0
 10
96.62942920144455
 20
-150.3849685735148
 30
0.0
 10
96.62942920144455
 20
-150.4407780179452
 30
0.0
  0
POLYLINE
  5
FF
330
1F
100
AcDbEntity
  8
_U+30EC_U+30A4_U+30E4_U+30FC 1
 62
   179
420
  2234388
370
     9
100
AcDb2dPolyline
 66
     1
 10
0.0
 20
0.0
 30
0.0
  0
VERTEX
  5
100
330
FF
100
AcDbEntity
  8
_U+30EC_U+30A4_U+30E4_U+30FC 1
 62
   179
420
  2234388
370
     9
100
AcDbVertex
100
AcDb2dVertex
 10
95.10528812921751
 20
-150.4407780179452
 30
0.0
  0
VERTEX
  5
101
330
FF
100
AcDbEntity
  8
_U+30EC_U+30A4_U+30E4_U+30FC 1
 62
   179
420
  2234388
370
     9
100
AcDbVertex
100
AcDb2dVertex
 10
97.72907278450141
 20
-150.4407780179452
 30
0.0
  0
SEQEND
  5
102
330
FF
100
AcDbEntity
  8
_U+30EC_U+30A4_U+30E4_U+30FC 1
 62
   179
420
  2234388
370
     9
  0
SPLINE
  5
103
330
1F
100
AcDbEntity
  8
_U+30EC_U+30A4_U+30E4_U+30FC 1
 62
   179
420
  2234388
370
     9
100
AcDbSpline
210
0.0
220
0.0
230
1.0
 70
    11
 71
     3
 72
    17
 73
    13
 74
     0
 42
0.0000000001
 43
0.0000000001
 12
1.0
 22
0.0
 32
0.0
 13
1.0
 23
0.0
 33
0.0
 40
0.0
 40
0.0
 40
0.0
 40
0.0
 40
1.0
 40
1.0
 40
1.0
 40
2.0
 40
2.0
 40
2.0
 40
3.0
 40
3.0
 40
3.0
 40
4.0
 40
4.0
 40
4.0
 40
4.0
 10
96.62942920144455
 20
-154.4412074613895
 30
0.0
 10
96.62942920144455
 20
-154.4963466280425
 30
0.0
 10
96.67419670030243
 20
-154.5411141280311
 30
0.0
 10
96.72933586556239
 20
-154.5411141280311
 30
0.0
 10
96.78443975304546
 20
-154.5411141280311
 30
0.0
 10
96.82924252968022
 20
-154.4963466280425
 30
0.0
 10
96.82924252968022
 20
-154.4412074613895
 30
0.0
 10
96.82924252968022
 20
-154.385398016959
 30
0.0
 10
96.78443975304546
 20
-154.3406305169705
 30
0.0
 10
96.72933586556239
 20
-154.3406305169705
 30
0.0
 10
96.67419670030243
 20
-154.3406305169705
 30
0.0
 10
96.62942920144455
 20
-154.385398016959
 30
0.0
 10
96.62942920144455
 20
-154.4412074613895
 30
0.0
  0
POLYLINE
  5
104
330
1F
100
AcDbEntity
  8
_U+30EC_U+30A4_U+30E4_U+30FC 1
 62
   179
420
  2234388
370
     9
100
AcDb2dPolyline
 66
     1
 10
0.0
 20
0.0
 30
0.0
  0
VERTEX
  5
105
330
104
100
AcDbEntity
  8
_U+30EC_U+30A4_U+30E4_U+30FC 1
 62
   179
420
  2234388
370
     9
100
AcDbVertex
100
AcDb2dVertex
 10
95.10528812921751
 20
-154.4412074613895
 30
0.0
  0
VERTEX
  5
106
330
104
100
AcDbEntity
  8
_U+30EC_U+30A4_U+30E4_U+30FC 1
 62
   179
420
  2234388
370
     9
100
AcDbVertex
100
AcDb2dVertex
 10
97.72907278450141
 20
-154.4412074613895
 30
0.0
  0
SEQEND
  5
107
330
104
100
AcDbEntity
  8
_U+30EC_U+30A4_U+30E4_U+30FC 1
 62
   179
420
  2234388
370
     9
  0
POLYLINE
  5
108
330
1F
100
AcDbEntity
  8
_U+30EC_U+30A4_U+30E4_U+30FC 1
 62
   179
420
  2234388
370
     9
100
AcDb2dPolyline
 66
     1
 10
0.0
 20
0.0
 30
0.0
  0
VERTEX
  5
109
330
108
100
AcDbEntity
  8
_U+30EC_U+30A4_U+30E4_U+30FC 1
 62
   179
420
  2234388
370
     9
100
AcDbVertex
100
AcDb2dVertex
 10
90.96568795704974
 20
-131.1599555227654
 30
0.0
  0
VERTEX
  5
10A
330
108
100
AcDbEntity
  8
_U+30EC_U+30A4_U+30E4_U+30FC 1
 62
   179
420
  2234388
370
     9
100
AcDbVertex
100
AcDb2dVertex
 10
73.99616005664512
 20
-131.1599555227654
 30
0.0
  0
SEQEND
  5
10B
330
108
100
AcDbEntity
  8
_U+30EC_U+30A4_U+30E4_U+30FC 1
 62
   179
420
  2234388
370
     9
  0
SPLINE
  5
10C
330
1F
100
AcDbEntity
  8
_U+30EC_U+30A4_U+30E4_U+30FC 1
 62
   179
420
  2234388
370
     9
100
AcDbSpline
210
0.0
220
0.0
230
1.0
 70
    11
 71
     3
 72
    17
 73
    13
 74
     0
 42
0.0000000001
 43
0.0000000001
 12
1.0
 22
0.0
 32
0.0
 13
1.0
 23
0.0
 33
0.0
 40
0.0
 40
0.0
 40
0.0
 40
0.0
 40
1.0
 40
1.0
 40
1.0
 40
2.0
 40
2.0
 40
2.0
 40
3.0
 40
3.0
 40
3.0
 40
4.0
 40
4.0
 40
4.0
 40
4.0
 10
73.96515275928648
 20
-131.0600488561238
 30
0.0
 10
73.9100470032865
 20
-131.0600488561238
 30
0.0
 10
73.86524422665174
 20
-131.1048163561129
 30
0.0
 10
73.86524422665174
 20
-131.1599555227654
 30
0.0
 10
73.86524422665174
 20
-131.2150594116409
 30
0.0
 10
73.9100470032865
 20
-131.259862189407
 30
0.0
 10
73.96515275928648
 20
-131.259862189407
 30
0.0
 10
74.02029005602952
 20
-131.259862189407
 30
0.0
 10
74.0650575548874
 20
-131.2150594116409
 30
0.0
 10
74.0650575548874
 20
-131.1599555227654
 30
0.0
 10
74.0650575548874
 20
-131.1048163561129
 30
0.0
 10
74.02029005602952
 20
-131.0600488561238
 30
0.0
 10
73.96515275928648
 20
-131.0600488561238
 30
0.0
  0
POLYLINE
  5
10D
330
1F
100
AcDbEntity
  8
_U+30EC_U+30A4_U+30E4_U+30FC 1
 62
   179
420
  2234388
370
     9
100
AcDb2dPolyline
 66
     1
 10
0.0
 20
0.0
 30
0.0
  0
VERTEX
  5
10E
330
10D
100
AcDbEntity
  8
_U+30EC_U+30A4_U+30E4_U+30FC 1
 62
   179
420
  2234388
370
     9
100
AcDbVertex
100
AcDb2dVertex
 10
73.96515275928648
 20
-129.6999141342417
 30
0.0
  0
VERTEX
  5
10F
330
10D
100
AcDbEntity
  8
_U+30EC_U+30A4_U+30E4_U+30FC 1
 62
   179
420
  2234388
370
     9
100
AcDbVertex
100
AcDb2dVertex
 10
73.96515275928648
 20
-132.4408563557785
 30
0.0
  0
SEQEND
  5
110
330
10D
100
AcDbEntity
  8
_U+30EC_U+30A4_U+30E4_U+30FC 1
 62
   179
420
  2234388
370
     9
  0
SPLINE
  5
111
330
1F
100
AcDbEntity
  8
_U+30EC_U+30A4_U+30E4_U+30FC 1
 62
   179
420
  2234388
370
     9
100
AcDbSpline
210
0.0
220
0.0
230
1.0
 70
    11
 71
     3
 72
    17
 73
    13
 74
     0
 42
0.0000000001
 43
0.0000000001
 12
1.0
 22
0.0
 32
0.0
 13
1.0
 23
0.0
 33
0.0
 40
0.0
 40
0.0
 40
0.0
 40
0.0
 40
1.0
 40
1.0
 40
1.0
 40
2.0
 40
2.0
 40
2.0
 40
3.0
 40
3.0
 40
3.0
 40
4.0
 40
4.0
 40
4.0
 40
4.0
 10
77.96526273316266
 20
-131.0600488561238
 30
0.0
 10
77.91015884567959
 20
-131.0600488561238
 30
0.0
 10
77.86535606904482
 20
-131.1048163561129
 30
0.0
 10
77.86535606904482
 20
-131.1599555227654
 30
0.0
 10
77.86535606904482
 20
-131.2150594116409
 30
0.0
 10
77.91015884567959
 20
-131.259862189407
 30
0.0
 10
77.96526273316266
 20
-131.259862189407
 30
0.0
 10
78.0204018984226
 20
-131.259862189407
 30
0.0
 10
78.0651693972805
 20
-131.2150594116409
 30
0.0
 10
78.0651693972805
 20
-131.1599555227654
 30
0.0
 10
78.0651693972805
 20
-131.1048163561129
 30
0.0
 10
78.0204018984226
 20
-131.0600488561238
 30
0.0
 10
77.96526273316266
 20
-131.0600488561238
 30
0.0
  0
POLYLINE
  5
112
330
1F
100
AcDbEntity
  8
_U+30EC_U+30A4_U+30E4_U+30FC 1
 62
   179
420
  2234388
370
     9
100
AcDb2dPolyline
 66
     1
 10
0.0
 20
0.0
 30
0.0
  0
VERTEX
  5
113
330
112
100
AcDbEntity
  8
_U+30EC_U+30A4_U+30E4_U+30FC 1
 62
   179
420
  2234388
370
     9
100
AcDbVertex
100
AcDb2dVertex
 10
77.96526273316266
 20
-129.6999141342417
 30
0.0
  0
VERTEX
  5
114
330
112
100
AcDbEntity
  8
_U+30EC_U+30A4_U+30E4_U+30FC 1
 62
   179
420
  2234388
370
     9
100
AcDbVertex
100
AcDb2dVertex
 10
77.96526273316266
 20
-132.4408563557785
 30
0.0
  0
SEQEND
  5
115
330
112
100
AcDbEntity
  8
_U+30EC_U+30A4_U+30E4_U+30FC 1
 62
   179
420
  2234388
370
     9
  0
INSERT
  5
117
330
1F
100
AcDbEntity
  8
_U+30EC_U+30A4_U+30E4_U+30FC 1
100
AcDbBlockReference
  2
block 7
 10
0.0
 20
0.0
 30
0.0
  0
INSERT
  5
130
330
1F
100
AcDbEntity
  8
_U+30EC_U+30A4_U+30E4_U+30FC 1
100
AcDbBlockReference
  2
block 8
 10
0.0
 20
0.0
 30
0.0
  0
POLYLINE
  5
137
330
1F
100
AcDbEntity
  8
_U+30EC_U+30A4_U+30E4_U+30FC 1
 62
   179
420
  2234388
370
     9
100
AcDb2dPolyline
 66
     1
 10
0.0
 20
0.0
 30
0.0
  0
VERTEX
  5
138
330
137
100
AcDbEntity
  8
_U+30EC_U+30A4_U+30E4_U+30FC 1
 62
   179
420
  2234388
370
     9
100
AcDbVertex
100
AcDb2dVertex
 10
70.96964430052465
 20
-154.4412074613895
 30
0.0
  0
VERTEX
  5
139
330
137
100
AcDbEntity
  8
_U+30EC_U+30A4_U+30E4_U+30FC 1
 62
   179
420
  2234388
370
     9
100
AcDbVertex
100
AcDb2dVertex
 10
70.96964430052465
 20
-134.4417413552783
 30
0.0
  0
SEQEND
  5
13A
330
137
100
AcDbEntity
  8
_U+30EC_U+30A4_U+30E4_U+30FC 1
 62
   179
420
  2234388
370
     9
  0
POLYLINE
  5
13B
330
1F
100
AcDbEntity
  8
_U+30EC_U+30A4_U+30E4_U+30FC 1
 62
   179
420
  2234388
370
     9
100
AcDb2dPolyline
 66
     1
 10
0.0
 20
0.0
 30
0.0
  0
VERTEX
  5
13C
330
13B
100
AcDbEntity
  8
_U+30EC_U+30A4_U+30E4_U+30FC 1
 62
   179
420
  2234388
370
     9
100
AcDbVertex
100
AcDb2dVertex
 10
71.97149788607634
 20
-154.4412074613895
 30
0.0
  0
VERTEX
  5
13D
330
13B
100
AcDbEntity
  8
_U+30EC_U+30A4_U+30E4_U+30FC 1
 62
   179
420
  2234388
370
     9
100
AcDbVertex
100
AcDb2dVertex
 10
69.49722220484792
 20
-154.4412074613895
 30
0.0
  0
SEQEND
  5
13E
330
13B
100
AcDbEntity
  8
_U+30EC_U+30A4_U+30E4_U+30FC 1
 62
   179
420
  2234388
370
     9
  0
INSERT
  5
140
330
1F
100
AcDbEntity
  8
_U+30EC_U+30A4_U+30E4_U+30FC 1
100
AcDbBlockReference
  2
block 9
 10
0.0
 20
0.0
 30
0.0
  0
SPLINE
  5
148
330
1F
100
AcDbEntity
  8
_U+30EC_U+30A4_U+30E4_U+30FC 1
 62
   179
420
  2234388
370
     9
100
AcDbSpline
210
0.0
220
0.0
230
1.0
 70
    11
 71
     3
 72
    17
 73
    13
 74
     0
 42
0.0000000001
 43
0.0000000001
 12
1.0
 22
0.0
 32
0.0
 13
1.0
 23
0.0
 33
0.0
 40
0.0
 40
0.0
 40
0.0
 40
0.0
 40
1.0
 40
1.0
 40
1.0
 40
2.0
 40
2.0
 40
2.0
 40
3.0
 40
3.0
 40
3.0
 40
4.0
 40
4.0
 40
4.0
 40
4.0
 10
71.06337735368886
 20
-154.4398316280566
 30
0.0
 10
71.06337735368886
 20
-154.3847277391817
 30
0.0
 10
71.01928013259166
 20
-154.339924961415
 30
0.0
 10
70.96347068957104
 20
-154.339924961415
 30
0.0
 10
70.90833331560626
 20
-154.339924961415
 30
0.0
 10
70.86353053783954
 20
-154.3847277391817
 30
0.0
 10
70.86353053783954
 20
-154.4398316280566
 30
0.0
 10
70.86353053783954
 20
-154.495641072487
 30
0.0
 10
70.90833331560626
 20
-154.5404438502538
 30
0.0
 10
70.96347068957104
 20
-154.5404438502538
 30
0.0
 10
71.01928013259166
 20
-154.5404438502538
 30
0.0
 10
71.06337735368886
 20
-154.495641072487
 30
0.0
 10
71.06337735368886
 20
-154.4398316280566
 30
0.0
  0
POLYLINE
  5
149
330
1F
100
AcDbEntity
  8
_U+30EC_U+30A4_U+30E4_U+30FC 1
 62
   179
420
  2234388
370
     9
100
AcDb2dPolyline
 66
     1
 10
0.0
 20
0.0
 30
0.0
  0
VERTEX
  5
14A
330
149
100
AcDbEntity
  8
_U+30EC_U+30A4_U+30E4_U+30FC 1
 62
   179
420
  2234388
370
     9
100
AcDbVertex
100
AcDb2dVertex
 10
71.97149788607634
 20
-134.441071077501
 30
0.0
  0
VERTEX
  5
14B
330
149
100
AcDbEntity
  8
_U+30EC_U+30A4_U+30E4_U+30FC 1
 62
   179
420
  2234388
370
     9
100
AcDbVertex
100
AcDb2dVertex
 10
69.49722220484792
 20
-134.441071077501
 30
0.0
  0
SEQEND
  5
14C
330
149
100
AcDbEntity
  8
_U+30EC_U+30A4_U+30E4_U+30FC 1
 62
   179
420
  2234388
370
     9
  0
SPLINE
  5
14D
330
1F
100
AcDbEntity
  8
_U+30EC_U+30A4_U+30E4_U+30FC 1
 62
   179
420
  2234388
370
     9
100
AcDbSpline
210
0.0
220
0.0
230
1.0
 70
    11
 71
     3
 72
    17
 73
    13
 74
     0
 42
0.0000000001
 43
0.0000000001
 12
1.0
 22
0.0
 32
0.0
 13
1.0
 23
0.0
 33
0.0
 40
0.0
 40
0.0
 40
0.0
 40
0.0
 40
1.0
 40
1.0
 40
1.0
 40
2.0
 40
2.0
 40
2.0
 40
3.0
 40
3.0
 40
3.0
 40
4.0
 40
4.0
 40
4.0
 40
4.0
 10
71.06337735368886
 20
-134.4396952441681
 30
0.0
 10
71.06337735368886
 20
-134.384556077515
 30
0.0
 10
71.01928013259166
 20
-134.3404588553038
 30
0.0
 10
70.96347068957104
 20
-134.3404588553038
 30
0.0
 10
70.90833331560626
 20
-134.3404588553038
 30
0.0
 10
70.86353053783954
 20
-134.384556077515
 30
0.0
 10
70.86353053783954
 20
-134.4396952441681
 30
0.0
 10
70.86353053783954
 20
-134.4955046885985
 30
0.0
 10
70.90833331560626
 20
-134.5402721885871
 30
0.0
 10
70.96347068957104
 20
-134.5402721885871
 30
0.0
 10
71.01928013259166
 20
-134.5402721885871
 30
0.0
 10
71.06337735368886
 20
-134.4955046885985
 30
0.0
 10
71.06337735368886
 20
-134.4396952441681
 30
0.0
  0
POLYLINE
  5
14E
330
1F
100
AcDbEntity
  8
_U+30EC_U+30A4_U+30E4_U+30FC 1
 62
   179
420
  2234388
370
     9
100
AcDb2dPolyline
 66
     1
 10
0.0
 20
0.0
 30
0.0
  0
VERTEX
  5
14F
330
14E
100
AcDbEntity
  8
_U+30EC_U+30A4_U+30E4_U+30FC 1
 62
   179
420
  2234388
370
     9
100
AcDbVertex
100
AcDb2dVertex
 10
93.97118053206276
 20
-155.440979683362
 30
0.0
  0
VERTEX
  5
150
330
14E
100
AcDbEntity
  8
_U+30EC_U+30A4_U+30E4_U+30FC 1
 62
   179
420
  2234388
370
     9
100
AcDbVertex
100
AcDb2dVertex
 10
97.6284958426229
 20
-158.4898969048217
 30
0.0
  0
SEQEND
  5
151
330
14E
100
AcDbEntity
  8
_U+30EC_U+30A4_U+30E4_U+30FC 1
 62
   179
420
  2234388
370
     9
  0
POLYLINE
  5
152
330
1F
100
AcDbEntity
  8
_U+30EC_U+30A4_U+30E4_U+30FC 1
 62
   179
420
  2234388
370
     9
100
AcDb2dPolyline
 66
     1
 10
0.0
 20
0.0
 30
0.0
  0
VERTEX
  5
153
330
152
100
AcDbEntity
  8
_U+30EC_U+30A4_U+30E4_U+30FC 1
 62
   179
420
  2234388
370
     9
100
AcDbVertex
100
AcDb2dVertex
 10
94.5478992545488
 20
-156.2581541276021
 30
0.0
  0
VERTEX
  5
154
330
152
100
AcDbEntity
  8
_U+30EC_U+30A4_U+30E4_U+30FC 1
 62
   179
420
  2234388
370
     9
100
AcDbVertex
100
AcDb2dVertex
 10
93.97118053206276
 20
-155.440979683362
 30
0.0
  0
VERTEX
  5
155
330
152
100
AcDbEntity
  8
_U+30EC_U+30A4_U+30E4_U+30FC 1
 62
   179
420
  2234388
370
     9
100
AcDbVertex
100
AcDb2dVertex
 10
94.87862841277786
 20
-155.8612791277013
 30
0.0
  0
SEQEND
  5
156
330
152
100
AcDbEntity
  8
_U+30EC_U+30A4_U+30E4_U+30FC 1
 62
   179
420
  2234388
370
     9
  0
INSERT
  5
158
330
1F
100
AcDbEntity
  8
_U+30EC_U+30A4_U+30E4_U+30FC 1
100
AcDbBlockReference
  2
block 10
 10
0.0
 20
0.0
 30
0.0
  0
ENDSEC
  0
SECTION
  2
OBJECTS
  0
DICTIONARY
  5
C
330
0
100
AcDbDictionary
281
     1
  3
ACAD_GROUP
350
D
  3
ACAD_LAYOUT
350
1A
  3
ACAD_MATERIAL
350
3B
  3
ACAD_MLEADERSTYLE
350
196
  3
ACAD_MLINESTYLE
350
17
  3
ACAD_PLOTSETTINGS
350
19
  3
ACAD_PLOTSTYLENAME
350
E
  3
ACAD_TABLESTYLE
350
195
  3
ACAD_VISUALSTYLE
350
2A
  0
SUN
  5
3F
330
29
100
AcDbSun
 90
        1
290
     0
 63
     7
421
 16777215
 40
1.0
291
     1
 91
  2455826
 92
 54000000
292
     0
 70
     2
 71
   256
280
     1
  0
DICTIONARY
  5
D
102
{ACAD_REACTORS
330
C
102
}
330
C
100
AcDbDictionary
281
     1
  0
DICTIONARY
  5
1A
102
{ACAD_REACTORS
330
C
102
}
330
C
100
AcDbDictionary
281
     1
  3
Layout1
350
1E
  3
Layout2
350
26
  3
Model
350
22
  0
DICTIONARY
  5
3B
102
{ACAD_REACTORS
330
C
102
}
330
C
100
AcDbDictionary
281
     1
  3
ByBlock
350
3D
  3
ByLayer
350
3C
  3
Global
350
3E
  0
DICTIONARY
  5
196
102
{ACAD_REACTORS
330
C
102
}
330
C
100
AcDbDictionary
281
     1
  0
DICTIONARY
  5
17
102
{ACAD_REACTORS
330
C
102
}
330
C
100
AcDbDictionary
281
     1
  3
Standard
350
18
  0
DICTIONARY
  5
19
102
{ACAD_REACTORS
330
C
102
}
330
C
100
AcDbDictionary
281
     1
  0
ACDBDICTIONARYWDFLT
  5
E
102
{ACAD_REACTORS
330
C
102
}
330
C
100
AcDbDictionary
281
     1
  3
Normal
350
F
100
AcDbDictionaryWithDefault
340
F
  0
DICTIONARY
  5
195
102
{ACAD_REACTORS
330
C
102
}
330
C
100
AcDbDictionary
281
     1
  0
DICTIONARY
  5
2A
102
{ACAD_REACTORS
330
C
102
}
330
C
100
AcDbDictionary
281
     1
  3
2dWireframe
350
2F
  3
3D Hidden
350
31
  3
3dWireframe
350
30
  3
Basic
350
32
  3
Brighten
350
36
  3
ColorChange
350
3A
  3
Conceptual
350
34
  3
Dim
350
35
  3
Facepattern
350
39
  3
Flat
350
2B
  3
FlatWithEdges
350
2C
  3
Gouraud
350
2D
  3
GouraudWithEdges
350
2E
  3
Linepattern
350
38
  3
Realistic
350
33
  3
Thicken
350
37
  0
LAYOUT
  5
1E
102
{ACAD_REACTORS
330
1A
102
}
330
1A
100
AcDbPlotSettings
  1

  2
none_device
  4

  6

 40
0.0
 41
0.0
 42
0.0
 43
0.0
 44
0.0
 45
0.0
 46
0.0
 47
0.0
 48
0.0
 49
0.0
140
0.0
141
0.0
142
1.0
143
1.0
 70
   688
 72
     0
 73
     0
 74
     5
  7

 75
    16
 76
     0
 77
     2
 78
   300
147
1.0
148
0.0
149
0.0
100
AcDbLayout
  1
Layout1
 70
     1
 71
     1
 10
0.0
 20
0.0
 11
12.0
 21
9.0
 12
0.0
 22
0.0
 32
0.0
 14
1.000000000000000E+20
 24
1.000000000000000E+20
 34
1.000000000000000E+20
 15
-1.000000000000000E+20
 25
-1.000000000000000E+20
 35
-1.000000000000000E+20
146
0.0
 13
0.0
 23
0.0
 33
0.0
 16
1.0
 26
0.0
 36
0.0
 17
0.0
 27
1.0
 37
0.0
 76
     0
330
1B
  0
LAYOUT
  5
26
102
{ACAD_REACTORS
330
1A
102
}
330
1A
100
AcDbPlotSettings
  1

  2
none_device
  4

  6

 40
0.0
 41
0.0
 42
0.0
 43
0.0
 44
0.0
 45
0.0
 46
0.0
 47
0.0
 48
0.0
 49
0.0
140
0.0
141
0.0
142
1.0
143
1.0
 70
   688
 72
     0
 73
     0
 74
     5
  7

 75
    16
 76
     0
 77
     2
 78
   300
147
1.0
148
0.0
149
0.0
100
AcDbLayout
  1
Layout2
 70
     1
 71
     2
 10
0.0
 20
0.0
 11
0.0
 21
0.0
 12
0.0
 22
0.0
 32
0.0
 14
0.0
 24
0.0
 34
0.0
 15
0.0
 25
0.0
 35
0.0
146
0.0
 13
0.0
 23
0.0
 33
0.0
 16
1.0
 26
0.0
 36
0.0
 17
0.0
 27
1.0
 37
0.0
 76
     0
330
23
  0
LAYOUT
  5
22
102
{ACAD_REACTORS
330
1A
102
}
330
1A
100
AcDbPlotSettings
  1

  2
none_device
  4

  6

 40
0.0
 41
0.0
 42
0.0
 43
0.0
 44
0.0
 45
0.0
 46
0.0
 47
0.0
 48
0.0
 49
0.0
140
0.0
141
0.0
142
1.0
143
1.0
 70
  1712
 72
     0
 73
     0
 74
     0
  7

 75
     0
 76
     0
 77
     2
 78
   300
147
1.0
148
0.0
149
0.0
100
AcDbLayout
  1
Model
 70
     1
 71
     0
 10
0.0
 20
0.0
 11
12.0
 21
9.0
 12
0.0
 22
0.0
 32
0.0
 14
1.000000000000000E+20
 24
1.000000000000000E+20
 34
1.000000000000000E+20
 15
-1.000000000000000E+20
 25
-1.000000000000000E+20
 35
-1.000000000000000E+20
146
0.0
 13
0.0
 23
0.0
 33
0.0
 16
1.0
 26
0.0
 36
0.0
 17
0.0
 27
1.0
 37
0.0
 76
     0
330
1F
331
29
  0
MATERIAL
  5
3D
102
{ACAD_REACTORS
330
3B
102
}
330
3B
100
AcDbMaterial
  1
ByBlock
 72
     1
 94
      127
  0
MATERIAL
  5
3C
102
{ACAD_REACTORS
330
3B
102
}
330
3B
100
AcDbMaterial
  1
ByLayer
 72
     1
 94
      127
  0
MATERIAL
  5
3E
102
{ACAD_REACTORS
330
3B
102
}
330
3B
100
AcDbMaterial
  1
Global
 72
     1
 94
      127
  0
MLINESTYLE
  5
18
102
{ACAD_REACTORS
330
17
102
}
330
17
100
AcDbMlineStyle
  2
Standard
 70
     0
  3

 62
   256
 51
90.0
 52
90.0
 71
     2
 49
0.5
 62
   256
  6
BYLAYER
 49
-0.5
 62
   256
  6
BYLAYER
  0
ACDBPLACEHOLDER
  5
F
102
{ACAD_REACTORS
330
E
102
}
330
E
  0
VISUALSTYLE
  5
2F
102
{ACAD_REACTORS
330
2A
102
}
330
2A
100
AcDbVisualStyle
  2
2dWireframe
 70
     4
177
     2
291
     0
 71
     0
176
     1
 72
     2
176
     1
 73
     0
176
     1
 90
        0
176
     1
 40
-0.6
176
     1
 41
-30.0
176
     1
 62
     5
 63
     7
421
 16777215
176
     1
 74
     1
176
     1
 91
        4
176
     1
 64
     7
176
     1
 65
   257
176
     1
 75
     1
176
     1
175
     1
176
     1
 42
1.0
176
     1
 92
        0
176
     1
 66
   257
176
     1
 43
1.0
176
     1
 76
     1
176
     1
 77
     6
176
     1
 78
     2
176
     1
 67
     7
176
     1
 79
     5
176
     1
170
     0
176
     1
171
     0
176
     1
290
     0
176
     1
 93
        1
176
     1
 44
0.0
176
     1
173
     0
176
     1
  0
VISUALSTYLE
  5
31
102
{ACAD_REACTORS
330
2A
102
}
330
2A
100
AcDbVisualStyle
  2
3D Hidden
 70
     6
177
     2
291
     0
 71
     1
176
     1
 72
     2
176
     1
 73
     2
176
     1
 90
        0
176
     1
 40
-0.6
176
     1
 41
-30.0
176
     1
 62
     5
 63
     7
421
 16777215
176
     1
 74
     2
176
     1
 91
        2
176
     1
 64
     7
176
     1
 65
   257
176
     1
 75
     2
176
     1
175
     1
176
     1
 42
40.0
176
     1
 92
        0
176
     1
 66
   257
176
     1
 43
1.0
176
     1
 76
     1
176
     1
 77
     6
176
     1
 78
     2
176
     1
 67
     7
176
     1
 79
     3
176
     1
170
     0
176
     1
171
     0
176
     1
290
     0
176
     1
 93
        1
176
     1
 44
0.0
176
     1
173
     0
176
     1
  0
VISUALSTYLE
  5
30
102
{ACAD_REACTORS
330
2A
102
}
330
2A
100
AcDbVisualStyle
  2
3dWireframe
 70
     5
177
     2
291
     0
 71
     0
176
     1
 72
     2
176
     1
 73
     0
176
     1
 90
        0
176
     1
 40
-0.6
176
     1
 41
-30.0
176
     1
 62
     5
 63
     7
421
 16777215
176
     1
 74
     1
176
     1
 91
        4
176
     1
 64
     7
176
     1
 65
   257
176
     1
 75
     1
176
     1
175
     1
176
     1
 42
1.0
176
     1
 92
        0
176
     1
 66
   257
176
     1
 43
1.0
176
     1
 76
     1
176
     1
 77
     6
176
     1
 78
     2
176
     1
 67
     7
176
     1
 79
     5
176
     1
170
     0
176
     1
171
     0
176
     1
290
     0
176
     1
 93
        1
176
     1
 44
0.0
176
     1
173
     0
176
     1
  0
VISUALSTYLE
  5
32
102
{ACAD_REACTORS
330
2A
102
}
330
2A
100
AcDbVisualStyle
  2
Basic
 70
     7
177
     2
291
     1
 71
     1
176
     1
 72
     0
176
     1
 73
     1
176
     1
 90
        0
176
     1
 40
-0.6
176
     1
 41
-30.0
176
     1
 62
     5
 63
     7
421
 16777215
176
     1
 74
     0
176
     1
 91
        4
176
     1
 64
     7
176
     1
 65
   257
176
     1
 75
     1
176
     1
175
     1
176
     1
 42
1.0
176
     1
 92
        8
176
     1
 66
     7
176
     1
 43
1.0
176
     1
 76
     1
176
     1
 77
     6
176
     1
 78
     2
176
     1
 67
     7
176
     1
 79
     5
176
     1
170
     0
176
     1
171
     0
176
     1
290
     0
176
     1
 93
        1
176
     1
 44
0.0
176
     1
173
     0
176
     1
  0
VISUALSTYLE
  5
36
102
{ACAD_REACTORS
330
2A
102
}
330
2A
100
AcDbVisualStyle
  2
Brighten
 70
    12
177
     2
291
     1
 71
     2
176
     1
 72
     2
176
     1
 73
     0
176
     1
 90
        0
176
     1
 40
-0.6
176
     1
 41
-30.0
176
     1
 62
     5
 63
     7
421
 16777215
176
     1
 74
     1
176
     1
 91
        4
176
     1
 64
     7
176
     1
 65
   257
176
     1
 75
     1
176
     1
175
     1
176
     1
 42
1.0
176
     1
 92
        8
176
     1
 66
     7
176
     1
 43
1.0
176
     1
 76
     1
176
     1
 77
     6
176
     1
 78
     2
176
     1
 67
     7
176
     1
 79
     5
176
     1
170
     0
176
     1
171
     0
176
     1
290
     0
176
     1
 93
        1
176
     1
 44
50.0
176
     1
173
     0
176
     1
  0
VISUALSTYLE
  5
3A
102
{ACAD_REACTORS
330
2A
102
}
330
2A
100
AcDbVisualStyle
  2
ColorChange
 70
    16
177
     2
291
     1
 71
     2
176
     1
 72
     2
176
     1
 73
     3
176
     1
 90
        0
176
     1
 40
-0.6
176
     1
 41
-30.0
176
     1
 62
     5
 63
     8
421
  8421504
176
     1
 74
     1
176
     1
 91
        4
176
     1
 64
     7
176
     1
 65
   257
176
     1
 75
     1
176
     1
175
     1
176
     1
 42
1.0
176
     1
 92
        8
176
     1
 66
     8
424
  8421504
176
     1
 43
1.0
176
     1
 76
     1
176
     1
 77
     6
176
     1
 78
     2
176
     1
 67
     7
176
     1
 79
     5
176
     1
170
     0
176
     1
171
     0
176
     1
290
     0
176
     1
 93
        1
176
     1
 44
0.0
176
     1
173
     0
176
     1
  0
VISUALSTYLE
  5
34
102
{ACAD_REACTORS
330
2A
102
}
330
2A
100
AcDbVisualStyle
  2
Conceptual
 70
     9
177
     2
291
     0
 71
     3
176
     1
 72
     2
176
     1
 73
     0
176
     1
 90
        0
176
     1
 40
-0.6
176
     1
 41
-30.0
176
     1
 62
     5
 63
     7
421
 16777215
176
     1
 74
     2
176
     1
 91
        2
176
     1
 64
     7
176
     1
 65
   257
176
     1
 75
     1
176
     1
175
     1
176
     1
 42
40.0
176
     1
 92
        8
176
     1
 66
     7
176
     1
 43
1.0
176
     1
 76
     1
176
     1
 77
     6
176
     1
 78
     2
176
     1
 67
     7
176
     1
 79
     3
176
     1
170
     0
176
     1
171
     0
176
     1
290
     0
176
     1
 93
        1
176
     1
 44
0.0
176
     1
173
     0
176
     1
  0
VISUALSTYLE
  5
35
102
{ACAD_REACTORS
330
2A
102
}
330
2A
100
AcDbVisualStyle
  2
Dim
 70
    11
177
     2
291
     1
 71
     2
176
     1
 72
     2
176
     1
 73
     0
176
     1
 90
        0
176
     1
 40
-0.6
176
     1
 41
-30.0
176
     1
 62
     5
 63
     7
421
 16777215
176
     1
 74
     1
176
     1
 91
        4
176
     1
 64
     7
176
     1
 65
   257
176
     1
 75
     1
176
     1
175
     1
176
     1
 42
1.0
176
     1
 92
        8
176
     1
 66
     7
176
     1
 43
1.0
176
     1
 76
     1
176
     1
 77
     6
176
     1
 78
     2
176
     1
 67
     7
176
     1
 79
     5
176
     1
170
     0
176
     1
171
     0
176
     1
290
     0
176
     1
 93
        1
176
     1
 44
-50.0
176
     1
173
     0
176
     1
  0
VISUALSTYLE
  5
39
102
{ACAD_REACTORS
330
2A
102
}
330
2A
100
AcDbVisualStyle
  2
Facepattern
 70
    15
177
     2
291
     1
 71
     2
176
     1
 72
     2
176
     1
 73
     0
176
     1
 90
        0
176
     1
 40
-0.6
176
     1
 41
-30.0
176
     1
 62
     5
 63
     7
421
 16777215
176
     1
 74
     1
176
     1
 91
        4
176
     1
 64
     7
176
     1
 65
   257
176
     1
 75
     1
176
     1
175
     1
176
     1
 42
1.0
176
     1
 92
        8
176
     1
 66
     7
176
     1
 43
1.0
176
     1
 76
     1
176
     1
 77
     6
176
     1
 78
     2
176
     1
 67
     7
176
     1
 79
     5
176
     1
170
     0
176
     1
171
     0
176
     1
290
     0
176
     1
 93
        1
176
     1
 44
0.0
176
     1
173
     0
176
     1
  0
VISUALSTYLE
  5
2B
102
{ACAD_REACTORS
330
2A
102
}
330
2A
100
AcDbVisualStyle
  2
Flat
 70
     0
177
     2
291
     1
 71
     2
176
     1
 72
     1
176
     1
 73
     1
176
     1
 90
        2
176
     1
 40
-0.6
176
     1
 41
30.0
176
     1
 62
     5
 63
     7
421
 16777215
176
     1
 74
     0
176
     1
 91
        4
176
     1
 64
     7
176
     1
 65
   257
176
     1
 75
     1
176
     1
175
     1
176
     1
 42
1.0
176
     1
 92
        8
176
     1
 66
     7
176
     1
 43
1.0
176
     1
 76
     1
176
     1
 77
     6
176
     1
 78
     2
176
     1
 67
     7
176
     1
 79
     5
176
     1
170
     0
176
     1
171
     0
176
     1
290
     0
176
     1
 93
       13
176
     1
 44
0.0
176
     1
173
     0
176
     1
  0
VISUALSTYLE
  5
2C
102
{ACAD_REACTORS
330
2A
102
}
330
2A
100
AcDbVisualStyle
  2
FlatWithEdges
 70
     1
177
     2
291
     1
 71
     2
176
     1
 72
     1
176
     1
 73
     1
176
     1
 90
        2
176
     1
 40
-0.6
176
     1
 41
30.0
176
     1
 62
     5
 63
     7
421
 16777215
176
     1
 74
     1
176
     1
 91
        4
176
     1
 64
     7
176
     1
 65
   257
176
     1
 75
     1
176
     1
175
     1
176
     1
 42
1.0
176
     1
 92
        0
176
     1
 66
   257
176
     1
 43
1.0
176
     1
 76
     1
176
     1
 77
     6
176
     1
 78
     2
176
     1
 67
     7
176
     1
 79
     5
176
     1
170
     0
176
     1
171
     0
176
     1
290
     0
176
     1
 93
       13
176
     1
 44
0.0
176
     1
173
     0
176
     1
  0
VISUALSTYLE
  5
2D
102
{ACAD_REACTORS
330
2A
102
}
330
2A
100
AcDbVisualStyle
  2
Gouraud
 70
     2
177
     2
291
     1
 71
     2
176
     1
 72
     2
176
     1
 73
     1
176
     1
 90
        2
176
     1
 40
-0.6
176
     1
 41
30.0
176
     1
 62
     5
 63
     7
421
 16777215
176
     1
 74
     0
176
     1
 91
        4
176
     1
 64
     7
176
     1
 65
   257
176
     1
 75
     1
176
     1
175
     1
176
     1
 42
1.0
176
     1
 92
        0
176
     1
 66
     7
176
     1
 43
1.0
176
     1
 76
     1
176
     1
 77
     6
176
     1
 78
     2
176
     1
 67
     7
176
     1
 79
     5
176
     1
170
     0
176
     1
171
     0
176
     1
290
     0
176
     1
 93
       13
176
     1
 44
0.0
176
     1
173
     0
176
     1
  0
VISUALSTYLE
  5
2E
102
{ACAD_REACTORS
330
2A
102
}
330
2A
100
AcDbVisualStyle
  2
GouraudWithEdges
 70
     3
177
     2
291
     1
 71
     2
176
     1
 72
     2
176
     1
 73
     1
176
     1
 90
        2
176
     1
 40
-0.6
176
     1
 41
30.0
176
     1
 62
     5
 63
     7
421
 16777215
176
     1
 74
     1
176
     1
 91
        4
176
     1
 64
     7
176
     1
 65
   257
176
     1
 75
     1
176
     1
175
     1
176
     1
 42
1.0
176
     1
 92
        0
176
     1
 66
   257
176
     1
 43
1.0
176
     1
 76
     1
176
     1
 77
     6
176
     1
 78
     2
176
     1
 67
     7
176
     1
 79
     5
176
     1
170
     0
176
     1
171
     0
176
     1
290
     0
176
     1
 93
       13
176
     1
 44
0.0
176
     1
173
     0
176
     1
  0
VISUALSTYLE
  5
38
102
{ACAD_REACTORS
330
2A
102
}
330
2A
100
AcDbVisualStyle
  2
Linepattern
 70
    14
177
     2
291
     1
 71
     2
176
     1
 72
     2
176
     1
 73
     0
176
     1
 90
        0
176
     1
 40
-0.6
176
     1
 41
-30.0
176
     1
 62
     5
 63
     7
421
 16777215
176
     1
 74
     1
176
     1
 91
        4
176
     1
 64
     7
176
     1
 65
   257
176
     1
 75
     7
176
     1
175
     7
176
     1
 42
1.0
176
     1
 92
        8
176
     1
 66
     7
176
     1
 43
1.0
176
     1
 76
     1
176
     1
 77
     6
176
     1
 78
     2
176
     1
 67
     7
176
     1
 79
     5
176
     1
170
     0
176
     1
171
     0
176
     1
290
     0
176
     1
 93
        1
176
     1
 44
0.0
176
     1
173
     0
176
     1
  0
VISUALSTYLE
  5
33
102
{ACAD_REACTORS
330
2A
102
}
330
2A
100
AcDbVisualStyle
  2
Realistic
 70
     8
177
     2
291
     0
 71
     2
176
     1
 72
     2
176
     1
 73
     0
176
     1
 90
        0
176
     1
 40
-0.6
176
     1
 41
-30.0
176
     1
 62
     5
 63
     7
421
 16777215
176
     1
 74
     1
176
     1
 91
        0
176
     1
 64
     7
176
     1
 65
   257
176
     1
 75
     1
176
     1
175
     1
176
     1
 42
1.0
176
     1
 92
        8
176
     1
 66
     8
424
  7895160
176
     1
 43
1.0
176
     1
 76
     1
176
     1
 77
     6
176
     1
 78
     2
176
     1
 67
     7
176
     1
 79
     5
176
     1
170
     0
176
     1
171
     0
176
     1
290
     0
176
     1
 93
       13
176
     1
 44
0.0
176
     1
173
     0
176
     1
  0
VISUALSTYLE
  5
37
102
{ACAD_REACTORS
330
2A
102
}
330
2A
100
AcDbVisualStyle
  2
Thicken
 70
    13
177
     2
291
     1
 71
     2
176
     1
 72
     2
176
     1
 73
     0
176
     1
 90
        0
176
     1
 40
-0.6
176
     1
 41
-30.0
176
     1
 62
     5
 63
     7
421
 16777215
176
     1
 74
     1
176
     1
 91
        4
176
     1
 64
     7
176
     1
 65
   257
176
     1
 75
     1
176
     1
175
     1
176
     1
 42
1.0
176
     1
 92
       12
176
     1
 66
     7
176
     1
 43
1.0
176
     1
 76
     1
176
     1
 77
     6
176
     1
 78
     2
176
     1
 67
     7
176
     1
 79
     5
176
     1
170
     0
176
     1
171
     0
176
     1
290
     0
176
     1
 93
        1
176
     1
 44
0.0
176
     1
173
     0
176
     1
  0
ENDSEC
  0
EOF
