  0
SECTION
  2
HEADER
  9
$ACADVER
  1
AC1024
  9
$ACADMAINTVER
 70
     6
  9
$DWGCODEPAGE
  3
UNDEFINED
  9
$INSBASE
 10
0.0
 20
0.0
 30
0.0
  9
$EXTMIN
 10
1.000000000000000E+20
 20
1.000000000000000E+20
 30
1.000000000000000E+20
  9
$EXTMAX
 10
-1.000000000000000E+20
 20
-1.000000000000000E+20
 30
-1.000000000000000E+20
  9
$LIMMIN
 10
0.0
 20
0.0
  9
$LIMMAX
 10
12.0
 20
9.0
  9
$ORTHOMODE
 70
     0
  9
$REGENMODE
 70
     1
  9
$FILLMODE
 70
     1
  9
$QTEXTMODE
 70
     0
  9
$MIRRTEXT
 70
     1
  9
$LTSCALE
 40
1.0
  9
$ATTMODE
 70
     1
  9
$TEXTSIZE
 40
0.2
  9
$TRACEWID
 40
0.05
  9
$TEXTSTYLE
  7
Standard
  9
$CLAYER
  8
0
  9
$CELTYPE
  6
ByLayer
  9
$CECOLOR
 62
   256
  9
$CELTSCALE
 40
1.0
  9
$DISPSILH
 70
     0
  9
$DIMSCALE
 40
1.0
  9
$DIMASZ
 40
0.18
  9
$DIMEXO
 40
0.0625
  9
$DIMDLI
 40
0.38
  9
$DIMRND
 40
0.0
  9
$DIMDLE
 40
0.0
  9
$DIMEXE
 40
0.18
  9
$DIMTP
 40
0.0
  9
$DIMTM
 40
0.0
  9
$DIMTXT
 40
0.18
  9
$DIMCEN
 40
0.09
  9
$DIMTSZ
 40
0.0
  9
$DIMTOL
 70
     0
  9
$DIMLIM
 70
     0
  9
$DIMTIH
 70
     1
  9
$DIMTOH
 70
     1
  9
$DIMSE1
 70
     0
  9
$DIMSE2
 70
     0
  9
$DIMTAD
 70
     0
  9
$DIMZIN
 70
     0
  9
$DIMBLK
  1

  9
$DIMASO
 70
     1
  9
$DIMSHO
 70
     1
  9
$DIMPOST
  1

  9
$DIMAPOST
  1

  9
$DIMALT
 70
     0
  9
$DIMALTD
 70
     2
  9
$DIMALTF
 40
25.4
  9
$DIMLFAC
 40
1.0
  9
$DIMTOFL
 70
     0
  9
$DIMTVP
 40
0.0
  9
$DIMTIX
 70
     0
  9
$DIMSOXD
 70
     0
  9
$DIMSAH
 70
     0
  9
$DIMBLK1
  1

  9
$DIMBLK2
  1

  9
$DIMSTYLE
  2
Standard
  9
$DIMCLRD
 70
     0
  9
$DIMCLRE
 70
     0
  9
$DIMCLRT
 70
     0
  9
$DIMTFAC
 40
1.0
  9
$DIMGAP
 40
0.09
  9
$DIMJUST
 70
     0
  9
$DIMSD1
 70
     0
  9
$DIMSD2
 70
     0
  9
$DIMTOLJ
 70
     1
  9
$DIMTZIN
 70
     0
  9
$DIMALTZ
 70
     0
  9
$DIMALTTZ
 70
     0
  9
$DIMUPT
 70
     0
  9
$DIMDEC
 70
     4
  9
$DIMTDEC
 70
     4
  9
$DIMALTU
 70
     2
  9
$DIMALTTD
 70
     2
  9
$DIMTXSTY
  7
Standard
  9
$DIMAUNIT
 70
     0
  9
$DIMADEC
 70
     0
  9
$DIMALTRND
 40
0.0
  9
$DIMAZIN
 70
     0
  9
$DIMDSEP
 70
    46
  9
$DIMATFIT
 70
     3
  9
$DIMFRAC
 70
     0
  9
$DIMLDRBLK
  1

  9
$DIMLUNIT
 70
     2
  9
$DIMLWD
 70
    -2
  9
$DIMLWE
 70
    -2
  9
$DIMTMOVE
 70
     0
  9
$DIMFXL
 40
1.0
  9
$DIMFXLON
 70
     0
  9
$DIMJOGANG
 40
0.7853981633974483
  9
$DIMTFILL
 70
     0
  9
$DIMTFILLCLR
 70
     0
  9
$DIMARCSYM
 70
     0
  9
$DIMLTYPE
  6

  9
$DIMLTEX1
  6

  9
$DIMLTEX2
  6

  9
$DIMTXTDIRECTION
 70
     0
  9
$LUNITS
 70
     2
  9
$LUPREC
 70
     4
  9
$SKETCHINC
 40
0.1
  9
$FILLETRAD
 40
0.5
  9
$AUNITS
 70
     0
  9
$AUPREC
 70
     0
  9
$MENU
  1
.
  9
$ELEVATION
 40
0.0
  9
$PELEVATION
 40
0.0
  9
$THICKNESS
 40
0.0
  9
$LIMCHECK
 70
     0
  9
$CHAMFERA
 40
0.5
  9
$CHAMFERB
 40
0.5
  9
$CHAMFERC
 40
1.0
  9
$CHAMFERD
 40
0.0
  9
$SKPOLY
 70
     0
  9
$TDCREATE
 40
2457917.601076377
  9
$TDUCREATE
 40
2457917.226076389
  9
$TDUPDATE
 40
2457917.601076377
  9
$TDUUPDATE
 40
2457917.226076389
  9
$TDINDWG
 40
0.0000000116
  9
$TDUSRTIMER
 40
0.0000000116
  9
$USRTIMER
 70
     1
  9
$ANGBASE
 50
0.0
  9
$ANGDIR
 70
     0
  9
$PDMODE
 70
     0
  9
$PDSIZE
 40
0.0
  9
$PLINEWID
 40
0.0
  9
$SPLFRAME
 70
     0
  9
$SPLINETYPE
 70
     6
  9
$SPLINESEGS
 70
     8
  9
$HANDSEED
  5
182
  9
$SURFTAB1
 70
     6
  9
$SURFTAB2
 70
     6
  9
$SURFTYPE
 70
     6
  9
$SURFU
 70
     6
  9
$SURFV
 70
     6
  9
$UCSBASE
  2

  9
$UCSNAME
  2

  9
$UCSORG
 10
0.0
 20
0.0
 30
0.0
  9
$UCSXDIR
 10
1.0
 20
0.0
 30
0.0
  9
$UCSYDIR
 10
0.0
 20
1.0
 30
0.0
  9
$UCSORTHOREF
  2

  9
$UCSORTHOVIEW
 70
     0
  9
$UCSORGTOP
 10
0.0
 20
0.0
 30
0.0
  9
$UCSORGBOTTOM
 10
0.0
 20
0.0
 30
0.0
  9
$UCSORGLEFT
 10
0.0
 20
0.0
 30
0.0
  9
$UCSORGRIGHT
 10
0.0
 20
0.0
 30
0.0
  9
$UCSORGFRONT
 10
0.0
 20
0.0
 30
0.0
  9
$UCSORGBACK
 10
0.0
 20
0.0
 30
0.0
  9
$PUCSBASE
  2

  9
$PUCSNAME
  2

  9
$PUCSORG
 10
0.0
 20
0.0
 30
0.0
  9
$PUCSXDIR
 10
1.0
 20
0.0
 30
0.0
  9
$PUCSYDIR
 10
0.0
 20
1.0
 30
0.0
  9
$PUCSORTHOREF
  2

  9
$PUCSORTHOVIEW
 70
     0
  9
$PUCSORGTOP
 10
0.0
 20
0.0
 30
0.0
  9
$PUCSORGBOTTOM
 10
0.0
 20
0.0
 30
0.0
  9
$PUCSORGLEFT
 10
0.0
 20
0.0
 30
0.0
  9
$PUCSORGRIGHT
 10
0.0
 20
0.0
 30
0.0
  9
$PUCSORGFRONT
 10
0.0
 20
0.0
 30
0.0
  9
$PUCSORGBACK
 10
0.0
 20
0.0
 30
0.0
  9
$USERI1
 70
     0
  9
$USERI2
 70
     0
  9
$USERI3
 70
     0
  9
$USERI4
 70
     0
  9
$USERI5
 70
     0
  9
$USERR1
 40
0.0
  9
$USERR2
 40
0.0
  9
$USERR3
 40
0.0
  9
$USERR4
 40
0.0
  9
$USERR5
 40
0.0
  9
$WORLDVIEW
 70
     1
  9
$SHADEDGE
 70
     3
  9
$SHADEDIF
 70
    70
  9
$TILEMODE
 70
     1
  9
$MAXACTVP
 70
    64
  9
$PINSBASE
 10
0.0
 20
0.0
 30
0.0
  9
$PLIMCHECK
 70
     0
  9
$PEXTMIN
 10
1.000000000000000E+20
 20
1.000000000000000E+20
 30
1.000000000000000E+20
  9
$PEXTMAX
 10
-1.000000000000000E+20
 20
-1.000000000000000E+20
 30
-1.000000000000000E+20
  9
$PLIMMIN
 10
0.0
 20
0.0
  9
$PLIMMAX
 10
12.0
 20
9.0
  9
$UNITMODE
 70
     0
  9
$VISRETAIN
 70
     1
  9
$PLINEGEN
 70
     0
  9
$PSLTSCALE
 70
     1
  9
$TREEDEPTH
 70
  3020
  9
$CMLSTYLE
  2
Standard
  9
$CMLJUST
 70
     0
  9
$CMLSCALE
 40
1.0
  9
$PROXYGRAPHICS
 70
     1
  9
$MEASUREMENT
 70
     0
  9
$CELWEIGHT
370
    -1
  9
$ENDCAPS
280
     0
  9
$JOINSTYLE
280
     0
  9
$LWDISPLAY
290
     1
  9
$INSUNITS
 70
     1
  9
$HYPERLINKBASE
  1

  9
$STYLESHEET
  1

  9
$XEDIT
290
     1
  9
$CEPSNTYPE
380
     0
  9
$PSTYLEMODE
290
     1
  9
$FINGERPRINTGUID
  2
{A6650039-A780-B3E1-2DA4-D0F6E4B6B108}
  9
$VERSIONGUID
  2
{FAEB1C32-E019-11D5-929B-00C0DF256EC4}
  9
$EXTNAMES
290
     1
  9
$PSVPSCALE
 40
0.0
  9
$OLESTARTUP
290
     0
  9
$SORTENTS
280
   127
  9
$INDEXCTL
280
     0
  9
$HIDETEXT
280
     1
  9
$XCLIPFRAME
280
     2
  9
$HALOGAP
280
     0
  9
$OBSCOLOR
 70
   257
  9
$OBSLTYPE
280
     0
  9
$INTERSECTIONDISPLAY
280
     0
  9
$INTERSECTIONCOLOR
 70
   257
  9
$DIMASSOC
280
     2
  9
$PROJECTNAME
  1

  9
$CAMERADISPLAY
290
     0
  9
$LENSLENGTH
 40
50.0
  9
$CAMERAHEIGHT
 40
0.0
  9
$STEPSPERSEC
 40
2.0
  9
$STEPSIZE
 40
6.0
  9
$3DDWFPREC
 40
2.0
  9
$PSOLWIDTH
 40
0.25
  9
$PSOLHEIGHT
 40
4.0
  9
$LOFTANG1
 40
1.570796326794897
  9
$LOFTANG2
 40
1.570796326794897
  9
$LOFTMAG1
 40
0.0
  9
$LOFTMAG2
 40
0.0
  9
$LOFTPARAM
 70
     7
  9
$LOFTNORMALS
280
     1
  9
$LATITUDE
 40
37.795
  9
$LONGITUDE
 40
-122.394
  9
$NORTHDIRECTION
 40
0.0
  9
$TIMEZONE
 70
 -8000
  9
$LIGHTGLYPHDISPLAY
280
     1
  9
$TILEMODELIGHTSYNCH
280
     1
  9
$CMATERIAL
347
3C
  9
$SOLIDHIST
280
     1
  9
$SHOWHIST
280
     1
  9
$DWFFRAME
280
     2
  9
$DGNFRAME
280
     2
  9
$REALWORLDSCALE
290
     1
  9
$INTERFERECOLOR
 62
   256
  9
$CSHADOW
280
     0
  9
$SHADOWPLANELOCATION
 40
0.0
  0
ENDSEC
  0
SECTION
  2
CLASSES
  0
CLASS
  1
ACDBDICTIONARYWDFLT
  2
AcDbDictionaryWithDefault
  3
ObjectDBX Classes
 90
        0
 91
        4
280
     0
281
     0
  0
CLASS
  1
VISUALSTYLE
  2
AcDbVisualStyle
  3
ObjectDBX Classes
 90
     4095
 91
        4
280
     0
281
     0
  0
CLASS
  1
MATERIAL
  2
AcDbMaterial
  3
ObjectDBX Classes
 90
     1153
 91
        4
280
     0
281
     0
  0
CLASS
  1
SUN
  2
AcDbSun
  3
SCENEOE
 90
     1024
 91
        4
280
     0
281
     0
  0
ENDSEC
  0
SECTION
  2
TABLES
  0
TABLE
  2
VPORT
  5
8
330
0
100
AcDbSymbolTable
 70
     1
  0
VPORT
  5
29
330
8
100
AcDbSymbolTableRecord
100
AcDbViewportTableRecord
  2
*Active
 70
     0
 10
0.0
 20
0.0
 11
1.0
 21
1.0
 12
0.0
 22
0.0
 13
0.0
 23
0.0
 14
0.5
 24
0.5
 15
0.5
 25
0.5
 16
0.0
 26
0.0
 36
1.0
 17
91.00082462281999
 27
-128.4993055234307
 37
0.0
 40
256.9986110468615
 41
0.7081814508812795
 42
50.0
 43
0.0
 44
0.0
 50
0.0
 51
0.0
 71
     0
 72
   100
 73
     1
 74
     3
 75
     0
 76
     0
 77
     0
 78
     0
281
     0
 65
     1
110
0.0
120
0.0
130
0.0
111
1.0
121
0.0
131
0.0
112
0.0
122
1.0
132
0.0
 79
     0
146
0.0
 60
     3
 61
     5
292
     1
282
     1
141
0.0
142
0.0
 63
   250
361
3F
  0
ENDTAB
  0
TABLE
  2
LTYPE
  5
5
330
0
100
AcDbSymbolTable
 70
     2
  0
LTYPE
  5
14
330
5
100
AcDbSymbolTableRecord
100
AcDbLinetypeTableRecord
  2
ByBlock
 70
     0
  3

 72
    65
 73
     0
 40
0.0
  0
LTYPE
  5
15
330
5
100
AcDbSymbolTableRecord
100
AcDbLinetypeTableRecord
  2
ByLayer
 70
     0
  3

 72
    65
 73
     0
 40
0.0
  0
LTYPE
  5
16
330
5
100
AcDbSymbolTableRecord
100
AcDbLinetypeTableRecord
  2
Continuous
 70
     0
  3
Solid line
 72
    65
 73
     0
 40
0.0
  0
LTYPE
  5
9A
330
5
100
AcDbSymbolTableRecord
100
AcDbLinetypeTableRecord
  2
AI-Linetype-1
 70
     0
  3
Adobe Illustrator Linetype No. 1
 72
    65
 73
     2
 40
1.411111110758333
 49
0.7055555553791667
 74
     0
 49
-0.7055555553791667
 74
     0
  0
ENDTAB
  0
TABLE
  2
LAYER
  5
2
330
0
100
AcDbSymbolTable
 70
     2
  0
LAYER
  5
10
330
2
100
AcDbSymbolTableRecord
100
AcDbLayerTableRecord
  2
0
 70
     0
 62
     7
  6
Continuous
370
    -3
390
F
347
3E
  0
LAYER
  5
40
330
2
100
AcDbSymbolTableRecord
100
AcDbLayerTableRecord
  2
_U+30EC_U+30A4_U+30E4_U+30FC 1
 70
     0
 62
     7
  6
Continuous
370
    -3
390
F
347
3E
  0
ENDTAB
  0
TABLE
  2
STYLE
  5
3
330
0
100
AcDbSymbolTable
 70
     1
  0
STYLE
  5
11
330
3
100
AcDbSymbolTableRecord
100
AcDbTextStyleTableRecord
  2
Standard
 70
     0
 40
0.0
 41
1.0
 50
0.0
 71
     0
 42
0.2
  3
txt
  4

  0
ENDTAB
  0
TABLE
  2
VIEW
  5
6
330
0
100
AcDbSymbolTable
 70
     0
  0
ENDTAB
  0
TABLE
  2
UCS
  5
7
330
0
100
AcDbSymbolTable
 70
     0
  0
ENDTAB
  0
TABLE
  2
APPID
  5
9
330
0
100
AcDbSymbolTable
 70
     1
  0
APPID
  5
12
330
9
100
AcDbSymbolTableRecord
100
AcDbRegAppTableRecord
  2
ACAD
 70
     0
  0
ENDTAB
  0
TABLE
  2
DIMSTYLE
  5
A
330
0
100
AcDbSymbolTable
 70
     1
100
AcDbDimStyleTable
  0
DIMSTYLE
105
27
330
A
100
AcDbSymbolTableRecord
100
AcDbDimStyleTableRecord
  2
Standard
 70
     0
178
     0
340
11
  0
ENDTAB
  0
TABLE
  2
BLOCK_RECORD
  5
1
330
0
100
AcDbSymbolTable
 70
    10
  0
BLOCK_RECORD
  5
1F
330
1
100
AcDbSymbolTableRecord
100
AcDbBlockTableRecord
  2
*Model_Space
340
22
 70
     0
280
     1
281
     0
  0
BLOCK_RECORD
  5
1B
330
1
100
AcDbSymbolTableRecord
100
AcDbBlockTableRecord
  2
*Paper_Space
340
1E
 70
     0
280
     1
281
     0
  0
BLOCK_RECORD
  5
23
330
1
100
AcDbSymbolTableRecord
100
AcDbBlockTableRecord
  2
*Paper_Space0
340
26
 70
     0
280
     1
281
     0
  0
BLOCK_RECORD
  5
8E
330
1
100
AcDbSymbolTableRecord
100
AcDbBlockTableRecord
  2
block 2
340
0
102
{BLKREFS
331
8F
102
}
 70
     0
280
     1
281
     0
  0
BLOCK_RECORD
  5
AA
330
1
100
AcDbSymbolTableRecord
100
AcDbBlockTableRecord
  2
block 3
340
0
102
{BLKREFS
331
AB
102
}
 70
     0
280
     1
281
     0
  0
BLOCK_RECORD
  5
BB
330
1
100
AcDbSymbolTableRecord
100
AcDbBlockTableRecord
  2
block 4
340
0
102
{BLKREFS
331
BC
102
}
 70
     0
280
     1
281
     0
  0
BLOCK_RECORD
  5
D6
330
1
100
AcDbSymbolTableRecord
100
AcDbBlockTableRecord
  2
block 5
340
0
102
{BLKREFS
331
D7
102
}
 70
     0
280
     1
281
     0
  0
BLOCK_RECORD
  5
DE
330
1
100
AcDbSymbolTableRecord
100
AcDbBlockTableRecord
  2
block 6
340
0
102
{BLKREFS
331
DF
102
}
 70
     0
280
     1
281
     0
  0
BLOCK_RECORD
  5
114
330
1
100
AcDbSymbolTableRecord
100
AcDbBlockTableRecord
  2
block 7
340
0
102
{BLKREFS
331
115
102
}
 70
     0
280
     1
281
     0
  0
BLOCK_RECORD
  5
11A
330
1
100
AcDbSymbolTableRecord
100
AcDbBlockTableRecord
  2
block 8
340
0
102
{BLKREFS
331
11B
102
}
 70
     0
280
     1
281
     0
  0
BLOCK_RECORD
  5
12B
330
1
100
AcDbSymbolTableRecord
100
AcDbBlockTableRecord
  2
block 9
340
0
102
{BLKREFS
331
12C
102
}
 70
     0
280
     1
281
     0
  0
BLOCK_RECORD
  5
142
330
1
100
AcDbSymbolTableRecord
100
AcDbBlockTableRecord
  2
block 10
340
0
102
{BLKREFS
331
143
102
}
 70
     0
280
     1
281
     0
  0
ENDTAB
  0
ENDSEC
  0
SECTION
  2
BLOCKS
  0
BLOCK
  5
20
330
1F
100
AcDbEntity
  8
0
100
AcDbBlockBegin
  2
*Model_Space
 70
     0
 10
0.0
 20
0.0
 30
0.0
  3
*Model_Space
  1

  0
ENDBLK
  5
21
330
1F
100
AcDbEntity
  8
0
100
AcDbBlockEnd
  0
BLOCK
  5
1C
330
1B
100
AcDbEntity
 67
     1
  8
0
100
AcDbBlockBegin
  2
*Paper_Space
 70
     0
 10
0.0
 20
0.0
 30
0.0
  3
*Paper_Space
  1

  0
ENDBLK
  5
1D
330
1B
100
AcDbEntity
 67
     1
  8
0
100
AcDbBlockEnd
  0
BLOCK
  5
24
330
23
100
AcDbEntity
  8
0
100
AcDbBlockBegin
  2
*Paper_Space0
 70
     0
 10
0.0
 20
0.0
 30
0.0
  3
*Paper_Space0
  1

  0
ENDBLK
  5
25
330
23
100
AcDbEntity
  8
0
100
AcDbBlockEnd
  0
BLOCK
  5
90
330
8E
100
AcDbEntity
  8
0
100
AcDbBlockBegin
  2
block 2
 70
     0
 10
0.0
 20
0.0
 30
0.0
  3
block 2
  1

  0
SPLINE
  5
92
330
8E
100
AcDbEntity
  8
_U+30EC_U+30A4_U+30E4_U+30FC 1
370
     0
100
AcDbSpline
210
0.0
220
0.0
230
1.0
 70
    11
 71
     3
 72
    26
 73
    22
 74
     0
 42
0.0000000001
 43
0.0000000001
 12
1.0
 22
0.0
 32
0.0
 13
1.0
 23
0.0
 33
0.0
 40
0.0
 40
0.0
 40
0.0
 40
0.0
 40
1.0
 40
1.0
 40
1.0
 40
2.0
 40
2.0
 40
2.0
 40
3.0
 40
3.0
 40
3.0
 40
4.0
 40
4.0
 40
4.0
 40
5.0
 40
5.0
 40
5.0
 40
6.0
 40
6.0
 40
6.0
 40
7.0
 40
7.0
 40
7.0
 40
7.0
 10
87.15385333107612
 20
-103.5283921724686
 30
0.0
 10
87.15385333107612
 20
-103.5283921724686
 30
0.0
 10
87.15385333107612
 20
-102.4240668146718
 30
0.0
 10
87.15385333107612
 20
-102.4240668146718
 30
0.0
 10
87.15385333107612
 20
-102.4240668146718
 30
0.0
 10
86.8238131835892
 20
-102.4240668146718
 30
0.0
 10
86.8238131835892
 20
-102.4240668146718
 30
0.0
 10
86.8238131835892
 20
-102.4240668146718
 30
0.0
 10
86.8238131835892
 20
-102.275927708806
 30
0.0
 10
86.8238131835892
 20
-102.275927708806
 30
0.0
 10
87.15592038836728
 20
-102.2612860529937
 30
0.0
 10
87.20242917741815
 20
-102.0983330365414
 30
0.0
 10
87.23205699859129
 20
-101.9841281212054
 30
0.0
 10
87.23205699859129
 20
-101.9841281212054
 30
0.0
 10
87.37812904716588
 20
-101.9841281212054
 30
0.0
 10
87.37812904716588
 20
-101.9841281212054
 30
0.0
 10
87.37812904716588
 20
-101.9841281212054
 30
0.0
 10
87.37812904716588
 20
-103.5283921724686
 30
0.0
 10
87.37812904716588
 20
-103.5283921724686
 30
0.0
 10
87.37812904716588
 20
-103.5283921724686
 30
0.0
 10
87.15385333107612
 20
-103.5283921724686
 30
0.0
 10
87.15385333107612
 20
-103.5283921724686
 30
0.0
  0
HATCH
  5
93
330
8E
100
AcDbEntity
  8
_U+30EC_U+30A4_U+30E4_U+30FC 1
 62
   179
420
  2234388
100
AcDbHatch
 10
0.0
 20
0.0
 30
0.0
210
0.0
220
0.0
230
1.0
  2
SOLID
 70
     1
 71
     0
 91
        1
 92
        1
 93
        1
 72
     4
 94
        3
 73
     0
 74
     1
 95
       26
 96
       22
 40
0.0
 40
0.0
 40
0.0
 40
0.0
 40
1.0
 40
1.0
 40
1.0
 40
2.0
 40
2.0
 40
2.0
 40
3.0
 40
3.0
 40
3.0
 40
4.0
 40
4.0
 40
4.0
 40
5.0
 40
5.0
 40
5.0
 40
6.0
 40
6.0
 40
6.0
 40
7.0
 40
7.0
 40
7.0
 40
7.0
 10
87.15385333107612
 20
-103.5283921724686
 10
87.15385333107612
 20
-103.5283921724686
 10
87.15385333107612
 20
-102.4240668146718
 10
87.15385333107612
 20
-102.4240668146718
 10
87.15385333107612
 20
-102.4240668146718
 10
86.8238131835892
 20
-102.4240668146718
 10
86.8238131835892
 20
-102.4240668146718
 10
86.8238131835892
 20
-102.4240668146718
 10
86.8238131835892
 20
-102.275927708806
 10
86.8238131835892
 20
-102.275927708806
 10
87.15592038836728
 20
-102.2612860529937
 10
87.20242917741815
 20
-102.0983330365414
 10
87.23205699859129
 20
-101.9841281212054
 10
87.23205699859129
 20
-101.9841281212054
 10
87.37812904716588
 20
-101.9841281212054
 10
87.37812904716588
 20
-101.9841281212054
 10
87.37812904716588
 20
-101.9841281212054
 10
87.37812904716588
 20
-103.5283921724686
 10
87.37812904716588
 20
-103.5283921724686
 10
87.37812904716588
 20
-103.5283921724686
 10
87.15385333107612
 20
-103.5283921724686
 10
87.15385333107612
 20
-103.5283921724686
 97
        0
 97
        0
 75
     2
 76
     1
 98
        0
  0
ENDBLK
  5
91
330
8E
100
AcDbEntity
  8
0
100
AcDbBlockEnd
  0
BLOCK
  5
AC
330
AA
100
AcDbEntity
  8
0
100
AcDbBlockBegin
  2
block 3
 70
     0
 10
0.0
 20
0.0
 30
0.0
  3
block 3
  1

  0
SPLINE
  5
AE
330
AA
100
AcDbEntity
  8
_U+30EC_U+30A4_U+30E4_U+30FC 1
370
     0
100
AcDbSpline
210
0.0
220
0.0
230
1.0
 70
    11
 71
     3
 72
    26
 73
    22
 74
     0
 42
0.0000000001
 43
0.0000000001
 12
1.0
 22
0.0
 32
0.0
 13
1.0
 23
0.0
 33
0.0
 40
0.0
 40
0.0
 40
0.0
 40
0.0
 40
1.0
 40
1.0
 40
1.0
 40
2.0
 40
2.0
 40
2.0
 40
3.0
 40
3.0
 40
3.0
 40
4.0
 40
4.0
 40
4.0
 40
5.0
 40
5.0
 40
5.0
 40
6.0
 40
6.0
 40
6.0
 40
7.0
 40
7.0
 40
7.0
 40
7.0
 10
83.29190129211105
 20
-159.7680256762038
 30
0.0
 10
83.29190129211105
 20
-159.7680256762038
 30
0.0
 10
83.29190129211105
 20
-158.6638725731813
 30
0.0
 10
83.29190129211105
 20
-158.6638725731813
 30
0.0
 10
83.29190129211105
 20
-158.6638725731813
 30
0.0
 10
82.96186114462412
 20
-158.6638725731813
 30
0.0
 10
82.96186114462412
 20
-158.6638725731813
 30
0.0
 10
82.96186114462412
 20
-158.6638725731813
 30
0.0
 10
82.96186114462412
 20
-158.5157334673155
 30
0.0
 10
82.96186114462412
 20
-158.5157334673155
 30
0.0
 10
83.2939683494022
 20
-158.5009195567289
 30
0.0
 10
83.34047713845308
 20
-158.3379665402766
 30
0.0
 10
83.37010495962623
 20
-158.2235893701663
 30
0.0
 10
83.37010495962623
 20
-158.2235893701663
 30
0.0
 10
83.51617700820083
 20
-158.2235893701663
 30
0.0
 10
83.51617700820083
 20
-158.2235893701663
 30
0.0
 10
83.51617700820083
 20
-158.2235893701663
 30
0.0
 10
83.51617700820083
 20
-159.7680256762038
 30
0.0
 10
83.51617700820083
 20
-159.7680256762038
 30
0.0
 10
83.51617700820083
 20
-159.7680256762038
 30
0.0
 10
83.29190129211105
 20
-159.7680256762038
 30
0.0
 10
83.29190129211105
 20
-159.7680256762038
 30
0.0
  0
HATCH
  5
AF
330
AA
100
AcDbEntity
  8
_U+30EC_U+30A4_U+30E4_U+30FC 1
 62
   179
420
  2234388
100
AcDbHatch
 10
0.0
 20
0.0
 30
0.0
210
0.0
220
0.0
230
1.0
  2
SOLID
 70
     1
 71
     0
 91
        1
 92
        1
 93
        1
 72
     4
 94
        3
 73
     0
 74
     1
 95
       26
 96
       22
 40
0.0
 40
0.0
 40
0.0
 40
0.0
 40
1.0
 40
1.0
 40
1.0
 40
2.0
 40
2.0
 40
2.0
 40
3.0
 40
3.0
 40
3.0
 40
4.0
 40
4.0
 40
4.0
 40
5.0
 40
5.0
 40
5.0
 40
6.0
 40
6.0
 40
6.0
 40
7.0
 40
7.0
 40
7.0
 40
7.0
 10
83.29190129211105
 20
-159.7680256762038
 10
83.29190129211105
 20
-159.7680256762038
 10
83.29190129211105
 20
-158.6638725731813
 10
83.29190129211105
 20
-158.6638725731813
 10
83.29190129211105
 20
-158.6638725731813
 10
82.96186114462412
 20
-158.6638725731813
 10
82.96186114462412
 20
-158.6638725731813
 10
82.96186114462412
 20
-158.6638725731813
 10
82.96186114462412
 20
-158.5157334673155
 10
82.96186114462412
 20
-158.5157334673155
 10
83.2939683494022
 20
-158.5009195567289
 10
83.34047713845308
 20
-158.3379665402766
 10
83.37010495962623
 20
-158.2235893701663
 10
83.37010495962623
 20
-158.2235893701663
 10
83.51617700820083
 20
-158.2235893701663
 10
83.51617700820083
 20
-158.2235893701663
 10
83.51617700820083
 20
-158.2235893701663
 10
83.51617700820083
 20
-159.7680256762038
 10
83.51617700820083
 20
-159.7680256762038
 10
83.51617700820083
 20
-159.7680256762038
 10
83.29190129211105
 20
-159.7680256762038
 10
83.29190129211105
 20
-159.7680256762038
 97
        0
 97
        0
 75
     2
 76
     1
 98
        0
  0
SPLINE
  5
B0
330
AA
100
AcDbEntity
  8
_U+30EC_U+30A4_U+30E4_U+30FC 1
370
     0
100
AcDbSpline
210
0.0
220
0.0
230
1.0
 70
    11
 71
     3
 72
    53
 73
    49
 74
     0
 42
0.0000000001
 43
0.0000000001
 12
1.0
 22
0.0
 32
0.0
 13
1.0
 23
0.0
 33
0.0
 40
0.0
 40
0.0
 40
0.0
 40
0.0
 40
1.0
 40
1.0
 40
1.0
 40
2.0
 40
2.0
 40
2.0
 40
3.0
 40
3.0
 40
3.0
 40
4.0
 40
4.0
 40
4.0
 40
5.0
 40
5.0
 40
5.0
 40
6.0
 40
6.0
 40
6.0
 40
7.0
 40
7.0
 40
7.0
 40
8.0
 40
8.0
 40
8.0
 40
9.0
 40
9.0
 40
9.0
 40
10.0
 40
10.0
 40
10.0
 40
11.0
 40
11.0
 40
11.0
 40
12.0
 40
12.0
 40
12.0
 40
13.0
 40
13.0
 40
13.0
 40
14.0
 40
14.0
 40
14.0
 40
15.0
 40
15.0
 40
15.0
 40
16.0
 40
16.0
 40
16.0
 40
16.0
 10
84.49837373104555
 20
-159.818668579837
 30
0.0
 10
84.42017006353038
 20
-159.818668579837
 30
0.0
 10
84.3185397467155
 20
-159.8017876119593
 30
0.0
 10
84.21690942990064
 20
-159.7383978550307
 30
0.0
 10
84.04362112699258
 20
-159.6284993090512
 30
0.0
 10
84.02226153498403
 20
-159.4972411710632
 30
0.0
 10
84.00331350981514
 20
-159.3894096823749
 30
0.0
 10
84.00331350981514
 20
-159.3894096823749
 30
0.0
 10
84.22552216861376
 20
-159.3894096823749
 30
0.0
 10
84.22552216861376
 20
-159.3894096823749
 30
0.0
 10
84.28029918682924
 20
-159.5881916918738
 30
0.0
 10
84.40742321023495
 20
-159.617819513047
 30
0.0
 10
84.5004407883367
 20
-159.617819513047
 30
0.0
 10
84.63996715548932
 20
-159.617819513047
 30
0.0
 10
84.79224037593735
 20
-159.5182562535232
 30
0.0
 10
84.79224037593735
 20
-159.2857123082689
 30
0.0
 10
84.79224037593735
 20
-159.0297417137148
 30
0.0
 10
84.61240639160732
 20
-158.9598062753642
 30
0.0
 10
84.49182804962358
 20
-158.9598062753642
 30
0.0
 10
84.46013317115927
 20
-158.9598062753642
 30
0.0
 10
84.3185397467155
 20
-158.9598062753642
 30
0.0
 10
84.22965628319606
 20
-159.0889973560611
 30
0.0
 10
84.22965628319606
 20
-159.0889973560611
 30
0.0
 10
84.05395641344832
 20
-159.0700493308922
 30
0.0
 10
84.05395641344832
 20
-159.0700493308922
 30
0.0
 10
84.05395641344832
 20
-159.0700493308922
 30
0.0
 10
84.17453475543206
 20
-158.2235893701663
 30
0.0
 10
84.17453475543206
 20
-158.2235893701663
 30
0.0
 10
84.17453475543206
 20
-158.2235893701663
 30
0.0
 10
84.95312633509853
 20
-158.2235893701663
 30
0.0
 10
84.95312633509853
 20
-158.2235893701663
 30
0.0
 10
84.95312633509853
 20
-158.2235893701663
 30
0.0
 10
84.95312633509853
 20
-158.418237265083
 30
0.0
 10
84.95312633509853
 20
-158.418237265083
 30
0.0
 10
84.95312633509853
 20
-158.418237265083
 30
0.0
 10
84.33748777188438
 20
-158.418237265083
 30
0.0
 10
84.33748777188438
 20
-158.418237265083
 30
0.0
 10
84.33748777188438
 20
-158.418237265083
 30
0.0
 10
84.27203095766464
 20
-158.8412949906716
 30
0.0
 10
84.27203095766464
 20
-158.8412949906716
 30
0.0
 10
84.33335365730208
 20
-158.8075330549162
 30
0.0
 10
84.41569143939955
 20
-158.7672254377387
 30
0.0
 10
84.53420272409215
 20
-158.7672254377387
 30
0.0
 10
84.78810626135505
 20
-158.7672254377387
 30
0.0
 10
85.02512883074024
 20
-158.9536051034908
 30
0.0
 10
85.02512883074024
 20
-159.2667642831
 30
0.0
 10
85.02512883074024
 20
-159.5840575772915
 30
0.0
 10
84.80085311465048
 20
-159.818668579837
 30
0.0
 10
84.49837373104555
 20
-159.818668579837
 30
0.0
  0
HATCH
  5
B1
330
AA
100
AcDbEntity
  8
_U+30EC_U+30A4_U+30E4_U+30FC 1
 62
   179
420
  2234388
100
AcDbHatch
 10
0.0
 20
0.0
 30
0.0
210
0.0
220
0.0
230
1.0
  2
SOLID
 70
     1
 71
     0
 91
        1
 92
        1
 93
        1
 72
     4
 94
        3
 73
     0
 74
     1
 95
       53
 96
       49
 40
0.0
 40
0.0
 40
0.0
 40
0.0
 40
1.0
 40
1.0
 40
1.0
 40
2.0
 40
2.0
 40
2.0
 40
3.0
 40
3.0
 40
3.0
 40
4.0
 40
4.0
 40
4.0
 40
5.0
 40
5.0
 40
5.0
 40
6.0
 40
6.0
 40
6.0
 40
7.0
 40
7.0
 40
7.0
 40
8.0
 40
8.0
 40
8.0
 40
9.0
 40
9.0
 40
9.0
 40
10.0
 40
10.0
 40
10.0
 40
11.0
 40
11.0
 40
11.0
 40
12.0
 40
12.0
 40
12.0
 40
13.0
 40
13.0
 40
13.0
 40
14.0
 40
14.0
 40
14.0
 40
15.0
 40
15.0
 40
15.0
 40
16.0
 40
16.0
 40
16.0
 40
16.0
 10
84.49837373104555
 20
-159.818668579837
 10
84.42017006353038
 20
-159.818668579837
 10
84.3185397467155
 20
-159.8017876119593
 10
84.21690942990064
 20
-159.7383978550307
 10
84.04362112699258
 20
-159.6284993090512
 10
84.02226153498403
 20
-159.4972411710632
 10
84.00331350981514
 20
-159.3894096823749
 10
84.00331350981514
 20
-159.3894096823749
 10
84.22552216861376
 20
-159.3894096823749
 10
84.22552216861376
 20
-159.3894096823749
 10
84.28029918682924
 20
-159.5881916918738
 10
84.40742321023495
 20
-159.617819513047
 10
84.5004407883367
 20
-159.617819513047
 10
84.63996715548932
 20
-159.617819513047
 10
84.79224037593735
 20
-159.5182562535232
 10
84.79224037593735
 20
-159.2857123082689
 10
84.79224037593735
 20
-159.0297417137148
 10
84.61240639160732
 20
-158.9598062753642
 10
84.49182804962358
 20
-158.9598062753642
 10
84.46013317115927
 20
-158.9598062753642
 10
84.3185397467155
 20
-158.9598062753642
 10
84.22965628319606
 20
-159.0889973560611
 10
84.22965628319606
 20
-159.0889973560611
 10
84.05395641344832
 20
-159.0700493308922
 10
84.05395641344832
 20
-159.0700493308922
 10
84.05395641344832
 20
-159.0700493308922
 10
84.17453475543206
 20
-158.2235893701663
 10
84.17453475543206
 20
-158.2235893701663
 10
84.17453475543206
 20
-158.2235893701663
 10
84.95312633509853
 20
-158.2235893701663
 10
84.95312633509853
 20
-158.2235893701663
 10
84.95312633509853
 20
-158.2235893701663
 10
84.95312633509853
 20
-158.418237265083
 10
84.95312633509853
 20
-158.418237265083
 10
84.95312633509853
 20
-158.418237265083
 10
84.33748777188438
 20
-158.418237265083
 10
84.33748777188438
 20
-158.418237265083
 10
84.33748777188438
 20
-158.418237265083
 10
84.27203095766464
 20
-158.8412949906716
 10
84.27203095766464
 20
-158.8412949906716
 10
84.33335365730208
 20
-158.8075330549162
 10
84.41569143939955
 20
-158.7672254377387
 10
84.53420272409215
 20
-158.7672254377387
 10
84.78810626135505
 20
-158.7672254377387
 10
85.02512883074024
 20
-158.9536051034908
 10
85.02512883074024
 20
-159.2667642831
 10
85.02512883074024
 20
-159.5840575772915
 10
84.80085311465048
 20
-159.818668579837
 10
84.49837373104555
 20
-159.818668579837
 97
        0
 97
        0
 75
     2
 76
     1
 98
        0
  0
ENDBLK
  5
AD
330
AA
100
AcDbEntity
  8
0
100
AcDbBlockEnd
  0
BLOCK
  5
BD
330
BB
100
AcDbEntity
  8
0
100
AcDbBlockBegin
  2
block 4
 70
     0
 10
0.0
 20
0.0
 30
0.0
  3
block 4
  1

  0
POLYLINE
  5
BF
330
BB
100
AcDbEntity
  8
_U+30EC_U+30A4_U+30E4_U+30FC 1
370
     0
100
AcDb2dPolyline
 66
     1
 10
0.0
 20
0.0
 30
0.0
  0
VERTEX
  5
C0
330
BF
100
AcDbEntity
  8
_U+30EC_U+30A4_U+30E4_U+30FC 1
370
     0
100
AcDbVertex
100
AcDb2dVertex
 10
96.95325518409503
 20
-116.9137939160841
 30
0.0
  0
VERTEX
  5
C1
330
BF
100
AcDbEntity
  8
_U+30EC_U+30A4_U+30E4_U+30FC 1
370
     0
100
AcDbVertex
100
AcDb2dVertex
 10
97.3005208090082
 20
-116.9137939160841
 30
0.0
  0
VERTEX
  5
C2
330
BF
100
AcDbEntity
  8
_U+30EC_U+30A4_U+30E4_U+30FC 1
370
     0
100
AcDbVertex
100
AcDb2dVertex
 10
97.3005208090082
 20
-117.1315239507518
 30
0.0
  0
VERTEX
  5
C3
330
BF
100
AcDbEntity
  8
_U+30EC_U+30A4_U+30E4_U+30FC 1
370
     0
100
AcDbVertex
100
AcDb2dVertex
 10
96.95325518409503
 20
-117.1315239507518
 30
0.0
  0
VERTEX
  5
C4
330
BF
100
AcDbEntity
  8
_U+30EC_U+30A4_U+30E4_U+30FC 1
370
     0
100
AcDbVertex
100
AcDb2dVertex
 10
96.95325518409503
 20
-117.7874701311434
 30
0.0
  0
VERTEX
  5
C5
330
BF
100
AcDbEntity
  8
_U+30EC_U+30A4_U+30E4_U+30FC 1
370
     0
100
AcDbVertex
100
AcDb2dVertex
 10
96.72932397755379
 20
-117.7874701311434
 30
0.0
  0
VERTEX
  5
C6
330
BF
100
AcDbEntity
  8
_U+30EC_U+30A4_U+30E4_U+30FC 1
370
     0
100
AcDbVertex
100
AcDb2dVertex
 10
95.75573999342218
 20
-117.1084418110007
 30
0.0
  0
VERTEX
  5
C7
330
BF
100
AcDbEntity
  8
_U+30EC_U+30A4_U+30E4_U+30FC 1
370
     0
100
AcDbVertex
100
AcDb2dVertex
 10
95.75573999342218
 20
-116.9137939160841
 30
0.0
  0
VERTEX
  5
C8
330
BF
100
AcDbEntity
  8
_U+30EC_U+30A4_U+30E4_U+30FC 1
370
     0
100
AcDbVertex
100
AcDb2dVertex
 10
96.75481768414463
 20
-116.9137939160841
 30
0.0
  0
VERTEX
  5
C9
330
BF
100
AcDbEntity
  8
_U+30EC_U+30A4_U+30E4_U+30FC 1
370
     0
100
AcDbVertex
100
AcDb2dVertex
 10
96.75481768414463
 20
-116.706399167872
 30
0.0
  0
VERTEX
  5
CA
330
BF
100
AcDbEntity
  8
_U+30EC_U+30A4_U+30E4_U+30FC 1
370
     0
100
AcDbVertex
100
AcDb2dVertex
 10
96.95325518409503
 20
-116.706399167872
 30
0.0
  0
VERTEX
  5
CB
330
BF
100
AcDbEntity
  8
_U+30EC_U+30A4_U+30E4_U+30FC 1
370
     0
100
AcDbVertex
100
AcDb2dVertex
 10
96.95325518409503
 20
-116.9137939160841
 30
0.0
  0
SEQEND
  5
CC
330
BF
100
AcDbEntity
  8
_U+30EC_U+30A4_U+30E4_U+30FC 1
370
     0
  0
POLYLINE
  5
CD
330
BB
100
AcDbEntity
  8
_U+30EC_U+30A4_U+30E4_U+30FC 1
370
     0
100
AcDb2dPolyline
 66
     1
 10
0.0
 20
0.0
 30
0.0
  0
VERTEX
  5
CE
330
CD
100
AcDbEntity
  8
_U+30EC_U+30A4_U+30E4_U+30FC 1
370
     0
100
AcDbVertex
100
AcDb2dVertex
 10
96.09887150375306
 20
-117.1315239507518
 30
0.0
  0
VERTEX
  5
CF
330
CD
100
AcDbEntity
  8
_U+30EC_U+30A4_U+30E4_U+30FC 1
370
     0
100
AcDbVertex
100
AcDb2dVertex
 10
96.75481768414463
 20
-117.5886881216445
 30
0.0
  0
VERTEX
  5
D0
330
CD
100
AcDbEntity
  8
_U+30EC_U+30A4_U+30E4_U+30FC 1
370
     0
100
AcDbVertex
100
AcDb2dVertex
 10
96.75481768414463
 20
-117.1315239507518
 30
0.0
  0
VERTEX
  5
D1
330
CD
100
AcDbEntity
  8
_U+30EC_U+30A4_U+30E4_U+30FC 1
370
     0
100
AcDbVertex
100
AcDb2dVertex
 10
96.09887150375306
 20
-117.1315239507518
 30
0.0
  0
SEQEND
  5
D2
330
CD
100
AcDbEntity
  8
_U+30EC_U+30A4_U+30E4_U+30FC 1
370
     0
  0
HATCH
  5
D3
330
BB
100
AcDbEntity
  8
_U+30EC_U+30A4_U+30E4_U+30FC 1
 62
   179
420
  2234388
100
AcDbHatch
 10
0.0
 20
0.0
 30
0.0
210
0.0
220
0.0
230
1.0
  2
SOLID
 70
     1
 71
     0
 91
        2
 92
        1
 93
       11
 72
     1
 10
96.95325518409503
 20
-116.9137939160841
 11
97.3005208090082
 21
-116.9137939160841
 72
     1
 10
97.3005208090082
 20
-116.9137939160841
 11
97.3005208090082
 21
-117.1315239507518
 72
     1
 10
97.3005208090082
 20
-117.1315239507518
 11
96.95325518409503
 21
-117.1315239507518
 72
     1
 10
96.95325518409503
 20
-117.1315239507518
 11
96.95325518409503
 21
-117.7874701311434
 72
     1
 10
96.95325518409503
 20
-117.7874701311434
 11
96.72932397755379
 21
-117.7874701311434
 72
     1
 10
96.72932397755379
 20
-117.7874701311434
 11
95.75573999342218
 21
-117.1084418110007
 72
     1
 10
95.75573999342218
 20
-117.1084418110007
 11
95.75573999342218
 21
-116.9137939160841
 72
     1
 10
95.75573999342218
 20
-116.9137939160841
 11
96.75481768414463
 21
-116.9137939160841
 72
     1
 10
96.75481768414463
 20
-116.9137939160841
 11
96.75481768414463
 21
-116.706399167872
 72
     1
 10
96.75481768414463
 20
-116.706399167872
 11
96.95325518409503
 21
-116.706399167872
 72
     1
 10
96.95325518409503
 20
-116.706399167872
 11
96.95325518409503
 21
-116.9137939160841
 97
        0
 92
        1
 93
        3
 72
     1
 10
96.09887150375306
 20
-117.1315239507518
 11
96.75481768414463
 21
-117.5886881216445
 72
     1
 10
96.75481768414463
 20
-117.5886881216445
 11
96.75481768414463
 21
-117.1315239507518
 72
     1
 10
96.75481768414463
 20
-117.1315239507518
 11
96.09887150375306
 21
-117.1315239507518
 97
        0
 75
     2
 76
     1
 98
        0
  0
SPLINE
  5
D4
330
BB
100
AcDbEntity
  8
_U+30EC_U+30A4_U+30E4_U+30FC 1
370
     0
100
AcDbSpline
210
0.0
220
0.0
230
1.0
 70
    11
 71
     3
 72
    53
 73
    49
 74
     0
 42
0.0000000001
 43
0.0000000001
 12
1.0
 22
0.0
 32
0.0
 13
1.0
 23
0.0
 33
0.0
 40
0.0
 40
0.0
 40
0.0
 40
0.0
 40
1.0
 40
1.0
 40
1.0
 40
2.0
 40
2.0
 40
2.0
 40
3.0
 40
3.0
 40
3.0
 40
4.0
 40
4.0
 40
4.0
 40
5.0
 40
5.0
 40
5.0
 40
6.0
 40
6.0
 40
6.0
 40
7.0
 40
7.0
 40
7.0
 40
8.0
 40
8.0
 40
8.0
 40
9.0
 40
9.0
 40
9.0
 40
10.0
 40
10.0
 40
10.0
 40
11.0
 40
11.0
 40
11.0
 40
12.0
 40
12.0
 40
12.0
 40
13.0
 40
13.0
 40
13.0
 40
14.0
 40
14.0
 40
14.0
 40
15.0
 40
15.0
 40
15.0
 40
16.0
 40
16.0
 40
16.0
 40
16.0
 10
97.35081920309285
 20
-116.0880045282697
 30
0.0
 10
97.35081920309285
 20
-116.1662081957848
 30
0.0
 10
97.33428274476366
 20
-116.2678385125997
 30
0.0
 10
97.27089298783505
 20
-116.3694688294146
 30
0.0
 10
97.16064993230707
 20
-116.5427571323226
 30
0.0
 10
97.02973630386757
 20
-116.5641167243312
 30
0.0
 10
96.92156030563072
 20
-116.5830647495001
 30
0.0
 10
96.92156030563072
 20
-116.5830647495001
 30
0.0
 10
96.92156030563072
 20
-116.3608560907015
 30
0.0
 10
96.92156030563072
 20
-116.3608560907015
 30
0.0
 10
97.12068682467816
 20
-116.306079072486
 30
0.0
 10
97.15031464585131
 20
-116.1789550490803
 30
0.0
 10
97.15031464585131
 20
-116.0859374709785
 30
0.0
 10
97.15031464585131
 20
-115.9464111038259
 30
0.0
 10
97.05040687677906
 20
-115.7941378833779
 30
0.0
 10
96.81820744107323
 20
-115.7941378833779
 30
0.0
 10
96.56189233697064
 20
-115.7941378833779
 30
0.0
 10
96.4923014081686
 20
-115.9739718677079
 30
0.0
 10
96.4923014081686
 20
-116.0945502096916
 30
0.0
 10
96.4923014081686
 20
-116.1262450881559
 30
0.0
 10
96.4923014081686
 20
-116.2678385125997
 30
0.0
 10
96.62114797931694
 20
-116.3567219761192
 30
0.0
 10
96.62114797931694
 20
-116.3567219761192
 30
0.0
 10
96.60254446369659
 20
-116.5324218458669
 30
0.0
 10
96.60254446369659
 20
-116.5324218458669
 30
0.0
 10
96.60254446369659
 20
-116.5324218458669
 30
0.0
 10
95.75573999342218
 20
-116.4118435038832
 30
0.0
 10
95.75573999342218
 20
-116.4118435038832
 30
0.0
 10
95.75573999342218
 20
-116.4118435038832
 30
0.0
 10
95.75573999342218
 20
-115.6332519242167
 30
0.0
 10
95.75573999342218
 20
-115.6332519242167
 30
0.0
 10
95.75573999342218
 20
-115.6332519242167
 30
0.0
 10
95.95073239788732
 20
-115.6332519242167
 30
0.0
 10
95.95073239788732
 20
-115.6332519242167
 30
0.0
 10
95.95073239788732
 20
-115.6332519242167
 30
0.0
 10
95.95073239788732
 20
-116.2488904874308
 30
0.0
 10
95.95073239788732
 20
-116.2488904874308
 30
0.0
 10
95.95073239788732
 20
-116.2488904874308
 30
0.0
 10
96.373790123476
 20
-116.3143473016506
 30
0.0
 10
96.373790123476
 20
-116.3143473016506
 30
0.0
 10
96.34002818772055
 20
-116.2530246020131
 30
0.0
 10
96.2993760609946
 20
-116.1706868199157
 30
0.0
 10
96.2993760609946
 20
-116.0521755352231
 30
0.0
 10
96.2993760609946
 20
-115.7982719979602
 30
0.0
 10
96.48610023629514
 20
-115.561249428575
 30
0.0
 10
96.79891490635583
 20
-115.561249428575
 30
0.0
 10
97.11655271009586
 20
-115.561249428575
 30
0.0
 10
97.35081920309285
 20
-115.7855251446647
 30
0.0
 10
97.35081920309285
 20
-116.0880045282697
 30
0.0
  0
HATCH
  5
D5
330
BB
100
AcDbEntity
  8
_U+30EC_U+30A4_U+30E4_U+30FC 1
 62
   179
420
  2234388
100
AcDbHatch
 10
0.0
 20
0.0
 30
0.0
210
0.0
220
0.0
230
1.0
  2
SOLID
 70
     1
 71
     0
 91
        1
 92
        1
 93
        1
 72
     4
 94
        3
 73
     0
 74
     1
 95
       53
 96
       49
 40
0.0
 40
0.0
 40
0.0
 40
0.0
 40
1.0
 40
1.0
 40
1.0
 40
2.0
 40
2.0
 40
2.0
 40
3.0
 40
3.0
 40
3.0
 40
4.0
 40
4.0
 40
4.0
 40
5.0
 40
5.0
 40
5.0
 40
6.0
 40
6.0
 40
6.0
 40
7.0
 40
7.0
 40
7.0
 40
8.0
 40
8.0
 40
8.0
 40
9.0
 40
9.0
 40
9.0
 40
10.0
 40
10.0
 40
10.0
 40
11.0
 40
11.0
 40
11.0
 40
12.0
 40
12.0
 40
12.0
 40
13.0
 40
13.0
 40
13.0
 40
14.0
 40
14.0
 40
14.0
 40
15.0
 40
15.0
 40
15.0
 40
16.0
 40
16.0
 40
16.0
 40
16.0
 10
97.35081920309285
 20
-116.0880045282697
 10
97.35081920309285
 20
-116.1662081957848
 10
97.33428274476366
 20
-116.2678385125997
 10
97.27089298783505
 20
-116.3694688294146
 10
97.16064993230707
 20
-116.5427571323226
 10
97.02973630386757
 20
-116.5641167243312
 10
96.92156030563072
 20
-116.5830647495001
 10
96.92156030563072
 20
-116.5830647495001
 10
96.92156030563072
 20
-116.3608560907015
 10
96.92156030563072
 20
-116.3608560907015
 10
97.12068682467816
 20
-116.306079072486
 10
97.15031464585131
 20
-116.1789550490803
 10
97.15031464585131
 20
-116.0859374709785
 10
97.15031464585131
 20
-115.9464111038259
 10
97.05040687677906
 20
-115.7941378833779
 10
96.81820744107323
 20
-115.7941378833779
 10
96.56189233697064
 20
-115.7941378833779
 10
96.4923014081686
 20
-115.9739718677079
 10
96.4923014081686
 20
-116.0945502096916
 10
96.4923014081686
 20
-116.1262450881559
 10
96.4923014081686
 20
-116.2678385125997
 10
96.62114797931694
 20
-116.3567219761192
 10
96.62114797931694
 20
-116.3567219761192
 10
96.60254446369659
 20
-116.5324218458669
 10
96.60254446369659
 20
-116.5324218458669
 10
96.60254446369659
 20
-116.5324218458669
 10
95.75573999342218
 20
-116.4118435038832
 10
95.75573999342218
 20
-116.4118435038832
 10
95.75573999342218
 20
-116.4118435038832
 10
95.75573999342218
 20
-115.6332519242167
 10
95.75573999342218
 20
-115.6332519242167
 10
95.75573999342218
 20
-115.6332519242167
 10
95.95073239788732
 20
-115.6332519242167
 10
95.95073239788732
 20
-115.6332519242167
 10
95.95073239788732
 20
-115.6332519242167
 10
95.95073239788732
 20
-116.2488904874308
 10
95.95073239788732
 20
-116.2488904874308
 10
95.95073239788732
 20
-116.2488904874308
 10
96.373790123476
 20
-116.3143473016506
 10
96.373790123476
 20
-116.3143473016506
 10
96.34002818772055
 20
-116.2530246020131
 10
96.2993760609946
 20
-116.1706868199157
 10
96.2993760609946
 20
-116.0521755352231
 10
96.2993760609946
 20
-115.7982719979602
 10
96.48610023629514
 20
-115.561249428575
 10
96.79891490635583
 20
-115.561249428575
 10
97.11655271009586
 20
-115.561249428575
 10
97.35081920309285
 20
-115.7855251446647
 10
97.35081920309285
 20
-116.0880045282697
 97
        0
 97
        0
 75
     2
 76
     1
 98
        0
  0
ENDBLK
  5
BE
330
BB
100
AcDbEntity
  8
0
100
AcDbBlockEnd
  0
BLOCK
  5
D8
330
D6
100
AcDbEntity
  8
0
100
AcDbBlockBegin
  2
block 5
 70
     0
 10
0.0
 20
0.0
 30
0.0
  3
block 5
  1

  0
SPLINE
  5
DA
330
D6
100
AcDbEntity
  8
_U+30EC_U+30A4_U+30E4_U+30FC 1
370
     0
100
AcDbSpline
210
0.0
220
0.0
230
1.0
 70
    11
 71
     3
 72
    26
 73
    22
 74
     0
 42
0.0000000001
 43
0.0000000001
 12
1.0
 22
0.0
 32
0.0
 13
1.0
 23
0.0
 33
0.0
 40
0.0
 40
0.0
 40
0.0
 40
0.0
 40
1.0
 40
1.0
 40
1.0
 40
2.0
 40
2.0
 40
2.0
 40
3.0
 40
3.0
 40
3.0
 40
4.0
 40
4.0
 40
4.0
 40
5.0
 40
5.0
 40
5.0
 40
6.0
 40
6.0
 40
6.0
 40
7.0
 40
7.0
 40
7.0
 40
7.0
 10
97.3005208090082
 20
-146.5019964911523
 30
0.0
 10
97.3005208090082
 20
-146.5019964911523
 30
0.0
 10
96.19602319643711
 20
-146.5019964911523
 30
0.0
 10
96.19602319643711
 20
-146.5019964911523
 30
0.0
 10
96.19602319643711
 20
-146.5019964911523
 30
0.0
 10
96.19602319643711
 20
-146.8320366386392
 30
0.0
 10
96.19602319643711
 20
-146.8320366386392
 30
0.0
 10
96.19602319643711
 20
-146.8320366386392
 30
0.0
 10
96.04788409057137
 20
-146.8320366386392
 30
0.0
 10
96.04788409057137
 20
-146.8320366386392
 30
0.0
 10
96.03341468953332
 20
-146.4999294338611
 30
0.0
 10
95.87011716353247
 20
-146.4534206448103
 30
0.0
 10
95.75573999342218
 20
-146.4237928236371
 30
0.0
 10
95.75573999342218
 20
-146.4237928236371
 30
0.0
 10
95.75573999342218
 20
-146.2777207750625
 30
0.0
 10
95.75573999342218
 20
-146.2777207750625
 30
0.0
 10
95.75573999342218
 20
-146.2777207750625
 30
0.0
 10
97.3005208090082
 20
-146.2777207750625
 30
0.0
 10
97.3005208090082
 20
-146.2777207750625
 30
0.0
 10
97.3005208090082
 20
-146.2777207750625
 30
0.0
 10
97.3005208090082
 20
-146.5019964911523
 30
0.0
 10
97.3005208090082
 20
-146.5019964911523
 30
0.0
  0
HATCH
  5
DB
330
D6
100
AcDbEntity
  8
_U+30EC_U+30A4_U+30E4_U+30FC 1
 62
   179
420
  2234388
100
AcDbHatch
 10
0.0
 20
0.0
 30
0.0
210
0.0
220
0.0
230
1.0
  2
SOLID
 70
     1
 71
     0
 91
        1
 92
        1
 93
        1
 72
     4
 94
        3
 73
     0
 74
     1
 95
       26
 96
       22
 40
0.0
 40
0.0
 40
0.0
 40
0.0
 40
1.0
 40
1.0
 40
1.0
 40
2.0
 40
2.0
 40
2.0
 40
3.0
 40
3.0
 40
3.0
 40
4.0
 40
4.0
 40
4.0
 40
5.0
 40
5.0
 40
5.0
 40
6.0
 40
6.0
 40
6.0
 40
7.0
 40
7.0
 40
7.0
 40
7.0
 10
97.3005208090082
 20
-146.5019964911523
 10
97.3005208090082
 20
-146.5019964911523
 10
96.19602319643711
 20
-146.5019964911523
 10
96.19602319643711
 20
-146.5019964911523
 10
96.19602319643711
 20
-146.5019964911523
 10
96.19602319643711
 20
-146.8320366386392
 10
96.19602319643711
 20
-146.8320366386392
 10
96.19602319643711
 20
-146.8320366386392
 10
96.04788409057137
 20
-146.8320366386392
 10
96.04788409057137
 20
-146.8320366386392
 10
96.03341468953332
 20
-146.4999294338611
 10
95.87011716353247
 20
-146.4534206448103
 10
95.75573999342218
 20
-146.4237928236371
 10
95.75573999342218
 20
-146.4237928236371
 10
95.75573999342218
 20
-146.2777207750625
 10
95.75573999342218
 20
-146.2777207750625
 10
95.75573999342218
 20
-146.2777207750625
 10
97.3005208090082
 20
-146.2777207750625
 10
97.3005208090082
 20
-146.2777207750625
 10
97.3005208090082
 20
-146.2777207750625
 10
97.3005208090082
 20
-146.5019964911523
 10
97.3005208090082
 20
-146.5019964911523
 97
        0
 97
        0
 75
     2
 76
     1
 98
        0
  0
SPLINE
  5
DC
330
D6
100
AcDbEntity
  8
_U+30EC_U+30A4_U+30E4_U+30FC 1
370
     0
100
AcDbSpline
210
0.0
220
0.0
230
1.0
 70
    11
 71
     3
 72
    62
 73
    58
 74
     0
 42
0.0000000001
 43
0.0000000001
 12
1.0
 22
0.0
 32
0.0
 13
1.0
 23
0.0
 33
0.0
 40
0.0
 40
0.0
 40
0.0
 40
0.0
 40
1.0
 40
1.0
 40
1.0
 40
2.0
 40
2.0
 40
2.0
 40
3.0
 40
3.0
 40
3.0
 40
4.0
 40
4.0
 40
4.0
 40
5.0
 40
5.0
 40
5.0
 40
6.0
 40
6.0
 40
6.0
 40
7.0
 40
7.0
 40
7.0
 40
8.0
 40
8.0
 40
8.0
 40
9.0
 40
9.0
 40
9.0
 40
10.0
 40
10.0
 40
10.0
 40
11.0
 40
11.0
 40
11.0
 40
12.0
 40
12.0
 40
12.0
 40
13.0
 40
13.0
 40
13.0
 40
14.0
 40
14.0
 40
14.0
 40
15.0
 40
15.0
 40
15.0
 40
16.0
 40
16.0
 40
16.0
 40
17.0
 40
17.0
 40
17.0
 40
18.0
 40
18.0
 40
18.0
 40
19.0
 40
19.0
 40
19.0
 40
19.0
 10
97.35081920309285
 20
-145.2848442562135
 30
0.0
 10
97.35081920309285
 20
-145.3802734011549
 30
0.0
 10
97.33014863018136
 20
-145.5980034358227
 30
0.0
 10
97.14411347397787
 20
-145.7230604019373
 30
0.0
 10
97.03180336115872
 20
-145.7971299548702
 30
0.0
 10
96.93258461118353
 20
-145.8012640694525
 30
0.0
 10
96.84783526224638
 20
-145.8053981840348
 30
0.0
 10
96.84783526224638
 20
-145.8053981840348
 30
0.0
 10
96.84783526224638
 20
-145.5852565825273
 30
0.0
 10
96.84783526224638
 20
-145.5852565825273
 30
0.0
 10
96.92156030563072
 20
-145.5831895252362
 30
0.0
 10
97.15651581772477
 20
-145.5728542387804
 30
0.0
 10
97.15651581772477
 20
-145.2893228803443
 30
0.0
 10
97.15651581772477
 20
-145.1518635704829
 30
0.0
 10
97.08692488892272
 20
-144.9992458404863
 30
0.0
 10
96.85817054870213
 20
-144.9992458404863
 30
0.0
 10
96.74172632130069
 20
-144.9992458404863
 30
0.0
 10
96.69349498450718
 20
-145.0374864003726
 30
0.0
 10
96.66180010604289
 20
-145.0691812788369
 30
0.0
 10
96.5873860435615
 20
-145.1432508317698
 30
0.0
 10
96.5749836998146
 20
-145.2596950591712
 30
0.0
 10
96.5749836998146
 20
-145.3144720773867
 30
0.0
 10
96.5749836998146
 20
-145.3337646121041
 30
0.0
 10
96.57705075710574
 20
-145.3695936051507
 30
0.0
 10
96.58118487168804
 20
-145.3971543690326
 30
0.0
 10
96.58118487168804
 20
-145.3971543690326
 30
0.0
 10
96.3861924672229
 20
-145.3971543690326
 30
0.0
 10
96.3861924672229
 20
-145.3971543690326
 30
0.0
 10
96.3930826581934
 20
-145.3589138091464
 30
0.0
 10
96.39514971548455
 20
-145.3168836442264
 30
0.0
 10
96.39514971548455
 20
-145.3103379628044
 30
0.0
 10
96.39514971548455
 20
-145.2448811485846
 30
0.0
 10
96.373790123476
 20
-145.0460991390857
 30
0.0
 10
96.13676755409081
 20
-145.0460991390857
 30
0.0
 10
95.95900062705192
 20
-145.0460991390857
 30
0.0
 10
95.90387909928792
 20
-145.1770127675252
 30
0.0
 10
95.90387909928792
 20
-145.2872558230532
 30
0.0
 10
95.90387909928792
 20
-145.5514946467719
 30
0.0
 10
96.13676755409081
 20
-145.560107385485
 30
0.0
 10
96.20842554018401
 20
-145.5642415000673
 30
0.0
 10
96.20842554018401
 20
-145.5642415000673
 30
0.0
 10
96.20842554018401
 20
-145.767502133697
 30
0.0
 10
96.20842554018401
 20
-145.767502133697
 30
0.0
 10
96.08371308361797
 20
-145.7588893949839
 30
0.0
 10
95.70750865662868
 20
-145.7313286311019
 30
0.0
 10
95.70750865662868
 20
-145.2745089697578
 30
0.0
 10
95.70750865662868
 20
-145.050233253668
 30
0.0
 10
95.83428817048588
 20
-144.8090765697005
 30
0.0
 10
96.13056638221737
 20
-144.8090765697005
 30
0.0
 10
96.31660153842085
 20
-144.8090765697005
 30
0.0
 10
96.39928383006685
 20
-144.9041612050934
 30
0.0
 10
96.4606065297043
 20
-145.0037244646171
 30
0.0
 10
96.4881672935863
 20
-144.9424017649797
 30
0.0
 10
96.56809350884409
 20
-144.7605007233585
 30
0.0
 10
96.84576820495523
 20
-144.7605007233585
 30
0.0
 10
97.18407658160676
 20
-144.7605007233585
 30
0.0
 10
97.35081920309285
 20
-145.0078585791994
 30
0.0
 10
97.35081920309285
 20
-145.2848442562135
 30
0.0
  0
HATCH
  5
DD
330
D6
100
AcDbEntity
  8
_U+30EC_U+30A4_U+30E4_U+30FC 1
 62
   179
420
  2234388
100
AcDbHatch
 10
0.0
 20
0.0
 30
0.0
210
0.0
220
0.0
230
1.0
  2
SOLID
 70
     1
 71
     0
 91
        1
 92
        1
 93
        1
 72
     4
 94
        3
 73
     0
 74
     1
 95
       62
 96
       58
 40
0.0
 40
0.0
 40
0.0
 40
0.0
 40
1.0
 40
1.0
 40
1.0
 40
2.0
 40
2.0
 40
2.0
 40
3.0
 40
3.0
 40
3.0
 40
4.0
 40
4.0
 40
4.0
 40
5.0
 40
5.0
 40
5.0
 40
6.0
 40
6.0
 40
6.0
 40
7.0
 40
7.0
 40
7.0
 40
8.0
 40
8.0
 40
8.0
 40
9.0
 40
9.0
 40
9.0
 40
10.0
 40
10.0
 40
10.0
 40
11.0
 40
11.0
 40
11.0
 40
12.0
 40
12.0
 40
12.0
 40
13.0
 40
13.0
 40
13.0
 40
14.0
 40
14.0
 40
14.0
 40
15.0
 40
15.0
 40
15.0
 40
16.0
 40
16.0
 40
16.0
 40
17.0
 40
17.0
 40
17.0
 40
18.0
 40
18.0
 40
18.0
 40
19.0
 40
19.0
 40
19.0
 40
19.0
 10
97.35081920309285
 20
-145.2848442562135
 10
97.35081920309285
 20
-145.3802734011549
 10
97.33014863018136
 20
-145.5980034358227
 10
97.14411347397787
 20
-145.7230604019373
 10
97.03180336115872
 20
-145.7971299548702
 10
96.93258461118353
 20
-145.8012640694525
 10
96.84783526224638
 20
-145.8053981840348
 10
96.84783526224638
 20
-145.8053981840348
 10
96.84783526224638
 20
-145.5852565825273
 10
96.84783526224638
 20
-145.5852565825273
 10
96.92156030563072
 20
-145.5831895252362
 10
97.15651581772477
 20
-145.5728542387804
 10
97.15651581772477
 20
-145.2893228803443
 10
97.15651581772477
 20
-145.1518635704829
 10
97.08692488892272
 20
-144.9992458404863
 10
96.85817054870213
 20
-144.9992458404863
 10
96.74172632130069
 20
-144.9992458404863
 10
96.69349498450718
 20
-145.0374864003726
 10
96.66180010604289
 20
-145.0691812788369
 10
96.5873860435615
 20
-145.1432508317698
 10
96.5749836998146
 20
-145.2596950591712
 10
96.5749836998146
 20
-145.3144720773867
 10
96.5749836998146
 20
-145.3337646121041
 10
96.57705075710574
 20
-145.3695936051507
 10
96.58118487168804
 20
-145.3971543690326
 10
96.58118487168804
 20
-145.3971543690326
 10
96.3861924672229
 20
-145.3971543690326
 10
96.3861924672229
 20
-145.3971543690326
 10
96.3930826581934
 20
-145.3589138091464
 10
96.39514971548455
 20
-145.3168836442264
 10
96.39514971548455
 20
-145.3103379628044
 10
96.39514971548455
 20
-145.2448811485846
 10
96.373790123476
 20
-145.0460991390857
 10
96.13676755409081
 20
-145.0460991390857
 10
95.95900062705192
 20
-145.0460991390857
 10
95.90387909928792
 20
-145.1770127675252
 10
95.90387909928792
 20
-145.2872558230532
 10
95.90387909928792
 20
-145.5514946467719
 10
96.13676755409081
 20
-145.560107385485
 10
96.20842554018401
 20
-145.5642415000673
 10
96.20842554018401
 20
-145.5642415000673
 10
96.20842554018401
 20
-145.767502133697
 10
96.20842554018401
 20
-145.767502133697
 10
96.08371308361797
 20
-145.7588893949839
 10
95.70750865662868
 20
-145.7313286311019
 10
95.70750865662868
 20
-145.2745089697578
 10
95.70750865662868
 20
-145.050233253668
 10
95.83428817048588
 20
-144.8090765697005
 10
96.13056638221737
 20
-144.8090765697005
 10
96.31660153842085
 20
-144.8090765697005
 10
96.39928383006685
 20
-144.9041612050934
 10
96.4606065297043
 20
-145.0037244646171
 10
96.4881672935863
 20
-144.9424017649797
 10
96.56809350884409
 20
-144.7605007233585
 10
96.84576820495523
 20
-144.7605007233585
 10
97.18407658160676
 20
-144.7605007233585
 10
97.35081920309285
 20
-145.0078585791994
 10
97.35081920309285
 20
-145.2848442562135
 97
        0
 97
        0
 75
     2
 76
     1
 98
        0
  0
ENDBLK
  5
D9
330
D6
100
AcDbEntity
  8
0
100
AcDbBlockEnd
  0
BLOCK
  5
E0
330
DE
100
AcDbEntity
  8
0
100
AcDbBlockBegin
  2
block 6
 70
     0
 10
0.0
 20
0.0
 30
0.0
  3
block 6
  1

  0
POLYLINE
  5
E2
330
DE
100
AcDbEntity
  8
_U+30EC_U+30A4_U+30E4_U+30FC 1
370
     0
100
AcDb2dPolyline
 66
     1
 10
0.0
 20
0.0
 30
0.0
  0
VERTEX
  5
E3
330
E2
100
AcDbEntity
  8
_U+30EC_U+30A4_U+30E4_U+30FC 1
370
     0
100
AcDbVertex
100
AcDb2dVertex
 10
96.95325518409503
 20
-153.8707112245532
 30
0.0
  0
VERTEX
  5
E4
330
E2
100
AcDbEntity
  8
_U+30EC_U+30A4_U+30E4_U+30FC 1
370
     0
100
AcDbVertex
100
AcDb2dVertex
 10
97.3005208090082
 20
-153.8707112245532
 30
0.0
  0
VERTEX
  5
E5
330
E2
100
AcDbEntity
  8
_U+30EC_U+30A4_U+30E4_U+30FC 1
370
     0
100
AcDbVertex
100
AcDb2dVertex
 10
97.3005208090082
 20
-154.088441259221
 30
0.0
  0
VERTEX
  5
E6
330
E2
100
AcDbEntity
  8
_U+30EC_U+30A4_U+30E4_U+30FC 1
370
     0
100
AcDbVertex
100
AcDb2dVertex
 10
96.95325518409503
 20
-154.088441259221
 30
0.0
  0
VERTEX
  5
E7
330
E2
100
AcDbEntity
  8
_U+30EC_U+30A4_U+30E4_U+30FC 1
370
     0
100
AcDbVertex
100
AcDb2dVertex
 10
96.95325518409503
 20
-154.7443874396125
 30
0.0
  0
VERTEX
  5
E8
330
E2
100
AcDbEntity
  8
_U+30EC_U+30A4_U+30E4_U+30FC 1
370
     0
100
AcDbVertex
100
AcDb2dVertex
 10
96.72932397755379
 20
-154.7443874396125
 30
0.0
  0
VERTEX
  5
E9
330
E2
100
AcDbEntity
  8
_U+30EC_U+30A4_U+30E4_U+30FC 1
370
     0
100
AcDbVertex
100
AcDb2dVertex
 10
95.75573999342218
 20
-154.0653591194698
 30
0.0
  0
VERTEX
  5
EA
330
E2
100
AcDbEntity
  8
_U+30EC_U+30A4_U+30E4_U+30FC 1
370
     0
100
AcDbVertex
100
AcDb2dVertex
 10
95.75573999342218
 20
-153.8707112245532
 30
0.0
  0
VERTEX
  5
EB
330
E2
100
AcDbEntity
  8
_U+30EC_U+30A4_U+30E4_U+30FC 1
370
     0
100
AcDbVertex
100
AcDb2dVertex
 10
96.75481768414463
 20
-153.8707112245532
 30
0.0
  0
VERTEX
  5
EC
330
E2
100
AcDbEntity
  8
_U+30EC_U+30A4_U+30E4_U+30FC 1
370
     0
100
AcDbVertex
100
AcDb2dVertex
 10
96.75481768414463
 20
-153.6633164763411
 30
0.0
  0
VERTEX
  5
ED
330
E2
100
AcDbEntity
  8
_U+30EC_U+30A4_U+30E4_U+30FC 1
370
     0
100
AcDbVertex
100
AcDb2dVertex
 10
96.95325518409503
 20
-153.6633164763411
 30
0.0
  0
VERTEX
  5
EE
330
E2
100
AcDbEntity
  8
_U+30EC_U+30A4_U+30E4_U+30FC 1
370
     0
100
AcDbVertex
100
AcDb2dVertex
 10
96.95325518409503
 20
-153.8707112245532
 30
0.0
  0
SEQEND
  5
EF
330
E2
100
AcDbEntity
  8
_U+30EC_U+30A4_U+30E4_U+30FC 1
370
     0
  0
POLYLINE
  5
F0
330
DE
100
AcDbEntity
  8
_U+30EC_U+30A4_U+30E4_U+30FC 1
370
     0
100
AcDb2dPolyline
 66
     1
 10
0.0
 20
0.0
 30
0.0
  0
VERTEX
  5
F1
330
F0
100
AcDbEntity
  8
_U+30EC_U+30A4_U+30E4_U+30FC 1
370
     0
100
AcDbVertex
100
AcDb2dVertex
 10
96.09887150375306
 20
-154.088441259221
 30
0.0
  0
VERTEX
  5
F2
330
F0
100
AcDbEntity
  8
_U+30EC_U+30A4_U+30E4_U+30FC 1
370
     0
100
AcDbVertex
100
AcDb2dVertex
 10
96.75481768414463
 20
-154.5456054301136
 30
0.0
  0
VERTEX
  5
F3
330
F0
100
AcDbEntity
  8
_U+30EC_U+30A4_U+30E4_U+30FC 1
370
     0
100
AcDbVertex
100
AcDb2dVertex
 10
96.75481768414463
 20
-154.088441259221
 30
0.0
  0
VERTEX
  5
F4
330
F0
100
AcDbEntity
  8
_U+30EC_U+30A4_U+30E4_U+30FC 1
370
     0
100
AcDbVertex
100
AcDb2dVertex
 10
96.09887150375306
 20
-154.088441259221
 30
0.0
  0
SEQEND
  5
F5
330
F0
100
AcDbEntity
  8
_U+30EC_U+30A4_U+30E4_U+30FC 1
370
     0
  0
HATCH
  5
F6
330
DE
100
AcDbEntity
  8
_U+30EC_U+30A4_U+30E4_U+30FC 1
 62
   179
420
  2234388
100
AcDbHatch
 10
0.0
 20
0.0
 30
0.0
210
0.0
220
0.0
230
1.0
  2
SOLID
 70
     1
 71
     0
 91
        2
 92
        1
 93
       11
 72
     1
 10
96.95325518409503
 20
-153.8707112245532
 11
97.3005208090082
 21
-153.8707112245532
 72
     1
 10
97.3005208090082
 20
-153.8707112245532
 11
97.3005208090082
 21
-154.088441259221
 72
     1
 10
97.3005208090082
 20
-154.088441259221
 11
96.95325518409503
 21
-154.088441259221
 72
     1
 10
96.95325518409503
 20
-154.088441259221
 11
96.95325518409503
 21
-154.7443874396125
 72
     1
 10
96.95325518409503
 20
-154.7443874396125
 11
96.72932397755379
 21
-154.7443874396125
 72
     1
 10
96.72932397755379
 20
-154.7443874396125
 11
95.75573999342218
 21
-154.0653591194698
 72
     1
 10
95.75573999342218
 20
-154.0653591194698
 11
95.75573999342218
 21
-153.8707112245532
 72
     1
 10
95.75573999342218
 20
-153.8707112245532
 11
96.75481768414463
 21
-153.8707112245532
 72
     1
 10
96.75481768414463
 20
-153.8707112245532
 11
96.75481768414463
 21
-153.6633164763411
 72
     1
 10
96.75481768414463
 20
-153.6633164763411
 11
96.95325518409503
 21
-153.6633164763411
 72
     1
 10
96.95325518409503
 20
-153.6633164763411
 11
96.95325518409503
 21
-153.8707112245532
 97
        0
 92
        1
 93
        3
 72
     1
 10
96.09887150375306
 20
-154.088441259221
 11
96.75481768414463
 21
-154.5456054301136
 72
     1
 10
96.75481768414463
 20
-154.5456054301136
 11
96.75481768414463
 21
-154.088441259221
 72
     1
 10
96.75481768414463
 20
-154.088441259221
 11
96.09887150375306
 21
-154.088441259221
 97
        0
 75
     2
 76
     1
 98
        0
  0
ENDBLK
  5
E1
330
DE
100
AcDbEntity
  8
0
100
AcDbBlockEnd
  0
BLOCK
  5
116
330
114
100
AcDbEntity
  8
0
100
AcDbBlockBegin
  2
block 7
 70
     0
 10
0.0
 20
0.0
 30
0.0
  3
block 7
  1

  0
SPLINE
  5
118
330
114
100
AcDbEntity
  8
_U+30EC_U+30A4_U+30E4_U+30FC 1
370
     0
100
AcDbSpline
210
0.0
220
0.0
230
1.0
 70
    11
 71
     3
 72
    62
 73
    58
 74
     0
 42
0.0000000001
 43
0.0000000001
 12
1.0
 22
0.0
 32
0.0
 13
1.0
 23
0.0
 33
0.0
 40
0.0
 40
0.0
 40
0.0
 40
0.0
 40
1.0
 40
1.0
 40
1.0
 40
2.0
 40
2.0
 40
2.0
 40
3.0
 40
3.0
 40
3.0
 40
4.0
 40
4.0
 40
4.0
 40
5.0
 40
5.0
 40
5.0
 40
6.0
 40
6.0
 40
6.0
 40
7.0
 40
7.0
 40
7.0
 40
8.0
 40
8.0
 40
8.0
 40
9.0
 40
9.0
 40
9.0
 40
10.0
 40
10.0
 40
10.0
 40
11.0
 40
11.0
 40
11.0
 40
12.0
 40
12.0
 40
12.0
 40
13.0
 40
13.0
 40
13.0
 40
14.0
 40
14.0
 40
14.0
 40
15.0
 40
15.0
 40
15.0
 40
16.0
 40
16.0
 40
16.0
 40
17.0
 40
17.0
 40
17.0
 40
18.0
 40
18.0
 40
18.0
 40
19.0
 40
19.0
 40
19.0
 40
19.0
 10
77.83487004347532
 20
-129.0949625328304
 30
0.0
 10
77.7394408985339
 20
-129.0949625328304
 30
0.0
 10
77.5217108638661
 20
-129.0739474503704
 30
0.0
 10
77.39665389775153
 20
-128.8879122941669
 30
0.0
 10
77.32258434481867
 20
-128.7756021813478
 30
0.0
 10
77.31845023023637
 20
-128.6763834313726
 30
0.0
 10
77.31431611565407
 20
-128.5916340824354
 30
0.0
 10
77.31431611565407
 20
-128.5916340824354
 30
0.0
 10
77.53445771716153
 20
-128.5916340824354
 30
0.0
 10
77.53445771716153
 20
-128.5916340824354
 30
0.0
 10
77.53652477445267
 20
-128.6657036353683
 30
0.0
 10
77.54686006090843
 20
-128.9003146379138
 30
0.0
 10
77.8303914193445
 20
-128.9003146379138
 30
0.0
 10
77.96785072920596
 20
-128.9003146379138
 30
0.0
 10
78.12046845920253
 20
-128.8307237091118
 30
0.0
 10
78.12046845920253
 20
-128.6023138784397
 30
0.0
 10
78.12046845920253
 20
-128.4858696510383
 30
0.0
 10
78.08222789931625
 20
-128.4372938046962
 30
0.0
 10
78.05053302085196
 20
-128.4055989262319
 30
0.0
 10
77.97646346791909
 20
-128.3315293732991
 30
0.0
 10
77.86001924051764
 20
-128.3187825200037
 30
0.0
 10
77.80524222230217
 20
-128.3187825200037
 30
0.0
 10
77.78594968758476
 20
-128.3187825200037
 30
0.0
 10
77.75012069453817
 20
-128.3208495772948
 30
0.0
 10
77.72255993065617
 20
-128.3249836918771
 30
0.0
 10
77.72255993065617
 20
-128.3249836918771
 30
0.0
 10
77.72255993065617
 20
-128.1303357969605
 30
0.0
 10
77.72255993065617
 20
-128.1303357969605
 30
0.0
 10
77.76080049054244
 20
-128.1368814783825
 30
0.0
 10
77.80283065546249
 20
-128.1389485356736
 30
0.0
 10
77.80937633688447
 20
-128.1389485356736
 30
0.0
 10
77.87483315110421
 20
-128.1389485356736
 30
0.0
 10
78.07361516060313
 20
-128.1175889436651
 30
0.0
 10
78.07361516060313
 20
-127.8809108838284
 30
0.0
 10
78.07361516060313
 20
-127.7031439567895
 30
0.0
 10
77.94270153216364
 20
-127.6480224290255
 30
0.0
 10
77.83245847663564
 20
-127.6480224290255
 30
0.0
 10
77.56821965291698
 20
-127.6480224290255
 30
0.0
 10
77.55960691420385
 20
-127.8809108838284
 30
0.0
 10
77.55547279962155
 20
-127.9525688699216
 30
0.0
 10
77.55547279962155
 20
-127.9525688699216
 30
0.0
 10
77.35221216599182
 20
-127.9525688699216
 30
0.0
 10
77.35221216599182
 20
-127.9525688699216
 30
0.0
 10
77.36082490470494
 20
-127.8278564133555
 30
0.0
 10
77.38838566858693
 20
-127.4513074768177
 30
0.0
 10
77.84520532993106
 20
-127.4513074768177
 30
0.0
 10
78.06948104602083
 20
-127.4513074768177
 30
0.0
 10
78.31063772998831
 20
-127.5784315002235
 30
0.0
 10
78.31063772998831
 20
-127.8743652024064
 30
0.0
 10
78.31063772998831
 20
-128.0607448681584
 30
0.0
 10
78.21555309459542
 20
-128.1430826502559
 30
0.0
 10
78.1159898350717
 20
-128.2044053498933
 30
0.0
 10
78.17731253470915
 20
-128.2319661137753
 30
0.0
 10
78.35921357633033
 20
-128.3122368385817
 30
0.0
 10
78.35921357633033
 20
-128.5895670251443
 30
0.0
 10
78.35921357633033
 20
-128.9278754017958
 30
0.0
 10
78.1118557204894
 20
-129.0949625328304
 30
0.0
 10
77.83487004347532
 20
-129.0949625328304
 30
0.0
  0
HATCH
  5
119
330
114
100
AcDbEntity
  8
_U+30EC_U+30A4_U+30E4_U+30FC 1
 62
   179
420
  2234388
100
AcDbHatch
 10
0.0
 20
0.0
 30
0.0
210
0.0
220
0.0
230
1.0
  2
SOLID
 70
     1
 71
     0
 91
        1
 92
        1
 93
        1
 72
     4
 94
        3
 73
     0
 74
     1
 95
       62
 96
       58
 40
0.0
 40
0.0
 40
0.0
 40
0.0
 40
1.0
 40
1.0
 40
1.0
 40
2.0
 40
2.0
 40
2.0
 40
3.0
 40
3.0
 40
3.0
 40
4.0
 40
4.0
 40
4.0
 40
5.0
 40
5.0
 40
5.0
 40
6.0
 40
6.0
 40
6.0
 40
7.0
 40
7.0
 40
7.0
 40
8.0
 40
8.0
 40
8.0
 40
9.0
 40
9.0
 40
9.0
 40
10.0
 40
10.0
 40
10.0
 40
11.0
 40
11.0
 40
11.0
 40
12.0
 40
12.0
 40
12.0
 40
13.0
 40
13.0
 40
13.0
 40
14.0
 40
14.0
 40
14.0
 40
15.0
 40
15.0
 40
15.0
 40
16.0
 40
16.0
 40
16.0
 40
17.0
 40
17.0
 40
17.0
 40
18.0
 40
18.0
 40
18.0
 40
19.0
 40
19.0
 40
19.0
 40
19.0
 10
77.83487004347532
 20
-129.0949625328304
 10
77.7394408985339
 20
-129.0949625328304
 10
77.5217108638661
 20
-129.0739474503704
 10
77.39665389775153
 20
-128.8879122941669
 10
77.32258434481867
 20
-128.7756021813478
 10
77.31845023023637
 20
-128.6763834313726
 10
77.31431611565407
 20
-128.5916340824354
 10
77.31431611565407
 20
-128.5916340824354
 10
77.53445771716153
 20
-128.5916340824354
 10
77.53445771716153
 20
-128.5916340824354
 10
77.53652477445267
 20
-128.6657036353683
 10
77.54686006090843
 20
-128.9003146379138
 10
77.8303914193445
 20
-128.9003146379138
 10
77.96785072920596
 20
-128.9003146379138
 10
78.12046845920253
 20
-128.8307237091118
 10
78.12046845920253
 20
-128.6023138784397
 10
78.12046845920253
 20
-128.4858696510383
 10
78.08222789931625
 20
-128.4372938046962
 10
78.05053302085196
 20
-128.4055989262319
 10
77.97646346791909
 20
-128.3315293732991
 10
77.86001924051764
 20
-128.3187825200037
 10
77.80524222230217
 20
-128.3187825200037
 10
77.78594968758476
 20
-128.3187825200037
 10
77.75012069453817
 20
-128.3208495772948
 10
77.72255993065617
 20
-128.3249836918771
 10
77.72255993065617
 20
-128.3249836918771
 10
77.72255993065617
 20
-128.1303357969605
 10
77.72255993065617
 20
-128.1303357969605
 10
77.76080049054244
 20
-128.1368814783825
 10
77.80283065546249
 20
-128.1389485356736
 10
77.80937633688447
 20
-128.1389485356736
 10
77.87483315110421
 20
-128.1389485356736
 10
78.07361516060313
 20
-128.1175889436651
 10
78.07361516060313
 20
-127.8809108838284
 10
78.07361516060313
 20
-127.7031439567895
 10
77.94270153216364
 20
-127.6480224290255
 10
77.83245847663564
 20
-127.6480224290255
 10
77.56821965291698
 20
-127.6480224290255
 10
77.55960691420385
 20
-127.8809108838284
 10
77.55547279962155
 20
-127.9525688699216
 10
77.55547279962155
 20
-127.9525688699216
 10
77.35221216599182
 20
-127.9525688699216
 10
77.35221216599182
 20
-127.9525688699216
 10
77.36082490470494
 20
-127.8278564133555
 10
77.38838566858693
 20
-127.4513074768177
 10
77.84520532993106
 20
-127.4513074768177
 10
78.06948104602083
 20
-127.4513074768177
 10
78.31063772998831
 20
-127.5784315002235
 10
78.31063772998831
 20
-127.8743652024064
 10
78.31063772998831
 20
-128.0607448681584
 10
78.21555309459542
 20
-128.1430826502559
 10
78.1159898350717
 20
-128.2044053498933
 10
78.17731253470915
 20
-128.2319661137753
 10
78.35921357633033
 20
-128.3122368385817
 10
78.35921357633033
 20
-128.5895670251443
 10
78.35921357633033
 20
-128.9278754017958
 10
78.1118557204894
 20
-129.0949625328304
 10
77.83487004347532
 20
-129.0949625328304
 97
        0
 97
        0
 75
     2
 76
     1
 98
        0
  0
ENDBLK
  5
117
330
114
100
AcDbEntity
  8
0
100
AcDbBlockEnd
  0
BLOCK
  5
11C
330
11A
100
AcDbEntity
  8
0
100
AcDbBlockBegin
  2
block 8
 70
     0
 10
0.0
 20
0.0
 30
0.0
  3
block 8
  1

  0
SPLINE
  5
11E
330
11A
100
AcDbEntity
  8
_U+30EC_U+30A4_U+30E4_U+30FC 1
370
     0
100
AcDbSpline
210
0.0
220
0.0
230
1.0
 70
    11
 71
     3
 72
    26
 73
    22
 74
     0
 42
0.0000000001
 43
0.0000000001
 12
1.0
 22
0.0
 32
0.0
 13
1.0
 23
0.0
 33
0.0
 40
0.0
 40
0.0
 40
0.0
 40
0.0
 40
1.0
 40
1.0
 40
1.0
 40
2.0
 40
2.0
 40
2.0
 40
3.0
 40
3.0
 40
3.0
 40
4.0
 40
4.0
 40
4.0
 40
5.0
 40
5.0
 40
5.0
 40
6.0
 40
6.0
 40
6.0
 40
7.0
 40
7.0
 40
7.0
 40
7.0
 10
83.04712725788406
 20
-129.0443196291972
 30
0.0
 10
83.04712725788406
 20
-129.0443196291972
 30
0.0
 10
83.04712725788406
 20
-127.9401665261747
 30
0.0
 10
83.04712725788406
 20
-127.9401665261747
 30
0.0
 10
83.04712725788406
 20
-127.9401665261747
 30
0.0
 10
82.71708711039712
 20
-127.9401665261747
 30
0.0
 10
82.71708711039712
 20
-127.9401665261747
 30
0.0
 10
82.71708711039712
 20
-127.9401665261747
 30
0.0
 10
82.71708711039712
 20
-127.7920274203089
 30
0.0
 10
82.71708711039712
 20
-127.7920274203089
 30
0.0
 10
83.0491943151752
 20
-127.7772135097224
 30
0.0
 10
83.09570310422608
 20
-127.6142604932701
 30
0.0
 10
83.12533092539923
 20
-127.4998833231598
 30
0.0
 10
83.12533092539923
 20
-127.4998833231598
 30
0.0
 10
83.27140297397382
 20
-127.4998833231598
 30
0.0
 10
83.27140297397382
 20
-127.4998833231598
 30
0.0
 10
83.27140297397382
 20
-127.4998833231598
 30
0.0
 10
83.27140297397382
 20
-129.0443196291972
 30
0.0
 10
83.27140297397382
 20
-129.0443196291972
 30
0.0
 10
83.27140297397382
 20
-129.0443196291972
 30
0.0
 10
83.04712725788406
 20
-129.0443196291972
 30
0.0
 10
83.04712725788406
 20
-129.0443196291972
 30
0.0
  0
HATCH
  5
11F
330
11A
100
AcDbEntity
  8
_U+30EC_U+30A4_U+30E4_U+30FC 1
 62
   179
420
  2234388
100
AcDbHatch
 10
0.0
 20
0.0
 30
0.0
210
0.0
220
0.0
230
1.0
  2
SOLID
 70
     1
 71
     0
 91
        1
 92
        1
 93
        1
 72
     4
 94
        3
 73
     0
 74
     1
 95
       26
 96
       22
 40
0.0
 40
0.0
 40
0.0
 40
0.0
 40
1.0
 40
1.0
 40
1.0
 40
2.0
 40
2.0
 40
2.0
 40
3.0
 40
3.0
 40
3.0
 40
4.0
 40
4.0
 40
4.0
 40
5.0
 40
5.0
 40
5.0
 40
6.0
 40
6.0
 40
6.0
 40
7.0
 40
7.0
 40
7.0
 40
7.0
 10
83.04712725788406
 20
-129.0443196291972
 10
83.04712725788406
 20
-129.0443196291972
 10
83.04712725788406
 20
-127.9401665261747
 10
83.04712725788406
 20
-127.9401665261747
 10
83.04712725788406
 20
-127.9401665261747
 10
82.71708711039712
 20
-127.9401665261747
 10
82.71708711039712
 20
-127.9401665261747
 10
82.71708711039712
 20
-127.9401665261747
 10
82.71708711039712
 20
-127.7920274203089
 10
82.71708711039712
 20
-127.7920274203089
 10
83.0491943151752
 20
-127.7772135097224
 10
83.09570310422608
 20
-127.6142604932701
 10
83.12533092539923
 20
-127.4998833231598
 10
83.12533092539923
 20
-127.4998833231598
 10
83.27140297397382
 20
-127.4998833231598
 10
83.27140297397382
 20
-127.4998833231598
 10
83.27140297397382
 20
-127.4998833231598
 10
83.27140297397382
 20
-129.0443196291972
 10
83.27140297397382
 20
-129.0443196291972
 10
83.27140297397382
 20
-129.0443196291972
 10
83.04712725788406
 20
-129.0443196291972
 10
83.04712725788406
 20
-129.0443196291972
 97
        0
 97
        0
 75
     2
 76
     1
 98
        0
  0
SPLINE
  5
120
330
11A
100
AcDbEntity
  8
_U+30EC_U+30A4_U+30E4_U+30FC 1
370
     0
100
AcDbSpline
210
0.0
220
0.0
230
1.0
 70
    11
 71
     3
 72
    29
 73
    25
 74
     0
 42
0.0000000001
 43
0.0000000001
 12
1.0
 22
0.0
 32
0.0
 13
1.0
 23
0.0
 33
0.0
 40
0.0
 40
0.0
 40
0.0
 40
0.0
 40
1.0
 40
1.0
 40
1.0
 40
2.0
 40
2.0
 40
2.0
 40
3.0
 40
3.0
 40
3.0
 40
4.0
 40
4.0
 40
4.0
 40
5.0
 40
5.0
 40
5.0
 40
6.0
 40
6.0
 40
6.0
 40
7.0
 40
7.0
 40
7.0
 40
8.0
 40
8.0
 40
8.0
 40
8.0
 10
84.67045625053377
 20
-128.8665527021584
 30
0.0
 10
84.56228025229693
 20
-129.0760145076616
 30
0.0
 10
84.38899194938887
 20
-129.0949625328304
 30
0.0
 10
84.27254772198742
 20
-129.0949625328304
 30
0.0
 10
84.11166176282626
 20
-129.0949625328304
 30
0.0
 10
83.97006833838249
 20
-129.0484537437796
 30
0.0
 10
83.8749837029896
 20
-128.8665527021584
 30
0.0
 10
83.77128632888358
 20
-128.6719048072418
 30
0.0
 10
83.75199379416617
 20
-128.4352267474051
 30
0.0
 10
83.75199379416617
 20
-128.2722737309528
 30
0.0
 10
83.75199379416617
 20
-128.1282687396693
 30
0.0
 10
83.76921927159242
 20
-127.8764322596976
 30
0.0
 10
83.8749837029896
 20
-127.6776502501987
 30
0.0
 10
83.98281519167791
 20
-127.4747341261174
 30
0.0
 10
84.14370115083908
 20
-127.4513074768177
 30
0.0
 10
84.27254772198742
 20
-127.4513074768177
 30
0.0
 10
84.43136662385744
 20
-127.4513074768177
 30
0.0
 10
84.57502710559235
 20
-127.4957492085775
 30
0.0
 10
84.67045625053377
 20
-127.6776502501987
 30
0.0
 10
84.76967500050897
 20
-127.8702310878241
 30
0.0
 10
84.79310164980868
 20
-128.0986409184962
 30
0.0
 10
84.79310164980868
 20
-128.2722737309528
 30
0.0
 10
84.79310164980868
 20
-128.4434949765697
 30
0.0
 10
84.77174205780013
 20
-128.6739718645329
 30
0.0
 10
84.67045625053377
 20
-128.8665527021584
 30
0.0
  0
SPLINE
  5
121
330
11A
100
AcDbEntity
  8
_U+30EC_U+30A4_U+30E4_U+30FC 1
370
     0
100
AcDbSpline
210
0.0
220
0.0
230
1.0
 70
    11
 71
     3
 72
    17
 73
    13
 74
     0
 42
0.0000000001
 43
0.0000000001
 12
1.0
 22
0.0
 32
0.0
 13
1.0
 23
0.0
 33
0.0
 40
0.0
 40
0.0
 40
0.0
 40
0.0
 40
1.0
 40
1.0
 40
1.0
 40
2.0
 40
2.0
 40
2.0
 40
3.0
 40
3.0
 40
3.0
 40
4.0
 40
4.0
 40
4.0
 40
4.0
 10
84.27254772198742
 20
-127.6438883144432
 30
0.0
 10
84.02277829930681
 20
-127.6438883144432
 30
0.0
 10
83.97626951025593
 20
-127.9274196728793
 30
0.0
 10
83.97626951025593
 20
-128.2722737309528
 30
0.0
 10
83.97626951025593
 20
-128.5916340824354
 30
0.0
 10
84.01244301285107
 20
-128.9003146379138
 30
0.0
 10
84.27254772198742
 20
-128.9003146379138
 30
0.0
 10
84.52025008737688
 20
-128.9003146379138
 30
0.0
 10
84.56882593371891
 20
-128.6191948463174
 30
0.0
 10
84.56882593371891
 20
-128.2722737309528
 30
0.0
 10
84.56882593371891
 20
-127.9525688699216
 30
0.0
 10
84.53058537383264
 20
-127.6438883144432
 30
0.0
 10
84.27254772198742
 20
-127.6438883144432
 30
0.0
  0
HATCH
  5
122
330
11A
100
AcDbEntity
  8
_U+30EC_U+30A4_U+30E4_U+30FC 1
 62
   179
420
  2234388
100
AcDbHatch
 10
0.0
 20
0.0
 30
0.0
210
0.0
220
0.0
230
1.0
  2
SOLID
 70
     1
 71
     0
 91
        2
 92
        1
 93
        1
 72
     4
 94
        3
 73
     0
 74
     1
 95
       29
 96
       25
 40
0.0
 40
0.0
 40
0.0
 40
0.0
 40
1.0
 40
1.0
 40
1.0
 40
2.0
 40
2.0
 40
2.0
 40
3.0
 40
3.0
 40
3.0
 40
4.0
 40
4.0
 40
4.0
 40
5.0
 40
5.0
 40
5.0
 40
6.0
 40
6.0
 40
6.0
 40
7.0
 40
7.0
 40
7.0
 40
8.0
 40
8.0
 40
8.0
 40
8.0
 10
84.67045625053377
 20
-128.8665527021584
 10
84.56228025229693
 20
-129.0760145076616
 10
84.38899194938887
 20
-129.0949625328304
 10
84.27254772198742
 20
-129.0949625328304
 10
84.11166176282626
 20
-129.0949625328304
 10
83.97006833838249
 20
-129.0484537437796
 10
83.8749837029896
 20
-128.8665527021584
 10
83.77128632888358
 20
-128.6719048072418
 10
83.75199379416617
 20
-128.4352267474051
 10
83.75199379416617
 20
-128.2722737309528
 10
83.75199379416617
 20
-128.1282687396693
 10
83.76921927159242
 20
-127.8764322596976
 10
83.8749837029896
 20
-127.6776502501987
 10
83.98281519167791
 20
-127.4747341261174
 10
84.14370115083908
 20
-127.4513074768177
 10
84.27254772198742
 20
-127.4513074768177
 10
84.43136662385744
 20
-127.4513074768177
 10
84.57502710559235
 20
-127.4957492085775
 10
84.67045625053377
 20
-127.6776502501987
 10
84.76967500050897
 20
-127.8702310878241
 10
84.79310164980868
 20
-128.0986409184962
 10
84.79310164980868
 20
-128.2722737309528
 10
84.79310164980868
 20
-128.4434949765697
 10
84.77174205780013
 20
-128.6739718645329
 10
84.67045625053377
 20
-128.8665527021584
 97
        0
 97
        0
 92
        1
 93
        1
 72
     4
 94
        3
 73
     0
 74
     1
 95
       17
 96
       13
 40
0.0
 40
0.0
 40
0.0
 40
0.0
 40
1.0
 40
1.0
 40
1.0
 40
2.0
 40
2.0
 40
2.0
 40
3.0
 40
3.0
 40
3.0
 40
4.0
 40
4.0
 40
4.0
 40
4.0
 10
84.27254772198742
 20
-127.6438883144432
 10
84.02277829930681
 20
-127.6438883144432
 10
83.97626951025593
 20
-127.9274196728793
 10
83.97626951025593
 20
-128.2722737309528
 10
83.97626951025593
 20
-128.5916340824354
 10
84.01244301285107
 20
-128.9003146379138
 10
84.27254772198742
 20
-128.9003146379138
 10
84.52025008737688
 20
-128.9003146379138
 10
84.56882593371891
 20
-128.6191948463174
 10
84.56882593371891
 20
-128.2722737309528
 10
84.56882593371891
 20
-127.9525688699216
 10
84.53058537383264
 20
-127.6438883144432
 10
84.27254772198742
 20
-127.6438883144432
 97
        0
 97
        0
 75
     2
 76
     1
 98
        0
  0
ENDBLK
  5
11D
330
11A
100
AcDbEntity
  8
0
100
AcDbBlockEnd
  0
BLOCK
  5
12D
330
12B
100
AcDbEntity
  8
0
100
AcDbBlockBegin
  2
block 9
 70
     0
 10
0.0
 20
0.0
 30
0.0
  3
block 9
  1

  0
SPLINE
  5
12F
330
12B
100
AcDbEntity
  8
_U+30EC_U+30A4_U+30E4_U+30FC 1
370
     0
100
AcDbSpline
210
0.0
220
0.0
230
1.0
 70
    11
 71
     3
 72
    44
 73
    40
 74
     0
 42
0.0000000001
 43
0.0000000001
 12
1.0
 22
0.0
 32
0.0
 13
1.0
 23
0.0
 33
0.0
 40
0.0
 40
0.0
 40
0.0
 40
0.0
 40
1.0
 40
1.0
 40
1.0
 40
2.0
 40
2.0
 40
2.0
 40
3.0
 40
3.0
 40
3.0
 40
4.0
 40
4.0
 40
4.0
 40
5.0
 40
5.0
 40
5.0
 40
6.0
 40
6.0
 40
6.0
 40
7.0
 40
7.0
 40
7.0
 40
8.0
 40
8.0
 40
8.0
 40
9.0
 40
9.0
 40
9.0
 40
10.0
 40
10.0
 40
10.0
 40
11.0
 40
11.0
 40
11.0
 40
12.0
 40
12.0
 40
12.0
 40
13.0
 40
13.0
 40
13.0
 40
13.0
 10
71.96632213912648
 20
-145.1756347293311
 30
0.0
 10
72.12496878622224
 20
-145.3933647639989
 30
0.0
 10
72.19903833915511
 20
-145.4863823421006
 30
0.0
 10
72.34287107566429
 20
-145.5353026979912
 30
0.0
 10
72.34287107566429
 20
-145.5353026979912
 30
0.0
 10
72.34287107566429
 20
-144.7567111183247
 30
0.0
 10
72.34287107566429
 20
-144.7567111183247
 30
0.0
 10
72.34287107566429
 20
-144.7567111183247
 30
0.0
 10
72.54802651181092
 20
-144.7567111183247
 30
0.0
 10
72.54802651181092
 20
-144.7567111183247
 30
0.0
 10
72.54802651181092
 20
-144.7567111183247
 30
0.0
 10
72.54802651181092
 20
-145.7847276111233
 30
0.0
 10
72.54802651181092
 20
-145.7847276111233
 30
0.0
 10
72.19042560044198
 20
-145.753032732659
 30
0.0
 10
72.11222193292681
 20
-145.6875759184392
 30
0.0
 10
71.81387666390417
 20
-145.3024142431883
 30
0.0
 10
71.61509465440525
 20
-145.0464436486342
 30
0.0
 10
71.5473985281201
 20
-144.9809868344145
 30
0.0
 10
71.40993921825863
 20
-144.9809868344145
 30
0.0
 10
71.29142793356604
 20
-144.9809868344145
 30
0.0
 10
71.16034205035228
 20
-145.0529893300562
 30
0.0
 10
71.16034205035228
 20
-145.2493597727155
 30
0.0
 10
71.16034205035228
 20
-145.5098089914003
 30
0.0
 10
71.39081893831549
 20
-145.5180772205649
 30
0.0
 10
71.50726316571694
 20
-145.5225558446957
 30
0.0
 10
71.50726316571694
 20
-145.5225558446957
 30
0.0
 10
71.50726316571694
 20
-145.7468315607855
 30
0.0
 10
71.50726316571694
 20
-145.7468315607855
 30
0.0
 10
71.38031139708548
 20
-145.7382188220724
 30
0.0
 10
71.2681735390406
 20
-145.7275390260681
 30
0.0
 10
71.149662254348
 20
-145.6472683012618
 30
0.0
 10
70.9889485499611
 20
-145.5373697552823
 30
0.0
 10
70.95501435943139
 20
-145.3513345990789
 30
0.0
 10
70.95501435943139
 20
-145.2348903716774
 30
0.0
 10
70.95501435943139
 20
-144.9575601851148
 30
0.0
 10
71.13915471311799
 20
-144.7505099464513
 30
0.0
 10
71.41200627554979
 20
-144.7505099464513
 30
0.0
 10
71.64041610622185
 20
-144.7505099464513
 30
0.0
 10
71.73997936574557
 20
-144.8666096643042
 30
0.0
 10
71.96632213912648
 20
-145.1756347293311
 30
0.0
  0
HATCH
  5
130
330
12B
100
AcDbEntity
  8
_U+30EC_U+30A4_U+30E4_U+30FC 1
 62
   179
420
  2234388
100
AcDbHatch
 10
0.0
 20
0.0
 30
0.0
210
0.0
220
0.0
230
1.0
  2
SOLID
 70
     1
 71
     0
 91
        1
 92
        1
 93
        1
 72
     4
 94
        3
 73
     0
 74
     1
 95
       44
 96
       40
 40
0.0
 40
0.0
 40
0.0
 40
0.0
 40
1.0
 40
1.0
 40
1.0
 40
2.0
 40
2.0
 40
2.0
 40
3.0
 40
3.0
 40
3.0
 40
4.0
 40
4.0
 40
4.0
 40
5.0
 40
5.0
 40
5.0
 40
6.0
 40
6.0
 40
6.0
 40
7.0
 40
7.0
 40
7.0
 40
8.0
 40
8.0
 40
8.0
 40
9.0
 40
9.0
 40
9.0
 40
10.0
 40
10.0
 40
10.0
 40
11.0
 40
11.0
 40
11.0
 40
12.0
 40
12.0
 40
12.0
 40
13.0
 40
13.0
 40
13.0
 40
13.0
 10
71.96632213912648
 20
-145.1756347293311
 10
72.12496878622224
 20
-145.3933647639989
 10
72.19903833915511
 20
-145.4863823421006
 10
72.34287107566429
 20
-145.5353026979912
 10
72.34287107566429
 20
-145.5353026979912
 10
72.34287107566429
 20
-144.7567111183247
 10
72.34287107566429
 20
-144.7567111183247
 10
72.34287107566429
 20
-144.7567111183247
 10
72.54802651181092
 20
-144.7567111183247
 10
72.54802651181092
 20
-144.7567111183247
 10
72.54802651181092
 20
-144.7567111183247
 10
72.54802651181092
 20
-145.7847276111233
 10
72.54802651181092
 20
-145.7847276111233
 10
72.19042560044198
 20
-145.753032732659
 10
72.11222193292681
 20
-145.6875759184392
 10
71.81387666390417
 20
-145.3024142431883
 10
71.61509465440525
 20
-145.0464436486342
 10
71.5473985281201
 20
-144.9809868344145
 10
71.40993921825863
 20
-144.9809868344145
 10
71.29142793356604
 20
-144.9809868344145
 10
71.16034205035228
 20
-145.0529893300562
 10
71.16034205035228
 20
-145.2493597727155
 10
71.16034205035228
 20
-145.5098089914003
 10
71.39081893831549
 20
-145.5180772205649
 10
71.50726316571694
 20
-145.5225558446957
 10
71.50726316571694
 20
-145.5225558446957
 10
71.50726316571694
 20
-145.7468315607855
 10
71.50726316571694
 20
-145.7468315607855
 10
71.38031139708548
 20
-145.7382188220724
 10
71.2681735390406
 20
-145.7275390260681
 10
71.149662254348
 20
-145.6472683012618
 10
70.9889485499611
 20
-145.5373697552823
 10
70.95501435943139
 20
-145.3513345990789
 10
70.95501435943139
 20
-145.2348903716774
 10
70.95501435943139
 20
-144.9575601851148
 10
71.13915471311799
 20
-144.7505099464513
 10
71.41200627554979
 20
-144.7505099464513
 10
71.64041610622185
 20
-144.7505099464513
 10
71.73997936574557
 20
-144.8666096643042
 10
71.96632213912648
 20
-145.1756347293311
 97
        0
 97
        0
 75
     2
 76
     1
 98
        0
  0
SPLINE
  5
131
330
12B
100
AcDbEntity
  8
_U+30EC_U+30A4_U+30E4_U+30FC 1
370
     0
100
AcDbSpline
210
0.0
220
0.0
230
1.0
 70
    11
 71
     3
 72
    62
 73
    58
 74
     0
 42
0.0000000001
 43
0.0000000001
 12
1.0
 22
0.0
 32
0.0
 13
1.0
 23
0.0
 33
0.0
 40
0.0
 40
0.0
 40
0.0
 40
0.0
 40
1.0
 40
1.0
 40
1.0
 40
2.0
 40
2.0
 40
2.0
 40
3.0
 40
3.0
 40
3.0
 40
4.0
 40
4.0
 40
4.0
 40
5.0
 40
5.0
 40
5.0
 40
6.0
 40
6.0
 40
6.0
 40
7.0
 40
7.0
 40
7.0
 40
8.0
 40
8.0
 40
8.0
 40
9.0
 40
9.0
 40
9.0
 40
10.0
 40
10.0
 40
10.0
 40
11.0
 40
11.0
 40
11.0
 40
12.0
 40
12.0
 40
12.0
 40
13.0
 40
13.0
 40
13.0
 40
14.0
 40
14.0
 40
14.0
 40
15.0
 40
15.0
 40
15.0
 40
16.0
 40
16.0
 40
16.0
 40
17.0
 40
17.0
 40
17.0
 40
18.0
 40
18.0
 40
18.0
 40
19.0
 40
19.0
 40
19.0
 40
19.0
 10
72.59884167021835
 20
-144.1000759188361
 30
0.0
 10
72.59884167021835
 20
-144.1955050637775
 30
0.0
 10
72.57765433298407
 20
-144.4135796079938
 30
0.0
 10
72.39144692200631
 20
-144.5382920645599
 30
0.0
 10
72.27930906396142
 20
-144.6120171079442
 30
0.0
 10
72.17991805921197
 20
-144.616495732075
 30
0.0
 10
72.09534096504909
 20
-144.6206298466574
 30
0.0
 10
72.09534096504909
 20
-144.6206298466574
 30
0.0
 10
72.09534096504909
 20
-144.4004882451499
 30
0.0
 10
72.09534096504909
 20
-144.4004882451499
 30
0.0
 10
72.16941051798196
 20
-144.3984211878587
 30
0.0
 10
72.40419377530174
 20
-144.388085901403
 30
0.0
 10
72.40419377530174
 20
-144.1045545429669
 30
0.0
 10
72.40419377530174
 20
-143.9670952331055
 30
0.0
 10
72.33443059172542
 20
-143.8148220126574
 30
0.0
 10
72.1058485062791
 20
-143.8148220126574
 30
0.0
 10
71.98957653365191
 20
-143.8148220126574
 30
0.0
 10
71.94082843253562
 20
-143.8527180629952
 30
0.0
 10
71.90913355407133
 20
-143.8844129414595
 30
0.0
 10
71.83506400113846
 20
-143.9584824943923
 30
0.0
 10
71.8224894026173
 20
-144.0749267217938
 30
0.0
 10
71.8224894026173
 20
-144.1297037400092
 30
0.0
 10
71.8224894026173
 20
-144.1489962747266
 30
0.0
 10
71.82455645990845
 20
-144.1848252677732
 30
0.0
 10
71.82869057449075
 20
-144.2123860316553
 30
0.0
 10
71.82869057449075
 20
-144.2123860316553
 30
0.0
 10
71.63404267957414
 20
-144.2123860316553
 30
0.0
 10
71.63404267957414
 20
-144.2123860316553
 30
0.0
 10
71.64041610622185
 20
-144.1744899813175
 30
0.0
 10
71.64265541828726
 20
-144.1317707973004
 30
0.0
 10
71.64265541828726
 20
-144.1255696254269
 30
0.0
 10
71.64265541828726
 20
-144.0601128112072
 30
0.0
 10
71.62146808105297
 20
-143.8609862921598
 30
0.0
 10
71.38444551166778
 20
-143.8609862921598
 30
0.0
 10
71.20685083940315
 20
-143.8609862921598
 30
0.0
 10
71.15172931163916
 20
-143.9925889396963
 30
0.0
 10
71.15172931163916
 20
-144.1021429761273
 30
0.0
 10
71.15172931163916
 20
-144.3667263093944
 30
0.0
 10
71.38444551166778
 20
-144.3753390481075
 30
0.0
 10
71.4564480073095
 20
-144.3794731626899
 30
0.0
 10
71.4564480073095
 20
-144.3794731626899
 30
0.0
 10
71.4564480073095
 20
-144.5823892867711
 30
0.0
 10
71.4564480073095
 20
-144.5823892867711
 30
0.0
 10
71.33156329596919
 20
-144.5741210576065
 30
0.0
 10
70.95501435943139
 20
-144.5465602937245
 30
0.0
 10
70.95501435943139
 20
-144.0897406323803
 30
0.0
 10
70.95501435943139
 20
-143.8654649162906
 30
0.0
 10
71.08196612806285
 20
-143.6243082323231
 30
0.0
 10
71.37807208502007
 20
-143.6243082323231
 30
0.0
 10
71.56427949599782
 20
-143.6243082323231
 30
0.0
 10
71.64678953286956
 20
-143.719392867716
 30
0.0
 10
71.708112232507
 20
-143.8189561272397
 30
0.0
 10
71.735672996389
 20
-143.7576334276023
 30
0.0
 10
71.81611597596958
 20
-143.5757323859811
 30
0.0
 10
72.09327390775793
 20
-143.5757323859811
 30
0.0
 10
72.43175453918373
 20
-143.5757323859811
 30
0.0
 10
72.59884167021835
 20
-143.823090241822
 30
0.0
 10
72.59884167021835
 20
-144.1000759188361
 30
0.0
  0
HATCH
  5
132
330
12B
100
AcDbEntity
  8
_U+30EC_U+30A4_U+30E4_U+30FC 1
 62
   179
420
  2234388
100
AcDbHatch
 10
0.0
 20
0.0
 30
0.0
210
0.0
220
0.0
230
1.0
  2
SOLID
 70
     1
 71
     0
 91
        1
 92
        1
 93
        1
 72
     4
 94
        3
 73
     0
 74
     1
 95
       62
 96
       58
 40
0.0
 40
0.0
 40
0.0
 40
0.0
 40
1.0
 40
1.0
 40
1.0
 40
2.0
 40
2.0
 40
2.0
 40
3.0
 40
3.0
 40
3.0
 40
4.0
 40
4.0
 40
4.0
 40
5.0
 40
5.0
 40
5.0
 40
6.0
 40
6.0
 40
6.0
 40
7.0
 40
7.0
 40
7.0
 40
8.0
 40
8.0
 40
8.0
 40
9.0
 40
9.0
 40
9.0
 40
10.0
 40
10.0
 40
10.0
 40
11.0
 40
11.0
 40
11.0
 40
12.0
 40
12.0
 40
12.0
 40
13.0
 40
13.0
 40
13.0
 40
14.0
 40
14.0
 40
14.0
 40
15.0
 40
15.0
 40
15.0
 40
16.0
 40
16.0
 40
16.0
 40
17.0
 40
17.0
 40
17.0
 40
18.0
 40
18.0
 40
18.0
 40
19.0
 40
19.0
 40
19.0
 40
19.0
 10
72.59884167021835
 20
-144.1000759188361
 10
72.59884167021835
 20
-144.1955050637775
 10
72.57765433298407
 20
-144.4135796079938
 10
72.39144692200631
 20
-144.5382920645599
 10
72.27930906396142
 20
-144.6120171079442
 10
72.17991805921197
 20
-144.616495732075
 10
72.09534096504909
 20
-144.6206298466574
 10
72.09534096504909
 20
-144.6206298466574
 10
72.09534096504909
 20
-144.4004882451499
 10
72.09534096504909
 20
-144.4004882451499
 10
72.16941051798196
 20
-144.3984211878587
 10
72.40419377530174
 20
-144.388085901403
 10
72.40419377530174
 20
-144.1045545429669
 10
72.40419377530174
 20
-143.9670952331055
 10
72.33443059172542
 20
-143.8148220126574
 10
72.1058485062791
 20
-143.8148220126574
 10
71.98957653365191
 20
-143.8148220126574
 10
71.94082843253562
 20
-143.8527180629952
 10
71.90913355407133
 20
-143.8844129414595
 10
71.83506400113846
 20
-143.9584824943923
 10
71.8224894026173
 20
-144.0749267217938
 10
71.8224894026173
 20
-144.1297037400092
 10
71.8224894026173
 20
-144.1489962747266
 10
71.82455645990845
 20
-144.1848252677732
 10
71.82869057449075
 20
-144.2123860316553
 10
71.82869057449075
 20
-144.2123860316553
 10
71.63404267957414
 20
-144.2123860316553
 10
71.63404267957414
 20
-144.2123860316553
 10
71.64041610622185
 20
-144.1744899813175
 10
71.64265541828726
 20
-144.1317707973004
 10
71.64265541828726
 20
-144.1255696254269
 10
71.64265541828726
 20
-144.0601128112072
 10
71.62146808105297
 20
-143.8609862921598
 10
71.38444551166778
 20
-143.8609862921598
 10
71.20685083940315
 20
-143.8609862921598
 10
71.15172931163916
 20
-143.9925889396963
 10
71.15172931163916
 20
-144.1021429761273
 10
71.15172931163916
 20
-144.3667263093944
 10
71.38444551166778
 20
-144.3753390481075
 10
71.4564480073095
 20
-144.3794731626899
 10
71.4564480073095
 20
-144.3794731626899
 10
71.4564480073095
 20
-144.5823892867711
 10
71.4564480073095
 20
-144.5823892867711
 10
71.33156329596919
 20
-144.5741210576065
 10
70.95501435943139
 20
-144.5465602937245
 10
70.95501435943139
 20
-144.0897406323803
 10
70.95501435943139
 20
-143.8654649162906
 10
71.08196612806285
 20
-143.6243082323231
 10
71.37807208502007
 20
-143.6243082323231
 10
71.56427949599782
 20
-143.6243082323231
 10
71.64678953286956
 20
-143.719392867716
 10
71.708112232507
 20
-143.8189561272397
 10
71.735672996389
 20
-143.7576334276023
 10
71.81611597596958
 20
-143.5757323859811
 10
72.09327390775793
 20
-143.5757323859811
 10
72.43175453918373
 20
-143.5757323859811
 10
72.59884167021835
 20
-143.823090241822
 10
72.59884167021835
 20
-144.1000759188361
 97
        0
 97
        0
 75
     2
 76
     1
 98
        0
  0
ENDBLK
  5
12E
330
12B
100
AcDbEntity
  8
0
100
AcDbBlockEnd
  0
BLOCK
  5
144
330
142
100
AcDbEntity
  8
0
100
AcDbBlockBegin
  2
block 10
 70
     0
 10
0.0
 20
0.0
 30
0.0
  3
block 10
  1

  0
SPLINE
  5
146
330
142
100
AcDbEntity
  8
_U+30EC_U+30A4_U+30E4_U+30FC 1
370
     0
100
AcDbSpline
210
0.0
220
0.0
230
1.0
 70
    11
 71
     3
 72
    17
 73
    13
 74
     0
 42
0.0000000001
 43
0.0000000001
 12
1.0
 22
0.0
 32
0.0
 13
1.0
 23
0.0
 33
0.0
 40
0.0
 40
0.0
 40
0.0
 40
0.0
 40
1.0
 40
1.0
 40
1.0
 40
2.0
 40
2.0
 40
2.0
 40
3.0
 40
3.0
 40
3.0
 40
4.0
 40
4.0
 40
4.0
 40
4.0
 10
95.53732093965733
 20
-161.2976480716547
 30
0.0
 10
95.4319010178087
 20
-161.1918836402576
 30
0.0
 10
95.35128578345385
 20
-161.1539875899198
 30
0.0
 10
95.25826820535211
 20
-161.1222927114555
 30
0.0
 10
95.25826820535211
 20
-161.1222927114555
 30
0.0
 10
95.3685112608801
 20
-160.9569281281636
 30
0.0
 10
95.3685112608801
 20
-160.9569281281636
 30
0.0
 10
95.46566295356415
 20
-160.9996473121807
 30
0.0
 10
95.5862412955479
 20
-161.0775064701473
 30
0.0
 10
95.63929576602074
 20
-161.1326279979113
 30
0.0
 10
95.63929576602074
 20
-161.1326279979113
 30
0.0
 10
95.53732093965733
 20
-161.2976480716547
 30
0.0
 10
95.53732093965733
 20
-161.2976480716547
 30
0.0
  0
SPLINE
  5
147
330
142
100
AcDbEntity
  8
_U+30EC_U+30A4_U+30E4_U+30FC 1
370
     0
100
AcDbSpline
210
0.0
220
0.0
230
1.0
 70
    11
 71
     3
 72
   182
 73
   178
 74
     0
 42
0.0000000001
 43
0.0000000001
 12
1.0
 22
0.0
 32
0.0
 13
1.0
 23
0.0
 33
0.0
 40
0.0
 40
0.0
 40
0.0
 40
0.0
 40
1.0
 40
1.0
 40
1.0
 40
2.0
 40
2.0
 40
2.0
 40
3.0
 40
3.0
 40
3.0
 40
4.0
 40
4.0
 40
4.0
 40
5.0
 40
5.0
 40
5.0
 40
6.0
 40
6.0
 40
6.0
 40
7.0
 40
7.0
 40
7.0
 40
8.0
 40
8.0
 40
8.0
 40
9.0
 40
9.0
 40
9.0
 40
10.0
 40
10.0
 40
10.0
 40
11.0
 40
11.0
 40
11.0
 40
12.0
 40
12.0
 40
12.0
 40
13.0
 40
13.0
 40
13.0
 40
14.0
 40
14.0
 40
14.0
 40
15.0
 40
15.0
 40
15.0
 40
16.0
 40
16.0
 40
16.0
 40
17.0
 40
17.0
 40
17.0
 40
18.0
 40
18.0
 40
18.0
 40
19.0
 40
19.0
 40
19.0
 40
20.0
 40
20.0
 40
20.0
 40
21.0
 40
21.0
 40
21.0
 40
22.0
 40
22.0
 40
22.0
 40
23.0
 40
23.0
 40
23.0
 40
24.0
 40
24.0
 40
24.0
 40
25.0
 40
25.0
 40
25.0
 40
26.0
 40
26.0
 40
26.0
 40
27.0
 40
27.0
 40
27.0
 40
28.0
 40
28.0
 40
28.0
 40
29.0
 40
29.0
 40
29.0
 40
30.0
 40
30.0
 40
30.0
 40
31.0
 40
31.0
 40
31.0
 40
32.0
 40
32.0
 40
32.0
 40
33.0
 40
33.0
 40
33.0
 40
34.0
 40
34.0
 40
34.0
 40
35.0
 40
35.0
 40
35.0
 40
36.0
 40
36.0
 40
36.0
 40
37.0
 40
37.0
 40
37.0
 40
38.0
 40
38.0
 40
38.0
 40
39.0
 40
39.0
 40
39.0
 40
40.0
 40
40.0
 40
40.0
 40
41.0
 40
41.0
 40
41.0
 40
42.0
 40
42.0
 40
42.0
 40
43.0
 40
43.0
 40
43.0
 40
44.0
 40
44.0
 40
44.0
 40
45.0
 40
45.0
 40
45.0
 40
46.0
 40
46.0
 40
46.0
 40
47.0
 40
47.0
 40
47.0
 40
48.0
 40
48.0
 40
48.0
 40
49.0
 40
49.0
 40
49.0
 40
50.0
 40
50.0
 40
50.0
 40
51.0
 40
51.0
 40
51.0
 40
52.0
 40
52.0
 40
52.0
 40
53.0
 40
53.0
 40
53.0
 40
54.0
 40
54.0
 40
54.0
 40
55.0
 40
55.0
 40
55.0
 40
56.0
 40
56.0
 40
56.0
 40
57.0
 40
57.0
 40
57.0
 40
58.0
 40
58.0
 40
58.0
 40
59.0
 40
59.0
 40
59.0
 40
59.0
 10
96.58256290988214
 20
-162.4762152371587
 30
0.0
 10
96.58256290988214
 20
-162.4762152371587
 30
0.0
 10
95.94590926420797
 20
-162.4762152371587
 30
0.0
 10
95.94590926420797
 20
-162.4762152371587
 30
0.0
 10
95.73231334412249
 20
-162.4762152371587
 30
0.0
 10
95.5159613476488
 20
-162.480349351741
 30
0.0
 10
95.3023654275633
 20
-162.4927516954879
 30
0.0
 10
95.3023654275633
 20
-162.4927516954879
 30
0.0
 10
95.3023654275633
 20
-162.2857014568244
 30
0.0
 10
95.3023654275633
 20
-162.2857014568244
 30
0.0
 10
95.52491859591044
 20
-162.2984483101199
 30
0.0
 10
95.84806855242688
 20
-162.3025824247021
 30
0.0
 10
95.94590926420797
 20
-162.3025824247021
 30
0.0
 10
95.94590926420797
 20
-162.3025824247021
 30
0.0
 10
96.16570635616691
 20
-162.3025824247021
 30
0.0
 10
96.16570635616691
 20
-162.3025824247021
 30
0.0
 10
96.16570635616691
 20
-162.3025824247021
 30
0.0
 10
96.16570635616691
 20
-162.1606444907098
 30
0.0
 10
96.16570635616691
 20
-162.1606444907098
 30
0.0
 10
96.16570635616691
 20
-162.1606444907098
 30
0.0
 10
96.00516490655427
 20
-162.1606444907098
 30
0.0
 10
96.00516490655427
 20
-162.1606444907098
 30
0.0
 10
95.83980032326228
 20
-162.1606444907098
 30
0.0
 10
95.67512475906733
 20
-162.1651231148407
 30
0.0
 10
95.50976017577534
 20
-162.1799370254273
 30
0.0
 10
95.50976017577534
 20
-162.1799370254273
 30
0.0
 10
95.50976017577534
 20
-161.9704752199241
 30
0.0
 10
95.50976017577534
 20
-161.9704752199241
 30
0.0
 10
95.68132593094079
 20
-161.9852891305106
 30
0.0
 10
95.92868378678172
 20
-161.9894232450929
 30
0.0
 10
96.00516490655427
 20
-161.9894232450929
 30
0.0
 10
96.00516490655427
 20
-161.9894232450929
 30
0.0
 10
96.16570635616691
 20
-161.9894232450929
 30
0.0
 10
96.16570635616691
 20
-161.9894232450929
 30
0.0
 10
96.16157224158461
 20
-161.9174207494512
 30
0.0
 10
96.16157224158461
 20
-161.9112195775778
 30
0.0
 10
96.15537106971117
 20
-161.8581651071049
 30
0.0
 10
96.15537106971117
 20
-161.8581651071049
 30
0.0
 10
96.29455292731525
 20
-161.87332352724
 30
0.0
 10
96.29455292731525
 20
-161.87332352724
 30
0.0
 10
96.29455292731525
 20
-161.87332352724
 30
0.0
 10
96.19533417734006
 20
-161.7017577720746
 30
0.0
 10
96.19533417734006
 20
-161.7017577720746
 30
0.0
 10
96.24218747593946
 20
-161.707958943948
 30
0.0
 10
96.3159125193238
 20
-161.7165716826611
 30
0.0
 10
96.33313799675005
 20
-161.7165716826611
 30
0.0
 10
96.3834363908347
 20
-161.7165716826611
 30
0.0
 10
96.40066186826095
 20
-161.6955566002011
 30
0.0
 10
96.40066186826095
 20
-161.638368015146
 30
0.0
 10
96.40066186826095
 20
-161.638368015146
 30
0.0
 10
96.40066186826095
 20
-161.500564195736
 30
0.0
 10
96.40066186826095
 20
-161.500564195736
 30
0.0
 10
96.40066186826095
 20
-161.500564195736
 30
0.0
 10
96.29455292731525
 20
-161.500564195736
 30
0.0
 10
96.29455292731525
 20
-161.500564195736
 30
0.0
 10
96.16157224158461
 20
-161.500564195736
 30
0.0
 10
96.00516490655427
 20
-161.500564195736
 30
0.0
 10
95.88251950727937
 20
-161.5136555585799
 30
0.0
 10
95.88251950727937
 20
-161.5136555585799
 30
0.0
 10
95.88251950727937
 20
-161.3231417782456
 30
0.0
 10
95.88251950727937
 20
-161.3231417782456
 30
0.0
 10
96.04926212876546
 20
-161.3400227461233
 30
0.0
 10
96.28008352627721
 20
-161.3420898034145
 30
0.0
 10
96.29455292731525
 20
-161.3420898034145
 30
0.0
 10
96.29455292731525
 20
-161.3420898034145
 30
0.0
 10
96.40066186826095
 20
-161.3420898034145
 30
0.0
 10
96.40066186826095
 20
-161.3420898034145
 30
0.0
 10
96.40066186826095
 20
-161.3420898034145
 30
0.0
 10
96.40066186826095
 20
-161.211176174975
 30
0.0
 10
96.40066186826095
 20
-161.211176174975
 30
0.0
 10
96.40066186826095
 20
-161.211176174975
 30
0.0
 10
96.3627658179232
 20
-161.211176174975
 30
0.0
 10
96.3627658179232
 20
-161.211176174975
 30
0.0
 10
96.31797957661496
 20
-161.211176174975
 30
0.0
 10
96.19326712004892
 20
-161.2153102895573
 30
0.0
 10
96.10438365652946
 20
-161.2235785187219
 30
0.0
 10
96.10438365652946
 20
-161.2235785187219
 30
0.0
 10
96.10438365652946
 20
-161.1433077939156
 30
0.0
 10
96.10438365652946
 20
-161.1433077939156
 30
0.0
 10
96.05132918605662
 20
-161.1815483538018
 30
0.0
 10
96.02583547946577
 20
-161.1960177548399
 30
0.0
 10
95.98380531454572
 20
-161.2194444041396
 30
0.0
 10
95.98380531454572
 20
-161.2194444041396
 30
0.0
 10
95.79570310105107
 20
-161.0905978329913
 30
0.0
 10
95.79570310105107
 20
-161.0905978329913
 30
0.0
 10
95.87356225901773
 20
-161.0564913876873
 30
0.0
 10
96.03065861314512
 20
-160.9931016307587
 30
0.0
 10
96.18706594817546
 20
-160.8494411490238
 30
0.0
 10
96.2690592207244
 20
-160.7708929719601
 30
0.0
 10
96.3476073977881
 20
-160.6861436230229
 30
0.0
 10
96.40066186826095
 20
-160.5848578157566
 30
0.0
 10
96.40066186826095
 20
-160.5848578157566
 30
0.0
 10
96.61219073105529
 20
-160.646180515394
 30
0.0
 10
96.61219073105529
 20
-160.646180515394
 30
0.0
 10
96.63148326577269
 20
-160.6523816872675
 30
0.0
 10
96.64181855222844
 20
-160.6609944259806
 30
0.0
 10
96.64181855222844
 20
-160.673741279276
 30
0.0
 10
96.64181855222844
 20
-160.6906222471538
 30
0.0
 10
96.62872718938449
 20
-160.6968234190272
 30
0.0
 10
96.6039225018907
 20
-160.7095702723226
 30
0.0
 10
96.68384871714849
 20
-160.8067219650067
 30
0.0
 10
96.84714624314933
 20
-160.9042181672392
 30
0.0
 10
96.88090817890478
 20
-160.9231661924081
 30
0.0
 10
97.03111434206167
 20
-161.0120496559275
 30
0.0
 10
97.14549151217196
 20
-161.0396104198095
 30
0.0
 10
97.22335067013861
 20
-161.0585584449784
 30
0.0
 10
97.22335067013861
 20
-161.0585584449784
 30
0.0
 10
97.10483938544601
 20
-161.2277126333042
 30
0.0
 10
97.10483938544601
 20
-161.2277126333042
 30
0.0
 10
97.02009003650888
 20
-161.198084812131
 30
0.0
 10
96.96979164242423
 20
-161.1794812965107
 30
0.0
 10
96.85128035773162
 20
-161.1136799727424
 30
0.0
 10
96.85128035773162
 20
-161.1136799727424
 30
0.0
 10
96.85128035773162
 20
-161.2235785187219
 30
0.0
 10
96.85128035773162
 20
-161.2235785187219
 30
0.0
 10
96.76859806608563
 20
-161.2153102895573
 30
0.0
 10
96.64181855222844
 20
-161.211176174975
 30
0.0
 10
96.58876408175558
 20
-161.211176174975
 30
0.0
 10
96.58876408175558
 20
-161.211176174975
 30
0.0
 10
96.58876408175558
 20
-161.3420898034145
 30
0.0
 10
96.58876408175558
 20
-161.3420898034145
 30
0.0
 10
96.58876408175558
 20
-161.3420898034145
 30
0.0
 10
96.70934242373933
 20
-161.3420898034145
 30
0.0
 10
96.70934242373933
 20
-161.3420898034145
 30
0.0
 10
96.71140948103049
 20
-161.3420898034145
 30
0.0
 10
96.94429793583338
 20
-161.3400227461233
 30
0.0
 10
97.12206486287226
 20
-161.3231417782456
 30
0.0
 10
97.12206486287226
 20
-161.3231417782456
 30
0.0
 10
97.12206486287226
 20
-161.5136555585799
 30
0.0
 10
97.12206486287226
 20
-161.5136555585799
 30
0.0
 10
96.99321829172392
 20
-161.500564195736
 30
0.0
 10
96.83612193759653
 20
-161.500564195736
 30
0.0
 10
96.70934242373933
 20
-161.500564195736
 30
0.0
 10
96.70934242373933
 20
-161.500564195736
 30
0.0
 10
96.58876408175558
 20
-161.500564195736
 30
0.0
 10
96.58876408175558
 20
-161.500564195736
 30
0.0
 10
96.58876408175558
 20
-161.500564195736
 30
0.0
 10
96.58876408175558
 20
-161.7272514786654
 30
0.0
 10
96.58876408175558
 20
-161.7272514786654
 30
0.0
 10
96.58876408175558
 20
-161.845762763358
 30
0.0
 10
96.56327037516475
 20
-161.8815917564046
 30
0.0
 10
96.4027289255521
 20
-161.8964056669912
 30
0.0
 10
96.4068630401344
 20
-161.9153536921601
 30
0.0
 10
96.40066186826095
 20
-161.9260334881643
 30
0.0
 10
96.3627658179232
 20
-161.9491156279155
 30
0.0
 10
96.36069876063205
 20
-161.9684081626329
 30
0.0
 10
96.36069876063205
 20
-161.9746093345064
 30
0.0
 10
96.35794268424385
 20
-161.9894232450929
 30
0.0
 10
96.35794268424385
 20
-161.9894232450929
 30
0.0
 10
96.49574650365385
 20
-161.9894232450929
 30
0.0
 10
96.49574650365385
 20
-161.9894232450929
 30
0.0
 10
96.66042206784878
 20
-161.9894232450929
 30
0.0
 10
96.82785370843193
 20
-161.9852891305106
 30
0.0
 10
96.99528534901508
 20
-161.9704752199241
 30
0.0
 10
96.99528534901508
 20
-161.9704752199241
 30
0.0
 10
96.99528534901508
 20
-162.1778699681361
 30
0.0
 10
96.99528534901508
 20
-162.1778699681361
 30
0.0
 10
96.77893335254139
 20
-162.1606444907098
 30
0.0
 10
96.51503903837124
 20
-162.1606444907098
 30
0.0
 10
96.49574650365385
 20
-162.1606444907098
 30
0.0
 10
96.49574650365385
 20
-162.1606444907098
 30
0.0
 10
96.3558756269527
 20
-162.1606444907098
 30
0.0
 10
96.3558756269527
 20
-162.1606444907098
 30
0.0
 10
96.3558756269527
 20
-162.1606444907098
 30
0.0
 10
96.3558756269527
 20
-162.3025824247021
 30
0.0
 10
96.3558756269527
 20
-162.3025824247021
 30
0.0
 10
96.3558756269527
 20
-162.3025824247021
 30
0.0
 10
96.58256290988214
 20
-162.3025824247021
 30
0.0
 10
96.58256290988214
 20
-162.3025824247021
 30
0.0
 10
96.79822588725878
 20
-162.3025824247021
 30
0.0
 10
97.01595592192658
 20
-162.2984483101199
 30
0.0
 10
97.23161889930321
 20
-162.2857014568244
 30
0.0
 10
97.23161889930321
 20
-162.2857014568244
 30
0.0
 10
97.23161889930321
 20
-162.4927516954879
 30
0.0
 10
97.23161889930321
 20
-162.4927516954879
 30
0.0
 10
96.95049910770682
 20
-162.4762152371587
 30
0.0
 10
96.60598955918184
 20
-162.4762152371587
 30
0.0
 10
96.58256290988214
 20
-162.4762152371587
 30
0.0
  0
SPLINE
  5
148
330
142
100
AcDbEntity
  8
_U+30EC_U+30A4_U+30E4_U+30FC 1
370
     0
100
AcDbSpline
210
0.0
220
0.0
230
1.0
 70
    11
 71
     3
 72
    23
 73
    19
 74
     0
 42
0.0000000001
 43
0.0000000001
 12
1.0
 22
0.0
 32
0.0
 13
1.0
 23
0.0
 33
0.0
 40
0.0
 40
0.0
 40
0.0
 40
0.0
 40
1.0
 40
1.0
 40
1.0
 40
2.0
 40
2.0
 40
2.0
 40
3.0
 40
3.0
 40
3.0
 40
4.0
 40
4.0
 40
4.0
 40
5.0
 40
5.0
 40
5.0
 40
6.0
 40
6.0
 40
6.0
 40
6.0
 10
95.46359589627299
 20
-161.8478298206492
 30
0.0
 10
95.46359589627299
 20
-161.8688449031092
 30
0.0
 10
95.46566295356415
 20
-161.9070854629955
 30
0.0
 10
95.4401692469733
 20
-161.9070854629955
 30
0.0
 10
95.42983396051754
 20
-161.9070854629955
 30
0.0
 10
95.42087671225589
 20
-161.9005397815735
 30
0.0
 10
95.41054142580015
 20
-161.8836588136957
 30
0.0
 10
95.41054142580015
 20
-161.8836588136957
 30
0.0
 10
95.3064995421456
 20
-161.7017577720746
 30
0.0
 10
95.3064995421456
 20
-161.7017577720746
 30
0.0
 10
95.52285153861929
 20
-161.5729112009262
 30
0.0
 10
95.71922198127854
 20
-161.2955810143636
 30
0.0
 10
95.76607527987792
 20
-161.2235785187219
 30
0.0
 10
95.76607527987792
 20
-161.2235785187219
 30
0.0
 10
95.83773326597112
 20
-161.4034125030519
 30
0.0
 10
95.83773326597112
 20
-161.4034125030519
 30
0.0
 10
95.70475258024048
 20
-161.6001274552597
 30
0.0
 10
95.52905271049273
 20
-161.7844400637206
 30
0.0
 10
95.46359589627299
 20
-161.8478298206492
 30
0.0
  0
SPLINE
  5
149
330
142
100
AcDbEntity
  8
_U+30EC_U+30A4_U+30E4_U+30FC 1
370
     0
100
AcDbSpline
210
0.0
220
0.0
230
1.0
 70
    11
 71
     3
 72
    17
 73
    13
 74
     0
 42
0.0000000001
 43
0.0000000001
 12
1.0
 22
0.0
 32
0.0
 13
1.0
 23
0.0
 33
0.0
 40
0.0
 40
0.0
 40
0.0
 40
0.0
 40
1.0
 40
1.0
 40
1.0
 40
2.0
 40
2.0
 40
2.0
 40
3.0
 40
3.0
 40
3.0
 40
4.0
 40
4.0
 40
4.0
 40
4.0
 10
95.71715492398738
 20
-160.9527940135812
 30
0.0
 10
95.65583222434994
 20
-160.8766574033572
 30
0.0
 10
95.52698565320159
 20
-160.8005207931332
 30
0.0
 10
95.42294376954705
 20
-160.7708929719601
 30
0.0
 10
95.42294376954705
 20
-160.7708929719601
 30
0.0
 10
95.51871742403699
 20
-160.6058728982166
 30
0.0
 10
95.51871742403699
 20
-160.6058728982166
 30
0.0
 10
95.62000323130334
 20
-160.6420464008117
 30
0.0
 10
95.72542315315198
 20
-160.6992349858669
 30
0.0
 10
95.81430661667143
 20
-160.7791612011247
 30
0.0
 10
95.81430661667143
 20
-160.7791612011247
 30
0.0
 10
95.71715492398738
 20
-160.9527940135812
 30
0.0
 10
95.71715492398738
 20
-160.9527940135812
 30
0.0
  0
SPLINE
  5
14A
330
142
100
AcDbEntity
  8
_U+30EC_U+30A4_U+30E4_U+30FC 1
370
     0
100
AcDbSpline
210
0.0
220
0.0
230
1.0
 70
    11
 71
     3
 72
    23
 73
    19
 74
     0
 42
0.0000000001
 43
0.0000000001
 12
1.0
 22
0.0
 32
0.0
 13
1.0
 23
0.0
 33
0.0
 40
0.0
 40
0.0
 40
0.0
 40
0.0
 40
1.0
 40
1.0
 40
1.0
 40
2.0
 40
2.0
 40
2.0
 40
3.0
 40
3.0
 40
3.0
 40
4.0
 40
4.0
 40
4.0
 40
5.0
 40
5.0
 40
5.0
 40
6.0
 40
6.0
 40
6.0
 40
6.0
 10
96.16984047074921
 20
-161.6573160403148
 30
0.0
 10
96.14848087874066
 20
-161.680398180066
 30
0.0
 10
96.05132918605662
 20
-161.7927082928852
 30
0.0
 10
95.91214732845252
 20
-161.87332352724
 30
0.0
 10
95.91214732845252
 20
-161.87332352724
 30
0.0
 10
95.74471568786939
 20
-161.7527451852563
 30
0.0
 10
95.74471568786939
 20
-161.7527451852563
 30
0.0
 10
95.89492185102627
 20
-161.6762640654837
 30
0.0
 10
95.99414060100148
 20
-161.5811794300908
 30
0.0
 10
96.04306095689202
 20
-161.528124959618
 30
0.0
 10
96.04306095689202
 20
-161.528124959618
 30
0.0
 10
96.21669376934861
 20
-161.610807251264
 30
0.0
 10
96.21669376934861
 20
-161.610807251264
 30
0.0
 10
96.22496199851321
 20
-161.6149413658463
 30
0.0
 10
96.23323022767781
 20
-161.6211425377197
 30
0.0
 10
96.23323022767781
 20
-161.6321668432725
 30
0.0
 10
96.23323022767781
 20
-161.6573160403148
 30
0.0
 10
96.19740123463122
 20
-161.6573160403148
 30
0.0
 10
96.16984047074921
 20
-161.6573160403148
 30
0.0
  0
SPLINE
  5
14B
330
142
100
AcDbEntity
  8
_U+30EC_U+30A4_U+30E4_U+30FC 1
370
     0
100
AcDbSpline
210
0.0
220
0.0
230
1.0
 70
    11
 71
     3
 72
    20
 73
    16
 74
     0
 42
0.0000000001
 43
0.0000000001
 12
1.0
 22
0.0
 32
0.0
 13
1.0
 23
0.0
 33
0.0
 40
0.0
 40
0.0
 40
0.0
 40
0.0
 40
1.0
 40
1.0
 40
1.0
 40
2.0
 40
2.0
 40
2.0
 40
3.0
 40
3.0
 40
3.0
 40
4.0
 40
4.0
 40
4.0
 40
5.0
 40
5.0
 40
5.0
 40
5.0
 10
96.46818573977184
 20
-160.8153347037198
 30
0.0
 10
96.4302896894341
 20
-160.8639105500618
 30
0.0
 10
96.36896698979665
 20
-160.9424587271255
 30
0.0
 10
96.22909611309551
 20
-161.052357273105
 30
0.0
 10
96.30971134745036
 20
-161.0564913876873
 30
0.0
 10
96.3393391686235
 20
-161.0564913876873
 30
0.0
 10
96.3627658179232
 20
-161.0564913876873
 30
0.0
 10
96.3627658179232
 20
-161.0564913876873
 30
0.0
 10
96.59083113904674
 20
-161.0564913876873
 30
0.0
 10
96.59083113904674
 20
-161.0564913876873
 30
0.0
 10
96.62252601751103
 20
-161.0564913876873
 30
0.0
 10
96.6714463734016
 20
-161.0544243303961
 30
0.0
 10
96.74517141678594
 20
-161.052357273105
 30
0.0
 10
96.63355032306384
 20
-160.9782877201721
 30
0.0
 10
96.58462996717329
 20
-160.9317789311212
 30
0.0
 10
96.46818573977184
 20
-160.8153347037198
 30
0.0
  0
SPLINE
  5
14C
330
142
100
AcDbEntity
  8
_U+30EC_U+30A4_U+30E4_U+30FC 1
370
     0
100
AcDbSpline
210
0.0
220
0.0
230
1.0
 70
    11
 71
     3
 72
    17
 73
    13
 74
     0
 42
0.0000000001
 43
0.0000000001
 12
1.0
 22
0.0
 32
0.0
 13
1.0
 23
0.0
 33
0.0
 40
0.0
 40
0.0
 40
0.0
 40
0.0
 40
1.0
 40
1.0
 40
1.0
 40
2.0
 40
2.0
 40
2.0
 40
3.0
 40
3.0
 40
3.0
 40
4.0
 40
4.0
 40
4.0
 40
4.0
 10
97.02904728477053
 20
-161.8709119604003
 30
0.0
 10
96.89331052265167
 20
-161.7589463571297
 30
0.0
 10
96.78789060080304
 20
-161.6955566002011
 30
0.0
 10
96.66937931611044
 20
-161.6321668432725
 30
0.0
 10
96.66937931611044
 20
-161.6321668432725
 30
0.0
 10
96.79615882996764
 20
-161.5198567304534
 30
0.0
 10
96.79615882996764
 20
-161.5198567304534
 30
0.0
 10
96.92707245840712
 20
-161.5663655195042
 30
0.0
 10
97.03731551393513
 20
-161.6235541045594
 30
0.0
 10
97.16202797050117
 20
-161.7251844213743
 30
0.0
 10
97.16202797050117
 20
-161.7251844213743
 30
0.0
 10
97.02904728477053
 20
-161.8709119604003
 30
0.0
 10
97.02904728477053
 20
-161.8709119604003
 30
0.0
  0
HATCH
  5
14D
330
142
100
AcDbEntity
  8
_U+30EC_U+30A4_U+30E4_U+30FC 1
 62
   179
420
  2234388
100
AcDbHatch
 10
0.0
 20
0.0
 30
0.0
210
0.0
220
0.0
230
1.0
  2
SOLID
 70
     1
 71
     0
 91
        7
 92
        1
 93
        1
 72
     4
 94
        3
 73
     0
 74
     1
 95
       17
 96
       13
 40
0.0
 40
0.0
 40
0.0
 40
0.0
 40
1.0
 40
1.0
 40
1.0
 40
2.0
 40
2.0
 40
2.0
 40
3.0
 40
3.0
 40
3.0
 40
4.0
 40
4.0
 40
4.0
 40
4.0
 10
95.53732093965733
 20
-161.2976480716547
 10
95.4319010178087
 20
-161.1918836402576
 10
95.35128578345385
 20
-161.1539875899198
 10
95.25826820535211
 20
-161.1222927114555
 10
95.25826820535211
 20
-161.1222927114555
 10
95.3685112608801
 20
-160.9569281281636
 10
95.3685112608801
 20
-160.9569281281636
 10
95.46566295356415
 20
-160.9996473121807
 10
95.5862412955479
 20
-161.0775064701473
 10
95.63929576602074
 20
-161.1326279979113
 10
95.63929576602074
 20
-161.1326279979113
 10
95.53732093965733
 20
-161.2976480716547
 10
95.53732093965733
 20
-161.2976480716547
 97
        0
 97
        0
 92
        1
 93
        1
 72
     4
 94
        3
 73
     0
 74
     1
 95
      182
 96
      178
 40
0.0
 40
0.0
 40
0.0
 40
0.0
 40
1.0
 40
1.0
 40
1.0
 40
2.0
 40
2.0
 40
2.0
 40
3.0
 40
3.0
 40
3.0
 40
4.0
 40
4.0
 40
4.0
 40
5.0
 40
5.0
 40
5.0
 40
6.0
 40
6.0
 40
6.0
 40
7.0
 40
7.0
 40
7.0
 40
8.0
 40
8.0
 40
8.0
 40
9.0
 40
9.0
 40
9.0
 40
10.0
 40
10.0
 40
10.0
 40
11.0
 40
11.0
 40
11.0
 40
12.0
 40
12.0
 40
12.0
 40
13.0
 40
13.0
 40
13.0
 40
14.0
 40
14.0
 40
14.0
 40
15.0
 40
15.0
 40
15.0
 40
16.0
 40
16.0
 40
16.0
 40
17.0
 40
17.0
 40
17.0
 40
18.0
 40
18.0
 40
18.0
 40
19.0
 40
19.0
 40
19.0
 40
20.0
 40
20.0
 40
20.0
 40
21.0
 40
21.0
 40
21.0
 40
22.0
 40
22.0
 40
22.0
 40
23.0
 40
23.0
 40
23.0
 40
24.0
 40
24.0
 40
24.0
 40
25.0
 40
25.0
 40
25.0
 40
26.0
 40
26.0
 40
26.0
 40
27.0
 40
27.0
 40
27.0
 40
28.0
 40
28.0
 40
28.0
 40
29.0
 40
29.0
 40
29.0
 40
30.0
 40
30.0
 40
30.0
 40
31.0
 40
31.0
 40
31.0
 40
32.0
 40
32.0
 40
32.0
 40
33.0
 40
33.0
 40
33.0
 40
34.0
 40
34.0
 40
34.0
 40
35.0
 40
35.0
 40
35.0
 40
36.0
 40
36.0
 40
36.0
 40
37.0
 40
37.0
 40
37.0
 40
38.0
 40
38.0
 40
38.0
 40
39.0
 40
39.0
 40
39.0
 40
40.0
 40
40.0
 40
40.0
 40
41.0
 40
41.0
 40
41.0
 40
42.0
 40
42.0
 40
42.0
 40
43.0
 40
43.0
 40
43.0
 40
44.0
 40
44.0
 40
44.0
 40
45.0
 40
45.0
 40
45.0
 40
46.0
 40
46.0
 40
46.0
 40
47.0
 40
47.0
 40
47.0
 40
48.0
 40
48.0
 40
48.0
 40
49.0
 40
49.0
 40
49.0
 40
50.0
 40
50.0
 40
50.0
 40
51.0
 40
51.0
 40
51.0
 40
52.0
 40
52.0
 40
52.0
 40
53.0
 40
53.0
 40
53.0
 40
54.0
 40
54.0
 40
54.0
 40
55.0
 40
55.0
 40
55.0
 40
56.0
 40
56.0
 40
56.0
 40
57.0
 40
57.0
 40
57.0
 40
58.0
 40
58.0
 40
58.0
 40
59.0
 40
59.0
 40
59.0
 40
59.0
 10
96.58256290988214
 20
-162.4762152371587
 10
96.58256290988214
 20
-162.4762152371587
 10
95.94590926420797
 20
-162.4762152371587
 10
95.94590926420797
 20
-162.4762152371587
 10
95.73231334412249
 20
-162.4762152371587
 10
95.5159613476488
 20
-162.480349351741
 10
95.3023654275633
 20
-162.4927516954879
 10
95.3023654275633
 20
-162.4927516954879
 10
95.3023654275633
 20
-162.2857014568244
 10
95.3023654275633
 20
-162.2857014568244
 10
95.52491859591044
 20
-162.2984483101199
 10
95.84806855242688
 20
-162.3025824247021
 10
95.94590926420797
 20
-162.3025824247021
 10
95.94590926420797
 20
-162.3025824247021
 10
96.16570635616691
 20
-162.3025824247021
 10
96.16570635616691
 20
-162.3025824247021
 10
96.16570635616691
 20
-162.3025824247021
 10
96.16570635616691
 20
-162.1606444907098
 10
96.16570635616691
 20
-162.1606444907098
 10
96.16570635616691
 20
-162.1606444907098
 10
96.00516490655427
 20
-162.1606444907098
 10
96.00516490655427
 20
-162.1606444907098
 10
95.83980032326228
 20
-162.1606444907098
 10
95.67512475906733
 20
-162.1651231148407
 10
95.50976017577534
 20
-162.1799370254273
 10
95.50976017577534
 20
-162.1799370254273
 10
95.50976017577534
 20
-161.9704752199241
 10
95.50976017577534
 20
-161.9704752199241
 10
95.68132593094079
 20
-161.9852891305106
 10
95.92868378678172
 20
-161.9894232450929
 10
96.00516490655427
 20
-161.9894232450929
 10
96.00516490655427
 20
-161.9894232450929
 10
96.16570635616691
 20
-161.9894232450929
 10
96.16570635616691
 20
-161.9894232450929
 10
96.16157224158461
 20
-161.9174207494512
 10
96.16157224158461
 20
-161.9112195775778
 10
96.15537106971117
 20
-161.8581651071049
 10
96.15537106971117
 20
-161.8581651071049
 10
96.29455292731525
 20
-161.87332352724
 10
96.29455292731525
 20
-161.87332352724
 10
96.29455292731525
 20
-161.87332352724
 10
96.19533417734006
 20
-161.7017577720746
 10
96.19533417734006
 20
-161.7017577720746
 10
96.24218747593946
 20
-161.707958943948
 10
96.3159125193238
 20
-161.7165716826611
 10
96.33313799675005
 20
-161.7165716826611
 10
96.3834363908347
 20
-161.7165716826611
 10
96.40066186826095
 20
-161.6955566002011
 10
96.40066186826095
 20
-161.638368015146
 10
96.40066186826095
 20
-161.638368015146
 10
96.40066186826095
 20
-161.500564195736
 10
96.40066186826095
 20
-161.500564195736
 10
96.40066186826095
 20
-161.500564195736
 10
96.29455292731525
 20
-161.500564195736
 10
96.29455292731525
 20
-161.500564195736
 10
96.16157224158461
 20
-161.500564195736
 10
96.00516490655427
 20
-161.500564195736
 10
95.88251950727937
 20
-161.5136555585799
 10
95.88251950727937
 20
-161.5136555585799
 10
95.88251950727937
 20
-161.3231417782456
 10
95.88251950727937
 20
-161.3231417782456
 10
96.04926212876546
 20
-161.3400227461233
 10
96.28008352627721
 20
-161.3420898034145
 10
96.29455292731525
 20
-161.3420898034145
 10
96.29455292731525
 20
-161.3420898034145
 10
96.40066186826095
 20
-161.3420898034145
 10
96.40066186826095
 20
-161.3420898034145
 10
96.40066186826095
 20
-161.3420898034145
 10
96.40066186826095
 20
-161.211176174975
 10
96.40066186826095
 20
-161.211176174975
 10
96.40066186826095
 20
-161.211176174975
 10
96.3627658179232
 20
-161.211176174975
 10
96.3627658179232
 20
-161.211176174975
 10
96.31797957661496
 20
-161.211176174975
 10
96.19326712004892
 20
-161.2153102895573
 10
96.10438365652946
 20
-161.2235785187219
 10
96.10438365652946
 20
-161.2235785187219
 10
96.10438365652946
 20
-161.1433077939156
 10
96.10438365652946
 20
-161.1433077939156
 10
96.05132918605662
 20
-161.1815483538018
 10
96.02583547946577
 20
-161.1960177548399
 10
95.98380531454572
 20
-161.2194444041396
 10
95.98380531454572
 20
-161.2194444041396
 10
95.79570310105107
 20
-161.0905978329913
 10
95.79570310105107
 20
-161.0905978329913
 10
95.87356225901773
 20
-161.0564913876873
 10
96.03065861314512
 20
-160.9931016307587
 10
96.18706594817546
 20
-160.8494411490238
 10
96.2690592207244
 20
-160.7708929719601
 10
96.3476073977881
 20
-160.6861436230229
 10
96.40066186826095
 20
-160.5848578157566
 10
96.40066186826095
 20
-160.5848578157566
 10
96.61219073105529
 20
-160.646180515394
 10
96.61219073105529
 20
-160.646180515394
 10
96.63148326577269
 20
-160.6523816872675
 10
96.64181855222844
 20
-160.6609944259806
 10
96.64181855222844
 20
-160.673741279276
 10
96.64181855222844
 20
-160.6906222471538
 10
96.62872718938449
 20
-160.6968234190272
 10
96.6039225018907
 20
-160.7095702723226
 10
96.68384871714849
 20
-160.8067219650067
 10
96.84714624314933
 20
-160.9042181672392
 10
96.88090817890478
 20
-160.9231661924081
 10
97.03111434206167
 20
-161.0120496559275
 10
97.14549151217196
 20
-161.0396104198095
 10
97.22335067013861
 20
-161.0585584449784
 10
97.22335067013861
 20
-161.0585584449784
 10
97.10483938544601
 20
-161.2277126333042
 10
97.10483938544601
 20
-161.2277126333042
 10
97.02009003650888
 20
-161.198084812131
 10
96.96979164242423
 20
-161.1794812965107
 10
96.85128035773162
 20
-161.1136799727424
 10
96.85128035773162
 20
-161.1136799727424
 10
96.85128035773162
 20
-161.2235785187219
 10
96.85128035773162
 20
-161.2235785187219
 10
96.76859806608563
 20
-161.2153102895573
 10
96.64181855222844
 20
-161.211176174975
 10
96.58876408175558
 20
-161.211176174975
 10
96.58876408175558
 20
-161.211176174975
 10
96.58876408175558
 20
-161.3420898034145
 10
96.58876408175558
 20
-161.3420898034145
 10
96.58876408175558
 20
-161.3420898034145
 10
96.70934242373933
 20
-161.3420898034145
 10
96.70934242373933
 20
-161.3420898034145
 10
96.71140948103049
 20
-161.3420898034145
 10
96.94429793583338
 20
-161.3400227461233
 10
97.12206486287226
 20
-161.3231417782456
 10
97.12206486287226
 20
-161.3231417782456
 10
97.12206486287226
 20
-161.5136555585799
 10
97.12206486287226
 20
-161.5136555585799
 10
96.99321829172392
 20
-161.500564195736
 10
96.83612193759653
 20
-161.500564195736
 10
96.70934242373933
 20
-161.500564195736
 10
96.70934242373933
 20
-161.500564195736
 10
96.58876408175558
 20
-161.500564195736
 10
96.58876408175558
 20
-161.500564195736
 10
96.58876408175558
 20
-161.500564195736
 10
96.58876408175558
 20
-161.7272514786654
 10
96.58876408175558
 20
-161.7272514786654
 10
96.58876408175558
 20
-161.845762763358
 10
96.56327037516475
 20
-161.8815917564046
 10
96.4027289255521
 20
-161.8964056669912
 10
96.4068630401344
 20
-161.9153536921601
 10
96.40066186826095
 20
-161.9260334881643
 10
96.3627658179232
 20
-161.9491156279155
 10
96.36069876063205
 20
-161.9684081626329
 10
96.36069876063205
 20
-161.9746093345064
 10
96.35794268424385
 20
-161.9894232450929
 10
96.35794268424385
 20
-161.9894232450929
 10
96.49574650365385
 20
-161.9894232450929
 10
96.49574650365385
 20
-161.9894232450929
 10
96.66042206784878
 20
-161.9894232450929
 10
96.82785370843193
 20
-161.9852891305106
 10
96.99528534901508
 20
-161.9704752199241
 10
96.99528534901508
 20
-161.9704752199241
 10
96.99528534901508
 20
-162.1778699681361
 10
96.99528534901508
 20
-162.1778699681361
 10
96.77893335254139
 20
-162.1606444907098
 10
96.51503903837124
 20
-162.1606444907098
 10
96.49574650365385
 20
-162.1606444907098
 10
96.49574650365385
 20
-162.1606444907098
 10
96.3558756269527
 20
-162.1606444907098
 10
96.3558756269527
 20
-162.1606444907098
 10
96.3558756269527
 20
-162.1606444907098
 10
96.3558756269527
 20
-162.3025824247021
 10
96.3558756269527
 20
-162.3025824247021
 10
96.3558756269527
 20
-162.3025824247021
 10
96.58256290988214
 20
-162.3025824247021
 10
96.58256290988214
 20
-162.3025824247021
 10
96.79822588725878
 20
-162.3025824247021
 10
97.01595592192658
 20
-162.2984483101199
 10
97.23161889930321
 20
-162.2857014568244
 10
97.23161889930321
 20
-162.2857014568244
 10
97.23161889930321
 20
-162.4927516954879
 10
97.23161889930321
 20
-162.4927516954879
 10
96.95049910770682
 20
-162.4762152371587
 10
96.60598955918184
 20
-162.4762152371587
 10
96.58256290988214
 20
-162.4762152371587
 97
        0
 97
        0
 92
        1
 93
        1
 72
     4
 94
        3
 73
     0
 74
     1
 95
       23
 96
       19
 40
0.0
 40
0.0
 40
0.0
 40
0.0
 40
1.0
 40
1.0
 40
1.0
 40
2.0
 40
2.0
 40
2.0
 40
3.0
 40
3.0
 40
3.0
 40
4.0
 40
4.0
 40
4.0
 40
5.0
 40
5.0
 40
5.0
 40
6.0
 40
6.0
 40
6.0
 40
6.0
 10
95.46359589627299
 20
-161.8478298206492
 10
95.46359589627299
 20
-161.8688449031092
 10
95.46566295356415
 20
-161.9070854629955
 10
95.4401692469733
 20
-161.9070854629955
 10
95.42983396051754
 20
-161.9070854629955
 10
95.42087671225589
 20
-161.9005397815735
 10
95.41054142580015
 20
-161.8836588136957
 10
95.41054142580015
 20
-161.8836588136957
 10
95.3064995421456
 20
-161.7017577720746
 10
95.3064995421456
 20
-161.7017577720746
 10
95.52285153861929
 20
-161.5729112009262
 10
95.71922198127854
 20
-161.2955810143636
 10
95.76607527987792
 20
-161.2235785187219
 10
95.76607527987792
 20
-161.2235785187219
 10
95.83773326597112
 20
-161.4034125030519
 10
95.83773326597112
 20
-161.4034125030519
 10
95.70475258024048
 20
-161.6001274552597
 10
95.52905271049273
 20
-161.7844400637206
 10
95.46359589627299
 20
-161.8478298206492
 97
        0
 97
        0
 92
        1
 93
        1
 72
     4
 94
        3
 73
     0
 74
     1
 95
       17
 96
       13
 40
0.0
 40
0.0
 40
0.0
 40
0.0
 40
1.0
 40
1.0
 40
1.0
 40
2.0
 40
2.0
 40
2.0
 40
3.0
 40
3.0
 40
3.0
 40
4.0
 40
4.0
 40
4.0
 40
4.0
 10
95.71715492398738
 20
-160.9527940135812
 10
95.65583222434994
 20
-160.8766574033572
 10
95.52698565320159
 20
-160.8005207931332
 10
95.42294376954705
 20
-160.7708929719601
 10
95.42294376954705
 20
-160.7708929719601
 10
95.51871742403699
 20
-160.6058728982166
 10
95.51871742403699
 20
-160.6058728982166
 10
95.62000323130334
 20
-160.6420464008117
 10
95.72542315315198
 20
-160.6992349858669
 10
95.81430661667143
 20
-160.7791612011247
 10
95.81430661667143
 20
-160.7791612011247
 10
95.71715492398738
 20
-160.9527940135812
 10
95.71715492398738
 20
-160.9527940135812
 97
        0
 97
        0
 92
        1
 93
        1
 72
     4
 94
        3
 73
     0
 74
     1
 95
       23
 96
       19
 40
0.0
 40
0.0
 40
0.0
 40
0.0
 40
1.0
 40
1.0
 40
1.0
 40
2.0
 40
2.0
 40
2.0
 40
3.0
 40
3.0
 40
3.0
 40
4.0
 40
4.0
 40
4.0
 40
5.0
 40
5.0
 40
5.0
 40
6.0
 40
6.0
 40
6.0
 40
6.0
 10
96.16984047074921
 20
-161.6573160403148
 10
96.14848087874066
 20
-161.680398180066
 10
96.05132918605662
 20
-161.7927082928852
 10
95.91214732845252
 20
-161.87332352724
 10
95.91214732845252
 20
-161.87332352724
 10
95.74471568786939
 20
-161.7527451852563
 10
95.74471568786939
 20
-161.7527451852563
 10
95.89492185102627
 20
-161.6762640654837
 10
95.99414060100148
 20
-161.5811794300908
 10
96.04306095689202
 20
-161.528124959618
 10
96.04306095689202
 20
-161.528124959618
 10
96.21669376934861
 20
-161.610807251264
 10
96.21669376934861
 20
-161.610807251264
 10
96.22496199851321
 20
-161.6149413658463
 10
96.23323022767781
 20
-161.6211425377197
 10
96.23323022767781
 20
-161.6321668432725
 10
96.23323022767781
 20
-161.6573160403148
 10
96.19740123463122
 20
-161.6573160403148
 10
96.16984047074921
 20
-161.6573160403148
 97
        0
 97
        0
 92
        1
 93
        1
 72
     4
 94
        3
 73
     0
 74
     1
 95
       20
 96
       16
 40
0.0
 40
0.0
 40
0.0
 40
0.0
 40
1.0
 40
1.0
 40
1.0
 40
2.0
 40
2.0
 40
2.0
 40
3.0
 40
3.0
 40
3.0
 40
4.0
 40
4.0
 40
4.0
 40
5.0
 40
5.0
 40
5.0
 40
5.0
 10
96.46818573977184
 20
-160.8153347037198
 10
96.4302896894341
 20
-160.8639105500618
 10
96.36896698979665
 20
-160.9424587271255
 10
96.22909611309551
 20
-161.052357273105
 10
96.30971134745036
 20
-161.0564913876873
 10
96.3393391686235
 20
-161.0564913876873
 10
96.3627658179232
 20
-161.0564913876873
 10
96.3627658179232
 20
-161.0564913876873
 10
96.59083113904674
 20
-161.0564913876873
 10
96.59083113904674
 20
-161.0564913876873
 10
96.62252601751103
 20
-161.0564913876873
 10
96.6714463734016
 20
-161.0544243303961
 10
96.74517141678594
 20
-161.052357273105
 10
96.63355032306384
 20
-160.9782877201721
 10
96.58462996717329
 20
-160.9317789311212
 10
96.46818573977184
 20
-160.8153347037198
 97
        0
 97
        0
 92
        1
 93
        1
 72
     4
 94
        3
 73
     0
 74
     1
 95
       17
 96
       13
 40
0.0
 40
0.0
 40
0.0
 40
0.0
 40
1.0
 40
1.0
 40
1.0
 40
2.0
 40
2.0
 40
2.0
 40
3.0
 40
3.0
 40
3.0
 40
4.0
 40
4.0
 40
4.0
 40
4.0
 10
97.02904728477053
 20
-161.8709119604003
 10
96.89331052265167
 20
-161.7589463571297
 10
96.78789060080304
 20
-161.6955566002011
 10
96.66937931611044
 20
-161.6321668432725
 10
96.66937931611044
 20
-161.6321668432725
 10
96.79615882996764
 20
-161.5198567304534
 10
96.79615882996764
 20
-161.5198567304534
 10
96.92707245840712
 20
-161.5663655195042
 10
97.03731551393513
 20
-161.6235541045594
 10
97.16202797050117
 20
-161.7251844213743
 10
97.16202797050117
 20
-161.7251844213743
 10
97.02904728477053
 20
-161.8709119604003
 10
97.02904728477053
 20
-161.8709119604003
 97
        0
 97
        0
 75
     2
 76
     1
 98
        0
  0
SPLINE
  5
14E
330
142
100
AcDbEntity
  8
_U+30EC_U+30A4_U+30E4_U+30FC 1
370
     0
100
AcDbSpline
210
0.0
220
0.0
230
1.0
 70
    11
 71
     3
 72
   113
 73
   109
 74
     0
 42
0.0000000001
 43
0.0000000001
 12
1.0
 22
0.0
 32
0.0
 13
1.0
 23
0.0
 33
0.0
 40
0.0
 40
0.0
 40
0.0
 40
0.0
 40
1.0
 40
1.0
 40
1.0
 40
2.0
 40
2.0
 40
2.0
 40
3.0
 40
3.0
 40
3.0
 40
4.0
 40
4.0
 40
4.0
 40
5.0
 40
5.0
 40
5.0
 40
6.0
 40
6.0
 40
6.0
 40
7.0
 40
7.0
 40
7.0
 40
8.0
 40
8.0
 40
8.0
 40
9.0
 40
9.0
 40
9.0
 40
10.0
 40
10.0
 40
10.0
 40
11.0
 40
11.0
 40
11.0
 40
12.0
 40
12.0
 40
12.0
 40
13.0
 40
13.0
 40
13.0
 40
14.0
 40
14.0
 40
14.0
 40
15.0
 40
15.0
 40
15.0
 40
16.0
 40
16.0
 40
16.0
 40
17.0
 40
17.0
 40
17.0
 40
18.0
 40
18.0
 40
18.0
 40
19.0
 40
19.0
 40
19.0
 40
20.0
 40
20.0
 40
20.0
 40
21.0
 40
21.0
 40
21.0
 40
22.0
 40
22.0
 40
22.0
 40
23.0
 40
23.0
 40
23.0
 40
24.0
 40
24.0
 40
24.0
 40
25.0
 40
25.0
 40
25.0
 40
26.0
 40
26.0
 40
26.0
 40
27.0
 40
27.0
 40
27.0
 40
28.0
 40
28.0
 40
28.0
 40
29.0
 40
29.0
 40
29.0
 40
30.0
 40
30.0
 40
30.0
 40
31.0
 40
31.0
 40
31.0
 40
32.0
 40
32.0
 40
32.0
 40
33.0
 40
33.0
 40
33.0
 40
34.0
 40
34.0
 40
34.0
 40
35.0
 40
35.0
 40
35.0
 40
36.0
 40
36.0
 40
36.0
 40
36.0
 10
98.90869138152283
 20
-161.8478298206492
 30
0.0
 10
98.90869138152283
 20
-161.8478298206492
 30
0.0
 10
99.00791013149802
 20
-161.9470485706244
 30
0.0
 10
99.00791013149802
 20
-161.9470485706244
 30
0.0
 10
99.01893443705083
 20
-161.9577283666286
 30
0.0
 10
99.02926972350657
 20
-161.9704752199241
 30
0.0
 10
99.02926972350657
 20
-161.9852891305106
 30
0.0
 10
99.02926972350657
 20
-161.9873561878018
 30
0.0
 10
99.02926972350657
 20
-162.0169840089749
 30
0.0
 10
98.99137367316882
 20
-162.0169840089749
 30
0.0
 10
98.98241642490717
 20
-162.0169840089749
 30
0.0
 10
98.94245331727828
 20
-162.0125053848441
 30
0.0
 10
98.93625214540484
 20
-162.0125053848441
 30
0.0
 10
98.89560001867888
 20
-162.0445447728569
 30
0.0
 10
98.84943573917653
 20
-162.0783067086124
 30
0.0
 10
98.75021698920133
 20
-162.1354952936675
 30
0.0
 10
98.89560001867888
 20
-162.2433267823558
 30
0.0
 10
99.05476343009742
 20
-162.300515367411
 30
0.0
 10
99.3276149925292
 20
-162.3384114177487
 30
0.0
 10
99.3276149925292
 20
-162.3384114177487
 30
0.0
 10
99.17740882937233
 20
-162.5141112874965
 30
0.0
 10
99.17740882937233
 20
-162.5141112874965
 30
0.0
 10
98.91489255339629
 20
-162.4421087918548
 30
0.0
 10
98.75848521836593
 20
-162.3535698378838
 30
0.0
 10
98.6820040985934
 20
-162.300515367411
 30
0.0
 10
98.5317979354365
 20
-162.1988850505961
 30
0.0
 10
98.3884819632501
 20
-162.0359320341438
 30
0.0
 10
98.31200084347756
 20
-161.8709119604003
 30
0.0
 10
98.24447697196666
 20
-161.9367132841686
 30
0.0
 10
98.17006290948527
 20
-161.9894232450929
 30
0.0
 10
98.09220375151862
 20
-162.037999091435
 30
0.0
 10
98.09220375151862
 20
-162.037999091435
 30
0.0
 10
98.09220375151862
 20
-162.2898355714067
 30
0.0
 10
98.09220375151862
 20
-162.2898355714067
 30
0.0
 10
98.25481225842242
 20
-162.2646863743644
 30
0.0
 10
98.4408474146259
 20
-162.2199001330561
 30
0.0
 10
98.50423717155451
 20
-162.2054307320181
 30
0.0
 10
98.50423717155451
 20
-162.2054307320181
 30
0.0
 10
98.47460935038136
 20
-162.3742404107953
 30
0.0
 10
98.47460935038136
 20
-162.3742404107953
 30
0.0
 10
98.4725422930902
 20
-162.3742404107953
 30
0.0
 10
98.45393877746986
 20
-162.3807860922173
 30
0.0
 10
98.4518717201787
 20
-162.3807860922173
 30
0.0
 10
98.25274520113126
 20
-162.4190266521036
 30
0.0
 10
97.93579641648827
 20
-162.4844834663233
 30
0.0
 10
97.73873695473199
 20
-162.5203124593699
 30
0.0
 10
97.72840166827623
 20
-162.5375379367962
 30
0.0
 10
97.70497501897654
 20
-162.5692328152605
 30
0.0
 10
97.68154836967683
 20
-162.5692328152605
 30
0.0
 10
97.65398760579484
 20
-162.5692328152605
 30
0.0
 10
97.64985349121254
 20
-162.5499402805431
 30
0.0
 10
97.6477864339214
 20
-162.5309922553742
 30
0.0
 10
97.6477864339214
 20
-162.5309922553742
 30
0.0
 10
97.62229272733055
 20
-162.3577039524661
 30
0.0
 10
97.62229272733055
 20
-162.3577039524661
 30
0.0
 10
97.69670678981194
 20
-162.349091213753
 30
0.0
 10
97.80419376895173
 20
-162.3363443604576
 30
0.0
 10
97.91236976718858
 20
-162.3153292779976
 30
0.0
 10
97.91236976718858
 20
-162.3153292779976
 30
0.0
 10
97.91236976718858
 20
-162.1375623509587
 30
0.0
 10
97.91236976718858
 20
-162.1375623509587
 30
0.0
 10
97.76836477590514
 20
-162.2095648466004
 30
0.0
 10
97.67328014051223
 20
-162.2391926677736
 30
0.0
 10
97.50791555722024
 20
-162.2688204889467
 30
0.0
 10
97.50791555722024
 20
-162.2688204889467
 30
0.0
 10
97.3873372152365
 20
-162.0993217910724
 30
0.0
 10
97.3873372152365
 20
-162.0993217910724
 30
0.0
 10
97.70497501897654
 20
-162.0717610271904
 30
0.0
 10
97.89721134705349
 20
-161.9787434490887
 30
0.0
 10
98.07497827409237
 20
-161.845762763358
 30
0.0
 10
97.92890622551778
 20
-161.845762763358
 30
0.0
 10
97.62849389920399
 20
-161.8498968779403
 30
0.0
 10
97.43212345654476
 20
-161.8560980498138
 30
0.0
 10
97.43212345654476
 20
-161.8560980498138
 30
0.0
 10
97.43212345654476
 20
-161.6783311227749
 30
0.0
 10
97.43212345654476
 20
-161.6783311227749
 30
0.0
 10
97.58646373428394
 20
-161.6848768041968
 30
0.0
 10
97.88274194601543
 20
-161.6914224856188
 30
0.0
 10
98.06671004492777
 20
-161.6914224856188
 30
0.0
 10
98.06671004492777
 20
-161.6914224856188
 30
0.0
 10
98.27823890772211
 20
-161.6914224856188
 30
0.0
 10
98.27823890772211
 20
-161.6914224856188
 30
0.0
 10
98.27823890772211
 20
-161.5959933406774
 30
0.0
 10
98.27617185043096
 20
-161.5453504370442
 30
0.0
 10
98.26997067855751
 20
-161.4984971384448
 30
0.0
 10
98.26997067855751
 20
-161.4984971384448
 30
0.0
 10
98.48563365593415
 20
-161.5157226158711
 30
0.0
 10
98.48563365593415
 20
-161.5157226158711
 30
0.0
 10
98.53386499272764
 20
-161.5198567304534
 30
0.0
 10
98.5428222409893
 20
-161.53467064104
 30
0.0
 10
98.5428222409893
 20
-161.5494845516265
 30
0.0
 10
98.5428222409893
 20
-161.5749782582174
 30
0.0
 10
98.52559676356304
 20
-161.583246487382
 30
0.0
 10
98.47460935038136
 20
-161.6087401939728
 30
0.0
 10
98.4725422930902
 20
-161.6342339005637
 30
0.0
 10
98.4725422930902
 20
-161.6404350724371
 30
0.0
 10
98.47047523579906
 20
-161.6914224856188
 30
0.0
 10
98.47047523579906
 20
-161.6914224856188
 30
0.0
 10
98.70129663331079
 20
-161.6914224856188
 30
0.0
 10
98.70129663331079
 20
-161.6914224856188
 30
0.0
 10
98.86597219750573
 20
-161.6914224856188
 30
0.0
 10
99.15811629465492
 20
-161.6848768041968
 30
0.0
 10
99.33795027898496
 20
-161.6783311227749
 30
0.0
 10
99.33795027898496
 20
-161.6783311227749
 30
0.0
 10
99.33795027898496
 20
-161.8560980498138
 30
0.0
 10
99.33795027898496
 20
-161.8560980498138
 30
0.0
 10
99.20910370783662
 20
-161.8519639352315
 30
0.0
 10
99.18567705853692
 20
-161.8519639352315
 30
0.0
 10
98.90869138152283
 20
-161.8478298206492
 30
0.0
  0
SPLINE
  5
14F
330
142
100
AcDbEntity
  8
_U+30EC_U+30A4_U+30E4_U+30FC 1
370
     0
100
AcDbSpline
210
0.0
220
0.0
230
1.0
 70
    11
 71
     3
 72
    23
 73
    19
 74
     0
 42
0.0000000001
 43
0.0000000001
 12
1.0
 22
0.0
 32
0.0
 13
1.0
 23
0.0
 33
0.0
 40
0.0
 40
0.0
 40
0.0
 40
0.0
 40
1.0
 40
1.0
 40
1.0
 40
2.0
 40
2.0
 40
2.0
 40
3.0
 40
3.0
 40
3.0
 40
4.0
 40
4.0
 40
4.0
 40
5.0
 40
5.0
 40
5.0
 40
6.0
 40
6.0
 40
6.0
 40
6.0
 10
97.62435978462169
 20
-161.4964300811537
 30
0.0
 10
97.60782332629249
 20
-161.5367376983311
 30
0.0
 10
97.600933135322
 20
-161.5536186662088
 30
0.0
 10
97.5802625624105
 20
-161.5536186662088
 30
0.0
 10
97.5651041422754
 20
-161.5536186662088
 30
0.0
 10
97.55476885581965
 20
-161.5367376983311
 30
0.0
 10
97.54856768394619
 20
-161.5239908450357
 30
0.0
 10
97.54856768394619
 20
-161.5239908450357
 30
0.0
 10
97.44865991487396
 20
-161.3589707712922
 30
0.0
 10
97.44865991487396
 20
-161.3589707712922
 30
0.0
 10
97.55063474123735
 20
-161.3272758928279
 30
0.0
 10
97.70084090439424
 20
-161.2724988746124
 30
0.0
 10
97.89927840434463
 20
-161.1092013486116
 30
0.0
 10
97.89927840434463
 20
-161.1092013486116
 30
0.0
 10
97.95646698939977
 20
-161.2828341610682
 30
0.0
 10
97.95646698939977
 20
-161.2828341610682
 30
0.0
 10
97.86344941129803
 20
-161.3655164527142
 30
0.0
 10
97.77456594777858
 20
-161.4227050377693
 30
0.0
 10
97.62435978462169
 20
-161.4964300811537
 30
0.0
  0
SPLINE
  5
150
330
142
100
AcDbEntity
  8
_U+30EC_U+30A4_U+30E4_U+30FC 1
370
     0
100
AcDbSpline
210
0.0
220
0.0
230
1.0
 70
    11
 71
     3
 72
    17
 73
    13
 74
     0
 42
0.0000000001
 43
0.0000000001
 12
1.0
 22
0.0
 32
0.0
 13
1.0
 23
0.0
 33
0.0
 40
0.0
 40
0.0
 40
0.0
 40
0.0
 40
1.0
 40
1.0
 40
1.0
 40
2.0
 40
2.0
 40
2.0
 40
3.0
 40
3.0
 40
3.0
 40
4.0
 40
4.0
 40
4.0
 40
4.0
 10
97.77663300506974
 20
-161.0313421906449
 30
0.0
 10
97.74700518389659
 20
-160.9910345734675
 30
0.0
 10
97.67948131238569
 20
-160.893538371235
 30
0.0
 10
97.4975802707645
 20
-160.7836398252555
 30
0.0
 10
97.4975802707645
 20
-160.7836398252555
 30
0.0
 10
97.62435978462169
 20
-160.6503146299763
 30
0.0
 10
97.62435978462169
 20
-160.6503146299763
 30
0.0
 10
97.81039494082518
 20
-160.7519449467912
 30
0.0
 10
97.86758352588033
 20
-160.8408284103106
 30
0.0
 10
97.89514428976233
 20
-160.8832030847792
 30
0.0
 10
97.89514428976233
 20
-160.8832030847792
 30
0.0
 10
97.77663300506974
 20
-161.0313421906449
 30
0.0
 10
97.77663300506974
 20
-161.0313421906449
 30
0.0
  0
SPLINE
  5
151
330
142
100
AcDbEntity
  8
_U+30EC_U+30A4_U+30E4_U+30FC 1
370
     0
100
AcDbSpline
210
0.0
220
0.0
230
1.0
 70
    11
 71
     3
 72
    38
 73
    34
 74
     0
 42
0.0000000001
 43
0.0000000001
 12
1.0
 22
0.0
 32
0.0
 13
1.0
 23
0.0
 33
0.0
 40
0.0
 40
0.0
 40
0.0
 40
0.0
 40
1.0
 40
1.0
 40
1.0
 40
2.0
 40
2.0
 40
2.0
 40
3.0
 40
3.0
 40
3.0
 40
4.0
 40
4.0
 40
4.0
 40
5.0
 40
5.0
 40
5.0
 40
6.0
 40
6.0
 40
6.0
 40
7.0
 40
7.0
 40
7.0
 40
8.0
 40
8.0
 40
8.0
 40
9.0
 40
9.0
 40
9.0
 40
10.0
 40
10.0
 40
10.0
 40
11.0
 40
11.0
 40
11.0
 40
11.0
 10
98.14456920289442
 20
-160.7264512402003
 30
0.0
 10
98.14250214560327
 20
-160.7729600292512
 30
0.0
 10
98.14043508831212
 20
-160.8894042566527
 30
0.0
 10
98.14043508831212
 20
-160.9338459884124
 30
0.0
 10
98.14043508831212
 20
-160.9338459884124
 30
0.0
 10
98.14043508831212
 20
-161.280767103777
 30
0.0
 10
98.14043508831212
 20
-161.280767103777
 30
0.0
 10
98.14043508831212
 20
-161.3675835100053
 30
0.0
 10
98.14250214560327
 20
-161.5091769344491
 30
0.0
 10
98.15352645115607
 20
-161.6297552764329
 30
0.0
 10
98.15352645115607
 20
-161.6297552764329
 30
0.0
 10
97.96266816127323
 20
-161.6297552764329
 30
0.0
 10
97.96266816127323
 20
-161.6297552764329
 30
0.0
 10
97.96749129495258
 20
-161.5663655195042
 30
0.0
 10
97.97162540953488
 20
-161.5136555585799
 30
0.0
 10
97.97369246682602
 20
-161.4585340308159
 30
0.0
 10
97.97575952411718
 20
-161.335888631541
 30
0.0
 10
97.97782658140832
 20
-161.3207302114059
 30
0.0
 10
97.97782658140832
 20
-161.2766329891948
 30
0.0
 10
97.97782658140832
 20
-161.2766329891948
 30
0.0
 10
97.97782658140832
 20
-160.9548610708724
 30
0.0
 10
97.97782658140832
 20
-160.9548610708724
 30
0.0
 10
97.97782658140832
 20
-160.8997395431084
 30
0.0
 10
97.96473521856437
 20
-160.6609944259806
 30
0.0
 10
97.96266816127323
 20
-160.6103515223474
 30
0.0
 10
97.96266816127323
 20
-160.6103515223474
 30
0.0
 10
98.16386173761181
 20
-160.6379122862294
 30
0.0
 10
98.16386173761181
 20
-160.6379122862294
 30
0.0
 10
98.18522132962036
 20
-160.6399793435206
 30
0.0
 10
98.21691620808467
 20
-160.6441134581029
 30
0.0
 10
98.21691620808467
 20
-160.6696071646937
 30
0.0
 10
98.21691620808467
 20
-160.6968234190272
 30
0.0
 10
98.16592879490297
 20
-160.7178385014872
 30
0.0
 10
98.14456920289442
 20
-160.7264512402003
 30
0.0
  0
SPLINE
  5
152
330
142
100
AcDbEntity
  8
_U+30EC_U+30A4_U+30E4_U+30FC 1
370
     0
100
AcDbSpline
210
0.0
220
0.0
230
1.0
 70
    11
 71
     3
 72
    83
 73
    79
 74
     0
 42
0.0000000001
 43
0.0000000001
 12
1.0
 22
0.0
 32
0.0
 13
1.0
 23
0.0
 33
0.0
 40
0.0
 40
0.0
 40
0.0
 40
0.0
 40
1.0
 40
1.0
 40
1.0
 40
2.0
 40
2.0
 40
2.0
 40
3.0
 40
3.0
 40
3.0
 40
4.0
 40
4.0
 40
4.0
 40
5.0
 40
5.0
 40
5.0
 40
6.0
 40
6.0
 40
6.0
 40
7.0
 40
7.0
 40
7.0
 40
8.0
 40
8.0
 40
8.0
 40
9.0
 40
9.0
 40
9.0
 40
10.0
 40
10.0
 40
10.0
 40
11.0
 40
11.0
 40
11.0
 40
12.0
 40
12.0
 40
12.0
 40
13.0
 40
13.0
 40
13.0
 40
14.0
 40
14.0
 40
14.0
 40
15.0
 40
15.0
 40
15.0
 40
16.0
 40
16.0
 40
16.0
 40
17.0
 40
17.0
 40
17.0
 40
18.0
 40
18.0
 40
18.0
 40
19.0
 40
19.0
 40
19.0
 40
20.0
 40
20.0
 40
20.0
 40
21.0
 40
21.0
 40
21.0
 40
22.0
 40
22.0
 40
22.0
 40
23.0
 40
23.0
 40
23.0
 40
24.0
 40
24.0
 40
24.0
 40
25.0
 40
25.0
 40
25.0
 40
26.0
 40
26.0
 40
26.0
 40
26.0
 10
98.94658743186058
 20
-161.0478786489741
 30
0.0
 10
98.94658743186058
 20
-161.0478786489741
 30
0.0
 10
98.84943573917653
 20
-161.0478786489741
 30
0.0
 10
98.84943573917653
 20
-161.0478786489741
 30
0.0
 10
98.84943573917653
 20
-161.0478786489741
 30
0.0
 10
98.84943573917653
 20
-161.2955810143636
 30
0.0
 10
98.84943573917653
 20
-161.2955810143636
 30
0.0
 10
98.84943573917653
 20
-161.2955810143636
 30
0.0
 10
98.93211803082254
 20
-161.2955810143636
 30
0.0
 10
98.93211803082254
 20
-161.2955810143636
 30
0.0
 10
98.99757484504228
 20
-161.2955810143636
 30
0.0
 10
99.13675670264637
 20
-161.2911023902328
 30
0.0
 10
99.23666447171861
 20
-161.2828341610682
 30
0.0
 10
99.23666447171861
 20
-161.2828341610682
 30
0.0
 10
99.23666447171861
 20
-161.4626681453982
 30
0.0
 10
99.23666447171861
 20
-161.4626681453982
 30
0.0
 10
99.14364689361688
 20
-161.4543999162336
 30
0.0
 10
98.99344073045998
 20
-161.4502658016513
 30
0.0
 10
98.93211803082254
 20
-161.4502658016513
 30
0.0
 10
98.93211803082254
 20
-161.4502658016513
 30
0.0
 10
98.6268825708294
 20
-161.4502658016513
 30
0.0
 10
98.6268825708294
 20
-161.4502658016513
 30
0.0
 10
98.5745171194536
 20
-161.4502658016513
 30
0.0
 10
98.42844507087901
 20
-161.4543999162336
 30
0.0
 10
98.3223361299333
 20
-161.4626681453982
 30
0.0
 10
98.3223361299333
 20
-161.4626681453982
 30
0.0
 10
98.3223361299333
 20
-161.2828341610682
 30
0.0
 10
98.3223361299333
 20
-161.2828341610682
 30
0.0
 10
98.42224389900555
 20
-161.2911023902328
 30
0.0
 10
98.56142575660965
 20
-161.2955810143636
 30
0.0
 10
98.6268825708294
 20
-161.2955810143636
 30
0.0
 10
98.6268825708294
 20
-161.2955810143636
 30
0.0
 10
98.67166881213764
 20
-161.2955810143636
 30
0.0
 10
98.67166881213764
 20
-161.2955810143636
 30
0.0
 10
98.67166881213764
 20
-161.2955810143636
 30
0.0
 10
98.67166881213764
 20
-161.0478786489741
 30
0.0
 10
98.67166881213764
 20
-161.0478786489741
 30
0.0
 10
98.67166881213764
 20
-161.0478786489741
 30
0.0
 10
98.5979437687533
 20
-161.0478786489741
 30
0.0
 10
98.5979437687533
 20
-161.0478786489741
 30
0.0
 10
98.5359320500188
 20
-161.0478786489741
 30
0.0
 10
98.3691894285327
 20
-161.052357273105
 30
0.0
 10
98.24861108654896
 20
-161.0609700118181
 30
0.0
 10
98.24861108654896
 20
-161.0609700118181
 30
0.0
 10
98.24861108654896
 20
-160.8832030847792
 30
0.0
 10
98.24861108654896
 20
-160.8832030847792
 30
0.0
 10
98.36298825665926
 20
-160.8894042566527
 30
0.0
 10
98.52146264898074
 20
-160.893538371235
 30
0.0
 10
98.5979437687533
 20
-160.893538371235
 30
0.0
 10
98.5979437687533
 20
-160.893538371235
 30
0.0
 10
98.6696017548465
 20
-160.893538371235
 30
0.0
 10
98.6696017548465
 20
-160.893538371235
 30
0.0
 10
98.6654676402642
 20
-160.7412651507869
 30
0.0
 10
98.66340058297304
 20
-160.7075032150315
 30
0.0
 10
98.65651039200255
 20
-160.6144856369297
 30
0.0
 10
98.65651039200255
 20
-160.6144856369297
 30
0.0
 10
98.86872827389394
 20
-160.6379122862294
 30
0.0
 10
98.86872827389394
 20
-160.6379122862294
 30
0.0
 10
98.89353296138773
 20
-160.6399793435206
 30
0.0
 10
98.91695961068743
 20
-160.6441134581029
 30
0.0
 10
98.91695961068743
 20
-160.667195597854
 30
0.0
 10
98.91695961068743
 20
-160.6992349858669
 30
0.0
 10
98.87286238847624
 20
-160.7157714441961
 30
0.0
 10
98.84943573917653
 20
-160.7243841829092
 30
0.0
 10
98.84943573917653
 20
-160.7243841829092
 30
0.0
 10
98.84943573917653
 20
-160.893538371235
 30
0.0
 10
98.84943573917653
 20
-160.893538371235
 30
0.0
 10
98.84943573917653
 20
-160.893538371235
 30
0.0
 10
98.94658743186058
 20
-160.893538371235
 30
0.0
 10
98.94658743186058
 20
-160.893538371235
 30
0.0
 10
99.02306855163313
 20
-160.893538371235
 30
0.0
 10
99.18154294395463
 20
-160.8894042566527
 30
0.0
 10
99.29798717135607
 20
-160.8832030847792
 30
0.0
 10
99.29798717135607
 20
-160.8832030847792
 30
0.0
 10
99.29798717135607
 20
-161.0609700118181
 30
0.0
 10
99.29798717135607
 20
-161.0609700118181
 30
0.0
 10
99.18981117311922
 20
-161.0544243303961
 30
0.0
 10
99.01617836066262
 20
-161.0478786489741
 30
0.0
 10
98.94658743186058
 20
-161.0478786489741
 30
0.0
  0
SPLINE
  5
153
330
142
100
AcDbEntity
  8
_U+30EC_U+30A4_U+30E4_U+30FC 1
370
     0
100
AcDbSpline
210
0.0
220
0.0
230
1.0
 70
    11
 71
     3
 72
    17
 73
    13
 74
     0
 42
0.0000000001
 43
0.0000000001
 12
1.0
 22
0.0
 32
0.0
 13
1.0
 23
0.0
 33
0.0
 40
0.0
 40
0.0
 40
0.0
 40
0.0
 40
1.0
 40
1.0
 40
1.0
 40
2.0
 40
2.0
 40
2.0
 40
3.0
 40
3.0
 40
3.0
 40
4.0
 40
4.0
 40
4.0
 40
4.0
 10
98.70129663331079
 20
-161.845762763358
 30
0.0
 10
98.70129663331079
 20
-161.845762763358
 30
0.0
 10
98.49803599968105
 20
-161.845762763358
 30
0.0
 10
98.49803599968105
 20
-161.845762763358
 30
0.0
 10
98.52559676356304
 20
-161.9050184057043
 30
0.0
 10
98.58071829132705
 20
-161.9766763917975
 30
0.0
 10
98.60827905520905
 20
-162.0063042129707
 30
0.0
 10
98.63583981909105
 20
-161.9918348119326
 30
0.0
 10
98.75021698920133
 20
-161.9281005454555
 30
0.0
 10
98.84116751001193
 20
-161.845762763358
 30
0.0
 10
98.84116751001193
 20
-161.845762763358
 30
0.0
 10
98.70129663331079
 20
-161.845762763358
 30
0.0
 10
98.70129663331079
 20
-161.845762763358
 30
0.0
  0
HATCH
  5
154
330
142
100
AcDbEntity
  8
_U+30EC_U+30A4_U+30E4_U+30FC 1
 62
   179
420
  2234388
100
AcDbHatch
 10
0.0
 20
0.0
 30
0.0
210
0.0
220
0.0
230
1.0
  2
SOLID
 70
     1
 71
     0
 91
        6
 92
        1
 93
        1
 72
     4
 94
        3
 73
     0
 74
     1
 95
      113
 96
      109
 40
0.0
 40
0.0
 40
0.0
 40
0.0
 40
1.0
 40
1.0
 40
1.0
 40
2.0
 40
2.0
 40
2.0
 40
3.0
 40
3.0
 40
3.0
 40
4.0
 40
4.0
 40
4.0
 40
5.0
 40
5.0
 40
5.0
 40
6.0
 40
6.0
 40
6.0
 40
7.0
 40
7.0
 40
7.0
 40
8.0
 40
8.0
 40
8.0
 40
9.0
 40
9.0
 40
9.0
 40
10.0
 40
10.0
 40
10.0
 40
11.0
 40
11.0
 40
11.0
 40
12.0
 40
12.0
 40
12.0
 40
13.0
 40
13.0
 40
13.0
 40
14.0
 40
14.0
 40
14.0
 40
15.0
 40
15.0
 40
15.0
 40
16.0
 40
16.0
 40
16.0
 40
17.0
 40
17.0
 40
17.0
 40
18.0
 40
18.0
 40
18.0
 40
19.0
 40
19.0
 40
19.0
 40
20.0
 40
20.0
 40
20.0
 40
21.0
 40
21.0
 40
21.0
 40
22.0
 40
22.0
 40
22.0
 40
23.0
 40
23.0
 40
23.0
 40
24.0
 40
24.0
 40
24.0
 40
25.0
 40
25.0
 40
25.0
 40
26.0
 40
26.0
 40
26.0
 40
27.0
 40
27.0
 40
27.0
 40
28.0
 40
28.0
 40
28.0
 40
29.0
 40
29.0
 40
29.0
 40
30.0
 40
30.0
 40
30.0
 40
31.0
 40
31.0
 40
31.0
 40
32.0
 40
32.0
 40
32.0
 40
33.0
 40
33.0
 40
33.0
 40
34.0
 40
34.0
 40
34.0
 40
35.0
 40
35.0
 40
35.0
 40
36.0
 40
36.0
 40
36.0
 40
36.0
 10
98.90869138152283
 20
-161.8478298206492
 10
98.90869138152283
 20
-161.8478298206492
 10
99.00791013149802
 20
-161.9470485706244
 10
99.00791013149802
 20
-161.9470485706244
 10
99.01893443705083
 20
-161.9577283666286
 10
99.02926972350657
 20
-161.9704752199241
 10
99.02926972350657
 20
-161.9852891305106
 10
99.02926972350657
 20
-161.9873561878018
 10
99.02926972350657
 20
-162.0169840089749
 10
98.99137367316882
 20
-162.0169840089749
 10
98.98241642490717
 20
-162.0169840089749
 10
98.94245331727828
 20
-162.0125053848441
 10
98.93625214540484
 20
-162.0125053848441
 10
98.89560001867888
 20
-162.0445447728569
 10
98.84943573917653
 20
-162.0783067086124
 10
98.75021698920133
 20
-162.1354952936675
 10
98.89560001867888
 20
-162.2433267823558
 10
99.05476343009742
 20
-162.300515367411
 10
99.3276149925292
 20
-162.3384114177487
 10
99.3276149925292
 20
-162.3384114177487
 10
99.17740882937233
 20
-162.5141112874965
 10
99.17740882937233
 20
-162.5141112874965
 10
98.91489255339629
 20
-162.4421087918548
 10
98.75848521836593
 20
-162.3535698378838
 10
98.6820040985934
 20
-162.300515367411
 10
98.5317979354365
 20
-162.1988850505961
 10
98.3884819632501
 20
-162.0359320341438
 10
98.31200084347756
 20
-161.8709119604003
 10
98.24447697196666
 20
-161.9367132841686
 10
98.17006290948527
 20
-161.9894232450929
 10
98.09220375151862
 20
-162.037999091435
 10
98.09220375151862
 20
-162.037999091435
 10
98.09220375151862
 20
-162.2898355714067
 10
98.09220375151862
 20
-162.2898355714067
 10
98.25481225842242
 20
-162.2646863743644
 10
98.4408474146259
 20
-162.2199001330561
 10
98.50423717155451
 20
-162.2054307320181
 10
98.50423717155451
 20
-162.2054307320181
 10
98.47460935038136
 20
-162.3742404107953
 10
98.47460935038136
 20
-162.3742404107953
 10
98.4725422930902
 20
-162.3742404107953
 10
98.45393877746986
 20
-162.3807860922173
 10
98.4518717201787
 20
-162.3807860922173
 10
98.25274520113126
 20
-162.4190266521036
 10
97.93579641648827
 20
-162.4844834663233
 10
97.73873695473199
 20
-162.5203124593699
 10
97.72840166827623
 20
-162.5375379367962
 10
97.70497501897654
 20
-162.5692328152605
 10
97.68154836967683
 20
-162.5692328152605
 10
97.65398760579484
 20
-162.5692328152605
 10
97.64985349121254
 20
-162.5499402805431
 10
97.6477864339214
 20
-162.5309922553742
 10
97.6477864339214
 20
-162.5309922553742
 10
97.62229272733055
 20
-162.3577039524661
 10
97.62229272733055
 20
-162.3577039524661
 10
97.69670678981194
 20
-162.349091213753
 10
97.80419376895173
 20
-162.3363443604576
 10
97.91236976718858
 20
-162.3153292779976
 10
97.91236976718858
 20
-162.3153292779976
 10
97.91236976718858
 20
-162.1375623509587
 10
97.91236976718858
 20
-162.1375623509587
 10
97.76836477590514
 20
-162.2095648466004
 10
97.67328014051223
 20
-162.2391926677736
 10
97.50791555722024
 20
-162.2688204889467
 10
97.50791555722024
 20
-162.2688204889467
 10
97.3873372152365
 20
-162.0993217910724
 10
97.3873372152365
 20
-162.0993217910724
 10
97.70497501897654
 20
-162.0717610271904
 10
97.89721134705349
 20
-161.9787434490887
 10
98.07497827409237
 20
-161.845762763358
 10
97.92890622551778
 20
-161.845762763358
 10
97.62849389920399
 20
-161.8498968779403
 10
97.43212345654476
 20
-161.8560980498138
 10
97.43212345654476
 20
-161.8560980498138
 10
97.43212345654476
 20
-161.6783311227749
 10
97.43212345654476
 20
-161.6783311227749
 10
97.58646373428394
 20
-161.6848768041968
 10
97.88274194601543
 20
-161.6914224856188
 10
98.06671004492777
 20
-161.6914224856188
 10
98.06671004492777
 20
-161.6914224856188
 10
98.27823890772211
 20
-161.6914224856188
 10
98.27823890772211
 20
-161.6914224856188
 10
98.27823890772211
 20
-161.5959933406774
 10
98.27617185043096
 20
-161.5453504370442
 10
98.26997067855751
 20
-161.4984971384448
 10
98.26997067855751
 20
-161.4984971384448
 10
98.48563365593415
 20
-161.5157226158711
 10
98.48563365593415
 20
-161.5157226158711
 10
98.53386499272764
 20
-161.5198567304534
 10
98.5428222409893
 20
-161.53467064104
 10
98.5428222409893
 20
-161.5494845516265
 10
98.5428222409893
 20
-161.5749782582174
 10
98.52559676356304
 20
-161.583246487382
 10
98.47460935038136
 20
-161.6087401939728
 10
98.4725422930902
 20
-161.6342339005637
 10
98.4725422930902
 20
-161.6404350724371
 10
98.47047523579906
 20
-161.6914224856188
 10
98.47047523579906
 20
-161.6914224856188
 10
98.70129663331079
 20
-161.6914224856188
 10
98.70129663331079
 20
-161.6914224856188
 10
98.86597219750573
 20
-161.6914224856188
 10
99.15811629465492
 20
-161.6848768041968
 10
99.33795027898496
 20
-161.6783311227749
 10
99.33795027898496
 20
-161.6783311227749
 10
99.33795027898496
 20
-161.8560980498138
 10
99.33795027898496
 20
-161.8560980498138
 10
99.20910370783662
 20
-161.8519639352315
 10
99.18567705853692
 20
-161.8519639352315
 10
98.90869138152283
 20
-161.8478298206492
 97
        0
 97
        0
 92
        1
 93
        1
 72
     4
 94
        3
 73
     0
 74
     1
 95
       23
 96
       19
 40
0.0
 40
0.0
 40
0.0
 40
0.0
 40
1.0
 40
1.0
 40
1.0
 40
2.0
 40
2.0
 40
2.0
 40
3.0
 40
3.0
 40
3.0
 40
4.0
 40
4.0
 40
4.0
 40
5.0
 40
5.0
 40
5.0
 40
6.0
 40
6.0
 40
6.0
 40
6.0
 10
97.62435978462169
 20
-161.4964300811537
 10
97.60782332629249
 20
-161.5367376983311
 10
97.600933135322
 20
-161.5536186662088
 10
97.5802625624105
 20
-161.5536186662088
 10
97.5651041422754
 20
-161.5536186662088
 10
97.55476885581965
 20
-161.5367376983311
 10
97.54856768394619
 20
-161.5239908450357
 10
97.54856768394619
 20
-161.5239908450357
 10
97.44865991487396
 20
-161.3589707712922
 10
97.44865991487396
 20
-161.3589707712922
 10
97.55063474123735
 20
-161.3272758928279
 10
97.70084090439424
 20
-161.2724988746124
 10
97.89927840434463
 20
-161.1092013486116
 10
97.89927840434463
 20
-161.1092013486116
 10
97.95646698939977
 20
-161.2828341610682
 10
97.95646698939977
 20
-161.2828341610682
 10
97.86344941129803
 20
-161.3655164527142
 10
97.77456594777858
 20
-161.4227050377693
 10
97.62435978462169
 20
-161.4964300811537
 97
        0
 97
        0
 92
        1
 93
        1
 72
     4
 94
        3
 73
     0
 74
     1
 95
       17
 96
       13
 40
0.0
 40
0.0
 40
0.0
 40
0.0
 40
1.0
 40
1.0
 40
1.0
 40
2.0
 40
2.0
 40
2.0
 40
3.0
 40
3.0
 40
3.0
 40
4.0
 40
4.0
 40
4.0
 40
4.0
 10
97.77663300506974
 20
-161.0313421906449
 10
97.74700518389659
 20
-160.9910345734675
 10
97.67948131238569
 20
-160.893538371235
 10
97.4975802707645
 20
-160.7836398252555
 10
97.4975802707645
 20
-160.7836398252555
 10
97.62435978462169
 20
-160.6503146299763
 10
97.62435978462169
 20
-160.6503146299763
 10
97.81039494082518
 20
-160.7519449467912
 10
97.86758352588033
 20
-160.8408284103106
 10
97.89514428976233
 20
-160.8832030847792
 10
97.89514428976233
 20
-160.8832030847792
 10
97.77663300506974
 20
-161.0313421906449
 10
97.77663300506974
 20
-161.0313421906449
 97
        0
 97
        0
 92
        1
 93
        1
 72
     4
 94
        3
 73
     0
 74
     1
 95
       38
 96
       34
 40
0.0
 40
0.0
 40
0.0
 40
0.0
 40
1.0
 40
1.0
 40
1.0
 40
2.0
 40
2.0
 40
2.0
 40
3.0
 40
3.0
 40
3.0
 40
4.0
 40
4.0
 40
4.0
 40
5.0
 40
5.0
 40
5.0
 40
6.0
 40
6.0
 40
6.0
 40
7.0
 40
7.0
 40
7.0
 40
8.0
 40
8.0
 40
8.0
 40
9.0
 40
9.0
 40
9.0
 40
10.0
 40
10.0
 40
10.0
 40
11.0
 40
11.0
 40
11.0
 40
11.0
 10
98.14456920289442
 20
-160.7264512402003
 10
98.14250214560327
 20
-160.7729600292512
 10
98.14043508831212
 20
-160.8894042566527
 10
98.14043508831212
 20
-160.9338459884124
 10
98.14043508831212
 20
-160.9338459884124
 10
98.14043508831212
 20
-161.280767103777
 10
98.14043508831212
 20
-161.280767103777
 10
98.14043508831212
 20
-161.3675835100053
 10
98.14250214560327
 20
-161.5091769344491
 10
98.15352645115607
 20
-161.6297552764329
 10
98.15352645115607
 20
-161.6297552764329
 10
97.96266816127323
 20
-161.6297552764329
 10
97.96266816127323
 20
-161.6297552764329
 10
97.96749129495258
 20
-161.5663655195042
 10
97.97162540953488
 20
-161.5136555585799
 10
97.97369246682602
 20
-161.4585340308159
 10
97.97575952411718
 20
-161.335888631541
 10
97.97782658140832
 20
-161.3207302114059
 10
97.97782658140832
 20
-161.2766329891948
 10
97.97782658140832
 20
-161.2766329891948
 10
97.97782658140832
 20
-160.9548610708724
 10
97.97782658140832
 20
-160.9548610708724
 10
97.97782658140832
 20
-160.8997395431084
 10
97.96473521856437
 20
-160.6609944259806
 10
97.96266816127323
 20
-160.6103515223474
 10
97.96266816127323
 20
-160.6103515223474
 10
98.16386173761181
 20
-160.6379122862294
 10
98.16386173761181
 20
-160.6379122862294
 10
98.18522132962036
 20
-160.6399793435206
 10
98.21691620808467
 20
-160.6441134581029
 10
98.21691620808467
 20
-160.6696071646937
 10
98.21691620808467
 20
-160.6968234190272
 10
98.16592879490297
 20
-160.7178385014872
 10
98.14456920289442
 20
-160.7264512402003
 97
        0
 97
        0
 92
        1
 93
        1
 72
     4
 94
        3
 73
     0
 74
     1
 95
       83
 96
       79
 40
0.0
 40
0.0
 40
0.0
 40
0.0
 40
1.0
 40
1.0
 40
1.0
 40
2.0
 40
2.0
 40
2.0
 40
3.0
 40
3.0
 40
3.0
 40
4.0
 40
4.0
 40
4.0
 40
5.0
 40
5.0
 40
5.0
 40
6.0
 40
6.0
 40
6.0
 40
7.0
 40
7.0
 40
7.0
 40
8.0
 40
8.0
 40
8.0
 40
9.0
 40
9.0
 40
9.0
 40
10.0
 40
10.0
 40
10.0
 40
11.0
 40
11.0
 40
11.0
 40
12.0
 40
12.0
 40
12.0
 40
13.0
 40
13.0
 40
13.0
 40
14.0
 40
14.0
 40
14.0
 40
15.0
 40
15.0
 40
15.0
 40
16.0
 40
16.0
 40
16.0
 40
17.0
 40
17.0
 40
17.0
 40
18.0
 40
18.0
 40
18.0
 40
19.0
 40
19.0
 40
19.0
 40
20.0
 40
20.0
 40
20.0
 40
21.0
 40
21.0
 40
21.0
 40
22.0
 40
22.0
 40
22.0
 40
23.0
 40
23.0
 40
23.0
 40
24.0
 40
24.0
 40
24.0
 40
25.0
 40
25.0
 40
25.0
 40
26.0
 40
26.0
 40
26.0
 40
26.0
 10
98.94658743186058
 20
-161.0478786489741
 10
98.94658743186058
 20
-161.0478786489741
 10
98.84943573917653
 20
-161.0478786489741
 10
98.84943573917653
 20
-161.0478786489741
 10
98.84943573917653
 20
-161.0478786489741
 10
98.84943573917653
 20
-161.2955810143636
 10
98.84943573917653
 20
-161.2955810143636
 10
98.84943573917653
 20
-161.2955810143636
 10
98.93211803082254
 20
-161.2955810143636
 10
98.93211803082254
 20
-161.2955810143636
 10
98.99757484504228
 20
-161.2955810143636
 10
99.13675670264637
 20
-161.2911023902328
 10
99.23666447171861
 20
-161.2828341610682
 10
99.23666447171861
 20
-161.2828341610682
 10
99.23666447171861
 20
-161.4626681453982
 10
99.23666447171861
 20
-161.4626681453982
 10
99.14364689361688
 20
-161.4543999162336
 10
98.99344073045998
 20
-161.4502658016513
 10
98.93211803082254
 20
-161.4502658016513
 10
98.93211803082254
 20
-161.4502658016513
 10
98.6268825708294
 20
-161.4502658016513
 10
98.6268825708294
 20
-161.4502658016513
 10
98.5745171194536
 20
-161.4502658016513
 10
98.42844507087901
 20
-161.4543999162336
 10
98.3223361299333
 20
-161.4626681453982
 10
98.3223361299333
 20
-161.4626681453982
 10
98.3223361299333
 20
-161.2828341610682
 10
98.3223361299333
 20
-161.2828341610682
 10
98.42224389900555
 20
-161.2911023902328
 10
98.56142575660965
 20
-161.2955810143636
 10
98.6268825708294
 20
-161.2955810143636
 10
98.6268825708294
 20
-161.2955810143636
 10
98.67166881213764
 20
-161.2955810143636
 10
98.67166881213764
 20
-161.2955810143636
 10
98.67166881213764
 20
-161.2955810143636
 10
98.67166881213764
 20
-161.0478786489741
 10
98.67166881213764
 20
-161.0478786489741
 10
98.67166881213764
 20
-161.0478786489741
 10
98.5979437687533
 20
-161.0478786489741
 10
98.5979437687533
 20
-161.0478786489741
 10
98.5359320500188
 20
-161.0478786489741
 10
98.3691894285327
 20
-161.052357273105
 10
98.24861108654896
 20
-161.0609700118181
 10
98.24861108654896
 20
-161.0609700118181
 10
98.24861108654896
 20
-160.8832030847792
 10
98.24861108654896
 20
-160.8832030847792
 10
98.36298825665926
 20
-160.8894042566527
 10
98.52146264898074
 20
-160.893538371235
 10
98.5979437687533
 20
-160.893538371235
 10
98.5979437687533
 20
-160.893538371235
 10
98.6696017548465
 20
-160.893538371235
 10
98.6696017548465
 20
-160.893538371235
 10
98.6654676402642
 20
-160.7412651507869
 10
98.66340058297304
 20
-160.7075032150315
 10
98.65651039200255
 20
-160.6144856369297
 10
98.65651039200255
 20
-160.6144856369297
 10
98.86872827389394
 20
-160.6379122862294
 10
98.86872827389394
 20
-160.6379122862294
 10
98.89353296138773
 20
-160.6399793435206
 10
98.91695961068743
 20
-160.6441134581029
 10
98.91695961068743
 20
-160.667195597854
 10
98.91695961068743
 20
-160.6992349858669
 10
98.87286238847624
 20
-160.7157714441961
 10
98.84943573917653
 20
-160.7243841829092
 10
98.84943573917653
 20
-160.7243841829092
 10
98.84943573917653
 20
-160.893538371235
 10
98.84943573917653
 20
-160.893538371235
 10
98.84943573917653
 20
-160.893538371235
 10
98.94658743186058
 20
-160.893538371235
 10
98.94658743186058
 20
-160.893538371235
 10
99.02306855163313
 20
-160.893538371235
 10
99.18154294395463
 20
-160.8894042566527
 10
99.29798717135607
 20
-160.8832030847792
 10
99.29798717135607
 20
-160.8832030847792
 10
99.29798717135607
 20
-161.0609700118181
 10
99.29798717135607
 20
-161.0609700118181
 10
99.18981117311922
 20
-161.0544243303961
 10
99.01617836066262
 20
-161.0478786489741
 10
98.94658743186058
 20
-161.0478786489741
 97
        0
 97
        0
 92
        1
 93
        1
 72
     4
 94
        3
 73
     0
 74
     1
 95
       17
 96
       13
 40
0.0
 40
0.0
 40
0.0
 40
0.0
 40
1.0
 40
1.0
 40
1.0
 40
2.0
 40
2.0
 40
2.0
 40
3.0
 40
3.0
 40
3.0
 40
4.0
 40
4.0
 40
4.0
 40
4.0
 10
98.70129663331079
 20
-161.845762763358
 10
98.70129663331079
 20
-161.845762763358
 10
98.49803599968105
 20
-161.845762763358
 10
98.49803599968105
 20
-161.845762763358
 10
98.52559676356304
 20
-161.9050184057043
 10
98.58071829132705
 20
-161.9766763917975
 10
98.60827905520905
 20
-162.0063042129707
 10
98.63583981909105
 20
-161.9918348119326
 10
98.75021698920133
 20
-161.9281005454555
 10
98.84116751001193
 20
-161.845762763358
 10
98.84116751001193
 20
-161.845762763358
 10
98.70129663331079
 20
-161.845762763358
 10
98.70129663331079
 20
-161.845762763358
 97
        0
 97
        0
 75
     2
 76
     1
 98
        0
  0
SPLINE
  5
155
330
142
100
AcDbEntity
  8
_U+30EC_U+30A4_U+30E4_U+30FC 1
370
     0
100
AcDbSpline
210
0.0
220
0.0
230
1.0
 70
    11
 71
     3
 72
    77
 73
    73
 74
     0
 42
0.0000000001
 43
0.0000000001
 12
1.0
 22
0.0
 32
0.0
 13
1.0
 23
0.0
 33
0.0
 40
0.0
 40
0.0
 40
0.0
 40
0.0
 40
1.0
 40
1.0
 40
1.0
 40
2.0
 40
2.0
 40
2.0
 40
3.0
 40
3.0
 40
3.0
 40
4.0
 40
4.0
 40
4.0
 40
5.0
 40
5.0
 40
5.0
 40
6.0
 40
6.0
 40
6.0
 40
7.0
 40
7.0
 40
7.0
 40
8.0
 40
8.0
 40
8.0
 40
9.0
 40
9.0
 40
9.0
 40
10.0
 40
10.0
 40
10.0
 40
11.0
 40
11.0
 40
11.0
 40
12.0
 40
12.0
 40
12.0
 40
13.0
 40
13.0
 40
13.0
 40
14.0
 40
14.0
 40
14.0
 40
15.0
 40
15.0
 40
15.0
 40
16.0
 40
16.0
 40
16.0
 40
17.0
 40
17.0
 40
17.0
 40
18.0
 40
18.0
 40
18.0
 40
19.0
 40
19.0
 40
19.0
 40
20.0
 40
20.0
 40
20.0
 40
21.0
 40
21.0
 40
21.0
 40
22.0
 40
22.0
 40
22.0
 40
23.0
 40
23.0
 40
23.0
 40
24.0
 40
24.0
 40
24.0
 40
24.0
 10
101.1921006691464
 20
-162.4762152371587
 30
0.0
 10
101.1459363896441
 20
-162.5013644342011
 30
0.0
 10
101.021223933078
 20
-162.5141112874965
 30
0.0
 10
100.9426757560143
 20
-162.5141112874965
 30
0.0
 10
100.9302734122674
 20
-162.5141112874965
 30
0.0
 10
100.9047797056766
 20
-162.5141112874965
 30
0.0
 10
100.8710177699211
 20
-162.5099771729142
 30
0.0
 10
100.8710177699211
 20
-162.5099771729142
 30
0.0
 10
100.77317705814
 20
-162.2832898899847
 30
0.0
 10
100.77317705814
 20
-162.2832898899847
 30
0.0
 10
100.8028048793132
 20
-162.2898355714067
 30
0.0
 10
100.8599934643683
 20
-162.2984483101199
 30
0.0
 10
100.9764376917698
 20
-162.2984483101199
 30
0.0
 10
101.0549858688335
 20
-162.2984483101199
 30
0.0
 10
101.0570529261246
 20
-162.2560736356513
 30
0.0
 10
101.0570529261246
 20
-162.1988850505961
 30
0.0
 10
101.0570529261246
 20
-162.1988850505961
 30
0.0
 10
101.0570529261246
 20
-161.8498968779403
 30
0.0
 10
101.0570529261246
 20
-161.8498968779403
 30
0.0
 10
101.0570529261246
 20
-161.8498968779403
 30
0.0
 10
100.5974771883923
 20
-161.8498968779403
 30
0.0
 10
100.5974771883923
 20
-161.8498968779403
 30
0.0
 10
100.6002332647805
 20
-161.9873561878018
 30
0.0
 10
100.6023003220717
 20
-162.1861381973007
 30
0.0
 10
100.6085014939451
 20
-162.3194633925799
 30
0.0
 10
100.6105685512363
 20
-162.3470241564619
 30
0.0
 10
100.6105685512363
 20
-162.3914658882216
 30
0.0
 10
100.6229708949832
 20
-162.452788587859
 30
0.0
 10
100.6229708949832
 20
-162.452788587859
 30
0.0
 10
100.3818142110157
 20
-162.452788587859
 30
0.0
 10
100.3818142110157
 20
-162.452788587859
 30
0.0
 10
100.4073079176065
 20
-162.328076131293
 30
0.0
 10
100.4073079176065
 20
-161.9873561878018
 30
0.0
 10
100.4073079176065
 20
-161.8498968779403
 30
0.0
 10
100.4073079176065
 20
-161.8498968779403
 30
0.0
 10
99.96495765730043
 20
-161.8498968779403
 30
0.0
 10
99.96495765730043
 20
-161.8498968779403
 30
0.0
 10
99.94222002709779
 20
-162.0572916261524
 30
0.0
 10
99.87676321287803
 20
-162.3260090740018
 30
0.0
 10
99.67970375112175
 20
-162.5099771729142
 30
0.0
 10
99.67970375112175
 20
-162.5099771729142
 30
0.0
 10
99.4916015376271
 20
-162.3873317736393
 30
0.0
 10
99.4916015376271
 20
-162.3873317736393
 30
0.0
 10
99.7451605653415
 20
-162.1671901721318
 30
0.0
 10
99.77685544380579
 20
-161.8350829673537
 30
0.0
 10
99.77685544380579
 20
-161.5029757625757
 30
0.0
 10
99.77685544380579
 20
-161.5029757625757
 30
0.0
 10
99.77685544380579
 20
-161.0671711836916
 30
0.0
 10
99.77685544380579
 20
-161.0671711836916
 30
0.0
 10
99.77685544380579
 20
-161.0313421906449
 30
0.0
 10
99.77478838651464
 20
-160.7984537358421
 30
0.0
 10
99.76652015735004
 20
-160.6968234190272
 30
0.0
 10
99.90639103405118
 20
-160.7075032150315
 30
0.0
 10
100.1475477180187
 20
-160.7075032150315
 30
0.0
 10
100.2908636902051
 20
-160.7075032150315
 30
0.0
 10
100.2908636902051
 20
-160.7075032150315
 30
0.0
 10
100.7504394279374
 20
-160.7075032150315
 30
0.0
 10
100.7504394279374
 20
-160.7075032150315
 30
0.0
 10
100.7649088289755
 20
-160.7075032150315
 30
0.0
 10
101.1142415111798
 20
-160.7075032150315
 30
0.0
 10
101.2727159035013
 20
-160.6968234190272
 30
0.0
 10
101.2706488462101
 20
-160.7495333799515
 30
0.0
 10
101.2644476743367
 20
-160.9107638486612
 30
0.0
 10
101.2644476743367
 20
-160.9614067522944
 30
0.0
 10
101.2644476743367
 20
-160.9614067522944
 30
0.0
 10
101.2644476743367
 20
-161.5684325767954
 30
0.0
 10
101.2644476743367
 20
-161.5684325767954
 30
0.0
 10
101.2644476743367
 20
-161.5873806019643
 30
0.0
 10
101.2747829607924
 20
-162.1585774334187
 30
0.0
 10
101.2747829607924
 20
-162.2708875462378
 30
0.0
 10
101.2747829607924
 20
-162.328076131293
 30
0.0
 10
101.2747829607924
 20
-162.4293619385593
 30
0.0
 10
101.1921006691464
 20
-162.4762152371587
 30
0.0
  0
POLYLINE
  5
156
330
142
100
AcDbEntity
  8
_U+30EC_U+30A4_U+30E4_U+30FC 1
370
     0
100
AcDb2dPolyline
 66
     1
 10
0.0
 20
0.0
 30
0.0
  0
VERTEX
  5
157
330
156
100
AcDbEntity
  8
_U+30EC_U+30A4_U+30E4_U+30FC 1
370
     0
100
AcDbVertex
100
AcDb2dVertex
 10
100.4073079176065
 20
-160.8894042566527
 30
0.0
  0
VERTEX
  5
158
330
156
100
AcDbEntity
  8
_U+30EC_U+30A4_U+30E4_U+30FC 1
370
     0
100
AcDbVertex
100
AcDb2dVertex
 10
99.96978079097978
 20
-160.8894042566527
 30
0.0
  0
VERTEX
  5
159
330
156
100
AcDbEntity
  8
_U+30EC_U+30A4_U+30E4_U+30FC 1
370
     0
100
AcDbVertex
100
AcDb2dVertex
 10
99.96978079097978
 20
-161.1939506975487
 30
0.0
  0
VERTEX
  5
15A
330
156
100
AcDbEntity
  8
_U+30EC_U+30A4_U+30E4_U+30FC 1
370
     0
100
AcDbVertex
100
AcDb2dVertex
 10
100.4073079176065
 20
-161.1939506975487
 30
0.0
  0
VERTEX
  5
15B
330
156
100
AcDbEntity
  8
_U+30EC_U+30A4_U+30E4_U+30FC 1
370
     0
100
AcDbVertex
100
AcDb2dVertex
 10
100.4073079176065
 20
-160.8894042566527
 30
0.0
  0
SEQEND
  5
15C
330
156
100
AcDbEntity
  8
_U+30EC_U+30A4_U+30E4_U+30FC 1
370
     0
  0
POLYLINE
  5
15D
330
142
100
AcDbEntity
  8
_U+30EC_U+30A4_U+30E4_U+30FC 1
370
     0
100
AcDb2dPolyline
 66
     1
 10
0.0
 20
0.0
 30
0.0
  0
VERTEX
  5
15E
330
15D
100
AcDbEntity
  8
_U+30EC_U+30A4_U+30E4_U+30FC 1
370
     0
100
AcDbVertex
100
AcDb2dVertex
 10
100.4073079176065
 20
-161.3613823381319
 30
0.0
  0
VERTEX
  5
15F
330
15D
100
AcDbEntity
  8
_U+30EC_U+30A4_U+30E4_U+30FC 1
370
     0
100
AcDbVertex
100
AcDb2dVertex
 10
99.96978079097978
 20
-161.3613823381319
 30
0.0
  0
VERTEX
  5
160
330
15D
100
AcDbEntity
  8
_U+30EC_U+30A4_U+30E4_U+30FC 1
370
     0
100
AcDbVertex
100
AcDb2dVertex
 10
99.96978079097978
 20
-161.6700628936103
 30
0.0
  0
VERTEX
  5
161
330
15D
100
AcDbEntity
  8
_U+30EC_U+30A4_U+30E4_U+30FC 1
370
     0
100
AcDbVertex
100
AcDb2dVertex
 10
100.4073079176065
 20
-161.6700628936103
 30
0.0
  0
VERTEX
  5
162
330
15D
100
AcDbEntity
  8
_U+30EC_U+30A4_U+30E4_U+30FC 1
370
     0
100
AcDbVertex
100
AcDb2dVertex
 10
100.4073079176065
 20
-161.3613823381319
 30
0.0
  0
SEQEND
  5
163
330
15D
100
AcDbEntity
  8
_U+30EC_U+30A4_U+30E4_U+30FC 1
370
     0
  0
POLYLINE
  5
164
330
142
100
AcDbEntity
  8
_U+30EC_U+30A4_U+30E4_U+30FC 1
370
     0
100
AcDb2dPolyline
 66
     1
 10
0.0
 20
0.0
 30
0.0
  0
VERTEX
  5
165
330
164
100
AcDbEntity
  8
_U+30EC_U+30A4_U+30E4_U+30FC 1
370
     0
100
AcDbVertex
100
AcDb2dVertex
 10
101.0570529261246
 20
-160.8894042566527
 30
0.0
  0
VERTEX
  5
166
330
164
100
AcDbEntity
  8
_U+30EC_U+30A4_U+30E4_U+30FC 1
370
     0
100
AcDbVertex
100
AcDb2dVertex
 10
100.5974771883923
 20
-160.8894042566527
 30
0.0
  0
VERTEX
  5
167
330
164
100
AcDbEntity
  8
_U+30EC_U+30A4_U+30E4_U+30FC 1
370
     0
100
AcDbVertex
100
AcDb2dVertex
 10
100.5974771883923
 20
-161.1939506975487
 30
0.0
  0
VERTEX
  5
168
330
164
100
AcDbEntity
  8
_U+30EC_U+30A4_U+30E4_U+30FC 1
370
     0
100
AcDbVertex
100
AcDb2dVertex
 10
101.0570529261246
 20
-161.1939506975487
 30
0.0
  0
VERTEX
  5
169
330
164
100
AcDbEntity
  8
_U+30EC_U+30A4_U+30E4_U+30FC 1
370
     0
100
AcDbVertex
100
AcDb2dVertex
 10
101.0570529261246
 20
-160.8894042566527
 30
0.0
  0
SEQEND
  5
16A
330
164
100
AcDbEntity
  8
_U+30EC_U+30A4_U+30E4_U+30FC 1
370
     0
  0
POLYLINE
  5
16B
330
142
100
AcDbEntity
  8
_U+30EC_U+30A4_U+30E4_U+30FC 1
370
     0
100
AcDb2dPolyline
 66
     1
 10
0.0
 20
0.0
 30
0.0
  0
VERTEX
  5
16C
330
16B
100
AcDbEntity
  8
_U+30EC_U+30A4_U+30E4_U+30FC 1
370
     0
100
AcDbVertex
100
AcDb2dVertex
 10
101.0570529261246
 20
-161.3613823381319
 30
0.0
  0
VERTEX
  5
16D
330
16B
100
AcDbEntity
  8
_U+30EC_U+30A4_U+30E4_U+30FC 1
370
     0
100
AcDbVertex
100
AcDb2dVertex
 10
100.5974771883923
 20
-161.3613823381319
 30
0.0
  0
VERTEX
  5
16E
330
16B
100
AcDbEntity
  8
_U+30EC_U+30A4_U+30E4_U+30FC 1
370
     0
100
AcDbVertex
100
AcDb2dVertex
 10
100.5974771883923
 20
-161.6700628936103
 30
0.0
  0
VERTEX
  5
16F
330
16B
100
AcDbEntity
  8
_U+30EC_U+30A4_U+30E4_U+30FC 1
370
     0
100
AcDbVertex
100
AcDb2dVertex
 10
101.0570529261246
 20
-161.6700628936103
 30
0.0
  0
VERTEX
  5
170
330
16B
100
AcDbEntity
  8
_U+30EC_U+30A4_U+30E4_U+30FC 1
370
     0
100
AcDbVertex
100
AcDb2dVertex
 10
101.0570529261246
 20
-161.3613823381319
 30
0.0
  0
SEQEND
  5
171
330
16B
100
AcDbEntity
  8
_U+30EC_U+30A4_U+30E4_U+30FC 1
370
     0
  0
HATCH
  5
172
330
142
100
AcDbEntity
  8
_U+30EC_U+30A4_U+30E4_U+30FC 1
 62
   179
420
  2234388
100
AcDbHatch
 10
0.0
 20
0.0
 30
0.0
210
0.0
220
0.0
230
1.0
  2
SOLID
 70
     1
 71
     0
 91
        5
 92
        1
 93
        1
 72
     4
 94
        3
 73
     0
 74
     1
 95
       77
 96
       73
 40
0.0
 40
0.0
 40
0.0
 40
0.0
 40
1.0
 40
1.0
 40
1.0
 40
2.0
 40
2.0
 40
2.0
 40
3.0
 40
3.0
 40
3.0
 40
4.0
 40
4.0
 40
4.0
 40
5.0
 40
5.0
 40
5.0
 40
6.0
 40
6.0
 40
6.0
 40
7.0
 40
7.0
 40
7.0
 40
8.0
 40
8.0
 40
8.0
 40
9.0
 40
9.0
 40
9.0
 40
10.0
 40
10.0
 40
10.0
 40
11.0
 40
11.0
 40
11.0
 40
12.0
 40
12.0
 40
12.0
 40
13.0
 40
13.0
 40
13.0
 40
14.0
 40
14.0
 40
14.0
 40
15.0
 40
15.0
 40
15.0
 40
16.0
 40
16.0
 40
16.0
 40
17.0
 40
17.0
 40
17.0
 40
18.0
 40
18.0
 40
18.0
 40
19.0
 40
19.0
 40
19.0
 40
20.0
 40
20.0
 40
20.0
 40
21.0
 40
21.0
 40
21.0
 40
22.0
 40
22.0
 40
22.0
 40
23.0
 40
23.0
 40
23.0
 40
24.0
 40
24.0
 40
24.0
 40
24.0
 10
101.1921006691464
 20
-162.4762152371587
 10
101.1459363896441
 20
-162.5013644342011
 10
101.021223933078
 20
-162.5141112874965
 10
100.9426757560143
 20
-162.5141112874965
 10
100.9302734122674
 20
-162.5141112874965
 10
100.9047797056766
 20
-162.5141112874965
 10
100.8710177699211
 20
-162.5099771729142
 10
100.8710177699211
 20
-162.5099771729142
 10
100.77317705814
 20
-162.2832898899847
 10
100.77317705814
 20
-162.2832898899847
 10
100.8028048793132
 20
-162.2898355714067
 10
100.8599934643683
 20
-162.2984483101199
 10
100.9764376917698
 20
-162.2984483101199
 10
101.0549858688335
 20
-162.2984483101199
 10
101.0570529261246
 20
-162.2560736356513
 10
101.0570529261246
 20
-162.1988850505961
 10
101.0570529261246
 20
-162.1988850505961
 10
101.0570529261246
 20
-161.8498968779403
 10
101.0570529261246
 20
-161.8498968779403
 10
101.0570529261246
 20
-161.8498968779403
 10
100.5974771883923
 20
-161.8498968779403
 10
100.5974771883923
 20
-161.8498968779403
 10
100.6002332647805
 20
-161.9873561878018
 10
100.6023003220717
 20
-162.1861381973007
 10
100.6085014939451
 20
-162.3194633925799
 10
100.6105685512363
 20
-162.3470241564619
 10
100.6105685512363
 20
-162.3914658882216
 10
100.6229708949832
 20
-162.452788587859
 10
100.6229708949832
 20
-162.452788587859
 10
100.3818142110157
 20
-162.452788587859
 10
100.3818142110157
 20
-162.452788587859
 10
100.4073079176065
 20
-162.328076131293
 10
100.4073079176065
 20
-161.9873561878018
 10
100.4073079176065
 20
-161.8498968779403
 10
100.4073079176065
 20
-161.8498968779403
 10
99.96495765730043
 20
-161.8498968779403
 10
99.96495765730043
 20
-161.8498968779403
 10
99.94222002709779
 20
-162.0572916261524
 10
99.87676321287803
 20
-162.3260090740018
 10
99.67970375112175
 20
-162.5099771729142
 10
99.67970375112175
 20
-162.5099771729142
 10
99.4916015376271
 20
-162.3873317736393
 10
99.4916015376271
 20
-162.3873317736393
 10
99.7451605653415
 20
-162.1671901721318
 10
99.77685544380579
 20
-161.8350829673537
 10
99.77685544380579
 20
-161.5029757625757
 10
99.77685544380579
 20
-161.5029757625757
 10
99.77685544380579
 20
-161.0671711836916
 10
99.77685544380579
 20
-161.0671711836916
 10
99.77685544380579
 20
-161.0313421906449
 10
99.77478838651464
 20
-160.7984537358421
 10
99.76652015735004
 20
-160.6968234190272
 10
99.90639103405118
 20
-160.7075032150315
 10
100.1475477180187
 20
-160.7075032150315
 10
100.2908636902051
 20
-160.7075032150315
 10
100.2908636902051
 20
-160.7075032150315
 10
100.7504394279374
 20
-160.7075032150315
 10
100.7504394279374
 20
-160.7075032150315
 10
100.7649088289755
 20
-160.7075032150315
 10
101.1142415111798
 20
-160.7075032150315
 10
101.2727159035013
 20
-160.6968234190272
 10
101.2706488462101
 20
-160.7495333799515
 10
101.2644476743367
 20
-160.9107638486612
 10
101.2644476743367
 20
-160.9614067522944
 10
101.2644476743367
 20
-160.9614067522944
 10
101.2644476743367
 20
-161.5684325767954
 10
101.2644476743367
 20
-161.5684325767954
 10
101.2644476743367
 20
-161.5873806019643
 10
101.2747829607924
 20
-162.1585774334187
 10
101.2747829607924
 20
-162.2708875462378
 10
101.2747829607924
 20
-162.328076131293
 10
101.2747829607924
 20
-162.4293619385593
 10
101.1921006691464
 20
-162.4762152371587
 97
        0
 97
        0
 92
        1
 93
        4
 72
     1
 10
100.4073079176065
 20
-160.8894042566527
 11
99.96978079097978
 21
-160.8894042566527
 72
     1
 10
99.96978079097978
 20
-160.8894042566527
 11
99.96978079097978
 21
-161.1939506975487
 72
     1
 10
99.96978079097978
 20
-161.1939506975487
 11
100.4073079176065
 21
-161.1939506975487
 72
     1
 10
100.4073079176065
 20
-161.1939506975487
 11
100.4073079176065
 21
-160.8894042566527
 97
        0
 92
        1
 93
        4
 72
     1
 10
100.4073079176065
 20
-161.3613823381319
 11
99.96978079097978
 21
-161.3613823381319
 72
     1
 10
99.96978079097978
 20
-161.3613823381319
 11
99.96978079097978
 21
-161.6700628936103
 72
     1
 10
99.96978079097978
 20
-161.6700628936103
 11
100.4073079176065
 21
-161.6700628936103
 72
     1
 10
100.4073079176065
 20
-161.6700628936103
 11
100.4073079176065
 21
-161.3613823381319
 97
        0
 92
        1
 93
        4
 72
     1
 10
101.0570529261246
 20
-160.8894042566527
 11
100.5974771883923
 21
-160.8894042566527
 72
     1
 10
100.5974771883923
 20
-160.8894042566527
 11
100.5974771883923
 21
-161.1939506975487
 72
     1
 10
100.5974771883923
 20
-161.1939506975487
 11
101.0570529261246
 21
-161.1939506975487
 72
     1
 10
101.0570529261246
 20
-161.1939506975487
 11
101.0570529261246
 21
-160.8894042566527
 97
        0
 92
        1
 93
        4
 72
     1
 10
101.0570529261246
 20
-161.3613823381319
 11
100.5974771883923
 21
-161.3613823381319
 72
     1
 10
100.5974771883923
 20
-161.3613823381319
 11
100.5974771883923
 21
-161.6700628936103
 72
     1
 10
100.5974771883923
 20
-161.6700628936103
 11
101.0570529261246
 21
-161.6700628936103
 72
     1
 10
101.0570529261246
 20
-161.6700628936103
 11
101.0570529261246
 21
-161.3613823381319
 97
        0
 75
     2
 76
     1
 98
        0
  0
SPLINE
  5
173
330
142
100
AcDbEntity
  8
_U+30EC_U+30A4_U+30E4_U+30FC 1
370
     0
100
AcDbSpline
210
0.0
220
0.0
230
1.0
 70
    11
 71
     3
 72
    44
 73
    40
 74
     0
 42
0.0000000001
 43
0.0000000001
 12
1.0
 22
0.0
 32
0.0
 13
1.0
 23
0.0
 33
0.0
 40
0.0
 40
0.0
 40
0.0
 40
0.0
 40
1.0
 40
1.0
 40
1.0
 40
2.0
 40
2.0
 40
2.0
 40
3.0
 40
3.0
 40
3.0
 40
4.0
 40
4.0
 40
4.0
 40
5.0
 40
5.0
 40
5.0
 40
6.0
 40
6.0
 40
6.0
 40
7.0
 40
7.0
 40
7.0
 40
8.0
 40
8.0
 40
8.0
 40
9.0
 40
9.0
 40
9.0
 40
10.0
 40
10.0
 40
10.0
 40
11.0
 40
11.0
 40
11.0
 40
12.0
 40
12.0
 40
12.0
 40
13.0
 40
13.0
 40
13.0
 40
13.0
 10
103.0696777086076
 20
-161.2256455760131
 30
0.0
 10
102.9580566148855
 20
-161.5939262833863
 30
0.0
 10
102.9070692017038
 20
-161.7527451852563
 30
0.0
 10
102.7106987590445
 20
-162.0021700983883
 30
0.0
 10
102.5260416410352
 20
-162.2329914959001
 30
0.0
 10
102.289708090747
 20
-162.4190266521036
 30
0.0
 10
102.0099663373447
 20
-162.5120442302053
 30
0.0
 10
102.0099663373447
 20
-162.5120442302053
 30
0.0
 10
101.8177300092678
 20
-162.3322102458753
 30
0.0
 10
101.8177300092678
 20
-162.3322102458753
 30
0.0
 10
102.4585177695243
 20
-162.1799370254273
 30
0.0
 10
102.7885579170112
 20
-161.6235541045594
 30
0.0
 10
102.8519476739398
 20
-161.183615411093
 30
0.0
 10
102.8519476739398
 20
-161.183615411093
 30
0.0
 10
102.0864474571173
 20
-161.183615411093
 30
0.0
 10
102.0864474571173
 20
-161.183615411093
 30
0.0
 10
101.9934298790155
 20
-161.183615411093
 30
0.0
 10
101.8094617801032
 20
-161.1877495256753
 30
0.0
 10
101.6523654259758
 20
-161.2066975508442
 30
0.0
 10
101.6523654259758
 20
-161.2066975508442
 30
0.0
 10
101.6523654259758
 20
-160.9865559493367
 30
0.0
 10
101.6523654259758
 20
-160.9865559493367
 30
0.0
 10
101.7391818322041
 20
-161.0079155413453
 30
0.0
 10
101.9913628217244
 20
-161.0079155413453
 30
0.0
 10
102.0905815716996
 20
-161.0079155413453
 30
0.0
 10
102.0905815716996
 20
-161.0079155413453
 30
0.0
 10
102.5219075264529
 20
-161.0079155413453
 30
0.0
 10
102.5219075264529
 20
-161.0079155413453
 30
0.0
 10
102.56462671047
 20
-161.0079155413453
 30
0.0
 10
102.7988932034669
 20
-161.0058484840541
 30
0.0
 10
102.8374782729017
 20
-160.9996473121807
 30
0.0
 10
102.8795084378218
 20
-160.9931016307587
 30
0.0
 10
102.8815754951129
 20
-160.9910345734675
 30
0.0
 10
102.9428981947504
 20
-160.9507269562901
 30
0.0
 10
102.9428981947504
 20
-160.9507269562901
 30
0.0
 10
103.1316894273421
 20
-161.1050672340293
 30
0.0
 10
103.1316894273421
 20
-161.1050672340293
 30
0.0
 10
103.1020616061689
 20
-161.1346950552025
 30
0.0
 10
103.0869031860338
 20
-161.1663899336667
 30
0.0
 10
103.0696777086076
 20
-161.2256455760131
 30
0.0
  0
SPLINE
  5
174
330
142
100
AcDbEntity
  8
_U+30EC_U+30A4_U+30E4_U+30FC 1
370
     0
100
AcDbSpline
210
0.0
220
0.0
230
1.0
 70
    11
 71
     3
 72
    17
 73
    13
 74
     0
 42
0.0000000001
 43
0.0000000001
 12
1.0
 22
0.0
 32
0.0
 13
1.0
 23
0.0
 33
0.0
 40
0.0
 40
0.0
 40
0.0
 40
0.0
 40
1.0
 40
1.0
 40
1.0
 40
2.0
 40
2.0
 40
2.0
 40
3.0
 40
3.0
 40
3.0
 40
4.0
 40
4.0
 40
4.0
 40
4.0
 10
103.2791395141108
 20
-161.0268635665141
 30
0.0
 10
103.1523600002536
 20
-161.0268635665141
 30
0.0
 10
103.0510741929872
 20
-160.9252332496993
 30
0.0
 10
103.0510741929872
 20
-160.7984537358421
 30
0.0
 10
103.0510741929872
 20
-160.6716742219849
 30
0.0
 10
103.1523600002536
 20
-160.5676323383303
 30
0.0
 10
103.2791395141108
 20
-160.5676323383303
 30
0.0
 10
103.406608047065
 20
-160.5676323383303
 30
0.0
 10
103.5099609116225
 20
-160.6716742219849
 30
0.0
 10
103.5099609116225
 20
-160.7984537358421
 30
0.0
 10
103.5099609116225
 20
-160.9252332496993
 30
0.0
 10
103.406608047065
 20
-161.0268635665141
 30
0.0
 10
103.2791395141108
 20
-161.0268635665141
 30
0.0
  0
SPLINE
  5
175
330
142
100
AcDbEntity
  8
_U+30EC_U+30A4_U+30E4_U+30FC 1
370
     0
100
AcDbSpline
210
0.0
220
0.0
230
1.0
 70
    11
 71
     3
 72
    17
 73
    13
 74
     0
 42
0.0000000001
 43
0.0000000001
 12
1.0
 22
0.0
 32
0.0
 13
1.0
 23
0.0
 33
0.0
 40
0.0
 40
0.0
 40
0.0
 40
0.0
 40
1.0
 40
1.0
 40
1.0
 40
2.0
 40
2.0
 40
2.0
 40
3.0
 40
3.0
 40
3.0
 40
4.0
 40
4.0
 40
4.0
 40
4.0
 10
103.2770724568196
 20
-160.6968234190272
 30
0.0
 10
103.2226399481527
 20
-160.6968234190272
 30
0.0
 10
103.1778537068444
 20
-160.7412651507869
 30
0.0
 10
103.1778537068444
 20
-160.7963866785509
 30
0.0
 10
103.1778537068444
 20
-160.853575263606
 30
0.0
 10
103.2226399481527
 20
-160.9021511099481
 30
0.0
 10
103.2812065714019
 20
-160.9021511099481
 30
0.0
 10
103.3404622137482
 20
-160.9021511099481
 30
0.0
 10
103.3811143404742
 20
-160.8515082063149
 30
0.0
 10
103.3811143404742
 20
-160.7984537358421
 30
0.0
 10
103.3811143404742
 20
-160.7412651507869
 30
0.0
 10
103.3342610418748
 20
-160.6968234190272
 30
0.0
 10
103.2770724568196
 20
-160.6968234190272
 30
0.0
  0
HATCH
  5
176
330
142
100
AcDbEntity
  8
_U+30EC_U+30A4_U+30E4_U+30FC 1
 62
   179
420
  2234388
100
AcDbHatch
 10
0.0
 20
0.0
 30
0.0
210
0.0
220
0.0
230
1.0
  2
SOLID
 70
     1
 71
     0
 91
        3
 92
        1
 93
        1
 72
     4
 94
        3
 73
     0
 74
     1
 95
       44
 96
       40
 40
0.0
 40
0.0
 40
0.0
 40
0.0
 40
1.0
 40
1.0
 40
1.0
 40
2.0
 40
2.0
 40
2.0
 40
3.0
 40
3.0
 40
3.0
 40
4.0
 40
4.0
 40
4.0
 40
5.0
 40
5.0
 40
5.0
 40
6.0
 40
6.0
 40
6.0
 40
7.0
 40
7.0
 40
7.0
 40
8.0
 40
8.0
 40
8.0
 40
9.0
 40
9.0
 40
9.0
 40
10.0
 40
10.0
 40
10.0
 40
11.0
 40
11.0
 40
11.0
 40
12.0
 40
12.0
 40
12.0
 40
13.0
 40
13.0
 40
13.0
 40
13.0
 10
103.0696777086076
 20
-161.2256455760131
 10
102.9580566148855
 20
-161.5939262833863
 10
102.9070692017038
 20
-161.7527451852563
 10
102.7106987590445
 20
-162.0021700983883
 10
102.5260416410352
 20
-162.2329914959001
 10
102.289708090747
 20
-162.4190266521036
 10
102.0099663373447
 20
-162.5120442302053
 10
102.0099663373447
 20
-162.5120442302053
 10
101.8177300092678
 20
-162.3322102458753
 10
101.8177300092678
 20
-162.3322102458753
 10
102.4585177695243
 20
-162.1799370254273
 10
102.7885579170112
 20
-161.6235541045594
 10
102.8519476739398
 20
-161.183615411093
 10
102.8519476739398
 20
-161.183615411093
 10
102.0864474571173
 20
-161.183615411093
 10
102.0864474571173
 20
-161.183615411093
 10
101.9934298790155
 20
-161.183615411093
 10
101.8094617801032
 20
-161.1877495256753
 10
101.6523654259758
 20
-161.2066975508442
 10
101.6523654259758
 20
-161.2066975508442
 10
101.6523654259758
 20
-160.9865559493367
 10
101.6523654259758
 20
-160.9865559493367
 10
101.7391818322041
 20
-161.0079155413453
 10
101.9913628217244
 20
-161.0079155413453
 10
102.0905815716996
 20
-161.0079155413453
 10
102.0905815716996
 20
-161.0079155413453
 10
102.5219075264529
 20
-161.0079155413453
 10
102.5219075264529
 20
-161.0079155413453
 10
102.56462671047
 20
-161.0079155413453
 10
102.7988932034669
 20
-161.0058484840541
 10
102.8374782729017
 20
-160.9996473121807
 10
102.8795084378218
 20
-160.9931016307587
 10
102.8815754951129
 20
-160.9910345734675
 10
102.9428981947504
 20
-160.9507269562901
 10
102.9428981947504
 20
-160.9507269562901
 10
103.1316894273421
 20
-161.1050672340293
 10
103.1316894273421
 20
-161.1050672340293
 10
103.1020616061689
 20
-161.1346950552025
 10
103.0869031860338
 20
-161.1663899336667
 10
103.0696777086076
 20
-161.2256455760131
 97
        0
 97
        0
 92
        1
 93
        1
 72
     4
 94
        3
 73
     0
 74
     1
 95
       17
 96
       13
 40
0.0
 40
0.0
 40
0.0
 40
0.0
 40
1.0
 40
1.0
 40
1.0
 40
2.0
 40
2.0
 40
2.0
 40
3.0
 40
3.0
 40
3.0
 40
4.0
 40
4.0
 40
4.0
 40
4.0
 10
103.2791395141108
 20
-161.0268635665141
 10
103.1523600002536
 20
-161.0268635665141
 10
103.0510741929872
 20
-160.9252332496993
 10
103.0510741929872
 20
-160.7984537358421
 10
103.0510741929872
 20
-160.6716742219849
 10
103.1523600002536
 20
-160.5676323383303
 10
103.2791395141108
 20
-160.5676323383303
 10
103.406608047065
 20
-160.5676323383303
 10
103.5099609116225
 20
-160.6716742219849
 10
103.5099609116225
 20
-160.7984537358421
 10
103.5099609116225
 20
-160.9252332496993
 10
103.406608047065
 20
-161.0268635665141
 10
103.2791395141108
 20
-161.0268635665141
 97
        0
 97
        0
 92
        1
 93
        1
 72
     4
 94
        3
 73
     0
 74
     1
 95
       17
 96
       13
 40
0.0
 40
0.0
 40
0.0
 40
0.0
 40
1.0
 40
1.0
 40
1.0
 40
2.0
 40
2.0
 40
2.0
 40
3.0
 40
3.0
 40
3.0
 40
4.0
 40
4.0
 40
4.0
 40
4.0
 10
103.2770724568196
 20
-160.6968234190272
 10
103.2226399481527
 20
-160.6968234190272
 10
103.1778537068444
 20
-160.7412651507869
 10
103.1778537068444
 20
-160.7963866785509
 10
103.1778537068444
 20
-160.853575263606
 10
103.2226399481527
 20
-160.9021511099481
 10
103.2812065714019
 20
-160.9021511099481
 10
103.3404622137482
 20
-160.9021511099481
 10
103.3811143404742
 20
-160.8515082063149
 10
103.3811143404742
 20
-160.7984537358421
 10
103.3811143404742
 20
-160.7412651507869
 10
103.3342610418748
 20
-160.6968234190272
 10
103.2770724568196
 20
-160.6968234190272
 97
        0
 97
        0
 75
     2
 76
     1
 98
        0
  0
SPLINE
  5
177
330
142
100
AcDbEntity
  8
_U+30EC_U+30A4_U+30E4_U+30FC 1
370
     0
100
AcDbSpline
210
0.0
220
0.0
230
1.0
 70
    11
 71
     3
 72
    50
 73
    46
 74
     0
 42
0.0000000001
 43
0.0000000001
 12
1.0
 22
0.0
 32
0.0
 13
1.0
 23
0.0
 33
0.0
 40
0.0
 40
0.0
 40
0.0
 40
0.0
 40
1.0
 40
1.0
 40
1.0
 40
2.0
 40
2.0
 40
2.0
 40
3.0
 40
3.0
 40
3.0
 40
4.0
 40
4.0
 40
4.0
 40
5.0
 40
5.0
 40
5.0
 40
6.0
 40
6.0
 40
6.0
 40
7.0
 40
7.0
 40
7.0
 40
8.0
 40
8.0
 40
8.0
 40
9.0
 40
9.0
 40
9.0
 40
10.0
 40
10.0
 40
10.0
 40
11.0
 40
11.0
 40
11.0
 40
12.0
 40
12.0
 40
12.0
 40
13.0
 40
13.0
 40
13.0
 40
14.0
 40
14.0
 40
14.0
 40
15.0
 40
15.0
 40
15.0
 40
15.0
 10
105.074723281023
 20
-161.53467064104
 30
0.0
 10
104.9961751039593
 20
-161.7120930585303
 30
0.0
 10
104.8604383418404
 20
-161.9194878067424
 30
0.0
 10
104.7233235415275
 20
-162.0593586834435
 30
0.0
 10
104.5538248436532
 20
-162.2305799290604
 30
0.0
 10
104.3912163367494
 20
-162.3194633925799
 30
0.0
 10
104.0715114757182
 20
-162.4610568170236
 30
0.0
 10
104.0715114757182
 20
-162.4610568170236
 30
0.0
 10
103.902701796941
 20
-162.272954603529
 30
0.0
 10
103.902701796941
 20
-162.272954603529
 30
0.0
 10
104.0887369531445
 20
-162.2495279542293
 30
0.0
 10
104.2596136892129
 20
-162.162711548001
 30
0.0
 10
104.412575928758
 20
-162.0572916261524
 30
0.0
 10
104.674403185637
 20
-161.8753905845311
 30
0.0
 10
104.8652614755198
 20
-161.5618868953734
 30
0.0
 10
104.9134928123133
 20
-161.3799858537522
 30
0.0
 10
104.9134928123133
 20
-161.3799858537522
 30
0.0
 10
104.2430772308837
 20
-161.3799858537522
 30
0.0
 10
104.2430772308837
 20
-161.3799858537522
 30
0.0
 10
104.0846028385622
 20
-161.3799858537522
 30
0.0
 10
103.792458741413
 20
-161.3885985924654
 30
0.0
 10
103.640185520965
 20
-161.4054795603431
 30
0.0
 10
103.640185520965
 20
-161.4054795603431
 30
0.0
 10
103.640185520965
 20
-161.177069729671
 30
0.0
 10
103.640185520965
 20
-161.177069729671
 30
0.0
 10
103.6739474567204
 20
-161.183615411093
 30
0.0
 10
103.6994411633112
 20
-161.1898165829664
 30
0.0
 10
103.7524956337841
 20
-161.1939506975487
 30
0.0
 10
103.8537814410504
 20
-161.2001518694222
 30
0.0
 10
104.0508409028067
 20
-161.2025634362619
 30
0.0
 10
104.1349012326468
 20
-161.2025634362619
 30
0.0
 10
104.1349012326468
 20
-161.2025634362619
 30
0.0
 10
104.6406412498815
 20
-161.2025634362619
 30
0.0
 10
104.6406412498815
 20
-161.2025634362619
 30
0.0
 10
104.7081651213924
 20
-161.2025634362619
 30
0.0
 10
104.854237169967
 20
-161.198084812131
 30
0.0
 10
104.9155598696045
 20
-161.1918836402576
 30
0.0
 10
104.9879068747947
 20
-161.183615411093
 30
0.0
 10
105.0154676386767
 20
-161.1684569909579
 30
0.0
 10
105.0492295744321
 20
-161.1453748512067
 30
0.0
 10
105.0492295744321
 20
-161.1453748512067
 30
0.0
 10
105.2139051386271
 20
-161.3124619822413
 30
0.0
 10
105.2139051386271
 20
-161.3124619822413
 30
0.0
 10
105.144314209825
 20
-161.3799858537522
 30
0.0
 10
105.0974609112256
 20
-161.4840277374068
 30
0.0
 10
105.074723281023
 20
-161.53467064104
 30
0.0
  0
SPLINE
  5
178
330
142
100
AcDbEntity
  8
_U+30EC_U+30A4_U+30E4_U+30FC 1
370
     0
100
AcDbSpline
210
0.0
220
0.0
230
1.0
 70
    11
 71
     3
 72
    29
 73
    25
 74
     0
 42
0.0000000001
 43
0.0000000001
 12
1.0
 22
0.0
 32
0.0
 13
1.0
 23
0.0
 33
0.0
 40
0.0
 40
0.0
 40
0.0
 40
0.0
 40
1.0
 40
1.0
 40
1.0
 40
2.0
 40
2.0
 40
2.0
 40
3.0
 40
3.0
 40
3.0
 40
4.0
 40
4.0
 40
4.0
 40
5.0
 40
5.0
 40
5.0
 40
6.0
 40
6.0
 40
6.0
 40
7.0
 40
7.0
 40
7.0
 40
8.0
 40
8.0
 40
8.0
 40
8.0
 10
104.5813856075352
 20
-160.9086967913701
 30
0.0
 10
104.5813856075352
 20
-160.9086967913701
 30
0.0
 10
104.2410101735925
 20
-160.9086967913701
 30
0.0
 10
104.2410101735925
 20
-160.9086967913701
 30
0.0
 10
104.1266330034822
 20
-160.9086967913701
 30
0.0
 10
104.0101887760808
 20
-160.9128309059523
 30
0.0
 10
103.8958116059705
 20
-160.9273003069904
 30
0.0
 10
103.8958116059705
 20
-160.9273003069904
 30
0.0
 10
103.8958116059705
 20
-160.7178385014872
 30
0.0
 10
103.8958116059705
 20
-160.7178385014872
 30
0.0
 10
104.0143228906631
 20
-160.7329969216223
 30
0.0
 10
104.1879557031197
 20
-160.7371310362046
 30
0.0
 10
104.2410101735925
 20
-160.7371310362046
 30
0.0
 10
104.2410101735925
 20
-160.7371310362046
 30
0.0
 10
104.5813856075352
 20
-160.7371310362046
 30
0.0
 10
104.5813856075352
 20
-160.7371310362046
 30
0.0
 10
104.6978298349367
 20
-160.7371310362046
 30
0.0
 10
104.8142740623381
 20
-160.7329969216223
 30
0.0
 10
104.9307182897395
 20
-160.7178385014872
 30
0.0
 10
104.9307182897395
 20
-160.7178385014872
 30
0.0
 10
104.9307182897395
 20
-160.9273003069904
 30
0.0
 10
104.9307182897395
 20
-160.9273003069904
 30
0.0
 10
104.7805121265827
 20
-160.9086967913701
 30
0.0
 10
104.5965440276703
 20
-160.9086967913701
 30
0.0
 10
104.5813856075352
 20
-160.9086967913701
 30
0.0
  0
HATCH
  5
179
330
142
100
AcDbEntity
  8
_U+30EC_U+30A4_U+30E4_U+30FC 1
 62
   179
420
  2234388
100
AcDbHatch
 10
0.0
 20
0.0
 30
0.0
210
0.0
220
0.0
230
1.0
  2
SOLID
 70
     1
 71
     0
 91
        2
 92
        1
 93
        1
 72
     4
 94
        3
 73
     0
 74
     1
 95
       50
 96
       46
 40
0.0
 40
0.0
 40
0.0
 40
0.0
 40
1.0
 40
1.0
 40
1.0
 40
2.0
 40
2.0
 40
2.0
 40
3.0
 40
3.0
 40
3.0
 40
4.0
 40
4.0
 40
4.0
 40
5.0
 40
5.0
 40
5.0
 40
6.0
 40
6.0
 40
6.0
 40
7.0
 40
7.0
 40
7.0
 40
8.0
 40
8.0
 40
8.0
 40
9.0
 40
9.0
 40
9.0
 40
10.0
 40
10.0
 40
10.0
 40
11.0
 40
11.0
 40
11.0
 40
12.0
 40
12.0
 40
12.0
 40
13.0
 40
13.0
 40
13.0
 40
14.0
 40
14.0
 40
14.0
 40
15.0
 40
15.0
 40
15.0
 40
15.0
 10
105.074723281023
 20
-161.53467064104
 10
104.9961751039593
 20
-161.7120930585303
 10
104.8604383418404
 20
-161.9194878067424
 10
104.7233235415275
 20
-162.0593586834435
 10
104.5538248436532
 20
-162.2305799290604
 10
104.3912163367494
 20
-162.3194633925799
 10
104.0715114757182
 20
-162.4610568170236
 10
104.0715114757182
 20
-162.4610568170236
 10
103.902701796941
 20
-162.272954603529
 10
103.902701796941
 20
-162.272954603529
 10
104.0887369531445
 20
-162.2495279542293
 10
104.2596136892129
 20
-162.162711548001
 10
104.412575928758
 20
-162.0572916261524
 10
104.674403185637
 20
-161.8753905845311
 10
104.8652614755198
 20
-161.5618868953734
 10
104.9134928123133
 20
-161.3799858537522
 10
104.9134928123133
 20
-161.3799858537522
 10
104.2430772308837
 20
-161.3799858537522
 10
104.2430772308837
 20
-161.3799858537522
 10
104.0846028385622
 20
-161.3799858537522
 10
103.792458741413
 20
-161.3885985924654
 10
103.640185520965
 20
-161.4054795603431
 10
103.640185520965
 20
-161.4054795603431
 10
103.640185520965
 20
-161.177069729671
 10
103.640185520965
 20
-161.177069729671
 10
103.6739474567204
 20
-161.183615411093
 10
103.6994411633112
 20
-161.1898165829664
 10
103.7524956337841
 20
-161.1939506975487
 10
103.8537814410504
 20
-161.2001518694222
 10
104.0508409028067
 20
-161.2025634362619
 10
104.1349012326468
 20
-161.2025634362619
 10
104.1349012326468
 20
-161.2025634362619
 10
104.6406412498815
 20
-161.2025634362619
 10
104.6406412498815
 20
-161.2025634362619
 10
104.7081651213924
 20
-161.2025634362619
 10
104.854237169967
 20
-161.198084812131
 10
104.9155598696045
 20
-161.1918836402576
 10
104.9879068747947
 20
-161.183615411093
 10
105.0154676386767
 20
-161.1684569909579
 10
105.0492295744321
 20
-161.1453748512067
 10
105.0492295744321
 20
-161.1453748512067
 10
105.2139051386271
 20
-161.3124619822413
 10
105.2139051386271
 20
-161.3124619822413
 10
105.144314209825
 20
-161.3799858537522
 10
105.0974609112256
 20
-161.4840277374068
 10
105.074723281023
 20
-161.53467064104
 97
        0
 97
        0
 92
        1
 93
        1
 72
     4
 94
        3
 73
     0
 74
     1
 95
       29
 96
       25
 40
0.0
 40
0.0
 40
0.0
 40
0.0
 40
1.0
 40
1.0
 40
1.0
 40
2.0
 40
2.0
 40
2.0
 40
3.0
 40
3.0
 40
3.0
 40
4.0
 40
4.0
 40
4.0
 40
5.0
 40
5.0
 40
5.0
 40
6.0
 40
6.0
 40
6.0
 40
7.0
 40
7.0
 40
7.0
 40
8.0
 40
8.0
 40
8.0
 40
8.0
 10
104.5813856075352
 20
-160.9086967913701
 10
104.5813856075352
 20
-160.9086967913701
 10
104.2410101735925
 20
-160.9086967913701
 10
104.2410101735925
 20
-160.9086967913701
 10
104.1266330034822
 20
-160.9086967913701
 10
104.0101887760808
 20
-160.9128309059523
 10
103.8958116059705
 20
-160.9273003069904
 10
103.8958116059705
 20
-160.9273003069904
 10
103.8958116059705
 20
-160.7178385014872
 10
103.8958116059705
 20
-160.7178385014872
 10
104.0143228906631
 20
-160.7329969216223
 10
104.1879557031197
 20
-160.7371310362046
 10
104.2410101735925
 20
-160.7371310362046
 10
104.2410101735925
 20
-160.7371310362046
 10
104.5813856075352
 20
-160.7371310362046
 10
104.5813856075352
 20
-160.7371310362046
 10
104.6978298349367
 20
-160.7371310362046
 10
104.8142740623381
 20
-160.7329969216223
 10
104.9307182897395
 20
-160.7178385014872
 10
104.9307182897395
 20
-160.7178385014872
 10
104.9307182897395
 20
-160.9273003069904
 10
104.9307182897395
 20
-160.9273003069904
 10
104.7805121265827
 20
-160.9086967913701
 10
104.5965440276703
 20
-160.9086967913701
 10
104.5813856075352
 20
-160.9086967913701
 97
        0
 97
        0
 75
     2
 76
     1
 98
        0
  0
SPLINE
  5
17A
330
142
100
AcDbEntity
  8
_U+30EC_U+30A4_U+30E4_U+30FC 1
370
     0
100
AcDbSpline
210
0.0
220
0.0
230
1.0
 70
    11
 71
     3
 72
    50
 73
    46
 74
     0
 42
0.0000000001
 43
0.0000000001
 12
1.0
 22
0.0
 32
0.0
 13
1.0
 23
0.0
 33
0.0
 40
0.0
 40
0.0
 40
0.0
 40
0.0
 40
1.0
 40
1.0
 40
1.0
 40
2.0
 40
2.0
 40
2.0
 40
3.0
 40
3.0
 40
3.0
 40
4.0
 40
4.0
 40
4.0
 40
5.0
 40
5.0
 40
5.0
 40
6.0
 40
6.0
 40
6.0
 40
7.0
 40
7.0
 40
7.0
 40
8.0
 40
8.0
 40
8.0
 40
9.0
 40
9.0
 40
9.0
 40
10.0
 40
10.0
 40
10.0
 40
11.0
 40
11.0
 40
11.0
 40
12.0
 40
12.0
 40
12.0
 40
13.0
 40
13.0
 40
13.0
 40
14.0
 40
14.0
 40
14.0
 40
15.0
 40
15.0
 40
15.0
 40
15.0
 10
106.784868679901
 20
-160.893538371235
 30
0.0
 10
106.5754068743978
 20
-161.1071342913204
 30
0.0
 10
106.5037488883046
 20
-161.1794812965107
 30
0.0
 10
106.3618109543123
 20
-161.2976480716547
 30
0.0
 10
106.3618109543123
 20
-161.2976480716547
 30
0.0
 10
106.3618109543123
 20
-161.8647107885269
 30
0.0
 10
106.3618109543123
 20
-161.8647107885269
 30
0.0
 10
106.3618109543123
 20
-162.0149169516838
 30
0.0
 10
106.3680121261858
 20
-162.0338649768526
 30
0.0
 10
106.3721462407681
 20
-162.2116319038915
 30
0.0
 10
106.3742132980592
 20
-162.342545532331
 30
0.0
 10
106.3804144699327
 20
-162.3914658882216
 30
0.0
 10
106.3873046609032
 20
-162.4507215305679
 30
0.0
 10
106.3873046609032
 20
-162.4507215305679
 30
0.0
 10
106.1606173779737
 20
-162.4507215305679
 30
0.0
 10
106.1606173779737
 20
-162.4507215305679
 30
0.0
 10
106.164751492556
 20
-162.4062797988082
 30
0.0
 10
106.1688856071383
 20
-162.3597710097573
 30
0.0
 10
106.1688856071383
 20
-162.3511582710442
 30
0.0
 10
106.1688856071383
 20
-162.2708875462378
 30
0.0
 10
106.1737087408177
 20
-161.9194878067424
 30
0.0
 10
106.1737087408177
 20
-161.8478298206492
 30
0.0
 10
106.1737087408177
 20
-161.8478298206492
 30
0.0
 10
106.1737087408177
 20
-161.4413085533897
 30
0.0
 10
106.1737087408177
 20
-161.4413085533897
 30
0.0
 10
105.9918076991965
 20
-161.5663655195042
 30
0.0
 10
105.7968152947314
 20
-161.6762640654837
 30
0.0
 10
105.5935546611016
 20
-161.763080471712
 30
0.0
 10
105.5935546611016
 20
-161.763080471712
 30
0.0
 10
105.3909830465689
 20
-161.6001274552597
 30
0.0
 10
105.3909830465689
 20
-161.6001274552597
 30
0.0
 10
105.5136284458438
 20
-161.5642984622131
 30
0.0
 10
105.7692545308494
 20
-161.4902289092802
 30
0.0
 10
106.1144530984714
 20
-161.2342583147262
 30
0.0
 10
106.330116075848
 20
-161.0754394128562
 30
0.0
 10
106.522352403925
 20
-160.8873371993615
 30
0.0
 10
106.674625624373
 20
-160.667195597854
 30
0.0
 10
106.674625624373
 20
-160.667195597854
 30
0.0
 10
106.867550971547
 20
-160.8112005891375
 30
0.0
 10
106.867550971547
 20
-160.8112005891375
 30
0.0
 10
106.8799533152939
 20
-160.8218803851418
 30
0.0
 10
106.8882215444585
 20
-160.8363497861798
 30
0.0
 10
106.8882215444585
 20
-160.8494411490238
 30
0.0
 10
106.8882215444585
 20
-160.8894042566527
 30
0.0
 10
106.8503254941208
 20
-160.8894042566527
 30
0.0
 10
106.784868679901
 20
-160.893538371235
 30
0.0
  0
HATCH
  5
17B
330
142
100
AcDbEntity
  8
_U+30EC_U+30A4_U+30E4_U+30FC 1
 62
   179
420
  2234388
100
AcDbHatch
 10
0.0
 20
0.0
 30
0.0
210
0.0
220
0.0
230
1.0
  2
SOLID
 70
     1
 71
     0
 91
        1
 92
        1
 93
        1
 72
     4
 94
        3
 73
     0
 74
     1
 95
       50
 96
       46
 40
0.0
 40
0.0
 40
0.0
 40
0.0
 40
1.0
 40
1.0
 40
1.0
 40
2.0
 40
2.0
 40
2.0
 40
3.0
 40
3.0
 40
3.0
 40
4.0
 40
4.0
 40
4.0
 40
5.0
 40
5.0
 40
5.0
 40
6.0
 40
6.0
 40
6.0
 40
7.0
 40
7.0
 40
7.0
 40
8.0
 40
8.0
 40
8.0
 40
9.0
 40
9.0
 40
9.0
 40
10.0
 40
10.0
 40
10.0
 40
11.0
 40
11.0
 40
11.0
 40
12.0
 40
12.0
 40
12.0
 40
13.0
 40
13.0
 40
13.0
 40
14.0
 40
14.0
 40
14.0
 40
15.0
 40
15.0
 40
15.0
 40
15.0
 10
106.784868679901
 20
-160.893538371235
 10
106.5754068743978
 20
-161.1071342913204
 10
106.5037488883046
 20
-161.1794812965107
 10
106.3618109543123
 20
-161.2976480716547
 10
106.3618109543123
 20
-161.2976480716547
 10
106.3618109543123
 20
-161.8647107885269
 10
106.3618109543123
 20
-161.8647107885269
 10
106.3618109543123
 20
-162.0149169516838
 10
106.3680121261858
 20
-162.0338649768526
 10
106.3721462407681
 20
-162.2116319038915
 10
106.3742132980592
 20
-162.342545532331
 10
106.3804144699327
 20
-162.3914658882216
 10
106.3873046609032
 20
-162.4507215305679
 10
106.3873046609032
 20
-162.4507215305679
 10
106.1606173779737
 20
-162.4507215305679
 10
106.1606173779737
 20
-162.4507215305679
 10
106.164751492556
 20
-162.4062797988082
 10
106.1688856071383
 20
-162.3597710097573
 10
106.1688856071383
 20
-162.3511582710442
 10
106.1688856071383
 20
-162.2708875462378
 10
106.1737087408177
 20
-161.9194878067424
 10
106.1737087408177
 20
-161.8478298206492
 10
106.1737087408177
 20
-161.8478298206492
 10
106.1737087408177
 20
-161.4413085533897
 10
106.1737087408177
 20
-161.4413085533897
 10
105.9918076991965
 20
-161.5663655195042
 10
105.7968152947314
 20
-161.6762640654837
 10
105.5935546611016
 20
-161.763080471712
 10
105.5935546611016
 20
-161.763080471712
 10
105.3909830465689
 20
-161.6001274552597
 10
105.3909830465689
 20
-161.6001274552597
 10
105.5136284458438
 20
-161.5642984622131
 10
105.7692545308494
 20
-161.4902289092802
 10
106.1144530984714
 20
-161.2342583147262
 10
106.330116075848
 20
-161.0754394128562
 10
106.522352403925
 20
-160.8873371993615
 10
106.674625624373
 20
-160.667195597854
 10
106.674625624373
 20
-160.667195597854
 10
106.867550971547
 20
-160.8112005891375
 10
106.867550971547
 20
-160.8112005891375
 10
106.8799533152939
 20
-160.8218803851418
 10
106.8882215444585
 20
-160.8363497861798
 10
106.8882215444585
 20
-160.8494411490238
 10
106.8882215444585
 20
-160.8894042566527
 10
106.8503254941208
 20
-160.8894042566527
 10
106.784868679901
 20
-160.893538371235
 97
        0
 97
        0
 75
     2
 76
     1
 98
        0
  0
SPLINE
  5
17C
330
142
100
AcDbEntity
  8
_U+30EC_U+30A4_U+30E4_U+30FC 1
370
     0
100
AcDbSpline
210
0.0
220
0.0
230
1.0
 70
    11
 71
     3
 72
    50
 73
    46
 74
     0
 42
0.0000000001
 43
0.0000000001
 12
1.0
 22
0.0
 32
0.0
 13
1.0
 23
0.0
 33
0.0
 40
0.0
 40
0.0
 40
0.0
 40
0.0
 40
1.0
 40
1.0
 40
1.0
 40
2.0
 40
2.0
 40
2.0
 40
3.0
 40
3.0
 40
3.0
 40
4.0
 40
4.0
 40
4.0
 40
5.0
 40
5.0
 40
5.0
 40
6.0
 40
6.0
 40
6.0
 40
7.0
 40
7.0
 40
7.0
 40
8.0
 40
8.0
 40
8.0
 40
9.0
 40
9.0
 40
9.0
 40
10.0
 40
10.0
 40
10.0
 40
11.0
 40
11.0
 40
11.0
 40
12.0
 40
12.0
 40
12.0
 40
13.0
 40
13.0
 40
13.0
 40
14.0
 40
14.0
 40
14.0
 40
15.0
 40
15.0
 40
15.0
 40
15.0
 10
108.4929470214879
 20
-161.4206379804782
 30
0.0
 10
108.4316243218504
 20
-161.4922959665714
 30
0.0
 10
108.1711751031655
 20
-161.8095892607629
 30
0.0
 10
108.1146755372074
 20
-161.87332352724
 30
0.0
 10
108.1987358670475
 20
-161.9704752199241
 30
0.0
 10
108.2497232802292
 20
-162.0338649768526
 30
0.0
 10
108.315180094449
 20
-162.1248154976632
 30
0.0
 10
108.315180094449
 20
-162.1248154976632
 30
0.0
 10
108.1312119955366
 20
-162.2626193170732
 30
0.0
 10
108.1312119955366
 20
-162.2626193170732
 30
0.0
 10
107.9961642525149
 20
-162.0507459447304
 30
0.0
 10
107.8245984973494
 20
-161.8264702286406
 30
0.0
 10
107.5303873429091
 20
-161.6276882191417
 30
0.0
 10
107.5303873429091
 20
-161.6276882191417
 30
0.0
 10
107.6785264487748
 20
-161.4733479414025
 30
0.0
 10
107.6785264487748
 20
-161.4733479414025
 30
0.0
 10
107.7887695043028
 20
-161.5536186662088
 30
0.0
 10
107.8921223688603
 20
-161.6425021297283
 30
0.0
 10
107.9892740615444
 20
-161.7375867651212
 30
0.0
 10
108.0574869521523
 20
-161.6617946644457
 30
0.0
 10
108.260058566685
 20
-161.4182264136385
 30
0.0
 10
108.3937282715127
 20
-161.1898165829664
 30
0.0
 10
108.3937282715127
 20
-161.1898165829664
 30
0.0
 10
107.7205566136949
 20
-161.1898165829664
 30
0.0
 10
107.7205566136949
 20
-161.1898165829664
 30
0.0
 10
107.5958441571288
 20
-161.1898165829664
 30
0.0
 10
107.3443521867056
 20
-161.198084812131
 30
0.0
 10
107.1348903812024
 20
-161.2087646081353
 30
0.0
 10
107.1348903812024
 20
-161.2087646081353
 30
0.0
 10
107.1348903812024
 20
-160.9886230066278
 30
0.0
 10
107.1348903812024
 20
-160.9886230066278
 30
0.0
 10
107.3188584801147
 20
-161.0079155413453
 30
0.0
 10
107.5241861710356
 20
-161.0120496559275
 30
0.0
 10
107.7122883845303
 20
-161.0120496559275
 30
0.0
 10
107.7122883845303
 20
-161.0120496559275
 30
0.0
 10
108.2159613444738
 20
-161.0120496559275
 30
0.0
 10
108.2159613444738
 20
-161.0120496559275
 30
0.0
 10
108.5542697211253
 20
-161.0120496559275
 30
0.0
 10
108.5990559624336
 20
-160.997235745341
 30
0.0
 10
108.6810492349825
 20
-160.9569281281636
 30
0.0
 10
108.6810492349825
 20
-160.9569281281636
 30
0.0
 10
108.8484808755657
 20
-161.1157470300336
 30
0.0
 10
108.8484808755657
 20
-161.1157470300336
 30
0.0
 10
108.6962076551176
 20
-161.1877495256753
 30
0.0
 10
108.5522026638342
 20
-161.3503580325791
 30
0.0
 10
108.4929470214879
 20
-161.4206379804782
 30
0.0
  0
HATCH
  5
17D
330
142
100
AcDbEntity
  8
_U+30EC_U+30A4_U+30E4_U+30FC 1
 62
   179
420
  2234388
100
AcDbHatch
 10
0.0
 20
0.0
 30
0.0
210
0.0
220
0.0
230
1.0
  2
SOLID
 70
     1
 71
     0
 91
        1
 92
        1
 93
        1
 72
     4
 94
        3
 73
     0
 74
     1
 95
       50
 96
       46
 40
0.0
 40
0.0
 40
0.0
 40
0.0
 40
1.0
 40
1.0
 40
1.0
 40
2.0
 40
2.0
 40
2.0
 40
3.0
 40
3.0
 40
3.0
 40
4.0
 40
4.0
 40
4.0
 40
5.0
 40
5.0
 40
5.0
 40
6.0
 40
6.0
 40
6.0
 40
7.0
 40
7.0
 40
7.0
 40
8.0
 40
8.0
 40
8.0
 40
9.0
 40
9.0
 40
9.0
 40
10.0
 40
10.0
 40
10.0
 40
11.0
 40
11.0
 40
11.0
 40
12.0
 40
12.0
 40
12.0
 40
13.0
 40
13.0
 40
13.0
 40
14.0
 40
14.0
 40
14.0
 40
15.0
 40
15.0
 40
15.0
 40
15.0
 10
108.4929470214879
 20
-161.4206379804782
 10
108.4316243218504
 20
-161.4922959665714
 10
108.1711751031655
 20
-161.8095892607629
 10
108.1146755372074
 20
-161.87332352724
 10
108.1987358670475
 20
-161.9704752199241
 10
108.2497232802292
 20
-162.0338649768526
 10
108.315180094449
 20
-162.1248154976632
 10
108.315180094449
 20
-162.1248154976632
 10
108.1312119955366
 20
-162.2626193170732
 10
108.1312119955366
 20
-162.2626193170732
 10
107.9961642525149
 20
-162.0507459447304
 10
107.8245984973494
 20
-161.8264702286406
 10
107.5303873429091
 20
-161.6276882191417
 10
107.5303873429091
 20
-161.6276882191417
 10
107.6785264487748
 20
-161.4733479414025
 10
107.6785264487748
 20
-161.4733479414025
 10
107.7887695043028
 20
-161.5536186662088
 10
107.8921223688603
 20
-161.6425021297283
 10
107.9892740615444
 20
-161.7375867651212
 10
108.0574869521523
 20
-161.6617946644457
 10
108.260058566685
 20
-161.4182264136385
 10
108.3937282715127
 20
-161.1898165829664
 10
108.3937282715127
 20
-161.1898165829664
 10
107.7205566136949
 20
-161.1898165829664
 10
107.7205566136949
 20
-161.1898165829664
 10
107.5958441571288
 20
-161.1898165829664
 10
107.3443521867056
 20
-161.198084812131
 10
107.1348903812024
 20
-161.2087646081353
 10
107.1348903812024
 20
-161.2087646081353
 10
107.1348903812024
 20
-160.9886230066278
 10
107.1348903812024
 20
-160.9886230066278
 10
107.3188584801147
 20
-161.0079155413453
 10
107.5241861710356
 20
-161.0120496559275
 10
107.7122883845303
 20
-161.0120496559275
 10
107.7122883845303
 20
-161.0120496559275
 10
108.2159613444738
 20
-161.0120496559275
 10
108.2159613444738
 20
-161.0120496559275
 10
108.5542697211253
 20
-161.0120496559275
 10
108.5990559624336
 20
-160.997235745341
 10
108.6810492349825
 20
-160.9569281281636
 10
108.6810492349825
 20
-160.9569281281636
 10
108.8484808755657
 20
-161.1157470300336
 10
108.8484808755657
 20
-161.1157470300336
 10
108.6962076551176
 20
-161.1877495256753
 10
108.5522026638342
 20
-161.3503580325791
 10
108.4929470214879
 20
-161.4206379804782
 97
        0
 97
        0
 75
     2
 76
     1
 98
        0
  0
SPLINE
  5
17E
330
142
100
AcDbEntity
  8
_U+30EC_U+30A4_U+30E4_U+30FC 1
370
     0
100
AcDbSpline
210
0.0
220
0.0
230
1.0
 70
    11
 71
     3
 72
    29
 73
    25
 74
     0
 42
0.0000000001
 43
0.0000000001
 12
1.0
 22
0.0
 32
0.0
 13
1.0
 23
0.0
 33
0.0
 40
0.0
 40
0.0
 40
0.0
 40
0.0
 40
1.0
 40
1.0
 40
1.0
 40
2.0
 40
2.0
 40
2.0
 40
3.0
 40
3.0
 40
3.0
 40
4.0
 40
4.0
 40
4.0
 40
5.0
 40
5.0
 40
5.0
 40
6.0
 40
6.0
 40
6.0
 40
7.0
 40
7.0
 40
7.0
 40
8.0
 40
8.0
 40
8.0
 40
8.0
 10
110.1162760141376
 20
-161.6638617217368
 30
0.0
 10
110.1162760141376
 20
-161.6638617217368
 30
0.0
 10
109.6318955889115
 20
-161.6638617217368
 30
0.0
 10
109.6318955889115
 20
-161.6638617217368
 30
0.0
 10
109.6043348250295
 20
-161.6638617217368
 30
0.0
 10
109.2873860403865
 20
-161.6638617217368
 30
0.0
 10
109.0758571775922
 20
-161.6890109187791
 30
0.0
 10
109.0758571775922
 20
-161.6890109187791
 30
0.0
 10
109.0758571775922
 20
-161.4585340308159
 30
0.0
 10
109.0758571775922
 20
-161.4585340308159
 30
0.0
 10
109.2343315699136
 20
-161.4819606801156
 30
0.0
 10
109.4245008406994
 20
-161.4840277374068
 30
0.0
 10
109.6318955889115
 20
-161.4840277374068
 30
0.0
 10
109.6318955889115
 20
-161.4840277374068
 30
0.0
 10
110.1162760141376
 20
-161.4840277374068
 30
0.0
 10
110.1162760141376
 20
-161.4840277374068
 30
0.0
 10
110.3023111703411
 20
-161.4840277374068
 30
0.0
 10
110.4890353456416
 20
-161.4819606801156
 30
0.0
 10
110.673003444554
 20
-161.4585340308159
 30
0.0
 10
110.673003444554
 20
-161.4585340308159
 30
0.0
 10
110.673003444554
 20
-161.6890109187791
 30
0.0
 10
110.673003444554
 20
-161.6890109187791
 30
0.0
 10
110.4890353456416
 20
-161.665928779028
 30
0.0
 10
110.2409884707036
 20
-161.6638617217368
 30
0.0
 10
110.1162760141376
 20
-161.6638617217368
 30
0.0
  0
HATCH
  5
17F
330
142
100
AcDbEntity
  8
_U+30EC_U+30A4_U+30E4_U+30FC 1
 62
   179
420
  2234388
100
AcDbHatch
 10
0.0
 20
0.0
 30
0.0
210
0.0
220
0.0
230
1.0
  2
SOLID
 70
     1
 71
     0
 91
        1
 92
        1
 93
        1
 72
     4
 94
        3
 73
     0
 74
     1
 95
       29
 96
       25
 40
0.0
 40
0.0
 40
0.0
 40
0.0
 40
1.0
 40
1.0
 40
1.0
 40
2.0
 40
2.0
 40
2.0
 40
3.0
 40
3.0
 40
3.0
 40
4.0
 40
4.0
 40
4.0
 40
5.0
 40
5.0
 40
5.0
 40
6.0
 40
6.0
 40
6.0
 40
7.0
 40
7.0
 40
7.0
 40
8.0
 40
8.0
 40
8.0
 40
8.0
 10
110.1162760141376
 20
-161.6638617217368
 10
110.1162760141376
 20
-161.6638617217368
 10
109.6318955889115
 20
-161.6638617217368
 10
109.6318955889115
 20
-161.6638617217368
 10
109.6043348250295
 20
-161.6638617217368
 10
109.2873860403865
 20
-161.6638617217368
 10
109.0758571775922
 20
-161.6890109187791
 10
109.0758571775922
 20
-161.6890109187791
 10
109.0758571775922
 20
-161.4585340308159
 10
109.0758571775922
 20
-161.4585340308159
 10
109.2343315699136
 20
-161.4819606801156
 10
109.4245008406994
 20
-161.4840277374068
 10
109.6318955889115
 20
-161.4840277374068
 10
109.6318955889115
 20
-161.4840277374068
 10
110.1162760141376
 20
-161.4840277374068
 10
110.1162760141376
 20
-161.4840277374068
 10
110.3023111703411
 20
-161.4840277374068
 10
110.4890353456416
 20
-161.4819606801156
 10
110.673003444554
 20
-161.4585340308159
 10
110.673003444554
 20
-161.4585340308159
 10
110.673003444554
 20
-161.6890109187791
 10
110.673003444554
 20
-161.6890109187791
 10
110.4890353456416
 20
-161.665928779028
 10
110.2409884707036
 20
-161.6638617217368
 10
110.1162760141376
 20
-161.6638617217368
 97
        0
 97
        0
 75
     2
 76
     1
 98
        0
  0
ENDBLK
  5
145
330
142
100
AcDbEntity
  8
0
100
AcDbBlockEnd
  0
ENDSEC
  0
SECTION
  2
ENTITIES
  0
POLYLINE
  5
41
330
1F
100
AcDbEntity
  8
_U+30EC_U+30A4_U+30E4_U+30FC 1
 62
   179
420
  2234388
370
    25
100
AcDb2dPolyline
 66
     1
 10
0.0
 20
0.0
 30
0.0
  0
VERTEX
  5
42
330
41
100
AcDbEntity
  8
_U+30EC_U+30A4_U+30E4_U+30FC 1
 62
   179
420
  2234388
370
    25
100
AcDbVertex
100
AcDb2dVertex
 10
76.2924963869496
 20
-156.1393032942983
 30
0.0
  0
VERTEX
  5
43
330
41
100
AcDbEntity
  8
_U+30EC_U+30A4_U+30E4_U+30FC 1
 62
   179
420
  2234388
370
    25
100
AcDbVertex
100
AcDb2dVertex
 10
91.29243072649162
 20
-156.1393032942983
 30
0.0
  0
SEQEND
  5
44
330
41
100
AcDbEntity
  8
_U+30EC_U+30A4_U+30E4_U+30FC 1
 62
   179
420
  2234388
370
    25
  0
POLYLINE
  5
45
330
1F
100
AcDbEntity
  8
_U+30EC_U+30A4_U+30E4_U+30FC 1
 62
   179
420
  2234388
370
    25
100
AcDb2dPolyline
 66
     1
 10
0.0
 20
0.0
 30
0.0
  0
VERTEX
  5
46
330
45
100
AcDbEntity
  8
_U+30EC_U+30A4_U+30E4_U+30FC 1
 62
   179
420
  2234388
370
    25
100
AcDbVertex
100
AcDb2dVertex
 10
89.29221605529912
 20
-94.13913803202072
 30
0.0
  0
VERTEX
  5
47
330
45
100
AcDbEntity
  8
_U+30EC_U+30A4_U+30E4_U+30FC 1
 62
   179
420
  2234388
370
    25
100
AcDbVertex
100
AcDb2dVertex
 10
90.29198825201503
 20
-94.13913803202072
 30
0.0
  0
SEQEND
  5
48
330
45
100
AcDbEntity
  8
_U+30EC_U+30A4_U+30E4_U+30FC 1
 62
   179
420
  2234388
370
    25
  0
POLYLINE
  5
49
330
1F
100
AcDbEntity
  8
_U+30EC_U+30A4_U+30E4_U+30FC 1
 62
   179
420
  2234388
370
    25
100
AcDb2dPolyline
 66
     1
 10
0.0
 20
0.0
 30
0.0
  0
VERTEX
  5
4A
330
49
100
AcDbEntity
  8
_U+30EC_U+30A4_U+30E4_U+30FC 1
 62
   179
420
  2234388
370
    25
100
AcDbVertex
100
AcDb2dVertex
 10
76.2924963869496
 20
-133.1391446889374
 30
0.0
  0
VERTEX
  5
4B
330
49
100
AcDbEntity
  8
_U+30EC_U+30A4_U+30E4_U+30FC 1
 62
   179
420
  2234388
370
    25
100
AcDbVertex
100
AcDb2dVertex
 10
76.2924963869496
 20
-156.1393032942983
 30
0.0
  0
SEQEND
  5
4C
330
49
100
AcDbEntity
  8
_U+30EC_U+30A4_U+30E4_U+30FC 1
 62
   179
420
  2234388
370
    25
  0
POLYLINE
  5
4D
330
1F
100
AcDbEntity
  8
_U+30EC_U+30A4_U+30E4_U+30FC 1
 62
   179
420
  2234388
370
    25
100
AcDb2dPolyline
 66
     1
 10
0.0
 20
0.0
 30
0.0
  0
VERTEX
  5
4E
330
4D
100
AcDbEntity
  8
_U+30EC_U+30A4_U+30E4_U+30FC 1
 62
   179
420
  2234388
370
    25
100
AcDbVertex
100
AcDb2dVertex
 10
91.29243072649162
 20
-152.1395441286315
 30
0.0
  0
VERTEX
  5
4F
330
4D
100
AcDbEntity
  8
_U+30EC_U+30A4_U+30E4_U+30FC 1
 62
   179
420
  2234388
370
    25
100
AcDbVertex
100
AcDb2dVertex
 10
91.29243072649162
 20
-156.1393032942983
 30
0.0
  0
SEQEND
  5
50
330
4D
100
AcDbEntity
  8
_U+30EC_U+30A4_U+30E4_U+30FC 1
 62
   179
420
  2234388
370
    25
  0
POLYLINE
  5
51
330
1F
100
AcDbEntity
  8
_U+30EC_U+30A4_U+30E4_U+30FC 1
 62
   179
420
  2234388
370
    25
100
AcDb2dPolyline
 66
     1
 10
0.0
 20
0.0
 30
0.0
  0
VERTEX
  5
52
330
51
100
AcDbEntity
  8
_U+30EC_U+30A4_U+30E4_U+30FC 1
 62
   179
420
  2234388
370
    25
100
AcDbVertex
100
AcDb2dVertex
 10
87.29200138410663
 20
-152.1395441286315
 30
0.0
  0
VERTEX
  5
53
330
51
100
AcDbEntity
  8
_U+30EC_U+30A4_U+30E4_U+30FC 1
 62
   179
420
  2234388
370
    25
100
AcDbVertex
100
AcDb2dVertex
 10
91.29243072649162
 20
-152.1395441286315
 30
0.0
  0
SEQEND
  5
54
330
51
100
AcDbEntity
  8
_U+30EC_U+30A4_U+30E4_U+30FC 1
 62
   179
420
  2234388
370
    25
  0
POLYLINE
  5
55
330
1F
100
AcDbEntity
  8
_U+30EC_U+30A4_U+30E4_U+30FC 1
 62
   179
420
  2234388
370
    25
100
AcDb2dPolyline
 66
     1
 10
0.0
 20
0.0
 30
0.0
  0
VERTEX
  5
56
330
55
100
AcDbEntity
  8
_U+30EC_U+30A4_U+30E4_U+30FC 1
 62
   179
420
  2234388
370
    25
100
AcDbVertex
100
AcDb2dVertex
 10
90.29198825201503
 20
-153.139316350604
 30
0.0
  0
VERTEX
  5
57
330
55
100
AcDbEntity
  8
_U+30EC_U+30A4_U+30E4_U+30FC 1
 62
   179
420
  2234388
370
    25
100
AcDbVertex
100
AcDb2dVertex
 10
90.29198825201503
 20
-155.1395310723265
 30
0.0
  0
SEQEND
  5
58
330
55
100
AcDbEntity
  8
_U+30EC_U+30A4_U+30E4_U+30FC 1
 62
   179
420
  2234388
370
    25
  0
POLYLINE
  5
59
330
1F
100
AcDbEntity
  8
_U+30EC_U+30A4_U+30E4_U+30FC 1
 62
   179
420
  2234388
370
    25
100
AcDb2dPolyline
 66
     1
 10
0.0
 20
0.0
 30
0.0
  0
VERTEX
  5
5A
330
59
100
AcDbEntity
  8
_U+30EC_U+30A4_U+30E4_U+30FC 1
 62
   179
420
  2234388
370
    25
100
AcDbVertex
100
AcDb2dVertex
 10
87.29200138410663
 20
-152.1395441286315
 30
0.0
  0
VERTEX
  5
5B
330
59
100
AcDbEntity
  8
_U+30EC_U+30A4_U+30E4_U+30FC 1
 62
   179
420
  2234388
370
    25
100
AcDbVertex
100
AcDb2dVertex
 10
87.29200138410663
 20
-153.139316350604
 30
0.0
  0
SEQEND
  5
5C
330
59
100
AcDbEntity
  8
_U+30EC_U+30A4_U+30E4_U+30FC 1
 62
   179
420
  2234388
370
    25
  0
POLYLINE
  5
5D
330
1F
100
AcDbEntity
  8
_U+30EC_U+30A4_U+30E4_U+30FC 1
 62
   179
420
  2234388
370
    25
100
AcDb2dPolyline
 66
     1
 10
0.0
 20
0.0
 30
0.0
  0
VERTEX
  5
5E
330
5D
100
AcDbEntity
  8
_U+30EC_U+30A4_U+30E4_U+30FC 1
 62
   179
420
  2234388
370
    25
100
AcDbVertex
100
AcDb2dVertex
 10
87.29200138410663
 20
-153.139316350604
 30
0.0
  0
VERTEX
  5
5F
330
5D
100
AcDbEntity
  8
_U+30EC_U+30A4_U+30E4_U+30FC 1
 62
   179
420
  2234388
370
    25
100
AcDbVertex
100
AcDb2dVertex
 10
90.29198825201503
 20
-153.139316350604
 30
0.0
  0
SEQEND
  5
60
330
5D
100
AcDbEntity
  8
_U+30EC_U+30A4_U+30E4_U+30FC 1
 62
   179
420
  2234388
370
    25
  0
POLYLINE
  5
61
330
1F
100
AcDbEntity
  8
_U+30EC_U+30A4_U+30E4_U+30FC 1
 62
   179
420
  2234388
370
    25
100
AcDb2dPolyline
 66
     1
 10
0.0
 20
0.0
 30
0.0
  0
VERTEX
  5
62
330
61
100
AcDbEntity
  8
_U+30EC_U+30A4_U+30E4_U+30FC 1
 62
   179
420
  2234388
370
    25
100
AcDbVertex
100
AcDb2dVertex
 10
77.2922685836655
 20
-155.1395310723265
 30
0.0
  0
VERTEX
  5
63
330
61
100
AcDbEntity
  8
_U+30EC_U+30A4_U+30E4_U+30FC 1
 62
   179
420
  2234388
370
    25
100
AcDbVertex
100
AcDb2dVertex
 10
90.29198825201503
 20
-155.1395310723265
 30
0.0
  0
SEQEND
  5
64
330
61
100
AcDbEntity
  8
_U+30EC_U+30A4_U+30E4_U+30FC 1
 62
   179
420
  2234388
370
    25
  0
POLYLINE
  5
65
330
1F
100
AcDbEntity
  8
_U+30EC_U+30A4_U+30E4_U+30FC 1
 62
   179
420
  2234388
370
    25
100
AcDb2dPolyline
 66
     1
 10
0.0
 20
0.0
 30
0.0
  0
VERTEX
  5
66
330
65
100
AcDbEntity
  8
_U+30EC_U+30A4_U+30E4_U+30FC 1
 62
   179
420
  2234388
370
    25
100
AcDbVertex
100
AcDb2dVertex
 10
77.2922685836655
 20
-139.1391538541042
 30
0.0
  0
VERTEX
  5
67
330
65
100
AcDbEntity
  8
_U+30EC_U+30A4_U+30E4_U+30FC 1
 62
   179
420
  2234388
370
    25
100
AcDbVertex
100
AcDb2dVertex
 10
77.2922685836655
 20
-155.1395310723265
 30
0.0
  0
SEQEND
  5
68
330
65
100
AcDbEntity
  8
_U+30EC_U+30A4_U+30E4_U+30FC 1
 62
   179
420
  2234388
370
    25
  0
POLYLINE
  5
69
330
1F
100
AcDbEntity
  8
_U+30EC_U+30A4_U+30E4_U+30FC 1
 62
   179
420
  2234388
370
    25
100
AcDb2dPolyline
 66
     1
 10
0.0
 20
0.0
 30
0.0
  0
VERTEX
  5
6A
330
69
100
AcDbEntity
  8
_U+30EC_U+30A4_U+30E4_U+30FC 1
 62
   179
420
  2234388
370
    25
100
AcDbVertex
100
AcDb2dVertex
 10
77.2922685836655
 20
-139.1391538541042
 30
0.0
  0
VERTEX
  5
6B
330
69
100
AcDbEntity
  8
_U+30EC_U+30A4_U+30E4_U+30FC 1
 62
   179
420
  2234388
370
    25
100
AcDbVertex
100
AcDb2dVertex
 10
90.29198825201503
 20
-139.1391538541042
 30
0.0
  0
SEQEND
  5
6C
330
69
100
AcDbEntity
  8
_U+30EC_U+30A4_U+30E4_U+30FC 1
 62
   179
420
  2234388
370
    25
  0
POLYLINE
  5
6D
330
1F
100
AcDbEntity
  8
_U+30EC_U+30A4_U+30E4_U+30FC 1
 62
   179
420
  2234388
370
    25
100
AcDb2dPolyline
 66
     1
 10
0.0
 20
0.0
 30
0.0
  0
VERTEX
  5
6E
330
6D
100
AcDbEntity
  8
_U+30EC_U+30A4_U+30E4_U+30FC 1
 62
   179
420
  2234388
370
    25
100
AcDbVertex
100
AcDb2dVertex
 10
79.292483254858
 20
-133.1391446889374
 30
0.0
  0
VERTEX
  5
6F
330
6D
100
AcDbEntity
  8
_U+30EC_U+30A4_U+30E4_U+30FC 1
 62
   179
420
  2234388
370
    25
100
AcDbVertex
100
AcDb2dVertex
 10
79.292483254858
 20
-134.1396224664654
 30
0.0
  0
SEQEND
  5
70
330
6D
100
AcDbEntity
  8
_U+30EC_U+30A4_U+30E4_U+30FC 1
 62
   179
420
  2234388
370
    25
  0
POLYLINE
  5
71
330
1F
100
AcDbEntity
  8
_U+30EC_U+30A4_U+30E4_U+30FC 1
 62
   179
420
  2234388
370
    25
100
AcDb2dPolyline
 66
     1
 10
0.0
 20
0.0
 30
0.0
  0
VERTEX
  5
72
330
71
100
AcDbEntity
  8
_U+30EC_U+30A4_U+30E4_U+30FC 1
 62
   179
420
  2234388
370
    25
100
AcDbVertex
100
AcDb2dVertex
 10
76.2924963869496
 20
-133.1391446889374
 30
0.0
  0
VERTEX
  5
73
330
71
100
AcDbEntity
  8
_U+30EC_U+30A4_U+30E4_U+30FC 1
 62
   179
420
  2234388
370
    25
100
AcDbVertex
100
AcDb2dVertex
 10
79.292483254858
 20
-133.1391446889374
 30
0.0
  0
SEQEND
  5
74
330
71
100
AcDbEntity
  8
_U+30EC_U+30A4_U+30E4_U+30FC 1
 62
   179
420
  2234388
370
    25
  0
POLYLINE
  5
75
330
1F
100
AcDbEntity
  8
_U+30EC_U+30A4_U+30E4_U+30FC 1
 62
   179
420
  2234388
370
    25
100
AcDb2dPolyline
 66
     1
 10
0.0
 20
0.0
 30
0.0
  0
VERTEX
  5
76
330
75
100
AcDbEntity
  8
_U+30EC_U+30A4_U+30E4_U+30FC 1
 62
   179
420
  2234388
370
    25
100
AcDbVertex
100
AcDb2dVertex
 10
77.2922685836655
 20
-134.1396224664654
 30
0.0
  0
VERTEX
  5
77
330
75
100
AcDbEntity
  8
_U+30EC_U+30A4_U+30E4_U+30FC 1
 62
   179
420
  2234388
370
    25
100
AcDbVertex
100
AcDb2dVertex
 10
79.292483254858
 20
-134.1396224664654
 30
0.0
  0
SEQEND
  5
78
330
75
100
AcDbEntity
  8
_U+30EC_U+30A4_U+30E4_U+30FC 1
 62
   179
420
  2234388
370
    25
  0
POLYLINE
  5
79
330
1F
100
AcDbEntity
  8
_U+30EC_U+30A4_U+30E4_U+30FC 1
 62
   179
420
  2234388
370
    25
100
AcDb2dPolyline
 66
     1
 10
0.0
 20
0.0
 30
0.0
  0
VERTEX
  5
7A
330
79
100
AcDbEntity
  8
_U+30EC_U+30A4_U+30E4_U+30FC 1
 62
   179
420
  2234388
370
    25
100
AcDbVertex
100
AcDb2dVertex
 10
89.29221605529912
 20
-94.13913803202072
 30
0.0
  0
VERTEX
  5
7B
330
79
100
AcDbEntity
  8
_U+30EC_U+30A4_U+30E4_U+30FC 1
 62
   179
420
  2234388
370
    25
100
AcDbVertex
100
AcDb2dVertex
 10
89.29221605529912
 20
-138.1393816321317
 30
0.0
  0
VERTEX
  5
7C
330
79
100
AcDbEntity
  8
_U+30EC_U+30A4_U+30E4_U+30FC 1
 62
   179
420
  2234388
370
    25
100
AcDbVertex
100
AcDb2dVertex
 10
77.2922685836655
 20
-138.1393816321317
 30
0.0
  0
SEQEND
  5
7D
330
79
100
AcDbEntity
  8
_U+30EC_U+30A4_U+30E4_U+30FC 1
 62
   179
420
  2234388
370
    25
  0
POLYLINE
  5
7E
330
1F
100
AcDbEntity
  8
_U+30EC_U+30A4_U+30E4_U+30FC 1
 62
   179
420
  2234388
370
    25
100
AcDb2dPolyline
 66
     1
 10
0.0
 20
0.0
 30
0.0
  0
VERTEX
  5
7F
330
7E
100
AcDbEntity
  8
_U+30EC_U+30A4_U+30E4_U+30FC 1
 62
   179
420
  2234388
370
    25
100
AcDbVertex
100
AcDb2dVertex
 10
90.29198825201503
 20
-94.13913803202072
 30
0.0
  0
VERTEX
  5
80
330
7E
100
AcDbEntity
  8
_U+30EC_U+30A4_U+30E4_U+30FC 1
 62
   179
420
  2234388
370
    25
100
AcDbVertex
100
AcDb2dVertex
 10
90.29198825201503
 20
-139.1391538541042
 30
0.0
  0
SEQEND
  5
81
330
7E
100
AcDbEntity
  8
_U+30EC_U+30A4_U+30E4_U+30FC 1
 62
   179
420
  2234388
370
    25
  0
POLYLINE
  5
82
330
1F
100
AcDbEntity
  8
_U+30EC_U+30A4_U+30E4_U+30FC 1
 62
   179
420
  2234388
370
    25
100
AcDb2dPolyline
 66
     1
 10
0.0
 20
0.0
 30
0.0
  0
VERTEX
  5
83
330
82
100
AcDbEntity
  8
_U+30EC_U+30A4_U+30E4_U+30FC 1
 62
   179
420
  2234388
370
    25
100
AcDbVertex
100
AcDb2dVertex
 10
77.2922685836655
 20
-134.1396224664654
 30
0.0
  0
VERTEX
  5
84
330
82
100
AcDbEntity
  8
_U+30EC_U+30A4_U+30E4_U+30FC 1
 62
   179
420
  2234388
370
    25
100
AcDbVertex
100
AcDb2dVertex
 10
77.2922685836655
 20
-138.1393816321317
 30
0.0
  0
SEQEND
  5
85
330
82
100
AcDbEntity
  8
_U+30EC_U+30A4_U+30E4_U+30FC 1
 62
   179
420
  2234388
370
    25
  0
POLYLINE
  5
86
330
1F
100
AcDbEntity
  8
_U+30EC_U+30A4_U+30E4_U+30FC 1
 62
   179
420
  2234388
370
     9
100
AcDb2dPolyline
 66
     1
 10
0.0
 20
0.0
 30
0.0
  0
VERTEX
  5
87
330
86
100
AcDbEntity
  8
_U+30EC_U+30A4_U+30E4_U+30FC 1
 62
   179
420
  2234388
370
     9
100
AcDbVertex
100
AcDb2dVertex
 10
90.5235163016638
 20
-104.1254302517464
 30
0.0
  0
VERTEX
  5
88
330
86
100
AcDbEntity
  8
_U+30EC_U+30A4_U+30E4_U+30FC 1
 62
   179
420
  2234388
370
     9
100
AcDbVertex
100
AcDb2dVertex
 10
87.25305471843357
 20
-104.1254302517464
 30
0.0
  0
SEQEND
  5
89
330
86
100
AcDbEntity
  8
_U+30EC_U+30A4_U+30E4_U+30FC 1
 62
   179
420
  2234388
370
     9
  0
POLYLINE
  5
8A
330
1F
100
AcDbEntity
  8
_U+30EC_U+30A4_U+30E4_U+30FC 1
 62
   179
420
  2234388
370
     9
100
AcDb2dPolyline
 66
     1
 10
0.0
 20
0.0
 30
0.0
  0
VERTEX
  5
8B
330
8A
100
AcDbEntity
  8
_U+30EC_U+30A4_U+30E4_U+30FC 1
 62
   179
420
  2234388
370
     9
100
AcDbVertex
100
AcDb2dVertex
 10
92.52355458397192
 20
-104.1254302517464
 30
0.0
  0
VERTEX
  5
8C
330
8A
100
AcDbEntity
  8
_U+30EC_U+30A4_U+30E4_U+30FC 1
 62
   179
420
  2234388
370
     9
100
AcDbVertex
100
AcDb2dVertex
 10
90.5235163016638
 20
-104.1254302517464
 30
0.0
  0
SEQEND
  5
8D
330
8A
100
AcDbEntity
  8
_U+30EC_U+30A4_U+30E4_U+30FC 1
 62
   179
420
  2234388
370
     9
  0
INSERT
  5
8F
330
1F
100
AcDbEntity
  8
_U+30EC_U+30A4_U+30E4_U+30FC 1
100
AcDbBlockReference
  2
block 2
 10
0.0
 20
0.0
 30
0.0
  0
POLYLINE
  5
94
330
1F
100
AcDbEntity
  8
_U+30EC_U+30A4_U+30E4_U+30FC 1
  6
AI-Linetype-1
 62
   154
420
    23468
370
    25
100
AcDb2dPolyline
 66
     1
 10
0.0
 20
0.0
 30
0.0
  0
VERTEX
  5
95
330
94
100
AcDbEntity
  8
_U+30EC_U+30A4_U+30E4_U+30FC 1
  6
AI-Linetype-1
 62
   154
420
    23468
370
    25
100
AcDbVertex
100
AcDb2dVertex
 10
92.29273208986069
 20
-152.1395441286315
 30
0.0
  0
VERTEX
  5
96
330
94
100
AcDbEntity
  8
_U+30EC_U+30A4_U+30E4_U+30FC 1
  6
AI-Linetype-1
 62
   154
420
    23468
370
    25
100
AcDbVertex
100
AcDb2dVertex
 10
92.29273208986069
 20
-157.1390755162709
 30
0.0
  0
VERTEX
  5
97
330
94
100
AcDbEntity
  8
_U+30EC_U+30A4_U+30E4_U+30FC 1
  6
AI-Linetype-1
 62
   154
420
    23468
370
    25
100
AcDbVertex
100
AcDb2dVertex
 10
75.29272419023368
 20
-157.1390755162709
 30
0.0
  0
VERTEX
  5
98
330
94
100
AcDbEntity
  8
_U+30EC_U+30A4_U+30E4_U+30FC 1
  6
AI-Linetype-1
 62
   154
420
    23468
370
    25
100
AcDbVertex
100
AcDb2dVertex
 10
75.29272419023368
 20
-132.1390549669652
 30
0.0
  0
VERTEX
  5
99
330
94
100
AcDbEntity
  8
_U+30EC_U+30A4_U+30E4_U+30FC 1
  6
AI-Linetype-1
 62
   154
420
    23468
370
    25
100
AcDbVertex
100
AcDb2dVertex
 10
79.29265964374238
 20
-132.1390549669652
 30
0.0
  0
SEQEND
  5
9B
330
94
100
AcDbEntity
  8
_U+30EC_U+30A4_U+30E4_U+30FC 1
  6
AI-Linetype-1
 62
   154
420
    23468
370
    25
  0
POLYLINE
  5
9C
330
1F
100
AcDbEntity
  8
_U+30EC_U+30A4_U+30E4_U+30FC 1
 62
   179
420
  2234388
370
     9
100
AcDb2dPolyline
 66
     1
 10
0.0
 20
0.0
 30
0.0
  0
VERTEX
  5
9D
330
9C
100
AcDbEntity
  8
_U+30EC_U+30A4_U+30E4_U+30FC 1
 62
   179
420
  2234388
370
     9
100
AcDbVertex
100
AcDb2dVertex
 10
76.29284916471838
 20
-160.3643816265754
 30
0.0
  0
VERTEX
  5
9E
330
9C
100
AcDbEntity
  8
_U+30EC_U+30A4_U+30E4_U+30FC 1
 62
   179
420
  2234388
370
     9
100
AcDbVertex
100
AcDb2dVertex
 10
91.29278350426038
 20
-160.3643816265754
 30
0.0
  0
SEQEND
  5
9F
330
9C
100
AcDbEntity
  8
_U+30EC_U+30A4_U+30E4_U+30FC 1
 62
   179
420
  2234388
370
     9
  0
SPLINE
  5
A0
330
1F
100
AcDbEntity
  8
_U+30EC_U+30A4_U+30E4_U+30FC 1
 62
   179
420
  2234388
370
     9
100
AcDbSpline
210
0.0
220
0.0
230
1.0
 70
    11
 71
     3
 72
    17
 73
    13
 74
     0
 42
0.0000000001
 43
0.0000000001
 12
1.0
 22
0.0
 32
0.0
 13
1.0
 23
0.0
 33
0.0
 40
0.0
 40
0.0
 40
0.0
 40
0.0
 40
1.0
 40
1.0
 40
1.0
 40
2.0
 40
2.0
 40
2.0
 40
3.0
 40
3.0
 40
3.0
 40
4.0
 40
4.0
 40
4.0
 40
4.0
 10
91.39357211280017
 20
-160.3643816265754
 30
0.0
 10
91.39357211280017
 20
-160.309242459923
 30
0.0
 10
91.34859294728102
 20
-160.2644749599338
 30
0.0
 10
91.29278350426038
 20
-160.2644749599338
 30
0.0
 10
91.23767961677731
 20
-160.2644749599338
 30
0.0
 10
91.19287684014256
 20
-160.309242459923
 30
0.0
 10
91.19287684014256
 20
-160.3643816265754
 30
0.0
 10
91.19287684014256
 20
-160.419485515451
 30
0.0
 10
91.23767961677731
 20
-160.464288293217
 30
0.0
 10
91.29278350426038
 20
-160.464288293217
 30
0.0
 10
91.34859294728102
 20
-160.464288293217
 30
0.0
 10
91.39357211280017
 20
-160.419485515451
 30
0.0
 10
91.39357211280017
 20
-160.3643816265754
 30
0.0
  0
POLYLINE
  5
A1
330
1F
100
AcDbEntity
  8
_U+30EC_U+30A4_U+30E4_U+30FC 1
 62
   179
420
  2234388
370
     9
100
AcDb2dPolyline
 66
     1
 10
0.0
 20
0.0
 30
0.0
  0
VERTEX
  5
A2
330
A1
100
AcDbEntity
  8
_U+30EC_U+30A4_U+30E4_U+30FC 1
 62
   179
420
  2234388
370
     9
100
AcDbVertex
100
AcDb2dVertex
 10
91.29278350426038
 20
-157.9038977383018
 30
0.0
  0
VERTEX
  5
A3
330
A1
100
AcDbEntity
  8
_U+30EC_U+30A4_U+30E4_U+30FC 1
 62
   179
420
  2234388
370
     9
100
AcDbVertex
100
AcDb2dVertex
 10
91.29278350426038
 20
-161.3641538485479
 30
0.0
  0
SEQEND
  5
A4
330
A1
100
AcDbEntity
  8
_U+30EC_U+30A4_U+30E4_U+30FC 1
 62
   179
420
  2234388
370
     9
  0
SPLINE
  5
A5
330
1F
100
AcDbEntity
  8
_U+30EC_U+30A4_U+30E4_U+30FC 1
 62
   179
420
  2234388
370
     9
100
AcDbSpline
210
0.0
220
0.0
230
1.0
 70
    11
 71
     3
 72
    17
 73
    13
 74
     0
 42
0.0000000001
 43
0.0000000001
 12
1.0
 22
0.0
 32
0.0
 13
1.0
 23
0.0
 33
0.0
 40
0.0
 40
0.0
 40
0.0
 40
0.0
 40
1.0
 40
1.0
 40
1.0
 40
2.0
 40
2.0
 40
2.0
 40
3.0
 40
3.0
 40
3.0
 40
4.0
 40
4.0
 40
4.0
 40
4.0
 10
76.39342610659689
 20
-160.3643816265754
 30
0.0
 10
76.39342610659689
 20
-160.309242459923
 30
0.0
 10
76.348658607739
 20
-160.2644749599338
 30
0.0
 10
76.29284916471838
 20
-160.2644749599338
 30
0.0
 10
76.23770999945842
 20
-160.2644749599338
 30
0.0
 10
76.19294442539606
 20
-160.309242459923
 30
0.0
 10
76.19294442539606
 20
-160.3643816265754
 30
0.0
 10
76.19294442539606
 20
-160.419485515451
 30
0.0
 10
76.23770999945842
 20
-160.464288293217
 30
0.0
 10
76.29284916471838
 20
-160.464288293217
 30
0.0
 10
76.348658607739
 20
-160.464288293217
 30
0.0
 10
76.39342610659689
 20
-160.419485515451
 30
0.0
 10
76.39342610659689
 20
-160.3643816265754
 30
0.0
  0
POLYLINE
  5
A6
330
1F
100
AcDbEntity
  8
_U+30EC_U+30A4_U+30E4_U+30FC 1
 62
   179
420
  2234388
370
     9
100
AcDb2dPolyline
 66
     1
 10
0.0
 20
0.0
 30
0.0
  0
VERTEX
  5
A7
330
A6
100
AcDbEntity
  8
_U+30EC_U+30A4_U+30E4_U+30FC 1
 62
   179
420
  2234388
370
     9
100
AcDbVertex
100
AcDb2dVertex
 10
76.29284916471838
 20
-157.9038977383018
 30
0.0
  0
VERTEX
  5
A8
330
A6
100
AcDbEntity
  8
_U+30EC_U+30A4_U+30E4_U+30FC 1
 62
   179
420
  2234388
370
     9
100
AcDbVertex
100
AcDb2dVertex
 10
76.29284916471838
 20
-161.3641538485479
 30
0.0
  0
SEQEND
  5
A9
330
A6
100
AcDbEntity
  8
_U+30EC_U+30A4_U+30E4_U+30FC 1
 62
   179
420
  2234388
370
     9
  0
INSERT
  5
AB
330
1F
100
AcDbEntity
  8
_U+30EC_U+30A4_U+30E4_U+30FC 1
100
AcDbBlockReference
  2
block 3
 10
0.0
 20
0.0
 30
0.0
  0
SPLINE
  5
B2
330
1F
100
AcDbEntity
  8
_U+30EC_U+30A4_U+30E4_U+30FC 1
 62
   179
420
  2234388
370
     9
100
AcDbSpline
210
0.0
220
0.0
230
1.0
 70
    11
 71
     3
 72
    17
 73
    13
 74
     0
 42
0.0000000001
 43
0.0000000001
 12
1.0
 22
0.0
 32
0.0
 13
1.0
 23
0.0
 33
0.0
 40
0.0
 40
0.0
 40
0.0
 40
0.0
 40
1.0
 40
1.0
 40
1.0
 40
2.0
 40
2.0
 40
2.0
 40
3.0
 40
3.0
 40
3.0
 40
4.0
 40
4.0
 40
4.0
 40
4.0
 10
94.95648886514965
 20
-94.13913803202072
 30
0.0
 10
94.95648886514965
 20
-94.19424192089596
 30
0.0
 10
95.00125396520498
 20
-94.23904469866237
 30
0.0
 10
95.05639313046493
 20
-94.23904469866237
 30
0.0
 10
95.111497017948
 20
-94.23904469866237
 30
0.0
 10
95.15629979458276
 20
-94.19424192089596
 30
0.0
 10
95.15629979458276
 20
-94.13913803202072
 30
0.0
 10
95.15629979458276
 20
-94.08332858759029
 30
0.0
 10
95.111497017948
 20
-94.03852580982357
 30
0.0
 10
95.05639313046493
 20
-94.03852580982357
 30
0.0
 10
95.00125396520498
 20
-94.03852580982357
 30
0.0
 10
94.95648886514965
 20
-94.08332858759029
 30
0.0
 10
94.95648886514965
 20
-94.13913803202072
 30
0.0
  0
POLYLINE
  5
B3
330
1F
100
AcDbEntity
  8
_U+30EC_U+30A4_U+30E4_U+30FC 1
 62
   179
420
  2234388
370
     9
100
AcDb2dPolyline
 66
     1
 10
0.0
 20
0.0
 30
0.0
  0
VERTEX
  5
B4
330
B3
100
AcDbEntity
  8
_U+30EC_U+30A4_U+30E4_U+30FC 1
 62
   179
420
  2234388
370
     9
100
AcDbVertex
100
AcDb2dVertex
 10
95.05639313046493
 20
-94.1411841431313
 30
0.0
  0
VERTEX
  5
B5
330
B3
100
AcDbEntity
  8
_U+30EC_U+30A4_U+30E4_U+30FC 1
 62
   179
420
  2234388
370
     9
100
AcDbVertex
100
AcDb2dVertex
 10
95.05639313046493
 20
-156.1393032942983
 30
0.0
  0
SEQEND
  5
B6
330
B3
100
AcDbEntity
  8
_U+30EC_U+30A4_U+30E4_U+30FC 1
 62
   179
420
  2234388
370
     9
  0
POLYLINE
  5
B7
330
1F
100
AcDbEntity
  8
_U+30EC_U+30A4_U+30E4_U+30FC 1
 62
   179
420
  2234388
370
     9
100
AcDb2dPolyline
 66
     1
 10
0.0
 20
0.0
 30
0.0
  0
VERTEX
  5
B8
330
B7
100
AcDbEntity
  8
_U+30EC_U+30A4_U+30E4_U+30FC 1
 62
   179
420
  2234388
370
     9
100
AcDbVertex
100
AcDb2dVertex
 10
93.43238067189694
 20
-94.13913803202072
 30
0.0
  0
VERTEX
  5
B9
330
B7
100
AcDbEntity
  8
_U+30EC_U+30A4_U+30E4_U+30FC 1
 62
   179
420
  2234388
370
     9
100
AcDbVertex
100
AcDb2dVertex
 10
96.05616532718084
 20
-94.13913803202072
 30
0.0
  0
SEQEND
  5
BA
330
B7
100
AcDbEntity
  8
_U+30EC_U+30A4_U+30E4_U+30FC 1
 62
   179
420
  2234388
370
     9
  0
INSERT
  5
BC
330
1F
100
AcDbEntity
  8
_U+30EC_U+30A4_U+30E4_U+30FC 1
100
AcDbBlockReference
  2
block 4
 10
0.0
 20
0.0
 30
0.0
  0
INSERT
  5
D7
330
1F
100
AcDbEntity
  8
_U+30EC_U+30A4_U+30E4_U+30FC 1
100
AcDbBlockReference
  2
block 5
 10
0.0
 20
0.0
 30
0.0
  0
INSERT
  5
DF
330
1F
100
AcDbEntity
  8
_U+30EC_U+30A4_U+30E4_U+30FC 1
100
AcDbBlockReference
  2
block 6
 10
0.0
 20
0.0
 30
0.0
  0
SPLINE
  5
F7
330
1F
100
AcDbEntity
  8
_U+30EC_U+30A4_U+30E4_U+30FC 1
 62
   179
420
  2234388
370
     9
100
AcDbSpline
210
0.0
220
0.0
230
1.0
 70
    11
 71
     3
 72
    17
 73
    13
 74
     0
 42
0.0000000001
 43
0.0000000001
 12
1.0
 22
0.0
 32
0.0
 13
1.0
 23
0.0
 33
0.0
 40
0.0
 40
0.0
 40
0.0
 40
0.0
 40
1.0
 40
1.0
 40
1.0
 40
2.0
 40
2.0
 40
2.0
 40
3.0
 40
3.0
 40
3.0
 40
4.0
 40
4.0
 40
4.0
 40
4.0
 10
94.95648886514965
 20
-139.1391538541042
 30
0.0
 10
94.95648886514965
 20
-139.1942577429791
 30
0.0
 10
95.00125396520498
 20
-139.2390605207458
 30
0.0
 10
95.05639313046493
 20
-139.2390605207458
 30
0.0
 10
95.111497017948
 20
-139.2390605207458
 30
0.0
 10
95.15629979458276
 20
-139.1942577429791
 30
0.0
 10
95.15629979458276
 20
-139.1391538541042
 30
0.0
 10
95.15629979458276
 20
-139.0833444096738
 30
0.0
 10
95.111497017948
 20
-139.038541631907
 30
0.0
 10
95.05639313046493
 20
-139.038541631907
 30
0.0
 10
95.00125396520498
 20
-139.038541631907
 30
0.0
 10
94.95648886514965
 20
-139.0833444096738
 30
0.0
 10
94.95648886514965
 20
-139.1391538541042
 30
0.0
  0
POLYLINE
  5
F8
330
1F
100
AcDbEntity
  8
_U+30EC_U+30A4_U+30E4_U+30FC 1
 62
   179
420
  2234388
370
     9
100
AcDb2dPolyline
 66
     1
 10
0.0
 20
0.0
 30
0.0
  0
VERTEX
  5
F9
330
F8
100
AcDbEntity
  8
_U+30EC_U+30A4_U+30E4_U+30FC 1
 62
   179
420
  2234388
370
     9
100
AcDbVertex
100
AcDb2dVertex
 10
93.43238067189694
 20
-139.1391538541042
 30
0.0
  0
VERTEX
  5
FA
330
F8
100
AcDbEntity
  8
_U+30EC_U+30A4_U+30E4_U+30FC 1
 62
   179
420
  2234388
370
     9
100
AcDbVertex
100
AcDb2dVertex
 10
96.05616532718084
 20
-139.1391538541042
 30
0.0
  0
SEQEND
  5
FB
330
F8
100
AcDbEntity
  8
_U+30EC_U+30A4_U+30E4_U+30FC 1
 62
   179
420
  2234388
370
     9
  0
SPLINE
  5
FC
330
1F
100
AcDbEntity
  8
_U+30EC_U+30A4_U+30E4_U+30FC 1
 62
   179
420
  2234388
370
     9
100
AcDbSpline
210
0.0
220
0.0
230
1.0
 70
    11
 71
     3
 72
    17
 73
    13
 74
     0
 42
0.0000000001
 43
0.0000000001
 12
1.0
 22
0.0
 32
0.0
 13
1.0
 23
0.0
 33
0.0
 40
0.0
 40
0.0
 40
0.0
 40
0.0
 40
1.0
 40
1.0
 40
1.0
 40
2.0
 40
2.0
 40
2.0
 40
3.0
 40
3.0
 40
3.0
 40
4.0
 40
4.0
 40
4.0
 40
4.0
 10
94.95648886514965
 20
-152.1388738508541
 30
0.0
 10
94.95648886514965
 20
-152.193977739729
 30
0.0
 10
95.00125396520498
 20
-152.2387805174957
 30
0.0
 10
95.05639313046493
 20
-152.2387805174957
 30
0.0
 10
95.111497017948
 20
-152.2387805174957
 30
0.0
 10
95.15629979458276
 20
-152.193977739729
 30
0.0
 10
95.15629979458276
 20
-152.1388738508541
 30
0.0
 10
95.15629979458276
 20
-152.0830644064237
 30
0.0
 10
95.111497017948
 20
-152.038261628657
 30
0.0
 10
95.05639313046493
 20
-152.038261628657
 30
0.0
 10
95.00125396520498
 20
-152.038261628657
 30
0.0
 10
94.95648886514965
 20
-152.0830644064237
 30
0.0
 10
94.95648886514965
 20
-152.1388738508541
 30
0.0
  0
POLYLINE
  5
FD
330
1F
100
AcDbEntity
  8
_U+30EC_U+30A4_U+30E4_U+30FC 1
 62
   179
420
  2234388
370
     9
100
AcDb2dPolyline
 66
     1
 10
0.0
 20
0.0
 30
0.0
  0
VERTEX
  5
FE
330
FD
100
AcDbEntity
  8
_U+30EC_U+30A4_U+30E4_U+30FC 1
 62
   179
420
  2234388
370
     9
100
AcDbVertex
100
AcDb2dVertex
 10
93.43238067189694
 20
-152.1388738508541
 30
0.0
  0
VERTEX
  5
FF
330
FD
100
AcDbEntity
  8
_U+30EC_U+30A4_U+30E4_U+30FC 1
 62
   179
420
  2234388
370
     9
100
AcDbVertex
100
AcDb2dVertex
 10
96.05616532718084
 20
-152.1388738508541
 30
0.0
  0
SEQEND
  5
100
330
FD
100
AcDbEntity
  8
_U+30EC_U+30A4_U+30E4_U+30FC 1
 62
   179
420
  2234388
370
     9
  0
SPLINE
  5
101
330
1F
100
AcDbEntity
  8
_U+30EC_U+30A4_U+30E4_U+30FC 1
 62
   179
420
  2234388
370
     9
100
AcDbSpline
210
0.0
220
0.0
230
1.0
 70
    11
 71
     3
 72
    17
 73
    13
 74
     0
 42
0.0000000001
 43
0.0000000001
 12
1.0
 22
0.0
 32
0.0
 13
1.0
 23
0.0
 33
0.0
 40
0.0
 40
0.0
 40
0.0
 40
0.0
 40
1.0
 40
1.0
 40
1.0
 40
2.0
 40
2.0
 40
2.0
 40
3.0
 40
3.0
 40
3.0
 40
4.0
 40
4.0
 40
4.0
 40
4.0
 10
94.95648886514965
 20
-156.1393032942983
 30
0.0
 10
94.95648886514965
 20
-156.1944424609514
 30
0.0
 10
95.00125396520498
 20
-156.23920996094
 30
0.0
 10
95.05639313046493
 20
-156.23920996094
 30
0.0
 10
95.111497017948
 20
-156.23920996094
 30
0.0
 10
95.15629979458276
 20
-156.1944424609514
 30
0.0
 10
95.15629979458276
 20
-156.1393032942983
 30
0.0
 10
95.15629979458276
 20
-156.0834938498679
 30
0.0
 10
95.111497017948
 20
-156.0387263498794
 30
0.0
 10
95.05639313046493
 20
-156.0387263498794
 30
0.0
 10
95.00125396520498
 20
-156.0387263498794
 30
0.0
 10
94.95648886514965
 20
-156.0834938498679
 30
0.0
 10
94.95648886514965
 20
-156.1393032942983
 30
0.0
  0
POLYLINE
  5
102
330
1F
100
AcDbEntity
  8
_U+30EC_U+30A4_U+30E4_U+30FC 1
 62
   179
420
  2234388
370
     9
100
AcDb2dPolyline
 66
     1
 10
0.0
 20
0.0
 30
0.0
  0
VERTEX
  5
103
330
102
100
AcDbEntity
  8
_U+30EC_U+30A4_U+30E4_U+30FC 1
 62
   179
420
  2234388
370
     9
100
AcDbVertex
100
AcDb2dVertex
 10
93.43238067189694
 20
-156.1393032942983
 30
0.0
  0
VERTEX
  5
104
330
102
100
AcDbEntity
  8
_U+30EC_U+30A4_U+30E4_U+30FC 1
 62
   179
420
  2234388
370
     9
100
AcDbVertex
100
AcDb2dVertex
 10
96.05616532718084
 20
-156.1393032942983
 30
0.0
  0
SEQEND
  5
105
330
102
100
AcDbEntity
  8
_U+30EC_U+30A4_U+30E4_U+30FC 1
 62
   179
420
  2234388
370
     9
  0
POLYLINE
  5
106
330
1F
100
AcDbEntity
  8
_U+30EC_U+30A4_U+30E4_U+30FC 1
 62
   179
420
  2234388
370
     9
100
AcDb2dPolyline
 66
     1
 10
0.0
 20
0.0
 30
0.0
  0
VERTEX
  5
107
330
106
100
AcDbEntity
  8
_U+30EC_U+30A4_U+30E4_U+30FC 1
 62
   179
420
  2234388
370
     9
100
AcDbVertex
100
AcDb2dVertex
 10
89.29256883306789
 20
-129.6227616342612
 30
0.0
  0
VERTEX
  5
108
330
106
100
AcDbEntity
  8
_U+30EC_U+30A4_U+30E4_U+30FC 1
 62
   179
420
  2234388
370
     9
100
AcDbVertex
100
AcDb2dVertex
 10
76.32315277505637
 20
-129.6227616342612
 30
0.0
  0
SEQEND
  5
109
330
106
100
AcDbEntity
  8
_U+30EC_U+30A4_U+30E4_U+30FC 1
 62
   179
420
  2234388
370
     9
  0
SPLINE
  5
10A
330
1F
100
AcDbEntity
  8
_U+30EC_U+30A4_U+30E4_U+30FC 1
 62
   179
420
  2234388
370
     9
100
AcDbSpline
210
0.0
220
0.0
230
1.0
 70
    11
 71
     3
 72
    17
 73
    13
 74
     0
 42
0.0000000001
 43
0.0000000001
 12
1.0
 22
0.0
 32
0.0
 13
1.0
 23
0.0
 33
0.0
 40
0.0
 40
0.0
 40
0.0
 40
0.0
 40
1.0
 40
1.0
 40
1.0
 40
2.0
 40
2.0
 40
2.0
 40
3.0
 40
3.0
 40
3.0
 40
4.0
 40
4.0
 40
4.0
 40
4.0
 10
76.29284916471838
 20
-129.5228549676195
 30
0.0
 10
76.23770999945842
 20
-129.5228549676195
 30
0.0
 10
76.19294442539606
 20
-129.5676224676081
 30
0.0
 10
76.19294442539606
 20
-129.6227616342612
 30
0.0
 10
76.19294442539606
 20
-129.6778655231361
 30
0.0
 10
76.23770999945842
 20
-129.7226683009028
 30
0.0
 10
76.29284916471838
 20
-129.7226683009028
 30
0.0
 10
76.34795305220145
 20
-129.7226683009028
 30
0.0
 10
76.39275582883621
 20
-129.6778655231361
 30
0.0
 10
76.39275582883621
 20
-129.6227616342612
 30
0.0
 10
76.39275582883621
 20
-129.5676224676081
 30
0.0
 10
76.34795305220145
 20
-129.5228549676195
 30
0.0
 10
76.29284916471838
 20
-129.5228549676195
 30
0.0
  0
POLYLINE
  5
10B
330
1F
100
AcDbEntity
  8
_U+30EC_U+30A4_U+30E4_U+30FC 1
 62
   179
420
  2234388
370
     9
100
AcDb2dPolyline
 66
     1
 10
0.0
 20
0.0
 30
0.0
  0
VERTEX
  5
10C
330
10B
100
AcDbEntity
  8
_U+30EC_U+30A4_U+30E4_U+30FC 1
 62
   179
420
  2234388
370
     9
100
AcDbVertex
100
AcDb2dVertex
 10
76.29284916471838
 20
-128.1627202457371
 30
0.0
  0
VERTEX
  5
10D
330
10B
100
AcDbEntity
  8
_U+30EC_U+30A4_U+30E4_U+30FC 1
 62
   179
420
  2234388
370
     9
100
AcDbVertex
100
AcDb2dVertex
 10
76.29284916471838
 20
-130.9036271894961
 30
0.0
  0
SEQEND
  5
10E
330
10B
100
AcDbEntity
  8
_U+30EC_U+30A4_U+30E4_U+30FC 1
 62
   179
420
  2234388
370
     9
  0
SPLINE
  5
10F
330
1F
100
AcDbEntity
  8
_U+30EC_U+30A4_U+30E4_U+30FC 1
 62
   179
420
  2234388
370
     9
100
AcDbSpline
210
0.0
220
0.0
230
1.0
 70
    11
 71
     3
 72
    17
 73
    13
 74
     0
 42
0.0000000001
 43
0.0000000001
 12
1.0
 22
0.0
 32
0.0
 13
1.0
 23
0.0
 33
0.0
 40
0.0
 40
0.0
 40
0.0
 40
0.0
 40
1.0
 40
1.0
 40
1.0
 40
2.0
 40
2.0
 40
2.0
 40
3.0
 40
3.0
 40
3.0
 40
4.0
 40
4.0
 40
4.0
 40
4.0
 10
79.29283603262678
 20
-129.5228549676195
 30
0.0
 10
79.23769686736682
 20
-129.5228549676195
 30
0.0
 10
79.19292936850894
 20
-129.5676224676081
 30
0.0
 10
79.19292936850894
 20
-129.6227616342612
 30
0.0
 10
79.19292936850894
 20
-129.6778655231361
 30
0.0
 10
79.23769686736682
 20
-129.7226683009028
 30
0.0
 10
79.29283603262678
 20
-129.7226683009028
 30
0.0
 10
79.34793992010985
 20
-129.7226683009028
 30
0.0
 10
79.3927426967446
 20
-129.6778655231361
 30
0.0
 10
79.3927426967446
 20
-129.6227616342612
 30
0.0
 10
79.3927426967446
 20
-129.5676224676081
 30
0.0
 10
79.34793992010985
 20
-129.5228549676195
 30
0.0
 10
79.29283603262678
 20
-129.5228549676195
 30
0.0
  0
POLYLINE
  5
110
330
1F
100
AcDbEntity
  8
_U+30EC_U+30A4_U+30E4_U+30FC 1
 62
   179
420
  2234388
370
     9
100
AcDb2dPolyline
 66
     1
 10
0.0
 20
0.0
 30
0.0
  0
VERTEX
  5
111
330
110
100
AcDbEntity
  8
_U+30EC_U+30A4_U+30E4_U+30FC 1
 62
   179
420
  2234388
370
     9
100
AcDbVertex
100
AcDb2dVertex
 10
79.29283603262678
 20
-128.1627202457371
 30
0.0
  0
VERTEX
  5
112
330
110
100
AcDbEntity
  8
_U+30EC_U+30A4_U+30E4_U+30FC 1
 62
   179
420
  2234388
370
     9
100
AcDbVertex
100
AcDb2dVertex
 10
79.29283603262678
 20
-130.9036271894961
 30
0.0
  0
SEQEND
  5
113
330
110
100
AcDbEntity
  8
_U+30EC_U+30A4_U+30E4_U+30FC 1
 62
   179
420
  2234388
370
     9
  0
INSERT
  5
115
330
1F
100
AcDbEntity
  8
_U+30EC_U+30A4_U+30E4_U+30FC 1
100
AcDbBlockReference
  2
block 7
 10
0.0
 20
0.0
 30
0.0
  0
INSERT
  5
11B
330
1F
100
AcDbEntity
  8
_U+30EC_U+30A4_U+30E4_U+30FC 1
100
AcDbBlockReference
  2
block 8
 10
0.0
 20
0.0
 30
0.0
  0
POLYLINE
  5
123
330
1F
100
AcDbEntity
  8
_U+30EC_U+30A4_U+30E4_U+30FC 1
 62
   179
420
  2234388
370
     9
100
AcDb2dPolyline
 66
     1
 10
0.0
 20
0.0
 30
0.0
  0
VERTEX
  5
124
330
123
100
AcDbEntity
  8
_U+30EC_U+30A4_U+30E4_U+30FC 1
 62
   179
420
  2234388
370
     9
100
AcDbVertex
100
AcDb2dVertex
 10
73.29078090797418
 20
-156.1393032942983
 30
0.0
  0
VERTEX
  5
125
330
123
100
AcDbEntity
  8
_U+30EC_U+30A4_U+30E4_U+30FC 1
 62
   179
420
  2234388
370
     9
100
AcDbVertex
100
AcDb2dVertex
 10
73.29078090797418
 20
-133.1398502444929
 30
0.0
  0
SEQEND
  5
126
330
123
100
AcDbEntity
  8
_U+30EC_U+30A4_U+30E4_U+30FC 1
 62
   179
420
  2234388
370
     9
  0
POLYLINE
  5
127
330
1F
100
AcDbEntity
  8
_U+30EC_U+30A4_U+30E4_U+30FC 1
 62
   179
420
  2234388
370
     9
100
AcDb2dPolyline
 66
     1
 10
0.0
 20
0.0
 30
0.0
  0
VERTEX
  5
128
330
127
100
AcDbEntity
  8
_U+30EC_U+30A4_U+30E4_U+30FC 1
 62
   179
420
  2234388
370
     9
100
AcDbVertex
100
AcDb2dVertex
 10
74.29263449352588
 20
-156.1393032942983
 30
0.0
  0
VERTEX
  5
129
330
127
100
AcDbEntity
  8
_U+30EC_U+30A4_U+30E4_U+30FC 1
 62
   179
420
  2234388
370
     9
100
AcDbVertex
100
AcDb2dVertex
 10
71.81835705664996
 20
-156.1393032942983
 30
0.0
  0
SEQEND
  5
12A
330
127
100
AcDbEntity
  8
_U+30EC_U+30A4_U+30E4_U+30FC 1
 62
   179
420
  2234388
370
     9
  0
INSERT
  5
12C
330
1F
100
AcDbEntity
  8
_U+30EC_U+30A4_U+30E4_U+30FC 1
100
AcDbBlockReference
  2
block 9
 10
0.0
 20
0.0
 30
0.0
  0
SPLINE
  5
133
330
1F
100
AcDbEntity
  8
_U+30EC_U+30A4_U+30E4_U+30FC 1
 62
   179
420
  2234388
370
     9
100
AcDbSpline
210
0.0
220
0.0
230
1.0
 70
    11
 71
     3
 72
    17
 73
    13
 74
     0
 42
0.0000000001
 43
0.0000000001
 12
1.0
 22
0.0
 32
0.0
 13
1.0
 23
0.0
 33
0.0
 40
0.0
 40
0.0
 40
0.0
 40
0.0
 40
1.0
 40
1.0
 40
1.0
 40
2.0
 40
2.0
 40
2.0
 40
3.0
 40
3.0
 40
3.0
 40
4.0
 40
4.0
 40
4.0
 40
4.0
 10
73.38448053720953
 20
-156.1379274609655
 30
0.0
 10
73.38448053720953
 20
-156.0828235720905
 30
0.0
 10
73.34006396227242
 20
-156.0380207943238
 30
0.0
 10
73.2845720192437
 20
-156.0380207943238
 30
0.0
 10
73.22946813176063
 20
-156.0380207943238
 30
0.0
 10
73.18466535512586
 20
-156.0828235720905
 30
0.0
 10
73.18466535512586
 20
-156.1379274609655
 30
0.0
 10
73.18466535512586
 20
-156.1937369053959
 30
0.0
 10
73.22946813176063
 20
-156.2385396831626
 30
0.0
 10
73.2845720192437
 20
-156.2385396831626
 30
0.0
 10
73.34006396227242
 20
-156.2385396831626
 30
0.0
 10
73.38448053720953
 20
-156.1937369053959
 30
0.0
 10
73.38448053720953
 20
-156.1379274609655
 30
0.0
  0
POLYLINE
  5
134
330
1F
100
AcDbEntity
  8
_U+30EC_U+30A4_U+30E4_U+30FC 1
 62
   179
420
  2234388
370
     9
100
AcDb2dPolyline
 66
     1
 10
0.0
 20
0.0
 30
0.0
  0
VERTEX
  5
135
330
134
100
AcDbEntity
  8
_U+30EC_U+30A4_U+30E4_U+30FC 1
 62
   179
420
  2234388
370
     9
100
AcDbVertex
100
AcDb2dVertex
 10
74.29263449352588
 20
-133.1391446889374
 30
0.0
  0
VERTEX
  5
136
330
134
100
AcDbEntity
  8
_U+30EC_U+30A4_U+30E4_U+30FC 1
 62
   179
420
  2234388
370
     9
100
AcDbVertex
100
AcDb2dVertex
 10
71.81835705664996
 20
-133.1391446889374
 30
0.0
  0
SEQEND
  5
137
330
134
100
AcDbEntity
  8
_U+30EC_U+30A4_U+30E4_U+30FC 1
 62
   179
420
  2234388
370
     9
  0
SPLINE
  5
138
330
1F
100
AcDbEntity
  8
_U+30EC_U+30A4_U+30E4_U+30FC 1
 62
   179
420
  2234388
370
     9
100
AcDbSpline
210
0.0
220
0.0
230
1.0
 70
    11
 71
     3
 72
    17
 73
    13
 74
     0
 42
0.0000000001
 43
0.0000000001
 12
1.0
 22
0.0
 32
0.0
 13
1.0
 23
0.0
 33
0.0
 40
0.0
 40
0.0
 40
0.0
 40
0.0
 40
1.0
 40
1.0
 40
1.0
 40
2.0
 40
2.0
 40
2.0
 40
3.0
 40
3.0
 40
3.0
 40
4.0
 40
4.0
 40
4.0
 40
4.0
 10
73.38448053720953
 20
-133.1377688556045
 30
0.0
 10
73.38448053720953
 20
-133.0826649667295
 30
0.0
 10
73.34006396227242
 20
-133.0385677445184
 30
0.0
 10
73.2845720192437
 20
-133.0385677445184
 30
0.0
 10
73.22946813176063
 20
-133.0385677445184
 30
0.0
 10
73.18466535512586
 20
-133.0826649667295
 30
0.0
 10
73.18466535512586
 20
-133.1377688556045
 30
0.0
 10
73.18466535512586
 20
-133.1935783000349
 30
0.0
 10
73.22946813176063
 20
-133.2383810778016
 30
0.0
 10
73.2845720192437
 20
-133.2383810778016
 30
0.0
 10
73.34006396227242
 20
-133.2383810778016
 30
0.0
 10
73.38448053720953
 20
-133.1935783000349
 30
0.0
 10
73.38448053720953
 20
-133.1377688556045
 30
0.0
  0
POLYLINE
  5
139
330
1F
100
AcDbEntity
  8
_U+30EC_U+30A4_U+30E4_U+30FC 1
 62
   179
420
  2234388
370
     9
100
AcDb2dPolyline
 66
     1
 10
0.0
 20
0.0
 30
0.0
  0
VERTEX
  5
13A
330
139
100
AcDbEntity
  8
_U+30EC_U+30A4_U+30E4_U+30FC 1
 62
   179
420
  2234388
370
     9
100
AcDbVertex
100
AcDb2dVertex
 10
92.29273208986069
 20
-157.1390755162709
 30
0.0
  0
VERTEX
  5
13B
330
139
100
AcDbEntity
  8
_U+30EC_U+30A4_U+30E4_U+30FC 1
 62
   179
420
  2234388
370
     9
100
AcDbVertex
100
AcDb2dVertex
 10
95.95004977433251
 20
-160.1879927377306
 30
0.0
  0
SEQEND
  5
13C
330
139
100
AcDbEntity
  8
_U+30EC_U+30A4_U+30E4_U+30FC 1
 62
   179
420
  2234388
370
     9
  0
POLYLINE
  5
13D
330
1F
100
AcDbEntity
  8
_U+30EC_U+30A4_U+30E4_U+30FC 1
 62
   179
420
  2234388
370
     9
100
AcDb2dPolyline
 66
     1
 10
0.0
 20
0.0
 30
0.0
  0
VERTEX
  5
13E
330
13D
100
AcDbEntity
  8
_U+30EC_U+30A4_U+30E4_U+30FC 1
 62
   179
420
  2234388
370
     9
100
AcDbVertex
100
AcDb2dVertex
 10
92.86945553233834
 20
-157.9562499605109
 30
0.0
  0
VERTEX
  5
13F
330
13D
100
AcDbEntity
  8
_U+30EC_U+30A4_U+30E4_U+30FC 1
 62
   179
420
  2234388
370
     9
100
AcDbVertex
100
AcDb2dVertex
 10
92.29273208986069
 20
-157.1390755162709
 30
0.0
  0
VERTEX
  5
140
330
13D
100
AcDbEntity
  8
_U+30EC_U+30A4_U+30E4_U+30FC 1
 62
   179
420
  2234388
370
     9
100
AcDbVertex
100
AcDb2dVertex
 10
93.20018234448747
 20
-157.5593749606102
 30
0.0
  0
SEQEND
  5
141
330
13D
100
AcDbEntity
  8
_U+30EC_U+30A4_U+30E4_U+30FC 1
 62
   179
420
  2234388
370
     9
  0
INSERT
  5
143
330
1F
100
AcDbEntity
  8
_U+30EC_U+30A4_U+30E4_U+30FC 1
100
AcDbBlockReference
  2
block 10
 10
0.0
 20
0.0
 30
0.0
  0
ENDSEC
  0
SECTION
  2
OBJECTS
  0
DICTIONARY
  5
C
330
0
100
AcDbDictionary
281
     1
  3
ACAD_GROUP
350
D
  3
ACAD_LAYOUT
350
1A
  3
ACAD_MATERIAL
350
3B
  3
ACAD_MLEADERSTYLE
350
181
  3
ACAD_MLINESTYLE
350
17
  3
ACAD_PLOTSETTINGS
350
19
  3
ACAD_PLOTSTYLENAME
350
E
  3
ACAD_TABLESTYLE
350
180
  3
ACAD_VISUALSTYLE
350
2A
  0
SUN
  5
3F
330
29
100
AcDbSun
 90
        1
290
     0
 63
     7
421
 16777215
 40
1.0
291
     1
 91
  2455826
 92
 54000000
292
     0
 70
     2
 71
   256
280
     1
  0
DICTIONARY
  5
D
102
{ACAD_REACTORS
330
C
102
}
330
C
100
AcDbDictionary
281
     1
  0
DICTIONARY
  5
1A
102
{ACAD_REACTORS
330
C
102
}
330
C
100
AcDbDictionary
281
     1
  3
Layout1
350
1E
  3
Layout2
350
26
  3
Model
350
22
  0
DICTIONARY
  5
3B
102
{ACAD_REACTORS
330
C
102
}
330
C
100
AcDbDictionary
281
     1
  3
ByBlock
350
3D
  3
ByLayer
350
3C
  3
Global
350
3E
  0
DICTIONARY
  5
181
102
{ACAD_REACTORS
330
C
102
}
330
C
100
AcDbDictionary
281
     1
  0
DICTIONARY
  5
17
102
{ACAD_REACTORS
330
C
102
}
330
C
100
AcDbDictionary
281
     1
  3
Standard
350
18
  0
DICTIONARY
  5
19
102
{ACAD_REACTORS
330
C
102
}
330
C
100
AcDbDictionary
281
     1
  0
ACDBDICTIONARYWDFLT
  5
E
102
{ACAD_REACTORS
330
C
102
}
330
C
100
AcDbDictionary
281
     1
  3
Normal
350
F
100
AcDbDictionaryWithDefault
340
F
  0
DICTIONARY
  5
180
102
{ACAD_REACTORS
330
C
102
}
330
C
100
AcDbDictionary
281
     1
  0
DICTIONARY
  5
2A
102
{ACAD_REACTORS
330
C
102
}
330
C
100
AcDbDictionary
281
     1
  3
2dWireframe
350
2F
  3
3D Hidden
350
31
  3
3dWireframe
350
30
  3
Basic
350
32
  3
Brighten
350
36
  3
ColorChange
350
3A
  3
Conceptual
350
34
  3
Dim
350
35
  3
Facepattern
350
39
  3
Flat
350
2B
  3
FlatWithEdges
350
2C
  3
Gouraud
350
2D
  3
GouraudWithEdges
350
2E
  3
Linepattern
350
38
  3
Realistic
350
33
  3
Thicken
350
37
  0
LAYOUT
  5
1E
102
{ACAD_REACTORS
330
1A
102
}
330
1A
100
AcDbPlotSettings
  1

  2
none_device
  4

  6

 40
0.0
 41
0.0
 42
0.0
 43
0.0
 44
0.0
 45
0.0
 46
0.0
 47
0.0
 48
0.0
 49
0.0
140
0.0
141
0.0
142
1.0
143
1.0
 70
   688
 72
     0
 73
     0
 74
     5
  7

 75
    16
 76
     0
 77
     2
 78
   300
147
1.0
148
0.0
149
0.0
100
AcDbLayout
  1
Layout1
 70
     1
 71
     1
 10
0.0
 20
0.0
 11
12.0
 21
9.0
 12
0.0
 22
0.0
 32
0.0
 14
1.000000000000000E+20
 24
1.000000000000000E+20
 34
1.000000000000000E+20
 15
-1.000000000000000E+20
 25
-1.000000000000000E+20
 35
-1.000000000000000E+20
146
0.0
 13
0.0
 23
0.0
 33
0.0
 16
1.0
 26
0.0
 36
0.0
 17
0.0
 27
1.0
 37
0.0
 76
     0
330
1B
  0
LAYOUT
  5
26
102
{ACAD_REACTORS
330
1A
102
}
330
1A
100
AcDbPlotSettings
  1

  2
none_device
  4

  6

 40
0.0
 41
0.0
 42
0.0
 43
0.0
 44
0.0
 45
0.0
 46
0.0
 47
0.0
 48
0.0
 49
0.0
140
0.0
141
0.0
142
1.0
143
1.0
 70
   688
 72
     0
 73
     0
 74
     5
  7

 75
    16
 76
     0
 77
     2
 78
   300
147
1.0
148
0.0
149
0.0
100
AcDbLayout
  1
Layout2
 70
     1
 71
     2
 10
0.0
 20
0.0
 11
0.0
 21
0.0
 12
0.0
 22
0.0
 32
0.0
 14
0.0
 24
0.0
 34
0.0
 15
0.0
 25
0.0
 35
0.0
146
0.0
 13
0.0
 23
0.0
 33
0.0
 16
1.0
 26
0.0
 36
0.0
 17
0.0
 27
1.0
 37
0.0
 76
     0
330
23
  0
LAYOUT
  5
22
102
{ACAD_REACTORS
330
1A
102
}
330
1A
100
AcDbPlotSettings
  1

  2
none_device
  4

  6

 40
0.0
 41
0.0
 42
0.0
 43
0.0
 44
0.0
 45
0.0
 46
0.0
 47
0.0
 48
0.0
 49
0.0
140
0.0
141
0.0
142
1.0
143
1.0
 70
  1712
 72
     0
 73
     0
 74
     0
  7

 75
     0
 76
     0
 77
     2
 78
   300
147
1.0
148
0.0
149
0.0
100
AcDbLayout
  1
Model
 70
     1
 71
     0
 10
0.0
 20
0.0
 11
12.0
 21
9.0
 12
0.0
 22
0.0
 32
0.0
 14
1.000000000000000E+20
 24
1.000000000000000E+20
 34
1.000000000000000E+20
 15
-1.000000000000000E+20
 25
-1.000000000000000E+20
 35
-1.000000000000000E+20
146
0.0
 13
0.0
 23
0.0
 33
0.0
 16
1.0
 26
0.0
 36
0.0
 17
0.0
 27
1.0
 37
0.0
 76
     0
330
1F
331
29
  0
MATERIAL
  5
3D
102
{ACAD_REACTORS
330
3B
102
}
330
3B
100
AcDbMaterial
  1
ByBlock
 72
     1
 94
      127
  0
MATERIAL
  5
3C
102
{ACAD_REACTORS
330
3B
102
}
330
3B
100
AcDbMaterial
  1
ByLayer
 72
     1
 94
      127
  0
MATERIAL
  5
3E
102
{ACAD_REACTORS
330
3B
102
}
330
3B
100
AcDbMaterial
  1
Global
 72
     1
 94
      127
  0
MLINESTYLE
  5
18
102
{ACAD_REACTORS
330
17
102
}
330
17
100
AcDbMlineStyle
  2
Standard
 70
     0
  3

 62
   256
 51
90.0
 52
90.0
 71
     2
 49
0.5
 62
   256
  6
BYLAYER
 49
-0.5
 62
   256
  6
BYLAYER
  0
ACDBPLACEHOLDER
  5
F
102
{ACAD_REACTORS
330
E
102
}
330
E
  0
VISUALSTYLE
  5
2F
102
{ACAD_REACTORS
330
2A
102
}
330
2A
100
AcDbVisualStyle
  2
2dWireframe
 70
     4
177
     2
291
     0
 71
     0
176
     1
 72
     2
176
     1
 73
     0
176
     1
 90
        0
176
     1
 40
-0.6
176
     1
 41
-30.0
176
     1
 62
     5
 63
     7
421
 16777215
176
     1
 74
     1
176
     1
 91
        4
176
     1
 64
     7
176
     1
 65
   257
176
     1
 75
     1
176
     1
175
     1
176
     1
 42
1.0
176
     1
 92
        0
176
     1
 66
   257
176
     1
 43
1.0
176
     1
 76
     1
176
     1
 77
     6
176
     1
 78
     2
176
     1
 67
     7
176
     1
 79
     5
176
     1
170
     0
176
     1
171
     0
176
     1
290
     0
176
     1
 93
        1
176
     1
 44
0.0
176
     1
173
     0
176
     1
  0
VISUALSTYLE
  5
31
102
{ACAD_REACTORS
330
2A
102
}
330
2A
100
AcDbVisualStyle
  2
3D Hidden
 70
     6
177
     2
291
     0
 71
     1
176
     1
 72
     2
176
     1
 73
     2
176
     1
 90
        0
176
     1
 40
-0.6
176
     1
 41
-30.0
176
     1
 62
     5
 63
     7
421
 16777215
176
     1
 74
     2
176
     1
 91
        2
176
     1
 64
     7
176
     1
 65
   257
176
     1
 75
     2
176
     1
175
     1
176
     1
 42
40.0
176
     1
 92
        0
176
     1
 66
   257
176
     1
 43
1.0
176
     1
 76
     1
176
     1
 77
     6
176
     1
 78
     2
176
     1
 67
     7
176
     1
 79
     3
176
     1
170
     0
176
     1
171
     0
176
     1
290
     0
176
     1
 93
        1
176
     1
 44
0.0
176
     1
173
     0
176
     1
  0
VISUALSTYLE
  5
30
102
{ACAD_REACTORS
330
2A
102
}
330
2A
100
AcDbVisualStyle
  2
3dWireframe
 70
     5
177
     2
291
     0
 71
     0
176
     1
 72
     2
176
     1
 73
     0
176
     1
 90
        0
176
     1
 40
-0.6
176
     1
 41
-30.0
176
     1
 62
     5
 63
     7
421
 16777215
176
     1
 74
     1
176
     1
 91
        4
176
     1
 64
     7
176
     1
 65
   257
176
     1
 75
     1
176
     1
175
     1
176
     1
 42
1.0
176
     1
 92
        0
176
     1
 66
   257
176
     1
 43
1.0
176
     1
 76
     1
176
     1
 77
     6
176
     1
 78
     2
176
     1
 67
     7
176
     1
 79
     5
176
     1
170
     0
176
     1
171
     0
176
     1
290
     0
176
     1
 93
        1
176
     1
 44
0.0
176
     1
173
     0
176
     1
  0
VISUALSTYLE
  5
32
102
{ACAD_REACTORS
330
2A
102
}
330
2A
100
AcDbVisualStyle
  2
Basic
 70
     7
177
     2
291
     1
 71
     1
176
     1
 72
     0
176
     1
 73
     1
176
     1
 90
        0
176
     1
 40
-0.6
176
     1
 41
-30.0
176
     1
 62
     5
 63
     7
421
 16777215
176
     1
 74
     0
176
     1
 91
        4
176
     1
 64
     7
176
     1
 65
   257
176
     1
 75
     1
176
     1
175
     1
176
     1
 42
1.0
176
     1
 92
        8
176
     1
 66
     7
176
     1
 43
1.0
176
     1
 76
     1
176
     1
 77
     6
176
     1
 78
     2
176
     1
 67
     7
176
     1
 79
     5
176
     1
170
     0
176
     1
171
     0
176
     1
290
     0
176
     1
 93
        1
176
     1
 44
0.0
176
     1
173
     0
176
     1
  0
VISUALSTYLE
  5
36
102
{ACAD_REACTORS
330
2A
102
}
330
2A
100
AcDbVisualStyle
  2
Brighten
 70
    12
177
     2
291
     1
 71
     2
176
     1
 72
     2
176
     1
 73
     0
176
     1
 90
        0
176
     1
 40
-0.6
176
     1
 41
-30.0
176
     1
 62
     5
 63
     7
421
 16777215
176
     1
 74
     1
176
     1
 91
        4
176
     1
 64
     7
176
     1
 65
   257
176
     1
 75
     1
176
     1
175
     1
176
     1
 42
1.0
176
     1
 92
        8
176
     1
 66
     7
176
     1
 43
1.0
176
     1
 76
     1
176
     1
 77
     6
176
     1
 78
     2
176
     1
 67
     7
176
     1
 79
     5
176
     1
170
     0
176
     1
171
     0
176
     1
290
     0
176
     1
 93
        1
176
     1
 44
50.0
176
     1
173
     0
176
     1
  0
VISUALSTYLE
  5
3A
102
{ACAD_REACTORS
330
2A
102
}
330
2A
100
AcDbVisualStyle
  2
ColorChange
 70
    16
177
     2
291
     1
 71
     2
176
     1
 72
     2
176
     1
 73
     3
176
     1
 90
        0
176
     1
 40
-0.6
176
     1
 41
-30.0
176
     1
 62
     5
 63
     8
421
  8421504
176
     1
 74
     1
176
     1
 91
        4
176
     1
 64
     7
176
     1
 65
   257
176
     1
 75
     1
176
     1
175
     1
176
     1
 42
1.0
176
     1
 92
        8
176
     1
 66
     8
424
  8421504
176
     1
 43
1.0
176
     1
 76
     1
176
     1
 77
     6
176
     1
 78
     2
176
     1
 67
     7
176
     1
 79
     5
176
     1
170
     0
176
     1
171
     0
176
     1
290
     0
176
     1
 93
        1
176
     1
 44
0.0
176
     1
173
     0
176
     1
  0
VISUALSTYLE
  5
34
102
{ACAD_REACTORS
330
2A
102
}
330
2A
100
AcDbVisualStyle
  2
Conceptual
 70
     9
177
     2
291
     0
 71
     3
176
     1
 72
     2
176
     1
 73
     0
176
     1
 90
        0
176
     1
 40
-0.6
176
     1
 41
-30.0
176
     1
 62
     5
 63
     7
421
 16777215
176
     1
 74
     2
176
     1
 91
        2
176
     1
 64
     7
176
     1
 65
   257
176
     1
 75
     1
176
     1
175
     1
176
     1
 42
40.0
176
     1
 92
        8
176
     1
 66
     7
176
     1
 43
1.0
176
     1
 76
     1
176
     1
 77
     6
176
     1
 78
     2
176
     1
 67
     7
176
     1
 79
     3
176
     1
170
     0
176
     1
171
     0
176
     1
290
     0
176
     1
 93
        1
176
     1
 44
0.0
176
     1
173
     0
176
     1
  0
VISUALSTYLE
  5
35
102
{ACAD_REACTORS
330
2A
102
}
330
2A
100
AcDbVisualStyle
  2
Dim
 70
    11
177
     2
291
     1
 71
     2
176
     1
 72
     2
176
     1
 73
     0
176
     1
 90
        0
176
     1
 40
-0.6
176
     1
 41
-30.0
176
     1
 62
     5
 63
     7
421
 16777215
176
     1
 74
     1
176
     1
 91
        4
176
     1
 64
     7
176
     1
 65
   257
176
     1
 75
     1
176
     1
175
     1
176
     1
 42
1.0
176
     1
 92
        8
176
     1
 66
     7
176
     1
 43
1.0
176
     1
 76
     1
176
     1
 77
     6
176
     1
 78
     2
176
     1
 67
     7
176
     1
 79
     5
176
     1
170
     0
176
     1
171
     0
176
     1
290
     0
176
     1
 93
        1
176
     1
 44
-50.0
176
     1
173
     0
176
     1
  0
VISUALSTYLE
  5
39
102
{ACAD_REACTORS
330
2A
102
}
330
2A
100
AcDbVisualStyle
  2
Facepattern
 70
    15
177
     2
291
     1
 71
     2
176
     1
 72
     2
176
     1
 73
     0
176
     1
 90
        0
176
     1
 40
-0.6
176
     1
 41
-30.0
176
     1
 62
     5
 63
     7
421
 16777215
176
     1
 74
     1
176
     1
 91
        4
176
     1
 64
     7
176
     1
 65
   257
176
     1
 75
     1
176
     1
175
     1
176
     1
 42
1.0
176
     1
 92
        8
176
     1
 66
     7
176
     1
 43
1.0
176
     1
 76
     1
176
     1
 77
     6
176
     1
 78
     2
176
     1
 67
     7
176
     1
 79
     5
176
     1
170
     0
176
     1
171
     0
176
     1
290
     0
176
     1
 93
        1
176
     1
 44
0.0
176
     1
173
     0
176
     1
  0
VISUALSTYLE
  5
2B
102
{ACAD_REACTORS
330
2A
102
}
330
2A
100
AcDbVisualStyle
  2
Flat
 70
     0
177
     2
291
     1
 71
     2
176
     1
 72
     1
176
     1
 73
     1
176
     1
 90
        2
176
     1
 40
-0.6
176
     1
 41
30.0
176
     1
 62
     5
 63
     7
421
 16777215
176
     1
 74
     0
176
     1
 91
        4
176
     1
 64
     7
176
     1
 65
   257
176
     1
 75
     1
176
     1
175
     1
176
     1
 42
1.0
176
     1
 92
        8
176
     1
 66
     7
176
     1
 43
1.0
176
     1
 76
     1
176
     1
 77
     6
176
     1
 78
     2
176
     1
 67
     7
176
     1
 79
     5
176
     1
170
     0
176
     1
171
     0
176
     1
290
     0
176
     1
 93
       13
176
     1
 44
0.0
176
     1
173
     0
176
     1
  0
VISUALSTYLE
  5
2C
102
{ACAD_REACTORS
330
2A
102
}
330
2A
100
AcDbVisualStyle
  2
FlatWithEdges
 70
     1
177
     2
291
     1
 71
     2
176
     1
 72
     1
176
     1
 73
     1
176
     1
 90
        2
176
     1
 40
-0.6
176
     1
 41
30.0
176
     1
 62
     5
 63
     7
421
 16777215
176
     1
 74
     1
176
     1
 91
        4
176
     1
 64
     7
176
     1
 65
   257
176
     1
 75
     1
176
     1
175
     1
176
     1
 42
1.0
176
     1
 92
        0
176
     1
 66
   257
176
     1
 43
1.0
176
     1
 76
     1
176
     1
 77
     6
176
     1
 78
     2
176
     1
 67
     7
176
     1
 79
     5
176
     1
170
     0
176
     1
171
     0
176
     1
290
     0
176
     1
 93
       13
176
     1
 44
0.0
176
     1
173
     0
176
     1
  0
VISUALSTYLE
  5
2D
102
{ACAD_REACTORS
330
2A
102
}
330
2A
100
AcDbVisualStyle
  2
Gouraud
 70
     2
177
     2
291
     1
 71
     2
176
     1
 72
     2
176
     1
 73
     1
176
     1
 90
        2
176
     1
 40
-0.6
176
     1
 41
30.0
176
     1
 62
     5
 63
     7
421
 16777215
176
     1
 74
     0
176
     1
 91
        4
176
     1
 64
     7
176
     1
 65
   257
176
     1
 75
     1
176
     1
175
     1
176
     1
 42
1.0
176
     1
 92
        0
176
     1
 66
     7
176
     1
 43
1.0
176
     1
 76
     1
176
     1
 77
     6
176
     1
 78
     2
176
     1
 67
     7
176
     1
 79
     5
176
     1
170
     0
176
     1
171
     0
176
     1
290
     0
176
     1
 93
       13
176
     1
 44
0.0
176
     1
173
     0
176
     1
  0
VISUALSTYLE
  5
2E
102
{ACAD_REACTORS
330
2A
102
}
330
2A
100
AcDbVisualStyle
  2
GouraudWithEdges
 70
     3
177
     2
291
     1
 71
     2
176
     1
 72
     2
176
     1
 73
     1
176
     1
 90
        2
176
     1
 40
-0.6
176
     1
 41
30.0
176
     1
 62
     5
 63
     7
421
 16777215
176
     1
 74
     1
176
     1
 91
        4
176
     1
 64
     7
176
     1
 65
   257
176
     1
 75
     1
176
     1
175
     1
176
     1
 42
1.0
176
     1
 92
        0
176
     1
 66
   257
176
     1
 43
1.0
176
     1
 76
     1
176
     1
 77
     6
176
     1
 78
     2
176
     1
 67
     7
176
     1
 79
     5
176
     1
170
     0
176
     1
171
     0
176
     1
290
     0
176
     1
 93
       13
176
     1
 44
0.0
176
     1
173
     0
176
     1
  0
VISUALSTYLE
  5
38
102
{ACAD_REACTORS
330
2A
102
}
330
2A
100
AcDbVisualStyle
  2
Linepattern
 70
    14
177
     2
291
     1
 71
     2
176
     1
 72
     2
176
     1
 73
     0
176
     1
 90
        0
176
     1
 40
-0.6
176
     1
 41
-30.0
176
     1
 62
     5
 63
     7
421
 16777215
176
     1
 74
     1
176
     1
 91
        4
176
     1
 64
     7
176
     1
 65
   257
176
     1
 75
     7
176
     1
175
     7
176
     1
 42
1.0
176
     1
 92
        8
176
     1
 66
     7
176
     1
 43
1.0
176
     1
 76
     1
176
     1
 77
     6
176
     1
 78
     2
176
     1
 67
     7
176
     1
 79
     5
176
     1
170
     0
176
     1
171
     0
176
     1
290
     0
176
     1
 93
        1
176
     1
 44
0.0
176
     1
173
     0
176
     1
  0
VISUALSTYLE
  5
33
102
{ACAD_REACTORS
330
2A
102
}
330
2A
100
AcDbVisualStyle
  2
Realistic
 70
     8
177
     2
291
     0
 71
     2
176
     1
 72
     2
176
     1
 73
     0
176
     1
 90
        0
176
     1
 40
-0.6
176
     1
 41
-30.0
176
     1
 62
     5
 63
     7
421
 16777215
176
     1
 74
     1
176
     1
 91
        0
176
     1
 64
     7
176
     1
 65
   257
176
     1
 75
     1
176
     1
175
     1
176
     1
 42
1.0
176
     1
 92
        8
176
     1
 66
     8
424
  7895160
176
     1
 43
1.0
176
     1
 76
     1
176
     1
 77
     6
176
     1
 78
     2
176
     1
 67
     7
176
     1
 79
     5
176
     1
170
     0
176
     1
171
     0
176
     1
290
     0
176
     1
 93
       13
176
     1
 44
0.0
176
     1
173
     0
176
     1
  0
VISUALSTYLE
  5
37
102
{ACAD_REACTORS
330
2A
102
}
330
2A
100
AcDbVisualStyle
  2
Thicken
 70
    13
177
     2
291
     1
 71
     2
176
     1
 72
     2
176
     1
 73
     0
176
     1
 90
        0
176
     1
 40
-0.6
176
     1
 41
-30.0
176
     1
 62
     5
 63
     7
421
 16777215
176
     1
 74
     1
176
     1
 91
        4
176
     1
 64
     7
176
     1
 65
   257
176
     1
 75
     1
176
     1
175
     1
176
     1
 42
1.0
176
     1
 92
       12
176
     1
 66
     7
176
     1
 43
1.0
176
     1
 76
     1
176
     1
 77
     6
176
     1
 78
     2
176
     1
 67
     7
176
     1
 79
     5
176
     1
170
     0
176
     1
171
     0
176
     1
290
     0
176
     1
 93
        1
176
     1
 44
0.0
176
     1
173
     0
176
     1
  0
ENDSEC
  0
EOF
