  0
SECTION
  2
HEADER
  9
$ACADVER
  1
AC1024
  9
$ACADMAINTVER
 70
     6
  9
$DWGCODEPAGE
  3
UNDEFINED
  9
$INSBASE
 10
0.0
 20
0.0
 30
0.0
  9
$EXTMIN
 10
1.000000000000000E+20
 20
1.000000000000000E+20
 30
1.000000000000000E+20
  9
$EXTMAX
 10
-1.000000000000000E+20
 20
-1.000000000000000E+20
 30
-1.000000000000000E+20
  9
$LIMMIN
 10
0.0
 20
0.0
  9
$LIMMAX
 10
12.0
 20
9.0
  9
$ORTHOMODE
 70
     0
  9
$REGENMODE
 70
     1
  9
$FILLMODE
 70
     1
  9
$QTEXTMODE
 70
     0
  9
$MIRRTEXT
 70
     1
  9
$LTSCALE
 40
1.0
  9
$ATTMODE
 70
     1
  9
$TEXTSIZE
 40
0.2
  9
$TRACEWID
 40
0.05
  9
$TEXTSTYLE
  7
Standard
  9
$CLAYER
  8
0
  9
$CELTYPE
  6
ByLayer
  9
$CECOLOR
 62
   256
  9
$CELTSCALE
 40
1.0
  9
$DISPSILH
 70
     0
  9
$DIMSCALE
 40
1.0
  9
$DIMASZ
 40
0.18
  9
$DIMEXO
 40
0.0625
  9
$DIMDLI
 40
0.38
  9
$DIMRND
 40
0.0
  9
$DIMDLE
 40
0.0
  9
$DIMEXE
 40
0.18
  9
$DIMTP
 40
0.0
  9
$DIMTM
 40
0.0
  9
$DIMTXT
 40
0.18
  9
$DIMCEN
 40
0.09
  9
$DIMTSZ
 40
0.0
  9
$DIMTOL
 70
     0
  9
$DIMLIM
 70
     0
  9
$DIMTIH
 70
     1
  9
$DIMTOH
 70
     1
  9
$DIMSE1
 70
     0
  9
$DIMSE2
 70
     0
  9
$DIMTAD
 70
     0
  9
$DIMZIN
 70
     0
  9
$DIMBLK
  1

  9
$DIMASO
 70
     1
  9
$DIMSHO
 70
     1
  9
$DIMPOST
  1

  9
$DIMAPOST
  1

  9
$DIMALT
 70
     0
  9
$DIMALTD
 70
     2
  9
$DIMALTF
 40
25.4
  9
$DIMLFAC
 40
1.0
  9
$DIMTOFL
 70
     0
  9
$DIMTVP
 40
0.0
  9
$DIMTIX
 70
     0
  9
$DIMSOXD
 70
     0
  9
$DIMSAH
 70
     0
  9
$DIMBLK1
  1

  9
$DIMBLK2
  1

  9
$DIMSTYLE
  2
Standard
  9
$DIMCLRD
 70
     0
  9
$DIMCLRE
 70
     0
  9
$DIMCLRT
 70
     0
  9
$DIMTFAC
 40
1.0
  9
$DIMGAP
 40
0.09
  9
$DIMJUST
 70
     0
  9
$DIMSD1
 70
     0
  9
$DIMSD2
 70
     0
  9
$DIMTOLJ
 70
     1
  9
$DIMTZIN
 70
     0
  9
$DIMALTZ
 70
     0
  9
$DIMALTTZ
 70
     0
  9
$DIMUPT
 70
     0
  9
$DIMDEC
 70
     4
  9
$DIMTDEC
 70
     4
  9
$DIMALTU
 70
     2
  9
$DIMALTTD
 70
     2
  9
$DIMTXSTY
  7
Standard
  9
$DIMAUNIT
 70
     0
  9
$DIMADEC
 70
     0
  9
$DIMALTRND
 40
0.0
  9
$DIMAZIN
 70
     0
  9
$DIMDSEP
 70
    46
  9
$DIMATFIT
 70
     3
  9
$DIMFRAC
 70
     0
  9
$DIMLDRBLK
  1

  9
$DIMLUNIT
 70
     2
  9
$DIMLWD
 70
    -2
  9
$DIMLWE
 70
    -2
  9
$DIMTMOVE
 70
     0
  9
$DIMFXL
 40
1.0
  9
$DIMFXLON
 70
     0
  9
$DIMJOGANG
 40
0.7853981633974483
  9
$DIMTFILL
 70
     0
  9
$DIMTFILLCLR
 70
     0
  9
$DIMARCSYM
 70
     0
  9
$DIMLTYPE
  6

  9
$DIMLTEX1
  6

  9
$DIMLTEX2
  6

  9
$DIMTXTDIRECTION
 70
     0
  9
$LUNITS
 70
     2
  9
$LUPREC
 70
     4
  9
$SKETCHINC
 40
0.1
  9
$FILLETRAD
 40
0.5
  9
$AUNITS
 70
     0
  9
$AUPREC
 70
     0
  9
$MENU
  1
.
  9
$ELEVATION
 40
0.0
  9
$PELEVATION
 40
0.0
  9
$THICKNESS
 40
0.0
  9
$LIMCHECK
 70
     0
  9
$CHAMFERA
 40
0.5
  9
$CHAMFERB
 40
0.5
  9
$CHAMFERC
 40
1.0
  9
$CHAMFERD
 40
0.0
  9
$SKPOLY
 70
     0
  9
$TDCREATE
 40
2457917.601053229
  9
$TDUCREATE
 40
2457917.226053241
  9
$TDUPDATE
 40
2457917.601053229
  9
$TDUUPDATE
 40
2457917.226053241
  9
$TDINDWG
 40
0.0000000116
  9
$TDUSRTIMER
 40
0.0000000116
  9
$USRTIMER
 70
     1
  9
$ANGBASE
 50
0.0
  9
$ANGDIR
 70
     0
  9
$PDMODE
 70
     0
  9
$PDSIZE
 40
0.0
  9
$PLINEWID
 40
0.0
  9
$SPLFRAME
 70
     0
  9
$SPLINETYPE
 70
     6
  9
$SPLINESEGS
 70
     8
  9
$HANDSEED
  5
187
  9
$SURFTAB1
 70
     6
  9
$SURFTAB2
 70
     6
  9
$SURFTYPE
 70
     6
  9
$SURFU
 70
     6
  9
$SURFV
 70
     6
  9
$UCSBASE
  2

  9
$UCSNAME
  2

  9
$UCSORG
 10
0.0
 20
0.0
 30
0.0
  9
$UCSXDIR
 10
1.0
 20
0.0
 30
0.0
  9
$UCSYDIR
 10
0.0
 20
1.0
 30
0.0
  9
$UCSORTHOREF
  2

  9
$UCSORTHOVIEW
 70
     0
  9
$UCSORGTOP
 10
0.0
 20
0.0
 30
0.0
  9
$UCSORGBOTTOM
 10
0.0
 20
0.0
 30
0.0
  9
$UCSORGLEFT
 10
0.0
 20
0.0
 30
0.0
  9
$UCSORGRIGHT
 10
0.0
 20
0.0
 30
0.0
  9
$UCSORGFRONT
 10
0.0
 20
0.0
 30
0.0
  9
$UCSORGBACK
 10
0.0
 20
0.0
 30
0.0
  9
$PUCSBASE
  2

  9
$PUCSNAME
  2

  9
$PUCSORG
 10
0.0
 20
0.0
 30
0.0
  9
$PUCSXDIR
 10
1.0
 20
0.0
 30
0.0
  9
$PUCSYDIR
 10
0.0
 20
1.0
 30
0.0
  9
$PUCSORTHOREF
  2

  9
$PUCSORTHOVIEW
 70
     0
  9
$PUCSORGTOP
 10
0.0
 20
0.0
 30
0.0
  9
$PUCSORGBOTTOM
 10
0.0
 20
0.0
 30
0.0
  9
$PUCSORGLEFT
 10
0.0
 20
0.0
 30
0.0
  9
$PUCSORGRIGHT
 10
0.0
 20
0.0
 30
0.0
  9
$PUCSORGFRONT
 10
0.0
 20
0.0
 30
0.0
  9
$PUCSORGBACK
 10
0.0
 20
0.0
 30
0.0
  9
$USERI1
 70
     0
  9
$USERI2
 70
     0
  9
$USERI3
 70
     0
  9
$USERI4
 70
     0
  9
$USERI5
 70
     0
  9
$USERR1
 40
0.0
  9
$USERR2
 40
0.0
  9
$USERR3
 40
0.0
  9
$USERR4
 40
0.0
  9
$USERR5
 40
0.0
  9
$WORLDVIEW
 70
     1
  9
$SHADEDGE
 70
     3
  9
$SHADEDIF
 70
    70
  9
$TILEMODE
 70
     1
  9
$MAXACTVP
 70
    64
  9
$PINSBASE
 10
0.0
 20
0.0
 30
0.0
  9
$PLIMCHECK
 70
     0
  9
$PEXTMIN
 10
1.000000000000000E+20
 20
1.000000000000000E+20
 30
1.000000000000000E+20
  9
$PEXTMAX
 10
-1.000000000000000E+20
 20
-1.000000000000000E+20
 30
-1.000000000000000E+20
  9
$PLIMMIN
 10
0.0
 20
0.0
  9
$PLIMMAX
 10
12.0
 20
9.0
  9
$UNITMODE
 70
     0
  9
$VISRETAIN
 70
     1
  9
$PLINEGEN
 70
     0
  9
$PSLTSCALE
 70
     1
  9
$TREEDEPTH
 70
  3020
  9
$CMLSTYLE
  2
Standard
  9
$CMLJUST
 70
     0
  9
$CMLSCALE
 40
1.0
  9
$PROXYGRAPHICS
 70
     1
  9
$MEASUREMENT
 70
     0
  9
$CELWEIGHT
370
    -1
  9
$ENDCAPS
280
     0
  9
$JOINSTYLE
280
     0
  9
$LWDISPLAY
290
     1
  9
$INSUNITS
 70
     1
  9
$HYPERLINKBASE
  1

  9
$STYLESHEET
  1

  9
$XEDIT
290
     1
  9
$CEPSNTYPE
380
     0
  9
$PSTYLEMODE
290
     1
  9
$FINGERPRINTGUID
  2
{756F6224-9AC2-62A9-AEEC-882A5328C34D}
  9
$VERSIONGUID
  2
{FAEB1C32-E019-11D5-929B-00C0DF256EC4}
  9
$EXTNAMES
290
     1
  9
$PSVPSCALE
 40
0.0
  9
$OLESTARTUP
290
     0
  9
$SORTENTS
280
   127
  9
$INDEXCTL
280
     0
  9
$HIDETEXT
280
     1
  9
$XCLIPFRAME
280
     2
  9
$HALOGAP
280
     0
  9
$OBSCOLOR
 70
   257
  9
$OBSLTYPE
280
     0
  9
$INTERSECTIONDISPLAY
280
     0
  9
$INTERSECTIONCOLOR
 70
   257
  9
$DIMASSOC
280
     2
  9
$PROJECTNAME
  1

  9
$CAMERADISPLAY
290
     0
  9
$LENSLENGTH
 40
50.0
  9
$CAMERAHEIGHT
 40
0.0
  9
$STEPSPERSEC
 40
2.0
  9
$STEPSIZE
 40
6.0
  9
$3DDWFPREC
 40
2.0
  9
$PSOLWIDTH
 40
0.25
  9
$PSOLHEIGHT
 40
4.0
  9
$LOFTANG1
 40
1.570796326794897
  9
$LOFTANG2
 40
1.570796326794897
  9
$LOFTMAG1
 40
0.0
  9
$LOFTMAG2
 40
0.0
  9
$LOFTPARAM
 70
     7
  9
$LOFTNORMALS
280
     1
  9
$LATITUDE
 40
37.795
  9
$LONGITUDE
 40
-122.394
  9
$NORTHDIRECTION
 40
0.0
  9
$TIMEZONE
 70
 -8000
  9
$LIGHTGLYPHDISPLAY
280
     1
  9
$TILEMODELIGHTSYNCH
280
     1
  9
$CMATERIAL
347
3C
  9
$SOLIDHIST
280
     1
  9
$SHOWHIST
280
     1
  9
$DWFFRAME
280
     2
  9
$DGNFRAME
280
     2
  9
$REALWORLDSCALE
290
     1
  9
$INTERFERECOLOR
 62
   256
  9
$CSHADOW
280
     0
  9
$SHADOWPLANELOCATION
 40
0.0
  0
ENDSEC
  0
SECTION
  2
CLASSES
  0
CLASS
  1
ACDBDICTIONARYWDFLT
  2
AcDbDictionaryWithDefault
  3
ObjectDBX Classes
 90
        0
 91
        4
280
     0
281
     0
  0
CLASS
  1
VISUALSTYLE
  2
AcDbVisualStyle
  3
ObjectDBX Classes
 90
     4095
 91
        4
280
     0
281
     0
  0
CLASS
  1
MATERIAL
  2
AcDbMaterial
  3
ObjectDBX Classes
 90
     1153
 91
        4
280
     0
281
     0
  0
CLASS
  1
SUN
  2
AcDbSun
  3
SCENEOE
 90
     1024
 91
        4
280
     0
281
     0
  0
ENDSEC
  0
SECTION
  2
TABLES
  0
TABLE
  2
VPORT
  5
8
330
0
100
AcDbSymbolTable
 70
     1
  0
VPORT
  5
29
330
8
100
AcDbSymbolTableRecord
100
AcDbViewportTableRecord
  2
*Active
 70
     0
 10
0.0
 20
0.0
 11
1.0
 21
1.0
 12
0.0
 22
0.0
 13
0.0
 23
0.0
 14
0.5
 24
0.5
 15
0.5
 25
0.5
 16
0.0
 26
0.0
 36
1.0
 17
91.00082462281999
 27
-128.4993055234307
 37
0.0
 40
256.9986110468615
 41
0.7081814508812795
 42
50.0
 43
0.0
 44
0.0
 50
0.0
 51
0.0
 71
     0
 72
   100
 73
     1
 74
     3
 75
     0
 76
     0
 77
     0
 78
     0
281
     0
 65
     1
110
0.0
120
0.0
130
0.0
111
1.0
121
0.0
131
0.0
112
0.0
122
1.0
132
0.0
 79
     0
146
0.0
 60
     3
 61
     5
292
     1
282
     1
141
0.0
142
0.0
 63
   250
361
3F
  0
ENDTAB
  0
TABLE
  2
LTYPE
  5
5
330
0
100
AcDbSymbolTable
 70
     2
  0
LTYPE
  5
14
330
5
100
AcDbSymbolTableRecord
100
AcDbLinetypeTableRecord
  2
ByBlock
 70
     0
  3

 72
    65
 73
     0
 40
0.0
  0
LTYPE
  5
15
330
5
100
AcDbSymbolTableRecord
100
AcDbLinetypeTableRecord
  2
ByLayer
 70
     0
  3

 72
    65
 73
     0
 40
0.0
  0
LTYPE
  5
16
330
5
100
AcDbSymbolTableRecord
100
AcDbLinetypeTableRecord
  2
Continuous
 70
     0
  3
Solid line
 72
    65
 73
     0
 40
0.0
  0
LTYPE
  5
9E
330
5
100
AcDbSymbolTableRecord
100
AcDbLinetypeTableRecord
  2
AI-Linetype-1
 70
     0
  3
Adobe Illustrator Linetype No. 1
 72
    65
 73
     2
 40
1.411111110758333
 49
0.7055555553791667
 74
     0
 49
-0.7055555553791667
 74
     0
  0
ENDTAB
  0
TABLE
  2
LAYER
  5
2
330
0
100
AcDbSymbolTable
 70
     2
  0
LAYER
  5
10
330
2
100
AcDbSymbolTableRecord
100
AcDbLayerTableRecord
  2
0
 70
     0
 62
     7
  6
Continuous
370
    -3
390
F
347
3E
  0
LAYER
  5
40
330
2
100
AcDbSymbolTableRecord
100
AcDbLayerTableRecord
  2
_U+30EC_U+30A4_U+30E4_U+30FC 1
 70
     0
 62
     7
  6
Continuous
370
    -3
390
F
347
3E
  0
ENDTAB
  0
TABLE
  2
STYLE
  5
3
330
0
100
AcDbSymbolTable
 70
     1
  0
STYLE
  5
11
330
3
100
AcDbSymbolTableRecord
100
AcDbTextStyleTableRecord
  2
Standard
 70
     0
 40
0.0
 41
1.0
 50
0.0
 71
     0
 42
0.2
  3
txt
  4

  0
ENDTAB
  0
TABLE
  2
VIEW
  5
6
330
0
100
AcDbSymbolTable
 70
     0
  0
ENDTAB
  0
TABLE
  2
UCS
  5
7
330
0
100
AcDbSymbolTable
 70
     0
  0
ENDTAB
  0
TABLE
  2
APPID
  5
9
330
0
100
AcDbSymbolTable
 70
     1
  0
APPID
  5
12
330
9
100
AcDbSymbolTableRecord
100
AcDbRegAppTableRecord
  2
ACAD
 70
     0
  0
ENDTAB
  0
TABLE
  2
DIMSTYLE
  5
A
330
0
100
AcDbSymbolTable
 70
     1
100
AcDbDimStyleTable
  0
DIMSTYLE
105
27
330
A
100
AcDbSymbolTableRecord
100
AcDbDimStyleTableRecord
  2
Standard
 70
     0
178
     0
340
11
  0
ENDTAB
  0
TABLE
  2
BLOCK_RECORD
  5
1
330
0
100
AcDbSymbolTable
 70
    10
  0
BLOCK_RECORD
  5
1F
330
1
100
AcDbSymbolTableRecord
100
AcDbBlockTableRecord
  2
*Model_Space
340
22
 70
     0
280
     1
281
     0
  0
BLOCK_RECORD
  5
1B
330
1
100
AcDbSymbolTableRecord
100
AcDbBlockTableRecord
  2
*Paper_Space
340
1E
 70
     0
280
     1
281
     0
  0
BLOCK_RECORD
  5
23
330
1
100
AcDbSymbolTableRecord
100
AcDbBlockTableRecord
  2
*Paper_Space0
340
26
 70
     0
280
     1
281
     0
  0
BLOCK_RECORD
  5
92
330
1
100
AcDbSymbolTableRecord
100
AcDbBlockTableRecord
  2
block 2
340
0
102
{BLKREFS
331
93
102
}
 70
     0
280
     1
281
     0
  0
BLOCK_RECORD
  5
AE
330
1
100
AcDbSymbolTableRecord
100
AcDbBlockTableRecord
  2
block 3
340
0
102
{BLKREFS
331
AF
102
}
 70
     0
280
     1
281
     0
  0
BLOCK_RECORD
  5
BF
330
1
100
AcDbSymbolTableRecord
100
AcDbBlockTableRecord
  2
block 4
340
0
102
{BLKREFS
331
C0
102
}
 70
     0
280
     1
281
     0
  0
BLOCK_RECORD
  5
DA
330
1
100
AcDbSymbolTableRecord
100
AcDbBlockTableRecord
  2
block 5
340
0
102
{BLKREFS
331
DB
102
}
 70
     0
280
     1
281
     0
  0
BLOCK_RECORD
  5
E3
330
1
100
AcDbSymbolTableRecord
100
AcDbBlockTableRecord
  2
block 6
340
0
102
{BLKREFS
331
E4
102
}
 70
     0
280
     1
281
     0
  0
BLOCK_RECORD
  5
119
330
1
100
AcDbSymbolTableRecord
100
AcDbBlockTableRecord
  2
block 7
340
0
102
{BLKREFS
331
11A
102
}
 70
     0
280
     1
281
     0
  0
BLOCK_RECORD
  5
11F
330
1
100
AcDbSymbolTableRecord
100
AcDbBlockTableRecord
  2
block 8
340
0
102
{BLKREFS
331
120
102
}
 70
     0
280
     1
281
     0
  0
BLOCK_RECORD
  5
130
330
1
100
AcDbSymbolTableRecord
100
AcDbBlockTableRecord
  2
block 9
340
0
102
{BLKREFS
331
131
102
}
 70
     0
280
     1
281
     0
  0
BLOCK_RECORD
  5
147
330
1
100
AcDbSymbolTableRecord
100
AcDbBlockTableRecord
  2
block 10
340
0
102
{BLKREFS
331
148
102
}
 70
     0
280
     1
281
     0
  0
ENDTAB
  0
ENDSEC
  0
SECTION
  2
BLOCKS
  0
BLOCK
  5
20
330
1F
100
AcDbEntity
  8
0
100
AcDbBlockBegin
  2
*Model_Space
 70
     0
 10
0.0
 20
0.0
 30
0.0
  3
*Model_Space
  1

  0
ENDBLK
  5
21
330
1F
100
AcDbEntity
  8
0
100
AcDbBlockEnd
  0
BLOCK
  5
1C
330
1B
100
AcDbEntity
 67
     1
  8
0
100
AcDbBlockBegin
  2
*Paper_Space
 70
     0
 10
0.0
 20
0.0
 30
0.0
  3
*Paper_Space
  1

  0
ENDBLK
  5
1D
330
1B
100
AcDbEntity
 67
     1
  8
0
100
AcDbBlockEnd
  0
BLOCK
  5
24
330
23
100
AcDbEntity
  8
0
100
AcDbBlockBegin
  2
*Paper_Space0
 70
     0
 10
0.0
 20
0.0
 30
0.0
  3
*Paper_Space0
  1

  0
ENDBLK
  5
25
330
23
100
AcDbEntity
  8
0
100
AcDbBlockEnd
  0
BLOCK
  5
94
330
92
100
AcDbEntity
  8
0
100
AcDbBlockBegin
  2
block 2
 70
     0
 10
0.0
 20
0.0
 30
0.0
  3
block 2
  1

  0
SPLINE
  5
96
330
92
100
AcDbEntity
  8
_U+30EC_U+30A4_U+30E4_U+30FC 1
370
     0
100
AcDbSpline
210
0.0
220
0.0
230
1.0
 70
    11
 71
     3
 72
    26
 73
    22
 74
     0
 42
0.0000000001
 43
0.0000000001
 12
1.0
 22
0.0
 32
0.0
 13
1.0
 23
0.0
 33
0.0
 40
0.0
 40
0.0
 40
0.0
 40
0.0
 40
1.0
 40
1.0
 40
1.0
 40
2.0
 40
2.0
 40
2.0
 40
3.0
 40
3.0
 40
3.0
 40
4.0
 40
4.0
 40
4.0
 40
5.0
 40
5.0
 40
5.0
 40
6.0
 40
6.0
 40
6.0
 40
7.0
 40
7.0
 40
7.0
 40
7.0
 10
86.97401934674608
 20
-104.8218532724056
 30
0.0
 10
86.97401934674608
 20
-104.8218532724056
 30
0.0
 10
86.97401934674608
 20
-103.7175279146088
 30
0.0
 10
86.97401934674608
 20
-103.7175279146088
 30
0.0
 10
86.97401934674608
 20
-103.7175279146088
 30
0.0
 10
86.64397919925915
 20
-103.7175279146088
 30
0.0
 10
86.64397919925915
 20
-103.7175279146088
 30
0.0
 10
86.64397919925915
 20
-103.7175279146088
 30
0.0
 10
86.64397919925915
 20
-103.5695610635173
 30
0.0
 10
86.64397919925915
 20
-103.5695610635173
 30
0.0
 10
86.97608640403723
 20
-103.5547471529308
 30
0.0
 10
87.02259519308811
 20
-103.3917941364784
 30
0.0
 10
87.05222301426126
 20
-103.2775892211424
 30
0.0
 10
87.05222301426126
 20
-103.2775892211424
 30
0.0
 10
87.19829506283585
 20
-103.2775892211424
 30
0.0
 10
87.19829506283585
 20
-103.2775892211424
 30
0.0
 10
87.19829506283585
 20
-103.2775892211424
 30
0.0
 10
87.19829506283585
 20
-104.8218532724056
 30
0.0
 10
87.19829506283585
 20
-104.8218532724056
 30
0.0
 10
87.19829506283585
 20
-104.8218532724056
 30
0.0
 10
86.97401934674608
 20
-104.8218532724056
 30
0.0
 10
86.97401934674608
 20
-104.8218532724056
 30
0.0
  0
HATCH
  5
97
330
92
100
AcDbEntity
  8
_U+30EC_U+30A4_U+30E4_U+30FC 1
 62
   179
420
  2234388
100
AcDbHatch
 10
0.0
 20
0.0
 30
0.0
210
0.0
220
0.0
230
1.0
  2
SOLID
 70
     1
 71
     0
 91
        1
 92
        1
 93
        1
 72
     4
 94
        3
 73
     0
 74
     1
 95
       26
 96
       22
 40
0.0
 40
0.0
 40
0.0
 40
0.0
 40
1.0
 40
1.0
 40
1.0
 40
2.0
 40
2.0
 40
2.0
 40
3.0
 40
3.0
 40
3.0
 40
4.0
 40
4.0
 40
4.0
 40
5.0
 40
5.0
 40
5.0
 40
6.0
 40
6.0
 40
6.0
 40
7.0
 40
7.0
 40
7.0
 40
7.0
 10
86.97401934674608
 20
-104.8218532724056
 10
86.97401934674608
 20
-104.8218532724056
 10
86.97401934674608
 20
-103.7175279146088
 10
86.97401934674608
 20
-103.7175279146088
 10
86.97401934674608
 20
-103.7175279146088
 10
86.64397919925915
 20
-103.7175279146088
 10
86.64397919925915
 20
-103.7175279146088
 10
86.64397919925915
 20
-103.7175279146088
 10
86.64397919925915
 20
-103.5695610635173
 10
86.64397919925915
 20
-103.5695610635173
 10
86.97608640403723
 20
-103.5547471529308
 10
87.02259519308811
 20
-103.3917941364784
 10
87.05222301426126
 20
-103.2775892211424
 10
87.05222301426126
 20
-103.2775892211424
 10
87.19829506283585
 20
-103.2775892211424
 10
87.19829506283585
 20
-103.2775892211424
 10
87.19829506283585
 20
-103.2775892211424
 10
87.19829506283585
 20
-104.8218532724056
 10
87.19829506283585
 20
-104.8218532724056
 10
87.19829506283585
 20
-104.8218532724056
 10
86.97401934674608
 20
-104.8218532724056
 10
86.97401934674608
 20
-104.8218532724056
 97
        0
 97
        0
 75
     2
 76
     1
 98
        0
  0
ENDBLK
  5
95
330
92
100
AcDbEntity
  8
0
100
AcDbBlockEnd
  0
BLOCK
  5
B0
330
AE
100
AcDbEntity
  8
0
100
AcDbBlockBegin
  2
block 3
 70
     0
 10
0.0
 20
0.0
 30
0.0
  3
block 3
  1

  0
SPLINE
  5
B2
330
AE
100
AcDbEntity
  8
_U+30EC_U+30A4_U+30E4_U+30FC 1
370
     0
100
AcDbSpline
210
0.0
220
0.0
230
1.0
 70
    11
 71
     3
 72
    26
 73
    22
 74
     0
 42
0.0000000001
 43
0.0000000001
 12
1.0
 22
0.0
 32
0.0
 13
1.0
 23
0.0
 33
0.0
 40
0.0
 40
0.0
 40
0.0
 40
0.0
 40
1.0
 40
1.0
 40
1.0
 40
2.0
 40
2.0
 40
2.0
 40
3.0
 40
3.0
 40
3.0
 40
4.0
 40
4.0
 40
4.0
 40
5.0
 40
5.0
 40
5.0
 40
6.0
 40
6.0
 40
6.0
 40
7.0
 40
7.0
 40
7.0
 40
7.0
 10
83.27347003126496
 20
-158.3569145654455
 30
0.0
 10
83.27347003126496
 20
-158.3569145654455
 30
0.0
 10
83.27347003126496
 20
-157.2527614624229
 30
0.0
 10
83.27347003126496
 20
-157.2527614624229
 30
0.0
 10
83.27347003126496
 20
-157.2527614624229
 30
0.0
 10
82.94342988377804
 20
-157.2527614624229
 30
0.0
 10
82.94342988377804
 20
-157.2527614624229
 30
0.0
 10
82.94342988377804
 20
-157.2527614624229
 30
0.0
 10
82.94342988377804
 20
-157.1046223565572
 30
0.0
 10
82.94342988377804
 20
-157.1046223565572
 30
0.0
 10
83.27553708855612
 20
-157.0898084459706
 30
0.0
 10
83.322045877607
 20
-156.9268554295183
 30
0.0
 10
83.35167369878015
 20
-156.812478259408
 30
0.0
 10
83.35167369878015
 20
-156.812478259408
 30
0.0
 10
83.49774574735473
 20
-156.812478259408
 30
0.0
 10
83.49774574735473
 20
-156.812478259408
 30
0.0
 10
83.49774574735473
 20
-156.812478259408
 30
0.0
 10
83.49774574735473
 20
-158.3569145654455
 30
0.0
 10
83.49774574735473
 20
-158.3569145654455
 30
0.0
 10
83.49774574735473
 20
-158.3569145654455
 30
0.0
 10
83.27347003126496
 20
-158.3569145654455
 30
0.0
 10
83.27347003126496
 20
-158.3569145654455
 30
0.0
  0
HATCH
  5
B3
330
AE
100
AcDbEntity
  8
_U+30EC_U+30A4_U+30E4_U+30FC 1
 62
   179
420
  2234388
100
AcDbHatch
 10
0.0
 20
0.0
 30
0.0
210
0.0
220
0.0
230
1.0
  2
SOLID
 70
     1
 71
     0
 91
        1
 92
        1
 93
        1
 72
     4
 94
        3
 73
     0
 74
     1
 95
       26
 96
       22
 40
0.0
 40
0.0
 40
0.0
 40
0.0
 40
1.0
 40
1.0
 40
1.0
 40
2.0
 40
2.0
 40
2.0
 40
3.0
 40
3.0
 40
3.0
 40
4.0
 40
4.0
 40
4.0
 40
5.0
 40
5.0
 40
5.0
 40
6.0
 40
6.0
 40
6.0
 40
7.0
 40
7.0
 40
7.0
 40
7.0
 10
83.27347003126496
 20
-158.3569145654455
 10
83.27347003126496
 20
-158.3569145654455
 10
83.27347003126496
 20
-157.2527614624229
 10
83.27347003126496
 20
-157.2527614624229
 10
83.27347003126496
 20
-157.2527614624229
 10
82.94342988377804
 20
-157.2527614624229
 10
82.94342988377804
 20
-157.2527614624229
 10
82.94342988377804
 20
-157.2527614624229
 10
82.94342988377804
 20
-157.1046223565572
 10
82.94342988377804
 20
-157.1046223565572
 10
83.27553708855612
 20
-157.0898084459706
 10
83.322045877607
 20
-156.9268554295183
 10
83.35167369878015
 20
-156.812478259408
 10
83.35167369878015
 20
-156.812478259408
 10
83.49774574735473
 20
-156.812478259408
 10
83.49774574735473
 20
-156.812478259408
 10
83.49774574735473
 20
-156.812478259408
 10
83.49774574735473
 20
-158.3569145654455
 10
83.49774574735473
 20
-158.3569145654455
 10
83.49774574735473
 20
-158.3569145654455
 10
83.27347003126496
 20
-158.3569145654455
 10
83.27347003126496
 20
-158.3569145654455
 97
        0
 97
        0
 75
     2
 76
     1
 98
        0
  0
SPLINE
  5
B4
330
AE
100
AcDbEntity
  8
_U+30EC_U+30A4_U+30E4_U+30FC 1
370
     0
100
AcDbSpline
210
0.0
220
0.0
230
1.0
 70
    11
 71
     3
 72
    53
 73
    49
 74
     0
 42
0.0000000001
 43
0.0000000001
 12
1.0
 22
0.0
 32
0.0
 13
1.0
 23
0.0
 33
0.0
 40
0.0
 40
0.0
 40
0.0
 40
0.0
 40
1.0
 40
1.0
 40
1.0
 40
2.0
 40
2.0
 40
2.0
 40
3.0
 40
3.0
 40
3.0
 40
4.0
 40
4.0
 40
4.0
 40
5.0
 40
5.0
 40
5.0
 40
6.0
 40
6.0
 40
6.0
 40
7.0
 40
7.0
 40
7.0
 40
8.0
 40
8.0
 40
8.0
 40
9.0
 40
9.0
 40
9.0
 40
10.0
 40
10.0
 40
10.0
 40
11.0
 40
11.0
 40
11.0
 40
12.0
 40
12.0
 40
12.0
 40
13.0
 40
13.0
 40
13.0
 40
14.0
 40
14.0
 40
14.0
 40
15.0
 40
15.0
 40
15.0
 40
16.0
 40
16.0
 40
16.0
 40
16.0
 10
84.47994247019946
 20
-158.4075574690787
 30
0.0
 10
84.40173880268429
 20
-158.4075574690787
 30
0.0
 10
84.30010848586942
 20
-158.3906765012009
 30
0.0
 10
84.19847816905455
 20
-158.3272867442724
 30
0.0
 10
84.02518986614649
 20
-158.2173881982929
 30
0.0
 10
84.00383027413794
 20
-158.0861300603049
 30
0.0
 10
83.98488224896906
 20
-157.9782985716165
 30
0.0
 10
83.98488224896906
 20
-157.9782985716165
 30
0.0
 10
84.20709090776768
 20
-157.9782985716165
 30
0.0
 10
84.20709090776768
 20
-157.9782985716165
 30
0.0
 10
84.26186792598315
 20
-158.1770805811155
 30
0.0
 10
84.38899194938887
 20
-158.2067084022886
 30
0.0
 10
84.48200952749062
 20
-158.2067084022886
 30
0.0
 10
84.62153589464323
 20
-158.2067084022886
 30
0.0
 10
84.77380911509127
 20
-158.1071451427649
 30
0.0
 10
84.77380911509127
 20
-157.8746011975105
 30
0.0
 10
84.77380911509127
 20
-157.6186306029565
 30
0.0
 10
84.59397513076124
 20
-157.5486951646059
 30
0.0
 10
84.47339678877749
 20
-157.5486951646059
 30
0.0
 10
84.44170191031318
 20
-157.5486951646059
 30
0.0
 10
84.30010848586942
 20
-157.5486951646059
 30
0.0
 10
84.21122502234998
 20
-157.6778862453027
 30
0.0
 10
84.21122502234998
 20
-157.6778862453027
 30
0.0
 10
84.03552515260223
 20
-157.6589382201339
 30
0.0
 10
84.03552515260223
 20
-157.6589382201339
 30
0.0
 10
84.03552515260223
 20
-157.6589382201339
 30
0.0
 10
84.15610349458598
 20
-156.812478259408
 30
0.0
 10
84.15610349458598
 20
-156.812478259408
 30
0.0
 10
84.15610349458598
 20
-156.812478259408
 30
0.0
 10
84.93469507425245
 20
-156.812478259408
 30
0.0
 10
84.93469507425245
 20
-156.812478259408
 30
0.0
 10
84.93469507425245
 20
-156.812478259408
 30
0.0
 10
84.93469507425245
 20
-157.0071261543246
 30
0.0
 10
84.93469507425245
 20
-157.0071261543246
 30
0.0
 10
84.93469507425245
 20
-157.0071261543246
 30
0.0
 10
84.3190565110383
 20
-157.0071261543246
 30
0.0
 10
84.3190565110383
 20
-157.0071261543246
 30
0.0
 10
84.3190565110383
 20
-157.0071261543246
 30
0.0
 10
84.25359969681855
 20
-157.4301838799133
 30
0.0
 10
84.25359969681855
 20
-157.4301838799133
 30
0.0
 10
84.314922396456
 20
-157.3964219441579
 30
0.0
 10
84.39726017855347
 20
-157.3561143269804
 30
0.0
 10
84.51577146324605
 20
-157.3561143269804
 30
0.0
 10
84.76967500050897
 20
-157.3561143269804
 30
0.0
 10
85.00669756989416
 20
-157.5424939927324
 30
0.0
 10
85.00669756989416
 20
-157.8556531723416
 30
0.0
 10
85.00669756989416
 20
-158.1729464665331
 30
0.0
 10
84.7824218538044
 20
-158.4075574690787
 30
0.0
 10
84.47994247019946
 20
-158.4075574690787
 30
0.0
  0
HATCH
  5
B5
330
AE
100
AcDbEntity
  8
_U+30EC_U+30A4_U+30E4_U+30FC 1
 62
   179
420
  2234388
100
AcDbHatch
 10
0.0
 20
0.0
 30
0.0
210
0.0
220
0.0
230
1.0
  2
SOLID
 70
     1
 71
     0
 91
        1
 92
        1
 93
        1
 72
     4
 94
        3
 73
     0
 74
     1
 95
       53
 96
       49
 40
0.0
 40
0.0
 40
0.0
 40
0.0
 40
1.0
 40
1.0
 40
1.0
 40
2.0
 40
2.0
 40
2.0
 40
3.0
 40
3.0
 40
3.0
 40
4.0
 40
4.0
 40
4.0
 40
5.0
 40
5.0
 40
5.0
 40
6.0
 40
6.0
 40
6.0
 40
7.0
 40
7.0
 40
7.0
 40
8.0
 40
8.0
 40
8.0
 40
9.0
 40
9.0
 40
9.0
 40
10.0
 40
10.0
 40
10.0
 40
11.0
 40
11.0
 40
11.0
 40
12.0
 40
12.0
 40
12.0
 40
13.0
 40
13.0
 40
13.0
 40
14.0
 40
14.0
 40
14.0
 40
15.0
 40
15.0
 40
15.0
 40
16.0
 40
16.0
 40
16.0
 40
16.0
 10
84.47994247019946
 20
-158.4075574690787
 10
84.40173880268429
 20
-158.4075574690787
 10
84.30010848586942
 20
-158.3906765012009
 10
84.19847816905455
 20
-158.3272867442724
 10
84.02518986614649
 20
-158.2173881982929
 10
84.00383027413794
 20
-158.0861300603049
 10
83.98488224896906
 20
-157.9782985716165
 10
83.98488224896906
 20
-157.9782985716165
 10
84.20709090776768
 20
-157.9782985716165
 10
84.20709090776768
 20
-157.9782985716165
 10
84.26186792598315
 20
-158.1770805811155
 10
84.38899194938887
 20
-158.2067084022886
 10
84.48200952749062
 20
-158.2067084022886
 10
84.62153589464323
 20
-158.2067084022886
 10
84.77380911509127
 20
-158.1071451427649
 10
84.77380911509127
 20
-157.8746011975105
 10
84.77380911509127
 20
-157.6186306029565
 10
84.59397513076124
 20
-157.5486951646059
 10
84.47339678877749
 20
-157.5486951646059
 10
84.44170191031318
 20
-157.5486951646059
 10
84.30010848586942
 20
-157.5486951646059
 10
84.21122502234998
 20
-157.6778862453027
 10
84.21122502234998
 20
-157.6778862453027
 10
84.03552515260223
 20
-157.6589382201339
 10
84.03552515260223
 20
-157.6589382201339
 10
84.03552515260223
 20
-157.6589382201339
 10
84.15610349458598
 20
-156.812478259408
 10
84.15610349458598
 20
-156.812478259408
 10
84.15610349458598
 20
-156.812478259408
 10
84.93469507425245
 20
-156.812478259408
 10
84.93469507425245
 20
-156.812478259408
 10
84.93469507425245
 20
-156.812478259408
 10
84.93469507425245
 20
-157.0071261543246
 10
84.93469507425245
 20
-157.0071261543246
 10
84.93469507425245
 20
-157.0071261543246
 10
84.3190565110383
 20
-157.0071261543246
 10
84.3190565110383
 20
-157.0071261543246
 10
84.3190565110383
 20
-157.0071261543246
 10
84.25359969681855
 20
-157.4301838799133
 10
84.25359969681855
 20
-157.4301838799133
 10
84.314922396456
 20
-157.3964219441579
 10
84.39726017855347
 20
-157.3561143269804
 10
84.51577146324605
 20
-157.3561143269804
 10
84.76967500050897
 20
-157.3561143269804
 10
85.00669756989416
 20
-157.5424939927324
 10
85.00669756989416
 20
-157.8556531723416
 10
85.00669756989416
 20
-158.1729464665331
 10
84.7824218538044
 20
-158.4075574690787
 10
84.47994247019946
 20
-158.4075574690787
 97
        0
 97
        0
 75
     2
 76
     1
 98
        0
  0
ENDBLK
  5
B1
330
AE
100
AcDbEntity
  8
0
100
AcDbBlockEnd
  0
BLOCK
  5
C1
330
BF
100
AcDbEntity
  8
0
100
AcDbBlockBegin
  2
block 4
 70
     0
 10
0.0
 20
0.0
 30
0.0
  3
block 4
  1

  0
POLYLINE
  5
C3
330
BF
100
AcDbEntity
  8
_U+30EC_U+30A4_U+30E4_U+30FC 1
370
     0
100
AcDb2dPolyline
 66
     1
 10
0.0
 20
0.0
 30
0.0
  0
VERTEX
  5
C4
330
C3
100
AcDbEntity
  8
_U+30EC_U+30A4_U+30E4_U+30FC 1
370
     0
100
AcDbVertex
100
AcDb2dVertex
 10
96.9349961780232
 20
-118.2670274226902
 30
0.0
  0
VERTEX
  5
C5
330
C3
100
AcDbEntity
  8
_U+30EC_U+30A4_U+30E4_U+30FC 1
370
     0
100
AcDbVertex
100
AcDb2dVertex
 10
97.28191729338786
 20
-118.2670274226902
 30
0.0
  0
VERTEX
  5
C6
330
C3
100
AcDbEntity
  8
_U+30EC_U+30A4_U+30E4_U+30FC 1
370
     0
100
AcDbVertex
100
AcDb2dVertex
 10
97.28191729338786
 20
-118.484757457358
 30
0.0
  0
VERTEX
  5
C7
330
C3
100
AcDbEntity
  8
_U+30EC_U+30A4_U+30E4_U+30FC 1
370
     0
100
AcDbVertex
100
AcDb2dVertex
 10
96.9349961780232
 20
-118.484757457358
 30
0.0
  0
VERTEX
  5
C8
330
C3
100
AcDbEntity
  8
_U+30EC_U+30A4_U+30E4_U+30FC 1
370
     0
100
AcDbVertex
100
AcDb2dVertex
 10
96.9349961780232
 20
-119.1407036377496
 30
0.0
  0
VERTEX
  5
C9
330
C3
100
AcDbEntity
  8
_U+30EC_U+30A4_U+30E4_U+30FC 1
370
     0
100
AcDbVertex
100
AcDb2dVertex
 10
96.71072046193343
 20
-119.1407036377496
 30
0.0
  0
VERTEX
  5
CA
330
C3
100
AcDbEntity
  8
_U+30EC_U+30A4_U+30E4_U+30FC 1
370
     0
100
AcDbVertex
100
AcDb2dVertex
 10
95.73748098735035
 20
-118.4616753176068
 30
0.0
  0
VERTEX
  5
CB
330
C3
100
AcDbEntity
  8
_U+30EC_U+30A4_U+30E4_U+30FC 1
370
     0
100
AcDbVertex
100
AcDb2dVertex
 10
95.73748098735035
 20
-118.2670274226902
 30
0.0
  0
VERTEX
  5
CC
330
C3
100
AcDbEntity
  8
_U+30EC_U+30A4_U+30E4_U+30FC 1
370
     0
100
AcDbVertex
100
AcDb2dVertex
 10
96.73621416852428
 20
-118.2670274226902
 30
0.0
  0
VERTEX
  5
CD
330
C3
100
AcDbEntity
  8
_U+30EC_U+30A4_U+30E4_U+30FC 1
370
     0
100
AcDbVertex
100
AcDb2dVertex
 10
96.73621416852428
 20
-118.0596326744782
 30
0.0
  0
VERTEX
  5
CE
330
C3
100
AcDbEntity
  8
_U+30EC_U+30A4_U+30E4_U+30FC 1
370
     0
100
AcDbVertex
100
AcDb2dVertex
 10
96.9349961780232
 20
-118.0596326744782
 30
0.0
  0
VERTEX
  5
CF
330
C3
100
AcDbEntity
  8
_U+30EC_U+30A4_U+30E4_U+30FC 1
370
     0
100
AcDbVertex
100
AcDb2dVertex
 10
96.9349961780232
 20
-118.2670274226902
 30
0.0
  0
SEQEND
  5
D0
330
C3
100
AcDbEntity
  8
_U+30EC_U+30A4_U+30E4_U+30FC 1
370
     0
  0
POLYLINE
  5
D1
330
BF
100
AcDbEntity
  8
_U+30EC_U+30A4_U+30E4_U+30FC 1
370
     0
100
AcDb2dPolyline
 66
     1
 10
0.0
 20
0.0
 30
0.0
  0
VERTEX
  5
D2
330
D1
100
AcDbEntity
  8
_U+30EC_U+30A4_U+30E4_U+30FC 1
370
     0
100
AcDbVertex
100
AcDb2dVertex
 10
96.08026798813272
 20
-118.484757457358
 30
0.0
  0
VERTEX
  5
D3
330
D1
100
AcDbEntity
  8
_U+30EC_U+30A4_U+30E4_U+30FC 1
370
     0
100
AcDbVertex
100
AcDb2dVertex
 10
96.73621416852428
 20
-118.9419216282506
 30
0.0
  0
VERTEX
  5
D4
330
D1
100
AcDbEntity
  8
_U+30EC_U+30A4_U+30E4_U+30FC 1
370
     0
100
AcDbVertex
100
AcDb2dVertex
 10
96.73621416852428
 20
-118.484757457358
 30
0.0
  0
VERTEX
  5
D5
330
D1
100
AcDbEntity
  8
_U+30EC_U+30A4_U+30E4_U+30FC 1
370
     0
100
AcDbVertex
100
AcDb2dVertex
 10
96.08026798813272
 20
-118.484757457358
 30
0.0
  0
SEQEND
  5
D6
330
D1
100
AcDbEntity
  8
_U+30EC_U+30A4_U+30E4_U+30FC 1
370
     0
  0
HATCH
  5
D7
330
BF
100
AcDbEntity
  8
_U+30EC_U+30A4_U+30E4_U+30FC 1
 62
   179
420
  2234388
100
AcDbHatch
 10
0.0
 20
0.0
 30
0.0
210
0.0
220
0.0
230
1.0
  2
SOLID
 70
     1
 71
     0
 91
        2
 92
        1
 93
       11
 72
     1
 10
96.9349961780232
 20
-118.2670274226902
 11
97.28191729338786
 21
-118.2670274226902
 72
     1
 10
97.28191729338786
 20
-118.2670274226902
 11
97.28191729338786
 21
-118.484757457358
 72
     1
 10
97.28191729338786
 20
-118.484757457358
 11
96.9349961780232
 21
-118.484757457358
 72
     1
 10
96.9349961780232
 20
-118.484757457358
 11
96.9349961780232
 21
-119.1407036377496
 72
     1
 10
96.9349961780232
 20
-119.1407036377496
 11
96.71072046193343
 21
-119.1407036377496
 72
     1
 10
96.71072046193343
 20
-119.1407036377496
 11
95.73748098735035
 21
-118.4616753176068
 72
     1
 10
95.73748098735035
 20
-118.4616753176068
 11
95.73748098735035
 21
-118.2670274226902
 72
     1
 10
95.73748098735035
 20
-118.2670274226902
 11
96.73621416852428
 21
-118.2670274226902
 72
     1
 10
96.73621416852428
 20
-118.2670274226902
 11
96.73621416852428
 21
-118.0596326744782
 72
     1
 10
96.73621416852428
 20
-118.0596326744782
 11
96.9349961780232
 21
-118.0596326744782
 72
     1
 10
96.9349961780232
 20
-118.0596326744782
 11
96.9349961780232
 21
-118.2670274226902
 97
        0
 92
        1
 93
        3
 72
     1
 10
96.08026798813272
 20
-118.484757457358
 11
96.73621416852428
 21
-118.9419216282506
 72
     1
 10
96.73621416852428
 20
-118.9419216282506
 11
96.73621416852428
 21
-118.484757457358
 72
     1
 10
96.73621416852428
 20
-118.484757457358
 11
96.08026798813272
 21
-118.484757457358
 97
        0
 75
     2
 76
     1
 98
        0
  0
SPLINE
  5
D8
330
BF
100
AcDbEntity
  8
_U+30EC_U+30A4_U+30E4_U+30FC 1
370
     0
100
AcDbSpline
210
0.0
220
0.0
230
1.0
 70
    11
 71
     3
 72
    53
 73
    49
 74
     0
 42
0.0000000001
 43
0.0000000001
 12
1.0
 22
0.0
 32
0.0
 13
1.0
 23
0.0
 33
0.0
 40
0.0
 40
0.0
 40
0.0
 40
0.0
 40
1.0
 40
1.0
 40
1.0
 40
2.0
 40
2.0
 40
2.0
 40
3.0
 40
3.0
 40
3.0
 40
4.0
 40
4.0
 40
4.0
 40
5.0
 40
5.0
 40
5.0
 40
6.0
 40
6.0
 40
6.0
 40
7.0
 40
7.0
 40
7.0
 40
8.0
 40
8.0
 40
8.0
 40
9.0
 40
9.0
 40
9.0
 40
10.0
 40
10.0
 40
10.0
 40
11.0
 40
11.0
 40
11.0
 40
12.0
 40
12.0
 40
12.0
 40
13.0
 40
13.0
 40
13.0
 40
14.0
 40
14.0
 40
14.0
 40
15.0
 40
15.0
 40
15.0
 40
16.0
 40
16.0
 40
16.0
 40
16.0
 10
97.33256019702102
 20
-117.4412380348758
 30
0.0
 10
97.33256019702102
 20
-117.519441702391
 30
0.0
 10
97.31567922914331
 20
-117.6210720192059
 30
0.0
 10
97.25228947221471
 20
-117.7227023360207
 30
0.0
 10
97.14239092623524
 20
-117.8959906389288
 30
0.0
 10
97.01113278824722
 20
-117.9173502309373
 30
0.0
 10
96.9033012995589
 20
-117.9362982561062
 30
0.0
 10
96.9033012995589
 20
-117.9362982561062
 30
0.0
 10
96.9033012995589
 20
-117.7140895973076
 30
0.0
 10
96.9033012995589
 20
-117.7140895973076
 30
0.0
 10
97.10208330905782
 20
-117.6593125790921
 30
0.0
 10
97.13171113023097
 20
-117.5321885556864
 30
0.0
 10
97.13171113023097
 20
-117.4391709775847
 30
0.0
 10
97.13171113023097
 20
-117.299644610432
 30
0.0
 10
97.03214787070725
 20
-117.147371389984
 30
0.0
 10
96.79960392545289
 20
-117.147371389984
 30
0.0
 10
96.54363333089881
 20
-117.147371389984
 30
0.0
 10
96.47369789254824
 20
-117.327205374314
 30
0.0
 10
96.47369789254824
 20
-117.4477837162978
 30
0.0
 10
96.47369789254824
 20
-117.4794785947621
 30
0.0
 10
96.47369789254824
 20
-117.6210720192059
 30
0.0
 10
96.60288897324511
 20
-117.7099554827253
 30
0.0
 10
96.60288897324511
 20
-117.7099554827253
 30
0.0
 10
96.58394094807625
 20
-117.885655352473
 30
0.0
 10
96.58394094807625
 20
-117.885655352473
 30
0.0
 10
96.58394094807625
 20
-117.885655352473
 30
0.0
 10
95.73748098735035
 20
-117.7650770104893
 30
0.0
 10
95.73748098735035
 20
-117.7650770104893
 30
0.0
 10
95.73748098735035
 20
-117.7650770104893
 30
0.0
 10
95.73748098735035
 20
-116.9864854308228
 30
0.0
 10
95.73748098735035
 20
-116.9864854308228
 30
0.0
 10
95.73748098735035
 20
-116.9864854308228
 30
0.0
 10
95.93212888226697
 20
-116.9864854308228
 30
0.0
 10
95.93212888226697
 20
-116.9864854308228
 30
0.0
 10
95.93212888226697
 20
-116.9864854308228
 30
0.0
 10
95.93212888226697
 20
-117.602123994037
 30
0.0
 10
95.93212888226697
 20
-117.602123994037
 30
0.0
 10
95.93212888226697
 20
-117.602123994037
 30
0.0
 10
96.35518660785566
 20
-117.6675808082567
 30
0.0
 10
96.35518660785566
 20
-117.6675808082567
 30
0.0
 10
96.3214246721002
 20
-117.6062581086193
 30
0.0
 10
96.28111705492277
 20
-117.5239203265218
 30
0.0
 10
96.28111705492277
 20
-117.4054090418292
 30
0.0
 10
96.28111705492277
 20
-117.1515055045663
 30
0.0
 10
96.4674967206748
 20
-116.9144829351811
 30
0.0
 10
96.780655900284
 20
-116.9144829351811
 30
0.0
 10
97.09794919447552
 20
-116.9144829351811
 30
0.0
 10
97.33256019702102
 20
-117.1387586512709
 30
0.0
 10
97.33256019702102
 20
-117.4412380348758
 30
0.0
  0
HATCH
  5
D9
330
BF
100
AcDbEntity
  8
_U+30EC_U+30A4_U+30E4_U+30FC 1
 62
   179
420
  2234388
100
AcDbHatch
 10
0.0
 20
0.0
 30
0.0
210
0.0
220
0.0
230
1.0
  2
SOLID
 70
     1
 71
     0
 91
        1
 92
        1
 93
        1
 72
     4
 94
        3
 73
     0
 74
     1
 95
       53
 96
       49
 40
0.0
 40
0.0
 40
0.0
 40
0.0
 40
1.0
 40
1.0
 40
1.0
 40
2.0
 40
2.0
 40
2.0
 40
3.0
 40
3.0
 40
3.0
 40
4.0
 40
4.0
 40
4.0
 40
5.0
 40
5.0
 40
5.0
 40
6.0
 40
6.0
 40
6.0
 40
7.0
 40
7.0
 40
7.0
 40
8.0
 40
8.0
 40
8.0
 40
9.0
 40
9.0
 40
9.0
 40
10.0
 40
10.0
 40
10.0
 40
11.0
 40
11.0
 40
11.0
 40
12.0
 40
12.0
 40
12.0
 40
13.0
 40
13.0
 40
13.0
 40
14.0
 40
14.0
 40
14.0
 40
15.0
 40
15.0
 40
15.0
 40
16.0
 40
16.0
 40
16.0
 40
16.0
 10
97.33256019702102
 20
-117.4412380348758
 10
97.33256019702102
 20
-117.519441702391
 10
97.31567922914331
 20
-117.6210720192059
 10
97.25228947221471
 20
-117.7227023360207
 10
97.14239092623524
 20
-117.8959906389288
 10
97.01113278824722
 20
-117.9173502309373
 10
96.9033012995589
 20
-117.9362982561062
 10
96.9033012995589
 20
-117.9362982561062
 10
96.9033012995589
 20
-117.7140895973076
 10
96.9033012995589
 20
-117.7140895973076
 10
97.10208330905782
 20
-117.6593125790921
 10
97.13171113023097
 20
-117.5321885556864
 10
97.13171113023097
 20
-117.4391709775847
 10
97.13171113023097
 20
-117.299644610432
 10
97.03214787070725
 20
-117.147371389984
 10
96.79960392545289
 20
-117.147371389984
 10
96.54363333089881
 20
-117.147371389984
 10
96.47369789254824
 20
-117.327205374314
 10
96.47369789254824
 20
-117.4477837162978
 10
96.47369789254824
 20
-117.4794785947621
 10
96.47369789254824
 20
-117.6210720192059
 10
96.60288897324511
 20
-117.7099554827253
 10
96.60288897324511
 20
-117.7099554827253
 10
96.58394094807625
 20
-117.885655352473
 10
96.58394094807625
 20
-117.885655352473
 10
96.58394094807625
 20
-117.885655352473
 10
95.73748098735035
 20
-117.7650770104893
 10
95.73748098735035
 20
-117.7650770104893
 10
95.73748098735035
 20
-117.7650770104893
 10
95.73748098735035
 20
-116.9864854308228
 10
95.73748098735035
 20
-116.9864854308228
 10
95.73748098735035
 20
-116.9864854308228
 10
95.93212888226697
 20
-116.9864854308228
 10
95.93212888226697
 20
-116.9864854308228
 10
95.93212888226697
 20
-116.9864854308228
 10
95.93212888226697
 20
-117.602123994037
 10
95.93212888226697
 20
-117.602123994037
 10
95.93212888226697
 20
-117.602123994037
 10
96.35518660785566
 20
-117.6675808082567
 10
96.35518660785566
 20
-117.6675808082567
 10
96.3214246721002
 20
-117.6062581086193
 10
96.28111705492277
 20
-117.5239203265218
 10
96.28111705492277
 20
-117.4054090418292
 10
96.28111705492277
 20
-117.1515055045663
 10
96.4674967206748
 20
-116.9144829351811
 10
96.780655900284
 20
-116.9144829351811
 10
97.09794919447552
 20
-116.9144829351811
 10
97.33256019702102
 20
-117.1387586512709
 10
97.33256019702102
 20
-117.4412380348758
 97
        0
 97
        0
 75
     2
 76
     1
 98
        0
  0
ENDBLK
  5
C2
330
BF
100
AcDbEntity
  8
0
100
AcDbBlockEnd
  0
BLOCK
  5
DC
330
DA
100
AcDbEntity
  8
0
100
AcDbBlockBegin
  2
block 5
 70
     0
 10
0.0
 20
0.0
 30
0.0
  3
block 5
  1

  0
SPLINE
  5
DE
330
DA
100
AcDbEntity
  8
_U+30EC_U+30A4_U+30E4_U+30FC 1
370
     0
100
AcDbSpline
210
0.0
220
0.0
230
1.0
 70
    11
 71
     3
 72
    26
 73
    22
 74
     0
 42
0.0000000001
 43
0.0000000001
 12
1.0
 22
0.0
 32
0.0
 13
1.0
 23
0.0
 33
0.0
 40
0.0
 40
0.0
 40
0.0
 40
0.0
 40
1.0
 40
1.0
 40
1.0
 40
2.0
 40
2.0
 40
2.0
 40
3.0
 40
3.0
 40
3.0
 40
4.0
 40
4.0
 40
4.0
 40
5.0
 40
5.0
 40
5.0
 40
6.0
 40
6.0
 40
6.0
 40
7.0
 40
7.0
 40
7.0
 40
7.0
 10
97.28191729338786
 20
-146.3559244425777
 30
0.0
 10
97.28191729338786
 20
-146.3559244425777
 30
0.0
 10
96.17776419036528
 20
-146.3559244425777
 30
0.0
 10
96.17776419036528
 20
-146.3559244425777
 30
0.0
 10
96.17776419036528
 20
-146.3559244425777
 30
0.0
 10
96.17776419036528
 20
-146.6859645900646
 30
0.0
 10
96.17776419036528
 20
-146.6859645900646
 30
0.0
 10
96.17776419036528
 20
-146.6859645900646
 30
0.0
 10
96.02962508449954
 20
-146.6859645900646
 30
0.0
 10
96.02962508449954
 20
-146.6859645900646
 30
0.0
 10
96.01481117391297
 20
-146.3538573852865
 30
0.0
 10
95.85185815746065
 20
-146.3073485962357
 30
0.0
 10
95.73748098735035
 20
-146.2777207750625
 30
0.0
 10
95.73748098735035
 20
-146.2777207750625
 30
0.0
 10
95.73748098735035
 20
-146.1316487264879
 30
0.0
 10
95.73748098735035
 20
-146.1316487264879
 30
0.0
 10
95.73748098735035
 20
-146.1316487264879
 30
0.0
 10
97.28191729338786
 20
-146.1316487264879
 30
0.0
 10
97.28191729338786
 20
-146.1316487264879
 30
0.0
 10
97.28191729338786
 20
-146.1316487264879
 30
0.0
 10
97.28191729338786
 20
-146.3559244425777
 30
0.0
 10
97.28191729338786
 20
-146.3559244425777
 30
0.0
  0
HATCH
  5
DF
330
DA
100
AcDbEntity
  8
_U+30EC_U+30A4_U+30E4_U+30FC 1
 62
   179
420
  2234388
100
AcDbHatch
 10
0.0
 20
0.0
 30
0.0
210
0.0
220
0.0
230
1.0
  2
SOLID
 70
     1
 71
     0
 91
        1
 92
        1
 93
        1
 72
     4
 94
        3
 73
     0
 74
     1
 95
       26
 96
       22
 40
0.0
 40
0.0
 40
0.0
 40
0.0
 40
1.0
 40
1.0
 40
1.0
 40
2.0
 40
2.0
 40
2.0
 40
3.0
 40
3.0
 40
3.0
 40
4.0
 40
4.0
 40
4.0
 40
5.0
 40
5.0
 40
5.0
 40
6.0
 40
6.0
 40
6.0
 40
7.0
 40
7.0
 40
7.0
 40
7.0
 10
97.28191729338786
 20
-146.3559244425777
 10
97.28191729338786
 20
-146.3559244425777
 10
96.17776419036528
 20
-146.3559244425777
 10
96.17776419036528
 20
-146.3559244425777
 10
96.17776419036528
 20
-146.3559244425777
 10
96.17776419036528
 20
-146.6859645900646
 10
96.17776419036528
 20
-146.6859645900646
 10
96.17776419036528
 20
-146.6859645900646
 10
96.02962508449954
 20
-146.6859645900646
 10
96.02962508449954
 20
-146.6859645900646
 10
96.01481117391297
 20
-146.3538573852865
 10
95.85185815746065
 20
-146.3073485962357
 10
95.73748098735035
 20
-146.2777207750625
 10
95.73748098735035
 20
-146.2777207750625
 10
95.73748098735035
 20
-146.1316487264879
 10
95.73748098735035
 20
-146.1316487264879
 10
95.73748098735035
 20
-146.1316487264879
 10
97.28191729338786
 20
-146.1316487264879
 10
97.28191729338786
 20
-146.1316487264879
 10
97.28191729338786
 20
-146.1316487264879
 10
97.28191729338786
 20
-146.3559244425777
 10
97.28191729338786
 20
-146.3559244425777
 97
        0
 97
        0
 75
     2
 76
     1
 98
        0
  0
SPLINE
  5
E0
330
DA
100
AcDbEntity
  8
_U+30EC_U+30A4_U+30E4_U+30FC 1
370
     0
100
AcDbSpline
210
0.0
220
0.0
230
1.0
 70
    11
 71
     3
 72
    29
 73
    25
 74
     0
 42
0.0000000001
 43
0.0000000001
 12
1.0
 22
0.0
 32
0.0
 13
1.0
 23
0.0
 33
0.0
 40
0.0
 40
0.0
 40
0.0
 40
0.0
 40
1.0
 40
1.0
 40
1.0
 40
2.0
 40
2.0
 40
2.0
 40
3.0
 40
3.0
 40
3.0
 40
4.0
 40
4.0
 40
4.0
 40
5.0
 40
5.0
 40
5.0
 40
6.0
 40
6.0
 40
6.0
 40
7.0
 40
7.0
 40
7.0
 40
8.0
 40
8.0
 40
8.0
 40
8.0
 10
97.10415036634896
 20
-144.732595449928
 30
0.0
 10
97.31361217185216
 20
-144.8407714481648
 30
0.0
 10
97.33256019702102
 20
-145.0140597510729
 30
0.0
 10
97.33256019702102
 20
-145.1305039784743
 30
0.0
 10
97.33256019702102
 20
-145.2913899376355
 30
0.0
 10
97.28605140797016
 20
-145.4329833620793
 30
0.0
 10
97.10415036634896
 20
-145.5280679974722
 30
0.0
 10
96.90950247143235
 20
-145.6317653715782
 30
0.0
 10
96.67282441159568
 20
-145.6510579062956
 30
0.0
 10
96.50987139514336
 20
-145.6510579062956
 30
0.0
 10
96.36586640385993
 20
-145.6510579062956
 30
0.0
 10
96.11402992388817
 20
-145.6338324288693
 30
0.0
 10
95.91524791438925
 20
-145.5280679974722
 30
0.0
 10
95.71233179030803
 20
-145.4202365087838
 30
0.0
 10
95.68890514100833
 20
-145.2593505496227
 30
0.0
 10
95.68890514100833
 20
-145.1305039784743
 30
0.0
 10
95.68890514100833
 20
-144.9716850766043
 30
0.0
 10
95.73334687276805
 20
-144.8280245948694
 30
0.0
 10
95.91524791438925
 20
-144.732595449928
 30
0.0
 10
96.10782875201471
 20
-144.6333766999528
 30
0.0
 10
96.33623858268678
 20
-144.6099500506531
 30
0.0
 10
96.50987139514336
 20
-144.6099500506531
 30
0.0
 10
96.68109264076028
 20
-144.6099500506531
 30
0.0
 10
96.9115695287235
 20
-144.6313096426616
 30
0.0
 10
97.10415036634896
 20
-144.732595449928
 30
0.0
  0
SPLINE
  5
E1
330
DA
100
AcDbEntity
  8
_U+30EC_U+30A4_U+30E4_U+30FC 1
370
     0
100
AcDbSpline
210
0.0
220
0.0
230
1.0
 70
    11
 71
     3
 72
    17
 73
    13
 74
     0
 42
0.0000000001
 43
0.0000000001
 12
1.0
 22
0.0
 32
0.0
 13
1.0
 23
0.0
 33
0.0
 40
0.0
 40
0.0
 40
0.0
 40
0.0
 40
1.0
 40
1.0
 40
1.0
 40
2.0
 40
2.0
 40
2.0
 40
3.0
 40
3.0
 40
3.0
 40
4.0
 40
4.0
 40
4.0
 40
4.0
 10
95.8814859786338
 20
-145.1305039784743
 30
0.0
 10
95.8814859786338
 20
-145.3802734011549
 30
0.0
 10
96.16501733706986
 20
-145.4267821902058
 30
0.0
 10
96.50987139514336
 20
-145.4267821902058
 30
0.0
 10
96.82923174662604
 20
-145.4267821902058
 30
0.0
 10
97.13791230210441
 20
-145.3906086876107
 30
0.0
 10
97.13791230210441
 20
-145.1305039784743
 30
0.0
 10
97.13791230210441
 20
-144.8828016130849
 30
0.0
 10
96.85679251050803
 20
-144.8342257667428
 30
0.0
 10
96.50987139514336
 20
-144.8342257667428
 30
0.0
 10
96.19016653411218
 20
-144.8342257667428
 30
0.0
 10
95.8814859786338
 20
-144.8724663266291
 30
0.0
 10
95.8814859786338
 20
-145.1305039784743
 30
0.0
  0
HATCH
  5
E2
330
DA
100
AcDbEntity
  8
_U+30EC_U+30A4_U+30E4_U+30FC 1
 62
   179
420
  2234388
100
AcDbHatch
 10
0.0
 20
0.0
 30
0.0
210
0.0
220
0.0
230
1.0
  2
SOLID
 70
     1
 71
     0
 91
        2
 92
        1
 93
        1
 72
     4
 94
        3
 73
     0
 74
     1
 95
       29
 96
       25
 40
0.0
 40
0.0
 40
0.0
 40
0.0
 40
1.0
 40
1.0
 40
1.0
 40
2.0
 40
2.0
 40
2.0
 40
3.0
 40
3.0
 40
3.0
 40
4.0
 40
4.0
 40
4.0
 40
5.0
 40
5.0
 40
5.0
 40
6.0
 40
6.0
 40
6.0
 40
7.0
 40
7.0
 40
7.0
 40
8.0
 40
8.0
 40
8.0
 40
8.0
 10
97.10415036634896
 20
-144.732595449928
 10
97.31361217185216
 20
-144.8407714481648
 10
97.33256019702102
 20
-145.0140597510729
 10
97.33256019702102
 20
-145.1305039784743
 10
97.33256019702102
 20
-145.2913899376355
 10
97.28605140797016
 20
-145.4329833620793
 10
97.10415036634896
 20
-145.5280679974722
 10
96.90950247143235
 20
-145.6317653715782
 10
96.67282441159568
 20
-145.6510579062956
 10
96.50987139514336
 20
-145.6510579062956
 10
96.36586640385993
 20
-145.6510579062956
 10
96.11402992388817
 20
-145.6338324288693
 10
95.91524791438925
 20
-145.5280679974722
 10
95.71233179030803
 20
-145.4202365087838
 10
95.68890514100833
 20
-145.2593505496227
 10
95.68890514100833
 20
-145.1305039784743
 10
95.68890514100833
 20
-144.9716850766043
 10
95.73334687276805
 20
-144.8280245948694
 10
95.91524791438925
 20
-144.732595449928
 10
96.10782875201471
 20
-144.6333766999528
 10
96.33623858268678
 20
-144.6099500506531
 10
96.50987139514336
 20
-144.6099500506531
 10
96.68109264076028
 20
-144.6099500506531
 10
96.9115695287235
 20
-144.6313096426616
 10
97.10415036634896
 20
-144.732595449928
 97
        0
 97
        0
 92
        1
 93
        1
 72
     4
 94
        3
 73
     0
 74
     1
 95
       17
 96
       13
 40
0.0
 40
0.0
 40
0.0
 40
0.0
 40
1.0
 40
1.0
 40
1.0
 40
2.0
 40
2.0
 40
2.0
 40
3.0
 40
3.0
 40
3.0
 40
4.0
 40
4.0
 40
4.0
 40
4.0
 10
95.8814859786338
 20
-145.1305039784743
 10
95.8814859786338
 20
-145.3802734011549
 10
96.16501733706986
 20
-145.4267821902058
 10
96.50987139514336
 20
-145.4267821902058
 10
96.82923174662604
 20
-145.4267821902058
 10
97.13791230210441
 20
-145.3906086876107
 10
97.13791230210441
 20
-145.1305039784743
 10
97.13791230210441
 20
-144.8828016130849
 10
96.85679251050803
 20
-144.8342257667428
 10
96.50987139514336
 20
-144.8342257667428
 10
96.19016653411218
 20
-144.8342257667428
 10
95.8814859786338
 20
-144.8724663266291
 10
95.8814859786338
 20
-145.1305039784743
 97
        0
 97
        0
 75
     2
 76
     1
 98
        0
  0
ENDBLK
  5
DD
330
DA
100
AcDbEntity
  8
0
100
AcDbBlockEnd
  0
BLOCK
  5
E5
330
E3
100
AcDbEntity
  8
0
100
AcDbBlockBegin
  2
block 6
 70
     0
 10
0.0
 20
0.0
 30
0.0
  3
block 6
  1

  0
POLYLINE
  5
E7
330
E3
100
AcDbEntity
  8
_U+30EC_U+30A4_U+30E4_U+30FC 1
370
     0
100
AcDb2dPolyline
 66
     1
 10
0.0
 20
0.0
 30
0.0
  0
VERTEX
  5
E8
330
E7
100
AcDbEntity
  8
_U+30EC_U+30A4_U+30E4_U+30FC 1
370
     0
100
AcDbVertex
100
AcDb2dVertex
 10
96.9349961780232
 20
-152.2253336207978
 30
0.0
  0
VERTEX
  5
E9
330
E7
100
AcDbEntity
  8
_U+30EC_U+30A4_U+30E4_U+30FC 1
370
     0
100
AcDbVertex
100
AcDb2dVertex
 10
97.28191729338786
 20
-152.2253336207978
 30
0.0
  0
VERTEX
  5
EA
330
E7
100
AcDbEntity
  8
_U+30EC_U+30A4_U+30E4_U+30FC 1
370
     0
100
AcDbVertex
100
AcDb2dVertex
 10
97.28191729338786
 20
-152.4430636554656
 30
0.0
  0
VERTEX
  5
EB
330
E7
100
AcDbEntity
  8
_U+30EC_U+30A4_U+30E4_U+30FC 1
370
     0
100
AcDbVertex
100
AcDb2dVertex
 10
96.9349961780232
 20
-152.4430636554656
 30
0.0
  0
VERTEX
  5
EC
330
E7
100
AcDbEntity
  8
_U+30EC_U+30A4_U+30E4_U+30FC 1
370
     0
100
AcDbVertex
100
AcDb2dVertex
 10
96.9349961780232
 20
-153.0990098358572
 30
0.0
  0
VERTEX
  5
ED
330
E7
100
AcDbEntity
  8
_U+30EC_U+30A4_U+30E4_U+30FC 1
370
     0
100
AcDbVertex
100
AcDb2dVertex
 10
96.71072046193343
 20
-153.0990098358572
 30
0.0
  0
VERTEX
  5
EE
330
E7
100
AcDbEntity
  8
_U+30EC_U+30A4_U+30E4_U+30FC 1
370
     0
100
AcDbVertex
100
AcDb2dVertex
 10
95.73748098735035
 20
-152.4199815157145
 30
0.0
  0
VERTEX
  5
EF
330
E7
100
AcDbEntity
  8
_U+30EC_U+30A4_U+30E4_U+30FC 1
370
     0
100
AcDbVertex
100
AcDb2dVertex
 10
95.73748098735035
 20
-152.2253336207978
 30
0.0
  0
VERTEX
  5
F0
330
E7
100
AcDbEntity
  8
_U+30EC_U+30A4_U+30E4_U+30FC 1
370
     0
100
AcDbVertex
100
AcDb2dVertex
 10
96.73621416852428
 20
-152.2253336207978
 30
0.0
  0
VERTEX
  5
F1
330
E7
100
AcDbEntity
  8
_U+30EC_U+30A4_U+30E4_U+30FC 1
370
     0
100
AcDbVertex
100
AcDb2dVertex
 10
96.73621416852428
 20
-152.0179388725858
 30
0.0
  0
VERTEX
  5
F2
330
E7
100
AcDbEntity
  8
_U+30EC_U+30A4_U+30E4_U+30FC 1
370
     0
100
AcDbVertex
100
AcDb2dVertex
 10
96.9349961780232
 20
-152.0179388725858
 30
0.0
  0
VERTEX
  5
F3
330
E7
100
AcDbEntity
  8
_U+30EC_U+30A4_U+30E4_U+30FC 1
370
     0
100
AcDbVertex
100
AcDb2dVertex
 10
96.9349961780232
 20
-152.2253336207978
 30
0.0
  0
SEQEND
  5
F4
330
E7
100
AcDbEntity
  8
_U+30EC_U+30A4_U+30E4_U+30FC 1
370
     0
  0
POLYLINE
  5
F5
330
E3
100
AcDbEntity
  8
_U+30EC_U+30A4_U+30E4_U+30FC 1
370
     0
100
AcDb2dPolyline
 66
     1
 10
0.0
 20
0.0
 30
0.0
  0
VERTEX
  5
F6
330
F5
100
AcDbEntity
  8
_U+30EC_U+30A4_U+30E4_U+30FC 1
370
     0
100
AcDbVertex
100
AcDb2dVertex
 10
96.08026798813272
 20
-152.4430636554656
 30
0.0
  0
VERTEX
  5
F7
330
F5
100
AcDbEntity
  8
_U+30EC_U+30A4_U+30E4_U+30FC 1
370
     0
100
AcDbVertex
100
AcDb2dVertex
 10
96.73621416852428
 20
-152.9002278263583
 30
0.0
  0
VERTEX
  5
F8
330
F5
100
AcDbEntity
  8
_U+30EC_U+30A4_U+30E4_U+30FC 1
370
     0
100
AcDbVertex
100
AcDb2dVertex
 10
96.73621416852428
 20
-152.4430636554656
 30
0.0
  0
VERTEX
  5
F9
330
F5
100
AcDbEntity
  8
_U+30EC_U+30A4_U+30E4_U+30FC 1
370
     0
100
AcDbVertex
100
AcDb2dVertex
 10
96.08026798813272
 20
-152.4430636554656
 30
0.0
  0
SEQEND
  5
FA
330
F5
100
AcDbEntity
  8
_U+30EC_U+30A4_U+30E4_U+30FC 1
370
     0
  0
HATCH
  5
FB
330
E3
100
AcDbEntity
  8
_U+30EC_U+30A4_U+30E4_U+30FC 1
 62
   179
420
  2234388
100
AcDbHatch
 10
0.0
 20
0.0
 30
0.0
210
0.0
220
0.0
230
1.0
  2
SOLID
 70
     1
 71
     0
 91
        2
 92
        1
 93
       11
 72
     1
 10
96.9349961780232
 20
-152.2253336207978
 11
97.28191729338786
 21
-152.2253336207978
 72
     1
 10
97.28191729338786
 20
-152.2253336207978
 11
97.28191729338786
 21
-152.4430636554656
 72
     1
 10
97.28191729338786
 20
-152.4430636554656
 11
96.9349961780232
 21
-152.4430636554656
 72
     1
 10
96.9349961780232
 20
-152.4430636554656
 11
96.9349961780232
 21
-153.0990098358572
 72
     1
 10
96.9349961780232
 20
-153.0990098358572
 11
96.71072046193343
 21
-153.0990098358572
 72
     1
 10
96.71072046193343
 20
-153.0990098358572
 11
95.73748098735035
 21
-152.4199815157145
 72
     1
 10
95.73748098735035
 20
-152.4199815157145
 11
95.73748098735035
 21
-152.2253336207978
 72
     1
 10
95.73748098735035
 20
-152.2253336207978
 11
96.73621416852428
 21
-152.2253336207978
 72
     1
 10
96.73621416852428
 20
-152.2253336207978
 11
96.73621416852428
 21
-152.0179388725858
 72
     1
 10
96.73621416852428
 20
-152.0179388725858
 11
96.9349961780232
 21
-152.0179388725858
 72
     1
 10
96.9349961780232
 20
-152.0179388725858
 11
96.9349961780232
 21
-152.2253336207978
 97
        0
 92
        1
 93
        3
 72
     1
 10
96.08026798813272
 20
-152.4430636554656
 11
96.73621416852428
 21
-152.9002278263583
 72
     1
 10
96.73621416852428
 20
-152.9002278263583
 11
96.73621416852428
 21
-152.4430636554656
 72
     1
 10
96.73621416852428
 20
-152.4430636554656
 11
96.08026798813272
 21
-152.4430636554656
 97
        0
 75
     2
 76
     1
 98
        0
  0
ENDBLK
  5
E6
330
E3
100
AcDbEntity
  8
0
100
AcDbBlockEnd
  0
BLOCK
  5
11B
330
119
100
AcDbEntity
  8
0
100
AcDbBlockBegin
  2
block 7
 70
     0
 10
0.0
 20
0.0
 30
0.0
  3
block 7
  1

  0
SPLINE
  5
11D
330
119
100
AcDbEntity
  8
_U+30EC_U+30A4_U+30E4_U+30FC 1
370
     0
100
AcDbSpline
210
0.0
220
0.0
230
1.0
 70
    11
 71
     3
 72
    62
 73
    58
 74
     0
 42
0.0000000001
 43
0.0000000001
 12
1.0
 22
0.0
 32
0.0
 13
1.0
 23
0.0
 33
0.0
 40
0.0
 40
0.0
 40
0.0
 40
0.0
 40
1.0
 40
1.0
 40
1.0
 40
2.0
 40
2.0
 40
2.0
 40
3.0
 40
3.0
 40
3.0
 40
4.0
 40
4.0
 40
4.0
 40
5.0
 40
5.0
 40
5.0
 40
6.0
 40
6.0
 40
6.0
 40
7.0
 40
7.0
 40
7.0
 40
8.0
 40
8.0
 40
8.0
 40
9.0
 40
9.0
 40
9.0
 40
10.0
 40
10.0
 40
10.0
 40
11.0
 40
11.0
 40
11.0
 40
12.0
 40
12.0
 40
12.0
 40
13.0
 40
13.0
 40
13.0
 40
14.0
 40
14.0
 40
14.0
 40
15.0
 40
15.0
 40
15.0
 40
16.0
 40
16.0
 40
16.0
 40
17.0
 40
17.0
 40
17.0
 40
18.0
 40
18.0
 40
18.0
 40
19.0
 40
19.0
 40
19.0
 40
19.0
 10
77.81643878262923
 20
-129.6837293512596
 30
0.0
 10
77.7210096376878
 20
-129.6837293512596
 30
0.0
 10
77.50327960302002
 20
-129.6627142687996
 30
0.0
 10
77.37822263690545
 20
-129.4766791125961
 30
0.0
 10
77.30415308397258
 20
-129.364368999777
 30
0.0
 10
77.30001896939028
 20
-129.2651502498018
 30
0.0
 10
77.29588485480798
 20
-129.1804009008646
 30
0.0
 10
77.29588485480798
 20
-129.1804009008646
 30
0.0
 10
77.51602645631544
 20
-129.1804009008646
 30
0.0
 10
77.51602645631544
 20
-129.1804009008646
 30
0.0
 10
77.51809351360659
 20
-129.2544704537975
 30
0.0
 10
77.52842880006234
 20
-129.489081456343
 30
0.0
 10
77.81196015849841
 20
-129.489081456343
 30
0.0
 10
77.94941946835988
 20
-129.489081456343
 30
0.0
 10
78.10203719835644
 20
-129.419490527541
 30
0.0
 10
78.10203719835644
 20
-129.1910806968689
 30
0.0
 10
78.10203719835644
 20
-129.0746364694675
 30
0.0
 10
78.06379663847017
 20
-129.0260606231254
 30
0.0
 10
78.03210176000587
 20
-128.9943657446611
 30
0.0
 10
77.95803220707299
 20
-128.9202961917283
 30
0.0
 10
77.84158797967154
 20
-128.9075493384328
 30
0.0
 10
77.78681096145608
 20
-128.9075493384328
 30
0.0
 10
77.76751842673868
 20
-128.9075493384328
 30
0.0
 10
77.73168943369208
 20
-128.909616395724
 30
0.0
 10
77.70412866981009
 20
-128.9137505103063
 30
0.0
 10
77.70412866981009
 20
-128.9137505103063
 30
0.0
 10
77.70412866981009
 20
-128.7191026153897
 30
0.0
 10
77.70412866981009
 20
-128.7191026153897
 30
0.0
 10
77.74236922969635
 20
-128.7256482968116
 30
0.0
 10
77.7843993946164
 20
-128.7277153541028
 30
0.0
 10
77.79094507603838
 20
-128.7277153541028
 30
0.0
 10
77.85640189025813
 20
-128.7277153541028
 30
0.0
 10
78.05518389975704
 20
-128.7063557620943
 30
0.0
 10
78.05518389975704
 20
-128.4696777022576
 30
0.0
 10
78.05518389975704
 20
-128.2919107752187
 30
0.0
 10
77.92427027131755
 20
-128.2367892474547
 30
0.0
 10
77.81402721578955
 20
-128.2367892474547
 30
0.0
 10
77.5497883920709
 20
-128.2367892474547
 30
0.0
 10
77.54117565335777
 20
-128.4696777022576
 30
0.0
 10
77.53704153877547
 20
-128.5413356883508
 30
0.0
 10
77.53704153877547
 20
-128.5413356883508
 30
0.0
 10
77.33378090514573
 20
-128.5413356883508
 30
0.0
 10
77.33378090514573
 20
-128.5413356883508
 30
0.0
 10
77.34239364385886
 20
-128.4166232317847
 30
0.0
 10
77.36995440774085
 20
-128.0400742952469
 30
0.0
 10
77.82677406908498
 20
-128.0400742952469
 30
0.0
 10
78.05104978517474
 20
-128.0400742952469
 30
0.0
 10
78.29220646914223
 20
-128.1671983186527
 30
0.0
 10
78.29220646914223
 20
-128.4631320208356
 30
0.0
 10
78.29220646914223
 20
-128.6495116865876
 30
0.0
 10
78.19712183374934
 20
-128.7318494686851
 30
0.0
 10
78.09755857422562
 20
-128.7931721683225
 30
0.0
 10
78.15888127386306
 20
-128.8207329322045
 30
0.0
 10
78.34078231548425
 20
-128.9010036570109
 30
0.0
 10
78.34078231548425
 20
-129.1783338435735
 30
0.0
 10
78.34078231548425
 20
-129.516642220225
 30
0.0
 10
78.09342445964332
 20
-129.6837293512596
 30
0.0
 10
77.81643878262923
 20
-129.6837293512596
 30
0.0
  0
HATCH
  5
11E
330
119
100
AcDbEntity
  8
_U+30EC_U+30A4_U+30E4_U+30FC 1
 62
   179
420
  2234388
100
AcDbHatch
 10
0.0
 20
0.0
 30
0.0
210
0.0
220
0.0
230
1.0
  2
SOLID
 70
     1
 71
     0
 91
        1
 92
        1
 93
        1
 72
     4
 94
        3
 73
     0
 74
     1
 95
       62
 96
       58
 40
0.0
 40
0.0
 40
0.0
 40
0.0
 40
1.0
 40
1.0
 40
1.0
 40
2.0
 40
2.0
 40
2.0
 40
3.0
 40
3.0
 40
3.0
 40
4.0
 40
4.0
 40
4.0
 40
5.0
 40
5.0
 40
5.0
 40
6.0
 40
6.0
 40
6.0
 40
7.0
 40
7.0
 40
7.0
 40
8.0
 40
8.0
 40
8.0
 40
9.0
 40
9.0
 40
9.0
 40
10.0
 40
10.0
 40
10.0
 40
11.0
 40
11.0
 40
11.0
 40
12.0
 40
12.0
 40
12.0
 40
13.0
 40
13.0
 40
13.0
 40
14.0
 40
14.0
 40
14.0
 40
15.0
 40
15.0
 40
15.0
 40
16.0
 40
16.0
 40
16.0
 40
17.0
 40
17.0
 40
17.0
 40
18.0
 40
18.0
 40
18.0
 40
19.0
 40
19.0
 40
19.0
 40
19.0
 10
77.81643878262923
 20
-129.6837293512596
 10
77.7210096376878
 20
-129.6837293512596
 10
77.50327960302002
 20
-129.6627142687996
 10
77.37822263690545
 20
-129.4766791125961
 10
77.30415308397258
 20
-129.364368999777
 10
77.30001896939028
 20
-129.2651502498018
 10
77.29588485480798
 20
-129.1804009008646
 10
77.29588485480798
 20
-129.1804009008646
 10
77.51602645631544
 20
-129.1804009008646
 10
77.51602645631544
 20
-129.1804009008646
 10
77.51809351360659
 20
-129.2544704537975
 10
77.52842880006234
 20
-129.489081456343
 10
77.81196015849841
 20
-129.489081456343
 10
77.94941946835988
 20
-129.489081456343
 10
78.10203719835644
 20
-129.419490527541
 10
78.10203719835644
 20
-129.1910806968689
 10
78.10203719835644
 20
-129.0746364694675
 10
78.06379663847017
 20
-129.0260606231254
 10
78.03210176000587
 20
-128.9943657446611
 10
77.95803220707299
 20
-128.9202961917283
 10
77.84158797967154
 20
-128.9075493384328
 10
77.78681096145608
 20
-128.9075493384328
 10
77.76751842673868
 20
-128.9075493384328
 10
77.73168943369208
 20
-128.909616395724
 10
77.70412866981009
 20
-128.9137505103063
 10
77.70412866981009
 20
-128.9137505103063
 10
77.70412866981009
 20
-128.7191026153897
 10
77.70412866981009
 20
-128.7191026153897
 10
77.74236922969635
 20
-128.7256482968116
 10
77.7843993946164
 20
-128.7277153541028
 10
77.79094507603838
 20
-128.7277153541028
 10
77.85640189025813
 20
-128.7277153541028
 10
78.05518389975704
 20
-128.7063557620943
 10
78.05518389975704
 20
-128.4696777022576
 10
78.05518389975704
 20
-128.2919107752187
 10
77.92427027131755
 20
-128.2367892474547
 10
77.81402721578955
 20
-128.2367892474547
 10
77.5497883920709
 20
-128.2367892474547
 10
77.54117565335777
 20
-128.4696777022576
 10
77.53704153877547
 20
-128.5413356883508
 10
77.53704153877547
 20
-128.5413356883508
 10
77.33378090514573
 20
-128.5413356883508
 10
77.33378090514573
 20
-128.5413356883508
 10
77.34239364385886
 20
-128.4166232317847
 10
77.36995440774085
 20
-128.0400742952469
 10
77.82677406908498
 20
-128.0400742952469
 10
78.05104978517474
 20
-128.0400742952469
 10
78.29220646914223
 20
-128.1671983186527
 10
78.29220646914223
 20
-128.4631320208356
 10
78.29220646914223
 20
-128.6495116865876
 10
78.19712183374934
 20
-128.7318494686851
 10
78.09755857422562
 20
-128.7931721683225
 10
78.15888127386306
 20
-128.8207329322045
 10
78.34078231548425
 20
-128.9010036570109
 10
78.34078231548425
 20
-129.1783338435735
 10
78.34078231548425
 20
-129.516642220225
 10
78.09342445964332
 20
-129.6837293512596
 10
77.81643878262923
 20
-129.6837293512596
 97
        0
 97
        0
 75
     2
 76
     1
 98
        0
  0
ENDBLK
  5
11C
330
119
100
AcDbEntity
  8
0
100
AcDbBlockEnd
  0
BLOCK
  5
121
330
11F
100
AcDbEntity
  8
0
100
AcDbBlockBegin
  2
block 8
 70
     0
 10
0.0
 20
0.0
 30
0.0
  3
block 8
  1

  0
SPLINE
  5
123
330
11F
100
AcDbEntity
  8
_U+30EC_U+30A4_U+30E4_U+30FC 1
370
     0
100
AcDbSpline
210
0.0
220
0.0
230
1.0
 70
    11
 71
     3
 72
    26
 73
    22
 74
     0
 42
0.0000000001
 43
0.0000000001
 12
1.0
 22
0.0
 32
0.0
 13
1.0
 23
0.0
 33
0.0
 40
0.0
 40
0.0
 40
0.0
 40
0.0
 40
1.0
 40
1.0
 40
1.0
 40
2.0
 40
2.0
 40
2.0
 40
3.0
 40
3.0
 40
3.0
 40
4.0
 40
4.0
 40
4.0
 40
5.0
 40
5.0
 40
5.0
 40
6.0
 40
6.0
 40
6.0
 40
7.0
 40
7.0
 40
7.0
 40
7.0
 10
83.02886825181223
 20
-129.6330864476265
 30
0.0
 10
83.02886825181223
 20
-129.6330864476265
 30
0.0
 10
83.02886825181223
 20
-128.5289333446039
 30
0.0
 10
83.02886825181223
 20
-128.5289333446039
 30
0.0
 10
83.02886825181223
 20
-128.5289333446039
 30
0.0
 10
82.6988281043253
 20
-128.5289333446039
 30
0.0
 10
82.6988281043253
 20
-128.5289333446039
 30
0.0
 10
82.6988281043253
 20
-128.5289333446039
 30
0.0
 10
82.6988281043253
 20
-128.3807942387381
 30
0.0
 10
82.6988281043253
 20
-128.3807942387381
 30
0.0
 10
83.03093530910338
 20
-128.3659803281516
 30
0.0
 10
83.07744409815426
 20
-128.2030273116993
 30
0.0
 10
83.1070719193274
 20
-128.0886501415889
 30
0.0
 10
83.1070719193274
 20
-128.0886501415889
 30
0.0
 10
83.25314396790199
 20
-128.0886501415889
 30
0.0
 10
83.25314396790199
 20
-128.0886501415889
 30
0.0
 10
83.25314396790199
 20
-128.0886501415889
 30
0.0
 10
83.25314396790199
 20
-129.6330864476265
 30
0.0
 10
83.25314396790199
 20
-129.6330864476265
 30
0.0
 10
83.25314396790199
 20
-129.6330864476265
 30
0.0
 10
83.02886825181223
 20
-129.6330864476265
 30
0.0
 10
83.02886825181223
 20
-129.6330864476265
 30
0.0
  0
HATCH
  5
124
330
11F
100
AcDbEntity
  8
_U+30EC_U+30A4_U+30E4_U+30FC 1
 62
   179
420
  2234388
100
AcDbHatch
 10
0.0
 20
0.0
 30
0.0
210
0.0
220
0.0
230
1.0
  2
SOLID
 70
     1
 71
     0
 91
        1
 92
        1
 93
        1
 72
     4
 94
        3
 73
     0
 74
     1
 95
       26
 96
       22
 40
0.0
 40
0.0
 40
0.0
 40
0.0
 40
1.0
 40
1.0
 40
1.0
 40
2.0
 40
2.0
 40
2.0
 40
3.0
 40
3.0
 40
3.0
 40
4.0
 40
4.0
 40
4.0
 40
5.0
 40
5.0
 40
5.0
 40
6.0
 40
6.0
 40
6.0
 40
7.0
 40
7.0
 40
7.0
 40
7.0
 10
83.02886825181223
 20
-129.6330864476265
 10
83.02886825181223
 20
-129.6330864476265
 10
83.02886825181223
 20
-128.5289333446039
 10
83.02886825181223
 20
-128.5289333446039
 10
83.02886825181223
 20
-128.5289333446039
 10
82.6988281043253
 20
-128.5289333446039
 10
82.6988281043253
 20
-128.5289333446039
 10
82.6988281043253
 20
-128.5289333446039
 10
82.6988281043253
 20
-128.3807942387381
 10
82.6988281043253
 20
-128.3807942387381
 10
83.03093530910338
 20
-128.3659803281516
 10
83.07744409815426
 20
-128.2030273116993
 10
83.1070719193274
 20
-128.0886501415889
 10
83.1070719193274
 20
-128.0886501415889
 10
83.25314396790199
 20
-128.0886501415889
 10
83.25314396790199
 20
-128.0886501415889
 10
83.25314396790199
 20
-128.0886501415889
 10
83.25314396790199
 20
-129.6330864476265
 10
83.25314396790199
 20
-129.6330864476265
 10
83.25314396790199
 20
-129.6330864476265
 10
83.02886825181223
 20
-129.6330864476265
 10
83.02886825181223
 20
-129.6330864476265
 97
        0
 97
        0
 75
     2
 76
     1
 98
        0
  0
SPLINE
  5
125
330
11F
100
AcDbEntity
  8
_U+30EC_U+30A4_U+30E4_U+30FC 1
370
     0
100
AcDbSpline
210
0.0
220
0.0
230
1.0
 70
    11
 71
     3
 72
    29
 73
    25
 74
     0
 42
0.0000000001
 43
0.0000000001
 12
1.0
 22
0.0
 32
0.0
 13
1.0
 23
0.0
 33
0.0
 40
0.0
 40
0.0
 40
0.0
 40
0.0
 40
1.0
 40
1.0
 40
1.0
 40
2.0
 40
2.0
 40
2.0
 40
3.0
 40
3.0
 40
3.0
 40
4.0
 40
4.0
 40
4.0
 40
5.0
 40
5.0
 40
5.0
 40
6.0
 40
6.0
 40
6.0
 40
7.0
 40
7.0
 40
7.0
 40
8.0
 40
8.0
 40
8.0
 40
8.0
 10
84.65219724446196
 20
-129.4553195205876
 30
0.0
 10
84.54402124622511
 20
-129.6647813260907
 30
0.0
 10
84.37073294331704
 20
-129.6837293512596
 30
0.0
 10
84.25428871591559
 20
-129.6837293512596
 30
0.0
 10
84.09340275675443
 20
-129.6837293512596
 30
0.0
 10
83.95180933231066
 20
-129.6372205622088
 30
0.0
 10
83.85672469691777
 20
-129.4553195205876
 30
0.0
 10
83.75302732281175
 20
-129.2606716256709
 30
0.0
 10
83.73373478809435
 20
-129.0239935658343
 30
0.0
 10
83.73373478809435
 20
-128.861040549382
 30
0.0
 10
83.73373478809435
 20
-128.7170355580985
 30
0.0
 10
83.7509602655206
 20
-128.4651990781268
 30
0.0
 10
83.85672469691777
 20
-128.2664170686278
 30
0.0
 10
83.96455618560609
 20
-128.0635009445466
 30
0.0
 10
84.12544214476725
 20
-128.0400742952469
 30
0.0
 10
84.25428871591559
 20
-128.0400742952469
 30
0.0
 10
84.41310761778561
 20
-128.0400742952469
 30
0.0
 10
84.55676809952054
 20
-128.0845160270067
 30
0.0
 10
84.65219724446196
 20
-128.2664170686278
 30
0.0
 10
84.75141599443715
 20
-128.4589979062533
 30
0.0
 10
84.77484264373685
 20
-128.6874077369254
 30
0.0
 10
84.77484264373685
 20
-128.861040549382
 30
0.0
 10
84.77484264373685
 20
-129.0322617949989
 30
0.0
 10
84.7534830517283
 20
-129.2627386829621
 30
0.0
 10
84.65219724446196
 20
-129.4553195205876
 30
0.0
  0
SPLINE
  5
126
330
11F
100
AcDbEntity
  8
_U+30EC_U+30A4_U+30E4_U+30FC 1
370
     0
100
AcDbSpline
210
0.0
220
0.0
230
1.0
 70
    11
 71
     3
 72
    17
 73
    13
 74
     0
 42
0.0000000001
 43
0.0000000001
 12
1.0
 22
0.0
 32
0.0
 13
1.0
 23
0.0
 33
0.0
 40
0.0
 40
0.0
 40
0.0
 40
0.0
 40
1.0
 40
1.0
 40
1.0
 40
2.0
 40
2.0
 40
2.0
 40
3.0
 40
3.0
 40
3.0
 40
4.0
 40
4.0
 40
4.0
 40
4.0
 10
84.25428871591559
 20
-128.2326551328724
 30
0.0
 10
84.00451929323499
 20
-128.2326551328724
 30
0.0
 10
83.95801050418412
 20
-128.5161864913084
 30
0.0
 10
83.95801050418412
 20
-128.861040549382
 30
0.0
 10
83.95801050418412
 20
-129.1804009008646
 30
0.0
 10
83.99418400677924
 20
-129.489081456343
 30
0.0
 10
84.25428871591559
 20
-129.489081456343
 30
0.0
 10
84.50199108130506
 20
-129.489081456343
 30
0.0
 10
84.55056692764708
 20
-129.2079616647466
 30
0.0
 10
84.55056692764708
 20
-128.861040549382
 30
0.0
 10
84.55056692764708
 20
-128.5413356883508
 30
0.0
 10
84.5123263677608
 20
-128.2326551328724
 30
0.0
 10
84.25428871591559
 20
-128.2326551328724
 30
0.0
  0
HATCH
  5
127
330
11F
100
AcDbEntity
  8
_U+30EC_U+30A4_U+30E4_U+30FC 1
 62
   179
420
  2234388
100
AcDbHatch
 10
0.0
 20
0.0
 30
0.0
210
0.0
220
0.0
230
1.0
  2
SOLID
 70
     1
 71
     0
 91
        2
 92
        1
 93
        1
 72
     4
 94
        3
 73
     0
 74
     1
 95
       29
 96
       25
 40
0.0
 40
0.0
 40
0.0
 40
0.0
 40
1.0
 40
1.0
 40
1.0
 40
2.0
 40
2.0
 40
2.0
 40
3.0
 40
3.0
 40
3.0
 40
4.0
 40
4.0
 40
4.0
 40
5.0
 40
5.0
 40
5.0
 40
6.0
 40
6.0
 40
6.0
 40
7.0
 40
7.0
 40
7.0
 40
8.0
 40
8.0
 40
8.0
 40
8.0
 10
84.65219724446196
 20
-129.4553195205876
 10
84.54402124622511
 20
-129.6647813260907
 10
84.37073294331704
 20
-129.6837293512596
 10
84.25428871591559
 20
-129.6837293512596
 10
84.09340275675443
 20
-129.6837293512596
 10
83.95180933231066
 20
-129.6372205622088
 10
83.85672469691777
 20
-129.4553195205876
 10
83.75302732281175
 20
-129.2606716256709
 10
83.73373478809435
 20
-129.0239935658343
 10
83.73373478809435
 20
-128.861040549382
 10
83.73373478809435
 20
-128.7170355580985
 10
83.7509602655206
 20
-128.4651990781268
 10
83.85672469691777
 20
-128.2664170686278
 10
83.96455618560609
 20
-128.0635009445466
 10
84.12544214476725
 20
-128.0400742952469
 10
84.25428871591559
 20
-128.0400742952469
 10
84.41310761778561
 20
-128.0400742952469
 10
84.55676809952054
 20
-128.0845160270067
 10
84.65219724446196
 20
-128.2664170686278
 10
84.75141599443715
 20
-128.4589979062533
 10
84.77484264373685
 20
-128.6874077369254
 10
84.77484264373685
 20
-128.861040549382
 10
84.77484264373685
 20
-129.0322617949989
 10
84.7534830517283
 20
-129.2627386829621
 10
84.65219724446196
 20
-129.4553195205876
 97
        0
 97
        0
 92
        1
 93
        1
 72
     4
 94
        3
 73
     0
 74
     1
 95
       17
 96
       13
 40
0.0
 40
0.0
 40
0.0
 40
0.0
 40
1.0
 40
1.0
 40
1.0
 40
2.0
 40
2.0
 40
2.0
 40
3.0
 40
3.0
 40
3.0
 40
4.0
 40
4.0
 40
4.0
 40
4.0
 10
84.25428871591559
 20
-128.2326551328724
 10
84.00451929323499
 20
-128.2326551328724
 10
83.95801050418412
 20
-128.5161864913084
 10
83.95801050418412
 20
-128.861040549382
 10
83.95801050418412
 20
-129.1804009008646
 10
83.99418400677924
 20
-129.489081456343
 10
84.25428871591559
 20
-129.489081456343
 10
84.50199108130506
 20
-129.489081456343
 10
84.55056692764708
 20
-129.2079616647466
 10
84.55056692764708
 20
-128.861040549382
 10
84.55056692764708
 20
-128.5413356883508
 10
84.5123263677608
 20
-128.2326551328724
 10
84.25428871591559
 20
-128.2326551328724
 97
        0
 97
        0
 75
     2
 76
     1
 98
        0
  0
ENDBLK
  5
122
330
11F
100
AcDbEntity
  8
0
100
AcDbBlockEnd
  0
BLOCK
  5
132
330
130
100
AcDbEntity
  8
0
100
AcDbBlockBegin
  2
block 9
 70
     0
 10
0.0
 20
0.0
 30
0.0
  3
block 9
  1

  0
SPLINE
  5
134
330
130
100
AcDbEntity
  8
_U+30EC_U+30A4_U+30E4_U+30FC 1
370
     0
100
AcDbSpline
210
0.0
220
0.0
230
1.0
 70
    11
 71
     3
 72
    44
 73
    40
 74
     0
 42
0.0000000001
 43
0.0000000001
 12
1.0
 22
0.0
 32
0.0
 13
1.0
 23
0.0
 33
0.0
 40
0.0
 40
0.0
 40
0.0
 40
0.0
 40
1.0
 40
1.0
 40
1.0
 40
2.0
 40
2.0
 40
2.0
 40
3.0
 40
3.0
 40
3.0
 40
4.0
 40
4.0
 40
4.0
 40
5.0
 40
5.0
 40
5.0
 40
6.0
 40
6.0
 40
6.0
 40
7.0
 40
7.0
 40
7.0
 40
8.0
 40
8.0
 40
8.0
 40
9.0
 40
9.0
 40
9.0
 40
10.0
 40
10.0
 40
10.0
 40
11.0
 40
11.0
 40
11.0
 40
12.0
 40
12.0
 40
12.0
 40
13.0
 40
13.0
 40
13.0
 40
13.0
 10
71.94789087828039
 20
-144.5293348162982
 30
0.0
 10
72.10653752537614
 20
-144.747064850966
 30
0.0
 10
72.18060707830902
 20
-144.8400824290678
 30
0.0
 10
72.3244398148182
 20
-144.8890027849583
 30
0.0
 10
72.3244398148182
 20
-144.8890027849583
 30
0.0
 10
72.3244398148182
 20
-144.1104112052919
 30
0.0
 10
72.3244398148182
 20
-144.1104112052919
 30
0.0
 10
72.3244398148182
 20
-144.1104112052919
 30
0.0
 10
72.52959525096483
 20
-144.1104112052919
 30
0.0
 10
72.52959525096483
 20
-144.1104112052919
 30
0.0
 10
72.52959525096483
 20
-144.1104112052919
 30
0.0
 10
72.52959525096483
 20
-145.1384276980904
 30
0.0
 10
72.52959525096483
 20
-145.1384276980904
 30
0.0
 10
72.1719943395959
 20
-145.1067328196261
 30
0.0
 10
72.09379067208073
 20
-145.0412760054064
 30
0.0
 10
71.79544540305808
 20
-144.6561143301554
 30
0.0
 10
71.59666339355917
 20
-144.4001437356013
 30
0.0
 10
71.52896726727401
 20
-144.3346869213816
 30
0.0
 10
71.39150795741254
 20
-144.3346869213816
 30
0.0
 10
71.27299667271996
 20
-144.3346869213816
 30
0.0
 10
71.1419107895062
 20
-144.4066894170233
 30
0.0
 10
71.1419107895062
 20
-144.6030598596826
 30
0.0
 10
71.1419107895062
 20
-144.8635090783675
 30
0.0
 10
71.3723876774694
 20
-144.8717773075321
 30
0.0
 10
71.48883190487085
 20
-144.8762559316629
 30
0.0
 10
71.48883190487085
 20
-144.8762559316629
 30
0.0
 10
71.48883190487085
 20
-145.1005316477527
 30
0.0
 10
71.48883190487085
 20
-145.1005316477527
 30
0.0
 10
71.36188013623939
 20
-145.0919189090395
 30
0.0
 10
71.24974227819452
 20
-145.0812391130353
 30
0.0
 10
71.13123099350192
 20
-145.0009683882289
 30
0.0
 10
70.97051728911501
 20
-144.8910698422495
 30
0.0
 10
70.9365830985853
 20
-144.705034686046
 30
0.0
 10
70.9365830985853
 20
-144.5885904586445
 30
0.0
 10
70.9365830985853
 20
-144.3112602720819
 30
0.0
 10
71.1207234522719
 20
-144.1042100334184
 30
0.0
 10
71.3935750147037
 20
-144.1042100334184
 30
0.0
 10
71.62198484537576
 20
-144.1042100334184
 30
0.0
 10
71.72154810489948
 20
-144.2203097512713
 30
0.0
 10
71.94789087828039
 20
-144.5293348162982
 30
0.0
  0
HATCH
  5
135
330
130
100
AcDbEntity
  8
_U+30EC_U+30A4_U+30E4_U+30FC 1
 62
   179
420
  2234388
100
AcDbHatch
 10
0.0
 20
0.0
 30
0.0
210
0.0
220
0.0
230
1.0
  2
SOLID
 70
     1
 71
     0
 91
        1
 92
        1
 93
        1
 72
     4
 94
        3
 73
     0
 74
     1
 95
       44
 96
       40
 40
0.0
 40
0.0
 40
0.0
 40
0.0
 40
1.0
 40
1.0
 40
1.0
 40
2.0
 40
2.0
 40
2.0
 40
3.0
 40
3.0
 40
3.0
 40
4.0
 40
4.0
 40
4.0
 40
5.0
 40
5.0
 40
5.0
 40
6.0
 40
6.0
 40
6.0
 40
7.0
 40
7.0
 40
7.0
 40
8.0
 40
8.0
 40
8.0
 40
9.0
 40
9.0
 40
9.0
 40
10.0
 40
10.0
 40
10.0
 40
11.0
 40
11.0
 40
11.0
 40
12.0
 40
12.0
 40
12.0
 40
13.0
 40
13.0
 40
13.0
 40
13.0
 10
71.94789087828039
 20
-144.5293348162982
 10
72.10653752537614
 20
-144.747064850966
 10
72.18060707830902
 20
-144.8400824290678
 10
72.3244398148182
 20
-144.8890027849583
 10
72.3244398148182
 20
-144.8890027849583
 10
72.3244398148182
 20
-144.1104112052919
 10
72.3244398148182
 20
-144.1104112052919
 10
72.3244398148182
 20
-144.1104112052919
 10
72.52959525096483
 20
-144.1104112052919
 10
72.52959525096483
 20
-144.1104112052919
 10
72.52959525096483
 20
-144.1104112052919
 10
72.52959525096483
 20
-145.1384276980904
 10
72.52959525096483
 20
-145.1384276980904
 10
72.1719943395959
 20
-145.1067328196261
 10
72.09379067208073
 20
-145.0412760054064
 10
71.79544540305808
 20
-144.6561143301554
 10
71.59666339355917
 20
-144.4001437356013
 10
71.52896726727401
 20
-144.3346869213816
 10
71.39150795741254
 20
-144.3346869213816
 10
71.27299667271996
 20
-144.3346869213816
 10
71.1419107895062
 20
-144.4066894170233
 10
71.1419107895062
 20
-144.6030598596826
 10
71.1419107895062
 20
-144.8635090783675
 10
71.3723876774694
 20
-144.8717773075321
 10
71.48883190487085
 20
-144.8762559316629
 10
71.48883190487085
 20
-144.8762559316629
 10
71.48883190487085
 20
-145.1005316477527
 10
71.48883190487085
 20
-145.1005316477527
 10
71.36188013623939
 20
-145.0919189090395
 10
71.24974227819452
 20
-145.0812391130353
 10
71.13123099350192
 20
-145.0009683882289
 10
70.97051728911501
 20
-144.8910698422495
 10
70.9365830985853
 20
-144.705034686046
 10
70.9365830985853
 20
-144.5885904586445
 10
70.9365830985853
 20
-144.3112602720819
 10
71.1207234522719
 20
-144.1042100334184
 10
71.3935750147037
 20
-144.1042100334184
 10
71.62198484537576
 20
-144.1042100334184
 10
71.72154810489948
 20
-144.2203097512713
 10
71.94789087828039
 20
-144.5293348162982
 97
        0
 97
        0
 75
     2
 76
     1
 98
        0
  0
SPLINE
  5
136
330
130
100
AcDbEntity
  8
_U+30EC_U+30A4_U+30E4_U+30FC 1
370
     0
100
AcDbSpline
210
0.0
220
0.0
230
1.0
 70
    11
 71
     3
 72
    26
 73
    22
 74
     0
 42
0.0000000001
 43
0.0000000001
 12
1.0
 22
0.0
 32
0.0
 13
1.0
 23
0.0
 33
0.0
 40
0.0
 40
0.0
 40
0.0
 40
0.0
 40
1.0
 40
1.0
 40
1.0
 40
2.0
 40
2.0
 40
2.0
 40
3.0
 40
3.0
 40
3.0
 40
4.0
 40
4.0
 40
4.0
 40
5.0
 40
5.0
 40
5.0
 40
6.0
 40
6.0
 40
6.0
 40
7.0
 40
7.0
 40
7.0
 40
7.0
 10
72.52959525096483
 20
-143.4940836229806
 30
0.0
 10
72.52959525096483
 20
-143.4940836229806
 30
0.0
 10
71.425269893168
 20
-143.4940836229806
 30
0.0
 10
71.425269893168
 20
-143.4940836229806
 30
0.0
 10
71.425269893168
 20
-143.4940836229806
 30
0.0
 10
71.425269893168
 20
-143.8241237704676
 30
0.0
 10
71.425269893168
 20
-143.8241237704676
 30
0.0
 10
71.425269893168
 20
-143.8241237704676
 30
0.0
 10
71.27730304207651
 20
-143.8241237704676
 30
0.0
 10
71.27730304207651
 20
-143.8241237704676
 30
0.0
 10
71.26248913148994
 20
-143.4920165656895
 30
0.0
 10
71.09953611503762
 20
-143.4455077766386
 30
0.0
 10
70.98533119970159
 20
-143.4158799554655
 30
0.0
 10
70.98533119970159
 20
-143.4158799554655
 30
0.0
 10
70.98533119970159
 20
-143.2698079068909
 30
0.0
 10
70.98533119970159
 20
-143.2698079068909
 30
0.0
 10
70.98533119970159
 20
-143.2698079068909
 30
0.0
 10
72.52959525096483
 20
-143.2698079068909
 30
0.0
 10
72.52959525096483
 20
-143.2698079068909
 30
0.0
 10
72.52959525096483
 20
-143.2698079068909
 30
0.0
 10
72.52959525096483
 20
-143.4940836229806
 30
0.0
 10
72.52959525096483
 20
-143.4940836229806
 30
0.0
  0
HATCH
  5
137
330
130
100
AcDbEntity
  8
_U+30EC_U+30A4_U+30E4_U+30FC 1
 62
   179
420
  2234388
100
AcDbHatch
 10
0.0
 20
0.0
 30
0.0
210
0.0
220
0.0
230
1.0
  2
SOLID
 70
     1
 71
     0
 91
        1
 92
        1
 93
        1
 72
     4
 94
        3
 73
     0
 74
     1
 95
       26
 96
       22
 40
0.0
 40
0.0
 40
0.0
 40
0.0
 40
1.0
 40
1.0
 40
1.0
 40
2.0
 40
2.0
 40
2.0
 40
3.0
 40
3.0
 40
3.0
 40
4.0
 40
4.0
 40
4.0
 40
5.0
 40
5.0
 40
5.0
 40
6.0
 40
6.0
 40
6.0
 40
7.0
 40
7.0
 40
7.0
 40
7.0
 10
72.52959525096483
 20
-143.4940836229806
 10
72.52959525096483
 20
-143.4940836229806
 10
71.425269893168
 20
-143.4940836229806
 10
71.425269893168
 20
-143.4940836229806
 10
71.425269893168
 20
-143.4940836229806
 10
71.425269893168
 20
-143.8241237704676
 10
71.425269893168
 20
-143.8241237704676
 10
71.425269893168
 20
-143.8241237704676
 10
71.27730304207651
 20
-143.8241237704676
 10
71.27730304207651
 20
-143.8241237704676
 10
71.26248913148994
 20
-143.4920165656895
 10
71.09953611503762
 20
-143.4455077766386
 10
70.98533119970159
 20
-143.4158799554655
 10
70.98533119970159
 20
-143.4158799554655
 10
70.98533119970159
 20
-143.2698079068909
 10
70.98533119970159
 20
-143.2698079068909
 10
70.98533119970159
 20
-143.2698079068909
 10
72.52959525096483
 20
-143.2698079068909
 10
72.52959525096483
 20
-143.2698079068909
 10
72.52959525096483
 20
-143.2698079068909
 10
72.52959525096483
 20
-143.4940836229806
 10
72.52959525096483
 20
-143.4940836229806
 97
        0
 97
        0
 75
     2
 76
     1
 98
        0
  0
ENDBLK
  5
133
330
130
100
AcDbEntity
  8
0
100
AcDbBlockEnd
  0
BLOCK
  5
149
330
147
100
AcDbEntity
  8
0
100
AcDbBlockBegin
  2
block 10
 70
     0
 10
0.0
 20
0.0
 30
0.0
  3
block 10
  1

  0
SPLINE
  5
14B
330
147
100
AcDbEntity
  8
_U+30EC_U+30A4_U+30E4_U+30FC 1
370
     0
100
AcDbSpline
210
0.0
220
0.0
230
1.0
 70
    11
 71
     3
 72
    17
 73
    13
 74
     0
 42
0.0000000001
 43
0.0000000001
 12
1.0
 22
0.0
 32
0.0
 13
1.0
 23
0.0
 33
0.0
 40
0.0
 40
0.0
 40
0.0
 40
0.0
 40
1.0
 40
1.0
 40
1.0
 40
2.0
 40
2.0
 40
2.0
 40
3.0
 40
3.0
 40
3.0
 40
4.0
 40
4.0
 40
4.0
 40
4.0
 10
95.51906193358552
 20
-159.8865369608964
 30
0.0
 10
95.41329750218834
 20
-159.7807725294992
 30
0.0
 10
95.3326822678335
 20
-159.7428764791615
 30
0.0
 10
95.23966468973175
 20
-159.7111816006972
 30
0.0
 10
95.23966468973175
 20
-159.7111816006972
 30
0.0
 10
95.34990774525976
 20
-159.5458170174052
 30
0.0
 10
95.34990774525976
 20
-159.5458170174052
 30
0.0
 10
95.44705943794379
 20
-159.5885362014223
 30
0.0
 10
95.56763777992754
 20
-159.666395359389
 30
0.0
 10
95.62069225040038
 20
-159.721516887153
 30
0.0
 10
95.62069225040038
 20
-159.721516887153
 30
0.0
 10
95.51906193358552
 20
-159.8865369608964
 30
0.0
 10
95.51906193358552
 20
-159.8865369608964
 30
0.0
  0
SPLINE
  5
14C
330
147
100
AcDbEntity
  8
_U+30EC_U+30A4_U+30E4_U+30FC 1
370
     0
100
AcDbSpline
210
0.0
220
0.0
230
1.0
 70
    11
 71
     3
 72
   182
 73
   178
 74
     0
 42
0.0000000001
 43
0.0000000001
 12
1.0
 22
0.0
 32
0.0
 13
1.0
 23
0.0
 33
0.0
 40
0.0
 40
0.0
 40
0.0
 40
0.0
 40
1.0
 40
1.0
 40
1.0
 40
2.0
 40
2.0
 40
2.0
 40
3.0
 40
3.0
 40
3.0
 40
4.0
 40
4.0
 40
4.0
 40
5.0
 40
5.0
 40
5.0
 40
6.0
 40
6.0
 40
6.0
 40
7.0
 40
7.0
 40
7.0
 40
8.0
 40
8.0
 40
8.0
 40
9.0
 40
9.0
 40
9.0
 40
10.0
 40
10.0
 40
10.0
 40
11.0
 40
11.0
 40
11.0
 40
12.0
 40
12.0
 40
12.0
 40
13.0
 40
13.0
 40
13.0
 40
14.0
 40
14.0
 40
14.0
 40
15.0
 40
15.0
 40
15.0
 40
16.0
 40
16.0
 40
16.0
 40
17.0
 40
17.0
 40
17.0
 40
18.0
 40
18.0
 40
18.0
 40
19.0
 40
19.0
 40
19.0
 40
20.0
 40
20.0
 40
20.0
 40
21.0
 40
21.0
 40
21.0
 40
22.0
 40
22.0
 40
22.0
 40
23.0
 40
23.0
 40
23.0
 40
24.0
 40
24.0
 40
24.0
 40
25.0
 40
25.0
 40
25.0
 40
26.0
 40
26.0
 40
26.0
 40
27.0
 40
27.0
 40
27.0
 40
28.0
 40
28.0
 40
28.0
 40
29.0
 40
29.0
 40
29.0
 40
30.0
 40
30.0
 40
30.0
 40
31.0
 40
31.0
 40
31.0
 40
32.0
 40
32.0
 40
32.0
 40
33.0
 40
33.0
 40
33.0
 40
34.0
 40
34.0
 40
34.0
 40
35.0
 40
35.0
 40
35.0
 40
36.0
 40
36.0
 40
36.0
 40
37.0
 40
37.0
 40
37.0
 40
38.0
 40
38.0
 40
38.0
 40
39.0
 40
39.0
 40
39.0
 40
40.0
 40
40.0
 40
40.0
 40
41.0
 40
41.0
 40
41.0
 40
42.0
 40
42.0
 40
42.0
 40
43.0
 40
43.0
 40
43.0
 40
44.0
 40
44.0
 40
44.0
 40
45.0
 40
45.0
 40
45.0
 40
46.0
 40
46.0
 40
46.0
 40
47.0
 40
47.0
 40
47.0
 40
48.0
 40
48.0
 40
48.0
 40
49.0
 40
49.0
 40
49.0
 40
50.0
 40
50.0
 40
50.0
 40
51.0
 40
51.0
 40
51.0
 40
52.0
 40
52.0
 40
52.0
 40
53.0
 40
53.0
 40
53.0
 40
54.0
 40
54.0
 40
54.0
 40
55.0
 40
55.0
 40
55.0
 40
56.0
 40
56.0
 40
56.0
 40
57.0
 40
57.0
 40
57.0
 40
58.0
 40
58.0
 40
58.0
 40
59.0
 40
59.0
 40
59.0
 40
59.0
 10
96.56395939426179
 20
-161.0651041264004
 30
0.0
 10
96.56395939426179
 20
-161.0651041264004
 30
0.0
 10
95.92730574858763
 20
-161.0651041264004
 30
0.0
 10
95.92730574858763
 20
-161.0651041264004
 30
0.0
 10
95.71370982850213
 20
-161.0651041264004
 30
0.0
 10
95.49770234157697
 20
-161.0692382409827
 30
0.0
 10
95.28410642149147
 20
-161.0816405847296
 30
0.0
 10
95.28410642149147
 20
-161.0816405847296
 30
0.0
 10
95.28410642149147
 20
-160.8745903460661
 30
0.0
 10
95.28410642149147
 20
-160.8745903460661
 30
0.0
 10
95.5063150802901
 20
-160.8873371993615
 30
0.0
 10
95.82980954635505
 20
-160.8914713139438
 30
0.0
 10
95.92730574858763
 20
-160.8914713139438
 30
0.0
 10
95.92730574858763
 20
-160.8914713139438
 30
0.0
 10
96.14744735009509
 20
-160.8914713139438
 30
0.0
 10
96.14744735009509
 20
-160.8914713139438
 30
0.0
 10
96.14744735009509
 20
-160.8914713139438
 30
0.0
 10
96.14744735009509
 20
-160.7495333799515
 30
0.0
 10
96.14744735009509
 20
-160.7495333799515
 30
0.0
 10
96.14744735009509
 20
-160.7495333799515
 30
0.0
 10
95.98656139093391
 20
-160.7495333799515
 30
0.0
 10
95.98656139093391
 20
-160.7495333799515
 30
0.0
 10
95.82154131719045
 20
-160.7495333799515
 30
0.0
 10
95.65652124344699
 20
-160.7540120040823
 30
0.0
 10
95.49150116970351
 20
-160.7688259146689
 30
0.0
 10
95.49150116970351
 20
-160.7688259146689
 30
0.0
 10
95.49150116970351
 20
-160.5593641091657
 30
0.0
 10
95.49150116970351
 20
-160.5593641091657
 30
0.0
 10
95.66272241532043
 20
-160.5741780197523
 30
0.0
 10
95.9104247807099
 20
-160.5783121343346
 30
0.0
 10
95.98656139093391
 20
-160.5783121343346
 30
0.0
 10
95.98656139093391
 20
-160.5783121343346
 30
0.0
 10
96.14744735009509
 20
-160.5783121343346
 30
0.0
 10
96.14744735009509
 20
-160.5783121343346
 30
0.0
 10
96.14296872596427
 20
-160.5063096386929
 30
0.0
 10
96.14296872596427
 20
-160.5001084668194
 30
0.0
 10
96.13676755409081
 20
-160.4470539963466
 30
0.0
 10
96.13676755409081
 20
-160.4470539963466
 30
0.0
 10
96.27629392124344
 20
-160.4622124164817
 30
0.0
 10
96.27629392124344
 20
-160.4622124164817
 30
0.0
 10
96.27629392124344
 20
-160.4622124164817
 30
0.0
 10
96.17707517126824
 20
-160.2906466613162
 30
0.0
 10
96.17707517126824
 20
-160.2906466613162
 30
0.0
 10
96.2235839603191
 20
-160.2968478331897
 30
0.0
 10
96.29765351325197
 20
-160.3054605719028
 30
0.0
 10
96.3145344811297
 20
-160.3054605719028
 30
0.0
 10
96.36517738476287
 20
-160.3054605719028
 30
0.0
 10
96.3820583526406
 20
-160.2844454894428
 30
0.0
 10
96.3820583526406
 20
-160.2272569043876
 30
0.0
 10
96.3820583526406
 20
-160.2272569043876
 30
0.0
 10
96.3820583526406
 20
-160.0894530849776
 30
0.0
 10
96.3820583526406
 20
-160.0894530849776
 30
0.0
 10
96.3820583526406
 20
-160.0894530849776
 30
0.0
 10
96.27629392124344
 20
-160.0894530849776
 30
0.0
 10
96.27629392124344
 20
-160.0894530849776
 30
0.0
 10
96.14296872596427
 20
-160.0894530849776
 30
0.0
 10
95.98656139093391
 20
-160.0894530849776
 30
0.0
 10
95.86391599165903
 20
-160.1025444478216
 30
0.0
 10
95.86391599165903
 20
-160.1025444478216
 30
0.0
 10
95.86391599165903
 20
-159.9120306674873
 30
0.0
 10
95.86391599165903
 20
-159.9120306674873
 30
0.0
 10
96.03100312269365
 20
-159.928911635365
 30
0.0
 10
96.26148001065685
 20
-159.9309786926561
 30
0.0
 10
96.27629392124344
 20
-159.9309786926561
 30
0.0
 10
96.27629392124344
 20
-159.9309786926561
 30
0.0
 10
96.3820583526406
 20
-159.9309786926561
 30
0.0
 10
96.3820583526406
 20
-159.9309786926561
 30
0.0
 10
96.3820583526406
 20
-159.9309786926561
 30
0.0
 10
96.3820583526406
 20
-159.8000650642167
 30
0.0
 10
96.3820583526406
 20
-159.8000650642167
 30
0.0
 10
96.3820583526406
 20
-159.8000650642167
 30
0.0
 10
96.34416230230285
 20
-159.8000650642167
 30
0.0
 10
96.34416230230285
 20
-159.8000650642167
 30
0.0
 10
96.29972057054313
 20
-159.8000650642167
 30
0.0
 10
96.17466360442856
 20
-159.804199178799
 30
0.0
 10
96.08578014090911
 20
-159.8124674079636
 30
0.0
 10
96.08578014090911
 20
-159.8124674079636
 30
0.0
 10
96.08578014090911
 20
-159.7321966831572
 30
0.0
 10
96.08578014090911
 20
-159.7321966831572
 30
0.0
 10
96.03307017998479
 20
-159.7704372430435
 30
0.0
 10
96.00757647339394
 20
-159.7849066440816
 30
0.0
 10
95.96520179892536
 20
-159.8083332933813
 30
0.0
 10
95.96520179892536
 20
-159.8083332933813
 30
0.0
 10
95.77709958543073
 20
-159.6794867222329
 30
0.0
 10
95.77709958543073
 20
-159.6794867222329
 30
0.0
 10
95.8553032529459
 20
-159.6453802769289
 30
0.0
 10
96.01205509752477
 20
-159.5819905200003
 30
0.0
 10
96.16846243255512
 20
-159.4383300382654
 30
0.0
 10
96.25080021465259
 20
-159.3597818612017
 30
0.0
 10
96.32934839171628
 20
-159.2750325122646
 30
0.0
 10
96.3820583526406
 20
-159.1737467049983
 30
0.0
 10
96.3820583526406
 20
-159.1737467049983
 30
0.0
 10
96.59358721543494
 20
-159.2350694046357
 30
0.0
 10
96.59358721543494
 20
-159.2350694046357
 30
0.0
 10
96.61287975015235
 20
-159.2412705765091
 30
0.0
 10
96.62321503660809
 20
-159.2498833152223
 30
0.0
 10
96.62321503660809
 20
-159.2626301685177
 30
0.0
 10
96.62321503660809
 20
-159.2795111363954
 30
0.0
 10
96.61046818331266
 20
-159.2857123082689
 30
0.0
 10
96.58531898627034
 20
-159.2984591615643
 30
0.0
 10
96.66558971107666
 20
-159.3956108542483
 30
0.0
 10
96.82854272752898
 20
-159.4931070564809
 30
0.0
 10
96.86230466328443
 20
-159.5120550816498
 30
0.0
 10
97.01251082644131
 20
-159.6009385451692
 30
0.0
 10
97.12688799655162
 20
-159.6284993090512
 30
0.0
 10
97.20509166406679
 20
-159.6474473342201
 30
0.0
 10
97.20509166406679
 20
-159.6474473342201
 30
0.0
 10
97.0865803793742
 20
-159.8166015225459
 30
0.0
 10
97.0865803793742
 20
-159.8166015225459
 30
0.0
 10
97.00183103043705
 20
-159.7869737013727
 30
0.0
 10
96.95118812680387
 20
-159.7683701857524
 30
0.0
 10
96.83267684211128
 20
-159.7025688619841
 30
0.0
 10
96.83267684211128
 20
-159.7025688619841
 30
0.0
 10
96.83267684211128
 20
-159.8124674079636
 30
0.0
 10
96.83267684211128
 20
-159.8124674079636
 30
0.0
 10
96.75033906001381
 20
-159.804199178799
 30
0.0
 10
96.62321503660809
 20
-159.8000650642167
 30
0.0
 10
96.57050507568377
 20
-159.8000650642167
 30
0.0
 10
96.57050507568377
 20
-159.8000650642167
 30
0.0
 10
96.57050507568377
 20
-159.9309786926561
 30
0.0
 10
96.57050507568377
 20
-159.9309786926561
 30
0.0
 10
96.57050507568377
 20
-159.9309786926561
 30
0.0
 10
96.69108341766751
 20
-159.9309786926561
 30
0.0
 10
96.69108341766751
 20
-159.9309786926561
 30
0.0
 10
96.69315047495866
 20
-159.9309786926561
 30
0.0
 10
96.92569442021302
 20
-159.928911635365
 30
0.0
 10
97.10346134725192
 20
-159.9120306674873
 30
0.0
 10
97.10346134725192
 20
-159.9120306674873
 30
0.0
 10
97.10346134725192
 20
-160.1025444478216
 30
0.0
 10
97.10346134725192
 20
-160.1025444478216
 30
0.0
 10
96.97461477610358
 20
-160.0894530849776
 30
0.0
 10
96.8178629315247
 20
-160.0894530849776
 30
0.0
 10
96.69108341766751
 20
-160.0894530849776
 30
0.0
 10
96.69108341766751
 20
-160.0894530849776
 30
0.0
 10
96.57050507568377
 20
-160.0894530849776
 30
0.0
 10
96.57050507568377
 20
-160.0894530849776
 30
0.0
 10
96.57050507568377
 20
-160.0894530849776
 30
0.0
 10
96.57050507568377
 20
-160.3161403679071
 30
0.0
 10
96.57050507568377
 20
-160.3161403679071
 30
0.0
 10
96.57050507568377
 20
-160.4346516525997
 30
0.0
 10
96.54501136909292
 20
-160.4704806456463
 30
0.0
 10
96.38412540993176
 20
-160.4852945562328
 30
0.0
 10
96.38860403406258
 20
-160.5042425814017
 30
0.0
 10
96.3820583526406
 20
-160.514922377406
 30
0.0
 10
96.34416230230285
 20
-160.5380045171572
 30
0.0
 10
96.3420952450117
 20
-160.5572970518746
 30
0.0
 10
96.3420952450117
 20
-160.563498223748
 30
0.0
 10
96.33968367817202
 20
-160.5783121343346
 30
0.0
 10
96.33968367817202
 20
-160.5783121343346
 30
0.0
 10
96.47714298803349
 20
-160.5783121343346
 30
0.0
 10
96.47714298803349
 20
-160.5783121343346
 30
0.0
 10
96.64216306177697
 20
-160.5783121343346
 30
0.0
 10
96.8095947023601
 20
-160.5741780197523
 30
0.0
 10
96.97668183339472
 20
-160.5593641091657
 30
0.0
 10
96.97668183339472
 20
-160.5593641091657
 30
0.0
 10
96.97668183339472
 20
-160.7667588573778
 30
0.0
 10
96.97668183339472
 20
-160.7667588573778
 30
0.0
 10
96.76067434646956
 20
-160.7495333799515
 30
0.0
 10
96.4964355227509
 20
-160.7495333799515
 30
0.0
 10
96.47714298803349
 20
-160.7495333799515
 30
0.0
 10
96.47714298803349
 20
-160.7495333799515
 30
0.0
 10
96.33761662088088
 20
-160.7495333799515
 30
0.0
 10
96.33761662088088
 20
-160.7495333799515
 30
0.0
 10
96.33761662088088
 20
-160.7495333799515
 30
0.0
 10
96.33761662088088
 20
-160.8914713139438
 30
0.0
 10
96.33761662088088
 20
-160.8914713139438
 30
0.0
 10
96.33761662088088
 20
-160.8914713139438
 30
0.0
 10
96.56395939426179
 20
-160.8914713139438
 30
0.0
 10
96.56395939426179
 20
-160.8914713139438
 30
0.0
 10
96.77996688118695
 20
-160.8914713139438
 30
0.0
 10
96.99769691585475
 20
-160.8873371993615
 30
0.0
 10
97.21335989323138
 20
-160.8745903460661
 30
0.0
 10
97.21335989323138
 20
-160.8745903460661
 30
0.0
 10
97.21335989323138
 20
-161.0816405847296
 30
0.0
 10
97.21335989323138
 20
-161.0816405847296
 30
0.0
 10
96.932240101635
 20
-161.0651041264004
 30
0.0
 10
96.5873860435615
 20
-161.0651041264004
 30
0.0
 10
96.56395939426179
 20
-161.0651041264004
 30
0.0
  0
SPLINE
  5
14D
330
147
100
AcDbEntity
  8
_U+30EC_U+30A4_U+30E4_U+30FC 1
370
     0
100
AcDbSpline
210
0.0
220
0.0
230
1.0
 70
    11
 71
     3
 72
    23
 73
    19
 74
     0
 42
0.0000000001
 43
0.0000000001
 12
1.0
 22
0.0
 32
0.0
 13
1.0
 23
0.0
 33
0.0
 40
0.0
 40
0.0
 40
0.0
 40
0.0
 40
1.0
 40
1.0
 40
1.0
 40
2.0
 40
2.0
 40
2.0
 40
3.0
 40
3.0
 40
3.0
 40
4.0
 40
4.0
 40
4.0
 40
5.0
 40
5.0
 40
5.0
 40
6.0
 40
6.0
 40
6.0
 40
6.0
 10
95.44499238065265
 20
-160.4367187098908
 30
0.0
 10
95.44499238065265
 20
-160.4577337923509
 30
0.0
 10
95.44705943794379
 20
-160.4959743522371
 30
0.0
 10
95.42156573135294
 20
-160.4959743522371
 30
0.0
 10
95.4112304448972
 20
-160.4959743522371
 30
0.0
 10
95.40261770618407
 20
-160.4894286708152
 30
0.0
 10
95.39193791017979
 20
-160.4725477029374
 30
0.0
 10
95.39193791017979
 20
-160.4725477029374
 30
0.0
 10
95.28824053607377
 20
-160.2906466613162
 30
0.0
 10
95.28824053607377
 20
-160.2906466613162
 30
0.0
 10
95.50424802299894
 20
-160.1618000901679
 30
0.0
 10
95.7009629752067
 20
-159.8844699036053
 30
0.0
 10
95.74747176425758
 20
-159.8124674079636
 30
0.0
 10
95.74747176425758
 20
-159.8124674079636
 30
0.0
 10
95.81947425989931
 20
-159.9923013922936
 30
0.0
 10
95.81947425989931
 20
-159.9923013922936
 30
0.0
 10
95.68614906462014
 20
-160.1890163445014
 30
0.0
 10
95.5104491948724
 20
-160.3733289529622
 30
0.0
 10
95.44499238065265
 20
-160.4367187098908
 30
0.0
  0
SPLINE
  5
14E
330
147
100
AcDbEntity
  8
_U+30EC_U+30A4_U+30E4_U+30FC 1
370
     0
100
AcDbSpline
210
0.0
220
0.0
230
1.0
 70
    11
 71
     3
 72
    17
 73
    13
 74
     0
 42
0.0000000001
 43
0.0000000001
 12
1.0
 22
0.0
 32
0.0
 13
1.0
 23
0.0
 33
0.0
 40
0.0
 40
0.0
 40
0.0
 40
0.0
 40
1.0
 40
1.0
 40
1.0
 40
2.0
 40
2.0
 40
2.0
 40
3.0
 40
3.0
 40
3.0
 40
4.0
 40
4.0
 40
4.0
 40
4.0
 10
95.69889591791556
 20
-159.5416829028229
 30
0.0
 10
95.6375732182781
 20
-159.4655462925989
 30
0.0
 10
95.50838213758124
 20
-159.3894096823749
 30
0.0
 10
95.40468476347522
 20
-159.3597818612017
 30
0.0
 10
95.40468476347522
 20
-159.3597818612017
 30
0.0
 10
95.50011390841664
 20
-159.1947617874582
 30
0.0
 10
95.50011390841664
 20
-159.1947617874582
 30
0.0
 10
95.60139971568299
 20
-159.2309352900534
 30
0.0
 10
95.70716414708016
 20
-159.2881238751085
 30
0.0
 10
95.7960476105996
 20
-159.3680500903663
 30
0.0
 10
95.7960476105996
 20
-159.3680500903663
 30
0.0
 10
95.69889591791556
 20
-159.5416829028229
 30
0.0
 10
95.69889591791556
 20
-159.5416829028229
 30
0.0
  0
SPLINE
  5
14F
330
147
100
AcDbEntity
  8
_U+30EC_U+30A4_U+30E4_U+30FC 1
370
     0
100
AcDbSpline
210
0.0
220
0.0
230
1.0
 70
    11
 71
     3
 72
    23
 73
    19
 74
     0
 42
0.0000000001
 43
0.0000000001
 12
1.0
 22
0.0
 32
0.0
 13
1.0
 23
0.0
 33
0.0
 40
0.0
 40
0.0
 40
0.0
 40
0.0
 40
1.0
 40
1.0
 40
1.0
 40
2.0
 40
2.0
 40
2.0
 40
3.0
 40
3.0
 40
3.0
 40
4.0
 40
4.0
 40
4.0
 40
5.0
 40
5.0
 40
5.0
 40
6.0
 40
6.0
 40
6.0
 40
6.0
 10
96.15158146467739
 20
-160.2462049295565
 30
0.0
 10
96.13022187266884
 20
-160.2692870693077
 30
0.0
 10
96.03307017998479
 20
-160.3815971821268
 30
0.0
 10
95.89354381283218
 20
-160.4622124164817
 30
0.0
 10
95.89354381283218
 20
-160.4622124164817
 30
0.0
 10
95.72645668179756
 20
-160.3416340744979
 30
0.0
 10
95.72645668179756
 20
-160.3416340744979
 30
0.0
 10
95.87666284495445
 20
-160.2651529547254
 30
0.0
 10
95.97588159492965
 20
-160.1700683193325
 30
0.0
 10
96.02445744127166
 20
-160.1170138488596
 30
0.0
 10
96.02445744127166
 20
-160.1170138488596
 30
0.0
 10
96.19809025372825
 20
-160.1996961405056
 30
0.0
 10
96.19809025372825
 20
-160.1996961405056
 30
0.0
 10
96.20635848289285
 20
-160.203830255088
 30
0.0
 10
96.21497122160598
 20
-160.2100314269614
 30
0.0
 10
96.21497122160598
 20
-160.2210557325142
 30
0.0
 10
96.21497122160598
 20
-160.2462049295565
 30
0.0
 10
96.17914222855939
 20
-160.2462049295565
 30
0.0
 10
96.15158146467739
 20
-160.2462049295565
 30
0.0
  0
SPLINE
  5
150
330
147
100
AcDbEntity
  8
_U+30EC_U+30A4_U+30E4_U+30FC 1
370
     0
100
AcDbSpline
210
0.0
220
0.0
230
1.0
 70
    11
 71
     3
 72
    20
 73
    16
 74
     0
 42
0.0000000001
 43
0.0000000001
 12
1.0
 22
0.0
 32
0.0
 13
1.0
 23
0.0
 33
0.0
 40
0.0
 40
0.0
 40
0.0
 40
0.0
 40
1.0
 40
1.0
 40
1.0
 40
2.0
 40
2.0
 40
2.0
 40
3.0
 40
3.0
 40
3.0
 40
4.0
 40
4.0
 40
4.0
 40
5.0
 40
5.0
 40
5.0
 40
5.0
 10
96.44992673370002
 20
-159.4042235929614
 30
0.0
 10
96.41168617381375
 20
-159.4527994393035
 30
0.0
 10
96.3503634741763
 20
-159.5313476163672
 30
0.0
 10
96.21083710702368
 20
-159.6412461623466
 30
0.0
 10
96.29110783183
 20
-159.6453802769289
 30
0.0
 10
96.32073565300315
 20
-159.6453802769289
 30
0.0
 10
96.34416230230285
 20
-159.6453802769289
 30
0.0
 10
96.34416230230285
 20
-159.6453802769289
 30
0.0
 10
96.57257213297491
 20
-159.6453802769289
 30
0.0
 10
96.57257213297491
 20
-159.6453802769289
 30
0.0
 10
96.60426701143922
 20
-159.6453802769289
 30
0.0
 10
96.65284285778124
 20
-159.6433132196378
 30
0.0
 10
96.7269124107141
 20
-159.6412461623466
 30
0.0
 10
96.61494680744349
 20
-159.5671766094138
 30
0.0
 10
96.56602645155294
 20
-159.5206678203629
 30
0.0
 10
96.44992673370002
 20
-159.4042235929614
 30
0.0
  0
SPLINE
  5
151
330
147
100
AcDbEntity
  8
_U+30EC_U+30A4_U+30E4_U+30FC 1
370
     0
100
AcDbSpline
210
0.0
220
0.0
230
1.0
 70
    11
 71
     3
 72
    17
 73
    13
 74
     0
 42
0.0000000001
 43
0.0000000001
 12
1.0
 22
0.0
 32
0.0
 13
1.0
 23
0.0
 33
0.0
 40
0.0
 40
0.0
 40
0.0
 40
0.0
 40
1.0
 40
1.0
 40
1.0
 40
2.0
 40
2.0
 40
2.0
 40
3.0
 40
3.0
 40
3.0
 40
4.0
 40
4.0
 40
4.0
 40
4.0
 10
97.01044376915017
 20
-160.459800849642
 30
0.0
 10
96.87505151657986
 20
-160.3478352463714
 30
0.0
 10
96.76928708518268
 20
-160.2844454894428
 30
0.0
 10
96.6507758004901
 20
-160.2210557325142
 30
0.0
 10
96.6507758004901
 20
-160.2210557325142
 30
0.0
 10
96.77755531434728
 20
-160.108745619695
 30
0.0
 10
96.77755531434728
 20
-160.108745619695
 30
0.0
 10
96.9088134523353
 20
-160.1552544087459
 30
0.0
 10
97.01871199831477
 20
-160.2124429938011
 30
0.0
 10
97.14376896442934
 20
-160.3140733106159
 30
0.0
 10
97.14376896442934
 20
-160.3140733106159
 30
0.0
 10
97.01044376915017
 20
-160.459800849642
 30
0.0
 10
97.01044376915017
 20
-160.459800849642
 30
0.0
  0
HATCH
  5
152
330
147
100
AcDbEntity
  8
_U+30EC_U+30A4_U+30E4_U+30FC 1
 62
   179
420
  2234388
100
AcDbHatch
 10
0.0
 20
0.0
 30
0.0
210
0.0
220
0.0
230
1.0
  2
SOLID
 70
     1
 71
     0
 91
        7
 92
        1
 93
        1
 72
     4
 94
        3
 73
     0
 74
     1
 95
       17
 96
       13
 40
0.0
 40
0.0
 40
0.0
 40
0.0
 40
1.0
 40
1.0
 40
1.0
 40
2.0
 40
2.0
 40
2.0
 40
3.0
 40
3.0
 40
3.0
 40
4.0
 40
4.0
 40
4.0
 40
4.0
 10
95.51906193358552
 20
-159.8865369608964
 10
95.41329750218834
 20
-159.7807725294992
 10
95.3326822678335
 20
-159.7428764791615
 10
95.23966468973175
 20
-159.7111816006972
 10
95.23966468973175
 20
-159.7111816006972
 10
95.34990774525976
 20
-159.5458170174052
 10
95.34990774525976
 20
-159.5458170174052
 10
95.44705943794379
 20
-159.5885362014223
 10
95.56763777992754
 20
-159.666395359389
 10
95.62069225040038
 20
-159.721516887153
 10
95.62069225040038
 20
-159.721516887153
 10
95.51906193358552
 20
-159.8865369608964
 10
95.51906193358552
 20
-159.8865369608964
 97
        0
 97
        0
 92
        1
 93
        1
 72
     4
 94
        3
 73
     0
 74
     1
 95
      182
 96
      178
 40
0.0
 40
0.0
 40
0.0
 40
0.0
 40
1.0
 40
1.0
 40
1.0
 40
2.0
 40
2.0
 40
2.0
 40
3.0
 40
3.0
 40
3.0
 40
4.0
 40
4.0
 40
4.0
 40
5.0
 40
5.0
 40
5.0
 40
6.0
 40
6.0
 40
6.0
 40
7.0
 40
7.0
 40
7.0
 40
8.0
 40
8.0
 40
8.0
 40
9.0
 40
9.0
 40
9.0
 40
10.0
 40
10.0
 40
10.0
 40
11.0
 40
11.0
 40
11.0
 40
12.0
 40
12.0
 40
12.0
 40
13.0
 40
13.0
 40
13.0
 40
14.0
 40
14.0
 40
14.0
 40
15.0
 40
15.0
 40
15.0
 40
16.0
 40
16.0
 40
16.0
 40
17.0
 40
17.0
 40
17.0
 40
18.0
 40
18.0
 40
18.0
 40
19.0
 40
19.0
 40
19.0
 40
20.0
 40
20.0
 40
20.0
 40
21.0
 40
21.0
 40
21.0
 40
22.0
 40
22.0
 40
22.0
 40
23.0
 40
23.0
 40
23.0
 40
24.0
 40
24.0
 40
24.0
 40
25.0
 40
25.0
 40
25.0
 40
26.0
 40
26.0
 40
26.0
 40
27.0
 40
27.0
 40
27.0
 40
28.0
 40
28.0
 40
28.0
 40
29.0
 40
29.0
 40
29.0
 40
30.0
 40
30.0
 40
30.0
 40
31.0
 40
31.0
 40
31.0
 40
32.0
 40
32.0
 40
32.0
 40
33.0
 40
33.0
 40
33.0
 40
34.0
 40
34.0
 40
34.0
 40
35.0
 40
35.0
 40
35.0
 40
36.0
 40
36.0
 40
36.0
 40
37.0
 40
37.0
 40
37.0
 40
38.0
 40
38.0
 40
38.0
 40
39.0
 40
39.0
 40
39.0
 40
40.0
 40
40.0
 40
40.0
 40
41.0
 40
41.0
 40
41.0
 40
42.0
 40
42.0
 40
42.0
 40
43.0
 40
43.0
 40
43.0
 40
44.0
 40
44.0
 40
44.0
 40
45.0
 40
45.0
 40
45.0
 40
46.0
 40
46.0
 40
46.0
 40
47.0
 40
47.0
 40
47.0
 40
48.0
 40
48.0
 40
48.0
 40
49.0
 40
49.0
 40
49.0
 40
50.0
 40
50.0
 40
50.0
 40
51.0
 40
51.0
 40
51.0
 40
52.0
 40
52.0
 40
52.0
 40
53.0
 40
53.0
 40
53.0
 40
54.0
 40
54.0
 40
54.0
 40
55.0
 40
55.0
 40
55.0
 40
56.0
 40
56.0
 40
56.0
 40
57.0
 40
57.0
 40
57.0
 40
58.0
 40
58.0
 40
58.0
 40
59.0
 40
59.0
 40
59.0
 40
59.0
 10
96.56395939426179
 20
-161.0651041264004
 10
96.56395939426179
 20
-161.0651041264004
 10
95.92730574858763
 20
-161.0651041264004
 10
95.92730574858763
 20
-161.0651041264004
 10
95.71370982850213
 20
-161.0651041264004
 10
95.49770234157697
 20
-161.0692382409827
 10
95.28410642149147
 20
-161.0816405847296
 10
95.28410642149147
 20
-161.0816405847296
 10
95.28410642149147
 20
-160.8745903460661
 10
95.28410642149147
 20
-160.8745903460661
 10
95.5063150802901
 20
-160.8873371993615
 10
95.82980954635505
 20
-160.8914713139438
 10
95.92730574858763
 20
-160.8914713139438
 10
95.92730574858763
 20
-160.8914713139438
 10
96.14744735009509
 20
-160.8914713139438
 10
96.14744735009509
 20
-160.8914713139438
 10
96.14744735009509
 20
-160.8914713139438
 10
96.14744735009509
 20
-160.7495333799515
 10
96.14744735009509
 20
-160.7495333799515
 10
96.14744735009509
 20
-160.7495333799515
 10
95.98656139093391
 20
-160.7495333799515
 10
95.98656139093391
 20
-160.7495333799515
 10
95.82154131719045
 20
-160.7495333799515
 10
95.65652124344699
 20
-160.7540120040823
 10
95.49150116970351
 20
-160.7688259146689
 10
95.49150116970351
 20
-160.7688259146689
 10
95.49150116970351
 20
-160.5593641091657
 10
95.49150116970351
 20
-160.5593641091657
 10
95.66272241532043
 20
-160.5741780197523
 10
95.9104247807099
 20
-160.5783121343346
 10
95.98656139093391
 20
-160.5783121343346
 10
95.98656139093391
 20
-160.5783121343346
 10
96.14744735009509
 20
-160.5783121343346
 10
96.14744735009509
 20
-160.5783121343346
 10
96.14296872596427
 20
-160.5063096386929
 10
96.14296872596427
 20
-160.5001084668194
 10
96.13676755409081
 20
-160.4470539963466
 10
96.13676755409081
 20
-160.4470539963466
 10
96.27629392124344
 20
-160.4622124164817
 10
96.27629392124344
 20
-160.4622124164817
 10
96.27629392124344
 20
-160.4622124164817
 10
96.17707517126824
 20
-160.2906466613162
 10
96.17707517126824
 20
-160.2906466613162
 10
96.2235839603191
 20
-160.2968478331897
 10
96.29765351325197
 20
-160.3054605719028
 10
96.3145344811297
 20
-160.3054605719028
 10
96.36517738476287
 20
-160.3054605719028
 10
96.3820583526406
 20
-160.2844454894428
 10
96.3820583526406
 20
-160.2272569043876
 10
96.3820583526406
 20
-160.2272569043876
 10
96.3820583526406
 20
-160.0894530849776
 10
96.3820583526406
 20
-160.0894530849776
 10
96.3820583526406
 20
-160.0894530849776
 10
96.27629392124344
 20
-160.0894530849776
 10
96.27629392124344
 20
-160.0894530849776
 10
96.14296872596427
 20
-160.0894530849776
 10
95.98656139093391
 20
-160.0894530849776
 10
95.86391599165903
 20
-160.1025444478216
 10
95.86391599165903
 20
-160.1025444478216
 10
95.86391599165903
 20
-159.9120306674873
 10
95.86391599165903
 20
-159.9120306674873
 10
96.03100312269365
 20
-159.928911635365
 10
96.26148001065685
 20
-159.9309786926561
 10
96.27629392124344
 20
-159.9309786926561
 10
96.27629392124344
 20
-159.9309786926561
 10
96.3820583526406
 20
-159.9309786926561
 10
96.3820583526406
 20
-159.9309786926561
 10
96.3820583526406
 20
-159.9309786926561
 10
96.3820583526406
 20
-159.8000650642167
 10
96.3820583526406
 20
-159.8000650642167
 10
96.3820583526406
 20
-159.8000650642167
 10
96.34416230230285
 20
-159.8000650642167
 10
96.34416230230285
 20
-159.8000650642167
 10
96.29972057054313
 20
-159.8000650642167
 10
96.17466360442856
 20
-159.804199178799
 10
96.08578014090911
 20
-159.8124674079636
 10
96.08578014090911
 20
-159.8124674079636
 10
96.08578014090911
 20
-159.7321966831572
 10
96.08578014090911
 20
-159.7321966831572
 10
96.03307017998479
 20
-159.7704372430435
 10
96.00757647339394
 20
-159.7849066440816
 10
95.96520179892536
 20
-159.8083332933813
 10
95.96520179892536
 20
-159.8083332933813
 10
95.77709958543073
 20
-159.6794867222329
 10
95.77709958543073
 20
-159.6794867222329
 10
95.8553032529459
 20
-159.6453802769289
 10
96.01205509752477
 20
-159.5819905200003
 10
96.16846243255512
 20
-159.4383300382654
 10
96.25080021465259
 20
-159.3597818612017
 10
96.32934839171628
 20
-159.2750325122646
 10
96.3820583526406
 20
-159.1737467049983
 10
96.3820583526406
 20
-159.1737467049983
 10
96.59358721543494
 20
-159.2350694046357
 10
96.59358721543494
 20
-159.2350694046357
 10
96.61287975015235
 20
-159.2412705765091
 10
96.62321503660809
 20
-159.2498833152223
 10
96.62321503660809
 20
-159.2626301685177
 10
96.62321503660809
 20
-159.2795111363954
 10
96.61046818331266
 20
-159.2857123082689
 10
96.58531898627034
 20
-159.2984591615643
 10
96.66558971107666
 20
-159.3956108542483
 10
96.82854272752898
 20
-159.4931070564809
 10
96.86230466328443
 20
-159.5120550816498
 10
97.01251082644131
 20
-159.6009385451692
 10
97.12688799655162
 20
-159.6284993090512
 10
97.20509166406679
 20
-159.6474473342201
 10
97.20509166406679
 20
-159.6474473342201
 10
97.0865803793742
 20
-159.8166015225459
 10
97.0865803793742
 20
-159.8166015225459
 10
97.00183103043705
 20
-159.7869737013727
 10
96.95118812680387
 20
-159.7683701857524
 10
96.83267684211128
 20
-159.7025688619841
 10
96.83267684211128
 20
-159.7025688619841
 10
96.83267684211128
 20
-159.8124674079636
 10
96.83267684211128
 20
-159.8124674079636
 10
96.75033906001381
 20
-159.804199178799
 10
96.62321503660809
 20
-159.8000650642167
 10
96.57050507568377
 20
-159.8000650642167
 10
96.57050507568377
 20
-159.8000650642167
 10
96.57050507568377
 20
-159.9309786926561
 10
96.57050507568377
 20
-159.9309786926561
 10
96.57050507568377
 20
-159.9309786926561
 10
96.69108341766751
 20
-159.9309786926561
 10
96.69108341766751
 20
-159.9309786926561
 10
96.69315047495866
 20
-159.9309786926561
 10
96.92569442021302
 20
-159.928911635365
 10
97.10346134725192
 20
-159.9120306674873
 10
97.10346134725192
 20
-159.9120306674873
 10
97.10346134725192
 20
-160.1025444478216
 10
97.10346134725192
 20
-160.1025444478216
 10
96.97461477610358
 20
-160.0894530849776
 10
96.8178629315247
 20
-160.0894530849776
 10
96.69108341766751
 20
-160.0894530849776
 10
96.69108341766751
 20
-160.0894530849776
 10
96.57050507568377
 20
-160.0894530849776
 10
96.57050507568377
 20
-160.0894530849776
 10
96.57050507568377
 20
-160.0894530849776
 10
96.57050507568377
 20
-160.3161403679071
 10
96.57050507568377
 20
-160.3161403679071
 10
96.57050507568377
 20
-160.4346516525997
 10
96.54501136909292
 20
-160.4704806456463
 10
96.38412540993176
 20
-160.4852945562328
 10
96.38860403406258
 20
-160.5042425814017
 10
96.3820583526406
 20
-160.514922377406
 10
96.34416230230285
 20
-160.5380045171572
 10
96.3420952450117
 20
-160.5572970518746
 10
96.3420952450117
 20
-160.563498223748
 10
96.33968367817202
 20
-160.5783121343346
 10
96.33968367817202
 20
-160.5783121343346
 10
96.47714298803349
 20
-160.5783121343346
 10
96.47714298803349
 20
-160.5783121343346
 10
96.64216306177697
 20
-160.5783121343346
 10
96.8095947023601
 20
-160.5741780197523
 10
96.97668183339472
 20
-160.5593641091657
 10
96.97668183339472
 20
-160.5593641091657
 10
96.97668183339472
 20
-160.7667588573778
 10
96.97668183339472
 20
-160.7667588573778
 10
96.76067434646956
 20
-160.7495333799515
 10
96.4964355227509
 20
-160.7495333799515
 10
96.47714298803349
 20
-160.7495333799515
 10
96.47714298803349
 20
-160.7495333799515
 10
96.33761662088088
 20
-160.7495333799515
 10
96.33761662088088
 20
-160.7495333799515
 10
96.33761662088088
 20
-160.7495333799515
 10
96.33761662088088
 20
-160.8914713139438
 10
96.33761662088088
 20
-160.8914713139438
 10
96.33761662088088
 20
-160.8914713139438
 10
96.56395939426179
 20
-160.8914713139438
 10
96.56395939426179
 20
-160.8914713139438
 10
96.77996688118695
 20
-160.8914713139438
 10
96.99769691585475
 20
-160.8873371993615
 10
97.21335989323138
 20
-160.8745903460661
 10
97.21335989323138
 20
-160.8745903460661
 10
97.21335989323138
 20
-161.0816405847296
 10
97.21335989323138
 20
-161.0816405847296
 10
96.932240101635
 20
-161.0651041264004
 10
96.5873860435615
 20
-161.0651041264004
 10
96.56395939426179
 20
-161.0651041264004
 97
        0
 97
        0
 92
        1
 93
        1
 72
     4
 94
        3
 73
     0
 74
     1
 95
       23
 96
       19
 40
0.0
 40
0.0
 40
0.0
 40
0.0
 40
1.0
 40
1.0
 40
1.0
 40
2.0
 40
2.0
 40
2.0
 40
3.0
 40
3.0
 40
3.0
 40
4.0
 40
4.0
 40
4.0
 40
5.0
 40
5.0
 40
5.0
 40
6.0
 40
6.0
 40
6.0
 40
6.0
 10
95.44499238065265
 20
-160.4367187098908
 10
95.44499238065265
 20
-160.4577337923509
 10
95.44705943794379
 20
-160.4959743522371
 10
95.42156573135294
 20
-160.4959743522371
 10
95.4112304448972
 20
-160.4959743522371
 10
95.40261770618407
 20
-160.4894286708152
 10
95.39193791017979
 20
-160.4725477029374
 10
95.39193791017979
 20
-160.4725477029374
 10
95.28824053607377
 20
-160.2906466613162
 10
95.28824053607377
 20
-160.2906466613162
 10
95.50424802299894
 20
-160.1618000901679
 10
95.7009629752067
 20
-159.8844699036053
 10
95.74747176425758
 20
-159.8124674079636
 10
95.74747176425758
 20
-159.8124674079636
 10
95.81947425989931
 20
-159.9923013922936
 10
95.81947425989931
 20
-159.9923013922936
 10
95.68614906462014
 20
-160.1890163445014
 10
95.5104491948724
 20
-160.3733289529622
 10
95.44499238065265
 20
-160.4367187098908
 97
        0
 97
        0
 92
        1
 93
        1
 72
     4
 94
        3
 73
     0
 74
     1
 95
       17
 96
       13
 40
0.0
 40
0.0
 40
0.0
 40
0.0
 40
1.0
 40
1.0
 40
1.0
 40
2.0
 40
2.0
 40
2.0
 40
3.0
 40
3.0
 40
3.0
 40
4.0
 40
4.0
 40
4.0
 40
4.0
 10
95.69889591791556
 20
-159.5416829028229
 10
95.6375732182781
 20
-159.4655462925989
 10
95.50838213758124
 20
-159.3894096823749
 10
95.40468476347522
 20
-159.3597818612017
 10
95.40468476347522
 20
-159.3597818612017
 10
95.50011390841664
 20
-159.1947617874582
 10
95.50011390841664
 20
-159.1947617874582
 10
95.60139971568299
 20
-159.2309352900534
 10
95.70716414708016
 20
-159.2881238751085
 10
95.7960476105996
 20
-159.3680500903663
 10
95.7960476105996
 20
-159.3680500903663
 10
95.69889591791556
 20
-159.5416829028229
 10
95.69889591791556
 20
-159.5416829028229
 97
        0
 97
        0
 92
        1
 93
        1
 72
     4
 94
        3
 73
     0
 74
     1
 95
       23
 96
       19
 40
0.0
 40
0.0
 40
0.0
 40
0.0
 40
1.0
 40
1.0
 40
1.0
 40
2.0
 40
2.0
 40
2.0
 40
3.0
 40
3.0
 40
3.0
 40
4.0
 40
4.0
 40
4.0
 40
5.0
 40
5.0
 40
5.0
 40
6.0
 40
6.0
 40
6.0
 40
6.0
 10
96.15158146467739
 20
-160.2462049295565
 10
96.13022187266884
 20
-160.2692870693077
 10
96.03307017998479
 20
-160.3815971821268
 10
95.89354381283218
 20
-160.4622124164817
 10
95.89354381283218
 20
-160.4622124164817
 10
95.72645668179756
 20
-160.3416340744979
 10
95.72645668179756
 20
-160.3416340744979
 10
95.87666284495445
 20
-160.2651529547254
 10
95.97588159492965
 20
-160.1700683193325
 10
96.02445744127166
 20
-160.1170138488596
 10
96.02445744127166
 20
-160.1170138488596
 10
96.19809025372825
 20
-160.1996961405056
 10
96.19809025372825
 20
-160.1996961405056
 10
96.20635848289285
 20
-160.203830255088
 10
96.21497122160598
 20
-160.2100314269614
 10
96.21497122160598
 20
-160.2210557325142
 10
96.21497122160598
 20
-160.2462049295565
 10
96.17914222855939
 20
-160.2462049295565
 10
96.15158146467739
 20
-160.2462049295565
 97
        0
 97
        0
 92
        1
 93
        1
 72
     4
 94
        3
 73
     0
 74
     1
 95
       20
 96
       16
 40
0.0
 40
0.0
 40
0.0
 40
0.0
 40
1.0
 40
1.0
 40
1.0
 40
2.0
 40
2.0
 40
2.0
 40
3.0
 40
3.0
 40
3.0
 40
4.0
 40
4.0
 40
4.0
 40
5.0
 40
5.0
 40
5.0
 40
5.0
 10
96.44992673370002
 20
-159.4042235929614
 10
96.41168617381375
 20
-159.4527994393035
 10
96.3503634741763
 20
-159.5313476163672
 10
96.21083710702368
 20
-159.6412461623466
 10
96.29110783183
 20
-159.6453802769289
 10
96.32073565300315
 20
-159.6453802769289
 10
96.34416230230285
 20
-159.6453802769289
 10
96.34416230230285
 20
-159.6453802769289
 10
96.57257213297491
 20
-159.6453802769289
 10
96.57257213297491
 20
-159.6453802769289
 10
96.60426701143922
 20
-159.6453802769289
 10
96.65284285778124
 20
-159.6433132196378
 10
96.7269124107141
 20
-159.6412461623466
 10
96.61494680744349
 20
-159.5671766094138
 10
96.56602645155294
 20
-159.5206678203629
 10
96.44992673370002
 20
-159.4042235929614
 97
        0
 97
        0
 92
        1
 93
        1
 72
     4
 94
        3
 73
     0
 74
     1
 95
       17
 96
       13
 40
0.0
 40
0.0
 40
0.0
 40
0.0
 40
1.0
 40
1.0
 40
1.0
 40
2.0
 40
2.0
 40
2.0
 40
3.0
 40
3.0
 40
3.0
 40
4.0
 40
4.0
 40
4.0
 40
4.0
 10
97.01044376915017
 20
-160.459800849642
 10
96.87505151657986
 20
-160.3478352463714
 10
96.76928708518268
 20
-160.2844454894428
 10
96.6507758004901
 20
-160.2210557325142
 10
96.6507758004901
 20
-160.2210557325142
 10
96.77755531434728
 20
-160.108745619695
 10
96.77755531434728
 20
-160.108745619695
 10
96.9088134523353
 20
-160.1552544087459
 10
97.01871199831477
 20
-160.2124429938011
 10
97.14376896442934
 20
-160.3140733106159
 10
97.14376896442934
 20
-160.3140733106159
 10
97.01044376915017
 20
-160.459800849642
 10
97.01044376915017
 20
-160.459800849642
 97
        0
 97
        0
 75
     2
 76
     1
 98
        0
  0
SPLINE
  5
153
330
147
100
AcDbEntity
  8
_U+30EC_U+30A4_U+30E4_U+30FC 1
370
     0
100
AcDbSpline
210
0.0
220
0.0
230
1.0
 70
    11
 71
     3
 72
   113
 73
   109
 74
     0
 42
0.0000000001
 43
0.0000000001
 12
1.0
 22
0.0
 32
0.0
 13
1.0
 23
0.0
 33
0.0
 40
0.0
 40
0.0
 40
0.0
 40
0.0
 40
1.0
 40
1.0
 40
1.0
 40
2.0
 40
2.0
 40
2.0
 40
3.0
 40
3.0
 40
3.0
 40
4.0
 40
4.0
 40
4.0
 40
5.0
 40
5.0
 40
5.0
 40
6.0
 40
6.0
 40
6.0
 40
7.0
 40
7.0
 40
7.0
 40
8.0
 40
8.0
 40
8.0
 40
9.0
 40
9.0
 40
9.0
 40
10.0
 40
10.0
 40
10.0
 40
11.0
 40
11.0
 40
11.0
 40
12.0
 40
12.0
 40
12.0
 40
13.0
 40
13.0
 40
13.0
 40
14.0
 40
14.0
 40
14.0
 40
15.0
 40
15.0
 40
15.0
 40
16.0
 40
16.0
 40
16.0
 40
17.0
 40
17.0
 40
17.0
 40
18.0
 40
18.0
 40
18.0
 40
19.0
 40
19.0
 40
19.0
 40
20.0
 40
20.0
 40
20.0
 40
21.0
 40
21.0
 40
21.0
 40
22.0
 40
22.0
 40
22.0
 40
23.0
 40
23.0
 40
23.0
 40
24.0
 40
24.0
 40
24.0
 40
25.0
 40
25.0
 40
25.0
 40
26.0
 40
26.0
 40
26.0
 40
27.0
 40
27.0
 40
27.0
 40
28.0
 40
28.0
 40
28.0
 40
29.0
 40
29.0
 40
29.0
 40
30.0
 40
30.0
 40
30.0
 40
31.0
 40
31.0
 40
31.0
 40
32.0
 40
32.0
 40
32.0
 40
33.0
 40
33.0
 40
33.0
 40
34.0
 40
34.0
 40
34.0
 40
35.0
 40
35.0
 40
35.0
 40
36.0
 40
36.0
 40
36.0
 40
36.0
 10
98.89008786590249
 20
-160.4367187098908
 30
0.0
 10
98.89008786590249
 20
-160.4367187098908
 30
0.0
 10
98.9896511254262
 20
-160.535937459866
 30
0.0
 10
98.9896511254262
 20
-160.535937459866
 30
0.0
 10
99.00033092143047
 20
-160.5466172558703
 30
0.0
 10
99.01066620788623
 20
-160.5593641091657
 30
0.0
 10
99.01066620788623
 20
-160.5741780197523
 30
0.0
 10
99.01066620788623
 20
-160.5762450770434
 30
0.0
 10
99.01066620788623
 20
-160.6058728982166
 30
0.0
 10
98.97277015754848
 20
-160.6058728982166
 30
0.0
 10
98.96415741883536
 20
-160.6058728982166
 30
0.0
 10
98.92384980165794
 20
-160.6013942740858
 30
0.0
 10
98.91764862978448
 20
-160.6013942740858
 30
0.0
 10
98.87734101260706
 20
-160.6334336620986
 30
0.0
 10
98.83083222355619
 20
-160.667195597854
 30
0.0
 10
98.73161347358099
 20
-160.7243841829092
 30
0.0
 10
98.87734101260706
 20
-160.8322156715975
 30
0.0
 10
99.03615991447708
 20
-160.8894042566527
 30
0.0
 10
99.30901147690886
 20
-160.9273003069904
 30
0.0
 10
99.30901147690886
 20
-160.9273003069904
 30
0.0
 10
99.15880531375197
 20
-161.1030001767381
 30
0.0
 10
99.15880531375197
 20
-161.1030001767381
 30
0.0
 10
98.89663354732446
 20
-161.0309976810964
 30
0.0
 10
98.73988170274559
 20
-160.9424587271255
 30
0.0
 10
98.66374509252157
 20
-160.8894042566527
 30
0.0
 10
98.51353892936467
 20
-160.7877739398378
 30
0.0
 10
98.36987844762976
 20
-160.6248209233855
 30
0.0
 10
98.29374183740573
 20
-160.459800849642
 30
0.0
 10
98.22587345634632
 20
-160.5256021734103
 30
0.0
 10
98.15180390341344
 20
-160.5783121343346
 30
0.0
 10
98.07360023589827
 20
-160.6268879806766
 30
0.0
 10
98.07360023589827
 20
-160.6268879806766
 30
0.0
 10
98.07360023589827
 20
-160.8787244606484
 30
0.0
 10
98.07360023589827
 20
-160.8787244606484
 30
0.0
 10
98.23655325235059
 20
-160.853575263606
 30
0.0
 10
98.42258840855408
 20
-160.8087890222978
 30
0.0
 10
98.48597816548268
 20
-160.7943196212598
 30
0.0
 10
98.48597816548268
 20
-160.7943196212598
 30
0.0
 10
98.45635034430953
 20
-160.963129300037
 30
0.0
 10
98.45635034430953
 20
-160.963129300037
 30
0.0
 10
98.45428328701838
 20
-160.963129300037
 30
0.0
 10
98.4353352618495
 20
-160.969674981459
 30
0.0
 10
98.43326820455836
 20
-160.969674981459
 30
0.0
 10
98.23448619505943
 20
-161.0079155413453
 30
0.0
 10
97.91719290086793
 20
-161.073372355565
 30
0.0
 10
97.72013343911163
 20
-161.1092013486116
 30
0.0
 10
97.70979815265589
 20
-161.1264268260379
 30
0.0
 10
97.68637150335618
 20
-161.1581217045022
 30
0.0
 10
97.66328936360502
 20
-161.1581217045022
 30
0.0
 10
97.63572859972302
 20
-161.1581217045022
 30
0.0
 10
97.63159448514072
 20
-161.1388291697847
 30
0.0
 10
97.62918291830104
 20
-161.1198811446159
 30
0.0
 10
97.62918291830104
 20
-161.1198811446159
 30
0.0
 10
97.60403372125872
 20
-160.9465928417078
 30
0.0
 10
97.60403372125872
 20
-160.9465928417078
 30
0.0
 10
97.67810327419159
 20
-160.9379801029947
 30
0.0
 10
97.7859347628799
 20
-160.9252332496993
 30
0.0
 10
97.89376625156822
 20
-160.9042181672392
 30
0.0
 10
97.89376625156822
 20
-160.9042181672392
 30
0.0
 10
97.89376625156822
 20
-160.7264512402003
 30
0.0
 10
97.89376625156822
 20
-160.7264512402003
 30
0.0
 10
97.74976126028479
 20
-160.7984537358421
 30
0.0
 10
97.65467662489189
 20
-160.8280815570152
 30
0.0
 10
97.48965655114843
 20
-160.8577093781884
 30
0.0
 10
97.48965655114843
 20
-160.8577093781884
 30
0.0
 10
97.36907820916468
 20
-160.6882106803141
 30
0.0
 10
97.36907820916468
 20
-160.6882106803141
 30
0.0
 10
97.68637150335618
 20
-160.6606499164321
 30
0.0
 10
97.87895234098166
 20
-160.5676323383303
 30
0.0
 10
98.05671926802054
 20
-160.4346516525997
 30
0.0
 10
97.91064721944595
 20
-160.4346516525997
 30
0.0
 10
97.61023489313217
 20
-160.438785767182
 30
0.0
 10
97.4135199409244
 20
-160.4449869390554
 30
0.0
 10
97.4135199409244
 20
-160.4449869390554
 30
0.0
 10
97.4135199409244
 20
-160.2672200120165
 30
0.0
 10
97.4135199409244
 20
-160.2672200120165
 30
0.0
 10
97.5678602186636
 20
-160.2737656934385
 30
0.0
 10
97.86413843039509
 20
-160.2803113748605
 30
0.0
 10
98.04810652930742
 20
-160.2803113748605
 30
0.0
 10
98.04810652930742
 20
-160.2803113748605
 30
0.0
 10
98.25963539210176
 20
-160.2803113748605
 30
0.0
 10
98.25963539210176
 20
-160.2803113748605
 30
0.0
 10
98.25963539210176
 20
-160.1848822299191
 30
0.0
 10
98.25756833481061
 20
-160.1342393262859
 30
0.0
 10
98.25136716293716
 20
-160.0873860276865
 30
0.0
 10
98.25136716293716
 20
-160.0873860276865
 30
0.0
 10
98.4670301403138
 20
-160.1046115051128
 30
0.0
 10
98.4670301403138
 20
-160.1046115051128
 30
0.0
 10
98.51560598665583
 20
-160.108745619695
 30
0.0
 10
98.52421872536895
 20
-160.1235595302816
 30
0.0
 10
98.52421872536895
 20
-160.1383734408682
 30
0.0
 10
98.52421872536895
 20
-160.163867147459
 30
0.0
 10
98.50733775749123
 20
-160.1721353766236
 30
0.0
 10
98.45635034430953
 20
-160.1976290832145
 30
0.0
 10
98.45428328701838
 20
-160.2231227898053
 30
0.0
 10
98.45428328701838
 20
-160.2293239616788
 30
0.0
 10
98.45221622972723
 20
-160.2803113748605
 30
0.0
 10
98.45221622972723
 20
-160.2803113748605
 30
0.0
 10
98.68269311769045
 20
-160.2803113748605
 30
0.0
 10
98.68269311769045
 20
-160.2803113748605
 30
0.0
 10
98.84771319143391
 20
-160.2803113748605
 30
0.0
 10
99.1398572885831
 20
-160.2737656934385
 30
0.0
 10
99.31969127291313
 20
-160.2672200120165
 30
0.0
 10
99.31969127291313
 20
-160.2672200120165
 30
0.0
 10
99.31969127291313
 20
-160.4449869390554
 30
0.0
 10
99.31969127291313
 20
-160.4449869390554
 30
0.0
 10
99.19050019221626
 20
-160.4408528244731
 30
0.0
 10
99.1674180524651
 20
-160.4408528244731
 30
0.0
 10
98.89008786590249
 20
-160.4367187098908
 30
0.0
  0
SPLINE
  5
154
330
147
100
AcDbEntity
  8
_U+30EC_U+30A4_U+30E4_U+30FC 1
370
     0
100
AcDbSpline
210
0.0
220
0.0
230
1.0
 70
    11
 71
     3
 72
    23
 73
    19
 74
     0
 42
0.0000000001
 43
0.0000000001
 12
1.0
 22
0.0
 32
0.0
 13
1.0
 23
0.0
 33
0.0
 40
0.0
 40
0.0
 40
0.0
 40
0.0
 40
1.0
 40
1.0
 40
1.0
 40
2.0
 40
2.0
 40
2.0
 40
3.0
 40
3.0
 40
3.0
 40
4.0
 40
4.0
 40
4.0
 40
5.0
 40
5.0
 40
5.0
 40
6.0
 40
6.0
 40
6.0
 40
6.0
 10
97.60610077854987
 20
-160.0853189703953
 30
0.0
 10
97.58921981067215
 20
-160.1256265875728
 30
0.0
 10
97.58267412925017
 20
-160.1425075554505
 30
0.0
 10
97.56165904679014
 20
-160.1425075554505
 30
0.0
 10
97.54684513620357
 20
-160.1425075554505
 30
0.0
 10
97.53616534019929
 20
-160.1256265875728
 30
0.0
 10
97.52996416832585
 20
-160.1128797342774
 30
0.0
 10
97.52996416832585
 20
-160.1128797342774
 30
0.0
 10
97.43040090880213
 20
-159.9478596605339
 30
0.0
 10
97.43040090880213
 20
-159.9478596605339
 30
0.0
 10
97.53203122561699
 20
-159.9161647820696
 30
0.0
 10
97.68223738877388
 20
-159.8613877638541
 30
0.0
 10
97.88101939827281
 20
-159.6980902378533
 30
0.0
 10
97.88101939827281
 20
-159.6980902378533
 30
0.0
 10
97.93820798332796
 20
-159.8717230503099
 30
0.0
 10
97.93820798332796
 20
-159.8717230503099
 30
0.0
 10
97.8451904052262
 20
-159.9544053419559
 30
0.0
 10
97.75630694170677
 20
-160.011593927011
 30
0.0
 10
97.60610077854987
 20
-160.0853189703953
 30
0.0
  0
SPLINE
  5
155
330
147
100
AcDbEntity
  8
_U+30EC_U+30A4_U+30E4_U+30FC 1
370
     0
100
AcDbSpline
210
0.0
220
0.0
230
1.0
 70
    11
 71
     3
 72
    17
 73
    13
 74
     0
 42
0.0000000001
 43
0.0000000001
 12
1.0
 22
0.0
 32
0.0
 13
1.0
 23
0.0
 33
0.0
 40
0.0
 40
0.0
 40
0.0
 40
0.0
 40
1.0
 40
1.0
 40
1.0
 40
2.0
 40
2.0
 40
2.0
 40
3.0
 40
3.0
 40
3.0
 40
4.0
 40
4.0
 40
4.0
 40
4.0
 10
97.75837399899791
 20
-159.6202310798866
 30
0.0
 10
97.72874617782476
 20
-159.5799234627092
 30
0.0
 10
97.66087779676533
 20
-159.4824272604766
 30
0.0
 10
97.47897675514415
 20
-159.3725287144972
 30
0.0
 10
97.47897675514415
 20
-159.3725287144972
 30
0.0
 10
97.60610077854987
 20
-159.239203519218
 30
0.0
 10
97.60610077854987
 20
-159.239203519218
 30
0.0
 10
97.79213593475336
 20
-159.3408338360329
 30
0.0
 10
97.8493245198085
 20
-159.4297172995523
 30
0.0
 10
97.8768852836905
 20
-159.4720919740209
 30
0.0
 10
97.8768852836905
 20
-159.4720919740209
 30
0.0
 10
97.75837399899791
 20
-159.6202310798866
 30
0.0
 10
97.75837399899791
 20
-159.6202310798866
 30
0.0
  0
SPLINE
  5
156
330
147
100
AcDbEntity
  8
_U+30EC_U+30A4_U+30E4_U+30FC 1
370
     0
100
AcDbSpline
210
0.0
220
0.0
230
1.0
 70
    11
 71
     3
 72
    38
 73
    34
 74
     0
 42
0.0000000001
 43
0.0000000001
 12
1.0
 22
0.0
 32
0.0
 13
1.0
 23
0.0
 33
0.0
 40
0.0
 40
0.0
 40
0.0
 40
0.0
 40
1.0
 40
1.0
 40
1.0
 40
2.0
 40
2.0
 40
2.0
 40
3.0
 40
3.0
 40
3.0
 40
4.0
 40
4.0
 40
4.0
 40
5.0
 40
5.0
 40
5.0
 40
6.0
 40
6.0
 40
6.0
 40
7.0
 40
7.0
 40
7.0
 40
8.0
 40
8.0
 40
8.0
 40
9.0
 40
9.0
 40
9.0
 40
10.0
 40
10.0
 40
10.0
 40
11.0
 40
11.0
 40
11.0
 40
11.0
 10
98.12631019682259
 20
-159.315340129442
 30
0.0
 10
98.12424313953144
 20
-159.3618489184929
 30
0.0
 10
98.12217608224029
 20
-159.4782931458943
 30
0.0
 10
98.12217608224029
 20
-159.522734877654
 30
0.0
 10
98.12217608224029
 20
-159.522734877654
 30
0.0
 10
98.12217608224029
 20
-159.8696559930187
 30
0.0
 10
98.12217608224029
 20
-159.8696559930187
 30
0.0
 10
98.12217608224029
 20
-159.956472399247
 30
0.0
 10
98.12424313953144
 20
-160.0980658236908
 30
0.0
 10
98.13492293553571
 20
-160.2186441656745
 30
0.0
 10
98.13492293553571
 20
-160.2186441656745
 30
0.0
 10
97.9444091552014
 20
-160.2186441656745
 30
0.0
 10
97.9444091552014
 20
-160.2186441656745
 30
0.0
 10
97.94888777933222
 20
-160.1552544087459
 30
0.0
 10
97.95302189391452
 20
-160.1025444478216
 30
0.0
 10
97.95508895120568
 20
-160.0474229200576
 30
0.0
 10
97.95715600849682
 20
-159.9247775207827
 30
0.0
 10
97.95922306578798
 20
-159.9096191006476
 30
0.0
 10
97.95922306578798
 20
-159.8655218784364
 30
0.0
 10
97.95922306578798
 20
-159.8655218784364
 30
0.0
 10
97.95922306578798
 20
-159.5437499601141
 30
0.0
 10
97.95922306578798
 20
-159.5437499601141
 30
0.0
 10
97.95922306578798
 20
-159.4886284323501
 30
0.0
 10
97.94647621249256
 20
-159.2498833152223
 30
0.0
 10
97.9444091552014
 20
-159.1992404115891
 30
0.0
 10
97.9444091552014
 20
-159.1992404115891
 30
0.0
 10
98.14560273154
 20
-159.2268011754711
 30
0.0
 10
98.14560273154
 20
-159.2268011754711
 30
0.0
 10
98.16661781400002
 20
-159.2288682327622
 30
0.0
 10
98.19831269246431
 20
-159.2330023473445
 30
0.0
 10
98.19831269246431
 20
-159.2584960539354
 30
0.0
 10
98.19831269246431
 20
-159.2857123082689
 30
0.0
 10
98.14766978883114
 20
-159.3067273907289
 30
0.0
 10
98.12631019682259
 20
-159.315340129442
 30
0.0
  0
SPLINE
  5
157
330
147
100
AcDbEntity
  8
_U+30EC_U+30A4_U+30E4_U+30FC 1
370
     0
100
AcDbSpline
210
0.0
220
0.0
230
1.0
 70
    11
 71
     3
 72
    83
 73
    79
 74
     0
 42
0.0000000001
 43
0.0000000001
 12
1.0
 22
0.0
 32
0.0
 13
1.0
 23
0.0
 33
0.0
 40
0.0
 40
0.0
 40
0.0
 40
0.0
 40
1.0
 40
1.0
 40
1.0
 40
2.0
 40
2.0
 40
2.0
 40
3.0
 40
3.0
 40
3.0
 40
4.0
 40
4.0
 40
4.0
 40
5.0
 40
5.0
 40
5.0
 40
6.0
 40
6.0
 40
6.0
 40
7.0
 40
7.0
 40
7.0
 40
8.0
 40
8.0
 40
8.0
 40
9.0
 40
9.0
 40
9.0
 40
10.0
 40
10.0
 40
10.0
 40
11.0
 40
11.0
 40
11.0
 40
12.0
 40
12.0
 40
12.0
 40
13.0
 40
13.0
 40
13.0
 40
14.0
 40
14.0
 40
14.0
 40
15.0
 40
15.0
 40
15.0
 40
16.0
 40
16.0
 40
16.0
 40
17.0
 40
17.0
 40
17.0
 40
18.0
 40
18.0
 40
18.0
 40
19.0
 40
19.0
 40
19.0
 40
20.0
 40
20.0
 40
20.0
 40
21.0
 40
21.0
 40
21.0
 40
22.0
 40
22.0
 40
22.0
 40
23.0
 40
23.0
 40
23.0
 40
24.0
 40
24.0
 40
24.0
 40
25.0
 40
25.0
 40
25.0
 40
26.0
 40
26.0
 40
26.0
 40
26.0
 10
98.92832842578875
 20
-159.6367675382158
 30
0.0
 10
98.92832842578875
 20
-159.6367675382158
 30
0.0
 10
98.83083222355619
 20
-159.6367675382158
 30
0.0
 10
98.83083222355619
 20
-159.6367675382158
 30
0.0
 10
98.83083222355619
 20
-159.6367675382158
 30
0.0
 10
98.83083222355619
 20
-159.8844699036053
 30
0.0
 10
98.83083222355619
 20
-159.8844699036053
 30
0.0
 10
98.83083222355619
 20
-159.8844699036053
 30
0.0
 10
98.91351451520218
 20
-159.8844699036053
 30
0.0
 10
98.91351451520218
 20
-159.8844699036053
 30
0.0
 10
98.97897132942192
 20
-159.8844699036053
 30
0.0
 10
99.11849769657455
 20
-159.8799912794745
 30
0.0
 10
99.21806095609827
 20
-159.8717230503099
 30
0.0
 10
99.21806095609827
 20
-159.8717230503099
 30
0.0
 10
99.21806095609827
 20
-160.0515570346399
 30
0.0
 10
99.21806095609827
 20
-160.0515570346399
 30
0.0
 10
99.12504337799652
 20
-160.0432888054753
 30
0.0
 10
98.97483721483962
 20
-160.039154690893
 30
0.0
 10
98.91351451520218
 20
-160.039154690893
 30
0.0
 10
98.91351451520218
 20
-160.039154690893
 30
0.0
 10
98.60862356475756
 20
-160.039154690893
 30
0.0
 10
98.60862356475756
 20
-160.039154690893
 30
0.0
 10
98.55591360383325
 20
-160.039154690893
 30
0.0
 10
98.40984155525865
 20
-160.0432888054753
 30
0.0
 10
98.30407712386149
 20
-160.0515570346399
 30
0.0
 10
98.30407712386149
 20
-160.0515570346399
 30
0.0
 10
98.30407712386149
 20
-159.8717230503099
 30
0.0
 10
98.30407712386149
 20
-159.8717230503099
 30
0.0
 10
98.40364038338521
 20
-159.8799912794745
 30
0.0
 10
98.54316675053782
 20
-159.8844699036053
 30
0.0
 10
98.60862356475756
 20
-159.8844699036053
 30
0.0
 10
98.60862356475756
 20
-159.8844699036053
 30
0.0
 10
98.6530652965173
 20
-159.8844699036053
 30
0.0
 10
98.6530652965173
 20
-159.8844699036053
 30
0.0
 10
98.6530652965173
 20
-159.8844699036053
 30
0.0
 10
98.6530652965173
 20
-159.6367675382158
 30
0.0
 10
98.6530652965173
 20
-159.6367675382158
 30
0.0
 10
98.6530652965173
 20
-159.6367675382158
 30
0.0
 10
98.57934025313294
 20
-159.6367675382158
 30
0.0
 10
98.57934025313294
 20
-159.6367675382158
 30
0.0
 10
98.51767304394697
 20
-159.6367675382158
 30
0.0
 10
98.35058591291236
 20
-159.6412461623466
 30
0.0
 10
98.23000757092862
 20
-159.6498589010598
 30
0.0
 10
98.23000757092862
 20
-159.6498589010598
 30
0.0
 10
98.23000757092862
 20
-159.4720919740209
 30
0.0
 10
98.23000757092862
 20
-159.4720919740209
 30
0.0
 10
98.34438474103891
 20
-159.4782931458943
 30
0.0
 10
98.5028591333604
 20
-159.4824272604766
 30
0.0
 10
98.57934025313294
 20
-159.4824272604766
 30
0.0
 10
98.57934025313294
 20
-159.4824272604766
 30
0.0
 10
98.65099823922614
 20
-159.4824272604766
 30
0.0
 10
98.65099823922614
 20
-159.4824272604766
 30
0.0
 10
98.64686412464384
 20
-159.3301540400286
 30
0.0
 10
98.6447970673527
 20
-159.2963921042731
 30
0.0
 10
98.63825138593072
 20
-159.2033745261714
 30
0.0
 10
98.63825138593072
 20
-159.2033745261714
 30
0.0
 10
98.85012475827358
 20
-159.2268011754711
 30
0.0
 10
98.85012475827358
 20
-159.2268011754711
 30
0.0
 10
98.8752739553159
 20
-159.2288682327622
 30
0.0
 10
98.89870060461561
 20
-159.2330023473445
 30
0.0
 10
98.89870060461561
 20
-159.2560844870957
 30
0.0
 10
98.89870060461561
 20
-159.2881238751085
 30
0.0
 10
98.85425887285588
 20
-159.3046603334377
 30
0.0
 10
98.83083222355619
 20
-159.3132730721508
 30
0.0
 10
98.83083222355619
 20
-159.3132730721508
 30
0.0
 10
98.83083222355619
 20
-159.4824272604766
 30
0.0
 10
98.83083222355619
 20
-159.4824272604766
 30
0.0
 10
98.83083222355619
 20
-159.4824272604766
 30
0.0
 10
98.92832842578875
 20
-159.4824272604766
 30
0.0
 10
98.92832842578875
 20
-159.4824272604766
 30
0.0
 10
99.00446503601277
 20
-159.4824272604766
 30
0.0
 10
99.16293942833427
 20
-159.4782931458943
 30
0.0
 10
99.27938365573571
 20
-159.4720919740209
 30
0.0
 10
99.27938365573571
 20
-159.4720919740209
 30
0.0
 10
99.27938365573571
 20
-159.6498589010598
 30
0.0
 10
99.27938365573571
 20
-159.6498589010598
 30
0.0
 10
99.1715521670474
 20
-159.6433132196378
 30
0.0
 10
98.9979193545908
 20
-159.6367675382158
 30
0.0
 10
98.92832842578875
 20
-159.6367675382158
 30
0.0
  0
SPLINE
  5
158
330
147
100
AcDbEntity
  8
_U+30EC_U+30A4_U+30E4_U+30FC 1
370
     0
100
AcDbSpline
210
0.0
220
0.0
230
1.0
 70
    11
 71
     3
 72
    17
 73
    13
 74
     0
 42
0.0000000001
 43
0.0000000001
 12
1.0
 22
0.0
 32
0.0
 13
1.0
 23
0.0
 33
0.0
 40
0.0
 40
0.0
 40
0.0
 40
0.0
 40
1.0
 40
1.0
 40
1.0
 40
2.0
 40
2.0
 40
2.0
 40
3.0
 40
3.0
 40
3.0
 40
4.0
 40
4.0
 40
4.0
 40
4.0
 10
98.68269311769045
 20
-160.4346516525997
 30
0.0
 10
98.68269311769045
 20
-160.4346516525997
 30
0.0
 10
98.47977699360922
 20
-160.4346516525997
 30
0.0
 10
98.47977699360922
 20
-160.4346516525997
 30
0.0
 10
98.50733775749123
 20
-160.493907294946
 30
0.0
 10
98.5621147757067
 20
-160.5655652810392
 30
0.0
 10
98.5896755395887
 20
-160.5951931022123
 30
0.0
 10
98.61723630347069
 20
-160.5807237011743
 30
0.0
 10
98.73161347358099
 20
-160.5169894346971
 30
0.0
 10
98.82256399439159
 20
-160.4346516525997
 30
0.0
 10
98.82256399439159
 20
-160.4346516525997
 30
0.0
 10
98.68269311769045
 20
-160.4346516525997
 30
0.0
 10
98.68269311769045
 20
-160.4346516525997
 30
0.0
  0
HATCH
  5
159
330
147
100
AcDbEntity
  8
_U+30EC_U+30A4_U+30E4_U+30FC 1
 62
   179
420
  2234388
100
AcDbHatch
 10
0.0
 20
0.0
 30
0.0
210
0.0
220
0.0
230
1.0
  2
SOLID
 70
     1
 71
     0
 91
        6
 92
        1
 93
        1
 72
     4
 94
        3
 73
     0
 74
     1
 95
      113
 96
      109
 40
0.0
 40
0.0
 40
0.0
 40
0.0
 40
1.0
 40
1.0
 40
1.0
 40
2.0
 40
2.0
 40
2.0
 40
3.0
 40
3.0
 40
3.0
 40
4.0
 40
4.0
 40
4.0
 40
5.0
 40
5.0
 40
5.0
 40
6.0
 40
6.0
 40
6.0
 40
7.0
 40
7.0
 40
7.0
 40
8.0
 40
8.0
 40
8.0
 40
9.0
 40
9.0
 40
9.0
 40
10.0
 40
10.0
 40
10.0
 40
11.0
 40
11.0
 40
11.0
 40
12.0
 40
12.0
 40
12.0
 40
13.0
 40
13.0
 40
13.0
 40
14.0
 40
14.0
 40
14.0
 40
15.0
 40
15.0
 40
15.0
 40
16.0
 40
16.0
 40
16.0
 40
17.0
 40
17.0
 40
17.0
 40
18.0
 40
18.0
 40
18.0
 40
19.0
 40
19.0
 40
19.0
 40
20.0
 40
20.0
 40
20.0
 40
21.0
 40
21.0
 40
21.0
 40
22.0
 40
22.0
 40
22.0
 40
23.0
 40
23.0
 40
23.0
 40
24.0
 40
24.0
 40
24.0
 40
25.0
 40
25.0
 40
25.0
 40
26.0
 40
26.0
 40
26.0
 40
27.0
 40
27.0
 40
27.0
 40
28.0
 40
28.0
 40
28.0
 40
29.0
 40
29.0
 40
29.0
 40
30.0
 40
30.0
 40
30.0
 40
31.0
 40
31.0
 40
31.0
 40
32.0
 40
32.0
 40
32.0
 40
33.0
 40
33.0
 40
33.0
 40
34.0
 40
34.0
 40
34.0
 40
35.0
 40
35.0
 40
35.0
 40
36.0
 40
36.0
 40
36.0
 40
36.0
 10
98.89008786590249
 20
-160.4367187098908
 10
98.89008786590249
 20
-160.4367187098908
 10
98.9896511254262
 20
-160.535937459866
 10
98.9896511254262
 20
-160.535937459866
 10
99.00033092143047
 20
-160.5466172558703
 10
99.01066620788623
 20
-160.5593641091657
 10
99.01066620788623
 20
-160.5741780197523
 10
99.01066620788623
 20
-160.5762450770434
 10
99.01066620788623
 20
-160.6058728982166
 10
98.97277015754848
 20
-160.6058728982166
 10
98.96415741883536
 20
-160.6058728982166
 10
98.92384980165794
 20
-160.6013942740858
 10
98.91764862978448
 20
-160.6013942740858
 10
98.87734101260706
 20
-160.6334336620986
 10
98.83083222355619
 20
-160.667195597854
 10
98.73161347358099
 20
-160.7243841829092
 10
98.87734101260706
 20
-160.8322156715975
 10
99.03615991447708
 20
-160.8894042566527
 10
99.30901147690886
 20
-160.9273003069904
 10
99.30901147690886
 20
-160.9273003069904
 10
99.15880531375197
 20
-161.1030001767381
 10
99.15880531375197
 20
-161.1030001767381
 10
98.89663354732446
 20
-161.0309976810964
 10
98.73988170274559
 20
-160.9424587271255
 10
98.66374509252157
 20
-160.8894042566527
 10
98.51353892936467
 20
-160.7877739398378
 10
98.36987844762976
 20
-160.6248209233855
 10
98.29374183740573
 20
-160.459800849642
 10
98.22587345634632
 20
-160.5256021734103
 10
98.15180390341344
 20
-160.5783121343346
 10
98.07360023589827
 20
-160.6268879806766
 10
98.07360023589827
 20
-160.6268879806766
 10
98.07360023589827
 20
-160.8787244606484
 10
98.07360023589827
 20
-160.8787244606484
 10
98.23655325235059
 20
-160.853575263606
 10
98.42258840855408
 20
-160.8087890222978
 10
98.48597816548268
 20
-160.7943196212598
 10
98.48597816548268
 20
-160.7943196212598
 10
98.45635034430953
 20
-160.963129300037
 10
98.45635034430953
 20
-160.963129300037
 10
98.45428328701838
 20
-160.963129300037
 10
98.4353352618495
 20
-160.969674981459
 10
98.43326820455836
 20
-160.969674981459
 10
98.23448619505943
 20
-161.0079155413453
 10
97.91719290086793
 20
-161.073372355565
 10
97.72013343911163
 20
-161.1092013486116
 10
97.70979815265589
 20
-161.1264268260379
 10
97.68637150335618
 20
-161.1581217045022
 10
97.66328936360502
 20
-161.1581217045022
 10
97.63572859972302
 20
-161.1581217045022
 10
97.63159448514072
 20
-161.1388291697847
 10
97.62918291830104
 20
-161.1198811446159
 10
97.62918291830104
 20
-161.1198811446159
 10
97.60403372125872
 20
-160.9465928417078
 10
97.60403372125872
 20
-160.9465928417078
 10
97.67810327419159
 20
-160.9379801029947
 10
97.7859347628799
 20
-160.9252332496993
 10
97.89376625156822
 20
-160.9042181672392
 10
97.89376625156822
 20
-160.9042181672392
 10
97.89376625156822
 20
-160.7264512402003
 10
97.89376625156822
 20
-160.7264512402003
 10
97.74976126028479
 20
-160.7984537358421
 10
97.65467662489189
 20
-160.8280815570152
 10
97.48965655114843
 20
-160.8577093781884
 10
97.48965655114843
 20
-160.8577093781884
 10
97.36907820916468
 20
-160.6882106803141
 10
97.36907820916468
 20
-160.6882106803141
 10
97.68637150335618
 20
-160.6606499164321
 10
97.87895234098166
 20
-160.5676323383303
 10
98.05671926802054
 20
-160.4346516525997
 10
97.91064721944595
 20
-160.4346516525997
 10
97.61023489313217
 20
-160.438785767182
 10
97.4135199409244
 20
-160.4449869390554
 10
97.4135199409244
 20
-160.4449869390554
 10
97.4135199409244
 20
-160.2672200120165
 10
97.4135199409244
 20
-160.2672200120165
 10
97.5678602186636
 20
-160.2737656934385
 10
97.86413843039509
 20
-160.2803113748605
 10
98.04810652930742
 20
-160.2803113748605
 10
98.04810652930742
 20
-160.2803113748605
 10
98.25963539210176
 20
-160.2803113748605
 10
98.25963539210176
 20
-160.2803113748605
 10
98.25963539210176
 20
-160.1848822299191
 10
98.25756833481061
 20
-160.1342393262859
 10
98.25136716293716
 20
-160.0873860276865
 10
98.25136716293716
 20
-160.0873860276865
 10
98.4670301403138
 20
-160.1046115051128
 10
98.4670301403138
 20
-160.1046115051128
 10
98.51560598665583
 20
-160.108745619695
 10
98.52421872536895
 20
-160.1235595302816
 10
98.52421872536895
 20
-160.1383734408682
 10
98.52421872536895
 20
-160.163867147459
 10
98.50733775749123
 20
-160.1721353766236
 10
98.45635034430953
 20
-160.1976290832145
 10
98.45428328701838
 20
-160.2231227898053
 10
98.45428328701838
 20
-160.2293239616788
 10
98.45221622972723
 20
-160.2803113748605
 10
98.45221622972723
 20
-160.2803113748605
 10
98.68269311769045
 20
-160.2803113748605
 10
98.68269311769045
 20
-160.2803113748605
 10
98.84771319143391
 20
-160.2803113748605
 10
99.1398572885831
 20
-160.2737656934385
 10
99.31969127291313
 20
-160.2672200120165
 10
99.31969127291313
 20
-160.2672200120165
 10
99.31969127291313
 20
-160.4449869390554
 10
99.31969127291313
 20
-160.4449869390554
 10
99.19050019221626
 20
-160.4408528244731
 10
99.1674180524651
 20
-160.4408528244731
 10
98.89008786590249
 20
-160.4367187098908
 97
        0
 97
        0
 92
        1
 93
        1
 72
     4
 94
        3
 73
     0
 74
     1
 95
       23
 96
       19
 40
0.0
 40
0.0
 40
0.0
 40
0.0
 40
1.0
 40
1.0
 40
1.0
 40
2.0
 40
2.0
 40
2.0
 40
3.0
 40
3.0
 40
3.0
 40
4.0
 40
4.0
 40
4.0
 40
5.0
 40
5.0
 40
5.0
 40
6.0
 40
6.0
 40
6.0
 40
6.0
 10
97.60610077854987
 20
-160.0853189703953
 10
97.58921981067215
 20
-160.1256265875728
 10
97.58267412925017
 20
-160.1425075554505
 10
97.56165904679014
 20
-160.1425075554505
 10
97.54684513620357
 20
-160.1425075554505
 10
97.53616534019929
 20
-160.1256265875728
 10
97.52996416832585
 20
-160.1128797342774
 10
97.52996416832585
 20
-160.1128797342774
 10
97.43040090880213
 20
-159.9478596605339
 10
97.43040090880213
 20
-159.9478596605339
 10
97.53203122561699
 20
-159.9161647820696
 10
97.68223738877388
 20
-159.8613877638541
 10
97.88101939827281
 20
-159.6980902378533
 10
97.88101939827281
 20
-159.6980902378533
 10
97.93820798332796
 20
-159.8717230503099
 10
97.93820798332796
 20
-159.8717230503099
 10
97.8451904052262
 20
-159.9544053419559
 10
97.75630694170677
 20
-160.011593927011
 10
97.60610077854987
 20
-160.0853189703953
 97
        0
 97
        0
 92
        1
 93
        1
 72
     4
 94
        3
 73
     0
 74
     1
 95
       17
 96
       13
 40
0.0
 40
0.0
 40
0.0
 40
0.0
 40
1.0
 40
1.0
 40
1.0
 40
2.0
 40
2.0
 40
2.0
 40
3.0
 40
3.0
 40
3.0
 40
4.0
 40
4.0
 40
4.0
 40
4.0
 10
97.75837399899791
 20
-159.6202310798866
 10
97.72874617782476
 20
-159.5799234627092
 10
97.66087779676533
 20
-159.4824272604766
 10
97.47897675514415
 20
-159.3725287144972
 10
97.47897675514415
 20
-159.3725287144972
 10
97.60610077854987
 20
-159.239203519218
 10
97.60610077854987
 20
-159.239203519218
 10
97.79213593475336
 20
-159.3408338360329
 10
97.8493245198085
 20
-159.4297172995523
 10
97.8768852836905
 20
-159.4720919740209
 10
97.8768852836905
 20
-159.4720919740209
 10
97.75837399899791
 20
-159.6202310798866
 10
97.75837399899791
 20
-159.6202310798866
 97
        0
 97
        0
 92
        1
 93
        1
 72
     4
 94
        3
 73
     0
 74
     1
 95
       38
 96
       34
 40
0.0
 40
0.0
 40
0.0
 40
0.0
 40
1.0
 40
1.0
 40
1.0
 40
2.0
 40
2.0
 40
2.0
 40
3.0
 40
3.0
 40
3.0
 40
4.0
 40
4.0
 40
4.0
 40
5.0
 40
5.0
 40
5.0
 40
6.0
 40
6.0
 40
6.0
 40
7.0
 40
7.0
 40
7.0
 40
8.0
 40
8.0
 40
8.0
 40
9.0
 40
9.0
 40
9.0
 40
10.0
 40
10.0
 40
10.0
 40
11.0
 40
11.0
 40
11.0
 40
11.0
 10
98.12631019682259
 20
-159.315340129442
 10
98.12424313953144
 20
-159.3618489184929
 10
98.12217608224029
 20
-159.4782931458943
 10
98.12217608224029
 20
-159.522734877654
 10
98.12217608224029
 20
-159.522734877654
 10
98.12217608224029
 20
-159.8696559930187
 10
98.12217608224029
 20
-159.8696559930187
 10
98.12217608224029
 20
-159.956472399247
 10
98.12424313953144
 20
-160.0980658236908
 10
98.13492293553571
 20
-160.2186441656745
 10
98.13492293553571
 20
-160.2186441656745
 10
97.9444091552014
 20
-160.2186441656745
 10
97.9444091552014
 20
-160.2186441656745
 10
97.94888777933222
 20
-160.1552544087459
 10
97.95302189391452
 20
-160.1025444478216
 10
97.95508895120568
 20
-160.0474229200576
 10
97.95715600849682
 20
-159.9247775207827
 10
97.95922306578798
 20
-159.9096191006476
 10
97.95922306578798
 20
-159.8655218784364
 10
97.95922306578798
 20
-159.8655218784364
 10
97.95922306578798
 20
-159.5437499601141
 10
97.95922306578798
 20
-159.5437499601141
 10
97.95922306578798
 20
-159.4886284323501
 10
97.94647621249256
 20
-159.2498833152223
 10
97.9444091552014
 20
-159.1992404115891
 10
97.9444091552014
 20
-159.1992404115891
 10
98.14560273154
 20
-159.2268011754711
 10
98.14560273154
 20
-159.2268011754711
 10
98.16661781400002
 20
-159.2288682327622
 10
98.19831269246431
 20
-159.2330023473445
 10
98.19831269246431
 20
-159.2584960539354
 10
98.19831269246431
 20
-159.2857123082689
 10
98.14766978883114
 20
-159.3067273907289
 10
98.12631019682259
 20
-159.315340129442
 97
        0
 97
        0
 92
        1
 93
        1
 72
     4
 94
        3
 73
     0
 74
     1
 95
       83
 96
       79
 40
0.0
 40
0.0
 40
0.0
 40
0.0
 40
1.0
 40
1.0
 40
1.0
 40
2.0
 40
2.0
 40
2.0
 40
3.0
 40
3.0
 40
3.0
 40
4.0
 40
4.0
 40
4.0
 40
5.0
 40
5.0
 40
5.0
 40
6.0
 40
6.0
 40
6.0
 40
7.0
 40
7.0
 40
7.0
 40
8.0
 40
8.0
 40
8.0
 40
9.0
 40
9.0
 40
9.0
 40
10.0
 40
10.0
 40
10.0
 40
11.0
 40
11.0
 40
11.0
 40
12.0
 40
12.0
 40
12.0
 40
13.0
 40
13.0
 40
13.0
 40
14.0
 40
14.0
 40
14.0
 40
15.0
 40
15.0
 40
15.0
 40
16.0
 40
16.0
 40
16.0
 40
17.0
 40
17.0
 40
17.0
 40
18.0
 40
18.0
 40
18.0
 40
19.0
 40
19.0
 40
19.0
 40
20.0
 40
20.0
 40
20.0
 40
21.0
 40
21.0
 40
21.0
 40
22.0
 40
22.0
 40
22.0
 40
23.0
 40
23.0
 40
23.0
 40
24.0
 40
24.0
 40
24.0
 40
25.0
 40
25.0
 40
25.0
 40
26.0
 40
26.0
 40
26.0
 40
26.0
 10
98.92832842578875
 20
-159.6367675382158
 10
98.92832842578875
 20
-159.6367675382158
 10
98.83083222355619
 20
-159.6367675382158
 10
98.83083222355619
 20
-159.6367675382158
 10
98.83083222355619
 20
-159.6367675382158
 10
98.83083222355619
 20
-159.8844699036053
 10
98.83083222355619
 20
-159.8844699036053
 10
98.83083222355619
 20
-159.8844699036053
 10
98.91351451520218
 20
-159.8844699036053
 10
98.91351451520218
 20
-159.8844699036053
 10
98.97897132942192
 20
-159.8844699036053
 10
99.11849769657455
 20
-159.8799912794745
 10
99.21806095609827
 20
-159.8717230503099
 10
99.21806095609827
 20
-159.8717230503099
 10
99.21806095609827
 20
-160.0515570346399
 10
99.21806095609827
 20
-160.0515570346399
 10
99.12504337799652
 20
-160.0432888054753
 10
98.97483721483962
 20
-160.039154690893
 10
98.91351451520218
 20
-160.039154690893
 10
98.91351451520218
 20
-160.039154690893
 10
98.60862356475756
 20
-160.039154690893
 10
98.60862356475756
 20
-160.039154690893
 10
98.55591360383325
 20
-160.039154690893
 10
98.40984155525865
 20
-160.0432888054753
 10
98.30407712386149
 20
-160.0515570346399
 10
98.30407712386149
 20
-160.0515570346399
 10
98.30407712386149
 20
-159.8717230503099
 10
98.30407712386149
 20
-159.8717230503099
 10
98.40364038338521
 20
-159.8799912794745
 10
98.54316675053782
 20
-159.8844699036053
 10
98.60862356475756
 20
-159.8844699036053
 10
98.60862356475756
 20
-159.8844699036053
 10
98.6530652965173
 20
-159.8844699036053
 10
98.6530652965173
 20
-159.8844699036053
 10
98.6530652965173
 20
-159.8844699036053
 10
98.6530652965173
 20
-159.6367675382158
 10
98.6530652965173
 20
-159.6367675382158
 10
98.6530652965173
 20
-159.6367675382158
 10
98.57934025313294
 20
-159.6367675382158
 10
98.57934025313294
 20
-159.6367675382158
 10
98.51767304394697
 20
-159.6367675382158
 10
98.35058591291236
 20
-159.6412461623466
 10
98.23000757092862
 20
-159.6498589010598
 10
98.23000757092862
 20
-159.6498589010598
 10
98.23000757092862
 20
-159.4720919740209
 10
98.23000757092862
 20
-159.4720919740209
 10
98.34438474103891
 20
-159.4782931458943
 10
98.5028591333604
 20
-159.4824272604766
 10
98.57934025313294
 20
-159.4824272604766
 10
98.57934025313294
 20
-159.4824272604766
 10
98.65099823922614
 20
-159.4824272604766
 10
98.65099823922614
 20
-159.4824272604766
 10
98.64686412464384
 20
-159.3301540400286
 10
98.6447970673527
 20
-159.2963921042731
 10
98.63825138593072
 20
-159.2033745261714
 10
98.63825138593072
 20
-159.2033745261714
 10
98.85012475827358
 20
-159.2268011754711
 10
98.85012475827358
 20
-159.2268011754711
 10
98.8752739553159
 20
-159.2288682327622
 10
98.89870060461561
 20
-159.2330023473445
 10
98.89870060461561
 20
-159.2560844870957
 10
98.89870060461561
 20
-159.2881238751085
 10
98.85425887285588
 20
-159.3046603334377
 10
98.83083222355619
 20
-159.3132730721508
 10
98.83083222355619
 20
-159.3132730721508
 10
98.83083222355619
 20
-159.4824272604766
 10
98.83083222355619
 20
-159.4824272604766
 10
98.83083222355619
 20
-159.4824272604766
 10
98.92832842578875
 20
-159.4824272604766
 10
98.92832842578875
 20
-159.4824272604766
 10
99.00446503601277
 20
-159.4824272604766
 10
99.16293942833427
 20
-159.4782931458943
 10
99.27938365573571
 20
-159.4720919740209
 10
99.27938365573571
 20
-159.4720919740209
 10
99.27938365573571
 20
-159.6498589010598
 10
99.27938365573571
 20
-159.6498589010598
 10
99.1715521670474
 20
-159.6433132196378
 10
98.9979193545908
 20
-159.6367675382158
 10
98.92832842578875
 20
-159.6367675382158
 97
        0
 97
        0
 92
        1
 93
        1
 72
     4
 94
        3
 73
     0
 74
     1
 95
       17
 96
       13
 40
0.0
 40
0.0
 40
0.0
 40
0.0
 40
1.0
 40
1.0
 40
1.0
 40
2.0
 40
2.0
 40
2.0
 40
3.0
 40
3.0
 40
3.0
 40
4.0
 40
4.0
 40
4.0
 40
4.0
 10
98.68269311769045
 20
-160.4346516525997
 10
98.68269311769045
 20
-160.4346516525997
 10
98.47977699360922
 20
-160.4346516525997
 10
98.47977699360922
 20
-160.4346516525997
 10
98.50733775749123
 20
-160.493907294946
 10
98.5621147757067
 20
-160.5655652810392
 10
98.5896755395887
 20
-160.5951931022123
 10
98.61723630347069
 20
-160.5807237011743
 10
98.73161347358099
 20
-160.5169894346971
 10
98.82256399439159
 20
-160.4346516525997
 10
98.82256399439159
 20
-160.4346516525997
 10
98.68269311769045
 20
-160.4346516525997
 10
98.68269311769045
 20
-160.4346516525997
 97
        0
 97
        0
 75
     2
 76
     1
 98
        0
  0
SPLINE
  5
15A
330
147
100
AcDbEntity
  8
_U+30EC_U+30A4_U+30E4_U+30FC 1
370
     0
100
AcDbSpline
210
0.0
220
0.0
230
1.0
 70
    11
 71
     3
 72
    77
 73
    73
 74
     0
 42
0.0000000001
 43
0.0000000001
 12
1.0
 22
0.0
 32
0.0
 13
1.0
 23
0.0
 33
0.0
 40
0.0
 40
0.0
 40
0.0
 40
0.0
 40
1.0
 40
1.0
 40
1.0
 40
2.0
 40
2.0
 40
2.0
 40
3.0
 40
3.0
 40
3.0
 40
4.0
 40
4.0
 40
4.0
 40
5.0
 40
5.0
 40
5.0
 40
6.0
 40
6.0
 40
6.0
 40
7.0
 40
7.0
 40
7.0
 40
8.0
 40
8.0
 40
8.0
 40
9.0
 40
9.0
 40
9.0
 40
10.0
 40
10.0
 40
10.0
 40
11.0
 40
11.0
 40
11.0
 40
12.0
 40
12.0
 40
12.0
 40
13.0
 40
13.0
 40
13.0
 40
14.0
 40
14.0
 40
14.0
 40
15.0
 40
15.0
 40
15.0
 40
16.0
 40
16.0
 40
16.0
 40
17.0
 40
17.0
 40
17.0
 40
18.0
 40
18.0
 40
18.0
 40
19.0
 40
19.0
 40
19.0
 40
20.0
 40
20.0
 40
20.0
 40
21.0
 40
21.0
 40
21.0
 40
22.0
 40
22.0
 40
22.0
 40
23.0
 40
23.0
 40
23.0
 40
24.0
 40
24.0
 40
24.0
 40
24.0
 10
101.1738416630746
 20
-161.0651041264004
 30
0.0
 10
101.1273328740237
 20
-161.0902533234427
 30
0.0
 10
101.0026204174577
 20
-161.1030001767381
 30
0.0
 10
100.924072240394
 20
-161.1030001767381
 30
0.0
 10
100.9116698966471
 20
-161.1030001767381
 30
0.0
 10
100.8861761900562
 20
-161.1030001767381
 30
0.0
 10
100.8524142543008
 20
-161.0988660621558
 30
0.0
 10
100.8524142543008
 20
-161.0988660621558
 30
0.0
 10
100.7549180520682
 20
-160.8721787792264
 30
0.0
 10
100.7549180520682
 20
-160.8721787792264
 30
0.0
 10
100.7845458732414
 20
-160.8787244606484
 30
0.0
 10
100.8417344582965
 20
-160.8873371993615
 30
0.0
 10
100.958178685698
 20
-160.8873371993615
 30
0.0
 10
101.0363823532131
 20
-160.8873371993615
 30
0.0
 10
101.0384494105043
 20
-160.8449625248929
 30
0.0
 10
101.0384494105043
 20
-160.7877739398378
 30
0.0
 10
101.0384494105043
 20
-160.7877739398378
 30
0.0
 10
101.0384494105043
 20
-160.438785767182
 30
0.0
 10
101.0384494105043
 20
-160.438785767182
 30
0.0
 10
101.0384494105043
 20
-160.438785767182
 30
0.0
 10
100.5792181823205
 20
-160.438785767182
 30
0.0
 10
100.5792181823205
 20
-160.438785767182
 30
0.0
 10
100.5816297491602
 20
-160.5762450770434
 30
0.0
 10
100.5836968064513
 20
-160.7750270865424
 30
0.0
 10
100.5898979783248
 20
-160.9083522818215
 30
0.0
 10
100.5919650356159
 20
-160.9359130457035
 30
0.0
 10
100.5919650356159
 20
-160.9803547774632
 30
0.0
 10
100.6047118889113
 20
-161.0416774771007
 30
0.0
 10
100.6047118889113
 20
-161.0416774771007
 30
0.0
 10
100.3635552049438
 20
-161.0416774771007
 30
0.0
 10
100.3635552049438
 20
-161.0416774771007
 30
0.0
 10
100.3890489115347
 20
-160.9169650205347
 30
0.0
 10
100.3890489115347
 20
-160.5762450770434
 30
0.0
 10
100.3890489115347
 20
-160.438785767182
 30
0.0
 10
100.3890489115347
 20
-160.438785767182
 30
0.0
 10
99.9466986512286
 20
-160.438785767182
 30
0.0
 10
99.9466986512286
 20
-160.438785767182
 30
0.0
 10
99.92361651147743
 20
-160.646180515394
 30
0.0
 10
99.85815969725769
 20
-160.9148979632435
 30
0.0
 10
99.6611002355014
 20
-161.0988660621558
 30
0.0
 10
99.6611002355014
 20
-161.0988660621558
 30
0.0
 10
99.47299802200675
 20
-160.976220662881
 30
0.0
 10
99.47299802200675
 20
-160.976220662881
 30
0.0
 10
99.72690155926966
 20
-160.7560790613735
 30
0.0
 10
99.75859643773397
 20
-160.4239718565954
 30
0.0
 10
99.75859643773397
 20
-160.0918646518173
 30
0.0
 10
99.75859643773397
 20
-160.0918646518173
 30
0.0
 10
99.75859643773397
 20
-159.6560600729332
 30
0.0
 10
99.75859643773397
 20
-159.6560600729332
 30
0.0
 10
99.75859643773397
 20
-159.6202310798866
 30
0.0
 10
99.75652938044281
 20
-159.3873426250837
 30
0.0
 10
99.74791664172969
 20
-159.2857123082689
 30
0.0
 10
99.88778751843084
 20
-159.2963921042731
 30
0.0
 10
100.1289442023983
 20
-159.2963921042731
 30
0.0
 10
100.2726046841332
 20
-159.2963921042731
 30
0.0
 10
100.2726046841332
 20
-159.2963921042731
 30
0.0
 10
100.7318359123171
 20
-159.2963921042731
 30
0.0
 10
100.7318359123171
 20
-159.2963921042731
 30
0.0
 10
100.7466498229036
 20
-159.2963921042731
 30
0.0
 10
101.0956379955594
 20
-159.2963921042731
 30
0.0
 10
101.2541123878809
 20
-159.2857123082689
 30
0.0
 10
101.2520453305898
 20
-159.3384222691932
 30
0.0
 10
101.2458441587163
 20
-159.4996527379029
 30
0.0
 10
101.2458441587163
 20
-159.5502956415361
 30
0.0
 10
101.2458441587163
 20
-159.5502956415361
 30
0.0
 10
101.2458441587163
 20
-160.1573214660371
 30
0.0
 10
101.2458441587163
 20
-160.1573214660371
 30
0.0
 10
101.2458441587163
 20
-160.1762694912059
 30
0.0
 10
101.2561794451721
 20
-160.7474663226604
 30
0.0
 10
101.2561794451721
 20
-160.8597764354795
 30
0.0
 10
101.2561794451721
 20
-160.9169650205347
 30
0.0
 10
101.2561794451721
 20
-161.018250827801
 30
0.0
 10
101.1738416630746
 20
-161.0651041264004
 30
0.0
  0
POLYLINE
  5
15B
330
147
100
AcDbEntity
  8
_U+30EC_U+30A4_U+30E4_U+30FC 1
370
     0
100
AcDb2dPolyline
 66
     1
 10
0.0
 20
0.0
 30
0.0
  0
VERTEX
  5
15C
330
15B
100
AcDbEntity
  8
_U+30EC_U+30A4_U+30E4_U+30FC 1
370
     0
100
AcDbVertex
100
AcDb2dVertex
 10
100.3890489115347
 20
-159.4782931458943
 30
0.0
  0
VERTEX
  5
15D
330
15B
100
AcDbEntity
  8
_U+30EC_U+30A4_U+30E4_U+30FC 1
370
     0
100
AcDbVertex
100
AcDb2dVertex
 10
99.95117727535943
 20
-159.4782931458943
 30
0.0
  0
VERTEX
  5
15E
330
15B
100
AcDbEntity
  8
_U+30EC_U+30A4_U+30E4_U+30FC 1
370
     0
100
AcDbVertex
100
AcDb2dVertex
 10
99.95117727535943
 20
-159.7828395867904
 30
0.0
  0
VERTEX
  5
15F
330
15B
100
AcDbEntity
  8
_U+30EC_U+30A4_U+30E4_U+30FC 1
370
     0
100
AcDbVertex
100
AcDb2dVertex
 10
100.3890489115347
 20
-159.7828395867904
 30
0.0
  0
VERTEX
  5
160
330
15B
100
AcDbEntity
  8
_U+30EC_U+30A4_U+30E4_U+30FC 1
370
     0
100
AcDbVertex
100
AcDb2dVertex
 10
100.3890489115347
 20
-159.4782931458943
 30
0.0
  0
SEQEND
  5
161
330
15B
100
AcDbEntity
  8
_U+30EC_U+30A4_U+30E4_U+30FC 1
370
     0
  0
POLYLINE
  5
162
330
147
100
AcDbEntity
  8
_U+30EC_U+30A4_U+30E4_U+30FC 1
370
     0
100
AcDb2dPolyline
 66
     1
 10
0.0
 20
0.0
 30
0.0
  0
VERTEX
  5
163
330
162
100
AcDbEntity
  8
_U+30EC_U+30A4_U+30E4_U+30FC 1
370
     0
100
AcDbVertex
100
AcDb2dVertex
 10
100.3890489115347
 20
-159.9502712273735
 30
0.0
  0
VERTEX
  5
164
330
162
100
AcDbEntity
  8
_U+30EC_U+30A4_U+30E4_U+30FC 1
370
     0
100
AcDbVertex
100
AcDb2dVertex
 10
99.95117727535943
 20
-159.9502712273735
 30
0.0
  0
VERTEX
  5
165
330
162
100
AcDbEntity
  8
_U+30EC_U+30A4_U+30E4_U+30FC 1
370
     0
100
AcDbVertex
100
AcDb2dVertex
 10
99.95117727535943
 20
-160.2589517828519
 30
0.0
  0
VERTEX
  5
166
330
162
100
AcDbEntity
  8
_U+30EC_U+30A4_U+30E4_U+30FC 1
370
     0
100
AcDbVertex
100
AcDb2dVertex
 10
100.3890489115347
 20
-160.2589517828519
 30
0.0
  0
VERTEX
  5
167
330
162
100
AcDbEntity
  8
_U+30EC_U+30A4_U+30E4_U+30FC 1
370
     0
100
AcDbVertex
100
AcDb2dVertex
 10
100.3890489115347
 20
-159.9502712273735
 30
0.0
  0
SEQEND
  5
168
330
162
100
AcDbEntity
  8
_U+30EC_U+30A4_U+30E4_U+30FC 1
370
     0
  0
POLYLINE
  5
169
330
147
100
AcDbEntity
  8
_U+30EC_U+30A4_U+30E4_U+30FC 1
370
     0
100
AcDb2dPolyline
 66
     1
 10
0.0
 20
0.0
 30
0.0
  0
VERTEX
  5
16A
330
169
100
AcDbEntity
  8
_U+30EC_U+30A4_U+30E4_U+30FC 1
370
     0
100
AcDbVertex
100
AcDb2dVertex
 10
101.0384494105043
 20
-159.4782931458943
 30
0.0
  0
VERTEX
  5
16B
330
169
100
AcDbEntity
  8
_U+30EC_U+30A4_U+30E4_U+30FC 1
370
     0
100
AcDbVertex
100
AcDb2dVertex
 10
100.5792181823205
 20
-159.4782931458943
 30
0.0
  0
VERTEX
  5
16C
330
169
100
AcDbEntity
  8
_U+30EC_U+30A4_U+30E4_U+30FC 1
370
     0
100
AcDbVertex
100
AcDb2dVertex
 10
100.5792181823205
 20
-159.7828395867904
 30
0.0
  0
VERTEX
  5
16D
330
169
100
AcDbEntity
  8
_U+30EC_U+30A4_U+30E4_U+30FC 1
370
     0
100
AcDbVertex
100
AcDb2dVertex
 10
101.0384494105043
 20
-159.7828395867904
 30
0.0
  0
VERTEX
  5
16E
330
169
100
AcDbEntity
  8
_U+30EC_U+30A4_U+30E4_U+30FC 1
370
     0
100
AcDbVertex
100
AcDb2dVertex
 10
101.0384494105043
 20
-159.4782931458943
 30
0.0
  0
SEQEND
  5
16F
330
169
100
AcDbEntity
  8
_U+30EC_U+30A4_U+30E4_U+30FC 1
370
     0
  0
POLYLINE
  5
170
330
147
100
AcDbEntity
  8
_U+30EC_U+30A4_U+30E4_U+30FC 1
370
     0
100
AcDb2dPolyline
 66
     1
 10
0.0
 20
0.0
 30
0.0
  0
VERTEX
  5
171
330
170
100
AcDbEntity
  8
_U+30EC_U+30A4_U+30E4_U+30FC 1
370
     0
100
AcDbVertex
100
AcDb2dVertex
 10
101.0384494105043
 20
-159.9502712273735
 30
0.0
  0
VERTEX
  5
172
330
170
100
AcDbEntity
  8
_U+30EC_U+30A4_U+30E4_U+30FC 1
370
     0
100
AcDbVertex
100
AcDb2dVertex
 10
100.5792181823205
 20
-159.9502712273735
 30
0.0
  0
VERTEX
  5
173
330
170
100
AcDbEntity
  8
_U+30EC_U+30A4_U+30E4_U+30FC 1
370
     0
100
AcDbVertex
100
AcDb2dVertex
 10
100.5792181823205
 20
-160.2589517828519
 30
0.0
  0
VERTEX
  5
174
330
170
100
AcDbEntity
  8
_U+30EC_U+30A4_U+30E4_U+30FC 1
370
     0
100
AcDbVertex
100
AcDb2dVertex
 10
101.0384494105043
 20
-160.2589517828519
 30
0.0
  0
VERTEX
  5
175
330
170
100
AcDbEntity
  8
_U+30EC_U+30A4_U+30E4_U+30FC 1
370
     0
100
AcDbVertex
100
AcDb2dVertex
 10
101.0384494105043
 20
-159.9502712273735
 30
0.0
  0
SEQEND
  5
176
330
170
100
AcDbEntity
  8
_U+30EC_U+30A4_U+30E4_U+30FC 1
370
     0
  0
HATCH
  5
177
330
147
100
AcDbEntity
  8
_U+30EC_U+30A4_U+30E4_U+30FC 1
 62
   179
420
  2234388
100
AcDbHatch
 10
0.0
 20
0.0
 30
0.0
210
0.0
220
0.0
230
1.0
  2
SOLID
 70
     1
 71
     0
 91
        5
 92
        1
 93
        1
 72
     4
 94
        3
 73
     0
 74
     1
 95
       77
 96
       73
 40
0.0
 40
0.0
 40
0.0
 40
0.0
 40
1.0
 40
1.0
 40
1.0
 40
2.0
 40
2.0
 40
2.0
 40
3.0
 40
3.0
 40
3.0
 40
4.0
 40
4.0
 40
4.0
 40
5.0
 40
5.0
 40
5.0
 40
6.0
 40
6.0
 40
6.0
 40
7.0
 40
7.0
 40
7.0
 40
8.0
 40
8.0
 40
8.0
 40
9.0
 40
9.0
 40
9.0
 40
10.0
 40
10.0
 40
10.0
 40
11.0
 40
11.0
 40
11.0
 40
12.0
 40
12.0
 40
12.0
 40
13.0
 40
13.0
 40
13.0
 40
14.0
 40
14.0
 40
14.0
 40
15.0
 40
15.0
 40
15.0
 40
16.0
 40
16.0
 40
16.0
 40
17.0
 40
17.0
 40
17.0
 40
18.0
 40
18.0
 40
18.0
 40
19.0
 40
19.0
 40
19.0
 40
20.0
 40
20.0
 40
20.0
 40
21.0
 40
21.0
 40
21.0
 40
22.0
 40
22.0
 40
22.0
 40
23.0
 40
23.0
 40
23.0
 40
24.0
 40
24.0
 40
24.0
 40
24.0
 10
101.1738416630746
 20
-161.0651041264004
 10
101.1273328740237
 20
-161.0902533234427
 10
101.0026204174577
 20
-161.1030001767381
 10
100.924072240394
 20
-161.1030001767381
 10
100.9116698966471
 20
-161.1030001767381
 10
100.8861761900562
 20
-161.1030001767381
 10
100.8524142543008
 20
-161.0988660621558
 10
100.8524142543008
 20
-161.0988660621558
 10
100.7549180520682
 20
-160.8721787792264
 10
100.7549180520682
 20
-160.8721787792264
 10
100.7845458732414
 20
-160.8787244606484
 10
100.8417344582965
 20
-160.8873371993615
 10
100.958178685698
 20
-160.8873371993615
 10
101.0363823532131
 20
-160.8873371993615
 10
101.0384494105043
 20
-160.8449625248929
 10
101.0384494105043
 20
-160.7877739398378
 10
101.0384494105043
 20
-160.7877739398378
 10
101.0384494105043
 20
-160.438785767182
 10
101.0384494105043
 20
-160.438785767182
 10
101.0384494105043
 20
-160.438785767182
 10
100.5792181823205
 20
-160.438785767182
 10
100.5792181823205
 20
-160.438785767182
 10
100.5816297491602
 20
-160.5762450770434
 10
100.5836968064513
 20
-160.7750270865424
 10
100.5898979783248
 20
-160.9083522818215
 10
100.5919650356159
 20
-160.9359130457035
 10
100.5919650356159
 20
-160.9803547774632
 10
100.6047118889113
 20
-161.0416774771007
 10
100.6047118889113
 20
-161.0416774771007
 10
100.3635552049438
 20
-161.0416774771007
 10
100.3635552049438
 20
-161.0416774771007
 10
100.3890489115347
 20
-160.9169650205347
 10
100.3890489115347
 20
-160.5762450770434
 10
100.3890489115347
 20
-160.438785767182
 10
100.3890489115347
 20
-160.438785767182
 10
99.9466986512286
 20
-160.438785767182
 10
99.9466986512286
 20
-160.438785767182
 10
99.92361651147743
 20
-160.646180515394
 10
99.85815969725769
 20
-160.9148979632435
 10
99.6611002355014
 20
-161.0988660621558
 10
99.6611002355014
 20
-161.0988660621558
 10
99.47299802200675
 20
-160.976220662881
 10
99.47299802200675
 20
-160.976220662881
 10
99.72690155926966
 20
-160.7560790613735
 10
99.75859643773397
 20
-160.4239718565954
 10
99.75859643773397
 20
-160.0918646518173
 10
99.75859643773397
 20
-160.0918646518173
 10
99.75859643773397
 20
-159.6560600729332
 10
99.75859643773397
 20
-159.6560600729332
 10
99.75859643773397
 20
-159.6202310798866
 10
99.75652938044281
 20
-159.3873426250837
 10
99.74791664172969
 20
-159.2857123082689
 10
99.88778751843084
 20
-159.2963921042731
 10
100.1289442023983
 20
-159.2963921042731
 10
100.2726046841332
 20
-159.2963921042731
 10
100.2726046841332
 20
-159.2963921042731
 10
100.7318359123171
 20
-159.2963921042731
 10
100.7318359123171
 20
-159.2963921042731
 10
100.7466498229036
 20
-159.2963921042731
 10
101.0956379955594
 20
-159.2963921042731
 10
101.2541123878809
 20
-159.2857123082689
 10
101.2520453305898
 20
-159.3384222691932
 10
101.2458441587163
 20
-159.4996527379029
 10
101.2458441587163
 20
-159.5502956415361
 10
101.2458441587163
 20
-159.5502956415361
 10
101.2458441587163
 20
-160.1573214660371
 10
101.2458441587163
 20
-160.1573214660371
 10
101.2458441587163
 20
-160.1762694912059
 10
101.2561794451721
 20
-160.7474663226604
 10
101.2561794451721
 20
-160.8597764354795
 10
101.2561794451721
 20
-160.9169650205347
 10
101.2561794451721
 20
-161.018250827801
 10
101.1738416630746
 20
-161.0651041264004
 97
        0
 97
        0
 92
        1
 93
        4
 72
     1
 10
100.3890489115347
 20
-159.4782931458943
 11
99.95117727535943
 21
-159.4782931458943
 72
     1
 10
99.95117727535943
 20
-159.4782931458943
 11
99.95117727535943
 21
-159.7828395867904
 72
     1
 10
99.95117727535943
 20
-159.7828395867904
 11
100.3890489115347
 21
-159.7828395867904
 72
     1
 10
100.3890489115347
 20
-159.7828395867904
 11
100.3890489115347
 21
-159.4782931458943
 97
        0
 92
        1
 93
        4
 72
     1
 10
100.3890489115347
 20
-159.9502712273735
 11
99.95117727535943
 21
-159.9502712273735
 72
     1
 10
99.95117727535943
 20
-159.9502712273735
 11
99.95117727535943
 21
-160.2589517828519
 72
     1
 10
99.95117727535943
 20
-160.2589517828519
 11
100.3890489115347
 21
-160.2589517828519
 72
     1
 10
100.3890489115347
 20
-160.2589517828519
 11
100.3890489115347
 21
-159.9502712273735
 97
        0
 92
        1
 93
        4
 72
     1
 10
101.0384494105043
 20
-159.4782931458943
 11
100.5792181823205
 21
-159.4782931458943
 72
     1
 10
100.5792181823205
 20
-159.4782931458943
 11
100.5792181823205
 21
-159.7828395867904
 72
     1
 10
100.5792181823205
 20
-159.7828395867904
 11
101.0384494105043
 21
-159.7828395867904
 72
     1
 10
101.0384494105043
 20
-159.7828395867904
 11
101.0384494105043
 21
-159.4782931458943
 97
        0
 92
        1
 93
        4
 72
     1
 10
101.0384494105043
 20
-159.9502712273735
 11
100.5792181823205
 21
-159.9502712273735
 72
     1
 10
100.5792181823205
 20
-159.9502712273735
 11
100.5792181823205
 21
-160.2589517828519
 72
     1
 10
100.5792181823205
 20
-160.2589517828519
 11
101.0384494105043
 21
-160.2589517828519
 72
     1
 10
101.0384494105043
 20
-160.2589517828519
 11
101.0384494105043
 21
-159.9502712273735
 97
        0
 75
     2
 76
     1
 98
        0
  0
SPLINE
  5
178
330
147
100
AcDbEntity
  8
_U+30EC_U+30A4_U+30E4_U+30FC 1
370
     0
100
AcDbSpline
210
0.0
220
0.0
230
1.0
 70
    11
 71
     3
 72
    44
 73
    40
 74
     0
 42
0.0000000001
 43
0.0000000001
 12
1.0
 22
0.0
 32
0.0
 13
1.0
 23
0.0
 33
0.0
 40
0.0
 40
0.0
 40
0.0
 40
0.0
 40
1.0
 40
1.0
 40
1.0
 40
2.0
 40
2.0
 40
2.0
 40
3.0
 40
3.0
 40
3.0
 40
4.0
 40
4.0
 40
4.0
 40
5.0
 40
5.0
 40
5.0
 40
6.0
 40
6.0
 40
6.0
 40
7.0
 40
7.0
 40
7.0
 40
8.0
 40
8.0
 40
8.0
 40
9.0
 40
9.0
 40
9.0
 40
10.0
 40
10.0
 40
10.0
 40
11.0
 40
11.0
 40
11.0
 40
12.0
 40
12.0
 40
12.0
 40
13.0
 40
13.0
 40
13.0
 40
13.0
 10
103.0514187025358
 20
-159.8145344652547
 30
0.0
 10
102.9394530992651
 20
-160.1828151726279
 30
0.0
 10
102.888810195632
 20
-160.3416340744979
 30
0.0
 10
102.6920952434242
 20
-160.59105898763
 30
0.0
 10
102.5077826349633
 20
-160.8218803851418
 30
0.0
 10
102.2711045751267
 20
-161.0079155413453
 30
0.0
 10
101.9917073312729
 20
-161.100933119447
 30
0.0
 10
101.9917073312729
 20
-161.100933119447
 30
0.0
 10
101.7991264936474
 20
-160.9210991351169
 30
0.0
 10
101.7991264936474
 20
-160.9210991351169
 30
0.0
 10
102.4402587634524
 20
-160.7688259146689
 30
0.0
 10
102.7702989109394
 20
-160.2124429938011
 30
0.0
 10
102.833688667868
 20
-159.7725043003346
 30
0.0
 10
102.833688667868
 20
-159.7725043003346
 30
0.0
 10
102.0678439414969
 20
-159.7725043003346
 30
0.0
 10
102.0678439414969
 20
-159.7725043003346
 30
0.0
 10
101.9748263633952
 20
-159.7725043003346
 30
0.0
 10
101.7908582644828
 20
-159.776638414917
 30
0.0
 10
101.634106419904
 20
-159.7955864400858
 30
0.0
 10
101.634106419904
 20
-159.7955864400858
 30
0.0
 10
101.634106419904
 20
-159.5754448385784
 30
0.0
 10
101.634106419904
 20
-159.5754448385784
 30
0.0
 10
101.7209228261323
 20
-159.5968044305869
 30
0.0
 10
101.972759306104
 20
-159.5968044305869
 30
0.0
 10
102.0719780560792
 20
-159.5968044305869
 30
0.0
 10
102.0719780560792
 20
-159.5968044305869
 30
0.0
 10
102.503648520381
 20
-159.5968044305869
 30
0.0
 10
102.503648520381
 20
-159.5968044305869
 30
0.0
 10
102.5460231948496
 20
-159.5968044305869
 30
0.0
 10
102.7806341973951
 20
-159.5947373732958
 30
0.0
 10
102.8188747572814
 20
-159.5885362014223
 30
0.0
 10
102.86124943175
 20
-159.5819905200003
 30
0.0
 10
102.8633164890411
 20
-159.5799234627092
 30
0.0
 10
102.9246391886786
 20
-159.5396158455318
 30
0.0
 10
102.9246391886786
 20
-159.5396158455318
 30
0.0
 10
103.1130859117217
 20
-159.693956123271
 30
0.0
 10
103.1130859117217
 20
-159.693956123271
 30
0.0
 10
103.0834580905486
 20
-159.7235839444441
 30
0.0
 10
103.068644179962
 20
-159.7552788229084
 30
0.0
 10
103.0514187025358
 20
-159.8145344652547
 30
0.0
  0
SPLINE
  5
179
330
147
100
AcDbEntity
  8
_U+30EC_U+30A4_U+30E4_U+30FC 1
370
     0
100
AcDbSpline
210
0.0
220
0.0
230
1.0
 70
    11
 71
     3
 72
    17
 73
    13
 74
     0
 42
0.0000000001
 43
0.0000000001
 12
1.0
 22
0.0
 32
0.0
 13
1.0
 23
0.0
 33
0.0
 40
0.0
 40
0.0
 40
0.0
 40
0.0
 40
1.0
 40
1.0
 40
1.0
 40
2.0
 40
2.0
 40
2.0
 40
3.0
 40
3.0
 40
3.0
 40
4.0
 40
4.0
 40
4.0
 40
4.0
 10
103.260880508039
 20
-159.6157524557558
 30
0.0
 10
103.1341009941818
 20
-159.6157524557558
 30
0.0
 10
103.0324706773669
 20
-159.5141221389409
 30
0.0
 10
103.0324706773669
 20
-159.3873426250837
 30
0.0
 10
103.0324706773669
 20
-159.2605631112265
 30
0.0
 10
103.1341009941818
 20
-159.156521227572
 30
0.0
 10
103.260880508039
 20
-159.156521227572
 30
0.0
 10
103.3880045314447
 20
-159.156521227572
 30
0.0
 10
103.4917019055507
 20
-159.2605631112265
 30
0.0
 10
103.4917019055507
 20
-159.3873426250837
 30
0.0
 10
103.4917019055507
 20
-159.5141221389409
 30
0.0
 10
103.3880045314447
 20
-159.6157524557558
 30
0.0
 10
103.260880508039
 20
-159.6157524557558
 30
0.0
  0
SPLINE
  5
17A
330
147
100
AcDbEntity
  8
_U+30EC_U+30A4_U+30E4_U+30FC 1
370
     0
100
AcDbSpline
210
0.0
220
0.0
230
1.0
 70
    11
 71
     3
 72
    17
 73
    13
 74
     0
 42
0.0000000001
 43
0.0000000001
 12
1.0
 22
0.0
 32
0.0
 13
1.0
 23
0.0
 33
0.0
 40
0.0
 40
0.0
 40
0.0
 40
0.0
 40
1.0
 40
1.0
 40
1.0
 40
2.0
 40
2.0
 40
2.0
 40
3.0
 40
3.0
 40
3.0
 40
4.0
 40
4.0
 40
4.0
 40
4.0
 10
103.2588134507478
 20
-159.2857123082689
 30
0.0
 10
103.2040364325323
 20
-159.2857123082689
 30
0.0
 10
103.1595947007726
 20
-159.3301540400286
 30
0.0
 10
103.1595947007726
 20
-159.3852755677926
 30
0.0
 10
103.1595947007726
 20
-159.4424641528477
 30
0.0
 10
103.2040364325323
 20
-159.4910399991898
 30
0.0
 10
103.2629475653301
 20
-159.4910399991898
 30
0.0
 10
103.3222032076764
 20
-159.4910399991898
 30
0.0
 10
103.3625108248538
 20
-159.4403970955566
 30
0.0
 10
103.3625108248538
 20
-159.3873426250837
 30
0.0
 10
103.3625108248538
 20
-159.3301540400286
 30
0.0
 10
103.316002035803
 20
-159.2857123082689
 30
0.0
 10
103.2588134507478
 20
-159.2857123082689
 30
0.0
  0
HATCH
  5
17B
330
147
100
AcDbEntity
  8
_U+30EC_U+30A4_U+30E4_U+30FC 1
 62
   179
420
  2234388
100
AcDbHatch
 10
0.0
 20
0.0
 30
0.0
210
0.0
220
0.0
230
1.0
  2
SOLID
 70
     1
 71
     0
 91
        3
 92
        1
 93
        1
 72
     4
 94
        3
 73
     0
 74
     1
 95
       44
 96
       40
 40
0.0
 40
0.0
 40
0.0
 40
0.0
 40
1.0
 40
1.0
 40
1.0
 40
2.0
 40
2.0
 40
2.0
 40
3.0
 40
3.0
 40
3.0
 40
4.0
 40
4.0
 40
4.0
 40
5.0
 40
5.0
 40
5.0
 40
6.0
 40
6.0
 40
6.0
 40
7.0
 40
7.0
 40
7.0
 40
8.0
 40
8.0
 40
8.0
 40
9.0
 40
9.0
 40
9.0
 40
10.0
 40
10.0
 40
10.0
 40
11.0
 40
11.0
 40
11.0
 40
12.0
 40
12.0
 40
12.0
 40
13.0
 40
13.0
 40
13.0
 40
13.0
 10
103.0514187025358
 20
-159.8145344652547
 10
102.9394530992651
 20
-160.1828151726279
 10
102.888810195632
 20
-160.3416340744979
 10
102.6920952434242
 20
-160.59105898763
 10
102.5077826349633
 20
-160.8218803851418
 10
102.2711045751267
 20
-161.0079155413453
 10
101.9917073312729
 20
-161.100933119447
 10
101.9917073312729
 20
-161.100933119447
 10
101.7991264936474
 20
-160.9210991351169
 10
101.7991264936474
 20
-160.9210991351169
 10
102.4402587634524
 20
-160.7688259146689
 10
102.7702989109394
 20
-160.2124429938011
 10
102.833688667868
 20
-159.7725043003346
 10
102.833688667868
 20
-159.7725043003346
 10
102.0678439414969
 20
-159.7725043003346
 10
102.0678439414969
 20
-159.7725043003346
 10
101.9748263633952
 20
-159.7725043003346
 10
101.7908582644828
 20
-159.776638414917
 10
101.634106419904
 20
-159.7955864400858
 10
101.634106419904
 20
-159.7955864400858
 10
101.634106419904
 20
-159.5754448385784
 10
101.634106419904
 20
-159.5754448385784
 10
101.7209228261323
 20
-159.5968044305869
 10
101.972759306104
 20
-159.5968044305869
 10
102.0719780560792
 20
-159.5968044305869
 10
102.0719780560792
 20
-159.5968044305869
 10
102.503648520381
 20
-159.5968044305869
 10
102.503648520381
 20
-159.5968044305869
 10
102.5460231948496
 20
-159.5968044305869
 10
102.7806341973951
 20
-159.5947373732958
 10
102.8188747572814
 20
-159.5885362014223
 10
102.86124943175
 20
-159.5819905200003
 10
102.8633164890411
 20
-159.5799234627092
 10
102.9246391886786
 20
-159.5396158455318
 10
102.9246391886786
 20
-159.5396158455318
 10
103.1130859117217
 20
-159.693956123271
 10
103.1130859117217
 20
-159.693956123271
 10
103.0834580905486
 20
-159.7235839444441
 10
103.068644179962
 20
-159.7552788229084
 10
103.0514187025358
 20
-159.8145344652547
 97
        0
 97
        0
 92
        1
 93
        1
 72
     4
 94
        3
 73
     0
 74
     1
 95
       17
 96
       13
 40
0.0
 40
0.0
 40
0.0
 40
0.0
 40
1.0
 40
1.0
 40
1.0
 40
2.0
 40
2.0
 40
2.0
 40
3.0
 40
3.0
 40
3.0
 40
4.0
 40
4.0
 40
4.0
 40
4.0
 10
103.260880508039
 20
-159.6157524557558
 10
103.1341009941818
 20
-159.6157524557558
 10
103.0324706773669
 20
-159.5141221389409
 10
103.0324706773669
 20
-159.3873426250837
 10
103.0324706773669
 20
-159.2605631112265
 10
103.1341009941818
 20
-159.156521227572
 10
103.260880508039
 20
-159.156521227572
 10
103.3880045314447
 20
-159.156521227572
 10
103.4917019055507
 20
-159.2605631112265
 10
103.4917019055507
 20
-159.3873426250837
 10
103.4917019055507
 20
-159.5141221389409
 10
103.3880045314447
 20
-159.6157524557558
 10
103.260880508039
 20
-159.6157524557558
 97
        0
 97
        0
 92
        1
 93
        1
 72
     4
 94
        3
 73
     0
 74
     1
 95
       17
 96
       13
 40
0.0
 40
0.0
 40
0.0
 40
0.0
 40
1.0
 40
1.0
 40
1.0
 40
2.0
 40
2.0
 40
2.0
 40
3.0
 40
3.0
 40
3.0
 40
4.0
 40
4.0
 40
4.0
 40
4.0
 10
103.2588134507478
 20
-159.2857123082689
 10
103.2040364325323
 20
-159.2857123082689
 10
103.1595947007726
 20
-159.3301540400286
 10
103.1595947007726
 20
-159.3852755677926
 10
103.1595947007726
 20
-159.4424641528477
 10
103.2040364325323
 20
-159.4910399991898
 10
103.2629475653301
 20
-159.4910399991898
 10
103.3222032076764
 20
-159.4910399991898
 10
103.3625108248538
 20
-159.4403970955566
 10
103.3625108248538
 20
-159.3873426250837
 10
103.3625108248538
 20
-159.3301540400286
 10
103.316002035803
 20
-159.2857123082689
 10
103.2588134507478
 20
-159.2857123082689
 97
        0
 97
        0
 75
     2
 76
     1
 98
        0
  0
SPLINE
  5
17C
330
147
100
AcDbEntity
  8
_U+30EC_U+30A4_U+30E4_U+30FC 1
370
     0
100
AcDbSpline
210
0.0
220
0.0
230
1.0
 70
    11
 71
     3
 72
    50
 73
    46
 74
     0
 42
0.0000000001
 43
0.0000000001
 12
1.0
 22
0.0
 32
0.0
 13
1.0
 23
0.0
 33
0.0
 40
0.0
 40
0.0
 40
0.0
 40
0.0
 40
1.0
 40
1.0
 40
1.0
 40
2.0
 40
2.0
 40
2.0
 40
3.0
 40
3.0
 40
3.0
 40
4.0
 40
4.0
 40
4.0
 40
5.0
 40
5.0
 40
5.0
 40
6.0
 40
6.0
 40
6.0
 40
7.0
 40
7.0
 40
7.0
 40
8.0
 40
8.0
 40
8.0
 40
9.0
 40
9.0
 40
9.0
 40
10.0
 40
10.0
 40
10.0
 40
11.0
 40
11.0
 40
11.0
 40
12.0
 40
12.0
 40
12.0
 40
13.0
 40
13.0
 40
13.0
 40
14.0
 40
14.0
 40
14.0
 40
15.0
 40
15.0
 40
15.0
 40
15.0
 10
105.0561197654026
 20
-160.1235595302816
 30
0.0
 10
104.9775715883389
 20
-160.300981947772
 30
0.0
 10
104.8421793357686
 20
-160.508376695984
 30
0.0
 10
104.7047200259072
 20
-160.6482475726852
 30
0.0
 10
104.5355658375814
 20
-160.8194688183021
 30
0.0
 10
104.3726128211291
 20
-160.9083522818215
 30
0.0
 10
104.0532524696464
 20
-161.0499457062653
 30
0.0
 10
104.0532524696464
 20
-161.0499457062653
 30
0.0
 10
103.8840982813206
 20
-160.8618434927706
 30
0.0
 10
103.8840982813206
 20
-160.8618434927706
 30
0.0
 10
104.0701334375241
 20
-160.838416843471
 30
0.0
 10
104.2413546831411
 20
-160.7516004372427
 30
0.0
 10
104.3939724131376
 20
-160.646180515394
 30
0.0
 10
104.6561441795651
 20
-160.4642794737728
 30
0.0
 10
104.8466579598994
 20
-160.1507757846151
 30
0.0
 10
104.8952338062415
 20
-159.9688747429939
 30
0.0
 10
104.8952338062415
 20
-159.9688747429939
 30
0.0
 10
104.2244737152633
 20
-159.9688747429939
 30
0.0
 10
104.2244737152633
 20
-159.9688747429939
 30
0.0
 10
104.0659993229418
 20
-159.9688747429939
 30
0.0
 10
103.7738552257927
 20
-159.977487481707
 30
0.0
 10
103.6215820053446
 20
-159.9943684495848
 30
0.0
 10
103.6215820053446
 20
-159.9943684495848
 30
0.0
 10
103.6215820053446
 20
-159.7659586189127
 30
0.0
 10
103.6215820053446
 20
-159.7659586189127
 30
0.0
 10
103.6556884506486
 20
-159.7725043003346
 30
0.0
 10
103.6808376476909
 20
-159.7787054722081
 30
0.0
 10
103.7338921181638
 20
-159.7828395867904
 30
0.0
 10
103.8351779254301
 20
-159.7890407586638
 30
0.0
 10
104.0322373871864
 20
-159.7914523255035
 30
0.0
 10
104.116642226575
 20
-159.7914523255035
 30
0.0
 10
104.116642226575
 20
-159.7914523255035
 30
0.0
 10
104.6223822438097
 20
-159.7914523255035
 30
0.0
 10
104.6223822438097
 20
-159.7914523255035
 30
0.0
 10
104.6899061153206
 20
-159.7914523255035
 30
0.0
 10
104.8359781638952
 20
-159.7869737013727
 30
0.0
 10
104.8973008635326
 20
-159.7807725294992
 30
0.0
 10
104.9693033591743
 20
-159.7725043003346
 30
0.0
 10
104.9968641230563
 20
-159.7573458801996
 30
0.0
 10
105.0306260588118
 20
-159.7342637404484
 30
0.0
 10
105.0306260588118
 20
-159.7342637404484
 30
0.0
 10
105.1956461325553
 20
-159.901350871483
 30
0.0
 10
105.1956461325553
 20
-159.901350871483
 30
0.0
 10
105.1257106942047
 20
-159.9688747429939
 30
0.0
 10
105.0792019051538
 20
-160.0729166266484
 30
0.0
 10
105.0561197654026
 20
-160.1235595302816
 30
0.0
  0
SPLINE
  5
17D
330
147
100
AcDbEntity
  8
_U+30EC_U+30A4_U+30E4_U+30FC 1
370
     0
100
AcDbSpline
210
0.0
220
0.0
230
1.0
 70
    11
 71
     3
 72
    29
 73
    25
 74
     0
 42
0.0000000001
 43
0.0000000001
 12
1.0
 22
0.0
 32
0.0
 13
1.0
 23
0.0
 33
0.0
 40
0.0
 40
0.0
 40
0.0
 40
0.0
 40
1.0
 40
1.0
 40
1.0
 40
2.0
 40
2.0
 40
2.0
 40
3.0
 40
3.0
 40
3.0
 40
4.0
 40
4.0
 40
4.0
 40
5.0
 40
5.0
 40
5.0
 40
6.0
 40
6.0
 40
6.0
 40
7.0
 40
7.0
 40
7.0
 40
8.0
 40
8.0
 40
8.0
 40
8.0
 10
104.5631266014634
 20
-159.4975856806117
 30
0.0
 10
104.5631266014634
 20
-159.4975856806117
 30
0.0
 10
104.2224066579722
 20
-159.4975856806117
 30
0.0
 10
104.2224066579722
 20
-159.4975856806117
 30
0.0
 10
104.1083739974104
 20
-159.4975856806117
 30
0.0
 10
103.991929770009
 20
-159.501719795194
 30
0.0
 10
103.8775525998987
 20
-159.5161891962321
 30
0.0
 10
103.8775525998987
 20
-159.5161891962321
 30
0.0
 10
103.8775525998987
 20
-159.3067273907289
 30
0.0
 10
103.8775525998987
 20
-159.3067273907289
 30
0.0
 10
103.9960638845913
 20
-159.321885810864
 30
0.0
 10
104.1696966970479
 20
-159.3260199254463
 30
0.0
 10
104.2224066579722
 20
-159.3260199254463
 30
0.0
 10
104.2224066579722
 20
-159.3260199254463
 30
0.0
 10
104.5631266014634
 20
-159.3260199254463
 30
0.0
 10
104.5631266014634
 20
-159.3260199254463
 30
0.0
 10
104.6795708288648
 20
-159.3260199254463
 30
0.0
 10
104.7956705467178
 20
-159.321885810864
 30
0.0
 10
104.9121147741192
 20
-159.3067273907289
 30
0.0
 10
104.9121147741192
 20
-159.3067273907289
 30
0.0
 10
104.9121147741192
 20
-159.5161891962321
 30
0.0
 10
104.9121147741192
 20
-159.5161891962321
 30
0.0
 10
104.7619086109623
 20
-159.4975856806117
 30
0.0
 10
104.57794051205
 20
-159.4975856806117
 30
0.0
 10
104.5631266014634
 20
-159.4975856806117
 30
0.0
  0
HATCH
  5
17E
330
147
100
AcDbEntity
  8
_U+30EC_U+30A4_U+30E4_U+30FC 1
 62
   179
420
  2234388
100
AcDbHatch
 10
0.0
 20
0.0
 30
0.0
210
0.0
220
0.0
230
1.0
  2
SOLID
 70
     1
 71
     0
 91
        2
 92
        1
 93
        1
 72
     4
 94
        3
 73
     0
 74
     1
 95
       50
 96
       46
 40
0.0
 40
0.0
 40
0.0
 40
0.0
 40
1.0
 40
1.0
 40
1.0
 40
2.0
 40
2.0
 40
2.0
 40
3.0
 40
3.0
 40
3.0
 40
4.0
 40
4.0
 40
4.0
 40
5.0
 40
5.0
 40
5.0
 40
6.0
 40
6.0
 40
6.0
 40
7.0
 40
7.0
 40
7.0
 40
8.0
 40
8.0
 40
8.0
 40
9.0
 40
9.0
 40
9.0
 40
10.0
 40
10.0
 40
10.0
 40
11.0
 40
11.0
 40
11.0
 40
12.0
 40
12.0
 40
12.0
 40
13.0
 40
13.0
 40
13.0
 40
14.0
 40
14.0
 40
14.0
 40
15.0
 40
15.0
 40
15.0
 40
15.0
 10
105.0561197654026
 20
-160.1235595302816
 10
104.9775715883389
 20
-160.300981947772
 10
104.8421793357686
 20
-160.508376695984
 10
104.7047200259072
 20
-160.6482475726852
 10
104.5355658375814
 20
-160.8194688183021
 10
104.3726128211291
 20
-160.9083522818215
 10
104.0532524696464
 20
-161.0499457062653
 10
104.0532524696464
 20
-161.0499457062653
 10
103.8840982813206
 20
-160.8618434927706
 10
103.8840982813206
 20
-160.8618434927706
 10
104.0701334375241
 20
-160.838416843471
 10
104.2413546831411
 20
-160.7516004372427
 10
104.3939724131376
 20
-160.646180515394
 10
104.6561441795651
 20
-160.4642794737728
 10
104.8466579598994
 20
-160.1507757846151
 10
104.8952338062415
 20
-159.9688747429939
 10
104.8952338062415
 20
-159.9688747429939
 10
104.2244737152633
 20
-159.9688747429939
 10
104.2244737152633
 20
-159.9688747429939
 10
104.0659993229418
 20
-159.9688747429939
 10
103.7738552257927
 20
-159.977487481707
 10
103.6215820053446
 20
-159.9943684495848
 10
103.6215820053446
 20
-159.9943684495848
 10
103.6215820053446
 20
-159.7659586189127
 10
103.6215820053446
 20
-159.7659586189127
 10
103.6556884506486
 20
-159.7725043003346
 10
103.6808376476909
 20
-159.7787054722081
 10
103.7338921181638
 20
-159.7828395867904
 10
103.8351779254301
 20
-159.7890407586638
 10
104.0322373871864
 20
-159.7914523255035
 10
104.116642226575
 20
-159.7914523255035
 10
104.116642226575
 20
-159.7914523255035
 10
104.6223822438097
 20
-159.7914523255035
 10
104.6223822438097
 20
-159.7914523255035
 10
104.6899061153206
 20
-159.7914523255035
 10
104.8359781638952
 20
-159.7869737013727
 10
104.8973008635326
 20
-159.7807725294992
 10
104.9693033591743
 20
-159.7725043003346
 10
104.9968641230563
 20
-159.7573458801996
 10
105.0306260588118
 20
-159.7342637404484
 10
105.0306260588118
 20
-159.7342637404484
 10
105.1956461325553
 20
-159.901350871483
 10
105.1956461325553
 20
-159.901350871483
 10
105.1257106942047
 20
-159.9688747429939
 10
105.0792019051538
 20
-160.0729166266484
 10
105.0561197654026
 20
-160.1235595302816
 97
        0
 97
        0
 92
        1
 93
        1
 72
     4
 94
        3
 73
     0
 74
     1
 95
       29
 96
       25
 40
0.0
 40
0.0
 40
0.0
 40
0.0
 40
1.0
 40
1.0
 40
1.0
 40
2.0
 40
2.0
 40
2.0
 40
3.0
 40
3.0
 40
3.0
 40
4.0
 40
4.0
 40
4.0
 40
5.0
 40
5.0
 40
5.0
 40
6.0
 40
6.0
 40
6.0
 40
7.0
 40
7.0
 40
7.0
 40
8.0
 40
8.0
 40
8.0
 40
8.0
 10
104.5631266014634
 20
-159.4975856806117
 10
104.5631266014634
 20
-159.4975856806117
 10
104.2224066579722
 20
-159.4975856806117
 10
104.2224066579722
 20
-159.4975856806117
 10
104.1083739974104
 20
-159.4975856806117
 10
103.991929770009
 20
-159.501719795194
 10
103.8775525998987
 20
-159.5161891962321
 10
103.8775525998987
 20
-159.5161891962321
 10
103.8775525998987
 20
-159.3067273907289
 10
103.8775525998987
 20
-159.3067273907289
 10
103.9960638845913
 20
-159.321885810864
 10
104.1696966970479
 20
-159.3260199254463
 10
104.2224066579722
 20
-159.3260199254463
 10
104.2224066579722
 20
-159.3260199254463
 10
104.5631266014634
 20
-159.3260199254463
 10
104.5631266014634
 20
-159.3260199254463
 10
104.6795708288648
 20
-159.3260199254463
 10
104.7956705467178
 20
-159.321885810864
 10
104.9121147741192
 20
-159.3067273907289
 10
104.9121147741192
 20
-159.3067273907289
 10
104.9121147741192
 20
-159.5161891962321
 10
104.9121147741192
 20
-159.5161891962321
 10
104.7619086109623
 20
-159.4975856806117
 10
104.57794051205
 20
-159.4975856806117
 10
104.5631266014634
 20
-159.4975856806117
 97
        0
 97
        0
 75
     2
 76
     1
 98
        0
  0
SPLINE
  5
17F
330
147
100
AcDbEntity
  8
_U+30EC_U+30A4_U+30E4_U+30FC 1
370
     0
100
AcDbSpline
210
0.0
220
0.0
230
1.0
 70
    11
 71
     3
 72
    50
 73
    46
 74
     0
 42
0.0000000001
 43
0.0000000001
 12
1.0
 22
0.0
 32
0.0
 13
1.0
 23
0.0
 33
0.0
 40
0.0
 40
0.0
 40
0.0
 40
0.0
 40
1.0
 40
1.0
 40
1.0
 40
2.0
 40
2.0
 40
2.0
 40
3.0
 40
3.0
 40
3.0
 40
4.0
 40
4.0
 40
4.0
 40
5.0
 40
5.0
 40
5.0
 40
6.0
 40
6.0
 40
6.0
 40
7.0
 40
7.0
 40
7.0
 40
8.0
 40
8.0
 40
8.0
 40
9.0
 40
9.0
 40
9.0
 40
10.0
 40
10.0
 40
10.0
 40
11.0
 40
11.0
 40
11.0
 40
12.0
 40
12.0
 40
12.0
 40
13.0
 40
13.0
 40
13.0
 40
14.0
 40
14.0
 40
14.0
 40
15.0
 40
15.0
 40
15.0
 40
15.0
 10
106.7662651642807
 20
-159.4824272604766
 30
0.0
 10
106.5568033587775
 20
-159.6960231805621
 30
0.0
 10
106.4851453726843
 20
-159.7683701857524
 30
0.0
 10
106.343207438692
 20
-159.8865369608964
 30
0.0
 10
106.343207438692
 20
-159.8865369608964
 30
0.0
 10
106.343207438692
 20
-160.4535996777686
 30
0.0
 10
106.343207438692
 20
-160.4535996777686
 30
0.0
 10
106.343207438692
 20
-160.6038058409254
 30
0.0
 10
106.349753120114
 20
-160.6227538660943
 30
0.0
 10
106.3538872346963
 20
-160.8005207931332
 30
0.0
 10
106.3559542919874
 20
-160.9314344215727
 30
0.0
 10
106.3621554638609
 20
-160.9803547774632
 30
0.0
 10
106.3687011452828
 20
-161.0396104198095
 30
0.0
 10
106.3687011452828
 20
-161.0396104198095
 30
0.0
 10
106.1423583719019
 20
-161.0396104198095
 30
0.0
 10
106.1423583719019
 20
-161.0396104198095
 30
0.0
 10
106.1464924864842
 20
-160.9951686880498
 30
0.0
 10
106.1506266010665
 20
-160.948659898999
 30
0.0
 10
106.1506266010665
 20
-160.9400471602858
 30
0.0
 10
106.1506266010665
 20
-160.8597764354795
 30
0.0
 10
106.1551052251973
 20
-160.508376695984
 30
0.0
 10
106.1551052251973
 20
-160.4367187098908
 30
0.0
 10
106.1551052251973
 20
-160.4367187098908
 30
0.0
 10
106.1551052251973
 20
-160.0301974426313
 30
0.0
 10
106.1551052251973
 20
-160.0301974426313
 30
0.0
 10
105.9732041835761
 20
-160.1552544087459
 30
0.0
 10
105.7785562886595
 20
-160.2651529547254
 30
0.0
 10
105.5752956550298
 20
-160.3519693609537
 30
0.0
 10
105.5752956550298
 20
-160.3519693609537
 30
0.0
 10
105.3723795309486
 20
-160.1890163445014
 30
0.0
 10
105.3723795309486
 20
-160.1890163445014
 30
0.0
 10
105.4950249302235
 20
-160.1531873514548
 30
0.0
 10
105.7509955247775
 20
-160.0791177985219
 30
0.0
 10
106.095849582851
 20
-159.8231472039678
 30
0.0
 10
106.3115125602277
 20
-159.6643283020978
 30
0.0
 10
106.5040933978532
 20
-159.4762260886032
 30
0.0
 10
106.6563666183012
 20
-159.2560844870957
 30
0.0
 10
106.6563666183012
 20
-159.2560844870957
 30
0.0
 10
106.8489474559267
 20
-159.4000894783792
 30
0.0
 10
106.8489474559267
 20
-159.4000894783792
 30
0.0
 10
106.8616943092221
 20
-159.4107692743834
 30
0.0
 10
106.8699625383867
 20
-159.4252386754215
 30
0.0
 10
106.8699625383867
 20
-159.4383300382654
 30
0.0
 10
106.8699625383867
 20
-159.4782931458943
 30
0.0
 10
106.8320664880489
 20
-159.4782931458943
 30
0.0
 10
106.7662651642807
 20
-159.4824272604766
 30
0.0
  0
HATCH
  5
180
330
147
100
AcDbEntity
  8
_U+30EC_U+30A4_U+30E4_U+30FC 1
 62
   179
420
  2234388
100
AcDbHatch
 10
0.0
 20
0.0
 30
0.0
210
0.0
220
0.0
230
1.0
  2
SOLID
 70
     1
 71
     0
 91
        1
 92
        1
 93
        1
 72
     4
 94
        3
 73
     0
 74
     1
 95
       50
 96
       46
 40
0.0
 40
0.0
 40
0.0
 40
0.0
 40
1.0
 40
1.0
 40
1.0
 40
2.0
 40
2.0
 40
2.0
 40
3.0
 40
3.0
 40
3.0
 40
4.0
 40
4.0
 40
4.0
 40
5.0
 40
5.0
 40
5.0
 40
6.0
 40
6.0
 40
6.0
 40
7.0
 40
7.0
 40
7.0
 40
8.0
 40
8.0
 40
8.0
 40
9.0
 40
9.0
 40
9.0
 40
10.0
 40
10.0
 40
10.0
 40
11.0
 40
11.0
 40
11.0
 40
12.0
 40
12.0
 40
12.0
 40
13.0
 40
13.0
 40
13.0
 40
14.0
 40
14.0
 40
14.0
 40
15.0
 40
15.0
 40
15.0
 40
15.0
 10
106.7662651642807
 20
-159.4824272604766
 10
106.5568033587775
 20
-159.6960231805621
 10
106.4851453726843
 20
-159.7683701857524
 10
106.343207438692
 20
-159.8865369608964
 10
106.343207438692
 20
-159.8865369608964
 10
106.343207438692
 20
-160.4535996777686
 10
106.343207438692
 20
-160.4535996777686
 10
106.343207438692
 20
-160.6038058409254
 10
106.349753120114
 20
-160.6227538660943
 10
106.3538872346963
 20
-160.8005207931332
 10
106.3559542919874
 20
-160.9314344215727
 10
106.3621554638609
 20
-160.9803547774632
 10
106.3687011452828
 20
-161.0396104198095
 10
106.3687011452828
 20
-161.0396104198095
 10
106.1423583719019
 20
-161.0396104198095
 10
106.1423583719019
 20
-161.0396104198095
 10
106.1464924864842
 20
-160.9951686880498
 10
106.1506266010665
 20
-160.948659898999
 10
106.1506266010665
 20
-160.9400471602858
 10
106.1506266010665
 20
-160.8597764354795
 10
106.1551052251973
 20
-160.508376695984
 10
106.1551052251973
 20
-160.4367187098908
 10
106.1551052251973
 20
-160.4367187098908
 10
106.1551052251973
 20
-160.0301974426313
 10
106.1551052251973
 20
-160.0301974426313
 10
105.9732041835761
 20
-160.1552544087459
 10
105.7785562886595
 20
-160.2651529547254
 10
105.5752956550298
 20
-160.3519693609537
 10
105.5752956550298
 20
-160.3519693609537
 10
105.3723795309486
 20
-160.1890163445014
 10
105.3723795309486
 20
-160.1890163445014
 10
105.4950249302235
 20
-160.1531873514548
 10
105.7509955247775
 20
-160.0791177985219
 10
106.095849582851
 20
-159.8231472039678
 10
106.3115125602277
 20
-159.6643283020978
 10
106.5040933978532
 20
-159.4762260886032
 10
106.6563666183012
 20
-159.2560844870957
 10
106.6563666183012
 20
-159.2560844870957
 10
106.8489474559267
 20
-159.4000894783792
 10
106.8489474559267
 20
-159.4000894783792
 10
106.8616943092221
 20
-159.4107692743834
 10
106.8699625383867
 20
-159.4252386754215
 10
106.8699625383867
 20
-159.4383300382654
 10
106.8699625383867
 20
-159.4782931458943
 10
106.8320664880489
 20
-159.4782931458943
 10
106.7662651642807
 20
-159.4824272604766
 97
        0
 97
        0
 75
     2
 76
     1
 98
        0
  0
SPLINE
  5
181
330
147
100
AcDbEntity
  8
_U+30EC_U+30A4_U+30E4_U+30FC 1
370
     0
100
AcDbSpline
210
0.0
220
0.0
230
1.0
 70
    11
 71
     3
 72
    50
 73
    46
 74
     0
 42
0.0000000001
 43
0.0000000001
 12
1.0
 22
0.0
 32
0.0
 13
1.0
 23
0.0
 33
0.0
 40
0.0
 40
0.0
 40
0.0
 40
0.0
 40
1.0
 40
1.0
 40
1.0
 40
2.0
 40
2.0
 40
2.0
 40
3.0
 40
3.0
 40
3.0
 40
4.0
 40
4.0
 40
4.0
 40
5.0
 40
5.0
 40
5.0
 40
6.0
 40
6.0
 40
6.0
 40
7.0
 40
7.0
 40
7.0
 40
8.0
 40
8.0
 40
8.0
 40
9.0
 40
9.0
 40
9.0
 40
10.0
 40
10.0
 40
10.0
 40
11.0
 40
11.0
 40
11.0
 40
12.0
 40
12.0
 40
12.0
 40
13.0
 40
13.0
 40
13.0
 40
14.0
 40
14.0
 40
14.0
 40
15.0
 40
15.0
 40
15.0
 40
15.0
 10
108.474688015416
 20
-160.0095268697198
 30
0.0
 10
108.4133653157786
 20
-160.081184855813
 30
0.0
 10
108.1529160970937
 20
-160.3984781500046
 30
0.0
 10
108.0960720215871
 20
-160.4622124164817
 30
0.0
 10
108.1804768609757
 20
-160.5593641091657
 30
0.0
 10
108.2314642741574
 20
-160.6227538660943
 30
0.0
 10
108.2969210883772
 20
-160.7137043869049
 30
0.0
 10
108.2969210883772
 20
-160.7137043869049
 30
0.0
 10
108.1129529894648
 20
-160.8515082063149
 30
0.0
 10
108.1129529894648
 20
-160.8515082063149
 30
0.0
 10
107.9775607368945
 20
-160.6396348339721
 30
0.0
 10
107.8059949817291
 20
-160.4153591178823
 30
0.0
 10
107.5121283368373
 20
-160.2165771083834
 30
0.0
 10
107.5121283368373
 20
-160.2165771083834
 30
0.0
 10
107.660267442703
 20
-160.0622368306442
 30
0.0
 10
107.660267442703
 20
-160.0622368306442
 30
0.0
 10
107.7701659886825
 20
-160.1425075554505
 30
0.0
 10
107.8738633627885
 20
-160.2313910189699
 30
0.0
 10
107.9710150554725
 20
-160.3264756543628
 30
0.0
 10
108.0388834365319
 20
-160.2506835536873
 30
0.0
 10
108.2417995606132
 20
-160.0071153028802
 30
0.0
 10
108.3751247558923
 20
-159.7787054722081
 30
0.0
 10
108.3751247558923
 20
-159.7787054722081
 30
0.0
 10
107.702297607623
 20
-159.7787054722081
 30
0.0
 10
107.702297607623
 20
-159.7787054722081
 30
0.0
 10
107.577585151057
 20
-159.7787054722081
 30
0.0
 10
107.3257486710852
 20
-159.7869737013727
 30
0.0
 10
107.116286865582
 20
-159.797653497377
 30
0.0
 10
107.116286865582
 20
-159.797653497377
 30
0.0
 10
107.116286865582
 20
-159.5775118958695
 30
0.0
 10
107.116286865582
 20
-159.5775118958695
 30
0.0
 10
107.3005994740429
 20
-159.5968044305869
 30
0.0
 10
107.5055826554153
 20
-159.6009385451692
 30
0.0
 10
107.6940293784584
 20
-159.6009385451692
 30
0.0
 10
107.6940293784584
 20
-159.6009385451692
 30
0.0
 10
108.1973578288534
 20
-159.6009385451692
 30
0.0
 10
108.1973578288534
 20
-159.6009385451692
 30
0.0
 10
108.5360107150535
 20
-159.6009385451692
 30
0.0
 10
108.5804524468132
 20
-159.5861246345826
 30
0.0
 10
108.6627902289107
 20
-159.5458170174052
 30
0.0
 10
108.6627902289107
 20
-159.5458170174052
 30
0.0
 10
108.8298773599453
 20
-159.7046359192752
 30
0.0
 10
108.8298773599453
 20
-159.7046359192752
 30
0.0
 10
108.6776041394973
 20
-159.776638414917
 30
0.0
 10
108.5339436577624
 20
-159.9392469218207
 30
0.0
 10
108.474688015416
 20
-160.0095268697198
 30
0.0
  0
HATCH
  5
182
330
147
100
AcDbEntity
  8
_U+30EC_U+30A4_U+30E4_U+30FC 1
 62
   179
420
  2234388
100
AcDbHatch
 10
0.0
 20
0.0
 30
0.0
210
0.0
220
0.0
230
1.0
  2
SOLID
 70
     1
 71
     0
 91
        1
 92
        1
 93
        1
 72
     4
 94
        3
 73
     0
 74
     1
 95
       50
 96
       46
 40
0.0
 40
0.0
 40
0.0
 40
0.0
 40
1.0
 40
1.0
 40
1.0
 40
2.0
 40
2.0
 40
2.0
 40
3.0
 40
3.0
 40
3.0
 40
4.0
 40
4.0
 40
4.0
 40
5.0
 40
5.0
 40
5.0
 40
6.0
 40
6.0
 40
6.0
 40
7.0
 40
7.0
 40
7.0
 40
8.0
 40
8.0
 40
8.0
 40
9.0
 40
9.0
 40
9.0
 40
10.0
 40
10.0
 40
10.0
 40
11.0
 40
11.0
 40
11.0
 40
12.0
 40
12.0
 40
12.0
 40
13.0
 40
13.0
 40
13.0
 40
14.0
 40
14.0
 40
14.0
 40
15.0
 40
15.0
 40
15.0
 40
15.0
 10
108.474688015416
 20
-160.0095268697198
 10
108.4133653157786
 20
-160.081184855813
 10
108.1529160970937
 20
-160.3984781500046
 10
108.0960720215871
 20
-160.4622124164817
 10
108.1804768609757
 20
-160.5593641091657
 10
108.2314642741574
 20
-160.6227538660943
 10
108.2969210883772
 20
-160.7137043869049
 10
108.2969210883772
 20
-160.7137043869049
 10
108.1129529894648
 20
-160.8515082063149
 10
108.1129529894648
 20
-160.8515082063149
 10
107.9775607368945
 20
-160.6396348339721
 10
107.8059949817291
 20
-160.4153591178823
 10
107.5121283368373
 20
-160.2165771083834
 10
107.5121283368373
 20
-160.2165771083834
 10
107.660267442703
 20
-160.0622368306442
 10
107.660267442703
 20
-160.0622368306442
 10
107.7701659886825
 20
-160.1425075554505
 10
107.8738633627885
 20
-160.2313910189699
 10
107.9710150554725
 20
-160.3264756543628
 10
108.0388834365319
 20
-160.2506835536873
 10
108.2417995606132
 20
-160.0071153028802
 10
108.3751247558923
 20
-159.7787054722081
 10
108.3751247558923
 20
-159.7787054722081
 10
107.702297607623
 20
-159.7787054722081
 10
107.702297607623
 20
-159.7787054722081
 10
107.577585151057
 20
-159.7787054722081
 10
107.3257486710852
 20
-159.7869737013727
 10
107.116286865582
 20
-159.797653497377
 10
107.116286865582
 20
-159.797653497377
 10
107.116286865582
 20
-159.5775118958695
 10
107.116286865582
 20
-159.5775118958695
 10
107.3005994740429
 20
-159.5968044305869
 10
107.5055826554153
 20
-159.6009385451692
 10
107.6940293784584
 20
-159.6009385451692
 10
107.6940293784584
 20
-159.6009385451692
 10
108.1973578288534
 20
-159.6009385451692
 10
108.1973578288534
 20
-159.6009385451692
 10
108.5360107150535
 20
-159.6009385451692
 10
108.5804524468132
 20
-159.5861246345826
 10
108.6627902289107
 20
-159.5458170174052
 10
108.6627902289107
 20
-159.5458170174052
 10
108.8298773599453
 20
-159.7046359192752
 10
108.8298773599453
 20
-159.7046359192752
 10
108.6776041394973
 20
-159.776638414917
 10
108.5339436577624
 20
-159.9392469218207
 10
108.474688015416
 20
-160.0095268697198
 97
        0
 97
        0
 75
     2
 76
     1
 98
        0
  0
SPLINE
  5
183
330
147
100
AcDbEntity
  8
_U+30EC_U+30A4_U+30E4_U+30FC 1
370
     0
100
AcDbSpline
210
0.0
220
0.0
230
1.0
 70
    11
 71
     3
 72
    29
 73
    25
 74
     0
 42
0.0000000001
 43
0.0000000001
 12
1.0
 22
0.0
 32
0.0
 13
1.0
 23
0.0
 33
0.0
 40
0.0
 40
0.0
 40
0.0
 40
0.0
 40
1.0
 40
1.0
 40
1.0
 40
2.0
 40
2.0
 40
2.0
 40
3.0
 40
3.0
 40
3.0
 40
4.0
 40
4.0
 40
4.0
 40
5.0
 40
5.0
 40
5.0
 40
6.0
 40
6.0
 40
6.0
 40
7.0
 40
7.0
 40
7.0
 40
8.0
 40
8.0
 40
8.0
 40
8.0
 10
110.0980170080658
 20
-160.2527506109785
 30
0.0
 10
110.0980170080658
 20
-160.2527506109785
 30
0.0
 10
109.6136365828396
 20
-160.2527506109785
 30
0.0
 10
109.6136365828396
 20
-160.2527506109785
 30
0.0
 10
109.5860758189577
 20
-160.2527506109785
 30
0.0
 10
109.2687825247661
 20
-160.2527506109785
 30
0.0
 10
109.0572536619718
 20
-160.2778998080208
 30
0.0
 10
109.0572536619718
 20
-160.2778998080208
 30
0.0
 10
109.0572536619718
 20
-160.0474229200576
 30
0.0
 10
109.0572536619718
 20
-160.0474229200576
 30
0.0
 10
109.2157280542933
 20
-160.0708495693573
 30
0.0
 10
109.4062418346276
 20
-160.0729166266484
 30
0.0
 10
109.6136365828396
 20
-160.0729166266484
 30
0.0
 10
109.6136365828396
 20
-160.0729166266484
 30
0.0
 10
110.0980170080658
 20
-160.0729166266484
 30
0.0
 10
110.0980170080658
 20
-160.0729166266484
 30
0.0
 10
110.2840521642693
 20
-160.0729166266484
 30
0.0
 10
110.4704318300213
 20
-160.0708495693573
 30
0.0
 10
110.6543999289336
 20
-160.0474229200576
 30
0.0
 10
110.6543999289336
 20
-160.0474229200576
 30
0.0
 10
110.6543999289336
 20
-160.2778998080208
 30
0.0
 10
110.6543999289336
 20
-160.2778998080208
 30
0.0
 10
110.4704318300213
 20
-160.2548176682696
 30
0.0
 10
110.2227294646318
 20
-160.2527506109785
 30
0.0
 10
110.0980170080658
 20
-160.2527506109785
 30
0.0
  0
HATCH
  5
184
330
147
100
AcDbEntity
  8
_U+30EC_U+30A4_U+30E4_U+30FC 1
 62
   179
420
  2234388
100
AcDbHatch
 10
0.0
 20
0.0
 30
0.0
210
0.0
220
0.0
230
1.0
  2
SOLID
 70
     1
 71
     0
 91
        1
 92
        1
 93
        1
 72
     4
 94
        3
 73
     0
 74
     1
 95
       29
 96
       25
 40
0.0
 40
0.0
 40
0.0
 40
0.0
 40
1.0
 40
1.0
 40
1.0
 40
2.0
 40
2.0
 40
2.0
 40
3.0
 40
3.0
 40
3.0
 40
4.0
 40
4.0
 40
4.0
 40
5.0
 40
5.0
 40
5.0
 40
6.0
 40
6.0
 40
6.0
 40
7.0
 40
7.0
 40
7.0
 40
8.0
 40
8.0
 40
8.0
 40
8.0
 10
110.0980170080658
 20
-160.2527506109785
 10
110.0980170080658
 20
-160.2527506109785
 10
109.6136365828396
 20
-160.2527506109785
 10
109.6136365828396
 20
-160.2527506109785
 10
109.5860758189577
 20
-160.2527506109785
 10
109.2687825247661
 20
-160.2527506109785
 10
109.0572536619718
 20
-160.2778998080208
 10
109.0572536619718
 20
-160.2778998080208
 10
109.0572536619718
 20
-160.0474229200576
 10
109.0572536619718
 20
-160.0474229200576
 10
109.2157280542933
 20
-160.0708495693573
 10
109.4062418346276
 20
-160.0729166266484
 10
109.6136365828396
 20
-160.0729166266484
 10
109.6136365828396
 20
-160.0729166266484
 10
110.0980170080658
 20
-160.0729166266484
 10
110.0980170080658
 20
-160.0729166266484
 10
110.2840521642693
 20
-160.0729166266484
 10
110.4704318300213
 20
-160.0708495693573
 10
110.6543999289336
 20
-160.0474229200576
 10
110.6543999289336
 20
-160.0474229200576
 10
110.6543999289336
 20
-160.2778998080208
 10
110.6543999289336
 20
-160.2778998080208
 10
110.4704318300213
 20
-160.2548176682696
 10
110.2227294646318
 20
-160.2527506109785
 10
110.0980170080658
 20
-160.2527506109785
 97
        0
 97
        0
 75
     2
 76
     1
 98
        0
  0
ENDBLK
  5
14A
330
147
100
AcDbEntity
  8
0
100
AcDbBlockEnd
  0
ENDSEC
  0
SECTION
  2
ENTITIES
  0
POLYLINE
  5
41
330
1F
100
AcDbEntity
  8
_U+30EC_U+30A4_U+30E4_U+30FC 1
 62
   179
420
  2234388
370
    25
100
AcDb2dPolyline
 66
     1
 10
0.0
 20
0.0
 30
0.0
  0
VERTEX
  5
42
330
41
100
AcDbEntity
  8
_U+30EC_U+30A4_U+30E4_U+30FC 1
 62
   179
420
  2234388
370
    25
100
AcDbVertex
100
AcDb2dVertex
 10
76.27422249852691
 20
-154.4925366280435
 30
0.0
  0
VERTEX
  5
43
330
41
100
AcDbEntity
  8
_U+30EC_U+30A4_U+30E4_U+30FC 1
 62
   179
420
  2234388
370
    25
100
AcDbVertex
100
AcDb2dVertex
 10
91.27419442162575
 20
-154.4925366280435
 30
0.0
  0
SEQEND
  5
44
330
41
100
AcDbEntity
  8
_U+30EC_U+30A4_U+30E4_U+30FC 1
 62
   179
420
  2234388
370
    25
  0
POLYLINE
  5
45
330
1F
100
AcDbEntity
  8
_U+30EC_U+30A4_U+30E4_U+30FC 1
 62
   179
420
  2234388
370
    25
100
AcDb2dPolyline
 66
     1
 10
0.0
 20
0.0
 30
0.0
  0
VERTEX
  5
46
330
45
100
AcDbEntity
  8
_U+30EC_U+30A4_U+30E4_U+30FC 1
 62
   179
420
  2234388
370
    25
100
AcDbVertex
100
AcDb2dVertex
 10
76.27422249852691
 20
-133.4926280221825
 30
0.0
  0
VERTEX
  5
47
330
45
100
AcDbEntity
  8
_U+30EC_U+30A4_U+30E4_U+30FC 1
 62
   179
420
  2234388
370
    25
100
AcDbVertex
100
AcDb2dVertex
 10
76.27422249852691
 20
-154.4925366280435
 30
0.0
  0
SEQEND
  5
48
330
45
100
AcDbEntity
  8
_U+30EC_U+30A4_U+30E4_U+30FC 1
 62
   179
420
  2234388
370
    25
  0
POLYLINE
  5
49
330
1F
100
AcDbEntity
  8
_U+30EC_U+30A4_U+30E4_U+30FC 1
 62
   179
420
  2234388
370
    25
100
AcDb2dPolyline
 66
     1
 10
0.0
 20
0.0
 30
0.0
  0
VERTEX
  5
4A
330
49
100
AcDbEntity
  8
_U+30EC_U+30A4_U+30E4_U+30FC 1
 62
   179
420
  2234388
370
    25
100
AcDbVertex
100
AcDb2dVertex
 10
91.27419442162575
 20
-150.4928127401548
 30
0.0
  0
VERTEX
  5
4B
330
49
100
AcDbEntity
  8
_U+30EC_U+30A4_U+30E4_U+30FC 1
 62
   179
420
  2234388
370
    25
100
AcDbVertex
100
AcDb2dVertex
 10
91.27419442162575
 20
-154.4925366280435
 30
0.0
  0
SEQEND
  5
4C
330
49
100
AcDbEntity
  8
_U+30EC_U+30A4_U+30E4_U+30FC 1
 62
   179
420
  2234388
370
    25
  0
POLYLINE
  5
4D
330
1F
100
AcDbEntity
  8
_U+30EC_U+30A4_U+30E4_U+30FC 1
 62
   179
420
  2234388
370
    25
100
AcDb2dPolyline
 66
     1
 10
0.0
 20
0.0
 30
0.0
  0
VERTEX
  5
4E
330
4D
100
AcDbEntity
  8
_U+30EC_U+30A4_U+30E4_U+30FC 1
 62
   179
420
  2234388
370
    25
100
AcDbVertex
100
AcDb2dVertex
 10
87.2744330512215
 20
-150.4928127401548
 30
0.0
  0
VERTEX
  5
4F
330
4D
100
AcDbEntity
  8
_U+30EC_U+30A4_U+30E4_U+30FC 1
 62
   179
420
  2234388
370
    25
100
AcDbVertex
100
AcDb2dVertex
 10
91.27419442162575
 20
-150.4928127401548
 30
0.0
  0
SEQEND
  5
50
330
4D
100
AcDbEntity
  8
_U+30EC_U+30A4_U+30E4_U+30FC 1
 62
   179
420
  2234388
370
    25
  0
POLYLINE
  5
51
330
1F
100
AcDbEntity
  8
_U+30EC_U+30A4_U+30E4_U+30FC 1
 62
   179
420
  2234388
370
    25
100
AcDb2dPolyline
 66
     1
 10
0.0
 20
0.0
 30
0.0
  0
VERTEX
  5
52
330
51
100
AcDbEntity
  8
_U+30EC_U+30A4_U+30E4_U+30FC 1
 62
   179
420
  2234388
370
    25
100
AcDbVertex
100
AcDb2dVertex
 10
90.27442219965353
 20
-151.4925496843492
 30
0.0
  0
VERTEX
  5
53
330
51
100
AcDbEntity
  8
_U+30EC_U+30A4_U+30E4_U+30FC 1
 62
   179
420
  2234388
370
    25
100
AcDbVertex
100
AcDb2dVertex
 10
90.27442219965353
 20
-153.4927996838491
 30
0.0
  0
SEQEND
  5
54
330
51
100
AcDbEntity
  8
_U+30EC_U+30A4_U+30E4_U+30FC 1
 62
   179
420
  2234388
370
    25
  0
POLYLINE
  5
55
330
1F
100
AcDbEntity
  8
_U+30EC_U+30A4_U+30E4_U+30FC 1
 62
   179
420
  2234388
370
    25
100
AcDb2dPolyline
 66
     1
 10
0.0
 20
0.0
 30
0.0
  0
VERTEX
  5
56
330
55
100
AcDbEntity
  8
_U+30EC_U+30A4_U+30E4_U+30FC 1
 62
   179
420
  2234388
370
    25
100
AcDbVertex
100
AcDb2dVertex
 10
87.2744330512215
 20
-150.4928127401548
 30
0.0
  0
VERTEX
  5
57
330
55
100
AcDbEntity
  8
_U+30EC_U+30A4_U+30E4_U+30FC 1
 62
   179
420
  2234388
370
    25
100
AcDbVertex
100
AcDb2dVertex
 10
87.2744330512215
 20
-151.4925496843492
 30
0.0
  0
SEQEND
  5
58
330
55
100
AcDbEntity
  8
_U+30EC_U+30A4_U+30E4_U+30FC 1
 62
   179
420
  2234388
370
    25
  0
POLYLINE
  5
59
330
1F
100
AcDbEntity
  8
_U+30EC_U+30A4_U+30E4_U+30FC 1
 62
   179
420
  2234388
370
    25
100
AcDb2dPolyline
 66
     1
 10
0.0
 20
0.0
 30
0.0
  0
VERTEX
  5
5A
330
59
100
AcDbEntity
  8
_U+30EC_U+30A4_U+30E4_U+30FC 1
 62
   179
420
  2234388
370
    25
100
AcDbVertex
100
AcDb2dVertex
 10
87.2744330512215
 20
-151.4925496843492
 30
0.0
  0
VERTEX
  5
5B
330
59
100
AcDbEntity
  8
_U+30EC_U+30A4_U+30E4_U+30FC 1
 62
   179
420
  2234388
370
    25
100
AcDbVertex
100
AcDb2dVertex
 10
90.27442219965353
 20
-151.4925496843492
 30
0.0
  0
SEQEND
  5
5C
330
59
100
AcDbEntity
  8
_U+30EC_U+30A4_U+30E4_U+30FC 1
 62
   179
420
  2234388
370
    25
  0
POLYLINE
  5
5D
330
1F
100
AcDbEntity
  8
_U+30EC_U+30A4_U+30E4_U+30FC 1
 62
   179
420
  2234388
370
    25
100
AcDb2dPolyline
 66
     1
 10
0.0
 20
0.0
 30
0.0
  0
VERTEX
  5
5E
330
5D
100
AcDbEntity
  8
_U+30EC_U+30A4_U+30E4_U+30FC 1
 62
   179
420
  2234388
370
    25
100
AcDbVertex
100
AcDb2dVertex
 10
77.27399469524282
 20
-153.4927996838491
 30
0.0
  0
VERTEX
  5
5F
330
5D
100
AcDbEntity
  8
_U+30EC_U+30A4_U+30E4_U+30FC 1
 62
   179
420
  2234388
370
    25
100
AcDbVertex
100
AcDb2dVertex
 10
90.27442219965353
 20
-153.4927996838491
 30
0.0
  0
SEQEND
  5
60
330
5D
100
AcDbEntity
  8
_U+30EC_U+30A4_U+30E4_U+30FC 1
 62
   179
420
  2234388
370
    25
  0
POLYLINE
  5
61
330
1F
100
AcDbEntity
  8
_U+30EC_U+30A4_U+30E4_U+30FC 1
 62
   179
420
  2234388
370
    25
100
AcDb2dPolyline
 66
     1
 10
0.0
 20
0.0
 30
0.0
  0
VERTEX
  5
62
330
61
100
AcDbEntity
  8
_U+30EC_U+30A4_U+30E4_U+30FC 1
 62
   179
420
  2234388
370
    25
100
AcDbVertex
100
AcDb2dVertex
 10
77.27399469524282
 20
-140.493044409321
 30
0.0
  0
VERTEX
  5
63
330
61
100
AcDbEntity
  8
_U+30EC_U+30A4_U+30E4_U+30FC 1
 62
   179
420
  2234388
370
    25
100
AcDbVertex
100
AcDb2dVertex
 10
77.27399469524282
 20
-153.4927996838491
 30
0.0
  0
SEQEND
  5
64
330
61
100
AcDbEntity
  8
_U+30EC_U+30A4_U+30E4_U+30FC 1
 62
   179
420
  2234388
370
    25
  0
POLYLINE
  5
65
330
1F
100
AcDbEntity
  8
_U+30EC_U+30A4_U+30E4_U+30FC 1
 62
   179
420
  2234388
370
    25
100
AcDb2dPolyline
 66
     1
 10
0.0
 20
0.0
 30
0.0
  0
VERTEX
  5
66
330
65
100
AcDbEntity
  8
_U+30EC_U+30A4_U+30E4_U+30FC 1
 62
   179
420
  2234388
370
    25
100
AcDbVertex
100
AcDb2dVertex
 10
77.27399469524282
 20
-140.493044409321
 30
0.0
  0
VERTEX
  5
67
330
65
100
AcDbEntity
  8
_U+30EC_U+30A4_U+30E4_U+30FC 1
 62
   179
420
  2234388
370
    25
100
AcDbVertex
100
AcDb2dVertex
 10
90.27442219965353
 20
-140.493044409321
 30
0.0
  0
SEQEND
  5
68
330
65
100
AcDbEntity
  8
_U+30EC_U+30A4_U+30E4_U+30FC 1
 62
   179
420
  2234388
370
    25
  0
POLYLINE
  5
69
330
1F
100
AcDbEntity
  8
_U+30EC_U+30A4_U+30E4_U+30FC 1
 62
   179
420
  2234388
370
    25
100
AcDb2dPolyline
 66
     1
 10
0.0
 20
0.0
 30
0.0
  0
VERTEX
  5
6A
330
69
100
AcDbEntity
  8
_U+30EC_U+30A4_U+30E4_U+30FC 1
 62
   179
420
  2234388
370
    25
100
AcDbVertex
100
AcDb2dVertex
 10
79.27424464421219
 20
-133.4926280221825
 30
0.0
  0
VERTEX
  5
6B
330
69
100
AcDbEntity
  8
_U+30EC_U+30A4_U+30E4_U+30FC 1
 62
   179
420
  2234388
370
    25
100
AcDbVertex
100
AcDb2dVertex
 10
79.27424464421219
 20
-134.4930705219324
 30
0.0
  0
SEQEND
  5
6C
330
69
100
AcDbEntity
  8
_U+30EC_U+30A4_U+30E4_U+30FC 1
 62
   179
420
  2234388
370
    25
  0
POLYLINE
  5
6D
330
1F
100
AcDbEntity
  8
_U+30EC_U+30A4_U+30E4_U+30FC 1
 62
   179
420
  2234388
370
    25
100
AcDb2dPolyline
 66
     1
 10
0.0
 20
0.0
 30
0.0
  0
VERTEX
  5
6E
330
6D
100
AcDbEntity
  8
_U+30EC_U+30A4_U+30E4_U+30FC 1
 62
   179
420
  2234388
370
    25
100
AcDbVertex
100
AcDb2dVertex
 10
76.27422249852691
 20
-133.4926280221825
 30
0.0
  0
VERTEX
  5
6F
330
6D
100
AcDbEntity
  8
_U+30EC_U+30A4_U+30E4_U+30FC 1
 62
   179
420
  2234388
370
    25
100
AcDbVertex
100
AcDb2dVertex
 10
79.27424464421219
 20
-133.4926280221825
 30
0.0
  0
SEQEND
  5
70
330
6D
100
AcDbEntity
  8
_U+30EC_U+30A4_U+30E4_U+30FC 1
 62
   179
420
  2234388
370
    25
  0
POLYLINE
  5
71
330
1F
100
AcDbEntity
  8
_U+30EC_U+30A4_U+30E4_U+30FC 1
 62
   179
420
  2234388
370
    25
100
AcDb2dPolyline
 66
     1
 10
0.0
 20
0.0
 30
0.0
  0
VERTEX
  5
72
330
71
100
AcDbEntity
  8
_U+30EC_U+30A4_U+30E4_U+30FC 1
 62
   179
420
  2234388
370
    25
100
AcDbVertex
100
AcDb2dVertex
 10
77.27399469524282
 20
-134.4930705219324
 30
0.0
  0
VERTEX
  5
73
330
71
100
AcDbEntity
  8
_U+30EC_U+30A4_U+30E4_U+30FC 1
 62
   179
420
  2234388
370
    25
100
AcDbVertex
100
AcDb2dVertex
 10
79.27424464421219
 20
-134.4930705219324
 30
0.0
  0
SEQEND
  5
74
330
71
100
AcDbEntity
  8
_U+30EC_U+30A4_U+30E4_U+30FC 1
 62
   179
420
  2234388
370
    25
  0
POLYLINE
  5
75
330
1F
100
AcDbEntity
  8
_U+30EC_U+30A4_U+30E4_U+30FC 1
 62
   179
420
  2234388
370
    25
100
AcDb2dPolyline
 66
     1
 10
0.0
 20
0.0
 30
0.0
  0
VERTEX
  5
76
330
75
100
AcDbEntity
  8
_U+30EC_U+30A4_U+30E4_U+30FC 1
 62
   179
420
  2234388
370
    25
100
AcDbVertex
100
AcDb2dVertex
 10
77.27399469524282
 20
-139.4926019095711
 30
0.0
  0
VERTEX
  5
77
330
75
100
AcDbEntity
  8
_U+30EC_U+30A4_U+30E4_U+30FC 1
 62
   179
420
  2234388
370
    25
100
AcDbVertex
100
AcDb2dVertex
 10
87.2744330512215
 20
-139.4926019095711
 30
0.0
  0
SEQEND
  5
78
330
75
100
AcDbEntity
  8
_U+30EC_U+30A4_U+30E4_U+30FC 1
 62
   179
420
  2234388
370
    25
  0
POLYLINE
  5
79
330
1F
100
AcDbEntity
  8
_U+30EC_U+30A4_U+30E4_U+30FC 1
 62
   179
420
  2234388
370
    25
100
AcDb2dPolyline
 66
     1
 10
0.0
 20
0.0
 30
0.0
  0
VERTEX
  5
7A
330
79
100
AcDbEntity
  8
_U+30EC_U+30A4_U+30E4_U+30FC 1
 62
   179
420
  2234388
370
    25
100
AcDbVertex
100
AcDb2dVertex
 10
89.2746499776813
 20
-95.49271108723798
 30
0.0
  0
VERTEX
  5
7B
330
79
100
AcDbEntity
  8
_U+30EC_U+30A4_U+30E4_U+30FC 1
 62
   179
420
  2234388
370
    25
100
AcDbVertex
100
AcDb2dVertex
 10
89.2746499776813
 20
-137.4930574656267
 30
0.0
  0
SEQEND
  5
7C
330
79
100
AcDbEntity
  8
_U+30EC_U+30A4_U+30E4_U+30FC 1
 62
   179
420
  2234388
370
    25
  0
POLYLINE
  5
7D
330
1F
100
AcDbEntity
  8
_U+30EC_U+30A4_U+30E4_U+30FC 1
 62
   179
420
  2234388
370
    25
100
AcDb2dPolyline
 66
     1
 10
0.0
 20
0.0
 30
0.0
  0
VERTEX
  5
7E
330
7D
100
AcDbEntity
  8
_U+30EC_U+30A4_U+30E4_U+30FC 1
 62
   179
420
  2234388
370
    25
100
AcDbVertex
100
AcDb2dVertex
 10
90.27442219965353
 20
-95.49271108723798
 30
0.0
  0
VERTEX
  5
7F
330
7D
100
AcDbEntity
  8
_U+30EC_U+30A4_U+30E4_U+30FC 1
 62
   179
420
  2234388
370
    25
100
AcDbVertex
100
AcDb2dVertex
 10
90.27442219965353
 20
-140.493044409321
 30
0.0
  0
SEQEND
  5
80
330
7D
100
AcDbEntity
  8
_U+30EC_U+30A4_U+30E4_U+30FC 1
 62
   179
420
  2234388
370
    25
  0
POLYLINE
  5
81
330
1F
100
AcDbEntity
  8
_U+30EC_U+30A4_U+30E4_U+30FC 1
 62
   179
420
  2234388
370
    25
100
AcDb2dPolyline
 66
     1
 10
0.0
 20
0.0
 30
0.0
  0
VERTEX
  5
82
330
81
100
AcDbEntity
  8
_U+30EC_U+30A4_U+30E4_U+30FC 1
 62
   179
420
  2234388
370
    25
100
AcDbVertex
100
AcDb2dVertex
 10
77.27399469524282
 20
-134.4930705219324
 30
0.0
  0
VERTEX
  5
83
330
81
100
AcDbEntity
  8
_U+30EC_U+30A4_U+30E4_U+30FC 1
 62
   179
420
  2234388
370
    25
100
AcDbVertex
100
AcDb2dVertex
 10
77.27399469524282
 20
-139.4926019095711
 30
0.0
  0
SEQEND
  5
84
330
81
100
AcDbEntity
  8
_U+30EC_U+30A4_U+30E4_U+30FC 1
 62
   179
420
  2234388
370
    25
  0
POLYLINE
  5
85
330
1F
100
AcDbEntity
  8
_U+30EC_U+30A4_U+30E4_U+30FC 1
 62
   179
420
  2234388
370
    25
100
AcDb2dPolyline
 66
     1
 10
0.0
 20
0.0
 30
0.0
  0
VERTEX
  5
86
330
85
100
AcDbEntity
  8
_U+30EC_U+30A4_U+30E4_U+30FC 1
 62
   179
420
  2234388
370
    25
100
AcDbVertex
100
AcDb2dVertex
 10
89.2746499776813
 20
-95.49271108723798
 30
0.0
  0
VERTEX
  5
87
330
85
100
AcDbEntity
  8
_U+30EC_U+30A4_U+30E4_U+30FC 1
 62
   179
420
  2234388
370
    25
100
AcDbVertex
100
AcDb2dVertex
 10
90.27442219965353
 20
-95.49271108723798
 30
0.0
  0
SEQEND
  5
88
330
85
100
AcDbEntity
  8
_U+30EC_U+30A4_U+30E4_U+30FC 1
 62
   179
420
  2234388
370
    25
  0
SPLINE
  5
89
330
1F
100
AcDbEntity
  8
_U+30EC_U+30A4_U+30E4_U+30FC 1
 62
   179
420
  2234388
370
    25
100
AcDbSpline
210
0.0
220
0.0
230
1.0
 70
     8
 71
     3
 72
     8
 73
     4
 74
     0
 42
0.0000000001
 43
0.0000000001
 12
1.0
 22
0.0
 32
0.0
 13
1.0
 23
0.0
 33
0.0
 40
0.0
 40
0.0
 40
0.0
 40
0.0
 40
1.0
 40
1.0
 40
1.0
 40
1.0
 10
87.2744330512215
 20
-139.4926019095711
 30
0.0
 10
88.37890968971061
 20
-139.4926019095711
 30
0.0
 10
89.2746499776813
 20
-138.5975694097951
 30
0.0
 10
89.2746499776813
 20
-137.4930574656267
 30
0.0
  0
POLYLINE
  5
8A
330
1F
100
AcDbEntity
  8
_U+30EC_U+30A4_U+30E4_U+30FC 1
 62
   179
420
  2234388
370
     9
100
AcDb2dPolyline
 66
     1
 10
0.0
 20
0.0
 30
0.0
  0
VERTEX
  5
8B
330
8A
100
AcDbEntity
  8
_U+30EC_U+30A4_U+30E4_U+30FC 1
 62
   179
420
  2234388
370
     9
100
AcDbVertex
100
AcDb2dVertex
 10
90.34402297290973
 20
-105.4187135847565
 30
0.0
  0
VERTEX
  5
8C
330
8A
100
AcDbEntity
  8
_U+30EC_U+30A4_U+30E4_U+30FC 1
 62
   179
420
  2234388
370
     9
100
AcDbVertex
100
AcDb2dVertex
 10
87.07324388968759
 20
-105.4187135847565
 30
0.0
  0
SEQEND
  5
8D
330
8A
100
AcDbEntity
  8
_U+30EC_U+30A4_U+30E4_U+30FC 1
 62
   179
420
  2234388
370
     9
  0
POLYLINE
  5
8E
330
1F
100
AcDbEntity
  8
_U+30EC_U+30A4_U+30E4_U+30FC 1
 62
   179
420
  2234388
370
     9
100
AcDb2dPolyline
 66
     1
 10
0.0
 20
0.0
 30
0.0
  0
VERTEX
  5
8F
330
8E
100
AcDbEntity
  8
_U+30EC_U+30A4_U+30E4_U+30FC 1
 62
   179
420
  2234388
370
     9
100
AcDbVertex
100
AcDb2dVertex
 10
92.34370847744906
 20
-105.4187135847565
 30
0.0
  0
VERTEX
  5
90
330
8E
100
AcDbEntity
  8
_U+30EC_U+30A4_U+30E4_U+30FC 1
 62
   179
420
  2234388
370
     9
100
AcDbVertex
100
AcDb2dVertex
 10
90.34402297290973
 20
-105.4187135847565
 30
0.0
  0
SEQEND
  5
91
330
8E
100
AcDbEntity
  8
_U+30EC_U+30A4_U+30E4_U+30FC 1
 62
   179
420
  2234388
370
     9
  0
INSERT
  5
93
330
1F
100
AcDbEntity
  8
_U+30EC_U+30A4_U+30E4_U+30FC 1
100
AcDbBlockReference
  2
block 2
 10
0.0
 20
0.0
 30
0.0
  0
POLYLINE
  5
98
330
1F
100
AcDbEntity
  8
_U+30EC_U+30A4_U+30E4_U+30FC 1
  6
AI-Linetype-1
 62
   154
420
    23468
370
    25
100
AcDb2dPolyline
 66
     1
 10
0.0
 20
0.0
 30
0.0
  0
VERTEX
  5
99
330
98
100
AcDbEntity
  8
_U+30EC_U+30A4_U+30E4_U+30FC 1
  6
AI-Linetype-1
 62
   154
420
    23468
370
    25
100
AcDbVertex
100
AcDb2dVertex
 10
92.2741407014461
 20
-150.4928127401548
 30
0.0
  0
VERTEX
  5
9A
330
98
100
AcDbEntity
  8
_U+30EC_U+30A4_U+30E4_U+30FC 1
  6
AI-Linetype-1
 62
   154
420
    23468
370
    25
100
AcDbVertex
100
AcDb2dVertex
 10
92.2741407014461
 20
-155.7279644055126
 30
0.0
  0
VERTEX
  5
9B
330
98
100
AcDbEntity
  8
_U+30EC_U+30A4_U+30E4_U+30FC 1
  6
AI-Linetype-1
 62
   154
420
    23468
370
    25
100
AcDbVertex
100
AcDb2dVertex
 10
75.2743110922926
 20
-155.7279644055126
 30
0.0
  0
VERTEX
  5
9C
330
98
100
AcDbEntity
  8
_U+30EC_U+30A4_U+30E4_U+30FC 1
  6
AI-Linetype-1
 62
   154
420
    23468
370
    25
100
AcDbVertex
100
AcDb2dVertex
 10
75.2743110922926
 20
-132.4925030224321
 30
0.0
  0
VERTEX
  5
9D
330
98
100
AcDbEntity
  8
_U+30EC_U+30A4_U+30E4_U+30FC 1
  6
AI-Linetype-1
 62
   154
420
    23468
370
    25
100
AcDbVertex
100
AcDb2dVertex
 10
79.27424464421219
 20
-132.4925030224321
 30
0.0
  0
SEQEND
  5
9F
330
98
100
AcDbEntity
  8
_U+30EC_U+30A4_U+30E4_U+30FC 1
  6
AI-Linetype-1
 62
   154
420
    23468
370
    25
  0
POLYLINE
  5
A0
330
1F
100
AcDbEntity
  8
_U+30EC_U+30A4_U+30E4_U+30FC 1
 62
   179
420
  2234388
370
     9
100
AcDb2dPolyline
 66
     1
 10
0.0
 20
0.0
 30
0.0
  0
VERTEX
  5
A1
330
A0
100
AcDbEntity
  8
_U+30EC_U+30A4_U+30E4_U+30FC 1
 62
   179
420
  2234388
370
     9
100
AcDbVertex
100
AcDb2dVertex
 10
76.27422249852691
 20
-158.9532705158171
 30
0.0
  0
VERTEX
  5
A2
330
A0
100
AcDbEntity
  8
_U+30EC_U+30A4_U+30E4_U+30FC 1
 62
   179
420
  2234388
370
     9
100
AcDbVertex
100
AcDb2dVertex
 10
91.27419442162575
 20
-158.9532705158171
 30
0.0
  0
SEQEND
  5
A3
330
A0
100
AcDbEntity
  8
_U+30EC_U+30A4_U+30E4_U+30FC 1
 62
   179
420
  2234388
370
     9
  0
SPLINE
  5
A4
330
1F
100
AcDbEntity
  8
_U+30EC_U+30A4_U+30E4_U+30FC 1
 62
   179
420
  2234388
370
     9
100
AcDbSpline
210
0.0
220
0.0
230
1.0
 70
    11
 71
     3
 72
    17
 73
    13
 74
     0
 42
0.0000000001
 43
0.0000000001
 12
1.0
 22
0.0
 32
0.0
 13
1.0
 23
0.0
 33
0.0
 40
0.0
 40
0.0
 40
0.0
 40
0.0
 40
1.0
 40
1.0
 40
1.0
 40
2.0
 40
2.0
 40
2.0
 40
3.0
 40
3.0
 40
3.0
 40
4.0
 40
4.0
 40
4.0
 40
4.0
 10
91.3749454466087
 20
-158.9532705158171
 30
0.0
 10
91.3749454466087
 20
-158.8981313491646
 30
0.0
 10
91.33000155886643
 20
-158.8533638491754
 30
0.0
 10
91.27419442162575
 20
-158.8533638491754
 30
0.0
 10
91.21905295058586
 20
-158.8533638491754
 30
0.0
 10
91.17428545172797
 20
-158.8981313491646
 30
0.0
 10
91.17428545172797
 20
-158.9532705158171
 30
0.0
 10
91.17428545172797
 20
-159.0083744046926
 30
0.0
 10
91.21905295058586
 20
-159.0531771824587
 30
0.0
 10
91.27419442162575
 20
-159.0531771824587
 30
0.0
 10
91.33000155886643
 20
-159.0531771824587
 30
0.0
 10
91.3749454466087
 20
-159.0083744046926
 30
0.0
 10
91.3749454466087
 20
-158.9532705158171
 30
0.0
  0
POLYLINE
  5
A5
330
1F
100
AcDbEntity
  8
_U+30EC_U+30A4_U+30E4_U+30FC 1
 62
   179
420
  2234388
370
     9
100
AcDb2dPolyline
 66
     1
 10
0.0
 20
0.0
 30
0.0
  0
VERTEX
  5
A6
330
A5
100
AcDbEntity
  8
_U+30EC_U+30A4_U+30E4_U+30FC 1
 62
   179
420
  2234388
370
     9
100
AcDbVertex
100
AcDb2dVertex
 10
91.27419442162575
 20
-156.4927866275435
 30
0.0
  0
VERTEX
  5
A7
330
A5
100
AcDbEntity
  8
_U+30EC_U+30A4_U+30E4_U+30FC 1
 62
   179
420
  2234388
370
     9
100
AcDbVertex
100
AcDb2dVertex
 10
91.27419442162575
 20
-159.9530427377896
 30
0.0
  0
SEQEND
  5
A8
330
A5
100
AcDbEntity
  8
_U+30EC_U+30A4_U+30E4_U+30FC 1
 62
   179
420
  2234388
370
     9
  0
SPLINE
  5
A9
330
1F
100
AcDbEntity
  8
_U+30EC_U+30A4_U+30E4_U+30FC 1
 62
   179
420
  2234388
370
     9
100
AcDbSpline
210
0.0
220
0.0
230
1.0
 70
    11
 71
     3
 72
    17
 73
    13
 74
     0
 42
0.0000000001
 43
0.0000000001
 12
1.0
 22
0.0
 32
0.0
 13
1.0
 23
0.0
 33
0.0
 40
0.0
 40
0.0
 40
0.0
 40
0.0
 40
1.0
 40
1.0
 40
1.0
 40
2.0
 40
2.0
 40
2.0
 40
3.0
 40
3.0
 40
3.0
 40
4.0
 40
4.0
 40
4.0
 40
4.0
 10
76.3748347181823
 20
-158.9532705158171
 30
0.0
 10
76.3748347181823
 20
-158.8981313491646
 30
0.0
 10
76.33006721932442
 20
-158.8533638491754
 30
0.0
 10
76.27422249852691
 20
-158.8533638491754
 30
0.0
 10
76.21911861104384
 20
-158.8533638491754
 30
0.0
 10
76.17431583440907
 20
-158.8981313491646
 30
0.0
 10
76.17431583440907
 20
-158.9532705158171
 30
0.0
 10
76.17431583440907
 20
-159.0083744046926
 30
0.0
 10
76.21911861104384
 20
-159.0531771824587
 30
0.0
 10
76.27422249852691
 20
-159.0531771824587
 30
0.0
 10
76.33006721932442
 20
-159.0531771824587
 30
0.0
 10
76.3748347181823
 20
-159.0083744046926
 30
0.0
 10
76.3748347181823
 20
-158.9532705158171
 30
0.0
  0
POLYLINE
  5
AA
330
1F
100
AcDbEntity
  8
_U+30EC_U+30A4_U+30E4_U+30FC 1
 62
   179
420
  2234388
370
     9
100
AcDb2dPolyline
 66
     1
 10
0.0
 20
0.0
 30
0.0
  0
VERTEX
  5
AB
330
AA
100
AcDbEntity
  8
_U+30EC_U+30A4_U+30E4_U+30FC 1
 62
   179
420
  2234388
370
     9
100
AcDbVertex
100
AcDb2dVertex
 10
76.27422249852691
 20
-156.4927866275435
 30
0.0
  0
VERTEX
  5
AC
330
AA
100
AcDbEntity
  8
_U+30EC_U+30A4_U+30E4_U+30FC 1
 62
   179
420
  2234388
370
     9
100
AcDbVertex
100
AcDb2dVertex
 10
76.27422249852691
 20
-159.9530427377896
 30
0.0
  0
SEQEND
  5
AD
330
AA
100
AcDbEntity
  8
_U+30EC_U+30A4_U+30E4_U+30FC 1
 62
   179
420
  2234388
370
     9
  0
INSERT
  5
AF
330
1F
100
AcDbEntity
  8
_U+30EC_U+30A4_U+30E4_U+30FC 1
100
AcDbBlockReference
  2
block 3
 10
0.0
 20
0.0
 30
0.0
  0
SPLINE
  5
B6
330
1F
100
AcDbEntity
  8
_U+30EC_U+30A4_U+30E4_U+30FC 1
 62
   179
420
  2234388
370
     9
100
AcDbSpline
210
0.0
220
0.0
230
1.0
 70
    11
 71
     3
 72
    17
 73
    13
 74
     0
 42
0.0000000001
 43
0.0000000001
 12
1.0
 22
0.0
 32
0.0
 13
1.0
 23
0.0
 33
0.0
 40
0.0
 40
0.0
 40
0.0
 40
0.0
 40
1.0
 40
1.0
 40
1.0
 40
2.0
 40
2.0
 40
2.0
 40
3.0
 40
3.0
 40
3.0
 40
4.0
 40
4.0
 40
4.0
 40
4.0
 10
94.93785980015564
 20
-95.49271108723798
 30
0.0
 10
94.93785980015564
 20
-95.54781497611289
 30
0.0
 10
94.9826625767904
 20
-95.59261775387961
 30
0.0
 10
95.03776646427347
 20
-95.59261775387961
 30
0.0
 10
95.09290562953342
 20
-95.59261775387961
 30
0.0
 10
95.1376731283913
 20
-95.54781497611289
 30
0.0
 10
95.1376731283913
 20
-95.49271108723798
 30
0.0
 10
95.1376731283913
 20
-95.43690164280753
 30
0.0
 10
95.09290562953342
 20
-95.39209886504081
 30
0.0
 10
95.03776646427347
 20
-95.39209886504081
 30
0.0
 10
94.9826625767904
 20
-95.39209886504081
 30
0.0
 10
94.93785980015564
 20
-95.43690164280753
 30
0.0
 10
94.93785980015564
 20
-95.49271108723798
 30
0.0
  0
POLYLINE
  5
B7
330
1F
100
AcDbEntity
  8
_U+30EC_U+30A4_U+30E4_U+30FC 1
 62
   179
420
  2234388
370
     9
100
AcDb2dPolyline
 66
     1
 10
0.0
 20
0.0
 30
0.0
  0
VERTEX
  5
B8
330
B7
100
AcDbEntity
  8
_U+30EC_U+30A4_U+30E4_U+30FC 1
 62
   179
420
  2234388
370
     9
100
AcDbVertex
100
AcDb2dVertex
 10
95.03776646427347
 20
-95.49475719834854
 30
0.0
  0
VERTEX
  5
B9
330
B7
100
AcDbEntity
  8
_U+30EC_U+30A4_U+30E4_U+30FC 1
 62
   179
420
  2234388
370
     9
100
AcDbVertex
100
AcDb2dVertex
 10
95.03776646427347
 20
-154.4925366280435
 30
0.0
  0
SEQEND
  5
BA
330
B7
100
AcDbEntity
  8
_U+30EC_U+30A4_U+30E4_U+30FC 1
 62
   179
420
  2234388
370
     9
  0
POLYLINE
  5
BB
330
1F
100
AcDbEntity
  8
_U+30EC_U+30A4_U+30E4_U+30FC 1
 62
   179
420
  2234388
370
     9
100
AcDb2dPolyline
 66
     1
 10
0.0
 20
0.0
 30
0.0
  0
VERTEX
  5
BC
330
BB
100
AcDbEntity
  8
_U+30EC_U+30A4_U+30E4_U+30FC 1
 62
   179
420
  2234388
370
     9
100
AcDbVertex
100
AcDb2dVertex
 10
93.41375400570548
 20
-95.49271108723798
 30
0.0
  0
VERTEX
  5
BD
330
BB
100
AcDbEntity
  8
_U+30EC_U+30A4_U+30E4_U+30FC 1
 62
   179
420
  2234388
370
     9
100
AcDbVertex
100
AcDb2dVertex
 10
96.03753866098938
 20
-95.49271108723798
 30
0.0
  0
SEQEND
  5
BE
330
BB
100
AcDbEntity
  8
_U+30EC_U+30A4_U+30E4_U+30FC 1
 62
   179
420
  2234388
370
     9
  0
INSERT
  5
C0
330
1F
100
AcDbEntity
  8
_U+30EC_U+30A4_U+30E4_U+30FC 1
100
AcDbBlockReference
  2
block 4
 10
0.0
 20
0.0
 30
0.0
  0
INSERT
  5
DB
330
1F
100
AcDbEntity
  8
_U+30EC_U+30A4_U+30E4_U+30FC 1
100
AcDbBlockReference
  2
block 5
 10
0.0
 20
0.0
 30
0.0
  0
INSERT
  5
E4
330
1F
100
AcDbEntity
  8
_U+30EC_U+30A4_U+30E4_U+30FC 1
100
AcDbBlockReference
  2
block 6
 10
0.0
 20
0.0
 30
0.0
  0
SPLINE
  5
FC
330
1F
100
AcDbEntity
  8
_U+30EC_U+30A4_U+30E4_U+30FC 1
 62
   179
420
  2234388
370
     9
100
AcDbSpline
210
0.0
220
0.0
230
1.0
 70
    11
 71
     3
 72
    17
 73
    13
 74
     0
 42
0.0000000001
 43
0.0000000001
 12
1.0
 22
0.0
 32
0.0
 13
1.0
 23
0.0
 33
0.0
 40
0.0
 40
0.0
 40
0.0
 40
0.0
 40
1.0
 40
1.0
 40
1.0
 40
2.0
 40
2.0
 40
2.0
 40
3.0
 40
3.0
 40
3.0
 40
4.0
 40
4.0
 40
4.0
 40
4.0
 10
94.93785980015564
 20
-140.4927269093214
 30
0.0
 10
94.93785980015564
 20
-140.5478307981964
 30
0.0
 10
94.9826625767904
 20
-140.5926335759631
 30
0.0
 10
95.03776646427347
 20
-140.5926335759631
 30
0.0
 10
95.09290562953342
 20
-140.5926335759631
 30
0.0
 10
95.1376731283913
 20
-140.5478307981964
 30
0.0
 10
95.1376731283913
 20
-140.4927269093214
 30
0.0
 10
95.1376731283913
 20
-140.436917464891
 30
0.0
 10
95.09290562953342
 20
-140.3921146871243
 30
0.0
 10
95.03776646427347
 20
-140.3921146871243
 30
0.0
 10
94.9826625767904
 20
-140.3921146871243
 30
0.0
 10
94.93785980015564
 20
-140.436917464891
 30
0.0
 10
94.93785980015564
 20
-140.4927269093214
 30
0.0
  0
POLYLINE
  5
FD
330
1F
100
AcDbEntity
  8
_U+30EC_U+30A4_U+30E4_U+30FC 1
 62
   179
420
  2234388
370
     9
100
AcDb2dPolyline
 66
     1
 10
0.0
 20
0.0
 30
0.0
  0
VERTEX
  5
FE
330
FD
100
AcDbEntity
  8
_U+30EC_U+30A4_U+30E4_U+30FC 1
 62
   179
420
  2234388
370
     9
100
AcDbVertex
100
AcDb2dVertex
 10
93.41375400570548
 20
-140.4927269093214
 30
0.0
  0
VERTEX
  5
FF
330
FD
100
AcDbEntity
  8
_U+30EC_U+30A4_U+30E4_U+30FC 1
 62
   179
420
  2234388
370
     9
100
AcDbVertex
100
AcDb2dVertex
 10
96.03753866098938
 20
-140.4927269093214
 30
0.0
  0
SEQEND
  5
100
330
FD
100
AcDbEntity
  8
_U+30EC_U+30A4_U+30E4_U+30FC 1
 62
   179
420
  2234388
370
     9
  0
SPLINE
  5
101
330
1F
100
AcDbEntity
  8
_U+30EC_U+30A4_U+30E4_U+30FC 1
 62
   179
420
  2234388
370
     9
100
AcDbSpline
210
0.0
220
0.0
230
1.0
 70
    11
 71
     3
 72
    17
 73
    13
 74
     0
 42
0.0000000001
 43
0.0000000001
 12
1.0
 22
0.0
 32
0.0
 13
1.0
 23
0.0
 33
0.0
 40
0.0
 40
0.0
 40
0.0
 40
0.0
 40
1.0
 40
1.0
 40
1.0
 40
2.0
 40
2.0
 40
2.0
 40
3.0
 40
3.0
 40
3.0
 40
4.0
 40
4.0
 40
4.0
 40
4.0
 10
94.93785980015564
 20
-150.4928127401548
 30
0.0
 10
94.93785980015564
 20
-150.5479166290297
 30
0.0
 10
94.9826625767904
 20
-150.5927194067964
 30
0.0
 10
95.03776646427347
 20
-150.5927194067964
 30
0.0
 10
95.09290562953342
 20
-150.5927194067964
 30
0.0
 10
95.1376731283913
 20
-150.5479166290297
 30
0.0
 10
95.1376731283913
 20
-150.4928127401548
 30
0.0
 10
95.1376731283913
 20
-150.4369680179462
 30
0.0
 10
95.09290562953342
 20
-150.3922005179576
 30
0.0
 10
95.03776646427347
 20
-150.3922005179576
 30
0.0
 10
94.9826625767904
 20
-150.3922005179576
 30
0.0
 10
94.93785980015564
 20
-150.4369680179462
 30
0.0
 10
94.93785980015564
 20
-150.4928127401548
 30
0.0
  0
POLYLINE
  5
102
330
1F
100
AcDbEntity
  8
_U+30EC_U+30A4_U+30E4_U+30FC 1
 62
   179
420
  2234388
370
     9
100
AcDb2dPolyline
 66
     1
 10
0.0
 20
0.0
 30
0.0
  0
VERTEX
  5
103
330
102
100
AcDbEntity
  8
_U+30EC_U+30A4_U+30E4_U+30FC 1
 62
   179
420
  2234388
370
     9
100
AcDbVertex
100
AcDb2dVertex
 10
93.41375400570548
 20
-150.4928127401548
 30
0.0
  0
VERTEX
  5
104
330
102
100
AcDbEntity
  8
_U+30EC_U+30A4_U+30E4_U+30FC 1
 62
   179
420
  2234388
370
     9
100
AcDbVertex
100
AcDb2dVertex
 10
96.03753866098938
 20
-150.4928127401548
 30
0.0
  0
SEQEND
  5
105
330
102
100
AcDbEntity
  8
_U+30EC_U+30A4_U+30E4_U+30FC 1
 62
   179
420
  2234388
370
     9
  0
SPLINE
  5
106
330
1F
100
AcDbEntity
  8
_U+30EC_U+30A4_U+30E4_U+30FC 1
 62
   179
420
  2234388
370
     9
100
AcDbSpline
210
0.0
220
0.0
230
1.0
 70
    11
 71
     3
 72
    17
 73
    13
 74
     0
 42
0.0000000001
 43
0.0000000001
 12
1.0
 22
0.0
 32
0.0
 13
1.0
 23
0.0
 33
0.0
 40
0.0
 40
0.0
 40
0.0
 40
0.0
 40
1.0
 40
1.0
 40
1.0
 40
2.0
 40
2.0
 40
2.0
 40
3.0
 40
3.0
 40
3.0
 40
4.0
 40
4.0
 40
4.0
 40
4.0
 10
94.93785980015564
 20
-154.4925366280435
 30
0.0
 10
94.93785980015564
 20
-154.5476757946966
 30
0.0
 10
94.9826625767904
 20
-154.5924432946851
 30
0.0
 10
95.03776646427347
 20
-154.5924432946851
 30
0.0
 10
95.09290562953342
 20
-154.5924432946851
 30
0.0
 10
95.1376731283913
 20
-154.5476757946966
 30
0.0
 10
95.1376731283913
 20
-154.4925366280435
 30
0.0
 10
95.1376731283913
 20
-154.4367271836131
 30
0.0
 10
95.09290562953342
 20
-154.3919596836245
 30
0.0
 10
95.03776646427347
 20
-154.3919596836245
 30
0.0
 10
94.9826625767904
 20
-154.3919596836245
 30
0.0
 10
94.93785980015564
 20
-154.4367271836131
 30
0.0
 10
94.93785980015564
 20
-154.4925366280435
 30
0.0
  0
POLYLINE
  5
107
330
1F
100
AcDbEntity
  8
_U+30EC_U+30A4_U+30E4_U+30FC 1
 62
   179
420
  2234388
370
     9
100
AcDb2dPolyline
 66
     1
 10
0.0
 20
0.0
 30
0.0
  0
VERTEX
  5
108
330
107
100
AcDbEntity
  8
_U+30EC_U+30A4_U+30E4_U+30FC 1
 62
   179
420
  2234388
370
     9
100
AcDbVertex
100
AcDb2dVertex
 10
93.41375400570548
 20
-154.4925366280435
 30
0.0
  0
VERTEX
  5
109
330
107
100
AcDbEntity
  8
_U+30EC_U+30A4_U+30E4_U+30FC 1
 62
   179
420
  2234388
370
     9
100
AcDbVertex
100
AcDb2dVertex
 10
96.03753866098938
 20
-154.4925366280435
 30
0.0
  0
SEQEND
  5
10A
330
107
100
AcDbEntity
  8
_U+30EC_U+30A4_U+30E4_U+30FC 1
 62
   179
420
  2234388
370
     9
  0
POLYLINE
  5
10B
330
1F
100
AcDbEntity
  8
_U+30EC_U+30A4_U+30E4_U+30FC 1
 62
   179
420
  2234388
370
     9
100
AcDb2dPolyline
 66
     1
 10
0.0
 20
0.0
 30
0.0
  0
VERTEX
  5
10C
330
10B
100
AcDbEntity
  8
_U+30EC_U+30A4_U+30E4_U+30FC 1
 62
   179
420
  2234388
370
     9
100
AcDbVertex
100
AcDb2dVertex
 10
89.27429719990354
 20
-130.2118652452246
 30
0.0
  0
VERTEX
  5
10D
330
10B
100
AcDbEntity
  8
_U+30EC_U+30A4_U+30E4_U+30FC 1
 62
   179
420
  2234388
370
     9
100
AcDbVertex
100
AcDb2dVertex
 10
76.30491416441058
 20
-130.2118652452246
 30
0.0
  0
SEQEND
  5
10E
330
10B
100
AcDbEntity
  8
_U+30EC_U+30A4_U+30E4_U+30FC 1
 62
   179
420
  2234388
370
     9
  0
SPLINE
  5
10F
330
1F
100
AcDbEntity
  8
_U+30EC_U+30A4_U+30E4_U+30FC 1
 62
   179
420
  2234388
370
     9
100
AcDbSpline
210
0.0
220
0.0
230
1.0
 70
    11
 71
     3
 72
    17
 73
    13
 74
     0
 42
0.0000000001
 43
0.0000000001
 12
1.0
 22
0.0
 32
0.0
 13
1.0
 23
0.0
 33
0.0
 40
0.0
 40
0.0
 40
0.0
 40
0.0
 40
1.0
 40
1.0
 40
1.0
 40
2.0
 40
2.0
 40
2.0
 40
3.0
 40
3.0
 40
3.0
 40
4.0
 40
4.0
 40
4.0
 40
4.0
 10
76.27422249852691
 20
-130.111958578583
 30
0.0
 10
76.21911861104384
 20
-130.111958578583
 30
0.0
 10
76.17431583440907
 20
-130.1567260785722
 30
0.0
 10
76.17431583440907
 20
-130.2118652452246
 30
0.0
 10
76.17431583440907
 20
-130.2669691341002
 30
0.0
 10
76.21911861104384
 20
-130.3117719118663
 30
0.0
 10
76.27422249852691
 20
-130.3117719118663
 30
0.0
 10
76.32936166378686
 20
-130.3117719118663
 30
0.0
 10
76.37416444042162
 20
-130.2669691341002
 30
0.0
 10
76.37416444042162
 20
-130.2118652452246
 30
0.0
 10
76.37416444042162
 20
-130.1567260785722
 30
0.0
 10
76.32936166378686
 20
-130.111958578583
 30
0.0
 10
76.27422249852691
 20
-130.111958578583
 30
0.0
  0
POLYLINE
  5
110
330
1F
100
AcDbEntity
  8
_U+30EC_U+30A4_U+30E4_U+30FC 1
 62
   179
420
  2234388
370
     9
100
AcDb2dPolyline
 66
     1
 10
0.0
 20
0.0
 30
0.0
  0
VERTEX
  5
111
330
110
100
AcDbEntity
  8
_U+30EC_U+30A4_U+30E4_U+30FC 1
 62
   179
420
  2234388
370
     9
100
AcDbVertex
100
AcDb2dVertex
 10
76.27422249852691
 20
-128.7518238567009
 30
0.0
  0
VERTEX
  5
112
330
110
100
AcDbEntity
  8
_U+30EC_U+30A4_U+30E4_U+30FC 1
 62
   179
420
  2234388
370
     9
100
AcDbVertex
100
AcDb2dVertex
 10
76.27422249852691
 20
-131.49241330046
 30
0.0
  0
SEQEND
  5
113
330
110
100
AcDbEntity
  8
_U+30EC_U+30A4_U+30E4_U+30FC 1
 62
   179
420
  2234388
370
     9
  0
SPLINE
  5
114
330
1F
100
AcDbEntity
  8
_U+30EC_U+30A4_U+30E4_U+30FC 1
 62
   179
420
  2234388
370
     9
100
AcDbSpline
210
0.0
220
0.0
230
1.0
 70
    11
 71
     3
 72
    17
 73
    13
 74
     0
 42
0.0000000001
 43
0.0000000001
 12
1.0
 22
0.0
 32
0.0
 13
1.0
 23
0.0
 33
0.0
 40
0.0
 40
0.0
 40
0.0
 40
0.0
 40
1.0
 40
1.0
 40
1.0
 40
2.0
 40
2.0
 40
2.0
 40
3.0
 40
3.0
 40
3.0
 40
4.0
 40
4.0
 40
4.0
 40
4.0
 10
79.27424464421219
 20
-130.111958578583
 30
0.0
 10
79.21910547895224
 20
-130.111958578583
 30
0.0
 10
79.17433798009436
 20
-130.1567260785722
 30
0.0
 10
79.17433798009436
 20
-130.2118652452246
 30
0.0
 10
79.17433798009436
 20
-130.2669691341002
 30
0.0
 10
79.21910547895224
 20
-130.3117719118663
 30
0.0
 10
79.27424464421219
 20
-130.3117719118663
 30
0.0
 10
79.32934853169526
 20
-130.3117719118663
 30
0.0
 10
79.37415130833003
 20
-130.2669691341002
 30
0.0
 10
79.37415130833003
 20
-130.2118652452246
 30
0.0
 10
79.37415130833003
 20
-130.1567260785722
 30
0.0
 10
79.32934853169526
 20
-130.111958578583
 30
0.0
 10
79.27424464421219
 20
-130.111958578583
 30
0.0
  0
POLYLINE
  5
115
330
1F
100
AcDbEntity
  8
_U+30EC_U+30A4_U+30E4_U+30FC 1
 62
   179
420
  2234388
370
     9
100
AcDb2dPolyline
 66
     1
 10
0.0
 20
0.0
 30
0.0
  0
VERTEX
  5
116
330
115
100
AcDbEntity
  8
_U+30EC_U+30A4_U+30E4_U+30FC 1
 62
   179
420
  2234388
370
     9
100
AcDbVertex
100
AcDb2dVertex
 10
79.27424464421219
 20
-128.7518238567009
 30
0.0
  0
VERTEX
  5
117
330
115
100
AcDbEntity
  8
_U+30EC_U+30A4_U+30E4_U+30FC 1
 62
   179
420
  2234388
370
     9
100
AcDbVertex
100
AcDb2dVertex
 10
79.27424464421219
 20
-131.49241330046
 30
0.0
  0
SEQEND
  5
118
330
115
100
AcDbEntity
  8
_U+30EC_U+30A4_U+30E4_U+30FC 1
 62
   179
420
  2234388
370
     9
  0
INSERT
  5
11A
330
1F
100
AcDbEntity
  8
_U+30EC_U+30A4_U+30E4_U+30FC 1
100
AcDbBlockReference
  2
block 7
 10
0.0
 20
0.0
 30
0.0
  0
INSERT
  5
120
330
1F
100
AcDbEntity
  8
_U+30EC_U+30A4_U+30E4_U+30FC 1
100
AcDbBlockReference
  2
block 8
 10
0.0
 20
0.0
 30
0.0
  0
POLYLINE
  5
128
330
1F
100
AcDbEntity
  8
_U+30EC_U+30A4_U+30E4_U+30FC 1
 62
   179
420
  2234388
370
     9
100
AcDb2dPolyline
 66
     1
 10
0.0
 20
0.0
 30
0.0
  0
VERTEX
  5
129
330
128
100
AcDbEntity
  8
_U+30EC_U+30A4_U+30E4_U+30FC 1
 62
   179
420
  2234388
370
     9
100
AcDbVertex
100
AcDb2dVertex
 10
73.27236590844399
 20
-154.4925366280435
 30
0.0
  0
VERTEX
  5
12A
330
128
100
AcDbEntity
  8
_U+30EC_U+30A4_U+30E4_U+30FC 1
 62
   179
420
  2234388
370
     9
100
AcDbVertex
100
AcDb2dVertex
 10
73.27236590844399
 20
-133.4926280221825
 30
0.0
  0
SEQEND
  5
12B
330
128
100
AcDbEntity
  8
_U+30EC_U+30A4_U+30E4_U+30FC 1
 62
   179
420
  2234388
370
     9
  0
POLYLINE
  5
12C
330
1F
100
AcDbEntity
  8
_U+30EC_U+30A4_U+30E4_U+30FC 1
 62
   179
420
  2234388
370
     9
100
AcDb2dPolyline
 66
     1
 10
0.0
 20
0.0
 30
0.0
  0
VERTEX
  5
12D
330
12C
100
AcDbEntity
  8
_U+30EC_U+30A4_U+30E4_U+30FC 1
 62
   179
420
  2234388
370
     9
100
AcDbVertex
100
AcDb2dVertex
 10
74.27418609254262
 20
-154.4925366280435
 30
0.0
  0
VERTEX
  5
12E
330
12C
100
AcDbEntity
  8
_U+30EC_U+30A4_U+30E4_U+30FC 1
 62
   179
420
  2234388
370
     9
100
AcDbVertex
100
AcDb2dVertex
 10
71.79990677934288
 20
-154.4925366280435
 30
0.0
  0
SEQEND
  5
12F
330
12C
100
AcDbEntity
  8
_U+30EC_U+30A4_U+30E4_U+30FC 1
 62
   179
420
  2234388
370
     9
  0
INSERT
  5
131
330
1F
100
AcDbEntity
  8
_U+30EC_U+30A4_U+30E4_U+30FC 1
100
AcDbBlockReference
  2
block 9
 10
0.0
 20
0.0
 30
0.0
  0
SPLINE
  5
138
330
1F
100
AcDbEntity
  8
_U+30EC_U+30A4_U+30E4_U+30FC 1
 62
   179
420
  2234388
370
     9
100
AcDbSpline
210
0.0
220
0.0
230
1.0
 70
    11
 71
     3
 72
    17
 73
    13
 74
     0
 42
0.0000000001
 43
0.0000000001
 12
1.0
 22
0.0
 32
0.0
 13
1.0
 23
0.0
 33
0.0
 40
0.0
 40
0.0
 40
0.0
 40
0.0
 40
1.0
 40
1.0
 40
1.0
 40
2.0
 40
2.0
 40
2.0
 40
3.0
 40
3.0
 40
3.0
 40
4.0
 40
4.0
 40
4.0
 40
4.0
 10
73.36606368383134
 20
-154.4911607947106
 30
0.0
 10
73.36606368383134
 20
-154.4360569058357
 30
0.0
 10
73.32161368496536
 20
-154.391254128069
 30
0.0
 10
73.2661570197135
 20
-154.391254128069
 30
0.0
 10
73.21101785445354
 20
-154.391254128069
 30
0.0
 10
73.16625035559566
 20
-154.4360569058357
 30
0.0
 10
73.16625035559566
 20
-154.4911607947106
 30
0.0
 10
73.16625035559566
 20
-154.546970239141
 30
0.0
 10
73.21101785445354
 20
-154.5917730169078
 30
0.0
 10
73.2661570197135
 20
-154.5917730169078
 30
0.0
 10
73.32161368496536
 20
-154.5917730169078
 30
0.0
 10
73.36606368383134
 20
-154.546970239141
 30
0.0
 10
73.36606368383134
 20
-154.4911607947106
 30
0.0
  0
POLYLINE
  5
139
330
1F
100
AcDbEntity
  8
_U+30EC_U+30A4_U+30E4_U+30FC 1
 62
   179
420
  2234388
370
     9
100
AcDb2dPolyline
 66
     1
 10
0.0
 20
0.0
 30
0.0
  0
VERTEX
  5
13A
330
139
100
AcDbEntity
  8
_U+30EC_U+30A4_U+30E4_U+30FC 1
 62
   179
420
  2234388
370
     9
100
AcDbVertex
100
AcDb2dVertex
 10
74.27418609254262
 20
-133.4926280221825
 30
0.0
  0
VERTEX
  5
13B
330
139
100
AcDbEntity
  8
_U+30EC_U+30A4_U+30E4_U+30FC 1
 62
   179
420
  2234388
370
     9
100
AcDbVertex
100
AcDb2dVertex
 10
71.79990677934288
 20
-133.4926280221825
 30
0.0
  0
SEQEND
  5
13C
330
139
100
AcDbEntity
  8
_U+30EC_U+30A4_U+30E4_U+30FC 1
 62
   179
420
  2234388
370
     9
  0
SPLINE
  5
13D
330
1F
100
AcDbEntity
  8
_U+30EC_U+30A4_U+30E4_U+30FC 1
 62
   179
420
  2234388
370
     9
100
AcDbSpline
210
0.0
220
0.0
230
1.0
 70
    11
 71
     3
 72
    17
 73
    13
 74
     0
 42
0.0000000001
 43
0.0000000001
 12
1.0
 22
0.0
 32
0.0
 13
1.0
 23
0.0
 33
0.0
 40
0.0
 40
0.0
 40
0.0
 40
0.0
 40
1.0
 40
1.0
 40
1.0
 40
2.0
 40
2.0
 40
2.0
 40
3.0
 40
3.0
 40
3.0
 40
4.0
 40
4.0
 40
4.0
 40
4.0
 10
73.36606368383134
 20
-133.4912521888496
 30
0.0
 10
73.36606368383134
 20
-133.4361130221965
 30
0.0
 10
73.32161368496536
 20
-133.3913455222079
 30
0.0
 10
73.2661570197135
 20
-133.3913455222079
 30
0.0
 10
73.21101785445354
 20
-133.3913455222079
 30
0.0
 10
73.16625035559566
 20
-133.4361130221965
 30
0.0
 10
73.16625035559566
 20
-133.4912521888496
 30
0.0
 10
73.16625035559566
 20
-133.54706163328
 30
0.0
 10
73.21101785445354
 20
-133.5918291332686
 30
0.0
 10
73.2661570197135
 20
-133.5918291332686
 30
0.0
 10
73.32161368496536
 20
-133.5918291332686
 30
0.0
 10
73.36606368383134
 20
-133.54706163328
 30
0.0
 10
73.36606368383134
 20
-133.4912521888496
 30
0.0
  0
POLYLINE
  5
13E
330
1F
100
AcDbEntity
  8
_U+30EC_U+30A4_U+30E4_U+30FC 1
 62
   179
420
  2234388
370
     9
100
AcDb2dPolyline
 66
     1
 10
0.0
 20
0.0
 30
0.0
  0
VERTEX
  5
13F
330
13E
100
AcDbEntity
  8
_U+30EC_U+30A4_U+30E4_U+30FC 1
 62
   179
420
  2234388
370
     9
100
AcDbVertex
100
AcDb2dVertex
 10
92.2741407014461
 20
-155.7279644055126
 30
0.0
  0
VERTEX
  5
140
330
13E
100
AcDbEntity
  8
_U+30EC_U+30A4_U+30E4_U+30FC 1
 62
   179
420
  2234388
370
     9
100
AcDbVertex
100
AcDb2dVertex
 10
95.93142310814106
 20
-158.7768816269723
 30
0.0
  0
SEQEND
  5
141
330
13E
100
AcDbEntity
  8
_U+30EC_U+30A4_U+30E4_U+30FC 1
 62
   179
420
  2234388
370
     9
  0
POLYLINE
  5
142
330
1F
100
AcDbEntity
  8
_U+30EC_U+30A4_U+30E4_U+30FC 1
 62
   179
420
  2234388
370
     9
100
AcDb2dPolyline
 66
     1
 10
0.0
 20
0.0
 30
0.0
  0
VERTEX
  5
143
330
142
100
AcDbEntity
  8
_U+30EC_U+30A4_U+30E4_U+30FC 1
 62
   179
420
  2234388
370
     9
100
AcDbVertex
100
AcDb2dVertex
 10
92.85082652006696
 20
-156.5451388497526
 30
0.0
  0
VERTEX
  5
144
330
142
100
AcDbEntity
  8
_U+30EC_U+30A4_U+30E4_U+30FC 1
 62
   179
420
  2234388
370
     9
100
AcDbVertex
100
AcDb2dVertex
 10
92.2741407014461
 20
-155.7279644055126
 30
0.0
  0
VERTEX
  5
145
330
142
100
AcDbEntity
  8
_U+30EC_U+30A4_U+30E4_U+30FC 1
 62
   179
420
  2234388
370
     9
100
AcDbVertex
100
AcDb2dVertex
 10
93.18155567829602
 20
-156.1482638498518
 30
0.0
  0
SEQEND
  5
146
330
142
100
AcDbEntity
  8
_U+30EC_U+30A4_U+30E4_U+30FC 1
 62
   179
420
  2234388
370
     9
  0
INSERT
  5
148
330
1F
100
AcDbEntity
  8
_U+30EC_U+30A4_U+30E4_U+30FC 1
100
AcDbBlockReference
  2
block 10
 10
0.0
 20
0.0
 30
0.0
  0
ENDSEC
  0
SECTION
  2
OBJECTS
  0
DICTIONARY
  5
C
330
0
100
AcDbDictionary
281
     1
  3
ACAD_GROUP
350
D
  3
ACAD_LAYOUT
350
1A
  3
ACAD_MATERIAL
350
3B
  3
ACAD_MLEADERSTYLE
350
186
  3
ACAD_MLINESTYLE
350
17
  3
ACAD_PLOTSETTINGS
350
19
  3
ACAD_PLOTSTYLENAME
350
E
  3
ACAD_TABLESTYLE
350
185
  3
ACAD_VISUALSTYLE
350
2A
  0
SUN
  5
3F
330
29
100
AcDbSun
 90
        1
290
     0
 63
     7
421
 16777215
 40
1.0
291
     1
 91
  2455826
 92
 54000000
292
     0
 70
     2
 71
   256
280
     1
  0
DICTIONARY
  5
D
102
{ACAD_REACTORS
330
C
102
}
330
C
100
AcDbDictionary
281
     1
  0
DICTIONARY
  5
1A
102
{ACAD_REACTORS
330
C
102
}
330
C
100
AcDbDictionary
281
     1
  3
Layout1
350
1E
  3
Layout2
350
26
  3
Model
350
22
  0
DICTIONARY
  5
3B
102
{ACAD_REACTORS
330
C
102
}
330
C
100
AcDbDictionary
281
     1
  3
ByBlock
350
3D
  3
ByLayer
350
3C
  3
Global
350
3E
  0
DICTIONARY
  5
186
102
{ACAD_REACTORS
330
C
102
}
330
C
100
AcDbDictionary
281
     1
  0
DICTIONARY
  5
17
102
{ACAD_REACTORS
330
C
102
}
330
C
100
AcDbDictionary
281
     1
  3
Standard
350
18
  0
DICTIONARY
  5
19
102
{ACAD_REACTORS
330
C
102
}
330
C
100
AcDbDictionary
281
     1
  0
ACDBDICTIONARYWDFLT
  5
E
102
{ACAD_REACTORS
330
C
102
}
330
C
100
AcDbDictionary
281
     1
  3
Normal
350
F
100
AcDbDictionaryWithDefault
340
F
  0
DICTIONARY
  5
185
102
{ACAD_REACTORS
330
C
102
}
330
C
100
AcDbDictionary
281
     1
  0
DICTIONARY
  5
2A
102
{ACAD_REACTORS
330
C
102
}
330
C
100
AcDbDictionary
281
     1
  3
2dWireframe
350
2F
  3
3D Hidden
350
31
  3
3dWireframe
350
30
  3
Basic
350
32
  3
Brighten
350
36
  3
ColorChange
350
3A
  3
Conceptual
350
34
  3
Dim
350
35
  3
Facepattern
350
39
  3
Flat
350
2B
  3
FlatWithEdges
350
2C
  3
Gouraud
350
2D
  3
GouraudWithEdges
350
2E
  3
Linepattern
350
38
  3
Realistic
350
33
  3
Thicken
350
37
  0
LAYOUT
  5
1E
102
{ACAD_REACTORS
330
1A
102
}
330
1A
100
AcDbPlotSettings
  1

  2
none_device
  4

  6

 40
0.0
 41
0.0
 42
0.0
 43
0.0
 44
0.0
 45
0.0
 46
0.0
 47
0.0
 48
0.0
 49
0.0
140
0.0
141
0.0
142
1.0
143
1.0
 70
   688
 72
     0
 73
     0
 74
     5
  7

 75
    16
 76
     0
 77
     2
 78
   300
147
1.0
148
0.0
149
0.0
100
AcDbLayout
  1
Layout1
 70
     1
 71
     1
 10
0.0
 20
0.0
 11
12.0
 21
9.0
 12
0.0
 22
0.0
 32
0.0
 14
1.000000000000000E+20
 24
1.000000000000000E+20
 34
1.000000000000000E+20
 15
-1.000000000000000E+20
 25
-1.000000000000000E+20
 35
-1.000000000000000E+20
146
0.0
 13
0.0
 23
0.0
 33
0.0
 16
1.0
 26
0.0
 36
0.0
 17
0.0
 27
1.0
 37
0.0
 76
     0
330
1B
  0
LAYOUT
  5
26
102
{ACAD_REACTORS
330
1A
102
}
330
1A
100
AcDbPlotSettings
  1

  2
none_device
  4

  6

 40
0.0
 41
0.0
 42
0.0
 43
0.0
 44
0.0
 45
0.0
 46
0.0
 47
0.0
 48
0.0
 49
0.0
140
0.0
141
0.0
142
1.0
143
1.0
 70
   688
 72
     0
 73
     0
 74
     5
  7

 75
    16
 76
     0
 77
     2
 78
   300
147
1.0
148
0.0
149
0.0
100
AcDbLayout
  1
Layout2
 70
     1
 71
     2
 10
0.0
 20
0.0
 11
0.0
 21
0.0
 12
0.0
 22
0.0
 32
0.0
 14
0.0
 24
0.0
 34
0.0
 15
0.0
 25
0.0
 35
0.0
146
0.0
 13
0.0
 23
0.0
 33
0.0
 16
1.0
 26
0.0
 36
0.0
 17
0.0
 27
1.0
 37
0.0
 76
     0
330
23
  0
LAYOUT
  5
22
102
{ACAD_REACTORS
330
1A
102
}
330
1A
100
AcDbPlotSettings
  1

  2
none_device
  4

  6

 40
0.0
 41
0.0
 42
0.0
 43
0.0
 44
0.0
 45
0.0
 46
0.0
 47
0.0
 48
0.0
 49
0.0
140
0.0
141
0.0
142
1.0
143
1.0
 70
  1712
 72
     0
 73
     0
 74
     0
  7

 75
     0
 76
     0
 77
     2
 78
   300
147
1.0
148
0.0
149
0.0
100
AcDbLayout
  1
Model
 70
     1
 71
     0
 10
0.0
 20
0.0
 11
12.0
 21
9.0
 12
0.0
 22
0.0
 32
0.0
 14
1.000000000000000E+20
 24
1.000000000000000E+20
 34
1.000000000000000E+20
 15
-1.000000000000000E+20
 25
-1.000000000000000E+20
 35
-1.000000000000000E+20
146
0.0
 13
0.0
 23
0.0
 33
0.0
 16
1.0
 26
0.0
 36
0.0
 17
0.0
 27
1.0
 37
0.0
 76
     0
330
1F
331
29
  0
MATERIAL
  5
3D
102
{ACAD_REACTORS
330
3B
102
}
330
3B
100
AcDbMaterial
  1
ByBlock
 72
     1
 94
      127
  0
MATERIAL
  5
3C
102
{ACAD_REACTORS
330
3B
102
}
330
3B
100
AcDbMaterial
  1
ByLayer
 72
     1
 94
      127
  0
MATERIAL
  5
3E
102
{ACAD_REACTORS
330
3B
102
}
330
3B
100
AcDbMaterial
  1
Global
 72
     1
 94
      127
  0
MLINESTYLE
  5
18
102
{ACAD_REACTORS
330
17
102
}
330
17
100
AcDbMlineStyle
  2
Standard
 70
     0
  3

 62
   256
 51
90.0
 52
90.0
 71
     2
 49
0.5
 62
   256
  6
BYLAYER
 49
-0.5
 62
   256
  6
BYLAYER
  0
ACDBPLACEHOLDER
  5
F
102
{ACAD_REACTORS
330
E
102
}
330
E
  0
VISUALSTYLE
  5
2F
102
{ACAD_REACTORS
330
2A
102
}
330
2A
100
AcDbVisualStyle
  2
2dWireframe
 70
     4
177
     2
291
     0
 71
     0
176
     1
 72
     2
176
     1
 73
     0
176
     1
 90
        0
176
     1
 40
-0.6
176
     1
 41
-30.0
176
     1
 62
     5
 63
     7
421
 16777215
176
     1
 74
     1
176
     1
 91
        4
176
     1
 64
     7
176
     1
 65
   257
176
     1
 75
     1
176
     1
175
     1
176
     1
 42
1.0
176
     1
 92
        0
176
     1
 66
   257
176
     1
 43
1.0
176
     1
 76
     1
176
     1
 77
     6
176
     1
 78
     2
176
     1
 67
     7
176
     1
 79
     5
176
     1
170
     0
176
     1
171
     0
176
     1
290
     0
176
     1
 93
        1
176
     1
 44
0.0
176
     1
173
     0
176
     1
  0
VISUALSTYLE
  5
31
102
{ACAD_REACTORS
330
2A
102
}
330
2A
100
AcDbVisualStyle
  2
3D Hidden
 70
     6
177
     2
291
     0
 71
     1
176
     1
 72
     2
176
     1
 73
     2
176
     1
 90
        0
176
     1
 40
-0.6
176
     1
 41
-30.0
176
     1
 62
     5
 63
     7
421
 16777215
176
     1
 74
     2
176
     1
 91
        2
176
     1
 64
     7
176
     1
 65
   257
176
     1
 75
     2
176
     1
175
     1
176
     1
 42
40.0
176
     1
 92
        0
176
     1
 66
   257
176
     1
 43
1.0
176
     1
 76
     1
176
     1
 77
     6
176
     1
 78
     2
176
     1
 67
     7
176
     1
 79
     3
176
     1
170
     0
176
     1
171
     0
176
     1
290
     0
176
     1
 93
        1
176
     1
 44
0.0
176
     1
173
     0
176
     1
  0
VISUALSTYLE
  5
30
102
{ACAD_REACTORS
330
2A
102
}
330
2A
100
AcDbVisualStyle
  2
3dWireframe
 70
     5
177
     2
291
     0
 71
     0
176
     1
 72
     2
176
     1
 73
     0
176
     1
 90
        0
176
     1
 40
-0.6
176
     1
 41
-30.0
176
     1
 62
     5
 63
     7
421
 16777215
176
     1
 74
     1
176
     1
 91
        4
176
     1
 64
     7
176
     1
 65
   257
176
     1
 75
     1
176
     1
175
     1
176
     1
 42
1.0
176
     1
 92
        0
176
     1
 66
   257
176
     1
 43
1.0
176
     1
 76
     1
176
     1
 77
     6
176
     1
 78
     2
176
     1
 67
     7
176
     1
 79
     5
176
     1
170
     0
176
     1
171
     0
176
     1
290
     0
176
     1
 93
        1
176
     1
 44
0.0
176
     1
173
     0
176
     1
  0
VISUALSTYLE
  5
32
102
{ACAD_REACTORS
330
2A
102
}
330
2A
100
AcDbVisualStyle
  2
Basic
 70
     7
177
     2
291
     1
 71
     1
176
     1
 72
     0
176
     1
 73
     1
176
     1
 90
        0
176
     1
 40
-0.6
176
     1
 41
-30.0
176
     1
 62
     5
 63
     7
421
 16777215
176
     1
 74
     0
176
     1
 91
        4
176
     1
 64
     7
176
     1
 65
   257
176
     1
 75
     1
176
     1
175
     1
176
     1
 42
1.0
176
     1
 92
        8
176
     1
 66
     7
176
     1
 43
1.0
176
     1
 76
     1
176
     1
 77
     6
176
     1
 78
     2
176
     1
 67
     7
176
     1
 79
     5
176
     1
170
     0
176
     1
171
     0
176
     1
290
     0
176
     1
 93
        1
176
     1
 44
0.0
176
     1
173
     0
176
     1
  0
VISUALSTYLE
  5
36
102
{ACAD_REACTORS
330
2A
102
}
330
2A
100
AcDbVisualStyle
  2
Brighten
 70
    12
177
     2
291
     1
 71
     2
176
     1
 72
     2
176
     1
 73
     0
176
     1
 90
        0
176
     1
 40
-0.6
176
     1
 41
-30.0
176
     1
 62
     5
 63
     7
421
 16777215
176
     1
 74
     1
176
     1
 91
        4
176
     1
 64
     7
176
     1
 65
   257
176
     1
 75
     1
176
     1
175
     1
176
     1
 42
1.0
176
     1
 92
        8
176
     1
 66
     7
176
     1
 43
1.0
176
     1
 76
     1
176
     1
 77
     6
176
     1
 78
     2
176
     1
 67
     7
176
     1
 79
     5
176
     1
170
     0
176
     1
171
     0
176
     1
290
     0
176
     1
 93
        1
176
     1
 44
50.0
176
     1
173
     0
176
     1
  0
VISUALSTYLE
  5
3A
102
{ACAD_REACTORS
330
2A
102
}
330
2A
100
AcDbVisualStyle
  2
ColorChange
 70
    16
177
     2
291
     1
 71
     2
176
     1
 72
     2
176
     1
 73
     3
176
     1
 90
        0
176
     1
 40
-0.6
176
     1
 41
-30.0
176
     1
 62
     5
 63
     8
421
  8421504
176
     1
 74
     1
176
     1
 91
        4
176
     1
 64
     7
176
     1
 65
   257
176
     1
 75
     1
176
     1
175
     1
176
     1
 42
1.0
176
     1
 92
        8
176
     1
 66
     8
424
  8421504
176
     1
 43
1.0
176
     1
 76
     1
176
     1
 77
     6
176
     1
 78
     2
176
     1
 67
     7
176
     1
 79
     5
176
     1
170
     0
176
     1
171
     0
176
     1
290
     0
176
     1
 93
        1
176
     1
 44
0.0
176
     1
173
     0
176
     1
  0
VISUALSTYLE
  5
34
102
{ACAD_REACTORS
330
2A
102
}
330
2A
100
AcDbVisualStyle
  2
Conceptual
 70
     9
177
     2
291
     0
 71
     3
176
     1
 72
     2
176
     1
 73
     0
176
     1
 90
        0
176
     1
 40
-0.6
176
     1
 41
-30.0
176
     1
 62
     5
 63
     7
421
 16777215
176
     1
 74
     2
176
     1
 91
        2
176
     1
 64
     7
176
     1
 65
   257
176
     1
 75
     1
176
     1
175
     1
176
     1
 42
40.0
176
     1
 92
        8
176
     1
 66
     7
176
     1
 43
1.0
176
     1
 76
     1
176
     1
 77
     6
176
     1
 78
     2
176
     1
 67
     7
176
     1
 79
     3
176
     1
170
     0
176
     1
171
     0
176
     1
290
     0
176
     1
 93
        1
176
     1
 44
0.0
176
     1
173
     0
176
     1
  0
VISUALSTYLE
  5
35
102
{ACAD_REACTORS
330
2A
102
}
330
2A
100
AcDbVisualStyle
  2
Dim
 70
    11
177
     2
291
     1
 71
     2
176
     1
 72
     2
176
     1
 73
     0
176
     1
 90
        0
176
     1
 40
-0.6
176
     1
 41
-30.0
176
     1
 62
     5
 63
     7
421
 16777215
176
     1
 74
     1
176
     1
 91
        4
176
     1
 64
     7
176
     1
 65
   257
176
     1
 75
     1
176
     1
175
     1
176
     1
 42
1.0
176
     1
 92
        8
176
     1
 66
     7
176
     1
 43
1.0
176
     1
 76
     1
176
     1
 77
     6
176
     1
 78
     2
176
     1
 67
     7
176
     1
 79
     5
176
     1
170
     0
176
     1
171
     0
176
     1
290
     0
176
     1
 93
        1
176
     1
 44
-50.0
176
     1
173
     0
176
     1
  0
VISUALSTYLE
  5
39
102
{ACAD_REACTORS
330
2A
102
}
330
2A
100
AcDbVisualStyle
  2
Facepattern
 70
    15
177
     2
291
     1
 71
     2
176
     1
 72
     2
176
     1
 73
     0
176
     1
 90
        0
176
     1
 40
-0.6
176
     1
 41
-30.0
176
     1
 62
     5
 63
     7
421
 16777215
176
     1
 74
     1
176
     1
 91
        4
176
     1
 64
     7
176
     1
 65
   257
176
     1
 75
     1
176
     1
175
     1
176
     1
 42
1.0
176
     1
 92
        8
176
     1
 66
     7
176
     1
 43
1.0
176
     1
 76
     1
176
     1
 77
     6
176
     1
 78
     2
176
     1
 67
     7
176
     1
 79
     5
176
     1
170
     0
176
     1
171
     0
176
     1
290
     0
176
     1
 93
        1
176
     1
 44
0.0
176
     1
173
     0
176
     1
  0
VISUALSTYLE
  5
2B
102
{ACAD_REACTORS
330
2A
102
}
330
2A
100
AcDbVisualStyle
  2
Flat
 70
     0
177
     2
291
     1
 71
     2
176
     1
 72
     1
176
     1
 73
     1
176
     1
 90
        2
176
     1
 40
-0.6
176
     1
 41
30.0
176
     1
 62
     5
 63
     7
421
 16777215
176
     1
 74
     0
176
     1
 91
        4
176
     1
 64
     7
176
     1
 65
   257
176
     1
 75
     1
176
     1
175
     1
176
     1
 42
1.0
176
     1
 92
        8
176
     1
 66
     7
176
     1
 43
1.0
176
     1
 76
     1
176
     1
 77
     6
176
     1
 78
     2
176
     1
 67
     7
176
     1
 79
     5
176
     1
170
     0
176
     1
171
     0
176
     1
290
     0
176
     1
 93
       13
176
     1
 44
0.0
176
     1
173
     0
176
     1
  0
VISUALSTYLE
  5
2C
102
{ACAD_REACTORS
330
2A
102
}
330
2A
100
AcDbVisualStyle
  2
FlatWithEdges
 70
     1
177
     2
291
     1
 71
     2
176
     1
 72
     1
176
     1
 73
     1
176
     1
 90
        2
176
     1
 40
-0.6
176
     1
 41
30.0
176
     1
 62
     5
 63
     7
421
 16777215
176
     1
 74
     1
176
     1
 91
        4
176
     1
 64
     7
176
     1
 65
   257
176
     1
 75
     1
176
     1
175
     1
176
     1
 42
1.0
176
     1
 92
        0
176
     1
 66
   257
176
     1
 43
1.0
176
     1
 76
     1
176
     1
 77
     6
176
     1
 78
     2
176
     1
 67
     7
176
     1
 79
     5
176
     1
170
     0
176
     1
171
     0
176
     1
290
     0
176
     1
 93
       13
176
     1
 44
0.0
176
     1
173
     0
176
     1
  0
VISUALSTYLE
  5
2D
102
{ACAD_REACTORS
330
2A
102
}
330
2A
100
AcDbVisualStyle
  2
Gouraud
 70
     2
177
     2
291
     1
 71
     2
176
     1
 72
     2
176
     1
 73
     1
176
     1
 90
        2
176
     1
 40
-0.6
176
     1
 41
30.0
176
     1
 62
     5
 63
     7
421
 16777215
176
     1
 74
     0
176
     1
 91
        4
176
     1
 64
     7
176
     1
 65
   257
176
     1
 75
     1
176
     1
175
     1
176
     1
 42
1.0
176
     1
 92
        0
176
     1
 66
     7
176
     1
 43
1.0
176
     1
 76
     1
176
     1
 77
     6
176
     1
 78
     2
176
     1
 67
     7
176
     1
 79
     5
176
     1
170
     0
176
     1
171
     0
176
     1
290
     0
176
     1
 93
       13
176
     1
 44
0.0
176
     1
173
     0
176
     1
  0
VISUALSTYLE
  5
2E
102
{ACAD_REACTORS
330
2A
102
}
330
2A
100
AcDbVisualStyle
  2
GouraudWithEdges
 70
     3
177
     2
291
     1
 71
     2
176
     1
 72
     2
176
     1
 73
     1
176
     1
 90
        2
176
     1
 40
-0.6
176
     1
 41
30.0
176
     1
 62
     5
 63
     7
421
 16777215
176
     1
 74
     1
176
     1
 91
        4
176
     1
 64
     7
176
     1
 65
   257
176
     1
 75
     1
176
     1
175
     1
176
     1
 42
1.0
176
     1
 92
        0
176
     1
 66
   257
176
     1
 43
1.0
176
     1
 76
     1
176
     1
 77
     6
176
     1
 78
     2
176
     1
 67
     7
176
     1
 79
     5
176
     1
170
     0
176
     1
171
     0
176
     1
290
     0
176
     1
 93
       13
176
     1
 44
0.0
176
     1
173
     0
176
     1
  0
VISUALSTYLE
  5
38
102
{ACAD_REACTORS
330
2A
102
}
330
2A
100
AcDbVisualStyle
  2
Linepattern
 70
    14
177
     2
291
     1
 71
     2
176
     1
 72
     2
176
     1
 73
     0
176
     1
 90
        0
176
     1
 40
-0.6
176
     1
 41
-30.0
176
     1
 62
     5
 63
     7
421
 16777215
176
     1
 74
     1
176
     1
 91
        4
176
     1
 64
     7
176
     1
 65
   257
176
     1
 75
     7
176
     1
175
     7
176
     1
 42
1.0
176
     1
 92
        8
176
     1
 66
     7
176
     1
 43
1.0
176
     1
 76
     1
176
     1
 77
     6
176
     1
 78
     2
176
     1
 67
     7
176
     1
 79
     5
176
     1
170
     0
176
     1
171
     0
176
     1
290
     0
176
     1
 93
        1
176
     1
 44
0.0
176
     1
173
     0
176
     1
  0
VISUALSTYLE
  5
33
102
{ACAD_REACTORS
330
2A
102
}
330
2A
100
AcDbVisualStyle
  2
Realistic
 70
     8
177
     2
291
     0
 71
     2
176
     1
 72
     2
176
     1
 73
     0
176
     1
 90
        0
176
     1
 40
-0.6
176
     1
 41
-30.0
176
     1
 62
     5
 63
     7
421
 16777215
176
     1
 74
     1
176
     1
 91
        0
176
     1
 64
     7
176
     1
 65
   257
176
     1
 75
     1
176
     1
175
     1
176
     1
 42
1.0
176
     1
 92
        8
176
     1
 66
     8
424
  7895160
176
     1
 43
1.0
176
     1
 76
     1
176
     1
 77
     6
176
     1
 78
     2
176
     1
 67
     7
176
     1
 79
     5
176
     1
170
     0
176
     1
171
     0
176
     1
290
     0
176
     1
 93
       13
176
     1
 44
0.0
176
     1
173
     0
176
     1
  0
VISUALSTYLE
  5
37
102
{ACAD_REACTORS
330
2A
102
}
330
2A
100
AcDbVisualStyle
  2
Thicken
 70
    13
177
     2
291
     1
 71
     2
176
     1
 72
     2
176
     1
 73
     0
176
     1
 90
        0
176
     1
 40
-0.6
176
     1
 41
-30.0
176
     1
 62
     5
 63
     7
421
 16777215
176
     1
 74
     1
176
     1
 91
        4
176
     1
 64
     7
176
     1
 65
   257
176
     1
 75
     1
176
     1
175
     1
176
     1
 42
1.0
176
     1
 92
       12
176
     1
 66
     7
176
     1
 43
1.0
176
     1
 76
     1
176
     1
 77
     6
176
     1
 78
     2
176
     1
 67
     7
176
     1
 79
     5
176
     1
170
     0
176
     1
171
     0
176
     1
290
     0
176
     1
 93
        1
176
     1
 44
0.0
176
     1
173
     0
176
     1
  0
ENDSEC
  0
EOF
