  0
SECTION
  2
HEADER
  9
$ACADVER
  1
AC1024
  9
$ACADMAINTVER
 70
     6
  9
$DWGCODEPAGE
  3
UNDEFINED
  9
$INSBASE
 10
0.0
 20
0.0
 30
0.0
  9
$EXTMIN
 10
1.000000000000000E+20
 20
1.000000000000000E+20
 30
1.000000000000000E+20
  9
$EXTMAX
 10
-1.000000000000000E+20
 20
-1.000000000000000E+20
 30
-1.000000000000000E+20
  9
$LIMMIN
 10
0.0
 20
0.0
  9
$LIMMAX
 10
12.0
 20
9.0
  9
$ORTHOMODE
 70
     0
  9
$REGENMODE
 70
     1
  9
$FILLMODE
 70
     1
  9
$QTEXTMODE
 70
     0
  9
$MIRRTEXT
 70
     1
  9
$LTSCALE
 40
1.0
  9
$ATTMODE
 70
     1
  9
$TEXTSIZE
 40
0.2
  9
$TRACEWID
 40
0.05
  9
$TEXTSTYLE
  7
Standard
  9
$CLAYER
  8
0
  9
$CELTYPE
  6
ByLayer
  9
$CECOLOR
 62
   256
  9
$CELTSCALE
 40
1.0
  9
$DISPSILH
 70
     0
  9
$DIMSCALE
 40
1.0
  9
$DIMASZ
 40
0.18
  9
$DIMEXO
 40
0.0625
  9
$DIMDLI
 40
0.38
  9
$DIMRND
 40
0.0
  9
$DIMDLE
 40
0.0
  9
$DIMEXE
 40
0.18
  9
$DIMTP
 40
0.0
  9
$DIMTM
 40
0.0
  9
$DIMTXT
 40
0.18
  9
$DIMCEN
 40
0.09
  9
$DIMTSZ
 40
0.0
  9
$DIMTOL
 70
     0
  9
$DIMLIM
 70
     0
  9
$DIMTIH
 70
     1
  9
$DIMTOH
 70
     1
  9
$DIMSE1
 70
     0
  9
$DIMSE2
 70
     0
  9
$DIMTAD
 70
     0
  9
$DIMZIN
 70
     0
  9
$DIMBLK
  1

  9
$DIMASO
 70
     1
  9
$DIMSHO
 70
     1
  9
$DIMPOST
  1

  9
$DIMAPOST
  1

  9
$DIMALT
 70
     0
  9
$DIMALTD
 70
     2
  9
$DIMALTF
 40
25.4
  9
$DIMLFAC
 40
1.0
  9
$DIMTOFL
 70
     0
  9
$DIMTVP
 40
0.0
  9
$DIMTIX
 70
     0
  9
$DIMSOXD
 70
     0
  9
$DIMSAH
 70
     0
  9
$DIMBLK1
  1

  9
$DIMBLK2
  1

  9
$DIMSTYLE
  2
Standard
  9
$DIMCLRD
 70
     0
  9
$DIMCLRE
 70
     0
  9
$DIMCLRT
 70
     0
  9
$DIMTFAC
 40
1.0
  9
$DIMGAP
 40
0.09
  9
$DIMJUST
 70
     0
  9
$DIMSD1
 70
     0
  9
$DIMSD2
 70
     0
  9
$DIMTOLJ
 70
     1
  9
$DIMTZIN
 70
     0
  9
$DIMALTZ
 70
     0
  9
$DIMALTTZ
 70
     0
  9
$DIMUPT
 70
     0
  9
$DIMDEC
 70
     4
  9
$DIMTDEC
 70
     4
  9
$DIMALTU
 70
     2
  9
$DIMALTTD
 70
     2
  9
$DIMTXSTY
  7
Standard
  9
$DIMAUNIT
 70
     0
  9
$DIMADEC
 70
     0
  9
$DIMALTRND
 40
0.0
  9
$DIMAZIN
 70
     0
  9
$DIMDSEP
 70
    46
  9
$DIMATFIT
 70
     3
  9
$DIMFRAC
 70
     0
  9
$DIMLDRBLK
  1

  9
$DIMLUNIT
 70
     2
  9
$DIMLWD
 70
    -2
  9
$DIMLWE
 70
    -2
  9
$DIMTMOVE
 70
     0
  9
$DIMFXL
 40
1.0
  9
$DIMFXLON
 70
     0
  9
$DIMJOGANG
 40
0.7853981633974483
  9
$DIMTFILL
 70
     0
  9
$DIMTFILLCLR
 70
     0
  9
$DIMARCSYM
 70
     0
  9
$DIMLTYPE
  6

  9
$DIMLTEX1
  6

  9
$DIMLTEX2
  6

  9
$DIMTXTDIRECTION
 70
     0
  9
$LUNITS
 70
     2
  9
$LUPREC
 70
     4
  9
$SKETCHINC
 40
0.1
  9
$FILLETRAD
 40
0.5
  9
$AUNITS
 70
     0
  9
$AUPREC
 70
     0
  9
$MENU
  1
.
  9
$ELEVATION
 40
0.0
  9
$PELEVATION
 40
0.0
  9
$THICKNESS
 40
0.0
  9
$LIMCHECK
 70
     0
  9
$CHAMFERA
 40
0.5
  9
$CHAMFERB
 40
0.5
  9
$CHAMFERC
 40
1.0
  9
$CHAMFERD
 40
0.0
  9
$SKPOLY
 70
     0
  9
$TDCREATE
 40
2457917.601006945
  9
$TDUCREATE
 40
2457917.226006945
  9
$TDUPDATE
 40
2457917.601006945
  9
$TDUUPDATE
 40
2457917.226006945
  9
$TDINDWG
 40
0.0000000116
  9
$TDUSRTIMER
 40
0.0000000116
  9
$USRTIMER
 70
     1
  9
$ANGBASE
 50
0.0
  9
$ANGDIR
 70
     0
  9
$PDMODE
 70
     0
  9
$PDSIZE
 40
0.0
  9
$PLINEWID
 40
0.0
  9
$SPLFRAME
 70
     0
  9
$SPLINETYPE
 70
     6
  9
$SPLINESEGS
 70
     8
  9
$HANDSEED
  5
12F
  9
$SURFTAB1
 70
     6
  9
$SURFTAB2
 70
     6
  9
$SURFTYPE
 70
     6
  9
$SURFU
 70
     6
  9
$SURFV
 70
     6
  9
$UCSBASE
  2

  9
$UCSNAME
  2

  9
$UCSORG
 10
0.0
 20
0.0
 30
0.0
  9
$UCSXDIR
 10
1.0
 20
0.0
 30
0.0
  9
$UCSYDIR
 10
0.0
 20
1.0
 30
0.0
  9
$UCSORTHOREF
  2

  9
$UCSORTHOVIEW
 70
     0
  9
$UCSORGTOP
 10
0.0
 20
0.0
 30
0.0
  9
$UCSORGBOTTOM
 10
0.0
 20
0.0
 30
0.0
  9
$UCSORGLEFT
 10
0.0
 20
0.0
 30
0.0
  9
$UCSORGRIGHT
 10
0.0
 20
0.0
 30
0.0
  9
$UCSORGFRONT
 10
0.0
 20
0.0
 30
0.0
  9
$UCSORGBACK
 10
0.0
 20
0.0
 30
0.0
  9
$PUCSBASE
  2

  9
$PUCSNAME
  2

  9
$PUCSORG
 10
0.0
 20
0.0
 30
0.0
  9
$PUCSXDIR
 10
1.0
 20
0.0
 30
0.0
  9
$PUCSYDIR
 10
0.0
 20
1.0
 30
0.0
  9
$PUCSORTHOREF
  2

  9
$PUCSORTHOVIEW
 70
     0
  9
$PUCSORGTOP
 10
0.0
 20
0.0
 30
0.0
  9
$PUCSORGBOTTOM
 10
0.0
 20
0.0
 30
0.0
  9
$PUCSORGLEFT
 10
0.0
 20
0.0
 30
0.0
  9
$PUCSORGRIGHT
 10
0.0
 20
0.0
 30
0.0
  9
$PUCSORGFRONT
 10
0.0
 20
0.0
 30
0.0
  9
$PUCSORGBACK
 10
0.0
 20
0.0
 30
0.0
  9
$USERI1
 70
     0
  9
$USERI2
 70
     0
  9
$USERI3
 70
     0
  9
$USERI4
 70
     0
  9
$USERI5
 70
     0
  9
$USERR1
 40
0.0
  9
$USERR2
 40
0.0
  9
$USERR3
 40
0.0
  9
$USERR4
 40
0.0
  9
$USERR5
 40
0.0
  9
$WORLDVIEW
 70
     1
  9
$SHADEDGE
 70
     3
  9
$SHADEDIF
 70
    70
  9
$TILEMODE
 70
     1
  9
$MAXACTVP
 70
    64
  9
$PINSBASE
 10
0.0
 20
0.0
 30
0.0
  9
$PLIMCHECK
 70
     0
  9
$PEXTMIN
 10
1.000000000000000E+20
 20
1.000000000000000E+20
 30
1.000000000000000E+20
  9
$PEXTMAX
 10
-1.000000000000000E+20
 20
-1.000000000000000E+20
 30
-1.000000000000000E+20
  9
$PLIMMIN
 10
0.0
 20
0.0
  9
$PLIMMAX
 10
12.0
 20
9.0
  9
$UNITMODE
 70
     0
  9
$VISRETAIN
 70
     1
  9
$PLINEGEN
 70
     0
  9
$PSLTSCALE
 70
     1
  9
$TREEDEPTH
 70
  3020
  9
$CMLSTYLE
  2
Standard
  9
$CMLJUST
 70
     0
  9
$CMLSCALE
 40
1.0
  9
$PROXYGRAPHICS
 70
     1
  9
$MEASUREMENT
 70
     0
  9
$CELWEIGHT
370
    -1
  9
$ENDCAPS
280
     0
  9
$JOINSTYLE
280
     0
  9
$LWDISPLAY
290
     1
  9
$INSUNITS
 70
     1
  9
$HYPERLINKBASE
  1

  9
$STYLESHEET
  1

  9
$XEDIT
290
     1
  9
$CEPSNTYPE
380
     0
  9
$PSTYLEMODE
290
     1
  9
$FINGERPRINTGUID
  2
{D3B26991-B6FF-DBB5-18BB-0D5845320001}
  9
$VERSIONGUID
  2
{FAEB1C32-E019-11D5-929B-00C0DF256EC4}
  9
$EXTNAMES
290
     1
  9
$PSVPSCALE
 40
0.0
  9
$OLESTARTUP
290
     0
  9
$SORTENTS
280
   127
  9
$INDEXCTL
280
     0
  9
$HIDETEXT
280
     1
  9
$XCLIPFRAME
280
     2
  9
$HALOGAP
280
     0
  9
$OBSCOLOR
 70
   257
  9
$OBSLTYPE
280
     0
  9
$INTERSECTIONDISPLAY
280
     0
  9
$INTERSECTIONCOLOR
 70
   257
  9
$DIMASSOC
280
     2
  9
$PROJECTNAME
  1

  9
$CAMERADISPLAY
290
     0
  9
$LENSLENGTH
 40
50.0
  9
$CAMERAHEIGHT
 40
0.0
  9
$STEPSPERSEC
 40
2.0
  9
$STEPSIZE
 40
6.0
  9
$3DDWFPREC
 40
2.0
  9
$PSOLWIDTH
 40
0.25
  9
$PSOLHEIGHT
 40
4.0
  9
$LOFTANG1
 40
1.570796326794897
  9
$LOFTANG2
 40
1.570796326794897
  9
$LOFTMAG1
 40
0.0
  9
$LOFTMAG2
 40
0.0
  9
$LOFTPARAM
 70
     7
  9
$LOFTNORMALS
280
     1
  9
$LATITUDE
 40
37.795
  9
$LONGITUDE
 40
-122.394
  9
$NORTHDIRECTION
 40
0.0
  9
$TIMEZONE
 70
 -8000
  9
$LIGHTGLYPHDISPLAY
280
     1
  9
$TILEMODELIGHTSYNCH
280
     1
  9
$CMATERIAL
347
3C
  9
$SOLIDHIST
280
     1
  9
$SHOWHIST
280
     1
  9
$DWFFRAME
280
     2
  9
$DGNFRAME
280
     2
  9
$REALWORLDSCALE
290
     1
  9
$INTERFERECOLOR
 62
   256
  9
$CSHADOW
280
     0
  9
$SHADOWPLANELOCATION
 40
0.0
  0
ENDSEC
  0
SECTION
  2
CLASSES
  0
CLASS
  1
ACDBDICTIONARYWDFLT
  2
AcDbDictionaryWithDefault
  3
ObjectDBX Classes
 90
        0
 91
        4
280
     0
281
     0
  0
CLASS
  1
VISUALSTYLE
  2
AcDbVisualStyle
  3
ObjectDBX Classes
 90
     4095
 91
        4
280
     0
281
     0
  0
CLASS
  1
MATERIAL
  2
AcDbMaterial
  3
ObjectDBX Classes
 90
     1153
 91
        4
280
     0
281
     0
  0
CLASS
  1
SUN
  2
AcDbSun
  3
SCENEOE
 90
     1024
 91
        4
280
     0
281
     0
  0
ENDSEC
  0
SECTION
  2
TABLES
  0
TABLE
  2
VPORT
  5
8
330
0
100
AcDbSymbolTable
 70
     1
  0
VPORT
  5
29
330
8
100
AcDbSymbolTableRecord
100
AcDbViewportTableRecord
  2
*Active
 70
     0
 10
0.0
 20
0.0
 11
1.0
 21
1.0
 12
0.0
 22
0.0
 13
0.0
 23
0.0
 14
0.5
 24
0.5
 15
0.5
 25
0.5
 16
0.0
 26
0.0
 36
1.0
 17
105.0008280156501
 27
-148.4999710739862
 37
0.0
 40
296.9999421479724
 41
0.7070764206636528
 42
50.0
 43
0.0
 44
0.0
 50
0.0
 51
0.0
 71
     0
 72
   100
 73
     1
 74
     3
 75
     0
 76
     0
 77
     0
 78
     0
281
     0
 65
     1
110
0.0
120
0.0
130
0.0
111
1.0
121
0.0
131
0.0
112
0.0
122
1.0
132
0.0
 79
     0
146
0.0
 60
     3
 61
     5
292
     1
282
     1
141
0.0
142
0.0
 63
   250
361
3F
  0
ENDTAB
  0
TABLE
  2
LTYPE
  5
5
330
0
100
AcDbSymbolTable
 70
     4
  0
LTYPE
  5
14
330
5
100
AcDbSymbolTableRecord
100
AcDbLinetypeTableRecord
  2
ByBlock
 70
     0
  3

 72
    65
 73
     0
 40
0.0
  0
LTYPE
  5
15
330
5
100
AcDbSymbolTableRecord
100
AcDbLinetypeTableRecord
  2
ByLayer
 70
     0
  3

 72
    65
 73
     0
 40
0.0
  0
LTYPE
  5
16
330
5
100
AcDbSymbolTableRecord
100
AcDbLinetypeTableRecord
  2
Continuous
 70
     0
  3
Solid line
 72
    65
 73
     0
 40
0.0
  0
LTYPE
  5
48
330
5
100
AcDbSymbolTableRecord
100
AcDbLinetypeTableRecord
  2
AI-Linetype-1
 70
     0
  3
Adobe Illustrator Linetype No. 1
 72
    65
 73
     2
 40
1.411111110758333
 49
0.7055555553791667
 74
     0
 49
-0.7055555553791667
 74
     0
  0
LTYPE
  5
4D
330
5
100
AcDbSymbolTableRecord
100
AcDbLinetypeTableRecord
  2
AI-Linetype-2
 70
     0
  3
Adobe Illustrator Linetype No. 2
 72
    65
 73
     2
 40
1.411111110758333
 49
0.7055555553791667
 74
     0
 49
-0.7055555553791667
 74
     0
  0
LTYPE
  5
52
330
5
100
AcDbSymbolTableRecord
100
AcDbLinetypeTableRecord
  2
AI-Linetype-3
 70
     0
  3
Adobe Illustrator Linetype No. 3
 72
    65
 73
     2
 40
1.411111110758333
 49
0.7055555553791667
 74
     0
 49
-0.7055555553791667
 74
     0
  0
ENDTAB
  0
TABLE
  2
LAYER
  5
2
330
0
100
AcDbSymbolTable
 70
     2
  0
LAYER
  5
10
330
2
100
AcDbSymbolTableRecord
100
AcDbLayerTableRecord
  2
0
 70
     0
 62
     7
  6
Continuous
370
    -3
390
F
347
3E
  0
LAYER
  5
40
330
2
100
AcDbSymbolTableRecord
100
AcDbLayerTableRecord
  2
_U+30EC_U+30A4_U+30E4_U+30FC 1
 70
     0
 62
     7
  6
Continuous
370
    -3
390
F
347
3E
  0
ENDTAB
  0
TABLE
  2
STYLE
  5
3
330
0
100
AcDbSymbolTable
 70
     1
  0
STYLE
  5
11
330
3
100
AcDbSymbolTableRecord
100
AcDbTextStyleTableRecord
  2
Standard
 70
     0
 40
0.0
 41
1.0
 50
0.0
 71
     0
 42
0.2
  3
txt
  4

  0
ENDTAB
  0
TABLE
  2
VIEW
  5
6
330
0
100
AcDbSymbolTable
 70
     0
  0
ENDTAB
  0
TABLE
  2
UCS
  5
7
330
0
100
AcDbSymbolTable
 70
     0
  0
ENDTAB
  0
TABLE
  2
APPID
  5
9
330
0
100
AcDbSymbolTable
 70
     1
  0
APPID
  5
12
330
9
100
AcDbSymbolTableRecord
100
AcDbRegAppTableRecord
  2
ACAD
 70
     0
  0
ENDTAB
  0
TABLE
  2
DIMSTYLE
  5
A
330
0
100
AcDbSymbolTable
 70
     1
100
AcDbDimStyleTable
  0
DIMSTYLE
105
27
330
A
100
AcDbSymbolTableRecord
100
AcDbDimStyleTableRecord
  2
Standard
 70
     0
178
     0
340
11
  0
ENDTAB
  0
TABLE
  2
BLOCK_RECORD
  5
1
330
0
100
AcDbSymbolTable
 70
     9
  0
BLOCK_RECORD
  5
1F
330
1
100
AcDbSymbolTableRecord
100
AcDbBlockTableRecord
  2
*Model_Space
340
22
 70
     0
280
     1
281
     0
  0
BLOCK_RECORD
  5
1B
330
1
100
AcDbSymbolTableRecord
100
AcDbBlockTableRecord
  2
*Paper_Space
340
1E
 70
     0
280
     1
281
     0
  0
BLOCK_RECORD
  5
23
330
1
100
AcDbSymbolTableRecord
100
AcDbBlockTableRecord
  2
*Paper_Space0
340
26
 70
     0
280
     1
281
     0
  0
BLOCK_RECORD
  5
41
330
1
100
AcDbSymbolTableRecord
100
AcDbBlockTableRecord
  2
block 2
340
0
102
{BLKREFS
331
42
102
}
 70
     0
280
     1
281
     0
  0
BLOCK_RECORD
  5
73
330
1
100
AcDbSymbolTableRecord
100
AcDbBlockTableRecord
  2
block 3
340
0
102
{BLKREFS
331
74
102
}
 70
     0
280
     1
281
     0
  0
BLOCK_RECORD
  5
8E
330
1
100
AcDbSymbolTableRecord
100
AcDbBlockTableRecord
  2
block 4
340
0
102
{BLKREFS
331
8F
102
}
 70
     0
280
     1
281
     0
  0
BLOCK_RECORD
  5
96
330
1
100
AcDbSymbolTableRecord
100
AcDbBlockTableRecord
  2
block 5
340
0
102
{BLKREFS
331
97
102
}
 70
     0
280
     1
281
     0
  0
BLOCK_RECORD
  5
A3
330
1
100
AcDbSymbolTableRecord
100
AcDbBlockTableRecord
  2
block 6
340
0
102
{BLKREFS
331
A4
102
}
 70
     0
280
     1
281
     0
  0
BLOCK_RECORD
  5
F6
330
1
100
AcDbSymbolTableRecord
100
AcDbBlockTableRecord
  2
block 7
340
0
102
{BLKREFS
331
F7
102
}
 70
     0
280
     1
281
     0
  0
BLOCK_RECORD
  5
10C
330
1
100
AcDbSymbolTableRecord
100
AcDbBlockTableRecord
  2
block 8
340
0
102
{BLKREFS
331
10D
102
}
 70
     0
280
     1
281
     0
  0
BLOCK_RECORD
  5
125
330
1
100
AcDbSymbolTableRecord
100
AcDbBlockTableRecord
  2
block 9
340
0
102
{BLKREFS
331
126
102
}
 70
     0
280
     1
281
     0
  0
ENDTAB
  0
ENDSEC
  0
SECTION
  2
BLOCKS
  0
BLOCK
  5
20
330
1F
100
AcDbEntity
  8
0
100
AcDbBlockBegin
  2
*Model_Space
 70
     0
 10
0.0
 20
0.0
 30
0.0
  3
*Model_Space
  1

  0
ENDBLK
  5
21
330
1F
100
AcDbEntity
  8
0
100
AcDbBlockEnd
  0
BLOCK
  5
1C
330
1B
100
AcDbEntity
 67
     1
  8
0
100
AcDbBlockBegin
  2
*Paper_Space
 70
     0
 10
0.0
 20
0.0
 30
0.0
  3
*Paper_Space
  1

  0
ENDBLK
  5
1D
330
1B
100
AcDbEntity
 67
     1
  8
0
100
AcDbBlockEnd
  0
BLOCK
  5
24
330
23
100
AcDbEntity
  8
0
100
AcDbBlockBegin
  2
*Paper_Space0
 70
     0
 10
0.0
 20
0.0
 30
0.0
  3
*Paper_Space0
  1

  0
ENDBLK
  5
25
330
23
100
AcDbEntity
  8
0
100
AcDbBlockEnd
  0
BLOCK
  5
43
330
41
100
AcDbEntity
  8
0
100
AcDbBlockBegin
  2
block 2
 70
     0
 10
0.0
 20
0.0
 30
0.0
  3
block 2
  1

  0
POLYLINE
  5
45
330
41
100
AcDbEntity
  8
_U+30EC_U+30A4_U+30E4_U+30FC 1
  6
AI-Linetype-1
 62
   154
420
    23468
370
    25
100
AcDb2dPolyline
 66
     1
 10
0.0
 20
0.0
 30
0.0
  0
VERTEX
  5
46
330
45
100
AcDbEntity
  8
_U+30EC_U+30A4_U+30E4_U+30FC 1
  6
AI-Linetype-1
 62
   154
420
    23468
370
    25
100
AcDbVertex
100
AcDb2dVertex
 10
93.40066595048383
 20
-156.1155260720821
 30
0.0
  0
VERTEX
  5
47
330
45
100
AcDbEntity
  8
_U+30EC_U+30A4_U+30E4_U+30FC 1
  6
AI-Linetype-1
 62
   154
420
    23468
370
    25
100
AcDbVertex
100
AcDb2dVertex
 10
93.40066595048383
 20
-142.0753938533701
 30
0.0
  0
SEQEND
  5
49
330
45
100
AcDbEntity
  8
_U+30EC_U+30A4_U+30E4_U+30FC 1
  6
AI-Linetype-1
 62
   154
420
    23468
370
    25
  0
POLYLINE
  5
4A
330
41
100
AcDbEntity
  8
_U+30EC_U+30A4_U+30E4_U+30FC 1
  6
AI-Linetype-2
 62
   154
420
    23468
370
    25
100
AcDb2dPolyline
 66
     1
 10
0.0
 20
0.0
 30
0.0
  0
VERTEX
  5
4B
330
4A
100
AcDbEntity
  8
_U+30EC_U+30A4_U+30E4_U+30FC 1
  6
AI-Linetype-2
 62
   154
420
    23468
370
    25
100
AcDbVertex
100
AcDb2dVertex
 10
85.97751613986415
 20
-141.8046016312155
 30
0.0
  0
VERTEX
  5
4C
330
4A
100
AcDbEntity
  8
_U+30EC_U+30A4_U+30E4_U+30FC 1
  6
AI-Linetype-2
 62
   154
420
    23468
370
    25
100
AcDbVertex
100
AcDb2dVertex
 10
93.31144845275996
 20
-141.8046016312155
 30
0.0
  0
SEQEND
  5
4E
330
4A
100
AcDbEntity
  8
_U+30EC_U+30A4_U+30E4_U+30FC 1
  6
AI-Linetype-2
 62
   154
420
    23468
370
    25
  0
POLYLINE
  5
4F
330
41
100
AcDbEntity
  8
_U+30EC_U+30A4_U+30E4_U+30FC 1
  6
AI-Linetype-3
 62
   154
420
    23468
370
    25
100
AcDb2dPolyline
 66
     1
 10
0.0
 20
0.0
 30
0.0
  0
VERTEX
  5
50
330
4F
100
AcDbEntity
  8
_U+30EC_U+30A4_U+30E4_U+30FC 1
  6
AI-Linetype-3
 62
   154
420
    23468
370
    25
100
AcDbVertex
100
AcDb2dVertex
 10
93.86749677190731
 20
-156.3043327387017
 30
0.0
  0
VERTEX
  5
51
330
4F
100
AcDbEntity
  8
_U+30EC_U+30A4_U+30E4_U+30FC 1
  6
AI-Linetype-3
 62
   154
420
    23468
370
    25
100
AcDbVertex
100
AcDb2dVertex
 10
104.1772859533271
 20
-155.4389335722511
 30
0.0
  0
SEQEND
  5
53
330
4F
100
AcDbEntity
  8
_U+30EC_U+30A4_U+30E4_U+30FC 1
  6
AI-Linetype-3
 62
   154
420
    23468
370
    25
  0
ENDBLK
  5
44
330
41
100
AcDbEntity
  8
0
100
AcDbBlockEnd
  0
BLOCK
  5
75
330
73
100
AcDbEntity
  8
0
100
AcDbBlockBegin
  2
block 3
 70
     0
 10
0.0
 20
0.0
 30
0.0
  3
block 3
  1

  0
SPLINE
  5
77
330
73
100
AcDbEntity
  8
_U+30EC_U+30A4_U+30E4_U+30FC 1
370
     0
100
AcDbSpline
210
0.0
220
0.0
230
1.0
 70
    11
 71
     3
 72
    62
 73
    58
 74
     0
 42
0.0000000001
 43
0.0000000001
 12
1.0
 22
0.0
 32
0.0
 13
1.0
 23
0.0
 33
0.0
 40
0.0
 40
0.0
 40
0.0
 40
0.0
 40
1.0
 40
1.0
 40
1.0
 40
2.0
 40
2.0
 40
2.0
 40
3.0
 40
3.0
 40
3.0
 40
4.0
 40
4.0
 40
4.0
 40
5.0
 40
5.0
 40
5.0
 40
6.0
 40
6.0
 40
6.0
 40
7.0
 40
7.0
 40
7.0
 40
8.0
 40
8.0
 40
8.0
 40
9.0
 40
9.0
 40
9.0
 40
10.0
 40
10.0
 40
10.0
 40
11.0
 40
11.0
 40
11.0
 40
12.0
 40
12.0
 40
12.0
 40
13.0
 40
13.0
 40
13.0
 40
14.0
 40
14.0
 40
14.0
 40
15.0
 40
15.0
 40
15.0
 40
16.0
 40
16.0
 40
16.0
 40
17.0
 40
17.0
 40
17.0
 40
18.0
 40
18.0
 40
18.0
 40
19.0
 40
19.0
 40
19.0
 40
19.0
 10
102.0085882991506
 20
-135.42463646788
 30
0.0
 10
101.9131591542092
 20
-135.42463646788
 30
0.0
 10
101.6954291195414
 20
-135.4036213854199
 30
0.0
 10
101.5703721534269
 20
-135.2175862292164
 30
0.0
 10
101.496302600494
 20
-135.1052761163973
 30
0.0
 10
101.4921684859117
 20
-135.0060573664221
 30
0.0
 10
101.4880343713294
 20
-134.921308017485
 30
0.0
 10
101.4880343713294
 20
-134.921308017485
 30
0.0
 10
101.7081759728369
 20
-134.921308017485
 30
0.0
 10
101.7081759728369
 20
-134.921308017485
 30
0.0
 10
101.710243030128
 20
-134.9953775704178
 30
0.0
 10
101.7205783165838
 20
-135.2299885729634
 30
0.0
 10
102.0041096750198
 20
-135.2299885729634
 30
0.0
 10
102.1415689848813
 20
-135.2299885729634
 30
0.0
 10
102.2941867148779
 20
-135.1603976441613
 30
0.0
 10
102.2941867148779
 20
-134.9319878134892
 30
0.0
 10
102.2941867148779
 20
-134.8155435860878
 30
0.0
 10
102.2559461549916
 20
-134.7669677397458
 30
0.0
 10
102.2242512765273
 20
-134.7352728612815
 30
0.0
 10
102.1501817235944
 20
-134.6612033083486
 30
0.0
 10
102.033737496193
 20
-134.6484564550532
 30
0.0
 10
101.9789604779775
 20
-134.6484564550532
 30
0.0
 10
101.9596679432601
 20
-134.6484564550532
 30
0.0
 10
101.9238389502135
 20
-134.6505235123443
 30
0.0
 10
101.8962781863315
 20
-134.6546576269266
 30
0.0
 10
101.8962781863315
 20
-134.6546576269266
 30
0.0
 10
101.8962781863315
 20
-134.46000973201
 30
0.0
 10
101.8962781863315
 20
-134.46000973201
 30
0.0
 10
101.9345187462178
 20
-134.466555413432
 30
0.0
 10
101.9765489111378
 20
-134.4686224707231
 30
0.0
 10
101.9830945925598
 20
-134.4686224707231
 30
0.0
 10
102.0485514067795
 20
-134.4686224707231
 30
0.0
 10
102.2473334162785
 20
-134.4472628787146
 30
0.0
 10
102.2473334162785
 20
-134.2105848188779
 30
0.0
 10
102.2473334162785
 20
-134.032817891839
 30
0.0
 10
102.116419787839
 20
-133.977696364075
 30
0.0
 10
102.006176732311
 20
-133.977696364075
 30
0.0
 10
101.7419379085923
 20
-133.977696364075
 30
0.0
 10
101.7333251698792
 20
-134.2105848188779
 30
0.0
 10
101.7291910552969
 20
-134.2822428049711
 30
0.0
 10
101.7291910552969
 20
-134.2822428049711
 30
0.0
 10
101.5259304216671
 20
-134.2822428049711
 30
0.0
 10
101.5259304216671
 20
-134.2822428049711
 30
0.0
 10
101.5345431603803
 20
-134.1575303484051
 30
0.0
 10
101.5621039242623
 20
-133.7809814118673
 30
0.0
 10
102.0189235856064
 20
-133.7809814118673
 30
0.0
 10
102.2431993016962
 20
-133.7809814118673
 30
0.0
 10
102.4843559856636
 20
-133.908105435273
 30
0.0
 10
102.4843559856636
 20
-134.2040391374559
 30
0.0
 10
102.4843559856636
 20
-134.390418803208
 30
0.0
 10
102.3892713502707
 20
-134.4727565853054
 30
0.0
 10
102.289708090747
 20
-134.5340792849429
 30
0.0
 10
102.3510307903845
 20
-134.5616400488249
 30
0.0
 10
102.5329318320057
 20
-134.6419107736312
 30
0.0
 10
102.5329318320057
 20
-134.9192409601938
 30
0.0
 10
102.5329318320057
 20
-135.2575493368453
 30
0.0
 10
102.2855739761647
 20
-135.42463646788
 30
0.0
 10
102.0085882991506
 20
-135.42463646788
 30
0.0
  0
HATCH
  5
78
330
73
100
AcDbEntity
  8
_U+30EC_U+30A4_U+30E4_U+30FC 1
 62
   179
420
  2234388
100
AcDbHatch
 10
0.0
 20
0.0
 30
0.0
210
0.0
220
0.0
230
1.0
  2
SOLID
 70
     1
 71
     0
 91
        1
 92
        1
 93
        1
 72
     4
 94
        3
 73
     0
 74
     1
 95
       62
 96
       58
 40
0.0
 40
0.0
 40
0.0
 40
0.0
 40
1.0
 40
1.0
 40
1.0
 40
2.0
 40
2.0
 40
2.0
 40
3.0
 40
3.0
 40
3.0
 40
4.0
 40
4.0
 40
4.0
 40
5.0
 40
5.0
 40
5.0
 40
6.0
 40
6.0
 40
6.0
 40
7.0
 40
7.0
 40
7.0
 40
8.0
 40
8.0
 40
8.0
 40
9.0
 40
9.0
 40
9.0
 40
10.0
 40
10.0
 40
10.0
 40
11.0
 40
11.0
 40
11.0
 40
12.0
 40
12.0
 40
12.0
 40
13.0
 40
13.0
 40
13.0
 40
14.0
 40
14.0
 40
14.0
 40
15.0
 40
15.0
 40
15.0
 40
16.0
 40
16.0
 40
16.0
 40
17.0
 40
17.0
 40
17.0
 40
18.0
 40
18.0
 40
18.0
 40
19.0
 40
19.0
 40
19.0
 40
19.0
 10
102.0085882991506
 20
-135.42463646788
 10
101.9131591542092
 20
-135.42463646788
 10
101.6954291195414
 20
-135.4036213854199
 10
101.5703721534269
 20
-135.2175862292164
 10
101.496302600494
 20
-135.1052761163973
 10
101.4921684859117
 20
-135.0060573664221
 10
101.4880343713294
 20
-134.921308017485
 10
101.4880343713294
 20
-134.921308017485
 10
101.7081759728369
 20
-134.921308017485
 10
101.7081759728369
 20
-134.921308017485
 10
101.710243030128
 20
-134.9953775704178
 10
101.7205783165838
 20
-135.2299885729634
 10
102.0041096750198
 20
-135.2299885729634
 10
102.1415689848813
 20
-135.2299885729634
 10
102.2941867148779
 20
-135.1603976441613
 10
102.2941867148779
 20
-134.9319878134892
 10
102.2941867148779
 20
-134.8155435860878
 10
102.2559461549916
 20
-134.7669677397458
 10
102.2242512765273
 20
-134.7352728612815
 10
102.1501817235944
 20
-134.6612033083486
 10
102.033737496193
 20
-134.6484564550532
 10
101.9789604779775
 20
-134.6484564550532
 10
101.9596679432601
 20
-134.6484564550532
 10
101.9238389502135
 20
-134.6505235123443
 10
101.8962781863315
 20
-134.6546576269266
 10
101.8962781863315
 20
-134.6546576269266
 10
101.8962781863315
 20
-134.46000973201
 10
101.8962781863315
 20
-134.46000973201
 10
101.9345187462178
 20
-134.466555413432
 10
101.9765489111378
 20
-134.4686224707231
 10
101.9830945925598
 20
-134.4686224707231
 10
102.0485514067795
 20
-134.4686224707231
 10
102.2473334162785
 20
-134.4472628787146
 10
102.2473334162785
 20
-134.2105848188779
 10
102.2473334162785
 20
-134.032817891839
 10
102.116419787839
 20
-133.977696364075
 10
102.006176732311
 20
-133.977696364075
 10
101.7419379085923
 20
-133.977696364075
 10
101.7333251698792
 20
-134.2105848188779
 10
101.7291910552969
 20
-134.2822428049711
 10
101.7291910552969
 20
-134.2822428049711
 10
101.5259304216671
 20
-134.2822428049711
 10
101.5259304216671
 20
-134.2822428049711
 10
101.5345431603803
 20
-134.1575303484051
 10
101.5621039242623
 20
-133.7809814118673
 10
102.0189235856064
 20
-133.7809814118673
 10
102.2431993016962
 20
-133.7809814118673
 10
102.4843559856636
 20
-133.908105435273
 10
102.4843559856636
 20
-134.2040391374559
 10
102.4843559856636
 20
-134.390418803208
 10
102.3892713502707
 20
-134.4727565853054
 10
102.289708090747
 20
-134.5340792849429
 10
102.3510307903845
 20
-134.5616400488249
 10
102.5329318320057
 20
-134.6419107736312
 10
102.5329318320057
 20
-134.9192409601938
 10
102.5329318320057
 20
-135.2575493368453
 10
102.2855739761647
 20
-135.42463646788
 10
102.0085882991506
 20
-135.42463646788
 97
        0
 97
        0
 75
     2
 76
     1
 98
        0
  0
SPLINE
  5
79
330
73
100
AcDbEntity
  8
_U+30EC_U+30A4_U+30E4_U+30FC 1
370
     0
100
AcDbSpline
210
0.0
220
0.0
230
1.0
 70
    11
 71
     3
 72
    62
 73
    58
 74
     0
 42
0.0000000001
 43
0.0000000001
 12
1.0
 22
0.0
 32
0.0
 13
1.0
 23
0.0
 33
0.0
 40
0.0
 40
0.0
 40
0.0
 40
0.0
 40
1.0
 40
1.0
 40
1.0
 40
2.0
 40
2.0
 40
2.0
 40
3.0
 40
3.0
 40
3.0
 40
4.0
 40
4.0
 40
4.0
 40
5.0
 40
5.0
 40
5.0
 40
6.0
 40
6.0
 40
6.0
 40
7.0
 40
7.0
 40
7.0
 40
8.0
 40
8.0
 40
8.0
 40
9.0
 40
9.0
 40
9.0
 40
10.0
 40
10.0
 40
10.0
 40
11.0
 40
11.0
 40
11.0
 40
12.0
 40
12.0
 40
12.0
 40
13.0
 40
13.0
 40
13.0
 40
14.0
 40
14.0
 40
14.0
 40
15.0
 40
15.0
 40
15.0
 40
16.0
 40
16.0
 40
16.0
 40
17.0
 40
17.0
 40
17.0
 40
18.0
 40
18.0
 40
18.0
 40
19.0
 40
19.0
 40
19.0
 40
19.0
 10
103.185432916912
 20
-135.42463646788
 30
0.0
 10
103.0900037719706
 20
-135.42463646788
 30
0.0
 10
102.8722737373028
 20
-135.4036213854199
 30
0.0
 10
102.7472167711882
 20
-135.2175862292164
 30
0.0
 10
102.6731472182553
 20
-135.1052761163973
 30
0.0
 10
102.669013103673
 20
-135.0060573664221
 30
0.0
 10
102.6648789890907
 20
-134.921308017485
 30
0.0
 10
102.6648789890907
 20
-134.921308017485
 30
0.0
 10
102.8850205905982
 20
-134.921308017485
 30
0.0
 10
102.8850205905982
 20
-134.921308017485
 30
0.0
 10
102.8870876478893
 20
-134.9953775704178
 30
0.0
 10
102.8974229343451
 20
-135.2299885729634
 30
0.0
 10
103.1809542927812
 20
-135.2299885729634
 30
0.0
 10
103.3184136026426
 20
-135.2299885729634
 30
0.0
 10
103.4710313326392
 20
-135.1603976441613
 30
0.0
 10
103.4710313326392
 20
-134.9319878134892
 30
0.0
 10
103.4710313326392
 20
-134.8155435860878
 30
0.0
 10
103.4327907727529
 20
-134.7669677397458
 30
0.0
 10
103.4010958942886
 20
-134.7352728612815
 30
0.0
 10
103.3270263413557
 20
-134.6612033083486
 30
0.0
 10
103.2105821139543
 20
-134.6484564550532
 30
0.0
 10
103.1558050957388
 20
-134.6484564550532
 30
0.0
 10
103.1365125610214
 20
-134.6484564550532
 30
0.0
 10
103.1006835679748
 20
-134.6505235123443
 30
0.0
 10
103.0731228040928
 20
-134.6546576269266
 30
0.0
 10
103.0731228040928
 20
-134.6546576269266
 30
0.0
 10
103.0731228040928
 20
-134.46000973201
 30
0.0
 10
103.0731228040928
 20
-134.46000973201
 30
0.0
 10
103.1113633639791
 20
-134.466555413432
 30
0.0
 10
103.1533935288992
 20
-134.4686224707231
 30
0.0
 10
103.1599392103211
 20
-134.4686224707231
 30
0.0
 10
103.2253960245409
 20
-134.4686224707231
 30
0.0
 10
103.4241780340398
 20
-134.4472628787146
 30
0.0
 10
103.4241780340398
 20
-134.2105848188779
 30
0.0
 10
103.4241780340398
 20
-134.032817891839
 30
0.0
 10
103.2932644056003
 20
-133.977696364075
 30
0.0
 10
103.1830213500723
 20
-133.977696364075
 30
0.0
 10
102.9187825263536
 20
-133.977696364075
 30
0.0
 10
102.9101697876405
 20
-134.2105848188779
 30
0.0
 10
102.9060356730582
 20
-134.2822428049711
 30
0.0
 10
102.9060356730582
 20
-134.2822428049711
 30
0.0
 10
102.7027750394285
 20
-134.2822428049711
 30
0.0
 10
102.7027750394285
 20
-134.2822428049711
 30
0.0
 10
102.7113877781416
 20
-134.1575303484051
 30
0.0
 10
102.7389485420236
 20
-133.7809814118673
 30
0.0
 10
103.1957682033677
 20
-133.7809814118673
 30
0.0
 10
103.4200439194575
 20
-133.7809814118673
 30
0.0
 10
103.661200603425
 20
-133.908105435273
 30
0.0
 10
103.661200603425
 20
-134.2040391374559
 30
0.0
 10
103.661200603425
 20
-134.390418803208
 30
0.0
 10
103.5661159680321
 20
-134.4727565853054
 30
0.0
 10
103.4665527085084
 20
-134.5340792849429
 30
0.0
 10
103.5278754081458
 20
-134.5616400488249
 30
0.0
 10
103.709776449767
 20
-134.6419107736312
 30
0.0
 10
103.709776449767
 20
-134.9192409601938
 30
0.0
 10
103.709776449767
 20
-135.2575493368453
 30
0.0
 10
103.4624185939261
 20
-135.42463646788
 30
0.0
 10
103.185432916912
 20
-135.42463646788
 30
0.0
  0
HATCH
  5
7A
330
73
100
AcDbEntity
  8
_U+30EC_U+30A4_U+30E4_U+30FC 1
 62
   179
420
  2234388
100
AcDbHatch
 10
0.0
 20
0.0
 30
0.0
210
0.0
220
0.0
230
1.0
  2
SOLID
 70
     1
 71
     0
 91
        1
 92
        1
 93
        1
 72
     4
 94
        3
 73
     0
 74
     1
 95
       62
 96
       58
 40
0.0
 40
0.0
 40
0.0
 40
0.0
 40
1.0
 40
1.0
 40
1.0
 40
2.0
 40
2.0
 40
2.0
 40
3.0
 40
3.0
 40
3.0
 40
4.0
 40
4.0
 40
4.0
 40
5.0
 40
5.0
 40
5.0
 40
6.0
 40
6.0
 40
6.0
 40
7.0
 40
7.0
 40
7.0
 40
8.0
 40
8.0
 40
8.0
 40
9.0
 40
9.0
 40
9.0
 40
10.0
 40
10.0
 40
10.0
 40
11.0
 40
11.0
 40
11.0
 40
12.0
 40
12.0
 40
12.0
 40
13.0
 40
13.0
 40
13.0
 40
14.0
 40
14.0
 40
14.0
 40
15.0
 40
15.0
 40
15.0
 40
16.0
 40
16.0
 40
16.0
 40
17.0
 40
17.0
 40
17.0
 40
18.0
 40
18.0
 40
18.0
 40
19.0
 40
19.0
 40
19.0
 40
19.0
 10
103.185432916912
 20
-135.42463646788
 10
103.0900037719706
 20
-135.42463646788
 10
102.8722737373028
 20
-135.4036213854199
 10
102.7472167711882
 20
-135.2175862292164
 10
102.6731472182553
 20
-135.1052761163973
 10
102.669013103673
 20
-135.0060573664221
 10
102.6648789890907
 20
-134.921308017485
 10
102.6648789890907
 20
-134.921308017485
 10
102.8850205905982
 20
-134.921308017485
 10
102.8850205905982
 20
-134.921308017485
 10
102.8870876478893
 20
-134.9953775704178
 10
102.8974229343451
 20
-135.2299885729634
 10
103.1809542927812
 20
-135.2299885729634
 10
103.3184136026426
 20
-135.2299885729634
 10
103.4710313326392
 20
-135.1603976441613
 10
103.4710313326392
 20
-134.9319878134892
 10
103.4710313326392
 20
-134.8155435860878
 10
103.4327907727529
 20
-134.7669677397458
 10
103.4010958942886
 20
-134.7352728612815
 10
103.3270263413557
 20
-134.6612033083486
 10
103.2105821139543
 20
-134.6484564550532
 10
103.1558050957388
 20
-134.6484564550532
 10
103.1365125610214
 20
-134.6484564550532
 10
103.1006835679748
 20
-134.6505235123443
 10
103.0731228040928
 20
-134.6546576269266
 10
103.0731228040928
 20
-134.6546576269266
 10
103.0731228040928
 20
-134.46000973201
 10
103.0731228040928
 20
-134.46000973201
 10
103.1113633639791
 20
-134.466555413432
 10
103.1533935288992
 20
-134.4686224707231
 10
103.1599392103211
 20
-134.4686224707231
 10
103.2253960245409
 20
-134.4686224707231
 10
103.4241780340398
 20
-134.4472628787146
 10
103.4241780340398
 20
-134.2105848188779
 10
103.4241780340398
 20
-134.032817891839
 10
103.2932644056003
 20
-133.977696364075
 10
103.1830213500723
 20
-133.977696364075
 10
102.9187825263536
 20
-133.977696364075
 10
102.9101697876405
 20
-134.2105848188779
 10
102.9060356730582
 20
-134.2822428049711
 10
102.9060356730582
 20
-134.2822428049711
 10
102.7027750394285
 20
-134.2822428049711
 10
102.7027750394285
 20
-134.2822428049711
 10
102.7113877781416
 20
-134.1575303484051
 10
102.7389485420236
 20
-133.7809814118673
 10
103.1957682033677
 20
-133.7809814118673
 10
103.4200439194575
 20
-133.7809814118673
 10
103.661200603425
 20
-133.908105435273
 10
103.661200603425
 20
-134.2040391374559
 10
103.661200603425
 20
-134.390418803208
 10
103.5661159680321
 20
-134.4727565853054
 10
103.4665527085084
 20
-134.5340792849429
 10
103.5278754081458
 20
-134.5616400488249
 10
103.709776449767
 20
-134.6419107736312
 10
103.709776449767
 20
-134.9192409601938
 10
103.709776449767
 20
-135.2575493368453
 10
103.4624185939261
 20
-135.42463646788
 10
103.185432916912
 20
-135.42463646788
 97
        0
 97
        0
 75
     2
 76
     1
 98
        0
  0
ENDBLK
  5
76
330
73
100
AcDbEntity
  8
0
100
AcDbBlockEnd
  0
BLOCK
  5
90
330
8E
100
AcDbEntity
  8
0
100
AcDbBlockBegin
  2
block 4
 70
     0
 10
0.0
 20
0.0
 30
0.0
  3
block 4
  1

  0
SPLINE
  5
92
330
8E
100
AcDbEntity
  8
_U+30EC_U+30A4_U+30E4_U+30FC 1
370
     0
100
AcDbSpline
210
0.0
220
0.0
230
1.0
 70
    11
 71
     3
 72
    29
 73
    25
 74
     0
 42
0.0000000001
 43
0.0000000001
 12
1.0
 22
0.0
 32
0.0
 13
1.0
 23
0.0
 33
0.0
 40
0.0
 40
0.0
 40
0.0
 40
0.0
 40
1.0
 40
1.0
 40
1.0
 40
2.0
 40
2.0
 40
2.0
 40
3.0
 40
3.0
 40
3.0
 40
4.0
 40
4.0
 40
4.0
 40
5.0
 40
5.0
 40
5.0
 40
6.0
 40
6.0
 40
6.0
 40
7.0
 40
7.0
 40
7.0
 40
8.0
 40
8.0
 40
8.0
 40
8.0
 10
90.01845022706136
 20
-158.4371852902518
 30
0.0
 10
89.75179983650303
 20
-158.4371852902518
 30
0.0
 10
89.49824080878864
 20
-158.2997259803903
 30
0.0
 10
89.49824080878864
 20
-157.9507378077346
 30
0.0
 10
89.49824080878864
 20
-157.6947672131805
 30
0.0
 10
89.6398342332324
 20
-157.5996825777876
 30
0.0
 10
89.74559866462958
 20
-157.5383598781501
 30
0.0
 10
89.62088620806354
 20
-157.4791042358038
 30
0.0
 10
89.54474959783951
 20
-157.3647270656936
 30
0.0
 10
89.54474959783951
 20
-157.2038411065324
 30
0.0
 10
89.54474959783951
 20
-156.9289224868095
 30
0.0
 10
89.74353160733843
 20
-156.7935302342391
 30
0.0
 10
90.01845022706136
 20
-156.7935302342391
 30
0.0
 10
90.30198158549743
 20
-156.7935302342391
 30
0.0
 10
90.49249536583174
 20
-156.9375352255226
 30
0.0
 10
90.49249536583174
 20
-157.2038411065324
 30
0.0
 10
90.49249536583174
 20
-157.3647270656936
 30
0.0
 10
90.41394718876805
 20
-157.4791042358038
 30
0.0
 10
90.289234732202
 20
-157.5383598781501
 30
0.0
 10
90.37811819572144
 20
-157.5890027817833
 30
0.0
 10
90.53693709759146
 20
-157.6840874171762
 30
0.0
 10
90.53693709759146
 20
-157.9466036931522
 30
0.0
 10
90.53693709759146
 20
-158.3210855723989
 30
0.0
 10
90.2575398537377
 20
-158.4371852902518
 30
0.0
 10
90.01845022706136
 20
-158.4371852902518
 30
0.0
  0
SPLINE
  5
93
330
8E
100
AcDbEntity
  8
_U+30EC_U+30A4_U+30E4_U+30FC 1
370
     0
100
AcDbSpline
210
0.0
220
0.0
230
1.0
 70
    11
 71
     3
 72
    17
 73
    13
 74
     0
 42
0.0000000001
 43
0.0000000001
 12
1.0
 22
0.0
 32
0.0
 13
1.0
 23
0.0
 33
0.0
 40
0.0
 40
0.0
 40
0.0
 40
0.0
 40
1.0
 40
1.0
 40
1.0
 40
2.0
 40
2.0
 40
2.0
 40
3.0
 40
3.0
 40
3.0
 40
4.0
 40
4.0
 40
4.0
 40
4.0
 10
90.01845022706136
 20
-157.6461913668385
 30
0.0
 10
89.87478974532644
 20
-157.6461913668385
 30
0.0
 10
89.72217201532987
 20
-157.7330077730668
 30
0.0
 10
89.72217201532987
 20
-157.935923897148
 30
0.0
 10
89.72217201532987
 20
-158.1412515880689
 30
0.0
 10
89.8492960387356
 20
-158.2425373953352
 30
0.0
 10
90.01845022706136
 20
-158.2425373953352
 30
0.0
 10
90.20448538326485
 20
-158.2425373953352
 30
0.0
 10
90.31472843879286
 20
-158.1198919960603
 30
0.0
 10
90.31472843879286
 20
-157.9421250690214
 30
0.0
 10
90.31472843879286
 20
-157.7202609197713
 30
0.0
 10
90.15177542234053
 20
-157.6461913668385
 30
0.0
 10
90.01845022706136
 20
-157.6461913668385
 30
0.0
  0
SPLINE
  5
94
330
8E
100
AcDbEntity
  8
_U+30EC_U+30A4_U+30E4_U+30FC 1
370
     0
100
AcDbSpline
210
0.0
220
0.0
230
1.0
 70
    11
 71
     3
 72
    17
 73
    13
 74
     0
 42
0.0000000001
 43
0.0000000001
 12
1.0
 22
0.0
 32
0.0
 13
1.0
 23
0.0
 33
0.0
 40
0.0
 40
0.0
 40
0.0
 40
0.0
 40
1.0
 40
1.0
 40
1.0
 40
2.0
 40
2.0
 40
2.0
 40
3.0
 40
3.0
 40
3.0
 40
4.0
 40
4.0
 40
4.0
 40
4.0
 10
90.01845022706136
 20
-156.9861110718646
 30
0.0
 10
89.8534301533179
 20
-156.9861110718646
 30
0.0
 10
89.76902531392928
 20
-157.0811957072575
 30
0.0
 10
89.76902531392928
 20
-157.2165879598278
 30
0.0
 10
89.76902531392928
 20
-157.3392333591027
 30
0.0
 10
89.84068330002248
 20
-157.4577446437953
 30
0.0
 10
90.01845022706136
 20
-157.4577446437953
 30
0.0
 10
90.19621715410025
 20
-157.4577446437953
 30
0.0
 10
90.26821964974198
 20
-157.3392333591027
 30
0.0
 10
90.26821964974198
 20
-157.2165879598278
 30
0.0
 10
90.26821964974198
 20
-157.0811957072575
 30
0.0
 10
90.18140324351369
 20
-156.9861110718646
 30
0.0
 10
90.01845022706136
 20
-156.9861110718646
 30
0.0
  0
HATCH
  5
95
330
8E
100
AcDbEntity
  8
_U+30EC_U+30A4_U+30E4_U+30FC 1
 62
   179
420
  2234388
100
AcDbHatch
 10
0.0
 20
0.0
 30
0.0
210
0.0
220
0.0
230
1.0
  2
SOLID
 70
     1
 71
     0
 91
        3
 92
        1
 93
        1
 72
     4
 94
        3
 73
     0
 74
     1
 95
       29
 96
       25
 40
0.0
 40
0.0
 40
0.0
 40
0.0
 40
1.0
 40
1.0
 40
1.0
 40
2.0
 40
2.0
 40
2.0
 40
3.0
 40
3.0
 40
3.0
 40
4.0
 40
4.0
 40
4.0
 40
5.0
 40
5.0
 40
5.0
 40
6.0
 40
6.0
 40
6.0
 40
7.0
 40
7.0
 40
7.0
 40
8.0
 40
8.0
 40
8.0
 40
8.0
 10
90.01845022706136
 20
-158.4371852902518
 10
89.75179983650303
 20
-158.4371852902518
 10
89.49824080878864
 20
-158.2997259803903
 10
89.49824080878864
 20
-157.9507378077346
 10
89.49824080878864
 20
-157.6947672131805
 10
89.6398342332324
 20
-157.5996825777876
 10
89.74559866462958
 20
-157.5383598781501
 10
89.62088620806354
 20
-157.4791042358038
 10
89.54474959783951
 20
-157.3647270656936
 10
89.54474959783951
 20
-157.2038411065324
 10
89.54474959783951
 20
-156.9289224868095
 10
89.74353160733843
 20
-156.7935302342391
 10
90.01845022706136
 20
-156.7935302342391
 10
90.30198158549743
 20
-156.7935302342391
 10
90.49249536583174
 20
-156.9375352255226
 10
90.49249536583174
 20
-157.2038411065324
 10
90.49249536583174
 20
-157.3647270656936
 10
90.41394718876805
 20
-157.4791042358038
 10
90.289234732202
 20
-157.5383598781501
 10
90.37811819572144
 20
-157.5890027817833
 10
90.53693709759146
 20
-157.6840874171762
 10
90.53693709759146
 20
-157.9466036931522
 10
90.53693709759146
 20
-158.3210855723989
 10
90.2575398537377
 20
-158.4371852902518
 10
90.01845022706136
 20
-158.4371852902518
 97
        0
 97
        0
 92
        1
 93
        1
 72
     4
 94
        3
 73
     0
 74
     1
 95
       17
 96
       13
 40
0.0
 40
0.0
 40
0.0
 40
0.0
 40
1.0
 40
1.0
 40
1.0
 40
2.0
 40
2.0
 40
2.0
 40
3.0
 40
3.0
 40
3.0
 40
4.0
 40
4.0
 40
4.0
 40
4.0
 10
90.01845022706136
 20
-157.6461913668385
 10
89.87478974532644
 20
-157.6461913668385
 10
89.72217201532987
 20
-157.7330077730668
 10
89.72217201532987
 20
-157.935923897148
 10
89.72217201532987
 20
-158.1412515880689
 10
89.8492960387356
 20
-158.2425373953352
 10
90.01845022706136
 20
-158.2425373953352
 10
90.20448538326485
 20
-158.2425373953352
 10
90.31472843879286
 20
-158.1198919960603
 10
90.31472843879286
 20
-157.9421250690214
 10
90.31472843879286
 20
-157.7202609197713
 10
90.15177542234053
 20
-157.6461913668385
 10
90.01845022706136
 20
-157.6461913668385
 97
        0
 97
        0
 92
        1
 93
        1
 72
     4
 94
        3
 73
     0
 74
     1
 95
       17
 96
       13
 40
0.0
 40
0.0
 40
0.0
 40
0.0
 40
1.0
 40
1.0
 40
1.0
 40
2.0
 40
2.0
 40
2.0
 40
3.0
 40
3.0
 40
3.0
 40
4.0
 40
4.0
 40
4.0
 40
4.0
 10
90.01845022706136
 20
-156.9861110718646
 10
89.8534301533179
 20
-156.9861110718646
 10
89.76902531392928
 20
-157.0811957072575
 10
89.76902531392928
 20
-157.2165879598278
 10
89.76902531392928
 20
-157.3392333591027
 10
89.84068330002248
 20
-157.4577446437953
 10
90.01845022706136
 20
-157.4577446437953
 10
90.19621715410025
 20
-157.4577446437953
 10
90.26821964974198
 20
-157.3392333591027
 10
90.26821964974198
 20
-157.2165879598278
 10
90.26821964974198
 20
-157.0811957072575
 10
90.18140324351369
 20
-156.9861110718646
 10
90.01845022706136
 20
-156.9861110718646
 97
        0
 97
        0
 75
     2
 76
     1
 98
        0
  0
ENDBLK
  5
91
330
8E
100
AcDbEntity
  8
0
100
AcDbBlockEnd
  0
BLOCK
  5
98
330
96
100
AcDbEntity
  8
0
100
AcDbBlockBegin
  2
block 5
 70
     0
 10
0.0
 20
0.0
 30
0.0
  3
block 5
  1

  0
SPLINE
  5
9A
330
96
100
AcDbEntity
  8
_U+30EC_U+30A4_U+30E4_U+30FC 1
370
     0
100
AcDbSpline
210
0.0
220
0.0
230
1.0
 70
    11
 71
     3
 72
    26
 73
    22
 74
     0
 42
0.0000000001
 43
0.0000000001
 12
1.0
 22
0.0
 32
0.0
 13
1.0
 23
0.0
 33
0.0
 40
0.0
 40
0.0
 40
0.0
 40
0.0
 40
1.0
 40
1.0
 40
1.0
 40
2.0
 40
2.0
 40
2.0
 40
3.0
 40
3.0
 40
3.0
 40
4.0
 40
4.0
 40
4.0
 40
5.0
 40
5.0
 40
5.0
 40
6.0
 40
6.0
 40
6.0
 40
7.0
 40
7.0
 40
7.0
 40
7.0
 10
98.49889727355236
 20
-158.3865423866187
 30
0.0
 10
98.49889727355236
 20
-158.3865423866187
 30
0.0
 10
98.49889727355236
 20
-157.2823892835961
 30
0.0
 10
98.49889727355236
 20
-157.2823892835961
 30
0.0
 10
98.49889727355236
 20
-157.2823892835961
 30
0.0
 10
98.16885712606543
 20
-157.2823892835961
 30
0.0
 10
98.16885712606543
 20
-157.2823892835961
 30
0.0
 10
98.16885712606543
 20
-157.2823892835961
 30
0.0
 10
98.16885712606543
 20
-157.1342501777303
 30
0.0
 10
98.16885712606543
 20
-157.1342501777303
 30
0.0
 10
98.50096433084352
 20
-157.1194362671438
 30
0.0
 10
98.54747311989439
 20
-156.9564832506914
 30
0.0
 10
98.57710094106754
 20
-156.8421060805811
 30
0.0
 10
98.57710094106754
 20
-156.8421060805811
 30
0.0
 10
98.72317298964212
 20
-156.8421060805811
 30
0.0
 10
98.72317298964212
 20
-156.8421060805811
 30
0.0
 10
98.72317298964212
 20
-156.8421060805811
 30
0.0
 10
98.72317298964212
 20
-158.3865423866187
 30
0.0
 10
98.72317298964212
 20
-158.3865423866187
 30
0.0
 10
98.72317298964212
 20
-158.3865423866187
 30
0.0
 10
98.49889727355236
 20
-158.3865423866187
 30
0.0
 10
98.49889727355236
 20
-158.3865423866187
 30
0.0
  0
HATCH
  5
9B
330
96
100
AcDbEntity
  8
_U+30EC_U+30A4_U+30E4_U+30FC 1
 62
   179
420
  2234388
100
AcDbHatch
 10
0.0
 20
0.0
 30
0.0
210
0.0
220
0.0
230
1.0
  2
SOLID
 70
     1
 71
     0
 91
        1
 92
        1
 93
        1
 72
     4
 94
        3
 73
     0
 74
     1
 95
       26
 96
       22
 40
0.0
 40
0.0
 40
0.0
 40
0.0
 40
1.0
 40
1.0
 40
1.0
 40
2.0
 40
2.0
 40
2.0
 40
3.0
 40
3.0
 40
3.0
 40
4.0
 40
4.0
 40
4.0
 40
5.0
 40
5.0
 40
5.0
 40
6.0
 40
6.0
 40
6.0
 40
7.0
 40
7.0
 40
7.0
 40
7.0
 10
98.49889727355236
 20
-158.3865423866187
 10
98.49889727355236
 20
-158.3865423866187
 10
98.49889727355236
 20
-157.2823892835961
 10
98.49889727355236
 20
-157.2823892835961
 10
98.49889727355236
 20
-157.2823892835961
 10
98.16885712606543
 20
-157.2823892835961
 10
98.16885712606543
 20
-157.2823892835961
 10
98.16885712606543
 20
-157.2823892835961
 10
98.16885712606543
 20
-157.1342501777303
 10
98.16885712606543
 20
-157.1342501777303
 10
98.50096433084352
 20
-157.1194362671438
 10
98.54747311989439
 20
-156.9564832506914
 10
98.57710094106754
 20
-156.8421060805811
 10
98.57710094106754
 20
-156.8421060805811
 10
98.72317298964212
 20
-156.8421060805811
 10
98.72317298964212
 20
-156.8421060805811
 10
98.72317298964212
 20
-156.8421060805811
 10
98.72317298964212
 20
-158.3865423866187
 10
98.72317298964212
 20
-158.3865423866187
 10
98.72317298964212
 20
-158.3865423866187
 10
98.49889727355236
 20
-158.3865423866187
 10
98.49889727355236
 20
-158.3865423866187
 97
        0
 97
        0
 75
     2
 76
     1
 98
        0
  0
SPLINE
  5
9C
330
96
100
AcDbEntity
  8
_U+30EC_U+30A4_U+30E4_U+30FC 1
370
     0
100
AcDbSpline
210
0.0
220
0.0
230
1.0
 70
    11
 71
     3
 72
    29
 73
    25
 74
     0
 42
0.0000000001
 43
0.0000000001
 12
1.0
 22
0.0
 32
0.0
 13
1.0
 23
0.0
 33
0.0
 40
0.0
 40
0.0
 40
0.0
 40
0.0
 40
1.0
 40
1.0
 40
1.0
 40
2.0
 40
2.0
 40
2.0
 40
3.0
 40
3.0
 40
3.0
 40
4.0
 40
4.0
 40
4.0
 40
5.0
 40
5.0
 40
5.0
 40
6.0
 40
6.0
 40
6.0
 40
7.0
 40
7.0
 40
7.0
 40
8.0
 40
8.0
 40
8.0
 40
8.0
 10
100.1222262662021
 20
-158.2087754595798
 30
0.0
 10
100.0140502679652
 20
-158.418237265083
 30
0.0
 10
99.84076196505717
 20
-158.4371852902518
 30
0.0
 10
99.72431773765572
 20
-158.4371852902518
 30
0.0
 10
99.56343177849456
 20
-158.4371852902518
 30
0.0
 10
99.42183835405079
 20
-158.3906765012009
 30
0.0
 10
99.3267537186579
 20
-158.2087754595798
 30
0.0
 10
99.22305634455188
 20
-158.0141275646631
 30
0.0
 10
99.20410831938301
 20
-157.7774495048265
 30
0.0
 10
99.20410831938301
 20
-157.6144964883742
 30
0.0
 10
99.20410831938301
 20
-157.4704914970907
 30
0.0
 10
99.22098928726074
 20
-157.2186550171189
 30
0.0
 10
99.3267537186579
 20
-157.01987300762
 30
0.0
 10
99.43458520734622
 20
-156.8169568835388
 30
0.0
 10
99.59547116650738
 20
-156.7935302342391
 30
0.0
 10
99.72431773765572
 20
-156.7935302342391
 30
0.0
 10
99.88313663952574
 20
-156.7935302342391
 30
0.0
 10
100.0267971212607
 20
-156.8379719659989
 30
0.0
 10
100.1222262662021
 20
-157.01987300762
 30
0.0
 10
100.2214450161773
 20
-157.2124538452455
 30
0.0
 10
100.244871665477
 20
-157.4408636759176
 30
0.0
 10
100.244871665477
 20
-157.6144964883742
 30
0.0
 10
100.244871665477
 20
-157.7857177339911
 30
0.0
 10
100.2235120734684
 20
-158.0161946219543
 30
0.0
 10
100.1222262662021
 20
-158.2087754595798
 30
0.0
  0
SPLINE
  5
9D
330
96
100
AcDbEntity
  8
_U+30EC_U+30A4_U+30E4_U+30FC 1
370
     0
100
AcDbSpline
210
0.0
220
0.0
230
1.0
 70
    11
 71
     3
 72
    17
 73
    13
 74
     0
 42
0.0000000001
 43
0.0000000001
 12
1.0
 22
0.0
 32
0.0
 13
1.0
 23
0.0
 33
0.0
 40
0.0
 40
0.0
 40
0.0
 40
0.0
 40
1.0
 40
1.0
 40
1.0
 40
2.0
 40
2.0
 40
2.0
 40
3.0
 40
3.0
 40
3.0
 40
4.0
 40
4.0
 40
4.0
 40
4.0
 10
99.72431773765572
 20
-156.9861110718646
 30
0.0
 10
99.47489282452364
 20
-156.9861110718646
 30
0.0
 10
99.42803952592425
 20
-157.2696424303006
 30
0.0
 10
99.42803952592425
 20
-157.6144964883742
 30
0.0
 10
99.42803952592425
 20
-157.9338568398568
 30
0.0
 10
99.46421302851937
 20
-158.2425373953352
 30
0.0
 10
99.72431773765572
 20
-158.2425373953352
 30
0.0
 10
99.9720201030452
 20
-158.2425373953352
 30
0.0
 10
100.0205959493872
 20
-157.9614176037388
 30
0.0
 10
100.0205959493872
 20
-157.6144964883742
 30
0.0
 10
100.0205959493872
 20
-157.294791627343
 30
0.0
 10
99.98235538950094
 20
-156.9861110718646
 30
0.0
 10
99.72431773765572
 20
-156.9861110718646
 30
0.0
  0
HATCH
  5
9E
330
96
100
AcDbEntity
  8
_U+30EC_U+30A4_U+30E4_U+30FC 1
 62
   179
420
  2234388
100
AcDbHatch
 10
0.0
 20
0.0
 30
0.0
210
0.0
220
0.0
230
1.0
  2
SOLID
 70
     1
 71
     0
 91
        2
 92
        1
 93
        1
 72
     4
 94
        3
 73
     0
 74
     1
 95
       29
 96
       25
 40
0.0
 40
0.0
 40
0.0
 40
0.0
 40
1.0
 40
1.0
 40
1.0
 40
2.0
 40
2.0
 40
2.0
 40
3.0
 40
3.0
 40
3.0
 40
4.0
 40
4.0
 40
4.0
 40
5.0
 40
5.0
 40
5.0
 40
6.0
 40
6.0
 40
6.0
 40
7.0
 40
7.0
 40
7.0
 40
8.0
 40
8.0
 40
8.0
 40
8.0
 10
100.1222262662021
 20
-158.2087754595798
 10
100.0140502679652
 20
-158.418237265083
 10
99.84076196505717
 20
-158.4371852902518
 10
99.72431773765572
 20
-158.4371852902518
 10
99.56343177849456
 20
-158.4371852902518
 10
99.42183835405079
 20
-158.3906765012009
 10
99.3267537186579
 20
-158.2087754595798
 10
99.22305634455188
 20
-158.0141275646631
 10
99.20410831938301
 20
-157.7774495048265
 10
99.20410831938301
 20
-157.6144964883742
 10
99.20410831938301
 20
-157.4704914970907
 10
99.22098928726074
 20
-157.2186550171189
 10
99.3267537186579
 20
-157.01987300762
 10
99.43458520734622
 20
-156.8169568835388
 10
99.59547116650738
 20
-156.7935302342391
 10
99.72431773765572
 20
-156.7935302342391
 10
99.88313663952574
 20
-156.7935302342391
 10
100.0267971212607
 20
-156.8379719659989
 10
100.1222262662021
 20
-157.01987300762
 10
100.2214450161773
 20
-157.2124538452455
 10
100.244871665477
 20
-157.4408636759176
 10
100.244871665477
 20
-157.6144964883742
 10
100.244871665477
 20
-157.7857177339911
 10
100.2235120734684
 20
-158.0161946219543
 10
100.1222262662021
 20
-158.2087754595798
 97
        0
 97
        0
 92
        1
 93
        1
 72
     4
 94
        3
 73
     0
 74
     1
 95
       17
 96
       13
 40
0.0
 40
0.0
 40
0.0
 40
0.0
 40
1.0
 40
1.0
 40
1.0
 40
2.0
 40
2.0
 40
2.0
 40
3.0
 40
3.0
 40
3.0
 40
4.0
 40
4.0
 40
4.0
 40
4.0
 10
99.72431773765572
 20
-156.9861110718646
 10
99.47489282452364
 20
-156.9861110718646
 10
99.42803952592425
 20
-157.2696424303006
 10
99.42803952592425
 20
-157.6144964883742
 10
99.42803952592425
 20
-157.9338568398568
 10
99.46421302851937
 20
-158.2425373953352
 10
99.72431773765572
 20
-158.2425373953352
 10
99.9720201030452
 20
-158.2425373953352
 10
100.0205959493872
 20
-157.9614176037388
 10
100.0205959493872
 20
-157.6144964883742
 10
100.0205959493872
 20
-157.294791627343
 10
99.98235538950094
 20
-156.9861110718646
 10
99.72431773765572
 20
-156.9861110718646
 97
        0
 97
        0
 75
     2
 76
     1
 98
        0
  0
ENDBLK
  5
99
330
96
100
AcDbEntity
  8
0
100
AcDbBlockEnd
  0
BLOCK
  5
A5
330
A3
100
AcDbEntity
  8
0
100
AcDbBlockBegin
  2
block 6
 70
     0
 10
0.0
 20
0.0
 30
0.0
  3
block 6
  1

  0
SPLINE
  5
A7
330
A3
100
AcDbEntity
  8
_U+30EC_U+30A4_U+30E4_U+30FC 1
370
     0
100
AcDbSpline
210
0.0
220
0.0
230
1.0
 70
    11
 71
     3
 72
    17
 73
    13
 74
     0
 42
0.0000000001
 43
0.0000000001
 12
1.0
 22
0.0
 32
0.0
 13
1.0
 23
0.0
 33
0.0
 40
0.0
 40
0.0
 40
0.0
 40
0.0
 40
1.0
 40
1.0
 40
1.0
 40
2.0
 40
2.0
 40
2.0
 40
3.0
 40
3.0
 40
3.0
 40
4.0
 40
4.0
 40
4.0
 40
4.0
 10
107.4222113446722
 20
-159.6867214227519
 30
0.0
 10
107.3164469132751
 20
-159.5809569913548
 30
0.0
 10
107.2358316789202
 20
-159.543060941017
 30
0.0
 10
107.1428141008185
 20
-159.5113660625527
 30
0.0
 10
107.1428141008185
 20
-159.5113660625527
 30
0.0
 10
107.2530571563465
 20
-159.3463459888092
 30
0.0
 10
107.2530571563465
 20
-159.3463459888092
 30
0.0
 10
107.3502088490305
 20
-159.3887206632778
 30
0.0
 10
107.4707871910143
 20
-159.466924330793
 30
0.0
 10
107.5238416614871
 20
-159.5217013490085
 30
0.0
 10
107.5238416614871
 20
-159.5217013490085
 30
0.0
 10
107.4222113446722
 20
-159.6867214227519
 30
0.0
 10
107.4222113446722
 20
-159.6867214227519
 30
0.0
  0
SPLINE
  5
A8
330
A3
100
AcDbEntity
  8
_U+30EC_U+30A4_U+30E4_U+30FC 1
370
     0
100
AcDbSpline
210
0.0
220
0.0
230
1.0
 70
    11
 71
     3
 72
   182
 73
   178
 74
     0
 42
0.0000000001
 43
0.0000000001
 12
1.0
 22
0.0
 32
0.0
 13
1.0
 23
0.0
 33
0.0
 40
0.0
 40
0.0
 40
0.0
 40
0.0
 40
1.0
 40
1.0
 40
1.0
 40
2.0
 40
2.0
 40
2.0
 40
3.0
 40
3.0
 40
3.0
 40
4.0
 40
4.0
 40
4.0
 40
5.0
 40
5.0
 40
5.0
 40
6.0
 40
6.0
 40
6.0
 40
7.0
 40
7.0
 40
7.0
 40
8.0
 40
8.0
 40
8.0
 40
9.0
 40
9.0
 40
9.0
 40
10.0
 40
10.0
 40
10.0
 40
11.0
 40
11.0
 40
11.0
 40
12.0
 40
12.0
 40
12.0
 40
13.0
 40
13.0
 40
13.0
 40
14.0
 40
14.0
 40
14.0
 40
15.0
 40
15.0
 40
15.0
 40
16.0
 40
16.0
 40
16.0
 40
17.0
 40
17.0
 40
17.0
 40
18.0
 40
18.0
 40
18.0
 40
19.0
 40
19.0
 40
19.0
 40
20.0
 40
20.0
 40
20.0
 40
21.0
 40
21.0
 40
21.0
 40
22.0
 40
22.0
 40
22.0
 40
23.0
 40
23.0
 40
23.0
 40
24.0
 40
24.0
 40
24.0
 40
25.0
 40
25.0
 40
25.0
 40
26.0
 40
26.0
 40
26.0
 40
27.0
 40
27.0
 40
27.0
 40
28.0
 40
28.0
 40
28.0
 40
29.0
 40
29.0
 40
29.0
 40
30.0
 40
30.0
 40
30.0
 40
31.0
 40
31.0
 40
31.0
 40
32.0
 40
32.0
 40
32.0
 40
33.0
 40
33.0
 40
33.0
 40
34.0
 40
34.0
 40
34.0
 40
35.0
 40
35.0
 40
35.0
 40
36.0
 40
36.0
 40
36.0
 40
37.0
 40
37.0
 40
37.0
 40
38.0
 40
38.0
 40
38.0
 40
39.0
 40
39.0
 40
39.0
 40
40.0
 40
40.0
 40
40.0
 40
41.0
 40
41.0
 40
41.0
 40
42.0
 40
42.0
 40
42.0
 40
43.0
 40
43.0
 40
43.0
 40
44.0
 40
44.0
 40
44.0
 40
45.0
 40
45.0
 40
45.0
 40
46.0
 40
46.0
 40
46.0
 40
47.0
 40
47.0
 40
47.0
 40
48.0
 40
48.0
 40
48.0
 40
49.0
 40
49.0
 40
49.0
 40
50.0
 40
50.0
 40
50.0
 40
51.0
 40
51.0
 40
51.0
 40
52.0
 40
52.0
 40
52.0
 40
53.0
 40
53.0
 40
53.0
 40
54.0
 40
54.0
 40
54.0
 40
55.0
 40
55.0
 40
55.0
 40
56.0
 40
56.0
 40
56.0
 40
57.0
 40
57.0
 40
57.0
 40
58.0
 40
58.0
 40
58.0
 40
59.0
 40
59.0
 40
59.0
 40
59.0
 10
108.4671088053485
 20
-160.8652885882559
 30
0.0
 10
108.4671088053485
 20
-160.8652885882559
 30
0.0
 10
107.8304551596743
 20
-160.8652885882559
 30
0.0
 10
107.8304551596743
 20
-160.8652885882559
 30
0.0
 10
107.6168592395888
 20
-160.8652885882559
 30
0.0
 10
107.4008517526637
 20
-160.8694227028382
 30
0.0
 10
107.1872558325782
 20
-160.8821695561336
 30
0.0
 10
107.1872558325782
 20
-160.8821695561336
 30
0.0
 10
107.1872558325782
 20
-160.6747748079216
 30
0.0
 10
107.1872558325782
 20
-160.6747748079216
 30
0.0
 10
107.4094644913768
 20
-160.687521661217
 30
0.0
 10
107.7329589574418
 20
-160.6916557757993
 30
0.0
 10
107.8304551596743
 20
-160.6916557757993
 30
0.0
 10
107.8304551596743
 20
-160.6916557757993
 30
0.0
 10
108.0505967611818
 20
-160.6916557757993
 30
0.0
 10
108.0505967611818
 20
-160.6916557757993
 30
0.0
 10
108.0505967611818
 20
-160.6916557757993
 30
0.0
 10
108.0505967611818
 20
-160.5500623513555
 30
0.0
 10
108.0505967611818
 20
-160.5500623513555
 30
0.0
 10
108.0505967611818
 20
-160.5500623513555
 30
0.0
 10
107.8897108020206
 20
-160.5500623513555
 30
0.0
 10
107.8897108020206
 20
-160.5500623513555
 30
0.0
 10
107.7246907282772
 20
-160.5500623513555
 30
0.0
 10
107.5596706545337
 20
-160.5541964659378
 30
0.0
 10
107.3946505807902
 20
-160.5690103765244
 30
0.0
 10
107.3946505807902
 20
-160.5690103765244
 30
0.0
 10
107.3946505807902
 20
-160.3595485710212
 30
0.0
 10
107.3946505807902
 20
-160.3595485710212
 30
0.0
 10
107.5658718264071
 20
-160.3743624816078
 30
0.0
 10
107.8135741917966
 20
-160.3784965961901
 30
0.0
 10
107.8897108020206
 20
-160.3784965961901
 30
0.0
 10
107.8897108020206
 20
-160.3784965961901
 30
0.0
 10
108.0505967611818
 20
-160.3784965961901
 30
0.0
 10
108.0505967611818
 20
-160.3784965961901
 30
0.0
 10
108.046118137051
 20
-160.3068386100969
 30
0.0
 10
108.046118137051
 20
-160.3002929286749
 30
0.0
 10
108.0399169651775
 20
-160.2475829677506
 30
0.0
 10
108.0399169651775
 20
-160.2475829677506
 30
0.0
 10
108.1794433323301
 20
-160.2623968783372
 30
0.0
 10
108.1794433323301
 20
-160.2623968783372
 30
0.0
 10
108.1794433323301
 20
-160.2623968783372
 30
0.0
 10
108.0802245823549
 20
-160.0908311231717
 30
0.0
 10
108.0802245823549
 20
-160.0908311231717
 30
0.0
 10
108.1267333714058
 20
-160.0973768045937
 30
0.0
 10
108.2008029243387
 20
-160.1056450337583
 30
0.0
 10
108.2176838922164
 20
-160.1056450337583
 30
0.0
 10
108.2683267958496
 20
-160.1056450337583
 30
0.0
 10
108.2852077637273
 20
-160.0846299512983
 30
0.0
 10
108.2852077637273
 20
-160.0274413662432
 30
0.0
 10
108.2852077637273
 20
-160.0274413662432
 30
0.0
 10
108.2852077637273
 20
-159.8899820563817
 30
0.0
 10
108.2852077637273
 20
-159.8899820563817
 30
0.0
 10
108.2852077637273
 20
-159.8899820563817
 30
0.0
 10
108.1794433323301
 20
-159.8899820563817
 30
0.0
 10
108.1794433323301
 20
-159.8899820563817
 30
0.0
 10
108.046118137051
 20
-159.8899820563817
 30
0.0
 10
107.8897108020206
 20
-159.8899820563817
 30
0.0
 10
107.7670654027457
 20
-159.9027289096771
 30
0.0
 10
107.7670654027457
 20
-159.9027289096771
 30
0.0
 10
107.7670654027457
 20
-159.7122151293428
 30
0.0
 10
107.7670654027457
 20
-159.7122151293428
 30
0.0
 10
107.9341525337803
 20
-159.7290960972205
 30
0.0
 10
108.1646294217436
 20
-159.7311631545116
 30
0.0
 10
108.1794433323301
 20
-159.7311631545116
 30
0.0
 10
108.1794433323301
 20
-159.7311631545116
 30
0.0
 10
108.2852077637273
 20
-159.7311631545116
 30
0.0
 10
108.2852077637273
 20
-159.7311631545116
 30
0.0
 10
108.2852077637273
 20
-159.7311631545116
 30
0.0
 10
108.2852077637273
 20
-159.6002495260722
 30
0.0
 10
108.2852077637273
 20
-159.6002495260722
 30
0.0
 10
108.2852077637273
 20
-159.6002495260722
 30
0.0
 10
108.2473117133896
 20
-159.6002495260722
 30
0.0
 10
108.2473117133896
 20
-159.6002495260722
 30
0.0
 10
108.2028699816298
 20
-159.6002495260722
 30
0.0
 10
108.0778130155153
 20
-159.6043836406545
 30
0.0
 10
107.9889295519958
 20
-159.6126518698191
 30
0.0
 10
107.9889295519958
 20
-159.6126518698191
 30
0.0
 10
107.9889295519958
 20
-159.5323811450127
 30
0.0
 10
107.9889295519958
 20
-159.5323811450127
 30
0.0
 10
107.9362195910715
 20
-159.570621704899
 30
0.0
 10
107.9107258844807
 20
-159.5854356154856
 30
0.0
 10
107.8683512100121
 20
-159.6085177552368
 30
0.0
 10
107.8683512100121
 20
-159.6085177552368
 30
0.0
 10
107.6802489965174
 20
-159.4796711840884
 30
0.0
 10
107.6802489965174
 20
-159.4796711840884
 30
0.0
 10
107.7584526640326
 20
-159.4455647387844
 30
0.0
 10
107.9152045086115
 20
-159.3821749818559
 30
0.0
 10
108.0716118436418
 20
-159.2385145001209
 30
0.0
 10
108.1539496257393
 20
-159.1599663230572
 30
0.0
 10
108.232497802803
 20
-159.0755614836686
 30
0.0
 10
108.2852077637273
 20
-158.9739311668538
 30
0.0
 10
108.2852077637273
 20
-158.9739311668538
 30
0.0
 10
108.4967366265217
 20
-159.0352538664912
 30
0.0
 10
108.4967366265217
 20
-159.0352538664912
 30
0.0
 10
108.516029161239
 20
-159.0414550383646
 30
0.0
 10
108.5263644476948
 20
-159.0500677770778
 30
0.0
 10
108.5263644476948
 20
-159.0628146303732
 30
0.0
 10
108.5263644476948
 20
-159.0796955982509
 30
0.0
 10
108.5136175943994
 20
-159.0858967701244
 30
0.0
 10
108.4884683973571
 20
-159.0986436234198
 30
0.0
 10
108.5687391221634
 20
-159.1961398256524
 30
0.0
 10
108.7316921386157
 20
-159.2932915183364
 30
0.0
 10
108.7654540743711
 20
-159.3122395435053
 30
0.0
 10
108.915660237528
 20
-159.4011230070247
 30
0.0
 10
109.0300374076383
 20
-159.4286837709067
 30
0.0
 10
109.1082410751535
 20
-159.4476317960756
 30
0.0
 10
109.1082410751535
 20
-159.4476317960756
 30
0.0
 10
108.9897297904609
 20
-159.6171304939499
 30
0.0
 10
108.9897297904609
 20
-159.6171304939499
 30
0.0
 10
108.9049804415238
 20
-159.5875026727767
 30
0.0
 10
108.8543375378906
 20
-159.5685546476079
 30
0.0
 10
108.735826253198
 20
-159.5027533238396
 30
0.0
 10
108.735826253198
 20
-159.5027533238396
 30
0.0
 10
108.735826253198
 20
-159.6126518698191
 30
0.0
 10
108.735826253198
 20
-159.6126518698191
 30
0.0
 10
108.6534884711005
 20
-159.6043836406545
 30
0.0
 10
108.5263644476948
 20
-159.6002495260722
 30
0.0
 10
108.4736544867705
 20
-159.6002495260722
 30
0.0
 10
108.4736544867705
 20
-159.6002495260722
 30
0.0
 10
108.4736544867705
 20
-159.7311631545116
 30
0.0
 10
108.4736544867705
 20
-159.7311631545116
 30
0.0
 10
108.4736544867705
 20
-159.7311631545116
 30
0.0
 10
108.5942328287542
 20
-159.7311631545116
 30
0.0
 10
108.5942328287542
 20
-159.7311631545116
 30
0.0
 10
108.5962998860454
 20
-159.7311631545116
 30
0.0
 10
108.8288438312997
 20
-159.7290960972205
 30
0.0
 10
109.0066107583386
 20
-159.7122151293428
 30
0.0
 10
109.0066107583386
 20
-159.7122151293428
 30
0.0
 10
109.0066107583386
 20
-159.9027289096771
 30
0.0
 10
109.0066107583386
 20
-159.9027289096771
 30
0.0
 10
108.8777641871903
 20
-159.8899820563817
 30
0.0
 10
108.7210123426114
 20
-159.8899820563817
 30
0.0
 10
108.5942328287542
 20
-159.8899820563817
 30
0.0
 10
108.5942328287542
 20
-159.8899820563817
 30
0.0
 10
108.4736544867705
 20
-159.8899820563817
 30
0.0
 10
108.4736544867705
 20
-159.8899820563817
 30
0.0
 10
108.4736544867705
 20
-159.8899820563817
 30
0.0
 10
108.4736544867705
 20
-160.1163248297626
 30
0.0
 10
108.4736544867705
 20
-160.1163248297626
 30
0.0
 10
108.4736544867705
 20
-160.2348361144552
 30
0.0
 10
108.4481607801796
 20
-160.2706651075018
 30
0.0
 10
108.2872748210185
 20
-160.2854790180884
 30
0.0
 10
108.2917534451493
 20
-160.3044270432572
 30
0.0
 10
108.2852077637273
 20
-160.3151068392615
 30
0.0
 10
108.2473117133896
 20
-160.3385334885612
 30
0.0
 10
108.2452446560984
 20
-160.3574815137301
 30
0.0
 10
108.2452446560984
 20
-160.3636826856035
 30
0.0
 10
108.2428330892587
 20
-160.3784965961901
 30
0.0
 10
108.2428330892587
 20
-160.3784965961901
 30
0.0
 10
108.3802923991202
 20
-160.3784965961901
 30
0.0
 10
108.3802923991202
 20
-160.3784965961901
 30
0.0
 10
108.5453124728637
 20
-160.3784965961901
 30
0.0
 10
108.7127441134468
 20
-160.3743624816078
 30
0.0
 10
108.8798312444814
 20
-160.3595485710212
 30
0.0
 10
108.8798312444814
 20
-160.3595485710212
 30
0.0
 10
108.8798312444814
 20
-160.5669433192333
 30
0.0
 10
108.8798312444814
 20
-160.5669433192333
 30
0.0
 10
108.6638237575563
 20
-160.5500623513555
 30
0.0
 10
108.3995849338376
 20
-160.5500623513555
 30
0.0
 10
108.3802923991202
 20
-160.5500623513555
 30
0.0
 10
108.3802923991202
 20
-160.5500623513555
 30
0.0
 10
108.2407660319676
 20
-160.5500623513555
 30
0.0
 10
108.2407660319676
 20
-160.5500623513555
 30
0.0
 10
108.2407660319676
 20
-160.5500623513555
 30
0.0
 10
108.2407660319676
 20
-160.6916557757993
 30
0.0
 10
108.2407660319676
 20
-160.6916557757993
 30
0.0
 10
108.2407660319676
 20
-160.6916557757993
 30
0.0
 10
108.4671088053485
 20
-160.6916557757993
 30
0.0
 10
108.4671088053485
 20
-160.6916557757993
 30
0.0
 10
108.6831162922737
 20
-160.6916557757993
 30
0.0
 10
108.9008463269415
 20
-160.687521661217
 30
0.0
 10
109.1165093043181
 20
-160.6747748079216
 30
0.0
 10
109.1165093043181
 20
-160.6747748079216
 30
0.0
 10
109.1165093043181
 20
-160.8821695561336
 30
0.0
 10
109.1165093043181
 20
-160.8821695561336
 30
0.0
 10
108.8353895127217
 20
-160.8652885882559
 30
0.0
 10
108.4905354546482
 20
-160.8652885882559
 30
0.0
 10
108.4671088053485
 20
-160.8652885882559
 30
0.0
  0
SPLINE
  5
A9
330
A3
100
AcDbEntity
  8
_U+30EC_U+30A4_U+30E4_U+30FC 1
370
     0
100
AcDbSpline
210
0.0
220
0.0
230
1.0
 70
    11
 71
     3
 72
    23
 73
    19
 74
     0
 42
0.0000000001
 43
0.0000000001
 12
1.0
 22
0.0
 32
0.0
 13
1.0
 23
0.0
 33
0.0
 40
0.0
 40
0.0
 40
0.0
 40
0.0
 40
1.0
 40
1.0
 40
1.0
 40
2.0
 40
2.0
 40
2.0
 40
3.0
 40
3.0
 40
3.0
 40
4.0
 40
4.0
 40
4.0
 40
5.0
 40
5.0
 40
5.0
 40
6.0
 40
6.0
 40
6.0
 40
6.0
 10
107.3481417917394
 20
-160.2369031717463
 30
0.0
 10
107.3481417917394
 20
-160.2579182542064
 30
0.0
 10
107.3502088490305
 20
-160.2961588140926
 30
0.0
 10
107.3247151424397
 20
-160.2961588140926
 30
0.0
 10
107.3143798559839
 20
-160.2961588140926
 30
0.0
 10
107.3057671172708
 20
-160.2896131326707
 30
0.0
 10
107.2950873212665
 20
-160.2727321647929
 30
0.0
 10
107.2950873212665
 20
-160.2727321647929
 30
0.0
 10
107.1913899471605
 20
-160.0908311231717
 30
0.0
 10
107.1913899471605
 20
-160.0908311231717
 30
0.0
 10
107.4073974340857
 20
-159.9619845520234
 30
0.0
 10
107.6041123862934
 20
-159.6846543654608
 30
0.0
 10
107.6506211753443
 20
-159.6126518698191
 30
0.0
 10
107.6506211753443
 20
-159.6126518698191
 30
0.0
 10
107.722623670986
 20
-159.7924858541491
 30
0.0
 10
107.722623670986
 20
-159.7924858541491
 30
0.0
 10
107.5892984757068
 20
-159.9892008063569
 30
0.0
 10
107.4135986059591
 20
-160.1735134148177
 30
0.0
 10
107.3481417917394
 20
-160.2369031717463
 30
0.0
  0
SPLINE
  5
AA
330
A3
100
AcDbEntity
  8
_U+30EC_U+30A4_U+30E4_U+30FC 1
370
     0
100
AcDbSpline
210
0.0
220
0.0
230
1.0
 70
    11
 71
     3
 72
    17
 73
    13
 74
     0
 42
0.0000000001
 43
0.0000000001
 12
1.0
 22
0.0
 32
0.0
 13
1.0
 23
0.0
 33
0.0
 40
0.0
 40
0.0
 40
0.0
 40
0.0
 40
1.0
 40
1.0
 40
1.0
 40
2.0
 40
2.0
 40
2.0
 40
3.0
 40
3.0
 40
3.0
 40
4.0
 40
4.0
 40
4.0
 40
4.0
 10
107.6020453290023
 20
-159.3418673646784
 30
0.0
 10
107.5407226293648
 20
-159.2657307544544
 30
0.0
 10
107.411531548668
 20
-159.1895941442304
 30
0.0
 10
107.3078341745619
 20
-159.1599663230572
 30
0.0
 10
107.3078341745619
 20
-159.1599663230572
 30
0.0
 10
107.4032633195034
 20
-158.9949462493138
 30
0.0
 10
107.4032633195034
 20
-158.9949462493138
 30
0.0
 10
107.5045491267697
 20
-159.0311197519089
 30
0.0
 10
107.6103135581669
 20
-159.088308336964
 30
0.0
 10
107.6991970216863
 20
-159.1685790617704
 30
0.0
 10
107.6991970216863
 20
-159.1685790617704
 30
0.0
 10
107.6020453290023
 20
-159.3418673646784
 30
0.0
 10
107.6020453290023
 20
-159.3418673646784
 30
0.0
  0
SPLINE
  5
AB
330
A3
100
AcDbEntity
  8
_U+30EC_U+30A4_U+30E4_U+30FC 1
370
     0
100
AcDbSpline
210
0.0
220
0.0
230
1.0
 70
    11
 71
     3
 72
    23
 73
    19
 74
     0
 42
0.0000000001
 43
0.0000000001
 12
1.0
 22
0.0
 32
0.0
 13
1.0
 23
0.0
 33
0.0
 40
0.0
 40
0.0
 40
0.0
 40
0.0
 40
1.0
 40
1.0
 40
1.0
 40
2.0
 40
2.0
 40
2.0
 40
3.0
 40
3.0
 40
3.0
 40
4.0
 40
4.0
 40
4.0
 40
5.0
 40
5.0
 40
5.0
 40
6.0
 40
6.0
 40
6.0
 40
6.0
 10
108.0547308757641
 20
-160.046389391412
 30
0.0
 10
108.0333712837556
 20
-160.0698160407117
 30
0.0
 10
107.9362195910715
 20
-160.1817816439823
 30
0.0
 10
107.7966932239189
 20
-160.2623968783372
 30
0.0
 10
107.7966932239189
 20
-160.2623968783372
 30
0.0
 10
107.6296060928843
 20
-160.1418185363534
 30
0.0
 10
107.6296060928843
 20
-160.1418185363534
 30
0.0
 10
107.7798122560412
 20
-160.0656819261294
 30
0.0
 10
107.8790310060164
 20
-159.970252781188
 30
0.0
 10
107.9276068523584
 20
-159.9175428202637
 30
0.0
 10
107.9276068523584
 20
-159.9175428202637
 30
0.0
 10
108.101239664815
 20
-159.9998806023611
 30
0.0
 10
108.101239664815
 20
-159.9998806023611
 30
0.0
 10
108.1095078939796
 20
-160.0040147169435
 30
0.0
 10
108.1181206326927
 20
-160.0105603983654
 30
0.0
 10
108.1181206326927
 20
-160.0212401943697
 30
0.0
 10
108.1181206326927
 20
-160.046389391412
 30
0.0
 10
108.0822916396461
 20
-160.046389391412
 30
0.0
 10
108.0547308757641
 20
-160.046389391412
 30
0.0
  0
SPLINE
  5
AC
330
A3
100
AcDbEntity
  8
_U+30EC_U+30A4_U+30E4_U+30FC 1
370
     0
100
AcDbSpline
210
0.0
220
0.0
230
1.0
 70
    11
 71
     3
 72
    20
 73
    16
 74
     0
 42
0.0000000001
 43
0.0000000001
 12
1.0
 22
0.0
 32
0.0
 13
1.0
 23
0.0
 33
0.0
 40
0.0
 40
0.0
 40
0.0
 40
0.0
 40
1.0
 40
1.0
 40
1.0
 40
2.0
 40
2.0
 40
2.0
 40
3.0
 40
3.0
 40
3.0
 40
4.0
 40
4.0
 40
4.0
 40
5.0
 40
5.0
 40
5.0
 40
5.0
 10
108.3530761447867
 20
-159.204408054817
 30
0.0
 10
108.3148355849005
 20
-159.2533284107075
 30
0.0
 10
108.253512885263
 20
-159.3315320782227
 30
0.0
 10
108.1139865181104
 20
-159.4414306242022
 30
0.0
 10
108.1942572429167
 20
-159.4455647387844
 30
0.0
 10
108.2238850640899
 20
-159.4455647387844
 30
0.0
 10
108.2473117133896
 20
-159.4455647387844
 30
0.0
 10
108.2473117133896
 20
-159.4455647387844
 30
0.0
 10
108.4757215440616
 20
-159.4455647387844
 30
0.0
 10
108.4757215440616
 20
-159.4455647387844
 30
0.0
 10
108.5074164225259
 20
-159.4455647387844
 30
0.0
 10
108.555992268868
 20
-159.4434976814933
 30
0.0
 10
108.6300618218008
 20
-159.4414306242022
 30
0.0
 10
108.5180962185302
 20
-159.3673610712693
 30
0.0
 10
108.4691758626397
 20
-159.3208522822184
 30
0.0
 10
108.3530761447867
 20
-159.204408054817
 30
0.0
  0
SPLINE
  5
AD
330
A3
100
AcDbEntity
  8
_U+30EC_U+30A4_U+30E4_U+30FC 1
370
     0
100
AcDbSpline
210
0.0
220
0.0
230
1.0
 70
    11
 71
     3
 72
    17
 73
    13
 74
     0
 42
0.0000000001
 43
0.0000000001
 12
1.0
 22
0.0
 32
0.0
 13
1.0
 23
0.0
 33
0.0
 40
0.0
 40
0.0
 40
0.0
 40
0.0
 40
1.0
 40
1.0
 40
1.0
 40
2.0
 40
2.0
 40
2.0
 40
3.0
 40
3.0
 40
3.0
 40
4.0
 40
4.0
 40
4.0
 40
4.0
 10
108.9135931802369
 20
-160.2599853114975
 30
0.0
 10
108.7782009276666
 20
-160.1480197082269
 30
0.0
 10
108.6724364962694
 20
-160.0846299512983
 30
0.0
 10
108.5539252115768
 20
-160.0212401943697
 30
0.0
 10
108.5539252115768
 20
-160.0212401943697
 30
0.0
 10
108.680704725434
 20
-159.9089300815506
 30
0.0
 10
108.680704725434
 20
-159.9089300815506
 30
0.0
 10
108.811962863422
 20
-159.9554388706014
 30
0.0
 10
108.9218614094015
 20
-160.0126274556566
 30
0.0
 10
109.0469183755161
 20
-160.1142577724714
 30
0.0
 10
109.0469183755161
 20
-160.1142577724714
 30
0.0
 10
108.9135931802369
 20
-160.2599853114975
 30
0.0
 10
108.9135931802369
 20
-160.2599853114975
 30
0.0
  0
HATCH
  5
AE
330
A3
100
AcDbEntity
  8
_U+30EC_U+30A4_U+30E4_U+30FC 1
 62
   179
420
  2234388
100
AcDbHatch
 10
0.0
 20
0.0
 30
0.0
210
0.0
220
0.0
230
1.0
  2
SOLID
 70
     1
 71
     0
 91
        7
 92
        1
 93
        1
 72
     4
 94
        3
 73
     0
 74
     1
 95
       17
 96
       13
 40
0.0
 40
0.0
 40
0.0
 40
0.0
 40
1.0
 40
1.0
 40
1.0
 40
2.0
 40
2.0
 40
2.0
 40
3.0
 40
3.0
 40
3.0
 40
4.0
 40
4.0
 40
4.0
 40
4.0
 10
107.4222113446722
 20
-159.6867214227519
 10
107.3164469132751
 20
-159.5809569913548
 10
107.2358316789202
 20
-159.543060941017
 10
107.1428141008185
 20
-159.5113660625527
 10
107.1428141008185
 20
-159.5113660625527
 10
107.2530571563465
 20
-159.3463459888092
 10
107.2530571563465
 20
-159.3463459888092
 10
107.3502088490305
 20
-159.3887206632778
 10
107.4707871910143
 20
-159.466924330793
 10
107.5238416614871
 20
-159.5217013490085
 10
107.5238416614871
 20
-159.5217013490085
 10
107.4222113446722
 20
-159.6867214227519
 10
107.4222113446722
 20
-159.6867214227519
 97
        0
 97
        0
 92
        1
 93
        1
 72
     4
 94
        3
 73
     0
 74
     1
 95
      182
 96
      178
 40
0.0
 40
0.0
 40
0.0
 40
0.0
 40
1.0
 40
1.0
 40
1.0
 40
2.0
 40
2.0
 40
2.0
 40
3.0
 40
3.0
 40
3.0
 40
4.0
 40
4.0
 40
4.0
 40
5.0
 40
5.0
 40
5.0
 40
6.0
 40
6.0
 40
6.0
 40
7.0
 40
7.0
 40
7.0
 40
8.0
 40
8.0
 40
8.0
 40
9.0
 40
9.0
 40
9.0
 40
10.0
 40
10.0
 40
10.0
 40
11.0
 40
11.0
 40
11.0
 40
12.0
 40
12.0
 40
12.0
 40
13.0
 40
13.0
 40
13.0
 40
14.0
 40
14.0
 40
14.0
 40
15.0
 40
15.0
 40
15.0
 40
16.0
 40
16.0
 40
16.0
 40
17.0
 40
17.0
 40
17.0
 40
18.0
 40
18.0
 40
18.0
 40
19.0
 40
19.0
 40
19.0
 40
20.0
 40
20.0
 40
20.0
 40
21.0
 40
21.0
 40
21.0
 40
22.0
 40
22.0
 40
22.0
 40
23.0
 40
23.0
 40
23.0
 40
24.0
 40
24.0
 40
24.0
 40
25.0
 40
25.0
 40
25.0
 40
26.0
 40
26.0
 40
26.0
 40
27.0
 40
27.0
 40
27.0
 40
28.0
 40
28.0
 40
28.0
 40
29.0
 40
29.0
 40
29.0
 40
30.0
 40
30.0
 40
30.0
 40
31.0
 40
31.0
 40
31.0
 40
32.0
 40
32.0
 40
32.0
 40
33.0
 40
33.0
 40
33.0
 40
34.0
 40
34.0
 40
34.0
 40
35.0
 40
35.0
 40
35.0
 40
36.0
 40
36.0
 40
36.0
 40
37.0
 40
37.0
 40
37.0
 40
38.0
 40
38.0
 40
38.0
 40
39.0
 40
39.0
 40
39.0
 40
40.0
 40
40.0
 40
40.0
 40
41.0
 40
41.0
 40
41.0
 40
42.0
 40
42.0
 40
42.0
 40
43.0
 40
43.0
 40
43.0
 40
44.0
 40
44.0
 40
44.0
 40
45.0
 40
45.0
 40
45.0
 40
46.0
 40
46.0
 40
46.0
 40
47.0
 40
47.0
 40
47.0
 40
48.0
 40
48.0
 40
48.0
 40
49.0
 40
49.0
 40
49.0
 40
50.0
 40
50.0
 40
50.0
 40
51.0
 40
51.0
 40
51.0
 40
52.0
 40
52.0
 40
52.0
 40
53.0
 40
53.0
 40
53.0
 40
54.0
 40
54.0
 40
54.0
 40
55.0
 40
55.0
 40
55.0
 40
56.0
 40
56.0
 40
56.0
 40
57.0
 40
57.0
 40
57.0
 40
58.0
 40
58.0
 40
58.0
 40
59.0
 40
59.0
 40
59.0
 40
59.0
 10
108.4671088053485
 20
-160.8652885882559
 10
108.4671088053485
 20
-160.8652885882559
 10
107.8304551596743
 20
-160.8652885882559
 10
107.8304551596743
 20
-160.8652885882559
 10
107.6168592395888
 20
-160.8652885882559
 10
107.4008517526637
 20
-160.8694227028382
 10
107.1872558325782
 20
-160.8821695561336
 10
107.1872558325782
 20
-160.8821695561336
 10
107.1872558325782
 20
-160.6747748079216
 10
107.1872558325782
 20
-160.6747748079216
 10
107.4094644913768
 20
-160.687521661217
 10
107.7329589574418
 20
-160.6916557757993
 10
107.8304551596743
 20
-160.6916557757993
 10
107.8304551596743
 20
-160.6916557757993
 10
108.0505967611818
 20
-160.6916557757993
 10
108.0505967611818
 20
-160.6916557757993
 10
108.0505967611818
 20
-160.6916557757993
 10
108.0505967611818
 20
-160.5500623513555
 10
108.0505967611818
 20
-160.5500623513555
 10
108.0505967611818
 20
-160.5500623513555
 10
107.8897108020206
 20
-160.5500623513555
 10
107.8897108020206
 20
-160.5500623513555
 10
107.7246907282772
 20
-160.5500623513555
 10
107.5596706545337
 20
-160.5541964659378
 10
107.3946505807902
 20
-160.5690103765244
 10
107.3946505807902
 20
-160.5690103765244
 10
107.3946505807902
 20
-160.3595485710212
 10
107.3946505807902
 20
-160.3595485710212
 10
107.5658718264071
 20
-160.3743624816078
 10
107.8135741917966
 20
-160.3784965961901
 10
107.8897108020206
 20
-160.3784965961901
 10
107.8897108020206
 20
-160.3784965961901
 10
108.0505967611818
 20
-160.3784965961901
 10
108.0505967611818
 20
-160.3784965961901
 10
108.046118137051
 20
-160.3068386100969
 10
108.046118137051
 20
-160.3002929286749
 10
108.0399169651775
 20
-160.2475829677506
 10
108.0399169651775
 20
-160.2475829677506
 10
108.1794433323301
 20
-160.2623968783372
 10
108.1794433323301
 20
-160.2623968783372
 10
108.1794433323301
 20
-160.2623968783372
 10
108.0802245823549
 20
-160.0908311231717
 10
108.0802245823549
 20
-160.0908311231717
 10
108.1267333714058
 20
-160.0973768045937
 10
108.2008029243387
 20
-160.1056450337583
 10
108.2176838922164
 20
-160.1056450337583
 10
108.2683267958496
 20
-160.1056450337583
 10
108.2852077637273
 20
-160.0846299512983
 10
108.2852077637273
 20
-160.0274413662432
 10
108.2852077637273
 20
-160.0274413662432
 10
108.2852077637273
 20
-159.8899820563817
 10
108.2852077637273
 20
-159.8899820563817
 10
108.2852077637273
 20
-159.8899820563817
 10
108.1794433323301
 20
-159.8899820563817
 10
108.1794433323301
 20
-159.8899820563817
 10
108.046118137051
 20
-159.8899820563817
 10
107.8897108020206
 20
-159.8899820563817
 10
107.7670654027457
 20
-159.9027289096771
 10
107.7670654027457
 20
-159.9027289096771
 10
107.7670654027457
 20
-159.7122151293428
 10
107.7670654027457
 20
-159.7122151293428
 10
107.9341525337803
 20
-159.7290960972205
 10
108.1646294217436
 20
-159.7311631545116
 10
108.1794433323301
 20
-159.7311631545116
 10
108.1794433323301
 20
-159.7311631545116
 10
108.2852077637273
 20
-159.7311631545116
 10
108.2852077637273
 20
-159.7311631545116
 10
108.2852077637273
 20
-159.7311631545116
 10
108.2852077637273
 20
-159.6002495260722
 10
108.2852077637273
 20
-159.6002495260722
 10
108.2852077637273
 20
-159.6002495260722
 10
108.2473117133896
 20
-159.6002495260722
 10
108.2473117133896
 20
-159.6002495260722
 10
108.2028699816298
 20
-159.6002495260722
 10
108.0778130155153
 20
-159.6043836406545
 10
107.9889295519958
 20
-159.6126518698191
 10
107.9889295519958
 20
-159.6126518698191
 10
107.9889295519958
 20
-159.5323811450127
 10
107.9889295519958
 20
-159.5323811450127
 10
107.9362195910715
 20
-159.570621704899
 10
107.9107258844807
 20
-159.5854356154856
 10
107.8683512100121
 20
-159.6085177552368
 10
107.8683512100121
 20
-159.6085177552368
 10
107.6802489965174
 20
-159.4796711840884
 10
107.6802489965174
 20
-159.4796711840884
 10
107.7584526640326
 20
-159.4455647387844
 10
107.9152045086115
 20
-159.3821749818559
 10
108.0716118436418
 20
-159.2385145001209
 10
108.1539496257393
 20
-159.1599663230572
 10
108.232497802803
 20
-159.0755614836686
 10
108.2852077637273
 20
-158.9739311668538
 10
108.2852077637273
 20
-158.9739311668538
 10
108.4967366265217
 20
-159.0352538664912
 10
108.4967366265217
 20
-159.0352538664912
 10
108.516029161239
 20
-159.0414550383646
 10
108.5263644476948
 20
-159.0500677770778
 10
108.5263644476948
 20
-159.0628146303732
 10
108.5263644476948
 20
-159.0796955982509
 10
108.5136175943994
 20
-159.0858967701244
 10
108.4884683973571
 20
-159.0986436234198
 10
108.5687391221634
 20
-159.1961398256524
 10
108.7316921386157
 20
-159.2932915183364
 10
108.7654540743711
 20
-159.3122395435053
 10
108.915660237528
 20
-159.4011230070247
 10
109.0300374076383
 20
-159.4286837709067
 10
109.1082410751535
 20
-159.4476317960756
 10
109.1082410751535
 20
-159.4476317960756
 10
108.9897297904609
 20
-159.6171304939499
 10
108.9897297904609
 20
-159.6171304939499
 10
108.9049804415238
 20
-159.5875026727767
 10
108.8543375378906
 20
-159.5685546476079
 10
108.735826253198
 20
-159.5027533238396
 10
108.735826253198
 20
-159.5027533238396
 10
108.735826253198
 20
-159.6126518698191
 10
108.735826253198
 20
-159.6126518698191
 10
108.6534884711005
 20
-159.6043836406545
 10
108.5263644476948
 20
-159.6002495260722
 10
108.4736544867705
 20
-159.6002495260722
 10
108.4736544867705
 20
-159.6002495260722
 10
108.4736544867705
 20
-159.7311631545116
 10
108.4736544867705
 20
-159.7311631545116
 10
108.4736544867705
 20
-159.7311631545116
 10
108.5942328287542
 20
-159.7311631545116
 10
108.5942328287542
 20
-159.7311631545116
 10
108.5962998860454
 20
-159.7311631545116
 10
108.8288438312997
 20
-159.7290960972205
 10
109.0066107583386
 20
-159.7122151293428
 10
109.0066107583386
 20
-159.7122151293428
 10
109.0066107583386
 20
-159.9027289096771
 10
109.0066107583386
 20
-159.9027289096771
 10
108.8777641871903
 20
-159.8899820563817
 10
108.7210123426114
 20
-159.8899820563817
 10
108.5942328287542
 20
-159.8899820563817
 10
108.5942328287542
 20
-159.8899820563817
 10
108.4736544867705
 20
-159.8899820563817
 10
108.4736544867705
 20
-159.8899820563817
 10
108.4736544867705
 20
-159.8899820563817
 10
108.4736544867705
 20
-160.1163248297626
 10
108.4736544867705
 20
-160.1163248297626
 10
108.4736544867705
 20
-160.2348361144552
 10
108.4481607801796
 20
-160.2706651075018
 10
108.2872748210185
 20
-160.2854790180884
 10
108.2917534451493
 20
-160.3044270432572
 10
108.2852077637273
 20
-160.3151068392615
 10
108.2473117133896
 20
-160.3385334885612
 10
108.2452446560984
 20
-160.3574815137301
 10
108.2452446560984
 20
-160.3636826856035
 10
108.2428330892587
 20
-160.3784965961901
 10
108.2428330892587
 20
-160.3784965961901
 10
108.3802923991202
 20
-160.3784965961901
 10
108.3802923991202
 20
-160.3784965961901
 10
108.5453124728637
 20
-160.3784965961901
 10
108.7127441134468
 20
-160.3743624816078
 10
108.8798312444814
 20
-160.3595485710212
 10
108.8798312444814
 20
-160.3595485710212
 10
108.8798312444814
 20
-160.5669433192333
 10
108.8798312444814
 20
-160.5669433192333
 10
108.6638237575563
 20
-160.5500623513555
 10
108.3995849338376
 20
-160.5500623513555
 10
108.3802923991202
 20
-160.5500623513555
 10
108.3802923991202
 20
-160.5500623513555
 10
108.2407660319676
 20
-160.5500623513555
 10
108.2407660319676
 20
-160.5500623513555
 10
108.2407660319676
 20
-160.5500623513555
 10
108.2407660319676
 20
-160.6916557757993
 10
108.2407660319676
 20
-160.6916557757993
 10
108.2407660319676
 20
-160.6916557757993
 10
108.4671088053485
 20
-160.6916557757993
 10
108.4671088053485
 20
-160.6916557757993
 10
108.6831162922737
 20
-160.6916557757993
 10
108.9008463269415
 20
-160.687521661217
 10
109.1165093043181
 20
-160.6747748079216
 10
109.1165093043181
 20
-160.6747748079216
 10
109.1165093043181
 20
-160.8821695561336
 10
109.1165093043181
 20
-160.8821695561336
 10
108.8353895127217
 20
-160.8652885882559
 10
108.4905354546482
 20
-160.8652885882559
 10
108.4671088053485
 20
-160.8652885882559
 97
        0
 97
        0
 92
        1
 93
        1
 72
     4
 94
        3
 73
     0
 74
     1
 95
       23
 96
       19
 40
0.0
 40
0.0
 40
0.0
 40
0.0
 40
1.0
 40
1.0
 40
1.0
 40
2.0
 40
2.0
 40
2.0
 40
3.0
 40
3.0
 40
3.0
 40
4.0
 40
4.0
 40
4.0
 40
5.0
 40
5.0
 40
5.0
 40
6.0
 40
6.0
 40
6.0
 40
6.0
 10
107.3481417917394
 20
-160.2369031717463
 10
107.3481417917394
 20
-160.2579182542064
 10
107.3502088490305
 20
-160.2961588140926
 10
107.3247151424397
 20
-160.2961588140926
 10
107.3143798559839
 20
-160.2961588140926
 10
107.3057671172708
 20
-160.2896131326707
 10
107.2950873212665
 20
-160.2727321647929
 10
107.2950873212665
 20
-160.2727321647929
 10
107.1913899471605
 20
-160.0908311231717
 10
107.1913899471605
 20
-160.0908311231717
 10
107.4073974340857
 20
-159.9619845520234
 10
107.6041123862934
 20
-159.6846543654608
 10
107.6506211753443
 20
-159.6126518698191
 10
107.6506211753443
 20
-159.6126518698191
 10
107.722623670986
 20
-159.7924858541491
 10
107.722623670986
 20
-159.7924858541491
 10
107.5892984757068
 20
-159.9892008063569
 10
107.4135986059591
 20
-160.1735134148177
 10
107.3481417917394
 20
-160.2369031717463
 97
        0
 97
        0
 92
        1
 93
        1
 72
     4
 94
        3
 73
     0
 74
     1
 95
       17
 96
       13
 40
0.0
 40
0.0
 40
0.0
 40
0.0
 40
1.0
 40
1.0
 40
1.0
 40
2.0
 40
2.0
 40
2.0
 40
3.0
 40
3.0
 40
3.0
 40
4.0
 40
4.0
 40
4.0
 40
4.0
 10
107.6020453290023
 20
-159.3418673646784
 10
107.5407226293648
 20
-159.2657307544544
 10
107.411531548668
 20
-159.1895941442304
 10
107.3078341745619
 20
-159.1599663230572
 10
107.3078341745619
 20
-159.1599663230572
 10
107.4032633195034
 20
-158.9949462493138
 10
107.4032633195034
 20
-158.9949462493138
 10
107.5045491267697
 20
-159.0311197519089
 10
107.6103135581669
 20
-159.088308336964
 10
107.6991970216863
 20
-159.1685790617704
 10
107.6991970216863
 20
-159.1685790617704
 10
107.6020453290023
 20
-159.3418673646784
 10
107.6020453290023
 20
-159.3418673646784
 97
        0
 97
        0
 92
        1
 93
        1
 72
     4
 94
        3
 73
     0
 74
     1
 95
       23
 96
       19
 40
0.0
 40
0.0
 40
0.0
 40
0.0
 40
1.0
 40
1.0
 40
1.0
 40
2.0
 40
2.0
 40
2.0
 40
3.0
 40
3.0
 40
3.0
 40
4.0
 40
4.0
 40
4.0
 40
5.0
 40
5.0
 40
5.0
 40
6.0
 40
6.0
 40
6.0
 40
6.0
 10
108.0547308757641
 20
-160.046389391412
 10
108.0333712837556
 20
-160.0698160407117
 10
107.9362195910715
 20
-160.1817816439823
 10
107.7966932239189
 20
-160.2623968783372
 10
107.7966932239189
 20
-160.2623968783372
 10
107.6296060928843
 20
-160.1418185363534
 10
107.6296060928843
 20
-160.1418185363534
 10
107.7798122560412
 20
-160.0656819261294
 10
107.8790310060164
 20
-159.970252781188
 10
107.9276068523584
 20
-159.9175428202637
 10
107.9276068523584
 20
-159.9175428202637
 10
108.101239664815
 20
-159.9998806023611
 10
108.101239664815
 20
-159.9998806023611
 10
108.1095078939796
 20
-160.0040147169435
 10
108.1181206326927
 20
-160.0105603983654
 10
108.1181206326927
 20
-160.0212401943697
 10
108.1181206326927
 20
-160.046389391412
 10
108.0822916396461
 20
-160.046389391412
 10
108.0547308757641
 20
-160.046389391412
 97
        0
 97
        0
 92
        1
 93
        1
 72
     4
 94
        3
 73
     0
 74
     1
 95
       20
 96
       16
 40
0.0
 40
0.0
 40
0.0
 40
0.0
 40
1.0
 40
1.0
 40
1.0
 40
2.0
 40
2.0
 40
2.0
 40
3.0
 40
3.0
 40
3.0
 40
4.0
 40
4.0
 40
4.0
 40
5.0
 40
5.0
 40
5.0
 40
5.0
 10
108.3530761447867
 20
-159.204408054817
 10
108.3148355849005
 20
-159.2533284107075
 10
108.253512885263
 20
-159.3315320782227
 10
108.1139865181104
 20
-159.4414306242022
 10
108.1942572429167
 20
-159.4455647387844
 10
108.2238850640899
 20
-159.4455647387844
 10
108.2473117133896
 20
-159.4455647387844
 10
108.2473117133896
 20
-159.4455647387844
 10
108.4757215440616
 20
-159.4455647387844
 10
108.4757215440616
 20
-159.4455647387844
 10
108.5074164225259
 20
-159.4455647387844
 10
108.555992268868
 20
-159.4434976814933
 10
108.6300618218008
 20
-159.4414306242022
 10
108.5180962185302
 20
-159.3673610712693
 10
108.4691758626397
 20
-159.3208522822184
 10
108.3530761447867
 20
-159.204408054817
 97
        0
 97
        0
 92
        1
 93
        1
 72
     4
 94
        3
 73
     0
 74
     1
 95
       17
 96
       13
 40
0.0
 40
0.0
 40
0.0
 40
0.0
 40
1.0
 40
1.0
 40
1.0
 40
2.0
 40
2.0
 40
2.0
 40
3.0
 40
3.0
 40
3.0
 40
4.0
 40
4.0
 40
4.0
 40
4.0
 10
108.9135931802369
 20
-160.2599853114975
 10
108.7782009276666
 20
-160.1480197082269
 10
108.6724364962694
 20
-160.0846299512983
 10
108.5539252115768
 20
-160.0212401943697
 10
108.5539252115768
 20
-160.0212401943697
 10
108.680704725434
 20
-159.9089300815506
 10
108.680704725434
 20
-159.9089300815506
 10
108.811962863422
 20
-159.9554388706014
 10
108.9218614094015
 20
-160.0126274556566
 10
109.0469183755161
 20
-160.1142577724714
 10
109.0469183755161
 20
-160.1142577724714
 10
108.9135931802369
 20
-160.2599853114975
 10
108.9135931802369
 20
-160.2599853114975
 97
        0
 97
        0
 75
     2
 76
     1
 98
        0
  0
SPLINE
  5
AF
330
A3
100
AcDbEntity
  8
_U+30EC_U+30A4_U+30E4_U+30FC 1
370
     0
100
AcDbSpline
210
0.0
220
0.0
230
1.0
 70
    11
 71
     3
 72
   113
 73
   109
 74
     0
 42
0.0000000001
 43
0.0000000001
 12
1.0
 22
0.0
 32
0.0
 13
1.0
 23
0.0
 33
0.0
 40
0.0
 40
0.0
 40
0.0
 40
0.0
 40
1.0
 40
1.0
 40
1.0
 40
2.0
 40
2.0
 40
2.0
 40
3.0
 40
3.0
 40
3.0
 40
4.0
 40
4.0
 40
4.0
 40
5.0
 40
5.0
 40
5.0
 40
6.0
 40
6.0
 40
6.0
 40
7.0
 40
7.0
 40
7.0
 40
8.0
 40
8.0
 40
8.0
 40
9.0
 40
9.0
 40
9.0
 40
10.0
 40
10.0
 40
10.0
 40
11.0
 40
11.0
 40
11.0
 40
12.0
 40
12.0
 40
12.0
 40
13.0
 40
13.0
 40
13.0
 40
14.0
 40
14.0
 40
14.0
 40
15.0
 40
15.0
 40
15.0
 40
16.0
 40
16.0
 40
16.0
 40
17.0
 40
17.0
 40
17.0
 40
18.0
 40
18.0
 40
18.0
 40
19.0
 40
19.0
 40
19.0
 40
20.0
 40
20.0
 40
20.0
 40
21.0
 40
21.0
 40
21.0
 40
22.0
 40
22.0
 40
22.0
 40
23.0
 40
23.0
 40
23.0
 40
24.0
 40
24.0
 40
24.0
 40
25.0
 40
25.0
 40
25.0
 40
26.0
 40
26.0
 40
26.0
 40
27.0
 40
27.0
 40
27.0
 40
28.0
 40
28.0
 40
28.0
 40
29.0
 40
29.0
 40
29.0
 40
30.0
 40
30.0
 40
30.0
 40
31.0
 40
31.0
 40
31.0
 40
32.0
 40
32.0
 40
32.0
 40
33.0
 40
33.0
 40
33.0
 40
34.0
 40
34.0
 40
34.0
 40
35.0
 40
35.0
 40
35.0
 40
36.0
 40
36.0
 40
36.0
 40
36.0
 10
110.7932372769892
 20
-160.2369031717463
 30
0.0
 10
110.7932372769892
 20
-160.2369031717463
 30
0.0
 10
110.8928005365129
 20
-160.3364664312701
 30
0.0
 10
110.8928005365129
 20
-160.3364664312701
 30
0.0
 10
110.9034803325172
 20
-160.3468017177258
 30
0.0
 10
110.9138156189729
 20
-160.3595485710212
 30
0.0
 10
110.9138156189729
 20
-160.3743624816078
 30
0.0
 10
110.9138156189729
 20
-160.3764295388989
 30
0.0
 10
110.9138156189729
 20
-160.4060573600721
 30
0.0
 10
110.8759195686352
 20
-160.4060573600721
 30
0.0
 10
110.8673068299221
 20
-160.4060573600721
 30
0.0
 10
110.8269992127446
 20
-160.4019232454898
 30
0.0
 10
110.8207980408712
 20
-160.4019232454898
 30
0.0
 10
110.7804904236938
 20
-160.4336181239541
 30
0.0
 10
110.7339816346429
 20
-160.4673800597095
 30
0.0
 10
110.6347628846677
 20
-160.5245686447647
 30
0.0
 10
110.7804904236938
 20
-160.632400133453
 30
0.0
 10
110.9393093255638
 20
-160.6895887185082
 30
0.0
 10
111.2121608879956
 20
-160.7278292783944
 30
0.0
 10
111.2121608879956
 20
-160.7278292783944
 30
0.0
 10
111.0619547248387
 20
-160.9031846385936
 30
0.0
 10
111.0619547248387
 20
-160.9031846385936
 30
0.0
 10
110.7997829584112
 20
-160.8311821429519
 30
0.0
 10
110.6430311138323
 20
-160.742643188981
 30
0.0
 10
110.5668945036083
 20
-160.6895887185082
 30
0.0
 10
110.4166883404514
 20
-160.5879584016933
 30
0.0
 10
110.2730278587165
 20
-160.425005385241
 30
0.0
 10
110.1968912484924
 20
-160.2599853114975
 30
0.0
 10
110.129022867433
 20
-160.3257866352658
 30
0.0
 10
110.0549533145002
 20
-160.3784965961901
 30
0.0
 10
109.976749646985
 20
-160.4274169520806
 30
0.0
 10
109.976749646985
 20
-160.4274169520806
 30
0.0
 10
109.976749646985
 20
-160.6789089225039
 30
0.0
 10
109.976749646985
 20
-160.6789089225039
 30
0.0
 10
110.1397026634373
 20
-160.6537597254616
 30
0.0
 10
110.3257378196408
 20
-160.6093179937018
 30
0.0
 10
110.3891275765694
 20
-160.5945040831153
 30
0.0
 10
110.3891275765694
 20
-160.5945040831153
 30
0.0
 10
110.3594997553962
 20
-160.763658271441
 30
0.0
 10
110.3594997553962
 20
-160.763658271441
 30
0.0
 10
110.3574326981051
 20
-160.763658271441
 30
0.0
 10
110.3384846729362
 20
-160.7698594433145
 30
0.0
 10
110.3364176156451
 20
-160.7698594433145
 30
0.0
 10
110.1376356061461
 20
-160.8081000032008
 30
0.0
 10
109.8203423119546
 20
-160.8735568174205
 30
0.0
 10
109.6232828501984
 20
-160.9097303200156
 30
0.0
 10
109.6129475637426
 20
-160.9266112878934
 30
0.0
 10
109.5895209144429
 20
-160.9583061663577
 30
0.0
 10
109.5664387746917
 20
-160.9583061663577
 30
0.0
 10
109.5388780108097
 20
-160.9583061663577
 30
0.0
 10
109.5347438962274
 20
-160.9393581411888
 30
0.0
 10
109.5323323293878
 20
-160.9200656064714
 30
0.0
 10
109.5323323293878
 20
-160.9200656064714
 30
0.0
 10
109.5071831323454
 20
-160.7467773035633
 30
0.0
 10
109.5071831323454
 20
-160.7467773035633
 30
0.0
 10
109.5812526852783
 20
-160.7381645648502
 30
0.0
 10
109.6890841739666
 20
-160.7254177115548
 30
0.0
 10
109.7969156626549
 20
-160.7044026290947
 30
0.0
 10
109.7969156626549
 20
-160.7044026290947
 30
0.0
 10
109.7969156626549
 20
-160.5266357020558
 30
0.0
 10
109.7969156626549
 20
-160.5266357020558
 30
0.0
 10
109.6529106713715
 20
-160.5986381976976
 30
0.0
 10
109.5578260359786
 20
-160.6282660188707
 30
0.0
 10
109.3928059622351
 20
-160.6578938400439
 30
0.0
 10
109.3928059622351
 20
-160.6578938400439
 30
0.0
 10
109.2722276202514
 20
-160.4887396517181
 30
0.0
 10
109.2722276202514
 20
-160.4887396517181
 30
0.0
 10
109.5895209144429
 20
-160.4611788878361
 30
0.0
 10
109.7821017520684
 20
-160.3681613097343
 30
0.0
 10
109.9598686791073
 20
-160.2348361144552
 30
0.0
 10
109.8137966305327
 20
-160.2348361144552
 30
0.0
 10
109.5133843042189
 20
-160.2389702290375
 30
0.0
 10
109.3166693520111
 20
-160.2455159104595
 30
0.0
 10
109.3166693520111
 20
-160.2455159104595
 30
0.0
 10
109.3166693520111
 20
-160.0677489834206
 30
0.0
 10
109.3166693520111
 20
-160.0677489834206
 30
0.0
 10
109.4710096297503
 20
-160.073950155294
 30
0.0
 10
109.7672878414818
 20
-160.080495836716
 30
0.0
 10
109.9512559403941
 20
-160.080495836716
 30
0.0
 10
109.9512559403941
 20
-160.080495836716
 30
0.0
 10
110.1627848031885
 20
-160.080495836716
 30
0.0
 10
110.1627848031885
 20
-160.080495836716
 30
0.0
 10
110.1627848031885
 20
-159.9850666917746
 30
0.0
 10
110.1607177458973
 20
-159.9344237881414
 30
0.0
 10
110.1545165740239
 20
-159.8879149990905
 30
0.0
 10
110.1545165740239
 20
-159.8879149990905
 30
0.0
 10
110.3701795514005
 20
-159.9047959669683
 30
0.0
 10
110.3701795514005
 20
-159.9047959669683
 30
0.0
 10
110.4187553977425
 20
-159.9089300815506
 30
0.0
 10
110.4273681364557
 20
-159.9237439921371
 30
0.0
 10
110.4273681364557
 20
-159.9385579027237
 30
0.0
 10
110.4273681364557
 20
-159.9640516093145
 30
0.0
 10
110.4104871685779
 20
-159.9723198384791
 30
0.0
 10
110.3594997553962
 20
-159.99781354507
 30
0.0
 10
110.3574326981051
 20
-160.0233072516608
 30
0.0
 10
110.3574326981051
 20
-160.0295084235343
 30
0.0
 10
110.3553656408139
 20
-160.080495836716
 30
0.0
 10
110.3553656408139
 20
-160.080495836716
 30
0.0
 10
110.5858425287771
 20
-160.080495836716
 30
0.0
 10
110.5858425287771
 20
-160.080495836716
 30
0.0
 10
110.7508626025206
 20
-160.080495836716
 30
0.0
 10
111.0430066996698
 20
-160.073950155294
 30
0.0
 10
111.2228406839998
 20
-160.0677489834206
 30
0.0
 10
111.2228406839998
 20
-160.0677489834206
 30
0.0
 10
111.2228406839998
 20
-160.2455159104595
 30
0.0
 10
111.2228406839998
 20
-160.2455159104595
 30
0.0
 10
111.093649603303
 20
-160.2410372863286
 30
0.0
 10
111.0705674635518
 20
-160.2410372863286
 30
0.0
 10
110.7932372769892
 20
-160.2369031717463
 30
0.0
  0
SPLINE
  5
B0
330
A3
100
AcDbEntity
  8
_U+30EC_U+30A4_U+30E4_U+30FC 1
370
     0
100
AcDbSpline
210
0.0
220
0.0
230
1.0
 70
    11
 71
     3
 72
    23
 73
    19
 74
     0
 42
0.0000000001
 43
0.0000000001
 12
1.0
 22
0.0
 32
0.0
 13
1.0
 23
0.0
 33
0.0
 40
0.0
 40
0.0
 40
0.0
 40
0.0
 40
1.0
 40
1.0
 40
1.0
 40
2.0
 40
2.0
 40
2.0
 40
3.0
 40
3.0
 40
3.0
 40
4.0
 40
4.0
 40
4.0
 40
5.0
 40
5.0
 40
5.0
 40
6.0
 40
6.0
 40
6.0
 40
6.0
 10
109.5092501896366
 20
-159.8858479417994
 30
0.0
 10
109.4923692217589
 20
-159.9258110494283
 30
0.0
 10
109.4858235403369
 20
-159.942692017306
 30
0.0
 10
109.4648084578769
 20
-159.942692017306
 30
0.0
 10
109.4499945472903
 20
-159.942692017306
 30
0.0
 10
109.439314751286
 20
-159.9258110494283
 30
0.0
 10
109.4331135794126
 20
-159.9130641961329
 30
0.0
 10
109.4331135794126
 20
-159.9130641961329
 30
0.0
 10
109.3335503198888
 20
-159.7480441223894
 30
0.0
 10
109.3335503198888
 20
-159.7480441223894
 30
0.0
 10
109.4351806367037
 20
-159.7163492439251
 30
0.0
 10
109.5853867998606
 20
-159.6615722257096
 30
0.0
 10
109.7841688093595
 20
-159.4986192092573
 30
0.0
 10
109.7841688093595
 20
-159.4986192092573
 30
0.0
 10
109.8413573944147
 20
-159.6719075121654
 30
0.0
 10
109.8413573944147
 20
-159.6719075121654
 30
0.0
 10
109.7483398163129
 20
-159.7545898038114
 30
0.0
 10
109.6594563527935
 20
-159.8117783888665
 30
0.0
 10
109.5092501896366
 20
-159.8858479417994
 30
0.0
  0
SPLINE
  5
B1
330
A3
100
AcDbEntity
  8
_U+30EC_U+30A4_U+30E4_U+30FC 1
370
     0
100
AcDbSpline
210
0.0
220
0.0
230
1.0
 70
    11
 71
     3
 72
    17
 73
    13
 74
     0
 42
0.0000000001
 43
0.0000000001
 12
1.0
 22
0.0
 32
0.0
 13
1.0
 23
0.0
 33
0.0
 40
0.0
 40
0.0
 40
0.0
 40
0.0
 40
1.0
 40
1.0
 40
1.0
 40
2.0
 40
2.0
 40
2.0
 40
3.0
 40
3.0
 40
3.0
 40
4.0
 40
4.0
 40
4.0
 40
4.0
 10
109.6615234100846
 20
-159.4204155417421
 30
0.0
 10
109.6318955889115
 20
-159.3801079245647
 30
0.0
 10
109.564027207852
 20
-159.2829562318807
 30
0.0
 10
109.3821261662309
 20
-159.1727131763527
 30
0.0
 10
109.3821261662309
 20
-159.1727131763527
 30
0.0
 10
109.5092501896366
 20
-159.0393879810735
 30
0.0
 10
109.5092501896366
 20
-159.0393879810735
 30
0.0
 10
109.6952853458401
 20
-159.1410182978884
 30
0.0
 10
109.7524739308952
 20
-159.2299017614078
 30
0.0
 10
109.7800346947772
 20
-159.2722764358764
 30
0.0
 10
109.7800346947772
 20
-159.2722764358764
 30
0.0
 10
109.6615234100846
 20
-159.4204155417421
 30
0.0
 10
109.6615234100846
 20
-159.4204155417421
 30
0.0
  0
SPLINE
  5
B2
330
A3
100
AcDbEntity
  8
_U+30EC_U+30A4_U+30E4_U+30FC 1
370
     0
100
AcDbSpline
210
0.0
220
0.0
230
1.0
 70
    11
 71
     3
 72
    38
 73
    34
 74
     0
 42
0.0000000001
 43
0.0000000001
 12
1.0
 22
0.0
 32
0.0
 13
1.0
 23
0.0
 33
0.0
 40
0.0
 40
0.0
 40
0.0
 40
0.0
 40
1.0
 40
1.0
 40
1.0
 40
2.0
 40
2.0
 40
2.0
 40
3.0
 40
3.0
 40
3.0
 40
4.0
 40
4.0
 40
4.0
 40
5.0
 40
5.0
 40
5.0
 40
6.0
 40
6.0
 40
6.0
 40
7.0
 40
7.0
 40
7.0
 40
8.0
 40
8.0
 40
8.0
 40
9.0
 40
9.0
 40
9.0
 40
10.0
 40
10.0
 40
10.0
 40
11.0
 40
11.0
 40
11.0
 40
11.0
 10
110.0294596079093
 20
-159.1155245912975
 30
0.0
 10
110.0273925506182
 20
-159.1623778898969
 30
0.0
 10
110.025325493327
 20
-159.2784776077498
 30
0.0
 10
110.025325493327
 20
-159.3229193395096
 30
0.0
 10
110.025325493327
 20
-159.3229193395096
 30
0.0
 10
110.025325493327
 20
-159.6698404548742
 30
0.0
 10
110.025325493327
 20
-159.6698404548742
 30
0.0
 10
110.025325493327
 20
-159.7566568611025
 30
0.0
 10
110.0273925506182
 20
-159.8982502855463
 30
0.0
 10
110.0380723466224
 20
-160.01882862753
 30
0.0
 10
110.0380723466224
 20
-160.01882862753
 30
0.0
 10
109.8475585662881
 20
-160.01882862753
 30
0.0
 10
109.8475585662881
 20
-160.01882862753
 30
0.0
 10
109.8520371904189
 20
-159.9554388706014
 30
0.0
 10
109.8561713050012
 20
-159.9027289096771
 30
0.0
 10
109.8582383622924
 20
-159.8476073819131
 30
0.0
 10
109.8603054195835
 20
-159.7249619826382
 30
0.0
 10
109.8623724768747
 20
-159.7101480720516
 30
0.0
 10
109.8623724768747
 20
-159.6657063402919
 30
0.0
 10
109.8623724768747
 20
-159.6657063402919
 30
0.0
 10
109.8623724768747
 20
-159.3442789315181
 30
0.0
 10
109.8623724768747
 20
-159.3442789315181
 30
0.0
 10
109.8623724768747
 20
-159.2891574037541
 30
0.0
 10
109.8496256235793
 20
-159.0500677770778
 30
0.0
 10
109.8475585662881
 20
-158.9994248734446
 30
0.0
 10
109.8475585662881
 20
-158.9994248734446
 30
0.0
 10
110.0487521426267
 20
-159.0269856373266
 30
0.0
 10
110.0487521426267
 20
-159.0269856373266
 30
0.0
 10
110.0697672250867
 20
-159.0290526946177
 30
0.0
 10
110.101462103551
 20
-159.0331868092
 30
0.0
 10
110.101462103551
 20
-159.0586805157909
 30
0.0
 10
110.101462103551
 20
-159.0858967701244
 30
0.0
 10
110.0508191999179
 20
-159.1072563621329
 30
0.0
 10
110.0294596079093
 20
-159.1155245912975
 30
0.0
  0
SPLINE
  5
B3
330
A3
100
AcDbEntity
  8
_U+30EC_U+30A4_U+30E4_U+30FC 1
370
     0
100
AcDbSpline
210
0.0
220
0.0
230
1.0
 70
    11
 71
     3
 72
    83
 73
    79
 74
     0
 42
0.0000000001
 43
0.0000000001
 12
1.0
 22
0.0
 32
0.0
 13
1.0
 23
0.0
 33
0.0
 40
0.0
 40
0.0
 40
0.0
 40
0.0
 40
1.0
 40
1.0
 40
1.0
 40
2.0
 40
2.0
 40
2.0
 40
3.0
 40
3.0
 40
3.0
 40
4.0
 40
4.0
 40
4.0
 40
5.0
 40
5.0
 40
5.0
 40
6.0
 40
6.0
 40
6.0
 40
7.0
 40
7.0
 40
7.0
 40
8.0
 40
8.0
 40
8.0
 40
9.0
 40
9.0
 40
9.0
 40
10.0
 40
10.0
 40
10.0
 40
11.0
 40
11.0
 40
11.0
 40
12.0
 40
12.0
 40
12.0
 40
13.0
 40
13.0
 40
13.0
 40
14.0
 40
14.0
 40
14.0
 40
15.0
 40
15.0
 40
15.0
 40
16.0
 40
16.0
 40
16.0
 40
17.0
 40
17.0
 40
17.0
 40
18.0
 40
18.0
 40
18.0
 40
19.0
 40
19.0
 40
19.0
 40
20.0
 40
20.0
 40
20.0
 40
21.0
 40
21.0
 40
21.0
 40
22.0
 40
22.0
 40
22.0
 40
23.0
 40
23.0
 40
23.0
 40
24.0
 40
24.0
 40
24.0
 40
25.0
 40
25.0
 40
25.0
 40
26.0
 40
26.0
 40
26.0
 40
26.0
 10
110.8314778368755
 20
-159.4372965096198
 30
0.0
 10
110.8314778368755
 20
-159.4372965096198
 30
0.0
 10
110.7339816346429
 20
-159.4372965096198
 30
0.0
 10
110.7339816346429
 20
-159.4372965096198
 30
0.0
 10
110.7339816346429
 20
-159.4372965096198
 30
0.0
 10
110.7339816346429
 20
-159.6846543654608
 30
0.0
 10
110.7339816346429
 20
-159.6846543654608
 30
0.0
 10
110.7339816346429
 20
-159.6846543654608
 30
0.0
 10
110.8166639262889
 20
-159.6846543654608
 30
0.0
 10
110.8166639262889
 20
-159.6846543654608
 30
0.0
 10
110.8821207405086
 20
-159.6846543654608
 30
0.0
 10
111.0216471076613
 20
-159.6805202508785
 30
0.0
 10
111.121210367185
 20
-159.6719075121654
 30
0.0
 10
111.121210367185
 20
-159.6719075121654
 30
0.0
 10
111.121210367185
 20
-159.8517414964954
 30
0.0
 10
111.121210367185
 20
-159.8517414964954
 30
0.0
 10
111.0281927890832
 20
-159.8434732673308
 30
0.0
 10
110.8779866259263
 20
-159.8393391527485
 30
0.0
 10
110.8166639262889
 20
-159.8393391527485
 30
0.0
 10
110.8166639262889
 20
-159.8393391527485
 30
0.0
 10
110.5117729758443
 20
-159.8393391527485
 30
0.0
 10
110.5117729758443
 20
-159.8393391527485
 30
0.0
 10
110.45906301492
 20
-159.8393391527485
 30
0.0
 10
110.3129909663454
 20
-159.8434732673308
 30
0.0
 10
110.2072265349482
 20
-159.8517414964954
 30
0.0
 10
110.2072265349482
 20
-159.8517414964954
 30
0.0
 10
110.2072265349482
 20
-159.6719075121654
 30
0.0
 10
110.2072265349482
 20
-159.6719075121654
 30
0.0
 10
110.3067897944719
 20
-159.6805202508785
 30
0.0
 10
110.4463161616245
 20
-159.6846543654608
 30
0.0
 10
110.5117729758443
 20
-159.6846543654608
 30
0.0
 10
110.5117729758443
 20
-159.6846543654608
 30
0.0
 10
110.556214707604
 20
-159.6846543654608
 30
0.0
 10
110.556214707604
 20
-159.6846543654608
 30
0.0
 10
110.556214707604
 20
-159.6846543654608
 30
0.0
 10
110.556214707604
 20
-159.4372965096198
 30
0.0
 10
110.556214707604
 20
-159.4372965096198
 30
0.0
 10
110.556214707604
 20
-159.4372965096198
 30
0.0
 10
110.4824896642197
 20
-159.4372965096198
 30
0.0
 10
110.4824896642197
 20
-159.4372965096198
 30
0.0
 10
110.4208224550337
 20
-159.4372965096198
 30
0.0
 10
110.2537353239991
 20
-159.4414306242022
 30
0.0
 10
110.1331569820153
 20
-159.4500433629153
 30
0.0
 10
110.1331569820153
 20
-159.4500433629153
 30
0.0
 10
110.1331569820153
 20
-159.2722764358764
 30
0.0
 10
110.1331569820153
 20
-159.2722764358764
 30
0.0
 10
110.2475341521256
 20
-159.2784776077498
 30
0.0
 10
110.4060085444471
 20
-159.2829562318807
 30
0.0
 10
110.4824896642197
 20
-159.2829562318807
 30
0.0
 10
110.4824896642197
 20
-159.2829562318807
 30
0.0
 10
110.5541476503129
 20
-159.2829562318807
 30
0.0
 10
110.5541476503129
 20
-159.2829562318807
 30
0.0
 10
110.5500135357306
 20
-159.1303385018841
 30
0.0
 10
110.5479464784394
 20
-159.0965765661286
 30
0.0
 10
110.5414007970174
 20
-159.0035589880269
 30
0.0
 10
110.5414007970174
 20
-159.0035589880269
 30
0.0
 10
110.7532741693603
 20
-159.0269856373266
 30
0.0
 10
110.7532741693603
 20
-159.0269856373266
 30
0.0
 10
110.7784233664026
 20
-159.0290526946177
 30
0.0
 10
110.8018500157023
 20
-159.0331868092
 30
0.0
 10
110.8018500157023
 20
-159.0562689489512
 30
0.0
 10
110.8018500157023
 20
-159.088308336964
 30
0.0
 10
110.7574082839426
 20
-159.1051893048418
 30
0.0
 10
110.7339816346429
 20
-159.1134575340064
 30
0.0
 10
110.7339816346429
 20
-159.1134575340064
 30
0.0
 10
110.7339816346429
 20
-159.2829562318807
 30
0.0
 10
110.7339816346429
 20
-159.2829562318807
 30
0.0
 10
110.7339816346429
 20
-159.2829562318807
 30
0.0
 10
110.8314778368755
 20
-159.2829562318807
 30
0.0
 10
110.8314778368755
 20
-159.2829562318807
 30
0.0
 10
110.9076144470995
 20
-159.2829562318807
 30
0.0
 10
111.066088839421
 20
-159.2784776077498
 30
0.0
 10
111.1825330668224
 20
-159.2722764358764
 30
0.0
 10
111.1825330668224
 20
-159.2722764358764
 30
0.0
 10
111.1825330668224
 20
-159.4500433629153
 30
0.0
 10
111.1825330668224
 20
-159.4500433629153
 30
0.0
 10
111.0747015781341
 20
-159.4434976814933
 30
0.0
 10
110.9010687656775
 20
-159.4372965096198
 30
0.0
 10
110.8314778368755
 20
-159.4372965096198
 30
0.0
  0
SPLINE
  5
B4
330
A3
100
AcDbEntity
  8
_U+30EC_U+30A4_U+30E4_U+30FC 1
370
     0
100
AcDbSpline
210
0.0
220
0.0
230
1.0
 70
    11
 71
     3
 72
    17
 73
    13
 74
     0
 42
0.0000000001
 43
0.0000000001
 12
1.0
 22
0.0
 32
0.0
 13
1.0
 23
0.0
 33
0.0
 40
0.0
 40
0.0
 40
0.0
 40
0.0
 40
1.0
 40
1.0
 40
1.0
 40
2.0
 40
2.0
 40
2.0
 40
3.0
 40
3.0
 40
3.0
 40
4.0
 40
4.0
 40
4.0
 40
4.0
 10
110.5858425287771
 20
-160.2348361144552
 30
0.0
 10
110.5858425287771
 20
-160.2348361144552
 30
0.0
 10
110.3829264046959
 20
-160.2348361144552
 30
0.0
 10
110.3829264046959
 20
-160.2348361144552
 30
0.0
 10
110.4104871685779
 20
-160.2940917568015
 30
0.0
 10
110.4652641867934
 20
-160.3660942524432
 30
0.0
 10
110.4928249506754
 20
-160.3953775640678
 30
0.0
 10
110.5203857145574
 20
-160.3809081630298
 30
0.0
 10
110.6347628846677
 20
-160.3171738965526
 30
0.0
 10
110.7257134054783
 20
-160.2348361144552
 30
0.0
 10
110.7257134054783
 20
-160.2348361144552
 30
0.0
 10
110.5858425287771
 20
-160.2348361144552
 30
0.0
 10
110.5858425287771
 20
-160.2348361144552
 30
0.0
  0
HATCH
  5
B5
330
A3
100
AcDbEntity
  8
_U+30EC_U+30A4_U+30E4_U+30FC 1
 62
   179
420
  2234388
100
AcDbHatch
 10
0.0
 20
0.0
 30
0.0
210
0.0
220
0.0
230
1.0
  2
SOLID
 70
     1
 71
     0
 91
        6
 92
        1
 93
        1
 72
     4
 94
        3
 73
     0
 74
     1
 95
      113
 96
      109
 40
0.0
 40
0.0
 40
0.0
 40
0.0
 40
1.0
 40
1.0
 40
1.0
 40
2.0
 40
2.0
 40
2.0
 40
3.0
 40
3.0
 40
3.0
 40
4.0
 40
4.0
 40
4.0
 40
5.0
 40
5.0
 40
5.0
 40
6.0
 40
6.0
 40
6.0
 40
7.0
 40
7.0
 40
7.0
 40
8.0
 40
8.0
 40
8.0
 40
9.0
 40
9.0
 40
9.0
 40
10.0
 40
10.0
 40
10.0
 40
11.0
 40
11.0
 40
11.0
 40
12.0
 40
12.0
 40
12.0
 40
13.0
 40
13.0
 40
13.0
 40
14.0
 40
14.0
 40
14.0
 40
15.0
 40
15.0
 40
15.0
 40
16.0
 40
16.0
 40
16.0
 40
17.0
 40
17.0
 40
17.0
 40
18.0
 40
18.0
 40
18.0
 40
19.0
 40
19.0
 40
19.0
 40
20.0
 40
20.0
 40
20.0
 40
21.0
 40
21.0
 40
21.0
 40
22.0
 40
22.0
 40
22.0
 40
23.0
 40
23.0
 40
23.0
 40
24.0
 40
24.0
 40
24.0
 40
25.0
 40
25.0
 40
25.0
 40
26.0
 40
26.0
 40
26.0
 40
27.0
 40
27.0
 40
27.0
 40
28.0
 40
28.0
 40
28.0
 40
29.0
 40
29.0
 40
29.0
 40
30.0
 40
30.0
 40
30.0
 40
31.0
 40
31.0
 40
31.0
 40
32.0
 40
32.0
 40
32.0
 40
33.0
 40
33.0
 40
33.0
 40
34.0
 40
34.0
 40
34.0
 40
35.0
 40
35.0
 40
35.0
 40
36.0
 40
36.0
 40
36.0
 40
36.0
 10
110.7932372769892
 20
-160.2369031717463
 10
110.7932372769892
 20
-160.2369031717463
 10
110.8928005365129
 20
-160.3364664312701
 10
110.8928005365129
 20
-160.3364664312701
 10
110.9034803325172
 20
-160.3468017177258
 10
110.9138156189729
 20
-160.3595485710212
 10
110.9138156189729
 20
-160.3743624816078
 10
110.9138156189729
 20
-160.3764295388989
 10
110.9138156189729
 20
-160.4060573600721
 10
110.8759195686352
 20
-160.4060573600721
 10
110.8673068299221
 20
-160.4060573600721
 10
110.8269992127446
 20
-160.4019232454898
 10
110.8207980408712
 20
-160.4019232454898
 10
110.7804904236938
 20
-160.4336181239541
 10
110.7339816346429
 20
-160.4673800597095
 10
110.6347628846677
 20
-160.5245686447647
 10
110.7804904236938
 20
-160.632400133453
 10
110.9393093255638
 20
-160.6895887185082
 10
111.2121608879956
 20
-160.7278292783944
 10
111.2121608879956
 20
-160.7278292783944
 10
111.0619547248387
 20
-160.9031846385936
 10
111.0619547248387
 20
-160.9031846385936
 10
110.7997829584112
 20
-160.8311821429519
 10
110.6430311138323
 20
-160.742643188981
 10
110.5668945036083
 20
-160.6895887185082
 10
110.4166883404514
 20
-160.5879584016933
 10
110.2730278587165
 20
-160.425005385241
 10
110.1968912484924
 20
-160.2599853114975
 10
110.129022867433
 20
-160.3257866352658
 10
110.0549533145002
 20
-160.3784965961901
 10
109.976749646985
 20
-160.4274169520806
 10
109.976749646985
 20
-160.4274169520806
 10
109.976749646985
 20
-160.6789089225039
 10
109.976749646985
 20
-160.6789089225039
 10
110.1397026634373
 20
-160.6537597254616
 10
110.3257378196408
 20
-160.6093179937018
 10
110.3891275765694
 20
-160.5945040831153
 10
110.3891275765694
 20
-160.5945040831153
 10
110.3594997553962
 20
-160.763658271441
 10
110.3594997553962
 20
-160.763658271441
 10
110.3574326981051
 20
-160.763658271441
 10
110.3384846729362
 20
-160.7698594433145
 10
110.3364176156451
 20
-160.7698594433145
 10
110.1376356061461
 20
-160.8081000032008
 10
109.8203423119546
 20
-160.8735568174205
 10
109.6232828501984
 20
-160.9097303200156
 10
109.6129475637426
 20
-160.9266112878934
 10
109.5895209144429
 20
-160.9583061663577
 10
109.5664387746917
 20
-160.9583061663577
 10
109.5388780108097
 20
-160.9583061663577
 10
109.5347438962274
 20
-160.9393581411888
 10
109.5323323293878
 20
-160.9200656064714
 10
109.5323323293878
 20
-160.9200656064714
 10
109.5071831323454
 20
-160.7467773035633
 10
109.5071831323454
 20
-160.7467773035633
 10
109.5812526852783
 20
-160.7381645648502
 10
109.6890841739666
 20
-160.7254177115548
 10
109.7969156626549
 20
-160.7044026290947
 10
109.7969156626549
 20
-160.7044026290947
 10
109.7969156626549
 20
-160.5266357020558
 10
109.7969156626549
 20
-160.5266357020558
 10
109.6529106713715
 20
-160.5986381976976
 10
109.5578260359786
 20
-160.6282660188707
 10
109.3928059622351
 20
-160.6578938400439
 10
109.3928059622351
 20
-160.6578938400439
 10
109.2722276202514
 20
-160.4887396517181
 10
109.2722276202514
 20
-160.4887396517181
 10
109.5895209144429
 20
-160.4611788878361
 10
109.7821017520684
 20
-160.3681613097343
 10
109.9598686791073
 20
-160.2348361144552
 10
109.8137966305327
 20
-160.2348361144552
 10
109.5133843042189
 20
-160.2389702290375
 10
109.3166693520111
 20
-160.2455159104595
 10
109.3166693520111
 20
-160.2455159104595
 10
109.3166693520111
 20
-160.0677489834206
 10
109.3166693520111
 20
-160.0677489834206
 10
109.4710096297503
 20
-160.073950155294
 10
109.7672878414818
 20
-160.080495836716
 10
109.9512559403941
 20
-160.080495836716
 10
109.9512559403941
 20
-160.080495836716
 10
110.1627848031885
 20
-160.080495836716
 10
110.1627848031885
 20
-160.080495836716
 10
110.1627848031885
 20
-159.9850666917746
 10
110.1607177458973
 20
-159.9344237881414
 10
110.1545165740239
 20
-159.8879149990905
 10
110.1545165740239
 20
-159.8879149990905
 10
110.3701795514005
 20
-159.9047959669683
 10
110.3701795514005
 20
-159.9047959669683
 10
110.4187553977425
 20
-159.9089300815506
 10
110.4273681364557
 20
-159.9237439921371
 10
110.4273681364557
 20
-159.9385579027237
 10
110.4273681364557
 20
-159.9640516093145
 10
110.4104871685779
 20
-159.9723198384791
 10
110.3594997553962
 20
-159.99781354507
 10
110.3574326981051
 20
-160.0233072516608
 10
110.3574326981051
 20
-160.0295084235343
 10
110.3553656408139
 20
-160.080495836716
 10
110.3553656408139
 20
-160.080495836716
 10
110.5858425287771
 20
-160.080495836716
 10
110.5858425287771
 20
-160.080495836716
 10
110.7508626025206
 20
-160.080495836716
 10
111.0430066996698
 20
-160.073950155294
 10
111.2228406839998
 20
-160.0677489834206
 10
111.2228406839998
 20
-160.0677489834206
 10
111.2228406839998
 20
-160.2455159104595
 10
111.2228406839998
 20
-160.2455159104595
 10
111.093649603303
 20
-160.2410372863286
 10
111.0705674635518
 20
-160.2410372863286
 10
110.7932372769892
 20
-160.2369031717463
 97
        0
 97
        0
 92
        1
 93
        1
 72
     4
 94
        3
 73
     0
 74
     1
 95
       23
 96
       19
 40
0.0
 40
0.0
 40
0.0
 40
0.0
 40
1.0
 40
1.0
 40
1.0
 40
2.0
 40
2.0
 40
2.0
 40
3.0
 40
3.0
 40
3.0
 40
4.0
 40
4.0
 40
4.0
 40
5.0
 40
5.0
 40
5.0
 40
6.0
 40
6.0
 40
6.0
 40
6.0
 10
109.5092501896366
 20
-159.8858479417994
 10
109.4923692217589
 20
-159.9258110494283
 10
109.4858235403369
 20
-159.942692017306
 10
109.4648084578769
 20
-159.942692017306
 10
109.4499945472903
 20
-159.942692017306
 10
109.439314751286
 20
-159.9258110494283
 10
109.4331135794126
 20
-159.9130641961329
 10
109.4331135794126
 20
-159.9130641961329
 10
109.3335503198888
 20
-159.7480441223894
 10
109.3335503198888
 20
-159.7480441223894
 10
109.4351806367037
 20
-159.7163492439251
 10
109.5853867998606
 20
-159.6615722257096
 10
109.7841688093595
 20
-159.4986192092573
 10
109.7841688093595
 20
-159.4986192092573
 10
109.8413573944147
 20
-159.6719075121654
 10
109.8413573944147
 20
-159.6719075121654
 10
109.7483398163129
 20
-159.7545898038114
 10
109.6594563527935
 20
-159.8117783888665
 10
109.5092501896366
 20
-159.8858479417994
 97
        0
 97
        0
 92
        1
 93
        1
 72
     4
 94
        3
 73
     0
 74
     1
 95
       17
 96
       13
 40
0.0
 40
0.0
 40
0.0
 40
0.0
 40
1.0
 40
1.0
 40
1.0
 40
2.0
 40
2.0
 40
2.0
 40
3.0
 40
3.0
 40
3.0
 40
4.0
 40
4.0
 40
4.0
 40
4.0
 10
109.6615234100846
 20
-159.4204155417421
 10
109.6318955889115
 20
-159.3801079245647
 10
109.564027207852
 20
-159.2829562318807
 10
109.3821261662309
 20
-159.1727131763527
 10
109.3821261662309
 20
-159.1727131763527
 10
109.5092501896366
 20
-159.0393879810735
 10
109.5092501896366
 20
-159.0393879810735
 10
109.6952853458401
 20
-159.1410182978884
 10
109.7524739308952
 20
-159.2299017614078
 10
109.7800346947772
 20
-159.2722764358764
 10
109.7800346947772
 20
-159.2722764358764
 10
109.6615234100846
 20
-159.4204155417421
 10
109.6615234100846
 20
-159.4204155417421
 97
        0
 97
        0
 92
        1
 93
        1
 72
     4
 94
        3
 73
     0
 74
     1
 95
       38
 96
       34
 40
0.0
 40
0.0
 40
0.0
 40
0.0
 40
1.0
 40
1.0
 40
1.0
 40
2.0
 40
2.0
 40
2.0
 40
3.0
 40
3.0
 40
3.0
 40
4.0
 40
4.0
 40
4.0
 40
5.0
 40
5.0
 40
5.0
 40
6.0
 40
6.0
 40
6.0
 40
7.0
 40
7.0
 40
7.0
 40
8.0
 40
8.0
 40
8.0
 40
9.0
 40
9.0
 40
9.0
 40
10.0
 40
10.0
 40
10.0
 40
11.0
 40
11.0
 40
11.0
 40
11.0
 10
110.0294596079093
 20
-159.1155245912975
 10
110.0273925506182
 20
-159.1623778898969
 10
110.025325493327
 20
-159.2784776077498
 10
110.025325493327
 20
-159.3229193395096
 10
110.025325493327
 20
-159.3229193395096
 10
110.025325493327
 20
-159.6698404548742
 10
110.025325493327
 20
-159.6698404548742
 10
110.025325493327
 20
-159.7566568611025
 10
110.0273925506182
 20
-159.8982502855463
 10
110.0380723466224
 20
-160.01882862753
 10
110.0380723466224
 20
-160.01882862753
 10
109.8475585662881
 20
-160.01882862753
 10
109.8475585662881
 20
-160.01882862753
 10
109.8520371904189
 20
-159.9554388706014
 10
109.8561713050012
 20
-159.9027289096771
 10
109.8582383622924
 20
-159.8476073819131
 10
109.8603054195835
 20
-159.7249619826382
 10
109.8623724768747
 20
-159.7101480720516
 10
109.8623724768747
 20
-159.6657063402919
 10
109.8623724768747
 20
-159.6657063402919
 10
109.8623724768747
 20
-159.3442789315181
 10
109.8623724768747
 20
-159.3442789315181
 10
109.8623724768747
 20
-159.2891574037541
 10
109.8496256235793
 20
-159.0500677770778
 10
109.8475585662881
 20
-158.9994248734446
 10
109.8475585662881
 20
-158.9994248734446
 10
110.0487521426267
 20
-159.0269856373266
 10
110.0487521426267
 20
-159.0269856373266
 10
110.0697672250867
 20
-159.0290526946177
 10
110.101462103551
 20
-159.0331868092
 10
110.101462103551
 20
-159.0586805157909
 10
110.101462103551
 20
-159.0858967701244
 10
110.0508191999179
 20
-159.1072563621329
 10
110.0294596079093
 20
-159.1155245912975
 97
        0
 97
        0
 92
        1
 93
        1
 72
     4
 94
        3
 73
     0
 74
     1
 95
       83
 96
       79
 40
0.0
 40
0.0
 40
0.0
 40
0.0
 40
1.0
 40
1.0
 40
1.0
 40
2.0
 40
2.0
 40
2.0
 40
3.0
 40
3.0
 40
3.0
 40
4.0
 40
4.0
 40
4.0
 40
5.0
 40
5.0
 40
5.0
 40
6.0
 40
6.0
 40
6.0
 40
7.0
 40
7.0
 40
7.0
 40
8.0
 40
8.0
 40
8.0
 40
9.0
 40
9.0
 40
9.0
 40
10.0
 40
10.0
 40
10.0
 40
11.0
 40
11.0
 40
11.0
 40
12.0
 40
12.0
 40
12.0
 40
13.0
 40
13.0
 40
13.0
 40
14.0
 40
14.0
 40
14.0
 40
15.0
 40
15.0
 40
15.0
 40
16.0
 40
16.0
 40
16.0
 40
17.0
 40
17.0
 40
17.0
 40
18.0
 40
18.0
 40
18.0
 40
19.0
 40
19.0
 40
19.0
 40
20.0
 40
20.0
 40
20.0
 40
21.0
 40
21.0
 40
21.0
 40
22.0
 40
22.0
 40
22.0
 40
23.0
 40
23.0
 40
23.0
 40
24.0
 40
24.0
 40
24.0
 40
25.0
 40
25.0
 40
25.0
 40
26.0
 40
26.0
 40
26.0
 40
26.0
 10
110.8314778368755
 20
-159.4372965096198
 10
110.8314778368755
 20
-159.4372965096198
 10
110.7339816346429
 20
-159.4372965096198
 10
110.7339816346429
 20
-159.4372965096198
 10
110.7339816346429
 20
-159.4372965096198
 10
110.7339816346429
 20
-159.6846543654608
 10
110.7339816346429
 20
-159.6846543654608
 10
110.7339816346429
 20
-159.6846543654608
 10
110.8166639262889
 20
-159.6846543654608
 10
110.8166639262889
 20
-159.6846543654608
 10
110.8821207405086
 20
-159.6846543654608
 10
111.0216471076613
 20
-159.6805202508785
 10
111.121210367185
 20
-159.6719075121654
 10
111.121210367185
 20
-159.6719075121654
 10
111.121210367185
 20
-159.8517414964954
 10
111.121210367185
 20
-159.8517414964954
 10
111.0281927890832
 20
-159.8434732673308
 10
110.8779866259263
 20
-159.8393391527485
 10
110.8166639262889
 20
-159.8393391527485
 10
110.8166639262889
 20
-159.8393391527485
 10
110.5117729758443
 20
-159.8393391527485
 10
110.5117729758443
 20
-159.8393391527485
 10
110.45906301492
 20
-159.8393391527485
 10
110.3129909663454
 20
-159.8434732673308
 10
110.2072265349482
 20
-159.8517414964954
 10
110.2072265349482
 20
-159.8517414964954
 10
110.2072265349482
 20
-159.6719075121654
 10
110.2072265349482
 20
-159.6719075121654
 10
110.3067897944719
 20
-159.6805202508785
 10
110.4463161616245
 20
-159.6846543654608
 10
110.5117729758443
 20
-159.6846543654608
 10
110.5117729758443
 20
-159.6846543654608
 10
110.556214707604
 20
-159.6846543654608
 10
110.556214707604
 20
-159.6846543654608
 10
110.556214707604
 20
-159.6846543654608
 10
110.556214707604
 20
-159.4372965096198
 10
110.556214707604
 20
-159.4372965096198
 10
110.556214707604
 20
-159.4372965096198
 10
110.4824896642197
 20
-159.4372965096198
 10
110.4824896642197
 20
-159.4372965096198
 10
110.4208224550337
 20
-159.4372965096198
 10
110.2537353239991
 20
-159.4414306242022
 10
110.1331569820153
 20
-159.4500433629153
 10
110.1331569820153
 20
-159.4500433629153
 10
110.1331569820153
 20
-159.2722764358764
 10
110.1331569820153
 20
-159.2722764358764
 10
110.2475341521256
 20
-159.2784776077498
 10
110.4060085444471
 20
-159.2829562318807
 10
110.4824896642197
 20
-159.2829562318807
 10
110.4824896642197
 20
-159.2829562318807
 10
110.5541476503129
 20
-159.2829562318807
 10
110.5541476503129
 20
-159.2829562318807
 10
110.5500135357306
 20
-159.1303385018841
 10
110.5479464784394
 20
-159.0965765661286
 10
110.5414007970174
 20
-159.0035589880269
 10
110.5414007970174
 20
-159.0035589880269
 10
110.7532741693603
 20
-159.0269856373266
 10
110.7532741693603
 20
-159.0269856373266
 10
110.7784233664026
 20
-159.0290526946177
 10
110.8018500157023
 20
-159.0331868092
 10
110.8018500157023
 20
-159.0562689489512
 10
110.8018500157023
 20
-159.088308336964
 10
110.7574082839426
 20
-159.1051893048418
 10
110.7339816346429
 20
-159.1134575340064
 10
110.7339816346429
 20
-159.1134575340064
 10
110.7339816346429
 20
-159.2829562318807
 10
110.7339816346429
 20
-159.2829562318807
 10
110.7339816346429
 20
-159.2829562318807
 10
110.8314778368755
 20
-159.2829562318807
 10
110.8314778368755
 20
-159.2829562318807
 10
110.9076144470995
 20
-159.2829562318807
 10
111.066088839421
 20
-159.2784776077498
 10
111.1825330668224
 20
-159.2722764358764
 10
111.1825330668224
 20
-159.2722764358764
 10
111.1825330668224
 20
-159.4500433629153
 10
111.1825330668224
 20
-159.4500433629153
 10
111.0747015781341
 20
-159.4434976814933
 10
110.9010687656775
 20
-159.4372965096198
 10
110.8314778368755
 20
-159.4372965096198
 97
        0
 97
        0
 92
        1
 93
        1
 72
     4
 94
        3
 73
     0
 74
     1
 95
       17
 96
       13
 40
0.0
 40
0.0
 40
0.0
 40
0.0
 40
1.0
 40
1.0
 40
1.0
 40
2.0
 40
2.0
 40
2.0
 40
3.0
 40
3.0
 40
3.0
 40
4.0
 40
4.0
 40
4.0
 40
4.0
 10
110.5858425287771
 20
-160.2348361144552
 10
110.5858425287771
 20
-160.2348361144552
 10
110.3829264046959
 20
-160.2348361144552
 10
110.3829264046959
 20
-160.2348361144552
 10
110.4104871685779
 20
-160.2940917568015
 10
110.4652641867934
 20
-160.3660942524432
 10
110.4928249506754
 20
-160.3953775640678
 10
110.5203857145574
 20
-160.3809081630298
 10
110.6347628846677
 20
-160.3171738965526
 10
110.7257134054783
 20
-160.2348361144552
 10
110.7257134054783
 20
-160.2348361144552
 10
110.5858425287771
 20
-160.2348361144552
 10
110.5858425287771
 20
-160.2348361144552
 97
        0
 97
        0
 75
     2
 76
     1
 98
        0
  0
SPLINE
  5
B6
330
A3
100
AcDbEntity
  8
_U+30EC_U+30A4_U+30E4_U+30FC 1
370
     0
100
AcDbSpline
210
0.0
220
0.0
230
1.0
 70
    11
 71
     3
 72
    77
 73
    73
 74
     0
 42
0.0000000001
 43
0.0000000001
 12
1.0
 22
0.0
 32
0.0
 13
1.0
 23
0.0
 33
0.0
 40
0.0
 40
0.0
 40
0.0
 40
0.0
 40
1.0
 40
1.0
 40
1.0
 40
2.0
 40
2.0
 40
2.0
 40
3.0
 40
3.0
 40
3.0
 40
4.0
 40
4.0
 40
4.0
 40
5.0
 40
5.0
 40
5.0
 40
6.0
 40
6.0
 40
6.0
 40
7.0
 40
7.0
 40
7.0
 40
8.0
 40
8.0
 40
8.0
 40
9.0
 40
9.0
 40
9.0
 40
10.0
 40
10.0
 40
10.0
 40
11.0
 40
11.0
 40
11.0
 40
12.0
 40
12.0
 40
12.0
 40
13.0
 40
13.0
 40
13.0
 40
14.0
 40
14.0
 40
14.0
 40
15.0
 40
15.0
 40
15.0
 40
16.0
 40
16.0
 40
16.0
 40
17.0
 40
17.0
 40
17.0
 40
18.0
 40
18.0
 40
18.0
 40
19.0
 40
19.0
 40
19.0
 40
20.0
 40
20.0
 40
20.0
 40
21.0
 40
21.0
 40
21.0
 40
22.0
 40
22.0
 40
22.0
 40
23.0
 40
23.0
 40
23.0
 40
24.0
 40
24.0
 40
24.0
 40
24.0
 10
113.0769910741613
 20
-160.8652885882559
 30
0.0
 10
113.0304822851104
 20
-160.8904377852982
 30
0.0
 10
112.9057698285444
 20
-160.9031846385936
 30
0.0
 10
112.8272216514807
 20
-160.9031846385936
 30
0.0
 10
112.8148193077338
 20
-160.9031846385936
 30
0.0
 10
112.7893256011429
 20
-160.9031846385936
 30
0.0
 10
112.7555636653875
 20
-160.8990505240114
 30
0.0
 10
112.7555636653875
 20
-160.8990505240114
 30
0.0
 10
112.6580674631549
 20
-160.6727077506305
 30
0.0
 10
112.6580674631549
 20
-160.6727077506305
 30
0.0
 10
112.6876952843281
 20
-160.6789089225039
 30
0.0
 10
112.7448838693832
 20
-160.687521661217
 30
0.0
 10
112.8613280967847
 20
-160.687521661217
 30
0.0
 10
112.9395317642998
 20
-160.687521661217
 30
0.0
 10
112.941598821591
 20
-160.6451469867484
 30
0.0
 10
112.941598821591
 20
-160.5879584016933
 30
0.0
 10
112.941598821591
 20
-160.5879584016933
 30
0.0
 10
112.941598821591
 20
-160.2389702290375
 30
0.0
 10
112.941598821591
 20
-160.2389702290375
 30
0.0
 10
112.941598821591
 20
-160.2389702290375
 30
0.0
 10
112.4823675934072
 20
-160.2389702290375
 30
0.0
 10
112.4823675934072
 20
-160.2389702290375
 30
0.0
 10
112.4847791602469
 20
-160.3764295388989
 30
0.0
 10
112.486846217538
 20
-160.5752115483979
 30
0.0
 10
112.4930473894115
 20
-160.708536743677
 30
0.0
 10
112.4951144467026
 20
-160.736097507559
 30
0.0
 10
112.4951144467026
 20
-160.7805392393188
 30
0.0
 10
112.507861299998
 20
-160.8418619389562
 30
0.0
 10
112.507861299998
 20
-160.8418619389562
 30
0.0
 10
112.2667046160306
 20
-160.8418619389562
 30
0.0
 10
112.2667046160306
 20
-160.8418619389562
 30
0.0
 10
112.2921983226214
 20
-160.7171494823902
 30
0.0
 10
112.2921983226214
 20
-160.3764295388989
 30
0.0
 10
112.2921983226214
 20
-160.2389702290375
 30
0.0
 10
112.2921983226214
 20
-160.2389702290375
 30
0.0
 10
111.8498480623153
 20
-160.2389702290375
 30
0.0
 10
111.8498480623153
 20
-160.2389702290375
 30
0.0
 10
111.8267659225641
 20
-160.4463649772495
 30
0.0
 10
111.7613091083444
 20
-160.715082425099
 30
0.0
 10
111.5642496465881
 20
-160.8990505240114
 30
0.0
 10
111.5642496465881
 20
-160.8990505240114
 30
0.0
 10
111.3761474330935
 20
-160.7764051247365
 30
0.0
 10
111.3761474330935
 20
-160.7764051247365
 30
0.0
 10
111.6300509703564
 20
-160.556263523229
 30
0.0
 10
111.6617458488207
 20
-160.2241563184509
 30
0.0
 10
111.6617458488207
 20
-159.8920491136728
 30
0.0
 10
111.6617458488207
 20
-159.8920491136728
 30
0.0
 10
111.6617458488207
 20
-159.4562445347887
 30
0.0
 10
111.6617458488207
 20
-159.4562445347887
 30
0.0
 10
111.6617458488207
 20
-159.4204155417421
 30
0.0
 10
111.6596787915295
 20
-159.1875270869392
 30
0.0
 10
111.6510660528164
 20
-159.0858967701244
 30
0.0
 10
111.7909369295175
 20
-159.0965765661286
 30
0.0
 10
112.032093613485
 20
-159.0965765661286
 30
0.0
 10
112.17575409522
 20
-159.0965765661286
 30
0.0
 10
112.17575409522
 20
-159.0965765661286
 30
0.0
 10
112.6349853234038
 20
-159.0965765661286
 30
0.0
 10
112.6349853234038
 20
-159.0965765661286
 30
0.0
 10
112.6497992339903
 20
-159.0965765661286
 30
0.0
 10
112.9987874066461
 20
-159.0965765661286
 30
0.0
 10
113.1572617989676
 20
-159.0858967701244
 30
0.0
 10
113.1551947416765
 20
-159.1389512405972
 30
0.0
 10
113.148993569803
 20
-159.2998371997584
 30
0.0
 10
113.148993569803
 20
-159.3504801033916
 30
0.0
 10
113.148993569803
 20
-159.3504801033916
 30
0.0
 10
113.148993569803
 20
-159.9575059278926
 30
0.0
 10
113.148993569803
 20
-159.9575059278926
 30
0.0
 10
113.148993569803
 20
-159.97679846261
 30
0.0
 10
113.1593288562588
 20
-160.5479952940644
 30
0.0
 10
113.1593288562588
 20
-160.659960897335
 30
0.0
 10
113.1593288562588
 20
-160.7171494823902
 30
0.0
 10
113.1593288562588
 20
-160.818779799205
 30
0.0
 10
113.0769910741613
 20
-160.8652885882559
 30
0.0
  0
POLYLINE
  5
B7
330
A3
100
AcDbEntity
  8
_U+30EC_U+30A4_U+30E4_U+30FC 1
370
     0
100
AcDb2dPolyline
 66
     1
 10
0.0
 20
0.0
 30
0.0
  0
VERTEX
  5
B8
330
B7
100
AcDbEntity
  8
_U+30EC_U+30A4_U+30E4_U+30FC 1
370
     0
100
AcDbVertex
100
AcDb2dVertex
 10
112.2921983226214
 20
-159.2784776077498
 30
0.0
  0
VERTEX
  5
B9
330
B7
100
AcDbEntity
  8
_U+30EC_U+30A4_U+30E4_U+30FC 1
370
     0
100
AcDbVertex
100
AcDb2dVertex
 10
111.8543266864461
 20
-159.2784776077498
 30
0.0
  0
VERTEX
  5
BA
330
B7
100
AcDbEntity
  8
_U+30EC_U+30A4_U+30E4_U+30FC 1
370
     0
100
AcDbVertex
100
AcDb2dVertex
 10
111.8543266864461
 20
-159.5830240486459
 30
0.0
  0
VERTEX
  5
BB
330
B7
100
AcDbEntity
  8
_U+30EC_U+30A4_U+30E4_U+30FC 1
370
     0
100
AcDbVertex
100
AcDb2dVertex
 10
112.2921983226214
 20
-159.5830240486459
 30
0.0
  0
VERTEX
  5
BC
330
B7
100
AcDbEntity
  8
_U+30EC_U+30A4_U+30E4_U+30FC 1
370
     0
100
AcDbVertex
100
AcDb2dVertex
 10
112.2921983226214
 20
-159.2784776077498
 30
0.0
  0
SEQEND
  5
BD
330
B7
100
AcDbEntity
  8
_U+30EC_U+30A4_U+30E4_U+30FC 1
370
     0
  0
POLYLINE
  5
BE
330
A3
100
AcDbEntity
  8
_U+30EC_U+30A4_U+30E4_U+30FC 1
370
     0
100
AcDb2dPolyline
 66
     1
 10
0.0
 20
0.0
 30
0.0
  0
VERTEX
  5
BF
330
BE
100
AcDbEntity
  8
_U+30EC_U+30A4_U+30E4_U+30FC 1
370
     0
100
AcDbVertex
100
AcDb2dVertex
 10
112.2921983226214
 20
-159.7504556892291
 30
0.0
  0
VERTEX
  5
C0
330
BE
100
AcDbEntity
  8
_U+30EC_U+30A4_U+30E4_U+30FC 1
370
     0
100
AcDbVertex
100
AcDb2dVertex
 10
111.8543266864461
 20
-159.7504556892291
 30
0.0
  0
VERTEX
  5
C1
330
BE
100
AcDbEntity
  8
_U+30EC_U+30A4_U+30E4_U+30FC 1
370
     0
100
AcDbVertex
100
AcDb2dVertex
 10
111.8543266864461
 20
-160.0591362447074
 30
0.0
  0
VERTEX
  5
C2
330
BE
100
AcDbEntity
  8
_U+30EC_U+30A4_U+30E4_U+30FC 1
370
     0
100
AcDbVertex
100
AcDb2dVertex
 10
112.2921983226214
 20
-160.0591362447074
 30
0.0
  0
VERTEX
  5
C3
330
BE
100
AcDbEntity
  8
_U+30EC_U+30A4_U+30E4_U+30FC 1
370
     0
100
AcDbVertex
100
AcDb2dVertex
 10
112.2921983226214
 20
-159.7504556892291
 30
0.0
  0
SEQEND
  5
C4
330
BE
100
AcDbEntity
  8
_U+30EC_U+30A4_U+30E4_U+30FC 1
370
     0
  0
POLYLINE
  5
C5
330
A3
100
AcDbEntity
  8
_U+30EC_U+30A4_U+30E4_U+30FC 1
370
     0
100
AcDb2dPolyline
 66
     1
 10
0.0
 20
0.0
 30
0.0
  0
VERTEX
  5
C6
330
C5
100
AcDbEntity
  8
_U+30EC_U+30A4_U+30E4_U+30FC 1
370
     0
100
AcDbVertex
100
AcDb2dVertex
 10
112.941598821591
 20
-159.2784776077498
 30
0.0
  0
VERTEX
  5
C7
330
C5
100
AcDbEntity
  8
_U+30EC_U+30A4_U+30E4_U+30FC 1
370
     0
100
AcDbVertex
100
AcDb2dVertex
 10
112.4823675934072
 20
-159.2784776077498
 30
0.0
  0
VERTEX
  5
C8
330
C5
100
AcDbEntity
  8
_U+30EC_U+30A4_U+30E4_U+30FC 1
370
     0
100
AcDbVertex
100
AcDb2dVertex
 10
112.4823675934072
 20
-159.5830240486459
 30
0.0
  0
VERTEX
  5
C9
330
C5
100
AcDbEntity
  8
_U+30EC_U+30A4_U+30E4_U+30FC 1
370
     0
100
AcDbVertex
100
AcDb2dVertex
 10
112.941598821591
 20
-159.5830240486459
 30
0.0
  0
VERTEX
  5
CA
330
C5
100
AcDbEntity
  8
_U+30EC_U+30A4_U+30E4_U+30FC 1
370
     0
100
AcDbVertex
100
AcDb2dVertex
 10
112.941598821591
 20
-159.2784776077498
 30
0.0
  0
SEQEND
  5
CB
330
C5
100
AcDbEntity
  8
_U+30EC_U+30A4_U+30E4_U+30FC 1
370
     0
  0
POLYLINE
  5
CC
330
A3
100
AcDbEntity
  8
_U+30EC_U+30A4_U+30E4_U+30FC 1
370
     0
100
AcDb2dPolyline
 66
     1
 10
0.0
 20
0.0
 30
0.0
  0
VERTEX
  5
CD
330
CC
100
AcDbEntity
  8
_U+30EC_U+30A4_U+30E4_U+30FC 1
370
     0
100
AcDbVertex
100
AcDb2dVertex
 10
112.941598821591
 20
-159.7504556892291
 30
0.0
  0
VERTEX
  5
CE
330
CC
100
AcDbEntity
  8
_U+30EC_U+30A4_U+30E4_U+30FC 1
370
     0
100
AcDbVertex
100
AcDb2dVertex
 10
112.4823675934072
 20
-159.7504556892291
 30
0.0
  0
VERTEX
  5
CF
330
CC
100
AcDbEntity
  8
_U+30EC_U+30A4_U+30E4_U+30FC 1
370
     0
100
AcDbVertex
100
AcDb2dVertex
 10
112.4823675934072
 20
-160.0591362447074
 30
0.0
  0
VERTEX
  5
D0
330
CC
100
AcDbEntity
  8
_U+30EC_U+30A4_U+30E4_U+30FC 1
370
     0
100
AcDbVertex
100
AcDb2dVertex
 10
112.941598821591
 20
-160.0591362447074
 30
0.0
  0
VERTEX
  5
D1
330
CC
100
AcDbEntity
  8
_U+30EC_U+30A4_U+30E4_U+30FC 1
370
     0
100
AcDbVertex
100
AcDb2dVertex
 10
112.941598821591
 20
-159.7504556892291
 30
0.0
  0
SEQEND
  5
D2
330
CC
100
AcDbEntity
  8
_U+30EC_U+30A4_U+30E4_U+30FC 1
370
     0
  0
HATCH
  5
D3
330
A3
100
AcDbEntity
  8
_U+30EC_U+30A4_U+30E4_U+30FC 1
 62
   179
420
  2234388
100
AcDbHatch
 10
0.0
 20
0.0
 30
0.0
210
0.0
220
0.0
230
1.0
  2
SOLID
 70
     1
 71
     0
 91
        5
 92
        1
 93
        1
 72
     4
 94
        3
 73
     0
 74
     1
 95
       77
 96
       73
 40
0.0
 40
0.0
 40
0.0
 40
0.0
 40
1.0
 40
1.0
 40
1.0
 40
2.0
 40
2.0
 40
2.0
 40
3.0
 40
3.0
 40
3.0
 40
4.0
 40
4.0
 40
4.0
 40
5.0
 40
5.0
 40
5.0
 40
6.0
 40
6.0
 40
6.0
 40
7.0
 40
7.0
 40
7.0
 40
8.0
 40
8.0
 40
8.0
 40
9.0
 40
9.0
 40
9.0
 40
10.0
 40
10.0
 40
10.0
 40
11.0
 40
11.0
 40
11.0
 40
12.0
 40
12.0
 40
12.0
 40
13.0
 40
13.0
 40
13.0
 40
14.0
 40
14.0
 40
14.0
 40
15.0
 40
15.0
 40
15.0
 40
16.0
 40
16.0
 40
16.0
 40
17.0
 40
17.0
 40
17.0
 40
18.0
 40
18.0
 40
18.0
 40
19.0
 40
19.0
 40
19.0
 40
20.0
 40
20.0
 40
20.0
 40
21.0
 40
21.0
 40
21.0
 40
22.0
 40
22.0
 40
22.0
 40
23.0
 40
23.0
 40
23.0
 40
24.0
 40
24.0
 40
24.0
 40
24.0
 10
113.0769910741613
 20
-160.8652885882559
 10
113.0304822851104
 20
-160.8904377852982
 10
112.9057698285444
 20
-160.9031846385936
 10
112.8272216514807
 20
-160.9031846385936
 10
112.8148193077338
 20
-160.9031846385936
 10
112.7893256011429
 20
-160.9031846385936
 10
112.7555636653875
 20
-160.8990505240114
 10
112.7555636653875
 20
-160.8990505240114
 10
112.6580674631549
 20
-160.6727077506305
 10
112.6580674631549
 20
-160.6727077506305
 10
112.6876952843281
 20
-160.6789089225039
 10
112.7448838693832
 20
-160.687521661217
 10
112.8613280967847
 20
-160.687521661217
 10
112.9395317642998
 20
-160.687521661217
 10
112.941598821591
 20
-160.6451469867484
 10
112.941598821591
 20
-160.5879584016933
 10
112.941598821591
 20
-160.5879584016933
 10
112.941598821591
 20
-160.2389702290375
 10
112.941598821591
 20
-160.2389702290375
 10
112.941598821591
 20
-160.2389702290375
 10
112.4823675934072
 20
-160.2389702290375
 10
112.4823675934072
 20
-160.2389702290375
 10
112.4847791602469
 20
-160.3764295388989
 10
112.486846217538
 20
-160.5752115483979
 10
112.4930473894115
 20
-160.708536743677
 10
112.4951144467026
 20
-160.736097507559
 10
112.4951144467026
 20
-160.7805392393188
 10
112.507861299998
 20
-160.8418619389562
 10
112.507861299998
 20
-160.8418619389562
 10
112.2667046160306
 20
-160.8418619389562
 10
112.2667046160306
 20
-160.8418619389562
 10
112.2921983226214
 20
-160.7171494823902
 10
112.2921983226214
 20
-160.3764295388989
 10
112.2921983226214
 20
-160.2389702290375
 10
112.2921983226214
 20
-160.2389702290375
 10
111.8498480623153
 20
-160.2389702290375
 10
111.8498480623153
 20
-160.2389702290375
 10
111.8267659225641
 20
-160.4463649772495
 10
111.7613091083444
 20
-160.715082425099
 10
111.5642496465881
 20
-160.8990505240114
 10
111.5642496465881
 20
-160.8990505240114
 10
111.3761474330935
 20
-160.7764051247365
 10
111.3761474330935
 20
-160.7764051247365
 10
111.6300509703564
 20
-160.556263523229
 10
111.6617458488207
 20
-160.2241563184509
 10
111.6617458488207
 20
-159.8920491136728
 10
111.6617458488207
 20
-159.8920491136728
 10
111.6617458488207
 20
-159.4562445347887
 10
111.6617458488207
 20
-159.4562445347887
 10
111.6617458488207
 20
-159.4204155417421
 10
111.6596787915295
 20
-159.1875270869392
 10
111.6510660528164
 20
-159.0858967701244
 10
111.7909369295175
 20
-159.0965765661286
 10
112.032093613485
 20
-159.0965765661286
 10
112.17575409522
 20
-159.0965765661286
 10
112.17575409522
 20
-159.0965765661286
 10
112.6349853234038
 20
-159.0965765661286
 10
112.6349853234038
 20
-159.0965765661286
 10
112.6497992339903
 20
-159.0965765661286
 10
112.9987874066461
 20
-159.0965765661286
 10
113.1572617989676
 20
-159.0858967701244
 10
113.1551947416765
 20
-159.1389512405972
 10
113.148993569803
 20
-159.2998371997584
 10
113.148993569803
 20
-159.3504801033916
 10
113.148993569803
 20
-159.3504801033916
 10
113.148993569803
 20
-159.9575059278926
 10
113.148993569803
 20
-159.9575059278926
 10
113.148993569803
 20
-159.97679846261
 10
113.1593288562588
 20
-160.5479952940644
 10
113.1593288562588
 20
-160.659960897335
 10
113.1593288562588
 20
-160.7171494823902
 10
113.1593288562588
 20
-160.818779799205
 10
113.0769910741613
 20
-160.8652885882559
 97
        0
 97
        0
 92
        1
 93
        4
 72
     1
 10
112.2921983226214
 20
-159.2784776077498
 11
111.8543266864461
 21
-159.2784776077498
 72
     1
 10
111.8543266864461
 20
-159.2784776077498
 11
111.8543266864461
 21
-159.5830240486459
 72
     1
 10
111.8543266864461
 20
-159.5830240486459
 11
112.2921983226214
 21
-159.5830240486459
 72
     1
 10
112.2921983226214
 20
-159.5830240486459
 11
112.2921983226214
 21
-159.2784776077498
 97
        0
 92
        1
 93
        4
 72
     1
 10
112.2921983226214
 20
-159.7504556892291
 11
111.8543266864461
 21
-159.7504556892291
 72
     1
 10
111.8543266864461
 20
-159.7504556892291
 11
111.8543266864461
 21
-160.0591362447074
 72
     1
 10
111.8543266864461
 20
-160.0591362447074
 11
112.2921983226214
 21
-160.0591362447074
 72
     1
 10
112.2921983226214
 20
-160.0591362447074
 11
112.2921983226214
 21
-159.7504556892291
 97
        0
 92
        1
 93
        4
 72
     1
 10
112.941598821591
 20
-159.2784776077498
 11
112.4823675934072
 21
-159.2784776077498
 72
     1
 10
112.4823675934072
 20
-159.2784776077498
 11
112.4823675934072
 21
-159.5830240486459
 72
     1
 10
112.4823675934072
 20
-159.5830240486459
 11
112.941598821591
 21
-159.5830240486459
 72
     1
 10
112.941598821591
 20
-159.5830240486459
 11
112.941598821591
 21
-159.2784776077498
 97
        0
 92
        1
 93
        4
 72
     1
 10
112.941598821591
 20
-159.7504556892291
 11
112.4823675934072
 21
-159.7504556892291
 72
     1
 10
112.4823675934072
 20
-159.7504556892291
 11
112.4823675934072
 21
-160.0591362447074
 72
     1
 10
112.4823675934072
 20
-160.0591362447074
 11
112.941598821591
 21
-160.0591362447074
 72
     1
 10
112.941598821591
 20
-160.0591362447074
 11
112.941598821591
 21
-159.7504556892291
 97
        0
 75
     2
 76
     1
 98
        0
  0
SPLINE
  5
D4
330
A3
100
AcDbEntity
  8
_U+30EC_U+30A4_U+30E4_U+30FC 1
370
     0
100
AcDbSpline
210
0.0
220
0.0
230
1.0
 70
    11
 71
     3
 72
    44
 73
    40
 74
     0
 42
0.0000000001
 43
0.0000000001
 12
1.0
 22
0.0
 32
0.0
 13
1.0
 23
0.0
 33
0.0
 40
0.0
 40
0.0
 40
0.0
 40
0.0
 40
1.0
 40
1.0
 40
1.0
 40
2.0
 40
2.0
 40
2.0
 40
3.0
 40
3.0
 40
3.0
 40
4.0
 40
4.0
 40
4.0
 40
5.0
 40
5.0
 40
5.0
 40
6.0
 40
6.0
 40
6.0
 40
7.0
 40
7.0
 40
7.0
 40
8.0
 40
8.0
 40
8.0
 40
9.0
 40
9.0
 40
9.0
 40
10.0
 40
10.0
 40
10.0
 40
11.0
 40
11.0
 40
11.0
 40
12.0
 40
12.0
 40
12.0
 40
13.0
 40
13.0
 40
13.0
 40
13.0
 10
108.62558319767
 20
-162.1551323379335
 30
0.0
 10
108.5136175943994
 20
-162.5230685357581
 30
0.0
 10
108.4629746907662
 20
-162.6818874376281
 30
0.0
 10
108.2662597385584
 20
-162.9313123507602
 30
0.0
 10
108.0819471300976
 20
-163.162133748272
 30
0.0
 10
107.8452690702609
 20
-163.3481689044755
 30
0.0
 10
107.5658718264071
 20
-163.4411864825772
 30
0.0
 10
107.5658718264071
 20
-163.4411864825772
 30
0.0
 10
107.3732909887817
 20
-163.2613524982472
 30
0.0
 10
107.3732909887817
 20
-163.2613524982472
 30
0.0
 10
108.0144232585867
 20
-163.1090792777991
 30
0.0
 10
108.3444634060736
 20
-162.5526963569313
 30
0.0
 10
108.4078531630022
 20
-162.1127576634649
 30
0.0
 10
108.4078531630022
 20
-162.1127576634649
 30
0.0
 10
107.6420084366312
 20
-162.1127576634649
 30
0.0
 10
107.6420084366312
 20
-162.1127576634649
 30
0.0
 10
107.5489908585294
 20
-162.1127576634649
 30
0.0
 10
107.3650227596171
 20
-162.1168917780472
 30
0.0
 10
107.2082709150382
 20
-162.135839803216
 30
0.0
 10
107.2082709150382
 20
-162.135839803216
 30
0.0
 10
107.2082709150382
 20
-161.9160427112571
 30
0.0
 10
107.2082709150382
 20
-161.9160427112571
 30
0.0
 10
107.2950873212665
 20
-161.9370577937171
 30
0.0
 10
107.5469238012383
 20
-161.9370577937171
 30
0.0
 10
107.6461425512135
 20
-161.9370577937171
 30
0.0
 10
107.6461425512135
 20
-161.9370577937171
 30
0.0
 10
108.0778130155153
 20
-161.9370577937171
 30
0.0
 10
108.0778130155153
 20
-161.9370577937171
 30
0.0
 10
108.1201876899839
 20
-161.9370577937171
 30
0.0
 10
108.3547986925294
 20
-161.934990736426
 30
0.0
 10
108.3930392524156
 20
-161.9287895645525
 30
0.0
 10
108.4354139268842
 20
-161.9222438831306
 30
0.0
 10
108.4374809841754
 20
-161.9201768258394
 30
0.0
 10
108.4988036838128
 20
-161.879869208662
 30
0.0
 10
108.4988036838128
 20
-161.879869208662
 30
0.0
 10
108.6869058973074
 20
-162.0345539959497
 30
0.0
 10
108.6869058973074
 20
-162.0345539959497
 30
0.0
 10
108.6576225856828
 20
-162.0641818171229
 30
0.0
 10
108.6428086750962
 20
-162.0958766955872
 30
0.0
 10
108.62558319767
 20
-162.1551323379335
 30
0.0
  0
SPLINE
  5
D5
330
A3
100
AcDbEntity
  8
_U+30EC_U+30A4_U+30E4_U+30FC 1
370
     0
100
AcDbSpline
210
0.0
220
0.0
230
1.0
 70
    11
 71
     3
 72
    17
 73
    13
 74
     0
 42
0.0000000001
 43
0.0000000001
 12
1.0
 22
0.0
 32
0.0
 13
1.0
 23
0.0
 33
0.0
 40
0.0
 40
0.0
 40
0.0
 40
0.0
 40
1.0
 40
1.0
 40
1.0
 40
2.0
 40
2.0
 40
2.0
 40
3.0
 40
3.0
 40
3.0
 40
4.0
 40
4.0
 40
4.0
 40
4.0
 10
108.8350450031732
 20
-161.956005818886
 30
0.0
 10
108.708265489316
 20
-161.956005818886
 30
0.0
 10
108.6066351725011
 20
-161.8547200116197
 30
0.0
 10
108.6066351725011
 20
-161.7275959882139
 30
0.0
 10
108.6066351725011
 20
-161.6008164743567
 30
0.0
 10
108.708265489316
 20
-161.4971191002507
 30
0.0
 10
108.8350450031732
 20
-161.4971191002507
 30
0.0
 10
108.9621690265789
 20
-161.4971191002507
 30
0.0
 10
109.0658664006849
 20
-161.6008164743567
 30
0.0
 10
109.0658664006849
 20
-161.7275959882139
 30
0.0
 10
109.0658664006849
 20
-161.8547200116197
 30
0.0
 10
108.9621690265789
 20
-161.956005818886
 30
0.0
 10
108.8350450031732
 20
-161.956005818886
 30
0.0
  0
SPLINE
  5
D6
330
A3
100
AcDbEntity
  8
_U+30EC_U+30A4_U+30E4_U+30FC 1
370
     0
100
AcDbSpline
210
0.0
220
0.0
230
1.0
 70
    11
 71
     3
 72
    17
 73
    13
 74
     0
 42
0.0000000001
 43
0.0000000001
 12
1.0
 22
0.0
 32
0.0
 13
1.0
 23
0.0
 33
0.0
 40
0.0
 40
0.0
 40
0.0
 40
0.0
 40
1.0
 40
1.0
 40
1.0
 40
2.0
 40
2.0
 40
2.0
 40
3.0
 40
3.0
 40
3.0
 40
4.0
 40
4.0
 40
4.0
 40
4.0
 10
108.832977945882
 20
-161.6259656713991
 30
0.0
 10
108.7782009276666
 20
-161.6259656713991
 30
0.0
 10
108.7337591959068
 20
-161.6704074031588
 30
0.0
 10
108.7337591959068
 20
-161.7255289309228
 30
0.0
 10
108.7337591959068
 20
-161.7827175159779
 30
0.0
 10
108.7782009276666
 20
-161.83129336232
 30
0.0
 10
108.8371120604643
 20
-161.83129336232
 30
0.0
 10
108.8963677028106
 20
-161.83129336232
 30
0.0
 10
108.9366753199881
 20
-161.7806504586868
 30
0.0
 10
108.9366753199881
 20
-161.7275959882139
 30
0.0
 10
108.9366753199881
 20
-161.6704074031588
 30
0.0
 10
108.8901665309372
 20
-161.6259656713991
 30
0.0
 10
108.832977945882
 20
-161.6259656713991
 30
0.0
  0
HATCH
  5
D7
330
A3
100
AcDbEntity
  8
_U+30EC_U+30A4_U+30E4_U+30FC 1
 62
   179
420
  2234388
100
AcDbHatch
 10
0.0
 20
0.0
 30
0.0
210
0.0
220
0.0
230
1.0
  2
SOLID
 70
     1
 71
     0
 91
        3
 92
        1
 93
        1
 72
     4
 94
        3
 73
     0
 74
     1
 95
       44
 96
       40
 40
0.0
 40
0.0
 40
0.0
 40
0.0
 40
1.0
 40
1.0
 40
1.0
 40
2.0
 40
2.0
 40
2.0
 40
3.0
 40
3.0
 40
3.0
 40
4.0
 40
4.0
 40
4.0
 40
5.0
 40
5.0
 40
5.0
 40
6.0
 40
6.0
 40
6.0
 40
7.0
 40
7.0
 40
7.0
 40
8.0
 40
8.0
 40
8.0
 40
9.0
 40
9.0
 40
9.0
 40
10.0
 40
10.0
 40
10.0
 40
11.0
 40
11.0
 40
11.0
 40
12.0
 40
12.0
 40
12.0
 40
13.0
 40
13.0
 40
13.0
 40
13.0
 10
108.62558319767
 20
-162.1551323379335
 10
108.5136175943994
 20
-162.5230685357581
 10
108.4629746907662
 20
-162.6818874376281
 10
108.2662597385584
 20
-162.9313123507602
 10
108.0819471300976
 20
-163.162133748272
 10
107.8452690702609
 20
-163.3481689044755
 10
107.5658718264071
 20
-163.4411864825772
 10
107.5658718264071
 20
-163.4411864825772
 10
107.3732909887817
 20
-163.2613524982472
 10
107.3732909887817
 20
-163.2613524982472
 10
108.0144232585867
 20
-163.1090792777991
 10
108.3444634060736
 20
-162.5526963569313
 10
108.4078531630022
 20
-162.1127576634649
 10
108.4078531630022
 20
-162.1127576634649
 10
107.6420084366312
 20
-162.1127576634649
 10
107.6420084366312
 20
-162.1127576634649
 10
107.5489908585294
 20
-162.1127576634649
 10
107.3650227596171
 20
-162.1168917780472
 10
107.2082709150382
 20
-162.135839803216
 10
107.2082709150382
 20
-162.135839803216
 10
107.2082709150382
 20
-161.9160427112571
 10
107.2082709150382
 20
-161.9160427112571
 10
107.2950873212665
 20
-161.9370577937171
 10
107.5469238012383
 20
-161.9370577937171
 10
107.6461425512135
 20
-161.9370577937171
 10
107.6461425512135
 20
-161.9370577937171
 10
108.0778130155153
 20
-161.9370577937171
 10
108.0778130155153
 20
-161.9370577937171
 10
108.1201876899839
 20
-161.9370577937171
 10
108.3547986925294
 20
-161.934990736426
 10
108.3930392524156
 20
-161.9287895645525
 10
108.4354139268842
 20
-161.9222438831306
 10
108.4374809841754
 20
-161.9201768258394
 10
108.4988036838128
 20
-161.879869208662
 10
108.4988036838128
 20
-161.879869208662
 10
108.6869058973074
 20
-162.0345539959497
 10
108.6869058973074
 20
-162.0345539959497
 10
108.6576225856828
 20
-162.0641818171229
 10
108.6428086750962
 20
-162.0958766955872
 10
108.62558319767
 20
-162.1551323379335
 97
        0
 97
        0
 92
        1
 93
        1
 72
     4
 94
        3
 73
     0
 74
     1
 95
       17
 96
       13
 40
0.0
 40
0.0
 40
0.0
 40
0.0
 40
1.0
 40
1.0
 40
1.0
 40
2.0
 40
2.0
 40
2.0
 40
3.0
 40
3.0
 40
3.0
 40
4.0
 40
4.0
 40
4.0
 40
4.0
 10
108.8350450031732
 20
-161.956005818886
 10
108.708265489316
 20
-161.956005818886
 10
108.6066351725011
 20
-161.8547200116197
 10
108.6066351725011
 20
-161.7275959882139
 10
108.6066351725011
 20
-161.6008164743567
 10
108.708265489316
 20
-161.4971191002507
 10
108.8350450031732
 20
-161.4971191002507
 10
108.9621690265789
 20
-161.4971191002507
 10
109.0658664006849
 20
-161.6008164743567
 10
109.0658664006849
 20
-161.7275959882139
 10
109.0658664006849
 20
-161.8547200116197
 10
108.9621690265789
 20
-161.956005818886
 10
108.8350450031732
 20
-161.956005818886
 97
        0
 97
        0
 92
        1
 93
        1
 72
     4
 94
        3
 73
     0
 74
     1
 95
       17
 96
       13
 40
0.0
 40
0.0
 40
0.0
 40
0.0
 40
1.0
 40
1.0
 40
1.0
 40
2.0
 40
2.0
 40
2.0
 40
3.0
 40
3.0
 40
3.0
 40
4.0
 40
4.0
 40
4.0
 40
4.0
 10
108.832977945882
 20
-161.6259656713991
 10
108.7782009276666
 20
-161.6259656713991
 10
108.7337591959068
 20
-161.6704074031588
 10
108.7337591959068
 20
-161.7255289309228
 10
108.7337591959068
 20
-161.7827175159779
 10
108.7782009276666
 20
-161.83129336232
 10
108.8371120604643
 20
-161.83129336232
 10
108.8963677028106
 20
-161.83129336232
 10
108.9366753199881
 20
-161.7806504586868
 10
108.9366753199881
 20
-161.7275959882139
 10
108.9366753199881
 20
-161.6704074031588
 10
108.8901665309372
 20
-161.6259656713991
 10
108.832977945882
 20
-161.6259656713991
 97
        0
 97
        0
 75
     2
 76
     1
 98
        0
  0
SPLINE
  5
D8
330
A3
100
AcDbEntity
  8
_U+30EC_U+30A4_U+30E4_U+30FC 1
370
     0
100
AcDbSpline
210
0.0
220
0.0
230
1.0
 70
    11
 71
     3
 72
    50
 73
    46
 74
     0
 42
0.0000000001
 43
0.0000000001
 12
1.0
 22
0.0
 32
0.0
 13
1.0
 23
0.0
 33
0.0
 40
0.0
 40
0.0
 40
0.0
 40
0.0
 40
1.0
 40
1.0
 40
1.0
 40
2.0
 40
2.0
 40
2.0
 40
3.0
 40
3.0
 40
3.0
 40
4.0
 40
4.0
 40
4.0
 40
5.0
 40
5.0
 40
5.0
 40
6.0
 40
6.0
 40
6.0
 40
7.0
 40
7.0
 40
7.0
 40
8.0
 40
8.0
 40
8.0
 40
9.0
 40
9.0
 40
9.0
 40
10.0
 40
10.0
 40
10.0
 40
11.0
 40
11.0
 40
11.0
 40
12.0
 40
12.0
 40
12.0
 40
13.0
 40
13.0
 40
13.0
 40
14.0
 40
14.0
 40
14.0
 40
15.0
 40
15.0
 40
15.0
 40
15.0
 10
110.6302842605369
 20
-162.4638128934118
 30
0.0
 10
110.5517360834732
 20
-162.6415798204507
 30
0.0
 10
110.4163438309029
 20
-162.8489745686628
 30
0.0
 10
110.2788845210414
 20
-162.9885009358154
 30
0.0
 10
110.1097303327156
 20
-163.1597221814323
 30
0.0
 10
109.9467773162633
 20
-163.2486056449517
 30
0.0
 10
109.6274169647807
 20
-163.390543578944
 30
0.0
 10
109.6274169647807
 20
-163.390543578944
 30
0.0
 10
109.4582627764549
 20
-163.2020968559009
 30
0.0
 10
109.4582627764549
 20
-163.2020968559009
 30
0.0
 10
109.6442979326584
 20
-163.1790147161497
 30
0.0
 10
109.8155191782753
 20
-163.0921983099214
 30
0.0
 10
109.9681369082719
 20
-162.9864338785242
 30
0.0
 10
110.2303086746994
 20
-162.804532836903
 30
0.0
 10
110.4208224550337
 20
-162.4913736572938
 30
0.0
 10
110.4693983013757
 20
-162.3094726156726
 30
0.0
 10
110.4693983013757
 20
-162.3094726156726
 30
0.0
 10
109.7986382103976
 20
-162.3094726156726
 30
0.0
 10
109.7986382103976
 20
-162.3094726156726
 30
0.0
 10
109.6401638180761
 20
-162.3094726156726
 30
0.0
 10
109.3480197209269
 20
-162.3177408448372
 30
0.0
 10
109.1957465004788
 20
-162.3349663222635
 30
0.0
 10
109.1957465004788
 20
-162.3349663222635
 30
0.0
 10
109.1957465004788
 20
-162.1062119820429
 30
0.0
 10
109.1957465004788
 20
-162.1062119820429
 30
0.0
 10
109.2298529457828
 20
-162.1127576634649
 30
0.0
 10
109.2550021428251
 20
-162.1189588353383
 30
0.0
 10
109.308056613298
 20
-162.1230929499206
 30
0.0
 10
109.4093424205643
 20
-162.1296386313426
 30
0.0
 10
109.6064018823206
 20
-162.1317056886338
 30
0.0
 10
109.6908067217093
 20
-162.1317056886338
 30
0.0
 10
109.6908067217093
 20
-162.1317056886338
 30
0.0
 10
110.1965467389439
 20
-162.1317056886338
 30
0.0
 10
110.1965467389439
 20
-162.1317056886338
 30
0.0
 10
110.2640706104548
 20
-162.1317056886338
 30
0.0
 10
110.4101426590294
 20
-162.1275715740514
 30
0.0
 10
110.4714653586669
 20
-162.1210258926295
 30
0.0
 10
110.5434678543086
 20
-162.1127576634649
 30
0.0
 10
110.5710286181906
 20
-162.0979437528783
 30
0.0
 10
110.604790553946
 20
-162.0745171035786
 30
0.0
 10
110.604790553946
 20
-162.0745171035786
 30
0.0
 10
110.7698106276895
 20
-162.2416042346132
 30
0.0
 10
110.7698106276895
 20
-162.2416042346132
 30
0.0
 10
110.6998751893389
 20
-162.3094726156726
 30
0.0
 10
110.653366400288
 20
-162.4131699897787
 30
0.0
 10
110.6302842605369
 20
-162.4638128934118
 30
0.0
  0
SPLINE
  5
D9
330
A3
100
AcDbEntity
  8
_U+30EC_U+30A4_U+30E4_U+30FC 1
370
     0
100
AcDbSpline
210
0.0
220
0.0
230
1.0
 70
    11
 71
     3
 72
    29
 73
    25
 74
     0
 42
0.0000000001
 43
0.0000000001
 12
1.0
 22
0.0
 32
0.0
 13
1.0
 23
0.0
 33
0.0
 40
0.0
 40
0.0
 40
0.0
 40
0.0
 40
1.0
 40
1.0
 40
1.0
 40
2.0
 40
2.0
 40
2.0
 40
3.0
 40
3.0
 40
3.0
 40
4.0
 40
4.0
 40
4.0
 40
5.0
 40
5.0
 40
5.0
 40
6.0
 40
6.0
 40
6.0
 40
7.0
 40
7.0
 40
7.0
 40
8.0
 40
8.0
 40
8.0
 40
8.0
 10
110.1372910965976
 20
-161.8378390437419
 30
0.0
 10
110.1372910965976
 20
-161.8378390437419
 30
0.0
 10
109.7965711531064
 20
-161.8378390437419
 30
0.0
 10
109.7965711531064
 20
-161.8378390437419
 30
0.0
 10
109.6825384925447
 20
-161.8378390437419
 30
0.0
 10
109.5660942651432
 20
-161.8419731583242
 30
0.0
 10
109.4517170950329
 20
-161.8567870689108
 30
0.0
 10
109.4517170950329
 20
-161.8567870689108
 30
0.0
 10
109.4517170950329
 20
-161.6473252634076
 30
0.0
 10
109.4517170950329
 20
-161.6473252634076
 30
0.0
 10
109.5702283797255
 20
-161.6621391739942
 30
0.0
 10
109.7438611921821
 20
-161.6662732885765
 30
0.0
 10
109.7965711531064
 20
-161.6662732885765
 30
0.0
 10
109.7965711531064
 20
-161.6662732885765
 30
0.0
 10
110.1372910965976
 20
-161.6662732885765
 30
0.0
 10
110.1372910965976
 20
-161.6662732885765
 30
0.0
 10
110.2537353239991
 20
-161.6662732885765
 30
0.0
 10
110.369835041852
 20
-161.6621391739942
 30
0.0
 10
110.4862792692534
 20
-161.6473252634076
 30
0.0
 10
110.4862792692534
 20
-161.6473252634076
 30
0.0
 10
110.4862792692534
 20
-161.8567870689108
 30
0.0
 10
110.4862792692534
 20
-161.8567870689108
 30
0.0
 10
110.3360731060965
 20
-161.8378390437419
 30
0.0
 10
110.1521050071842
 20
-161.8378390437419
 30
0.0
 10
110.1372910965976
 20
-161.8378390437419
 30
0.0
  0
HATCH
  5
DA
330
A3
100
AcDbEntity
  8
_U+30EC_U+30A4_U+30E4_U+30FC 1
 62
   179
420
  2234388
100
AcDbHatch
 10
0.0
 20
0.0
 30
0.0
210
0.0
220
0.0
230
1.0
  2
SOLID
 70
     1
 71
     0
 91
        2
 92
        1
 93
        1
 72
     4
 94
        3
 73
     0
 74
     1
 95
       50
 96
       46
 40
0.0
 40
0.0
 40
0.0
 40
0.0
 40
1.0
 40
1.0
 40
1.0
 40
2.0
 40
2.0
 40
2.0
 40
3.0
 40
3.0
 40
3.0
 40
4.0
 40
4.0
 40
4.0
 40
5.0
 40
5.0
 40
5.0
 40
6.0
 40
6.0
 40
6.0
 40
7.0
 40
7.0
 40
7.0
 40
8.0
 40
8.0
 40
8.0
 40
9.0
 40
9.0
 40
9.0
 40
10.0
 40
10.0
 40
10.0
 40
11.0
 40
11.0
 40
11.0
 40
12.0
 40
12.0
 40
12.0
 40
13.0
 40
13.0
 40
13.0
 40
14.0
 40
14.0
 40
14.0
 40
15.0
 40
15.0
 40
15.0
 40
15.0
 10
110.6302842605369
 20
-162.4638128934118
 10
110.5517360834732
 20
-162.6415798204507
 10
110.4163438309029
 20
-162.8489745686628
 10
110.2788845210414
 20
-162.9885009358154
 10
110.1097303327156
 20
-163.1597221814323
 10
109.9467773162633
 20
-163.2486056449517
 10
109.6274169647807
 20
-163.390543578944
 10
109.6274169647807
 20
-163.390543578944
 10
109.4582627764549
 20
-163.2020968559009
 10
109.4582627764549
 20
-163.2020968559009
 10
109.6442979326584
 20
-163.1790147161497
 10
109.8155191782753
 20
-163.0921983099214
 10
109.9681369082719
 20
-162.9864338785242
 10
110.2303086746994
 20
-162.804532836903
 10
110.4208224550337
 20
-162.4913736572938
 10
110.4693983013757
 20
-162.3094726156726
 10
110.4693983013757
 20
-162.3094726156726
 10
109.7986382103976
 20
-162.3094726156726
 10
109.7986382103976
 20
-162.3094726156726
 10
109.6401638180761
 20
-162.3094726156726
 10
109.3480197209269
 20
-162.3177408448372
 10
109.1957465004788
 20
-162.3349663222635
 10
109.1957465004788
 20
-162.3349663222635
 10
109.1957465004788
 20
-162.1062119820429
 10
109.1957465004788
 20
-162.1062119820429
 10
109.2298529457828
 20
-162.1127576634649
 10
109.2550021428251
 20
-162.1189588353383
 10
109.308056613298
 20
-162.1230929499206
 10
109.4093424205643
 20
-162.1296386313426
 10
109.6064018823206
 20
-162.1317056886338
 10
109.6908067217093
 20
-162.1317056886338
 10
109.6908067217093
 20
-162.1317056886338
 10
110.1965467389439
 20
-162.1317056886338
 10
110.1965467389439
 20
-162.1317056886338
 10
110.2640706104548
 20
-162.1317056886338
 10
110.4101426590294
 20
-162.1275715740514
 10
110.4714653586669
 20
-162.1210258926295
 10
110.5434678543086
 20
-162.1127576634649
 10
110.5710286181906
 20
-162.0979437528783
 10
110.604790553946
 20
-162.0745171035786
 10
110.604790553946
 20
-162.0745171035786
 10
110.7698106276895
 20
-162.2416042346132
 10
110.7698106276895
 20
-162.2416042346132
 10
110.6998751893389
 20
-162.3094726156726
 10
110.653366400288
 20
-162.4131699897787
 10
110.6302842605369
 20
-162.4638128934118
 97
        0
 97
        0
 92
        1
 93
        1
 72
     4
 94
        3
 73
     0
 74
     1
 95
       29
 96
       25
 40
0.0
 40
0.0
 40
0.0
 40
0.0
 40
1.0
 40
1.0
 40
1.0
 40
2.0
 40
2.0
 40
2.0
 40
3.0
 40
3.0
 40
3.0
 40
4.0
 40
4.0
 40
4.0
 40
5.0
 40
5.0
 40
5.0
 40
6.0
 40
6.0
 40
6.0
 40
7.0
 40
7.0
 40
7.0
 40
8.0
 40
8.0
 40
8.0
 40
8.0
 10
110.1372910965976
 20
-161.8378390437419
 10
110.1372910965976
 20
-161.8378390437419
 10
109.7965711531064
 20
-161.8378390437419
 10
109.7965711531064
 20
-161.8378390437419
 10
109.6825384925447
 20
-161.8378390437419
 10
109.5660942651432
 20
-161.8419731583242
 10
109.4517170950329
 20
-161.8567870689108
 10
109.4517170950329
 20
-161.8567870689108
 10
109.4517170950329
 20
-161.6473252634076
 10
109.4517170950329
 20
-161.6473252634076
 10
109.5702283797255
 20
-161.6621391739942
 10
109.7438611921821
 20
-161.6662732885765
 10
109.7965711531064
 20
-161.6662732885765
 10
109.7965711531064
 20
-161.6662732885765
 10
110.1372910965976
 20
-161.6662732885765
 10
110.1372910965976
 20
-161.6662732885765
 10
110.2537353239991
 20
-161.6662732885765
 10
110.369835041852
 20
-161.6621391739942
 10
110.4862792692534
 20
-161.6473252634076
 10
110.4862792692534
 20
-161.6473252634076
 10
110.4862792692534
 20
-161.8567870689108
 10
110.4862792692534
 20
-161.8567870689108
 10
110.3360731060965
 20
-161.8378390437419
 10
110.1521050071842
 20
-161.8378390437419
 10
110.1372910965976
 20
-161.8378390437419
 97
        0
 97
        0
 75
     2
 76
     1
 98
        0
  0
SPLINE
  5
DB
330
A3
100
AcDbEntity
  8
_U+30EC_U+30A4_U+30E4_U+30FC 1
370
     0
100
AcDbSpline
210
0.0
220
0.0
230
1.0
 70
    11
 71
     3
 72
    50
 73
    46
 74
     0
 42
0.0000000001
 43
0.0000000001
 12
1.0
 22
0.0
 32
0.0
 13
1.0
 23
0.0
 33
0.0
 40
0.0
 40
0.0
 40
0.0
 40
0.0
 40
1.0
 40
1.0
 40
1.0
 40
2.0
 40
2.0
 40
2.0
 40
3.0
 40
3.0
 40
3.0
 40
4.0
 40
4.0
 40
4.0
 40
5.0
 40
5.0
 40
5.0
 40
6.0
 40
6.0
 40
6.0
 40
7.0
 40
7.0
 40
7.0
 40
8.0
 40
8.0
 40
8.0
 40
9.0
 40
9.0
 40
9.0
 40
10.0
 40
10.0
 40
10.0
 40
11.0
 40
11.0
 40
11.0
 40
12.0
 40
12.0
 40
12.0
 40
13.0
 40
13.0
 40
13.0
 40
14.0
 40
14.0
 40
14.0
 40
15.0
 40
15.0
 40
15.0
 40
15.0
 10
112.3404296594149
 20
-161.8230251331554
 30
0.0
 10
112.1309678539117
 20
-162.0366210532409
 30
0.0
 10
112.0593098678185
 20
-162.1086235488826
 30
0.0
 10
111.9173719338262
 20
-162.2267903240266
 30
0.0
 10
111.9173719338262
 20
-162.2267903240266
 30
0.0
 10
111.9173719338262
 20
-162.7938530408988
 30
0.0
 10
111.9173719338262
 20
-162.7938530408988
 30
0.0
 10
111.9173719338262
 20
-162.9440592040557
 30
0.0
 10
111.9239176152482
 20
-162.9630072292245
 30
0.0
 10
111.9280517298305
 20
-163.1407741562634
 30
0.0
 10
111.9301187871216
 20
-163.2720322942514
 30
0.0
 10
111.9363199589951
 20
-163.3206081405935
 30
0.0
 10
111.9428656404171
 20
-163.3798637829398
 30
0.0
 10
111.9428656404171
 20
-163.3798637829398
 30
0.0
 10
111.7165228670361
 20
-163.3798637829398
 30
0.0
 10
111.7165228670361
 20
-163.3798637829398
 30
0.0
 10
111.7206569816184
 20
-163.33542205118
 30
0.0
 10
111.7247910962007
 20
-163.2889132621292
 30
0.0
 10
111.7247910962007
 20
-163.280300523416
 30
0.0
 10
111.7247910962007
 20
-163.2000297986097
 30
0.0
 10
111.7292697203316
 20
-162.8489745686628
 30
0.0
 10
111.7292697203316
 20
-162.776972073021
 30
0.0
 10
111.7292697203316
 20
-162.776972073021
 30
0.0
 10
111.7292697203316
 20
-162.3707953153101
 30
0.0
 10
111.7292697203316
 20
-162.3707953153101
 30
0.0
 10
111.5473686787104
 20
-162.4955077718761
 30
0.0
 10
111.3527207837938
 20
-162.6057508274041
 30
0.0
 10
111.149460150164
 20
-162.6922227240839
 30
0.0
 10
111.149460150164
 20
-162.6922227240839
 30
0.0
 10
110.9465440260828
 20
-162.5292697076316
 30
0.0
 10
110.9465440260828
 20
-162.5292697076316
 30
0.0
 10
111.0691894253577
 20
-162.493440714585
 30
0.0
 10
111.3251600199118
 20
-162.4193711616521
 30
0.0
 10
111.6700140779853
 20
-162.1634005670981
 30
0.0
 10
111.8856770553619
 20
-162.0049261747766
 30
0.0
 10
112.0782578929874
 20
-161.8164794517334
 30
0.0
 10
112.2305311134354
 20
-161.5963378502259
 30
0.0
 10
112.2305311134354
 20
-161.5963378502259
 30
0.0
 10
112.4231119510609
 20
-161.7403428415094
 30
0.0
 10
112.4231119510609
 20
-161.7403428415094
 30
0.0
 10
112.4358588043563
 20
-161.7510226375136
 30
0.0
 10
112.4441270335209
 20
-161.7658365481002
 30
0.0
 10
112.4441270335209
 20
-161.7785834013957
 30
0.0
 10
112.4441270335209
 20
-161.8185465090245
 30
0.0
 10
112.4062309831832
 20
-161.8185465090245
 30
0.0
 10
112.3404296594149
 20
-161.8230251331554
 30
0.0
  0
HATCH
  5
DC
330
A3
100
AcDbEntity
  8
_U+30EC_U+30A4_U+30E4_U+30FC 1
 62
   179
420
  2234388
100
AcDbHatch
 10
0.0
 20
0.0
 30
0.0
210
0.0
220
0.0
230
1.0
  2
SOLID
 70
     1
 71
     0
 91
        1
 92
        1
 93
        1
 72
     4
 94
        3
 73
     0
 74
     1
 95
       50
 96
       46
 40
0.0
 40
0.0
 40
0.0
 40
0.0
 40
1.0
 40
1.0
 40
1.0
 40
2.0
 40
2.0
 40
2.0
 40
3.0
 40
3.0
 40
3.0
 40
4.0
 40
4.0
 40
4.0
 40
5.0
 40
5.0
 40
5.0
 40
6.0
 40
6.0
 40
6.0
 40
7.0
 40
7.0
 40
7.0
 40
8.0
 40
8.0
 40
8.0
 40
9.0
 40
9.0
 40
9.0
 40
10.0
 40
10.0
 40
10.0
 40
11.0
 40
11.0
 40
11.0
 40
12.0
 40
12.0
 40
12.0
 40
13.0
 40
13.0
 40
13.0
 40
14.0
 40
14.0
 40
14.0
 40
15.0
 40
15.0
 40
15.0
 40
15.0
 10
112.3404296594149
 20
-161.8230251331554
 10
112.1309678539117
 20
-162.0366210532409
 10
112.0593098678185
 20
-162.1086235488826
 10
111.9173719338262
 20
-162.2267903240266
 10
111.9173719338262
 20
-162.2267903240266
 10
111.9173719338262
 20
-162.7938530408988
 10
111.9173719338262
 20
-162.7938530408988
 10
111.9173719338262
 20
-162.9440592040557
 10
111.9239176152482
 20
-162.9630072292245
 10
111.9280517298305
 20
-163.1407741562634
 10
111.9301187871216
 20
-163.2720322942514
 10
111.9363199589951
 20
-163.3206081405935
 10
111.9428656404171
 20
-163.3798637829398
 10
111.9428656404171
 20
-163.3798637829398
 10
111.7165228670361
 20
-163.3798637829398
 10
111.7165228670361
 20
-163.3798637829398
 10
111.7206569816184
 20
-163.33542205118
 10
111.7247910962007
 20
-163.2889132621292
 10
111.7247910962007
 20
-163.280300523416
 10
111.7247910962007
 20
-163.2000297986097
 10
111.7292697203316
 20
-162.8489745686628
 10
111.7292697203316
 20
-162.776972073021
 10
111.7292697203316
 20
-162.776972073021
 10
111.7292697203316
 20
-162.3707953153101
 10
111.7292697203316
 20
-162.3707953153101
 10
111.5473686787104
 20
-162.4955077718761
 10
111.3527207837938
 20
-162.6057508274041
 10
111.149460150164
 20
-162.6922227240839
 10
111.149460150164
 20
-162.6922227240839
 10
110.9465440260828
 20
-162.5292697076316
 10
110.9465440260828
 20
-162.5292697076316
 10
111.0691894253577
 20
-162.493440714585
 10
111.3251600199118
 20
-162.4193711616521
 10
111.6700140779853
 20
-162.1634005670981
 10
111.8856770553619
 20
-162.0049261747766
 10
112.0782578929874
 20
-161.8164794517334
 10
112.2305311134354
 20
-161.5963378502259
 10
112.2305311134354
 20
-161.5963378502259
 10
112.4231119510609
 20
-161.7403428415094
 10
112.4231119510609
 20
-161.7403428415094
 10
112.4358588043563
 20
-161.7510226375136
 10
112.4441270335209
 20
-161.7658365481002
 10
112.4441270335209
 20
-161.7785834013957
 10
112.4441270335209
 20
-161.8185465090245
 10
112.4062309831832
 20
-161.8185465090245
 10
112.3404296594149
 20
-161.8230251331554
 97
        0
 97
        0
 75
     2
 76
     1
 98
        0
  0
SPLINE
  5
DD
330
A3
100
AcDbEntity
  8
_U+30EC_U+30A4_U+30E4_U+30FC 1
370
     0
100
AcDbSpline
210
0.0
220
0.0
230
1.0
 70
    11
 71
     3
 72
    50
 73
    46
 74
     0
 42
0.0000000001
 43
0.0000000001
 12
1.0
 22
0.0
 32
0.0
 13
1.0
 23
0.0
 33
0.0
 40
0.0
 40
0.0
 40
0.0
 40
0.0
 40
1.0
 40
1.0
 40
1.0
 40
2.0
 40
2.0
 40
2.0
 40
3.0
 40
3.0
 40
3.0
 40
4.0
 40
4.0
 40
4.0
 40
5.0
 40
5.0
 40
5.0
 40
6.0
 40
6.0
 40
6.0
 40
7.0
 40
7.0
 40
7.0
 40
8.0
 40
8.0
 40
8.0
 40
9.0
 40
9.0
 40
9.0
 40
10.0
 40
10.0
 40
10.0
 40
11.0
 40
11.0
 40
11.0
 40
12.0
 40
12.0
 40
12.0
 40
13.0
 40
13.0
 40
13.0
 40
14.0
 40
14.0
 40
14.0
 40
15.0
 40
15.0
 40
15.0
 40
15.0
 10
114.0488525105503
 20
-162.3497802328501
 30
0.0
 10
113.9875298109128
 20
-162.4214382189433
 30
0.0
 10
113.727080592228
 20
-162.7387315131348
 30
0.0
 10
113.6702365167213
 20
-162.8024657796119
 30
0.0
 10
113.75464135611
 20
-162.8996174722959
 30
0.0
 10
113.8056287692917
 20
-162.9630072292245
 30
0.0
 10
113.8710855835114
 20
-163.0539577500351
 30
0.0
 10
113.8710855835114
 20
-163.0539577500351
 30
0.0
 10
113.6871174845991
 20
-163.1917615694451
 30
0.0
 10
113.6871174845991
 20
-163.1917615694451
 30
0.0
 10
113.5517252320287
 20
-162.9798881971023
 30
0.0
 10
113.3801594768633
 20
-162.755956990561
 30
0.0
 10
113.0862928319715
 20
-162.5568304715136
 30
0.0
 10
113.0862928319715
 20
-162.5568304715136
 30
0.0
 10
113.2344319378372
 20
-162.4024901937744
 30
0.0
 10
113.2344319378372
 20
-162.4024901937744
 30
0.0
 10
113.3443304838167
 20
-162.4827609185807
 30
0.0
 10
113.4480278579227
 20
-162.5716443821001
 30
0.0
 10
113.5451795506068
 20
-162.6670735270416
 30
0.0
 10
113.6130479316662
 20
-162.5909369168176
 30
0.0
 10
113.8159640557474
 20
-162.3473686660104
 30
0.0
 10
113.9492892510266
 20
-162.1189588353383
 30
0.0
 10
113.9492892510266
 20
-162.1189588353383
 30
0.0
 10
113.2764621027573
 20
-162.1189588353383
 30
0.0
 10
113.2764621027573
 20
-162.1189588353383
 30
0.0
 10
113.1517496461912
 20
-162.1189588353383
 30
0.0
 10
112.8999131662195
 20
-162.1275715740514
 30
0.0
 10
112.6904513607163
 20
-162.1379068605072
 30
0.0
 10
112.6904513607163
 20
-162.1379068605072
 30
0.0
 10
112.6904513607163
 20
-161.9181097685482
 30
0.0
 10
112.6904513607163
 20
-161.9181097685482
 30
0.0
 10
112.8747639691772
 20
-161.9370577937171
 30
0.0
 10
113.0797471505495
 20
-161.9411919082994
 30
0.0
 10
113.2681938735927
 20
-161.9411919082994
 30
0.0
 10
113.2681938735927
 20
-161.9411919082994
 30
0.0
 10
113.7715223239877
 20
-161.9411919082994
 30
0.0
 10
113.7715223239877
 20
-161.9411919082994
 30
0.0
 10
114.1101752101877
 20
-161.9411919082994
 30
0.0
 10
114.1546169419475
 20
-161.9263779977128
 30
0.0
 10
114.2369547240449
 20
-161.886414890084
 30
0.0
 10
114.2369547240449
 20
-161.886414890084
 30
0.0
 10
114.4040418550796
 20
-162.0448892824054
 30
0.0
 10
114.4040418550796
 20
-162.0448892824054
 30
0.0
 10
114.2517686346315
 20
-162.1168917780472
 30
0.0
 10
114.1081081528966
 20
-162.2798447944995
 30
0.0
 10
114.0488525105503
 20
-162.3497802328501
 30
0.0
  0
HATCH
  5
DE
330
A3
100
AcDbEntity
  8
_U+30EC_U+30A4_U+30E4_U+30FC 1
 62
   179
420
  2234388
100
AcDbHatch
 10
0.0
 20
0.0
 30
0.0
210
0.0
220
0.0
230
1.0
  2
SOLID
 70
     1
 71
     0
 91
        1
 92
        1
 93
        1
 72
     4
 94
        3
 73
     0
 74
     1
 95
       50
 96
       46
 40
0.0
 40
0.0
 40
0.0
 40
0.0
 40
1.0
 40
1.0
 40
1.0
 40
2.0
 40
2.0
 40
2.0
 40
3.0
 40
3.0
 40
3.0
 40
4.0
 40
4.0
 40
4.0
 40
5.0
 40
5.0
 40
5.0
 40
6.0
 40
6.0
 40
6.0
 40
7.0
 40
7.0
 40
7.0
 40
8.0
 40
8.0
 40
8.0
 40
9.0
 40
9.0
 40
9.0
 40
10.0
 40
10.0
 40
10.0
 40
11.0
 40
11.0
 40
11.0
 40
12.0
 40
12.0
 40
12.0
 40
13.0
 40
13.0
 40
13.0
 40
14.0
 40
14.0
 40
14.0
 40
15.0
 40
15.0
 40
15.0
 40
15.0
 10
114.0488525105503
 20
-162.3497802328501
 10
113.9875298109128
 20
-162.4214382189433
 10
113.727080592228
 20
-162.7387315131348
 10
113.6702365167213
 20
-162.8024657796119
 10
113.75464135611
 20
-162.8996174722959
 10
113.8056287692917
 20
-162.9630072292245
 10
113.8710855835114
 20
-163.0539577500351
 10
113.8710855835114
 20
-163.0539577500351
 10
113.6871174845991
 20
-163.1917615694451
 10
113.6871174845991
 20
-163.1917615694451
 10
113.5517252320287
 20
-162.9798881971023
 10
113.3801594768633
 20
-162.755956990561
 10
113.0862928319715
 20
-162.5568304715136
 10
113.0862928319715
 20
-162.5568304715136
 10
113.2344319378372
 20
-162.4024901937744
 10
113.2344319378372
 20
-162.4024901937744
 10
113.3443304838167
 20
-162.4827609185807
 10
113.4480278579227
 20
-162.5716443821001
 10
113.5451795506068
 20
-162.6670735270416
 10
113.6130479316662
 20
-162.5909369168176
 10
113.8159640557474
 20
-162.3473686660104
 10
113.9492892510266
 20
-162.1189588353383
 10
113.9492892510266
 20
-162.1189588353383
 10
113.2764621027573
 20
-162.1189588353383
 10
113.2764621027573
 20
-162.1189588353383
 10
113.1517496461912
 20
-162.1189588353383
 10
112.8999131662195
 20
-162.1275715740514
 10
112.6904513607163
 20
-162.1379068605072
 10
112.6904513607163
 20
-162.1379068605072
 10
112.6904513607163
 20
-161.9181097685482
 10
112.6904513607163
 20
-161.9181097685482
 10
112.8747639691772
 20
-161.9370577937171
 10
113.0797471505495
 20
-161.9411919082994
 10
113.2681938735927
 20
-161.9411919082994
 10
113.2681938735927
 20
-161.9411919082994
 10
113.7715223239877
 20
-161.9411919082994
 10
113.7715223239877
 20
-161.9411919082994
 10
114.1101752101877
 20
-161.9411919082994
 10
114.1546169419475
 20
-161.9263779977128
 10
114.2369547240449
 20
-161.886414890084
 10
114.2369547240449
 20
-161.886414890084
 10
114.4040418550796
 20
-162.0448892824054
 10
114.4040418550796
 20
-162.0448892824054
 10
114.2517686346315
 20
-162.1168917780472
 10
114.1081081528966
 20
-162.2798447944995
 10
114.0488525105503
 20
-162.3497802328501
 97
        0
 97
        0
 75
     2
 76
     1
 98
        0
  0
SPLINE
  5
DF
330
A3
100
AcDbEntity
  8
_U+30EC_U+30A4_U+30E4_U+30FC 1
370
     0
100
AcDbSpline
210
0.0
220
0.0
230
1.0
 70
    11
 71
     3
 72
    29
 73
    25
 74
     0
 42
0.0000000001
 43
0.0000000001
 12
1.0
 22
0.0
 32
0.0
 13
1.0
 23
0.0
 33
0.0
 40
0.0
 40
0.0
 40
0.0
 40
0.0
 40
1.0
 40
1.0
 40
1.0
 40
2.0
 40
2.0
 40
2.0
 40
3.0
 40
3.0
 40
3.0
 40
4.0
 40
4.0
 40
4.0
 40
5.0
 40
5.0
 40
5.0
 40
6.0
 40
6.0
 40
6.0
 40
7.0
 40
7.0
 40
7.0
 40
8.0
 40
8.0
 40
8.0
 40
8.0
 10
115.6725260127485
 20
-162.5930039741087
 30
0.0
 10
115.6725260127485
 20
-162.5930039741087
 30
0.0
 10
115.1881455875224
 20
-162.5930039741087
 30
0.0
 10
115.1881455875224
 20
-162.5930039741087
 30
0.0
 10
115.1605848236404
 20
-162.5930039741087
 30
0.0
 10
114.8432915294489
 20
-162.5930039741087
 30
0.0
 10
114.6317626666546
 20
-162.618153171151
 30
0.0
 10
114.6317626666546
 20
-162.618153171151
 30
0.0
 10
114.6317626666546
 20
-162.3876762831878
 30
0.0
 10
114.6317626666546
 20
-162.3876762831878
 30
0.0
 10
114.7902370589761
 20
-162.4111029324875
 30
0.0
 10
114.9807508393104
 20
-162.4131699897787
 30
0.0
 10
115.1881455875224
 20
-162.4131699897787
 30
0.0
 10
115.1881455875224
 20
-162.4131699897787
 30
0.0
 10
115.6725260127485
 20
-162.4131699897787
 30
0.0
 10
115.6725260127485
 20
-162.4131699897787
 30
0.0
 10
115.858561168952
 20
-162.4131699897787
 30
0.0
 10
116.0449408347041
 20
-162.4111029324875
 30
0.0
 10
116.2289089336164
 20
-162.3876762831878
 30
0.0
 10
116.2289089336164
 20
-162.3876762831878
 30
0.0
 10
116.2289089336164
 20
-162.618153171151
 30
0.0
 10
116.2289089336164
 20
-162.618153171151
 30
0.0
 10
116.0449408347041
 20
-162.5950710313998
 30
0.0
 10
115.7972384693146
 20
-162.5930039741087
 30
0.0
 10
115.6725260127485
 20
-162.5930039741087
 30
0.0
  0
HATCH
  5
E0
330
A3
100
AcDbEntity
  8
_U+30EC_U+30A4_U+30E4_U+30FC 1
 62
   179
420
  2234388
100
AcDbHatch
 10
0.0
 20
0.0
 30
0.0
210
0.0
220
0.0
230
1.0
  2
SOLID
 70
     1
 71
     0
 91
        1
 92
        1
 93
        1
 72
     4
 94
        3
 73
     0
 74
     1
 95
       29
 96
       25
 40
0.0
 40
0.0
 40
0.0
 40
0.0
 40
1.0
 40
1.0
 40
1.0
 40
2.0
 40
2.0
 40
2.0
 40
3.0
 40
3.0
 40
3.0
 40
4.0
 40
4.0
 40
4.0
 40
5.0
 40
5.0
 40
5.0
 40
6.0
 40
6.0
 40
6.0
 40
7.0
 40
7.0
 40
7.0
 40
8.0
 40
8.0
 40
8.0
 40
8.0
 10
115.6725260127485
 20
-162.5930039741087
 10
115.6725260127485
 20
-162.5930039741087
 10
115.1881455875224
 20
-162.5930039741087
 10
115.1881455875224
 20
-162.5930039741087
 10
115.1605848236404
 20
-162.5930039741087
 10
114.8432915294489
 20
-162.5930039741087
 10
114.6317626666546
 20
-162.618153171151
 10
114.6317626666546
 20
-162.618153171151
 10
114.6317626666546
 20
-162.3876762831878
 10
114.6317626666546
 20
-162.3876762831878
 10
114.7902370589761
 20
-162.4111029324875
 10
114.9807508393104
 20
-162.4131699897787
 10
115.1881455875224
 20
-162.4131699897787
 10
115.1881455875224
 20
-162.4131699897787
 10
115.6725260127485
 20
-162.4131699897787
 10
115.6725260127485
 20
-162.4131699897787
 10
115.858561168952
 20
-162.4131699897787
 10
116.0449408347041
 20
-162.4111029324875
 10
116.2289089336164
 20
-162.3876762831878
 10
116.2289089336164
 20
-162.3876762831878
 10
116.2289089336164
 20
-162.618153171151
 10
116.2289089336164
 20
-162.618153171151
 10
116.0449408347041
 20
-162.5950710313998
 10
115.7972384693146
 20
-162.5930039741087
 10
115.6725260127485
 20
-162.5930039741087
 97
        0
 97
        0
 75
     2
 76
     1
 98
        0
  0
ENDBLK
  5
A6
330
A3
100
AcDbEntity
  8
0
100
AcDbBlockEnd
  0
BLOCK
  5
F8
330
F6
100
AcDbEntity
  8
0
100
AcDbBlockBegin
  2
block 7
 70
     0
 10
0.0
 20
0.0
 30
0.0
  3
block 7
  1

  0
SPLINE
  5
FA
330
F6
100
AcDbEntity
  8
_U+30EC_U+30A4_U+30E4_U+30FC 1
370
     0
100
AcDbSpline
210
0.0
220
0.0
230
1.0
 70
    11
 71
     3
 72
    26
 73
    22
 74
     0
 42
0.0000000001
 43
0.0000000001
 12
1.0
 22
0.0
 32
0.0
 13
1.0
 23
0.0
 33
0.0
 40
0.0
 40
0.0
 40
0.0
 40
0.0
 40
1.0
 40
1.0
 40
1.0
 40
2.0
 40
2.0
 40
2.0
 40
3.0
 40
3.0
 40
3.0
 40
4.0
 40
4.0
 40
4.0
 40
5.0
 40
5.0
 40
5.0
 40
6.0
 40
6.0
 40
6.0
 40
7.0
 40
7.0
 40
7.0
 40
7.0
 10
121.7755126648686
 20
-137.3642252260756
 30
0.0
 10
121.7755126648686
 20
-137.3642252260756
 30
0.0
 10
120.6713595618461
 20
-137.3642252260756
 30
0.0
 10
120.6713595618461
 20
-137.3642252260756
 30
0.0
 10
120.6713595618461
 20
-137.3642252260756
 30
0.0
 10
120.6713595618461
 20
-137.6942653735626
 30
0.0
 10
120.6713595618461
 20
-137.6942653735626
 30
0.0
 10
120.6713595618461
 20
-137.6942653735626
 30
0.0
 10
120.5232204559803
 20
-137.6942653735626
 30
0.0
 10
120.5232204559803
 20
-137.6942653735626
 30
0.0
 10
120.5084065453937
 20
-137.3621581687845
 30
0.0
 10
120.3454535289414
 20
-137.3156493797336
 30
0.0
 10
120.2310763588311
 20
-137.2860215585604
 30
0.0
 10
120.2310763588311
 20
-137.2860215585604
 30
0.0
 10
120.2310763588311
 20
-137.1399495099859
 30
0.0
 10
120.2310763588311
 20
-137.1399495099859
 30
0.0
 10
120.2310763588311
 20
-137.1399495099859
 30
0.0
 10
121.7755126648686
 20
-137.1399495099859
 30
0.0
 10
121.7755126648686
 20
-137.1399495099859
 30
0.0
 10
121.7755126648686
 20
-137.1399495099859
 30
0.0
 10
121.7755126648686
 20
-137.3642252260756
 30
0.0
 10
121.7755126648686
 20
-137.3642252260756
 30
0.0
  0
HATCH
  5
FB
330
F6
100
AcDbEntity
  8
_U+30EC_U+30A4_U+30E4_U+30FC 1
 62
   179
420
  2234388
100
AcDbHatch
 10
0.0
 20
0.0
 30
0.0
210
0.0
220
0.0
230
1.0
  2
SOLID
 70
     1
 71
     0
 91
        1
 92
        1
 93
        1
 72
     4
 94
        3
 73
     0
 74
     1
 95
       26
 96
       22
 40
0.0
 40
0.0
 40
0.0
 40
0.0
 40
1.0
 40
1.0
 40
1.0
 40
2.0
 40
2.0
 40
2.0
 40
3.0
 40
3.0
 40
3.0
 40
4.0
 40
4.0
 40
4.0
 40
5.0
 40
5.0
 40
5.0
 40
6.0
 40
6.0
 40
6.0
 40
7.0
 40
7.0
 40
7.0
 40
7.0
 10
121.7755126648686
 20
-137.3642252260756
 10
121.7755126648686
 20
-137.3642252260756
 10
120.6713595618461
 20
-137.3642252260756
 10
120.6713595618461
 20
-137.3642252260756
 10
120.6713595618461
 20
-137.3642252260756
 10
120.6713595618461
 20
-137.6942653735626
 10
120.6713595618461
 20
-137.6942653735626
 10
120.6713595618461
 20
-137.6942653735626
 10
120.5232204559803
 20
-137.6942653735626
 10
120.5232204559803
 20
-137.6942653735626
 10
120.5084065453937
 20
-137.3621581687845
 10
120.3454535289414
 20
-137.3156493797336
 10
120.2310763588311
 20
-137.2860215585604
 10
120.2310763588311
 20
-137.2860215585604
 10
120.2310763588311
 20
-137.1399495099859
 10
120.2310763588311
 20
-137.1399495099859
 10
120.2310763588311
 20
-137.1399495099859
 10
121.7755126648686
 20
-137.1399495099859
 10
121.7755126648686
 20
-137.1399495099859
 10
121.7755126648686
 20
-137.1399495099859
 10
121.7755126648686
 20
-137.3642252260756
 10
121.7755126648686
 20
-137.3642252260756
 97
        0
 97
        0
 75
     2
 76
     1
 98
        0
  0
ENDBLK
  5
F9
330
F6
100
AcDbEntity
  8
0
100
AcDbBlockEnd
  0
BLOCK
  5
10E
330
10C
100
AcDbEntity
  8
0
100
AcDbBlockBegin
  2
block 8
 70
     0
 10
0.0
 20
0.0
 30
0.0
  3
block 8
  1

  0
SPLINE
  5
110
330
10C
100
AcDbEntity
  8
_U+30EC_U+30A4_U+30E4_U+30FC 1
370
     0
100
AcDbSpline
210
0.0
220
0.0
230
1.0
 70
    11
 71
     3
 72
    29
 73
    25
 74
     0
 42
0.0000000001
 43
0.0000000001
 12
1.0
 22
0.0
 32
0.0
 13
1.0
 23
0.0
 33
0.0
 40
0.0
 40
0.0
 40
0.0
 40
0.0
 40
1.0
 40
1.0
 40
1.0
 40
2.0
 40
2.0
 40
2.0
 40
3.0
 40
3.0
 40
3.0
 40
4.0
 40
4.0
 40
4.0
 40
5.0
 40
5.0
 40
5.0
 40
6.0
 40
6.0
 40
6.0
 40
7.0
 40
7.0
 40
7.0
 40
8.0
 40
8.0
 40
8.0
 40
8.0
 10
106.5971109759549
 20
-151.9349120713913
 30
0.0
 10
106.8065727814581
 20
-152.0430880696281
 30
0.0
 10
106.825520806627
 20
-152.2163763725362
 30
0.0
 10
106.825520806627
 20
-152.3328205999376
 30
0.0
 10
106.825520806627
 20
-152.4937065590988
 30
0.0
 10
106.7790120175761
 20
-152.6352999835426
 30
0.0
 10
106.5971109759549
 20
-152.7303846189355
 30
0.0
 10
106.4024630810383
 20
-152.8340819930415
 30
0.0
 10
106.1657850212016
 20
-152.8533745277589
 30
0.0
 10
106.0028320047493
 20
-152.8533745277589
 30
0.0
 10
105.8588270134659
 20
-152.8533745277589
 30
0.0
 10
105.6069905334941
 20
-152.8361490503326
 30
0.0
 10
105.4082085239952
 20
-152.7303846189355
 30
0.0
 10
105.205292399914
 20
-152.6225531302472
 30
0.0
 10
105.1818657506143
 20
-152.461667171086
 30
0.0
 10
105.1818657506143
 20
-152.3328205999376
 30
0.0
 10
105.1818657506143
 20
-152.1740016980676
 30
0.0
 10
105.226307482374
 20
-152.0303412163327
 30
0.0
 10
105.4082085239952
 20
-151.9349120713913
 30
0.0
 10
105.6007893616206
 20
-151.8356933214161
 30
0.0
 10
105.8291991922927
 20
-151.8122666721164
 30
0.0
 10
106.0028320047493
 20
-151.8122666721164
 30
0.0
 10
106.1740532503662
 20
-151.8122666721164
 30
0.0
 10
106.4045301383294
 20
-151.8336262641249
 30
0.0
 10
106.5971109759549
 20
-151.9349120713913
 30
0.0
  0
SPLINE
  5
111
330
10C
100
AcDbEntity
  8
_U+30EC_U+30A4_U+30E4_U+30FC 1
370
     0
100
AcDbSpline
210
0.0
220
0.0
230
1.0
 70
    11
 71
     3
 72
    17
 73
    13
 74
     0
 42
0.0000000001
 43
0.0000000001
 12
1.0
 22
0.0
 32
0.0
 13
1.0
 23
0.0
 33
0.0
 40
0.0
 40
0.0
 40
0.0
 40
0.0
 40
1.0
 40
1.0
 40
1.0
 40
2.0
 40
2.0
 40
2.0
 40
3.0
 40
3.0
 40
3.0
 40
4.0
 40
4.0
 40
4.0
 40
4.0
 10
105.3744465882397
 20
-152.3328205999376
 30
0.0
 10
105.3744465882397
 20
-152.5825900226183
 30
0.0
 10
105.6579779466758
 20
-152.6290988116691
 30
0.0
 10
106.0028320047493
 20
-152.6290988116691
 30
0.0
 10
106.322192356232
 20
-152.6290988116691
 30
0.0
 10
106.6308729117103
 20
-152.592925309074
 30
0.0
 10
106.6308729117103
 20
-152.3328205999376
 30
0.0
 10
106.6308729117103
 20
-152.0851182345482
 30
0.0
 10
106.349753120114
 20
-152.0365423882062
 30
0.0
 10
106.0028320047493
 20
-152.0365423882062
 30
0.0
 10
105.6831271437181
 20
-152.0365423882062
 30
0.0
 10
105.3744465882397
 20
-152.0747829480924
 30
0.0
 10
105.3744465882397
 20
-152.3328205999376
 30
0.0
  0
HATCH
  5
112
330
10C
100
AcDbEntity
  8
_U+30EC_U+30A4_U+30E4_U+30FC 1
 62
   179
420
  2234388
100
AcDbHatch
 10
0.0
 20
0.0
 30
0.0
210
0.0
220
0.0
230
1.0
  2
SOLID
 70
     1
 71
     0
 91
        2
 92
        1
 93
        1
 72
     4
 94
        3
 73
     0
 74
     1
 95
       29
 96
       25
 40
0.0
 40
0.0
 40
0.0
 40
0.0
 40
1.0
 40
1.0
 40
1.0
 40
2.0
 40
2.0
 40
2.0
 40
3.0
 40
3.0
 40
3.0
 40
4.0
 40
4.0
 40
4.0
 40
5.0
 40
5.0
 40
5.0
 40
6.0
 40
6.0
 40
6.0
 40
7.0
 40
7.0
 40
7.0
 40
8.0
 40
8.0
 40
8.0
 40
8.0
 10
106.5971109759549
 20
-151.9349120713913
 10
106.8065727814581
 20
-152.0430880696281
 10
106.825520806627
 20
-152.2163763725362
 10
106.825520806627
 20
-152.3328205999376
 10
106.825520806627
 20
-152.4937065590988
 10
106.7790120175761
 20
-152.6352999835426
 10
106.5971109759549
 20
-152.7303846189355
 10
106.4024630810383
 20
-152.8340819930415
 10
106.1657850212016
 20
-152.8533745277589
 10
106.0028320047493
 20
-152.8533745277589
 10
105.8588270134659
 20
-152.8533745277589
 10
105.6069905334941
 20
-152.8361490503326
 10
105.4082085239952
 20
-152.7303846189355
 10
105.205292399914
 20
-152.6225531302472
 10
105.1818657506143
 20
-152.461667171086
 10
105.1818657506143
 20
-152.3328205999376
 10
105.1818657506143
 20
-152.1740016980676
 10
105.226307482374
 20
-152.0303412163327
 10
105.4082085239952
 20
-151.9349120713913
 10
105.6007893616206
 20
-151.8356933214161
 10
105.8291991922927
 20
-151.8122666721164
 10
106.0028320047493
 20
-151.8122666721164
 10
106.1740532503662
 20
-151.8122666721164
 10
106.4045301383294
 20
-151.8336262641249
 10
106.5971109759549
 20
-151.9349120713913
 97
        0
 97
        0
 92
        1
 93
        1
 72
     4
 94
        3
 73
     0
 74
     1
 95
       17
 96
       13
 40
0.0
 40
0.0
 40
0.0
 40
0.0
 40
1.0
 40
1.0
 40
1.0
 40
2.0
 40
2.0
 40
2.0
 40
3.0
 40
3.0
 40
3.0
 40
4.0
 40
4.0
 40
4.0
 40
4.0
 10
105.3744465882397
 20
-152.3328205999376
 10
105.3744465882397
 20
-152.5825900226183
 10
105.6579779466758
 20
-152.6290988116691
 10
106.0028320047493
 20
-152.6290988116691
 10
106.322192356232
 20
-152.6290988116691
 10
106.6308729117103
 20
-152.592925309074
 10
106.6308729117103
 20
-152.3328205999376
 10
106.6308729117103
 20
-152.0851182345482
 10
106.349753120114
 20
-152.0365423882062
 10
106.0028320047493
 20
-152.0365423882062
 10
105.6831271437181
 20
-152.0365423882062
 10
105.3744465882397
 20
-152.0747829480924
 10
105.3744465882397
 20
-152.3328205999376
 97
        0
 97
        0
 75
     2
 76
     1
 98
        0
  0
POLYLINE
  5
113
330
10C
100
AcDbEntity
  8
_U+30EC_U+30A4_U+30E4_U+30FC 1
370
     0
100
AcDb2dPolyline
 66
     1
 10
0.0
 20
0.0
 30
0.0
  0
VERTEX
  5
114
330
113
100
AcDbEntity
  8
_U+30EC_U+30A4_U+30E4_U+30FC 1
370
     0
100
AcDbVertex
100
AcDb2dVertex
 10
106.7748779029938
 20
-151.5959146756427
 30
0.0
  0
VERTEX
  5
115
330
113
100
AcDbEntity
  8
_U+30EC_U+30A4_U+30E4_U+30FC 1
370
     0
100
AcDbVertex
100
AcDb2dVertex
 10
106.523041423022
 20
-151.5959146756427
 30
0.0
  0
VERTEX
  5
116
330
113
100
AcDbEntity
  8
_U+30EC_U+30A4_U+30E4_U+30FC 1
370
     0
100
AcDbVertex
100
AcDb2dVertex
 10
106.523041423022
 20
-151.3440781956709
 30
0.0
  0
VERTEX
  5
117
330
113
100
AcDbEntity
  8
_U+30EC_U+30A4_U+30E4_U+30FC 1
370
     0
100
AcDbVertex
100
AcDb2dVertex
 10
106.7748779029938
 20
-151.3440781956709
 30
0.0
  0
VERTEX
  5
118
330
113
100
AcDbEntity
  8
_U+30EC_U+30A4_U+30E4_U+30FC 1
370
     0
100
AcDbVertex
100
AcDb2dVertex
 10
106.7748779029938
 20
-151.5959146756427
 30
0.0
  0
SEQEND
  5
119
330
113
100
AcDbEntity
  8
_U+30EC_U+30A4_U+30E4_U+30FC 1
370
     0
  0
HATCH
  5
11A
330
10C
100
AcDbEntity
  8
_U+30EC_U+30A4_U+30E4_U+30FC 1
 62
   179
420
  2234388
100
AcDbHatch
 10
0.0
 20
0.0
 30
0.0
210
0.0
220
0.0
230
1.0
  2
SOLID
 70
     1
 71
     0
 91
        1
 92
        1
 93
        4
 72
     1
 10
106.7748779029938
 20
-151.5959146756427
 11
106.523041423022
 21
-151.5959146756427
 72
     1
 10
106.523041423022
 20
-151.5959146756427
 11
106.523041423022
 21
-151.3440781956709
 72
     1
 10
106.523041423022
 20
-151.3440781956709
 11
106.7748779029938
 21
-151.3440781956709
 72
     1
 10
106.7748779029938
 20
-151.3440781956709
 11
106.7748779029938
 21
-151.5959146756427
 97
        0
 75
     2
 76
     1
 98
        0
  0
SPLINE
  5
11B
330
10C
100
AcDbEntity
  8
_U+30EC_U+30A4_U+30E4_U+30FC 1
370
     0
100
AcDbSpline
210
0.0
220
0.0
230
1.0
 70
    11
 71
     3
 72
    53
 73
    49
 74
     0
 42
0.0000000001
 43
0.0000000001
 12
1.0
 22
0.0
 32
0.0
 13
1.0
 23
0.0
 33
0.0
 40
0.0
 40
0.0
 40
0.0
 40
0.0
 40
1.0
 40
1.0
 40
1.0
 40
2.0
 40
2.0
 40
2.0
 40
3.0
 40
3.0
 40
3.0
 40
4.0
 40
4.0
 40
4.0
 40
5.0
 40
5.0
 40
5.0
 40
6.0
 40
6.0
 40
6.0
 40
7.0
 40
7.0
 40
7.0
 40
8.0
 40
8.0
 40
8.0
 40
9.0
 40
9.0
 40
9.0
 40
10.0
 40
10.0
 40
10.0
 40
11.0
 40
11.0
 40
11.0
 40
12.0
 40
12.0
 40
12.0
 40
13.0
 40
13.0
 40
13.0
 40
14.0
 40
14.0
 40
14.0
 40
15.0
 40
15.0
 40
15.0
 40
16.0
 40
16.0
 40
16.0
 40
16.0
 10
106.825520806627
 20
-150.6268093156419
 30
0.0
 10
106.825520806627
 20
-150.7050129831571
 30
0.0
 10
106.8086398387492
 20
-150.806643299972
 30
0.0
 10
106.7452500818206
 20
-150.9082736167868
 30
0.0
 10
106.6353515358412
 20
-151.0815619196949
 30
0.0
 10
106.5040933978532
 20
-151.1029215117034
 30
0.0
 10
106.3962619091648
 20
-151.1218695368723
 30
0.0
 10
106.3962619091648
 20
-151.1218695368723
 30
0.0
 10
106.3962619091648
 20
-150.8996608780737
 30
0.0
 10
106.3962619091648
 20
-150.8996608780737
 30
0.0
 10
106.5950439186637
 20
-150.8448838598582
 30
0.0
 10
106.6246717398369
 20
-150.7177598364525
 30
0.0
 10
106.6246717398369
 20
-150.6247422583508
 30
0.0
 10
106.6246717398369
 20
-150.4852158911982
 30
0.0
 10
106.5251084803132
 20
-150.3329426707501
 30
0.0
 10
106.2925645350588
 20
-150.3329426707501
 30
0.0
 10
106.0365939405047
 20
-150.3329426707501
 30
0.0
 10
105.9666585021542
 20
-150.5127766550802
 30
0.0
 10
105.9666585021542
 20
-150.6333549970639
 30
0.0
 10
105.9666585021542
 20
-150.6650498755282
 30
0.0
 10
105.9666585021542
 20
-150.806643299972
 30
0.0
 10
106.095849582851
 20
-150.8955267634914
 30
0.0
 10
106.095849582851
 20
-150.8955267634914
 30
0.0
 10
106.0769015576822
 20
-151.0712266332391
 30
0.0
 10
106.0769015576822
 20
-151.0712266332391
 30
0.0
 10
106.0769015576822
 20
-151.0712266332391
 30
0.0
 10
105.2304415969563
 20
-150.9506482912554
 30
0.0
 10
105.2304415969563
 20
-150.9506482912554
 30
0.0
 10
105.2304415969563
 20
-150.9506482912554
 30
0.0
 10
105.2304415969563
 20
-150.1720567115889
 30
0.0
 10
105.2304415969563
 20
-150.1720567115889
 30
0.0
 10
105.2304415969563
 20
-150.1720567115889
 30
0.0
 10
105.4250894918729
 20
-150.1720567115889
 30
0.0
 10
105.4250894918729
 20
-150.1720567115889
 30
0.0
 10
105.4250894918729
 20
-150.1720567115889
 30
0.0
 10
105.4250894918729
 20
-150.7876952748031
 30
0.0
 10
105.4250894918729
 20
-150.7876952748031
 30
0.0
 10
105.4250894918729
 20
-150.7876952748031
 30
0.0
 10
105.8481472174616
 20
-150.8531520890228
 30
0.0
 10
105.8481472174616
 20
-150.8531520890228
 30
0.0
 10
105.8143852817061
 20
-150.7918293893854
 30
0.0
 10
105.7740776645287
 20
-150.7094916072879
 30
0.0
 10
105.7740776645287
 20
-150.5909803225953
 30
0.0
 10
105.7740776645287
 20
-150.3370767853324
 30
0.0
 10
105.9604573302807
 20
-150.1000542159472
 30
0.0
 10
106.2736165098899
 20
-150.1000542159472
 30
0.0
 10
106.5909098040814
 20
-150.1000542159472
 30
0.0
 10
106.825520806627
 20
-150.324329932037
 30
0.0
 10
106.825520806627
 20
-150.6268093156419
 30
0.0
  0
HATCH
  5
11C
330
10C
100
AcDbEntity
  8
_U+30EC_U+30A4_U+30E4_U+30FC 1
 62
   179
420
  2234388
100
AcDbHatch
 10
0.0
 20
0.0
 30
0.0
210
0.0
220
0.0
230
1.0
  2
SOLID
 70
     1
 71
     0
 91
        1
 92
        1
 93
        1
 72
     4
 94
        3
 73
     0
 74
     1
 95
       53
 96
       49
 40
0.0
 40
0.0
 40
0.0
 40
0.0
 40
1.0
 40
1.0
 40
1.0
 40
2.0
 40
2.0
 40
2.0
 40
3.0
 40
3.0
 40
3.0
 40
4.0
 40
4.0
 40
4.0
 40
5.0
 40
5.0
 40
5.0
 40
6.0
 40
6.0
 40
6.0
 40
7.0
 40
7.0
 40
7.0
 40
8.0
 40
8.0
 40
8.0
 40
9.0
 40
9.0
 40
9.0
 40
10.0
 40
10.0
 40
10.0
 40
11.0
 40
11.0
 40
11.0
 40
12.0
 40
12.0
 40
12.0
 40
13.0
 40
13.0
 40
13.0
 40
14.0
 40
14.0
 40
14.0
 40
15.0
 40
15.0
 40
15.0
 40
16.0
 40
16.0
 40
16.0
 40
16.0
 10
106.825520806627
 20
-150.6268093156419
 10
106.825520806627
 20
-150.7050129831571
 10
106.8086398387492
 20
-150.806643299972
 10
106.7452500818206
 20
-150.9082736167868
 10
106.6353515358412
 20
-151.0815619196949
 10
106.5040933978532
 20
-151.1029215117034
 10
106.3962619091648
 20
-151.1218695368723
 10
106.3962619091648
 20
-151.1218695368723
 10
106.3962619091648
 20
-150.8996608780737
 10
106.3962619091648
 20
-150.8996608780737
 10
106.5950439186637
 20
-150.8448838598582
 10
106.6246717398369
 20
-150.7177598364525
 10
106.6246717398369
 20
-150.6247422583508
 10
106.6246717398369
 20
-150.4852158911982
 10
106.5251084803132
 20
-150.3329426707501
 10
106.2925645350588
 20
-150.3329426707501
 10
106.0365939405047
 20
-150.3329426707501
 10
105.9666585021542
 20
-150.5127766550802
 10
105.9666585021542
 20
-150.6333549970639
 10
105.9666585021542
 20
-150.6650498755282
 10
105.9666585021542
 20
-150.806643299972
 10
106.095849582851
 20
-150.8955267634914
 10
106.095849582851
 20
-150.8955267634914
 10
106.0769015576822
 20
-151.0712266332391
 10
106.0769015576822
 20
-151.0712266332391
 10
106.0769015576822
 20
-151.0712266332391
 10
105.2304415969563
 20
-150.9506482912554
 10
105.2304415969563
 20
-150.9506482912554
 10
105.2304415969563
 20
-150.9506482912554
 10
105.2304415969563
 20
-150.1720567115889
 10
105.2304415969563
 20
-150.1720567115889
 10
105.2304415969563
 20
-150.1720567115889
 10
105.4250894918729
 20
-150.1720567115889
 10
105.4250894918729
 20
-150.1720567115889
 10
105.4250894918729
 20
-150.1720567115889
 10
105.4250894918729
 20
-150.7876952748031
 10
105.4250894918729
 20
-150.7876952748031
 10
105.4250894918729
 20
-150.7876952748031
 10
105.8481472174616
 20
-150.8531520890228
 10
105.8481472174616
 20
-150.8531520890228
 10
105.8143852817061
 20
-150.7918293893854
 10
105.7740776645287
 20
-150.7094916072879
 10
105.7740776645287
 20
-150.5909803225953
 10
105.7740776645287
 20
-150.3370767853324
 10
105.9604573302807
 20
-150.1000542159472
 10
106.2736165098899
 20
-150.1000542159472
 10
106.5909098040814
 20
-150.1000542159472
 10
106.825520806627
 20
-150.324329932037
 10
106.825520806627
 20
-150.6268093156419
 97
        0
 97
        0
 75
     2
 76
     1
 98
        0
  0
ENDBLK
  5
10F
330
10C
100
AcDbEntity
  8
0
100
AcDbBlockEnd
  0
BLOCK
  5
127
330
125
100
AcDbEntity
  8
0
100
AcDbBlockBegin
  2
block 9
 70
     0
 10
0.0
 20
0.0
 30
0.0
  3
block 9
  1

  0
SPLINE
  5
129
330
125
100
AcDbEntity
  8
_U+30EC_U+30A4_U+30E4_U+30FC 1
370
     0
100
AcDbSpline
210
0.0
220
0.0
230
1.0
 70
    11
 71
     3
 72
    26
 73
    22
 74
     0
 42
0.0000000001
 43
0.0000000001
 12
1.0
 22
0.0
 32
0.0
 13
1.0
 23
0.0
 33
0.0
 40
0.0
 40
0.0
 40
0.0
 40
0.0
 40
1.0
 40
1.0
 40
1.0
 40
2.0
 40
2.0
 40
2.0
 40
3.0
 40
3.0
 40
3.0
 40
4.0
 40
4.0
 40
4.0
 40
5.0
 40
5.0
 40
5.0
 40
6.0
 40
6.0
 40
6.0
 40
7.0
 40
7.0
 40
7.0
 40
7.0
 10
121.7751681553201
 20
-148.4550211217404
 30
0.0
 10
121.7751681553201
 20
-148.4550211217404
 30
0.0
 10
120.6713595618461
 20
-148.4550211217404
 30
0.0
 10
120.6713595618461
 20
-148.4550211217404
 30
0.0
 10
120.6713595618461
 20
-148.4550211217404
 30
0.0
 10
120.6713595618461
 20
-148.7850612692274
 30
0.0
 10
120.6713595618461
 20
-148.7850612692274
 30
0.0
 10
120.6713595618461
 20
-148.7850612692274
 30
0.0
 10
120.5232204559803
 20
-148.7850612692274
 30
0.0
 10
120.5232204559803
 20
-148.7850612692274
 30
0.0
 10
120.5080620358452
 20
-148.4529540644493
 30
0.0
 10
120.3454535289414
 20
-148.4064452753984
 30
0.0
 10
120.2310763588311
 20
-148.3768174542253
 30
0.0
 10
120.2310763588311
 20
-148.3768174542253
 30
0.0
 10
120.2310763588311
 20
-148.2307454056507
 30
0.0
 10
120.2310763588311
 20
-148.2307454056507
 30
0.0
 10
120.2310763588311
 20
-148.2307454056507
 30
0.0
 10
121.7751681553201
 20
-148.2307454056507
 30
0.0
 10
121.7751681553201
 20
-148.2307454056507
 30
0.0
 10
121.7751681553201
 20
-148.2307454056507
 30
0.0
 10
121.7751681553201
 20
-148.4550211217404
 30
0.0
 10
121.7751681553201
 20
-148.4550211217404
 30
0.0
  0
HATCH
  5
12A
330
125
100
AcDbEntity
  8
_U+30EC_U+30A4_U+30E4_U+30FC 1
 62
   179
420
  2234388
100
AcDbHatch
 10
0.0
 20
0.0
 30
0.0
210
0.0
220
0.0
230
1.0
  2
SOLID
 70
     1
 71
     0
 91
        1
 92
        1
 93
        1
 72
     4
 94
        3
 73
     0
 74
     1
 95
       26
 96
       22
 40
0.0
 40
0.0
 40
0.0
 40
0.0
 40
1.0
 40
1.0
 40
1.0
 40
2.0
 40
2.0
 40
2.0
 40
3.0
 40
3.0
 40
3.0
 40
4.0
 40
4.0
 40
4.0
 40
5.0
 40
5.0
 40
5.0
 40
6.0
 40
6.0
 40
6.0
 40
7.0
 40
7.0
 40
7.0
 40
7.0
 10
121.7751681553201
 20
-148.4550211217404
 10
121.7751681553201
 20
-148.4550211217404
 10
120.6713595618461
 20
-148.4550211217404
 10
120.6713595618461
 20
-148.4550211217404
 10
120.6713595618461
 20
-148.4550211217404
 10
120.6713595618461
 20
-148.7850612692274
 10
120.6713595618461
 20
-148.7850612692274
 10
120.6713595618461
 20
-148.7850612692274
 10
120.5232204559803
 20
-148.7850612692274
 10
120.5232204559803
 20
-148.7850612692274
 10
120.5080620358452
 20
-148.4529540644493
 10
120.3454535289414
 20
-148.4064452753984
 10
120.2310763588311
 20
-148.3768174542253
 10
120.2310763588311
 20
-148.3768174542253
 10
120.2310763588311
 20
-148.2307454056507
 10
120.2310763588311
 20
-148.2307454056507
 10
120.2310763588311
 20
-148.2307454056507
 10
121.7751681553201
 20
-148.2307454056507
 10
121.7751681553201
 20
-148.2307454056507
 10
121.7751681553201
 20
-148.2307454056507
 10
121.7751681553201
 20
-148.4550211217404
 10
121.7751681553201
 20
-148.4550211217404
 97
        0
 97
        0
 75
     2
 76
     1
 98
        0
  0
SPLINE
  5
12B
330
125
100
AcDbEntity
  8
_U+30EC_U+30A4_U+30E4_U+30FC 1
370
     0
100
AcDbSpline
210
0.0
220
0.0
230
1.0
 70
    11
 71
     3
 72
    62
 73
    58
 74
     0
 42
0.0000000001
 43
0.0000000001
 12
1.0
 22
0.0
 32
0.0
 13
1.0
 23
0.0
 33
0.0
 40
0.0
 40
0.0
 40
0.0
 40
0.0
 40
1.0
 40
1.0
 40
1.0
 40
2.0
 40
2.0
 40
2.0
 40
3.0
 40
3.0
 40
3.0
 40
4.0
 40
4.0
 40
4.0
 40
5.0
 40
5.0
 40
5.0
 40
6.0
 40
6.0
 40
6.0
 40
7.0
 40
7.0
 40
7.0
 40
8.0
 40
8.0
 40
8.0
 40
9.0
 40
9.0
 40
9.0
 40
10.0
 40
10.0
 40
10.0
 40
11.0
 40
11.0
 40
11.0
 40
12.0
 40
12.0
 40
12.0
 40
13.0
 40
13.0
 40
13.0
 40
14.0
 40
14.0
 40
14.0
 40
15.0
 40
15.0
 40
15.0
 40
16.0
 40
16.0
 40
16.0
 40
17.0
 40
17.0
 40
17.0
 40
18.0
 40
18.0
 40
18.0
 40
19.0
 40
19.0
 40
19.0
 40
19.0
 10
121.8261555685018
 20
-147.2378688868017
 30
0.0
 10
121.8261555685018
 20
-147.3332980317431
 30
0.0
 10
121.8047959764933
 20
-147.5510280664109
 30
0.0
 10
121.6187608202898
 20
-147.6760850325254
 30
0.0
 10
121.5064507074706
 20
-147.7498100759098
 30
0.0
 10
121.4072319574954
 20
-147.7542887000406
 30
0.0
 10
121.3224826085583
 20
-147.7584228146229
 30
0.0
 10
121.3224826085583
 20
-147.7584228146229
 30
0.0
 10
121.3224826085583
 20
-147.5382812131154
 30
0.0
 10
121.3224826085583
 20
-147.5382812131154
 30
0.0
 10
121.3968966710397
 20
-147.5362141558243
 30
0.0
 10
121.6311631640367
 20
-147.5258788693685
 30
0.0
 10
121.6311631640367
 20
-147.2423475109325
 30
0.0
 10
121.6311631640367
 20
-147.104888201071
 30
0.0
 10
121.5615722352346
 20
-146.9522704710744
 30
0.0
 10
121.3335069141111
 20
-146.9522704710744
 30
0.0
 10
121.2170626867096
 20
-146.9522704710744
 30
0.0
 10
121.1681423308191
 20
-146.9905110309607
 30
0.0
 10
121.1364474523548
 20
-147.022205909425
 30
0.0
 10
121.0627224089704
 20
-147.0962754623579
 30
0.0
 10
121.0496310461265
 20
-147.2127196897593
 30
0.0
 10
121.0496310461265
 20
-147.2674967079748
 30
0.0
 10
121.0496310461265
 20
-147.2867892426922
 30
0.0
 10
121.0516981034176
 20
-147.3226182357388
 30
0.0
 10
121.0558322179999
 20
-147.3501789996208
 30
0.0
 10
121.0558322179999
 20
-147.3501789996208
 30
0.0
 10
120.8615288326318
 20
-147.3501789996208
 30
0.0
 10
120.8615288326318
 20
-147.3501789996208
 30
0.0
 10
120.8677300045053
 20
-147.3119384397345
 30
0.0
 10
120.8697970617964
 20
-147.2699082748145
 30
0.0
 10
120.8697970617964
 20
-147.2633625933925
 30
0.0
 10
120.8697970617964
 20
-147.1979057791727
 30
0.0
 10
120.8484374697879
 20
-146.9991237696738
 30
0.0
 10
120.6121039194998
 20
-146.9991237696738
 30
0.0
 10
120.4343369924609
 20
-146.9991237696738
 30
0.0
 10
120.3792154646969
 20
-147.1300373981133
 30
0.0
 10
120.3792154646969
 20
-147.2402804536413
 30
0.0
 10
120.3792154646969
 20
-147.50451927736
 30
0.0
 10
120.6121039194998
 20
-147.5131320160731
 30
0.0
 10
120.683761905593
 20
-147.5172661306554
 30
0.0
 10
120.683761905593
 20
-147.5172661306554
 30
0.0
 10
120.683761905593
 20
-147.7205267642852
 30
0.0
 10
120.683761905593
 20
-147.7205267642852
 30
0.0
 10
120.5590494490269
 20
-147.711914025572
 30
0.0
 10
120.1821560029406
 20
-147.68435326169
 30
0.0
 10
120.1821560029406
 20
-147.2275336003459
 30
0.0
 10
120.1821560029406
 20
-147.0032578842561
 30
0.0
 10
120.3096245358948
 20
-146.7621012002886
 30
0.0
 10
120.6052137285293
 20
-146.7621012002886
 30
0.0
 10
120.7919379038298
 20
-146.7621012002886
 30
0.0
 10
120.8739311763787
 20
-146.8571858356815
 30
0.0
 10
120.9352538760162
 20
-146.9567490952053
 30
0.0
 10
120.9628146398982
 20
-146.8954263955678
 30
0.0
 10
121.043429874253
 20
-146.7135253539466
 30
0.0
 10
121.3204155512671
 20
-146.7135253539466
 30
0.0
 10
121.6587239279187
 20
-146.7135253539466
 30
0.0
 10
121.8261555685018
 20
-146.9608832097876
 30
0.0
 10
121.8261555685018
 20
-147.2378688868017
 30
0.0
  0
HATCH
  5
12C
330
125
100
AcDbEntity
  8
_U+30EC_U+30A4_U+30E4_U+30FC 1
 62
   179
420
  2234388
100
AcDbHatch
 10
0.0
 20
0.0
 30
0.0
210
0.0
220
0.0
230
1.0
  2
SOLID
 70
     1
 71
     0
 91
        1
 92
        1
 93
        1
 72
     4
 94
        3
 73
     0
 74
     1
 95
       62
 96
       58
 40
0.0
 40
0.0
 40
0.0
 40
0.0
 40
1.0
 40
1.0
 40
1.0
 40
2.0
 40
2.0
 40
2.0
 40
3.0
 40
3.0
 40
3.0
 40
4.0
 40
4.0
 40
4.0
 40
5.0
 40
5.0
 40
5.0
 40
6.0
 40
6.0
 40
6.0
 40
7.0
 40
7.0
 40
7.0
 40
8.0
 40
8.0
 40
8.0
 40
9.0
 40
9.0
 40
9.0
 40
10.0
 40
10.0
 40
10.0
 40
11.0
 40
11.0
 40
11.0
 40
12.0
 40
12.0
 40
12.0
 40
13.0
 40
13.0
 40
13.0
 40
14.0
 40
14.0
 40
14.0
 40
15.0
 40
15.0
 40
15.0
 40
16.0
 40
16.0
 40
16.0
 40
17.0
 40
17.0
 40
17.0
 40
18.0
 40
18.0
 40
18.0
 40
19.0
 40
19.0
 40
19.0
 40
19.0
 10
121.8261555685018
 20
-147.2378688868017
 10
121.8261555685018
 20
-147.3332980317431
 10
121.8047959764933
 20
-147.5510280664109
 10
121.6187608202898
 20
-147.6760850325254
 10
121.5064507074706
 20
-147.7498100759098
 10
121.4072319574954
 20
-147.7542887000406
 10
121.3224826085583
 20
-147.7584228146229
 10
121.3224826085583
 20
-147.7584228146229
 10
121.3224826085583
 20
-147.5382812131154
 10
121.3224826085583
 20
-147.5382812131154
 10
121.3968966710397
 20
-147.5362141558243
 10
121.6311631640367
 20
-147.5258788693685
 10
121.6311631640367
 20
-147.2423475109325
 10
121.6311631640367
 20
-147.104888201071
 10
121.5615722352346
 20
-146.9522704710744
 10
121.3335069141111
 20
-146.9522704710744
 10
121.2170626867096
 20
-146.9522704710744
 10
121.1681423308191
 20
-146.9905110309607
 10
121.1364474523548
 20
-147.022205909425
 10
121.0627224089704
 20
-147.0962754623579
 10
121.0496310461265
 20
-147.2127196897593
 10
121.0496310461265
 20
-147.2674967079748
 10
121.0496310461265
 20
-147.2867892426922
 10
121.0516981034176
 20
-147.3226182357388
 10
121.0558322179999
 20
-147.3501789996208
 10
121.0558322179999
 20
-147.3501789996208
 10
120.8615288326318
 20
-147.3501789996208
 10
120.8615288326318
 20
-147.3501789996208
 10
120.8677300045053
 20
-147.3119384397345
 10
120.8697970617964
 20
-147.2699082748145
 10
120.8697970617964
 20
-147.2633625933925
 10
120.8697970617964
 20
-147.1979057791727
 10
120.8484374697879
 20
-146.9991237696738
 10
120.6121039194998
 20
-146.9991237696738
 10
120.4343369924609
 20
-146.9991237696738
 10
120.3792154646969
 20
-147.1300373981133
 10
120.3792154646969
 20
-147.2402804536413
 10
120.3792154646969
 20
-147.50451927736
 10
120.6121039194998
 20
-147.5131320160731
 10
120.683761905593
 20
-147.5172661306554
 10
120.683761905593
 20
-147.5172661306554
 10
120.683761905593
 20
-147.7205267642852
 10
120.683761905593
 20
-147.7205267642852
 10
120.5590494490269
 20
-147.711914025572
 10
120.1821560029406
 20
-147.68435326169
 10
120.1821560029406
 20
-147.2275336003459
 10
120.1821560029406
 20
-147.0032578842561
 10
120.3096245358948
 20
-146.7621012002886
 10
120.6052137285293
 20
-146.7621012002886
 10
120.7919379038298
 20
-146.7621012002886
 10
120.8739311763787
 20
-146.8571858356815
 10
120.9352538760162
 20
-146.9567490952053
 10
120.9628146398982
 20
-146.8954263955678
 10
121.043429874253
 20
-146.7135253539466
 10
121.3204155512671
 20
-146.7135253539466
 10
121.6587239279187
 20
-146.7135253539466
 10
121.8261555685018
 20
-146.9608832097876
 10
121.8261555685018
 20
-147.2378688868017
 97
        0
 97
        0
 75
     2
 76
     1
 98
        0
  0
ENDBLK
  5
128
330
125
100
AcDbEntity
  8
0
100
AcDbBlockEnd
  0
ENDSEC
  0
SECTION
  2
ENTITIES
  0
INSERT
  5
42
330
1F
100
AcDbEntity
  8
_U+30EC_U+30A4_U+30E4_U+30FC 1
100
AcDbBlockReference
  2
block 2
 10
0.0
 20
0.0
 30
0.0
  0
POLYLINE
  5
54
330
1F
100
AcDbEntity
  8
_U+30EC_U+30A4_U+30E4_U+30FC 1
 62
   179
420
  2234388
370
    25
100
AcDb2dPolyline
 66
     1
 10
0.0
 20
0.0
 30
0.0
  0
VERTEX
  5
55
330
54
100
AcDbEntity
  8
_U+30EC_U+30A4_U+30E4_U+30FC 1
 62
   179
420
  2234388
370
    25
100
AcDbVertex
100
AcDb2dVertex
 10
86.07777775625834
 20
-141.3174860757818
 30
0.0
  0
VERTEX
  5
56
330
54
100
AcDbEntity
  8
_U+30EC_U+30A4_U+30E4_U+30FC 1
 62
   179
420
  2234388
370
    25
100
AcDbVertex
100
AcDb2dVertex
 10
94.07764648876817
 20
-141.3174860757818
 30
0.0
  0
VERTEX
  5
57
330
54
100
AcDbEntity
  8
_U+30EC_U+30A4_U+30E4_U+30FC 1
 62
   179
420
  2234388
370
    25
100
AcDbVertex
100
AcDb2dVertex
 10
94.07764648876817
 20
-155.518837738898
 30
0.0
  0
VERTEX
  5
58
330
54
100
AcDbEntity
  8
_U+30EC_U+30A4_U+30E4_U+30FC 1
 62
   179
420
  2234388
370
    25
100
AcDbVertex
100
AcDb2dVertex
 10
104.0773792892093
 20
-154.8181152390731
 30
0.0
  0
VERTEX
  5
59
330
54
100
AcDbEntity
  8
_U+30EC_U+30A4_U+30E4_U+30FC 1
 62
   179
420
  2234388
370
    25
100
AcDbVertex
100
AcDb2dVertex
 10
104.0773792892093
 20
-154.3178763503093
 30
0.0
  0
VERTEX
  5
5A
330
54
100
AcDbEntity
  8
_U+30EC_U+30A4_U+30E4_U+30FC 1
 62
   179
420
  2234388
370
    25
100
AcDbVertex
100
AcDb2dVertex
 10
97.07763335667657
 20
-154.3178763503093
 30
0.0
  0
VERTEX
  5
5B
330
54
100
AcDbEntity
  8
_U+30EC_U+30A4_U+30E4_U+30FC 1
 62
   179
420
  2234388
370
    25
100
AcDbVertex
100
AcDb2dVertex
 10
97.07763335667657
 20
-141.3181563535594
 30
0.0
  0
VERTEX
  5
5C
330
54
100
AcDbEntity
  8
_U+30EC_U+30A4_U+30E4_U+30FC 1
 62
   179
420
  2234388
370
    25
100
AcDbVertex
100
AcDb2dVertex
 10
119.0773166368972
 20
-141.3181563535594
 30
0.0
  0
VERTEX
  5
5D
330
54
100
AcDbEntity
  8
_U+30EC_U+30A4_U+30E4_U+30FC 1
 62
   179
420
  2234388
370
    25
100
AcDbVertex
100
AcDb2dVertex
 10
119.0773166368972
 20
-140.3180666315873
 30
0.0
  0
VERTEX
  5
5E
330
54
100
AcDbEntity
  8
_U+30EC_U+30A4_U+30E4_U+30FC 1
 62
   179
420
  2234388
370
    25
100
AcDbVertex
100
AcDb2dVertex
 10
96.07715560442311
 20
-140.3180666315873
 30
0.0
  0
VERTEX
  5
5F
330
54
100
AcDbEntity
  8
_U+30EC_U+30A4_U+30E4_U+30FC 1
 62
   179
420
  2234388
370
    25
100
AcDbVertex
100
AcDb2dVertex
 10
96.07715560442311
 20
-154.3178763503093
 30
0.0
  0
VERTEX
  5
60
330
54
100
AcDbEntity
  8
_U+30EC_U+30A4_U+30E4_U+30FC 1
 62
   179
420
  2234388
370
    25
100
AcDbVertex
100
AcDb2dVertex
 10
95.0773834077072
 20
-154.1187685725816
 30
0.0
  0
VERTEX
  5
61
330
54
100
AcDbEntity
  8
_U+30EC_U+30A4_U+30E4_U+30FC 1
 62
   179
420
  2234388
370
    25
100
AcDbVertex
100
AcDb2dVertex
 10
95.0773834077072
 20
-140.3180666315873
 30
0.0
  0
VERTEX
  5
62
330
54
100
AcDbEntity
  8
_U+30EC_U+30A4_U+30E4_U+30FC 1
 62
   179
420
  2234388
370
    25
100
AcDbVertex
100
AcDb2dVertex
 10
86.07777775625834
 20
-140.3180666315873
 30
0.0
  0
VERTEX
  5
63
330
54
100
AcDbEntity
  8
_U+30EC_U+30A4_U+30E4_U+30FC 1
 62
   179
420
  2234388
370
    25
100
AcDbVertex
100
AcDb2dVertex
 10
86.07777775625834
 20
-141.3174860757818
 30
0.0
  0
SEQEND
  5
64
330
54
100
AcDbEntity
  8
_U+30EC_U+30A4_U+30E4_U+30FC 1
 62
   179
420
  2234388
370
    25
  0
POLYLINE
  5
65
330
1F
100
AcDbEntity
  8
_U+30EC_U+30A4_U+30E4_U+30FC 1
 62
   179
420
  2234388
370
     9
100
AcDb2dPolyline
 66
     1
 10
0.0
 20
0.0
 30
0.0
  0
VERTEX
  5
66
330
65
100
AcDbEntity
  8
_U+30EC_U+30A4_U+30E4_U+30FC 1
 62
   179
420
  2234388
370
     9
100
AcDbVertex
100
AcDb2dVertex
 10
119.0470100184133
 20
-136.6242363547327
 30
0.0
  0
VERTEX
  5
67
330
65
100
AcDbEntity
  8
_U+30EC_U+30A4_U+30E4_U+30FC 1
 62
   179
420
  2234388
370
     9
100
AcDbVertex
100
AcDb2dVertex
 10
86.07777775625834
 20
-136.6242363547327
 30
0.0
  0
SEQEND
  5
68
330
65
100
AcDbEntity
  8
_U+30EC_U+30A4_U+30E4_U+30FC 1
 62
   179
420
  2234388
370
     9
  0
SPLINE
  5
69
330
1F
100
AcDbEntity
  8
_U+30EC_U+30A4_U+30E4_U+30FC 1
 62
   179
420
  2234388
370
     9
100
AcDbSpline
210
0.0
220
0.0
230
1.0
 70
    11
 71
     3
 72
    17
 73
    13
 74
     0
 42
0.0000000001
 43
0.0000000001
 12
1.0
 22
0.0
 32
0.0
 13
1.0
 23
0.0
 33
0.0
 40
0.0
 40
0.0
 40
0.0
 40
0.0
 40
1.0
 40
1.0
 40
1.0
 40
2.0
 40
2.0
 40
2.0
 40
3.0
 40
3.0
 40
3.0
 40
4.0
 40
4.0
 40
4.0
 40
4.0
 10
86.047119193644
 20
-136.5242944103132
 30
0.0
 10
85.99198002838403
 20
-136.5242944103132
 30
0.0
 10
85.94721252952615
 20
-136.56909718808
 30
0.0
 10
85.94721252952615
 20
-136.6242363547327
 30
0.0
 10
85.94721252952615
 20
-136.679340243608
 30
0.0
 10
85.99198002838403
 20
-136.7241430213747
 30
0.0
 10
86.047119193644
 20
-136.7241430213747
 30
0.0
 10
86.10222308112706
 20
-136.7241430213747
 30
0.0
 10
86.14702585776183
 20
-136.679340243608
 30
0.0
 10
86.14702585776183
 20
-136.6242363547327
 30
0.0
 10
86.14702585776183
 20
-136.56909718808
 30
0.0
 10
86.10222308112706
 20
-136.5242944103132
 30
0.0
 10
86.047119193644
 20
-136.5242944103132
 30
0.0
  0
POLYLINE
  5
6A
330
1F
100
AcDbEntity
  8
_U+30EC_U+30A4_U+30E4_U+30FC 1
 62
   179
420
  2234388
370
     9
100
AcDb2dPolyline
 66
     1
 10
0.0
 20
0.0
 30
0.0
  0
VERTEX
  5
6B
330
6A
100
AcDbEntity
  8
_U+30EC_U+30A4_U+30E4_U+30FC 1
 62
   179
420
  2234388
370
     9
100
AcDbVertex
100
AcDb2dVertex
 10
86.047119193644
 20
-135.164194966209
 30
0.0
  0
VERTEX
  5
6C
330
6A
100
AcDbEntity
  8
_U+30EC_U+30A4_U+30E4_U+30FC 1
 62
   179
420
  2234388
370
     9
100
AcDbVertex
100
AcDb2dVertex
 10
86.047119193644
 20
-137.9047491321906
 30
0.0
  0
SEQEND
  5
6D
330
6A
100
AcDbEntity
  8
_U+30EC_U+30A4_U+30E4_U+30FC 1
 62
   179
420
  2234388
370
     9
  0
SPLINE
  5
6E
330
1F
100
AcDbEntity
  8
_U+30EC_U+30A4_U+30E4_U+30FC 1
 62
   179
420
  2234388
370
     9
100
AcDbSpline
210
0.0
220
0.0
230
1.0
 70
    11
 71
     3
 72
    17
 73
    13
 74
     0
 42
0.0000000001
 43
0.0000000001
 12
1.0
 22
0.0
 32
0.0
 13
1.0
 23
0.0
 33
0.0
 40
0.0
 40
0.0
 40
0.0
 40
0.0
 40
1.0
 40
1.0
 40
1.0
 40
2.0
 40
2.0
 40
2.0
 40
3.0
 40
3.0
 40
3.0
 40
4.0
 40
4.0
 40
4.0
 40
4.0
 10
119.0470100184133
 20
-136.5242944103132
 30
0.0
 10
118.9918708531534
 20
-136.5242944103132
 30
0.0
 10
118.9471033542955
 20
-136.56909718808
 30
0.0
 10
118.9471033542955
 20
-136.6242363547327
 30
0.0
 10
118.9471033542955
 20
-136.679340243608
 30
0.0
 10
118.9918708531534
 20
-136.7241430213747
 30
0.0
 10
119.0470100184133
 20
-136.7241430213747
 30
0.0
 10
119.1021139058964
 20
-136.7241430213747
 30
0.0
 10
119.1469166825311
 20
-136.679340243608
 30
0.0
 10
119.1469166825311
 20
-136.6242363547327
 30
0.0
 10
119.1469166825311
 20
-136.56909718808
 30
0.0
 10
119.1021139058964
 20
-136.5242944103132
 30
0.0
 10
119.0470100184133
 20
-136.5242944103132
 30
0.0
  0
POLYLINE
  5
6F
330
1F
100
AcDbEntity
  8
_U+30EC_U+30A4_U+30E4_U+30FC 1
 62
   179
420
  2234388
370
     9
100
AcDb2dPolyline
 66
     1
 10
0.0
 20
0.0
 30
0.0
  0
VERTEX
  5
70
330
6F
100
AcDbEntity
  8
_U+30EC_U+30A4_U+30E4_U+30FC 1
 62
   179
420
  2234388
370
     9
100
AcDbVertex
100
AcDb2dVertex
 10
119.0470100184133
 20
-135.164194966209
 30
0.0
  0
VERTEX
  5
71
330
6F
100
AcDbEntity
  8
_U+30EC_U+30A4_U+30E4_U+30FC 1
 62
   179
420
  2234388
370
     9
100
AcDbVertex
100
AcDb2dVertex
 10
119.0470100184133
 20
-137.9047491321906
 30
0.0
  0
SEQEND
  5
72
330
6F
100
AcDbEntity
  8
_U+30EC_U+30A4_U+30E4_U+30FC 1
 62
   179
420
  2234388
370
     9
  0
INSERT
  5
74
330
1F
100
AcDbEntity
  8
_U+30EC_U+30A4_U+30E4_U+30FC 1
100
AcDbBlockReference
  2
block 3
 10
0.0
 20
0.0
 30
0.0
  0
SPLINE
  5
7B
330
1F
100
AcDbEntity
  8
_U+30EC_U+30A4_U+30E4_U+30FC 1
 62
   179
420
  2234388
370
     9
100
AcDbSpline
210
0.0
220
0.0
230
1.0
 70
    11
 71
     3
 72
    17
 73
    13
 74
     0
 42
0.0000000001
 43
0.0000000001
 12
1.0
 22
0.0
 32
0.0
 13
1.0
 23
0.0
 33
0.0
 40
0.0
 40
0.0
 40
0.0
 40
0.0
 40
1.0
 40
1.0
 40
1.0
 40
2.0
 40
2.0
 40
2.0
 40
3.0
 40
3.0
 40
3.0
 40
4.0
 40
4.0
 40
4.0
 40
4.0
 10
86.17838780140616
 20
-159.80487607116
 30
0.0
 10
86.17838780140616
 20
-159.7497721822851
 30
0.0
 10
86.13358502477139
 20
-159.7049694045183
 30
0.0
 10
86.07777775625834
 20
-159.7049694045183
 30
0.0
 10
86.0226716942677
 20
-159.7049694045183
 30
0.0
 10
85.97786891763293
 20
-159.7497721822851
 30
0.0
 10
85.97786891763293
 20
-159.80487607116
 30
0.0
 10
85.97786891763293
 20
-159.860015237813
 30
0.0
 10
86.0226716942677
 20
-159.9047827378016
 30
0.0
 10
86.07777775625834
 20
-159.9047827378016
 30
0.0
 10
86.13358502477139
 20
-159.9047827378016
 30
0.0
 10
86.17838780140616
 20
-159.860015237813
 30
0.0
 10
86.17838780140616
 20
-159.80487607116
 30
0.0
  0
POLYLINE
  5
7C
330
1F
100
AcDbEntity
  8
_U+30EC_U+30A4_U+30E4_U+30FC 1
 62
   179
420
  2234388
370
     9
100
AcDb2dPolyline
 66
     1
 10
0.0
 20
0.0
 30
0.0
  0
VERTEX
  5
7D
330
7C
100
AcDbEntity
  8
_U+30EC_U+30A4_U+30E4_U+30FC 1
 62
   179
420
  2234388
370
     9
100
AcDbVertex
100
AcDb2dVertex
 10
86.07777775625834
 20
-159.80487607116
 30
0.0
  0
VERTEX
  5
7E
330
7C
100
AcDbEntity
  8
_U+30EC_U+30A4_U+30E4_U+30FC 1
 62
   179
420
  2234388
370
     9
100
AcDbVertex
100
AcDb2dVertex
 10
104.0773792892093
 20
-159.80487607116
 30
0.0
  0
SEQEND
  5
7F
330
7C
100
AcDbEntity
  8
_U+30EC_U+30A4_U+30E4_U+30FC 1
 62
   179
420
  2234388
370
     9
  0
POLYLINE
  5
80
330
1F
100
AcDbEntity
  8
_U+30EC_U+30A4_U+30E4_U+30FC 1
 62
   179
420
  2234388
370
     9
100
AcDb2dPolyline
 66
     1
 10
0.0
 20
0.0
 30
0.0
  0
VERTEX
  5
81
330
80
100
AcDbEntity
  8
_U+30EC_U+30A4_U+30E4_U+30FC 1
 62
   179
420
  2234388
370
     9
100
AcDbVertex
100
AcDb2dVertex
 10
86.07777775625834
 20
-144.3192016305867
 30
0.0
  0
VERTEX
  5
82
330
80
100
AcDbEntity
  8
_U+30EC_U+30A4_U+30E4_U+30FC 1
 62
   179
420
  2234388
370
     9
100
AcDbVertex
100
AcDb2dVertex
 10
86.07777775625834
 20
-160.6358441265077
 30
0.0
  0
SEQEND
  5
83
330
80
100
AcDbEntity
  8
_U+30EC_U+30A4_U+30E4_U+30FC 1
 62
   179
420
  2234388
370
     9
  0
SPLINE
  5
84
330
1F
100
AcDbEntity
  8
_U+30EC_U+30A4_U+30E4_U+30FC 1
 62
   179
420
  2234388
370
     9
100
AcDbSpline
210
0.0
220
0.0
230
1.0
 70
    11
 71
     3
 72
    17
 73
    13
 74
     0
 42
0.0000000001
 43
0.0000000001
 12
1.0
 22
0.0
 32
0.0
 13
1.0
 23
0.0
 33
0.0
 40
0.0
 40
0.0
 40
0.0
 40
0.0
 40
1.0
 40
1.0
 40
1.0
 40
2.0
 40
2.0
 40
2.0
 40
3.0
 40
3.0
 40
3.0
 40
4.0
 40
4.0
 40
4.0
 40
4.0
 10
104.1779562310878
 20
-159.80487607116
 30
0.0
 10
104.1779562310878
 20
-159.7497721822851
 30
0.0
 10
104.1331887322299
 20
-159.7049694045183
 30
0.0
 10
104.0773792892093
 20
-159.7049694045183
 30
0.0
 10
104.0222401239493
 20
-159.7049694045183
 30
0.0
 10
103.9774726250915
 20
-159.7497721822851
 30
0.0
 10
103.9774726250915
 20
-159.80487607116
 30
0.0
 10
103.9774726250915
 20
-159.860015237813
 30
0.0
 10
104.0222401239493
 20
-159.9047827378016
 30
0.0
 10
104.0773792892093
 20
-159.9047827378016
 30
0.0
 10
104.1331887322299
 20
-159.9047827378016
 30
0.0
 10
104.1779562310878
 20
-159.860015237813
 30
0.0
 10
104.1779562310878
 20
-159.80487607116
 30
0.0
  0
POLYLINE
  5
85
330
1F
100
AcDbEntity
  8
_U+30EC_U+30A4_U+30E4_U+30FC 1
 62
   179
420
  2234388
370
     9
100
AcDb2dPolyline
 66
     1
 10
0.0
 20
0.0
 30
0.0
  0
VERTEX
  5
86
330
85
100
AcDbEntity
  8
_U+30EC_U+30A4_U+30E4_U+30FC 1
 62
   179
420
  2234388
370
     9
100
AcDbVertex
100
AcDb2dVertex
 10
104.0773792892093
 20
-157.5052941272904
 30
0.0
  0
VERTEX
  5
87
330
85
100
AcDbEntity
  8
_U+30EC_U+30A4_U+30E4_U+30FC 1
 62
   179
420
  2234388
370
     9
100
AcDbVertex
100
AcDb2dVertex
 10
104.0773792892093
 20
-160.6358441265077
 30
0.0
  0
SEQEND
  5
88
330
85
100
AcDbEntity
  8
_U+30EC_U+30A4_U+30E4_U+30FC 1
 62
   179
420
  2234388
370
     9
  0
SPLINE
  5
89
330
1F
100
AcDbEntity
  8
_U+30EC_U+30A4_U+30E4_U+30FC 1
 62
   179
420
  2234388
370
     9
100
AcDbSpline
210
0.0
220
0.0
230
1.0
 70
    11
 71
     3
 72
    17
 73
    13
 74
     0
 42
0.0000000001
 43
0.0000000001
 12
1.0
 22
0.0
 32
0.0
 13
1.0
 23
0.0
 33
0.0
 40
0.0
 40
0.0
 40
0.0
 40
0.0
 40
1.0
 40
1.0
 40
1.0
 40
2.0
 40
2.0
 40
2.0
 40
3.0
 40
3.0
 40
3.0
 40
4.0
 40
4.0
 40
4.0
 40
4.0
 10
94.17822343064668
 20
-159.80487607116
 30
0.0
 10
94.17822343064668
 20
-159.7497721822851
 30
0.0
 10
94.13345830979999
 20
-159.7049694045183
 30
0.0
 10
94.07764648876817
 20
-159.7049694045183
 30
0.0
 10
94.02250732350822
 20
-159.7049694045183
 30
0.0
 10
93.97773982465034
 20
-159.7497721822851
 30
0.0
 10
93.97773982465034
 20
-159.80487607116
 30
0.0
 10
93.97773982465034
 20
-159.860015237813
 30
0.0
 10
94.02250732350822
 20
-159.9047827378016
 30
0.0
 10
94.07764648876817
 20
-159.9047827378016
 30
0.0
 10
94.13345830979999
 20
-159.9047827378016
 30
0.0
 10
94.17822343064668
 20
-159.860015237813
 30
0.0
 10
94.17822343064668
 20
-159.80487607116
 30
0.0
  0
POLYLINE
  5
8A
330
1F
100
AcDbEntity
  8
_U+30EC_U+30A4_U+30E4_U+30FC 1
 62
   179
420
  2234388
370
     9
100
AcDb2dPolyline
 66
     1
 10
0.0
 20
0.0
 30
0.0
  0
VERTEX
  5
8B
330
8A
100
AcDbEntity
  8
_U+30EC_U+30A4_U+30E4_U+30FC 1
 62
   179
420
  2234388
370
     9
100
AcDbVertex
100
AcDb2dVertex
 10
94.07764648876817
 20
-157.5052941272904
 30
0.0
  0
VERTEX
  5
8C
330
8A
100
AcDbEntity
  8
_U+30EC_U+30A4_U+30E4_U+30FC 1
 62
   179
420
  2234388
370
     9
100
AcDbVertex
100
AcDb2dVertex
 10
94.07764648876817
 20
-160.6358441265077
 30
0.0
  0
SEQEND
  5
8D
330
8A
100
AcDbEntity
  8
_U+30EC_U+30A4_U+30E4_U+30FC 1
 62
   179
420
  2234388
370
     9
  0
INSERT
  5
8F
330
1F
100
AcDbEntity
  8
_U+30EC_U+30A4_U+30E4_U+30FC 1
100
AcDbBlockReference
  2
block 4
 10
0.0
 20
0.0
 30
0.0
  0
INSERT
  5
97
330
1F
100
AcDbEntity
  8
_U+30EC_U+30A4_U+30E4_U+30FC 1
100
AcDbBlockReference
  2
block 5
 10
0.0
 20
0.0
 30
0.0
  0
POLYLINE
  5
9F
330
1F
100
AcDbEntity
  8
_U+30EC_U+30A4_U+30E4_U+30FC 1
 62
   179
420
  2234388
370
     9
100
AcDb2dPolyline
 66
     1
 10
0.0
 20
0.0
 30
0.0
  0
VERTEX
  5
A0
330
9F
100
AcDbEntity
  8
_U+30EC_U+30A4_U+30E4_U+30FC 1
 62
   179
420
  2234388
370
     9
100
AcDbVertex
100
AcDb2dVertex
 10
104.1772859533271
 20
-155.5291741277844
 30
0.0
  0
VERTEX
  5
A1
330
9F
100
AcDbEntity
  8
_U+30EC_U+30A4_U+30E4_U+30FC 1
 62
   179
420
  2234388
370
     9
100
AcDbVertex
100
AcDb2dVertex
 10
107.8346036377989
 20
-158.5777385714664
 30
0.0
  0
SEQEND
  5
A2
330
9F
100
AcDbEntity
  8
_U+30EC_U+30A4_U+30E4_U+30FC 1
 62
   179
420
  2234388
370
     9
  0
INSERT
  5
A4
330
1F
100
AcDbEntity
  8
_U+30EC_U+30A4_U+30E4_U+30FC 1
100
AcDbBlockReference
  2
block 6
 10
0.0
 20
0.0
 30
0.0
  0
SPLINE
  5
E1
330
1F
100
AcDbEntity
  8
_U+30EC_U+30A4_U+30E4_U+30FC 1
 62
   179
420
  2234388
370
     9
100
AcDbSpline
210
0.0
220
0.0
230
1.0
 70
    11
 71
     3
 72
    17
 73
    13
 74
     0
 42
0.0000000001
 43
0.0000000001
 12
1.0
 22
0.0
 32
0.0
 13
1.0
 23
0.0
 33
0.0
 40
0.0
 40
0.0
 40
0.0
 40
0.0
 40
1.0
 40
1.0
 40
1.0
 40
2.0
 40
2.0
 40
2.0
 40
3.0
 40
3.0
 40
3.0
 40
4.0
 40
4.0
 40
4.0
 40
4.0
 10
123.1773321352622
 20
-140.3180666315873
 30
0.0
 10
123.1773321352622
 20
-140.2622571871565
 30
0.0
 10
123.1325293586275
 20
-140.2174544093901
 30
0.0
 10
123.0774254711444
 20
-140.2174544093901
 30
0.0
 10
123.0222863058844
 20
-140.2174544093901
 30
0.0
 10
122.9775188070266
 20
-140.2622571871565
 30
0.0
 10
122.9775188070266
 20
-140.3180666315873
 30
0.0
 10
122.9775188070266
 20
-140.3731705204622
 30
0.0
 10
123.0222863058844
 20
-140.4179732982289
 30
0.0
 10
123.0774254711444
 20
-140.4179732982289
 30
0.0
 10
123.1325293586275
 20
-140.4179732982289
 30
0.0
 10
123.1773321352622
 20
-140.3731705204622
 30
0.0
 10
123.1773321352622
 20
-140.3180666315873
 30
0.0
  0
SPLINE
  5
E2
330
1F
100
AcDbEntity
  8
_U+30EC_U+30A4_U+30E4_U+30FC 1
 62
   179
420
  2234388
370
     9
100
AcDbSpline
210
0.0
220
0.0
230
1.0
 70
    11
 71
     3
 72
    17
 73
    13
 74
     0
 42
0.0000000001
 43
0.0000000001
 12
1.0
 22
0.0
 32
0.0
 13
1.0
 23
0.0
 33
0.0
 40
0.0
 40
0.0
 40
0.0
 40
0.0
 40
1.0
 40
1.0
 40
1.0
 40
2.0
 40
2.0
 40
2.0
 40
3.0
 40
3.0
 40
3.0
 40
4.0
 40
4.0
 40
4.0
 40
4.0
 10
123.1773321352622
 20
-141.3174860757818
 30
0.0
 10
123.1773321352622
 20
-141.262346909129
 30
0.0
 10
123.1325293586275
 20
-141.2175794091401
 30
0.0
 10
123.0774254711444
 20
-141.2175794091401
 30
0.0
 10
123.0222863058844
 20
-141.2175794091401
 30
0.0
 10
122.9775188070266
 20
-141.262346909129
 30
0.0
 10
122.9775188070266
 20
-141.3174860757818
 30
0.0
 10
122.9775188070266
 20
-141.372589964657
 30
0.0
 10
123.0222863058844
 20
-141.4173927424234
 30
0.0
 10
123.0774254711444
 20
-141.4173927424234
 30
0.0
 10
123.1325293586275
 20
-141.4173927424234
 30
0.0
 10
123.1773321352622
 20
-141.372589964657
 30
0.0
 10
123.1773321352622
 20
-141.3174860757818
 30
0.0
  0
SPLINE
  5
E3
330
1F
100
AcDbEntity
  8
_U+30EC_U+30A4_U+30E4_U+30FC 1
 62
   179
420
  2234388
370
     9
100
AcDbSpline
210
0.0
220
0.0
230
1.0
 70
    11
 71
     3
 72
    17
 73
    13
 74
     0
 42
0.0000000001
 43
0.0000000001
 12
1.0
 22
0.0
 32
0.0
 13
1.0
 23
0.0
 33
0.0
 40
0.0
 40
0.0
 40
0.0
 40
0.0
 40
1.0
 40
1.0
 40
1.0
 40
2.0
 40
2.0
 40
2.0
 40
3.0
 40
3.0
 40
3.0
 40
4.0
 40
4.0
 40
4.0
 40
4.0
 10
108.1770450179514
 20
-154.3185819058649
 30
0.0
 10
108.1770450179514
 20
-154.2627724614345
 30
0.0
 10
108.1322422413167
 20
-154.2179696836677
 30
0.0
 10
108.0771383538336
 20
-154.2179696836677
 30
0.0
 10
108.0219991885736
 20
-154.2179696836677
 30
0.0
 10
107.9771964119389
 20
-154.2627724614345
 30
0.0
 10
107.9771964119389
 20
-154.3185819058649
 30
0.0
 10
107.9771964119389
 20
-154.3736857947398
 30
0.0
 10
108.0219991885736
 20
-154.4184885725065
 30
0.0
 10
108.0771383538336
 20
-154.4184885725065
 30
0.0
 10
108.1322422413167
 20
-154.4184885725065
 30
0.0
 10
108.1770450179514
 20
-154.3736857947398
 30
0.0
 10
108.1770450179514
 20
-154.3185819058649
 30
0.0
  0
SPLINE
  5
E4
330
1F
100
AcDbEntity
  8
_U+30EC_U+30A4_U+30E4_U+30FC 1
 62
   179
420
  2234388
370
     9
100
AcDbSpline
210
0.0
220
0.0
230
1.0
 70
    11
 71
     3
 72
    17
 73
    13
 74
     0
 42
0.0000000001
 43
0.0000000001
 12
1.0
 22
0.0
 32
0.0
 13
1.0
 23
0.0
 33
0.0
 40
0.0
 40
0.0
 40
0.0
 40
0.0
 40
1.0
 40
1.0
 40
1.0
 40
2.0
 40
2.0
 40
2.0
 40
3.0
 40
3.0
 40
3.0
 40
4.0
 40
4.0
 40
4.0
 40
4.0
 10
108.1770450179514
 20
-154.8181152390731
 30
0.0
 10
108.1770450179514
 20
-154.7629760724206
 30
0.0
 10
108.1322422413167
 20
-154.7182085724314
 30
0.0
 10
108.0771383538336
 20
-154.7182085724314
 30
0.0
 10
108.0219991885736
 20
-154.7182085724314
 30
0.0
 10
107.9771964119389
 20
-154.7629760724206
 30
0.0
 10
107.9771964119389
 20
-154.8181152390731
 30
0.0
 10
107.9771964119389
 20
-154.8732191279486
 30
0.0
 10
108.0219991885736
 20
-154.9180219057147
 30
0.0
 10
108.0771383538336
 20
-154.9180219057147
 30
0.0
 10
108.1322422413167
 20
-154.9180219057147
 30
0.0
 10
108.1770450179514
 20
-154.8732191279486
 30
0.0
 10
108.1770450179514
 20
-154.8181152390731
 30
0.0
  0
SPLINE
  5
E5
330
1F
100
AcDbEntity
  8
_U+30EC_U+30A4_U+30E4_U+30FC 1
 62
   179
420
  2234388
370
     9
100
AcDbSpline
210
0.0
220
0.0
230
1.0
 70
    11
 71
     3
 72
    17
 73
    13
 74
     0
 42
0.0000000001
 43
0.0000000001
 12
1.0
 22
0.0
 32
0.0
 13
1.0
 23
0.0
 33
0.0
 40
0.0
 40
0.0
 40
0.0
 40
0.0
 40
1.0
 40
1.0
 40
1.0
 40
2.0
 40
2.0
 40
2.0
 40
3.0
 40
3.0
 40
3.0
 40
4.0
 40
4.0
 40
4.0
 40
4.0
 10
123.1773321352622
 20
-154.3185819058649
 30
0.0
 10
123.1773321352622
 20
-154.2627724614345
 30
0.0
 10
123.1325293586275
 20
-154.2179696836677
 30
0.0
 10
123.0774254711444
 20
-154.2179696836677
 30
0.0
 10
123.0222863058844
 20
-154.2179696836677
 30
0.0
 10
122.9775188070266
 20
-154.2627724614345
 30
0.0
 10
122.9775188070266
 20
-154.3185819058649
 30
0.0
 10
122.9775188070266
 20
-154.3736857947398
 30
0.0
 10
123.0222863058844
 20
-154.4184885725065
 30
0.0
 10
123.0774254711444
 20
-154.4184885725065
 30
0.0
 10
123.1325293586275
 20
-154.4184885725065
 30
0.0
 10
123.1773321352622
 20
-154.3736857947398
 30
0.0
 10
123.1773321352622
 20
-154.3185819058649
 30
0.0
  0
POLYLINE
  5
E6
330
1F
100
AcDbEntity
  8
_U+30EC_U+30A4_U+30E4_U+30FC 1
 62
   179
420
  2234388
370
     9
100
AcDb2dPolyline
 66
     1
 10
0.0
 20
0.0
 30
0.0
  0
VERTEX
  5
E7
330
E6
100
AcDbEntity
  8
_U+30EC_U+30A4_U+30E4_U+30FC 1
 62
   179
420
  2234388
370
     9
100
AcDbVertex
100
AcDb2dVertex
 10
123.0774254711444
 20
-140.3180666315873
 30
0.0
  0
VERTEX
  5
E8
330
E6
100
AcDbEntity
  8
_U+30EC_U+30A4_U+30E4_U+30FC 1
 62
   179
420
  2234388
370
     9
100
AcDbVertex
100
AcDb2dVertex
 10
123.0774254711444
 20
-136.5477541325299
 30
0.0
  0
SEQEND
  5
E9
330
E6
100
AcDbEntity
  8
_U+30EC_U+30A4_U+30E4_U+30FC 1
 62
   179
420
  2234388
370
     9
  0
POLYLINE
  5
EA
330
1F
100
AcDbEntity
  8
_U+30EC_U+30A4_U+30E4_U+30FC 1
 62
   179
420
  2234388
370
     9
100
AcDb2dPolyline
 66
     1
 10
0.0
 20
0.0
 30
0.0
  0
VERTEX
  5
EB
330
EA
100
AcDbEntity
  8
_U+30EC_U+30A4_U+30E4_U+30FC 1
 62
   179
420
  2234388
370
     9
100
AcDbVertex
100
AcDb2dVertex
 10
123.0774254711444
 20
-140.3180666315873
 30
0.0
  0
VERTEX
  5
EC
330
EA
100
AcDbEntity
  8
_U+30EC_U+30A4_U+30E4_U+30FC 1
 62
   179
420
  2234388
370
     9
100
AcDbVertex
100
AcDb2dVertex
 10
123.0774254711444
 20
-141.3174860757818
 30
0.0
  0
SEQEND
  5
ED
330
EA
100
AcDbEntity
  8
_U+30EC_U+30A4_U+30E4_U+30FC 1
 62
   179
420
  2234388
370
     9
  0
POLYLINE
  5
EE
330
1F
100
AcDbEntity
  8
_U+30EC_U+30A4_U+30E4_U+30FC 1
 62
   179
420
  2234388
370
     9
100
AcDb2dPolyline
 66
     1
 10
0.0
 20
0.0
 30
0.0
  0
VERTEX
  5
EF
330
EE
100
AcDbEntity
  8
_U+30EC_U+30A4_U+30E4_U+30FC 1
 62
   179
420
  2234388
370
     9
100
AcDbVertex
100
AcDb2dVertex
 10
121.6173841195043
 20
-140.3180666315873
 30
0.0
  0
VERTEX
  5
F0
330
EE
100
AcDbEntity
  8
_U+30EC_U+30A4_U+30E4_U+30FC 1
 62
   179
420
  2234388
370
     9
100
AcDbVertex
100
AcDb2dVertex
 10
124.0775151678522
 20
-140.3180666315873
 30
0.0
  0
SEQEND
  5
F1
330
EE
100
AcDbEntity
  8
_U+30EC_U+30A4_U+30E4_U+30FC 1
 62
   179
420
  2234388
370
     9
  0
POLYLINE
  5
F2
330
1F
100
AcDbEntity
  8
_U+30EC_U+30A4_U+30E4_U+30FC 1
 62
   179
420
  2234388
370
     9
100
AcDb2dPolyline
 66
     1
 10
0.0
 20
0.0
 30
0.0
  0
VERTEX
  5
F3
330
F2
100
AcDbEntity
  8
_U+30EC_U+30A4_U+30E4_U+30FC 1
 62
   179
420
  2234388
370
     9
100
AcDbVertex
100
AcDb2dVertex
 10
121.6173841195043
 20
-141.3185091313372
 30
0.0
  0
VERTEX
  5
F4
330
F2
100
AcDbEntity
  8
_U+30EC_U+30A4_U+30E4_U+30FC 1
 62
   179
420
  2234388
370
     9
100
AcDbVertex
100
AcDb2dVertex
 10
124.0775151678522
 20
-141.3185091313372
 30
0.0
  0
SEQEND
  5
F5
330
F2
100
AcDbEntity
  8
_U+30EC_U+30A4_U+30E4_U+30FC 1
 62
   179
420
  2234388
370
     9
  0
INSERT
  5
F7
330
1F
100
AcDbEntity
  8
_U+30EC_U+30A4_U+30E4_U+30FC 1
100
AcDbBlockReference
  2
block 7
 10
0.0
 20
0.0
 30
0.0
  0
POLYLINE
  5
FC
330
1F
100
AcDbEntity
  8
_U+30EC_U+30A4_U+30E4_U+30FC 1
 62
   179
420
  2234388
370
     9
100
AcDb2dPolyline
 66
     1
 10
0.0
 20
0.0
 30
0.0
  0
VERTEX
  5
FD
330
FC
100
AcDbEntity
  8
_U+30EC_U+30A4_U+30E4_U+30FC 1
 62
   179
420
  2234388
370
     9
100
AcDbVertex
100
AcDb2dVertex
 10
108.0771383538336
 20
-154.5183952391482
 30
0.0
  0
VERTEX
  5
FE
330
FC
100
AcDbEntity
  8
_U+30EC_U+30A4_U+30E4_U+30FC 1
 62
   179
420
  2234388
370
     9
100
AcDbVertex
100
AcDb2dVertex
 10
108.0771383538336
 20
-149.2604894071293
 30
0.0
  0
SEQEND
  5
FF
330
FC
100
AcDbEntity
  8
_U+30EC_U+30A4_U+30E4_U+30FC 1
 62
   179
420
  2234388
370
     9
  0
POLYLINE
  5
100
330
1F
100
AcDbEntity
  8
_U+30EC_U+30A4_U+30E4_U+30FC 1
 62
   179
420
  2234388
370
     9
100
AcDb2dPolyline
 66
     1
 10
0.0
 20
0.0
 30
0.0
  0
VERTEX
  5
101
330
100
100
AcDbEntity
  8
_U+30EC_U+30A4_U+30E4_U+30FC 1
 62
   179
420
  2234388
370
     9
100
AcDbVertex
100
AcDb2dVertex
 10
108.0771383538336
 20
-154.5183952391482
 30
0.0
  0
VERTEX
  5
102
330
100
100
AcDbEntity
  8
_U+30EC_U+30A4_U+30E4_U+30FC 1
 62
   179
420
  2234388
370
     9
100
AcDbVertex
100
AcDb2dVertex
 10
108.0771383538336
 20
-155.8178874610456
 30
0.0
  0
SEQEND
  5
103
330
100
100
AcDbEntity
  8
_U+30EC_U+30A4_U+30E4_U+30FC 1
 62
   179
420
  2234388
370
     9
  0
POLYLINE
  5
104
330
1F
100
AcDbEntity
  8
_U+30EC_U+30A4_U+30E4_U+30FC 1
 62
   179
420
  2234388
370
     9
100
AcDb2dPolyline
 66
     1
 10
0.0
 20
0.0
 30
0.0
  0
VERTEX
  5
105
330
104
100
AcDbEntity
  8
_U+30EC_U+30A4_U+30E4_U+30FC 1
 62
   179
420
  2234388
370
     9
100
AcDbVertex
100
AcDb2dVertex
 10
106.6170970021935
 20
-154.3185819058649
 30
0.0
  0
VERTEX
  5
106
330
104
100
AcDbEntity
  8
_U+30EC_U+30A4_U+30E4_U+30FC 1
 62
   179
420
  2234388
370
     9
100
AcDbVertex
100
AcDb2dVertex
 10
109.0772280505414
 20
-154.3185819058649
 30
0.0
  0
SEQEND
  5
107
330
104
100
AcDbEntity
  8
_U+30EC_U+30A4_U+30E4_U+30FC 1
 62
   179
420
  2234388
370
     9
  0
POLYLINE
  5
108
330
1F
100
AcDbEntity
  8
_U+30EC_U+30A4_U+30E4_U+30FC 1
 62
   179
420
  2234388
370
     9
100
AcDb2dPolyline
 66
     1
 10
0.0
 20
0.0
 30
0.0
  0
VERTEX
  5
109
330
108
100
AcDbEntity
  8
_U+30EC_U+30A4_U+30E4_U+30FC 1
 62
   179
420
  2234388
370
     9
100
AcDbVertex
100
AcDb2dVertex
 10
106.6170970021935
 20
-154.8181152390731
 30
0.0
  0
VERTEX
  5
10A
330
108
100
AcDbEntity
  8
_U+30EC_U+30A4_U+30E4_U+30FC 1
 62
   179
420
  2234388
370
     9
100
AcDbVertex
100
AcDb2dVertex
 10
109.0772280505414
 20
-154.8181152390731
 30
0.0
  0
SEQEND
  5
10B
330
108
100
AcDbEntity
  8
_U+30EC_U+30A4_U+30E4_U+30FC 1
 62
   179
420
  2234388
370
     9
  0
INSERT
  5
10D
330
1F
100
AcDbEntity
  8
_U+30EC_U+30A4_U+30E4_U+30FC 1
100
AcDbBlockReference
  2
block 8
 10
0.0
 20
0.0
 30
0.0
  0
POLYLINE
  5
11D
330
1F
100
AcDbEntity
  8
_U+30EC_U+30A4_U+30E4_U+30FC 1
 62
   179
420
  2234388
370
     9
100
AcDb2dPolyline
 66
     1
 10
0.0
 20
0.0
 30
0.0
  0
VERTEX
  5
11E
330
11D
100
AcDbEntity
  8
_U+30EC_U+30A4_U+30E4_U+30FC 1
 62
   179
420
  2234388
370
     9
100
AcDbVertex
100
AcDb2dVertex
 10
123.0774254711444
 20
-154.3185819058649
 30
0.0
  0
VERTEX
  5
11F
330
11D
100
AcDbEntity
  8
_U+30EC_U+30A4_U+30E4_U+30FC 1
 62
   179
420
  2234388
370
     9
100
AcDbVertex
100
AcDb2dVertex
 10
123.0774254711444
 20
-141.3174860757818
 30
0.0
  0
SEQEND
  5
120
330
11D
100
AcDbEntity
  8
_U+30EC_U+30A4_U+30E4_U+30FC 1
 62
   179
420
  2234388
370
     9
  0
POLYLINE
  5
121
330
1F
100
AcDbEntity
  8
_U+30EC_U+30A4_U+30E4_U+30FC 1
 62
   179
420
  2234388
370
     9
100
AcDb2dPolyline
 66
     1
 10
0.0
 20
0.0
 30
0.0
  0
VERTEX
  5
122
330
121
100
AcDbEntity
  8
_U+30EC_U+30A4_U+30E4_U+30FC 1
 62
   179
420
  2234388
370
     9
100
AcDbVertex
100
AcDb2dVertex
 10
106.6170970021935
 20
-154.3185819058649
 30
0.0
  0
VERTEX
  5
123
330
121
100
AcDbEntity
  8
_U+30EC_U+30A4_U+30E4_U+30FC 1
 62
   179
420
  2234388
370
     9
100
AcDbVertex
100
AcDb2dVertex
 10
124.0775151678522
 20
-154.3185819058649
 30
0.0
  0
SEQEND
  5
124
330
121
100
AcDbEntity
  8
_U+30EC_U+30A4_U+30E4_U+30FC 1
 62
   179
420
  2234388
370
     9
  0
INSERT
  5
126
330
1F
100
AcDbEntity
  8
_U+30EC_U+30A4_U+30E4_U+30FC 1
100
AcDbBlockReference
  2
block 9
 10
0.0
 20
0.0
 30
0.0
  0
ENDSEC
  0
SECTION
  2
OBJECTS
  0
DICTIONARY
  5
C
330
0
100
AcDbDictionary
281
     1
  3
ACAD_GROUP
350
D
  3
ACAD_LAYOUT
350
1A
  3
ACAD_MATERIAL
350
3B
  3
ACAD_MLEADERSTYLE
350
12E
  3
ACAD_MLINESTYLE
350
17
  3
ACAD_PLOTSETTINGS
350
19
  3
ACAD_PLOTSTYLENAME
350
E
  3
ACAD_TABLESTYLE
350
12D
  3
ACAD_VISUALSTYLE
350
2A
  0
SUN
  5
3F
330
29
100
AcDbSun
 90
        1
290
     0
 63
     7
421
 16777215
 40
1.0
291
     1
 91
  2455826
 92
 54000000
292
     0
 70
     2
 71
   256
280
     1
  0
DICTIONARY
  5
D
102
{ACAD_REACTORS
330
C
102
}
330
C
100
AcDbDictionary
281
     1
  0
DICTIONARY
  5
1A
102
{ACAD_REACTORS
330
C
102
}
330
C
100
AcDbDictionary
281
     1
  3
Layout1
350
1E
  3
Layout2
350
26
  3
Model
350
22
  0
DICTIONARY
  5
3B
102
{ACAD_REACTORS
330
C
102
}
330
C
100
AcDbDictionary
281
     1
  3
ByBlock
350
3D
  3
ByLayer
350
3C
  3
Global
350
3E
  0
DICTIONARY
  5
12E
102
{ACAD_REACTORS
330
C
102
}
330
C
100
AcDbDictionary
281
     1
  0
DICTIONARY
  5
17
102
{ACAD_REACTORS
330
C
102
}
330
C
100
AcDbDictionary
281
     1
  3
Standard
350
18
  0
DICTIONARY
  5
19
102
{ACAD_REACTORS
330
C
102
}
330
C
100
AcDbDictionary
281
     1
  0
ACDBDICTIONARYWDFLT
  5
E
102
{ACAD_REACTORS
330
C
102
}
330
C
100
AcDbDictionary
281
     1
  3
Normal
350
F
100
AcDbDictionaryWithDefault
340
F
  0
DICTIONARY
  5
12D
102
{ACAD_REACTORS
330
C
102
}
330
C
100
AcDbDictionary
281
     1
  0
DICTIONARY
  5
2A
102
{ACAD_REACTORS
330
C
102
}
330
C
100
AcDbDictionary
281
     1
  3
2dWireframe
350
2F
  3
3D Hidden
350
31
  3
3dWireframe
350
30
  3
Basic
350
32
  3
Brighten
350
36
  3
ColorChange
350
3A
  3
Conceptual
350
34
  3
Dim
350
35
  3
Facepattern
350
39
  3
Flat
350
2B
  3
FlatWithEdges
350
2C
  3
Gouraud
350
2D
  3
GouraudWithEdges
350
2E
  3
Linepattern
350
38
  3
Realistic
350
33
  3
Thicken
350
37
  0
LAYOUT
  5
1E
102
{ACAD_REACTORS
330
1A
102
}
330
1A
100
AcDbPlotSettings
  1

  2
none_device
  4

  6

 40
0.0
 41
0.0
 42
0.0
 43
0.0
 44
0.0
 45
0.0
 46
0.0
 47
0.0
 48
0.0
 49
0.0
140
0.0
141
0.0
142
1.0
143
1.0
 70
   688
 72
     0
 73
     0
 74
     5
  7

 75
    16
 76
     0
 77
     2
 78
   300
147
1.0
148
0.0
149
0.0
100
AcDbLayout
  1
Layout1
 70
     1
 71
     1
 10
0.0
 20
0.0
 11
12.0
 21
9.0
 12
0.0
 22
0.0
 32
0.0
 14
1.000000000000000E+20
 24
1.000000000000000E+20
 34
1.000000000000000E+20
 15
-1.000000000000000E+20
 25
-1.000000000000000E+20
 35
-1.000000000000000E+20
146
0.0
 13
0.0
 23
0.0
 33
0.0
 16
1.0
 26
0.0
 36
0.0
 17
0.0
 27
1.0
 37
0.0
 76
     0
330
1B
  0
LAYOUT
  5
26
102
{ACAD_REACTORS
330
1A
102
}
330
1A
100
AcDbPlotSettings
  1

  2
none_device
  4

  6

 40
0.0
 41
0.0
 42
0.0
 43
0.0
 44
0.0
 45
0.0
 46
0.0
 47
0.0
 48
0.0
 49
0.0
140
0.0
141
0.0
142
1.0
143
1.0
 70
   688
 72
     0
 73
     0
 74
     5
  7

 75
    16
 76
     0
 77
     2
 78
   300
147
1.0
148
0.0
149
0.0
100
AcDbLayout
  1
Layout2
 70
     1
 71
     2
 10
0.0
 20
0.0
 11
0.0
 21
0.0
 12
0.0
 22
0.0
 32
0.0
 14
0.0
 24
0.0
 34
0.0
 15
0.0
 25
0.0
 35
0.0
146
0.0
 13
0.0
 23
0.0
 33
0.0
 16
1.0
 26
0.0
 36
0.0
 17
0.0
 27
1.0
 37
0.0
 76
     0
330
23
  0
LAYOUT
  5
22
102
{ACAD_REACTORS
330
1A
102
}
330
1A
100
AcDbPlotSettings
  1

  2
none_device
  4

  6

 40
0.0
 41
0.0
 42
0.0
 43
0.0
 44
0.0
 45
0.0
 46
0.0
 47
0.0
 48
0.0
 49
0.0
140
0.0
141
0.0
142
1.0
143
1.0
 70
  1712
 72
     0
 73
     0
 74
     0
  7

 75
     0
 76
     0
 77
     2
 78
   300
147
1.0
148
0.0
149
0.0
100
AcDbLayout
  1
Model
 70
     1
 71
     0
 10
0.0
 20
0.0
 11
12.0
 21
9.0
 12
0.0
 22
0.0
 32
0.0
 14
1.000000000000000E+20
 24
1.000000000000000E+20
 34
1.000000000000000E+20
 15
-1.000000000000000E+20
 25
-1.000000000000000E+20
 35
-1.000000000000000E+20
146
0.0
 13
0.0
 23
0.0
 33
0.0
 16
1.0
 26
0.0
 36
0.0
 17
0.0
 27
1.0
 37
0.0
 76
     0
330
1F
331
29
  0
MATERIAL
  5
3D
102
{ACAD_REACTORS
330
3B
102
}
330
3B
100
AcDbMaterial
  1
ByBlock
 72
     1
 94
      127
  0
MATERIAL
  5
3C
102
{ACAD_REACTORS
330
3B
102
}
330
3B
100
AcDbMaterial
  1
ByLayer
 72
     1
 94
      127
  0
MATERIAL
  5
3E
102
{ACAD_REACTORS
330
3B
102
}
330
3B
100
AcDbMaterial
  1
Global
 72
     1
 94
      127
  0
MLINESTYLE
  5
18
102
{ACAD_REACTORS
330
17
102
}
330
17
100
AcDbMlineStyle
  2
Standard
 70
     0
  3

 62
   256
 51
90.0
 52
90.0
 71
     2
 49
0.5
 62
   256
  6
BYLAYER
 49
-0.5
 62
   256
  6
BYLAYER
  0
ACDBPLACEHOLDER
  5
F
102
{ACAD_REACTORS
330
E
102
}
330
E
  0
VISUALSTYLE
  5
2F
102
{ACAD_REACTORS
330
2A
102
}
330
2A
100
AcDbVisualStyle
  2
2dWireframe
 70
     4
177
     2
291
     0
 71
     0
176
     1
 72
     2
176
     1
 73
     0
176
     1
 90
        0
176
     1
 40
-0.6
176
     1
 41
-30.0
176
     1
 62
     5
 63
     7
421
 16777215
176
     1
 74
     1
176
     1
 91
        4
176
     1
 64
     7
176
     1
 65
   257
176
     1
 75
     1
176
     1
175
     1
176
     1
 42
1.0
176
     1
 92
        0
176
     1
 66
   257
176
     1
 43
1.0
176
     1
 76
     1
176
     1
 77
     6
176
     1
 78
     2
176
     1
 67
     7
176
     1
 79
     5
176
     1
170
     0
176
     1
171
     0
176
     1
290
     0
176
     1
 93
        1
176
     1
 44
0.0
176
     1
173
     0
176
     1
  0
VISUALSTYLE
  5
31
102
{ACAD_REACTORS
330
2A
102
}
330
2A
100
AcDbVisualStyle
  2
3D Hidden
 70
     6
177
     2
291
     0
 71
     1
176
     1
 72
     2
176
     1
 73
     2
176
     1
 90
        0
176
     1
 40
-0.6
176
     1
 41
-30.0
176
     1
 62
     5
 63
     7
421
 16777215
176
     1
 74
     2
176
     1
 91
        2
176
     1
 64
     7
176
     1
 65
   257
176
     1
 75
     2
176
     1
175
     1
176
     1
 42
40.0
176
     1
 92
        0
176
     1
 66
   257
176
     1
 43
1.0
176
     1
 76
     1
176
     1
 77
     6
176
     1
 78
     2
176
     1
 67
     7
176
     1
 79
     3
176
     1
170
     0
176
     1
171
     0
176
     1
290
     0
176
     1
 93
        1
176
     1
 44
0.0
176
     1
173
     0
176
     1
  0
VISUALSTYLE
  5
30
102
{ACAD_REACTORS
330
2A
102
}
330
2A
100
AcDbVisualStyle
  2
3dWireframe
 70
     5
177
     2
291
     0
 71
     0
176
     1
 72
     2
176
     1
 73
     0
176
     1
 90
        0
176
     1
 40
-0.6
176
     1
 41
-30.0
176
     1
 62
     5
 63
     7
421
 16777215
176
     1
 74
     1
176
     1
 91
        4
176
     1
 64
     7
176
     1
 65
   257
176
     1
 75
     1
176
     1
175
     1
176
     1
 42
1.0
176
     1
 92
        0
176
     1
 66
   257
176
     1
 43
1.0
176
     1
 76
     1
176
     1
 77
     6
176
     1
 78
     2
176
     1
 67
     7
176
     1
 79
     5
176
     1
170
     0
176
     1
171
     0
176
     1
290
     0
176
     1
 93
        1
176
     1
 44
0.0
176
     1
173
     0
176
     1
  0
VISUALSTYLE
  5
32
102
{ACAD_REACTORS
330
2A
102
}
330
2A
100
AcDbVisualStyle
  2
Basic
 70
     7
177
     2
291
     1
 71
     1
176
     1
 72
     0
176
     1
 73
     1
176
     1
 90
        0
176
     1
 40
-0.6
176
     1
 41
-30.0
176
     1
 62
     5
 63
     7
421
 16777215
176
     1
 74
     0
176
     1
 91
        4
176
     1
 64
     7
176
     1
 65
   257
176
     1
 75
     1
176
     1
175
     1
176
     1
 42
1.0
176
     1
 92
        8
176
     1
 66
     7
176
     1
 43
1.0
176
     1
 76
     1
176
     1
 77
     6
176
     1
 78
     2
176
     1
 67
     7
176
     1
 79
     5
176
     1
170
     0
176
     1
171
     0
176
     1
290
     0
176
     1
 93
        1
176
     1
 44
0.0
176
     1
173
     0
176
     1
  0
VISUALSTYLE
  5
36
102
{ACAD_REACTORS
330
2A
102
}
330
2A
100
AcDbVisualStyle
  2
Brighten
 70
    12
177
     2
291
     1
 71
     2
176
     1
 72
     2
176
     1
 73
     0
176
     1
 90
        0
176
     1
 40
-0.6
176
     1
 41
-30.0
176
     1
 62
     5
 63
     7
421
 16777215
176
     1
 74
     1
176
     1
 91
        4
176
     1
 64
     7
176
     1
 65
   257
176
     1
 75
     1
176
     1
175
     1
176
     1
 42
1.0
176
     1
 92
        8
176
     1
 66
     7
176
     1
 43
1.0
176
     1
 76
     1
176
     1
 77
     6
176
     1
 78
     2
176
     1
 67
     7
176
     1
 79
     5
176
     1
170
     0
176
     1
171
     0
176
     1
290
     0
176
     1
 93
        1
176
     1
 44
50.0
176
     1
173
     0
176
     1
  0
VISUALSTYLE
  5
3A
102
{ACAD_REACTORS
330
2A
102
}
330
2A
100
AcDbVisualStyle
  2
ColorChange
 70
    16
177
     2
291
     1
 71
     2
176
     1
 72
     2
176
     1
 73
     3
176
     1
 90
        0
176
     1
 40
-0.6
176
     1
 41
-30.0
176
     1
 62
     5
 63
     8
421
  8421504
176
     1
 74
     1
176
     1
 91
        4
176
     1
 64
     7
176
     1
 65
   257
176
     1
 75
     1
176
     1
175
     1
176
     1
 42
1.0
176
     1
 92
        8
176
     1
 66
     8
424
  8421504
176
     1
 43
1.0
176
     1
 76
     1
176
     1
 77
     6
176
     1
 78
     2
176
     1
 67
     7
176
     1
 79
     5
176
     1
170
     0
176
     1
171
     0
176
     1
290
     0
176
     1
 93
        1
176
     1
 44
0.0
176
     1
173
     0
176
     1
  0
VISUALSTYLE
  5
34
102
{ACAD_REACTORS
330
2A
102
}
330
2A
100
AcDbVisualStyle
  2
Conceptual
 70
     9
177
     2
291
     0
 71
     3
176
     1
 72
     2
176
     1
 73
     0
176
     1
 90
        0
176
     1
 40
-0.6
176
     1
 41
-30.0
176
     1
 62
     5
 63
     7
421
 16777215
176
     1
 74
     2
176
     1
 91
        2
176
     1
 64
     7
176
     1
 65
   257
176
     1
 75
     1
176
     1
175
     1
176
     1
 42
40.0
176
     1
 92
        8
176
     1
 66
     7
176
     1
 43
1.0
176
     1
 76
     1
176
     1
 77
     6
176
     1
 78
     2
176
     1
 67
     7
176
     1
 79
     3
176
     1
170
     0
176
     1
171
     0
176
     1
290
     0
176
     1
 93
        1
176
     1
 44
0.0
176
     1
173
     0
176
     1
  0
VISUALSTYLE
  5
35
102
{ACAD_REACTORS
330
2A
102
}
330
2A
100
AcDbVisualStyle
  2
Dim
 70
    11
177
     2
291
     1
 71
     2
176
     1
 72
     2
176
     1
 73
     0
176
     1
 90
        0
176
     1
 40
-0.6
176
     1
 41
-30.0
176
     1
 62
     5
 63
     7
421
 16777215
176
     1
 74
     1
176
     1
 91
        4
176
     1
 64
     7
176
     1
 65
   257
176
     1
 75
     1
176
     1
175
     1
176
     1
 42
1.0
176
     1
 92
        8
176
     1
 66
     7
176
     1
 43
1.0
176
     1
 76
     1
176
     1
 77
     6
176
     1
 78
     2
176
     1
 67
     7
176
     1
 79
     5
176
     1
170
     0
176
     1
171
     0
176
     1
290
     0
176
     1
 93
        1
176
     1
 44
-50.0
176
     1
173
     0
176
     1
  0
VISUALSTYLE
  5
39
102
{ACAD_REACTORS
330
2A
102
}
330
2A
100
AcDbVisualStyle
  2
Facepattern
 70
    15
177
     2
291
     1
 71
     2
176
     1
 72
     2
176
     1
 73
     0
176
     1
 90
        0
176
     1
 40
-0.6
176
     1
 41
-30.0
176
     1
 62
     5
 63
     7
421
 16777215
176
     1
 74
     1
176
     1
 91
        4
176
     1
 64
     7
176
     1
 65
   257
176
     1
 75
     1
176
     1
175
     1
176
     1
 42
1.0
176
     1
 92
        8
176
     1
 66
     7
176
     1
 43
1.0
176
     1
 76
     1
176
     1
 77
     6
176
     1
 78
     2
176
     1
 67
     7
176
     1
 79
     5
176
     1
170
     0
176
     1
171
     0
176
     1
290
     0
176
     1
 93
        1
176
     1
 44
0.0
176
     1
173
     0
176
     1
  0
VISUALSTYLE
  5
2B
102
{ACAD_REACTORS
330
2A
102
}
330
2A
100
AcDbVisualStyle
  2
Flat
 70
     0
177
     2
291
     1
 71
     2
176
     1
 72
     1
176
     1
 73
     1
176
     1
 90
        2
176
     1
 40
-0.6
176
     1
 41
30.0
176
     1
 62
     5
 63
     7
421
 16777215
176
     1
 74
     0
176
     1
 91
        4
176
     1
 64
     7
176
     1
 65
   257
176
     1
 75
     1
176
     1
175
     1
176
     1
 42
1.0
176
     1
 92
        8
176
     1
 66
     7
176
     1
 43
1.0
176
     1
 76
     1
176
     1
 77
     6
176
     1
 78
     2
176
     1
 67
     7
176
     1
 79
     5
176
     1
170
     0
176
     1
171
     0
176
     1
290
     0
176
     1
 93
       13
176
     1
 44
0.0
176
     1
173
     0
176
     1
  0
VISUALSTYLE
  5
2C
102
{ACAD_REACTORS
330
2A
102
}
330
2A
100
AcDbVisualStyle
  2
FlatWithEdges
 70
     1
177
     2
291
     1
 71
     2
176
     1
 72
     1
176
     1
 73
     1
176
     1
 90
        2
176
     1
 40
-0.6
176
     1
 41
30.0
176
     1
 62
     5
 63
     7
421
 16777215
176
     1
 74
     1
176
     1
 91
        4
176
     1
 64
     7
176
     1
 65
   257
176
     1
 75
     1
176
     1
175
     1
176
     1
 42
1.0
176
     1
 92
        0
176
     1
 66
   257
176
     1
 43
1.0
176
     1
 76
     1
176
     1
 77
     6
176
     1
 78
     2
176
     1
 67
     7
176
     1
 79
     5
176
     1
170
     0
176
     1
171
     0
176
     1
290
     0
176
     1
 93
       13
176
     1
 44
0.0
176
     1
173
     0
176
     1
  0
VISUALSTYLE
  5
2D
102
{ACAD_REACTORS
330
2A
102
}
330
2A
100
AcDbVisualStyle
  2
Gouraud
 70
     2
177
     2
291
     1
 71
     2
176
     1
 72
     2
176
     1
 73
     1
176
     1
 90
        2
176
     1
 40
-0.6
176
     1
 41
30.0
176
     1
 62
     5
 63
     7
421
 16777215
176
     1
 74
     0
176
     1
 91
        4
176
     1
 64
     7
176
     1
 65
   257
176
     1
 75
     1
176
     1
175
     1
176
     1
 42
1.0
176
     1
 92
        0
176
     1
 66
     7
176
     1
 43
1.0
176
     1
 76
     1
176
     1
 77
     6
176
     1
 78
     2
176
     1
 67
     7
176
     1
 79
     5
176
     1
170
     0
176
     1
171
     0
176
     1
290
     0
176
     1
 93
       13
176
     1
 44
0.0
176
     1
173
     0
176
     1
  0
VISUALSTYLE
  5
2E
102
{ACAD_REACTORS
330
2A
102
}
330
2A
100
AcDbVisualStyle
  2
GouraudWithEdges
 70
     3
177
     2
291
     1
 71
     2
176
     1
 72
     2
176
     1
 73
     1
176
     1
 90
        2
176
     1
 40
-0.6
176
     1
 41
30.0
176
     1
 62
     5
 63
     7
421
 16777215
176
     1
 74
     1
176
     1
 91
        4
176
     1
 64
     7
176
     1
 65
   257
176
     1
 75
     1
176
     1
175
     1
176
     1
 42
1.0
176
     1
 92
        0
176
     1
 66
   257
176
     1
 43
1.0
176
     1
 76
     1
176
     1
 77
     6
176
     1
 78
     2
176
     1
 67
     7
176
     1
 79
     5
176
     1
170
     0
176
     1
171
     0
176
     1
290
     0
176
     1
 93
       13
176
     1
 44
0.0
176
     1
173
     0
176
     1
  0
VISUALSTYLE
  5
38
102
{ACAD_REACTORS
330
2A
102
}
330
2A
100
AcDbVisualStyle
  2
Linepattern
 70
    14
177
     2
291
     1
 71
     2
176
     1
 72
     2
176
     1
 73
     0
176
     1
 90
        0
176
     1
 40
-0.6
176
     1
 41
-30.0
176
     1
 62
     5
 63
     7
421
 16777215
176
     1
 74
     1
176
     1
 91
        4
176
     1
 64
     7
176
     1
 65
   257
176
     1
 75
     7
176
     1
175
     7
176
     1
 42
1.0
176
     1
 92
        8
176
     1
 66
     7
176
     1
 43
1.0
176
     1
 76
     1
176
     1
 77
     6
176
     1
 78
     2
176
     1
 67
     7
176
     1
 79
     5
176
     1
170
     0
176
     1
171
     0
176
     1
290
     0
176
     1
 93
        1
176
     1
 44
0.0
176
     1
173
     0
176
     1
  0
VISUALSTYLE
  5
33
102
{ACAD_REACTORS
330
2A
102
}
330
2A
100
AcDbVisualStyle
  2
Realistic
 70
     8
177
     2
291
     0
 71
     2
176
     1
 72
     2
176
     1
 73
     0
176
     1
 90
        0
176
     1
 40
-0.6
176
     1
 41
-30.0
176
     1
 62
     5
 63
     7
421
 16777215
176
     1
 74
     1
176
     1
 91
        0
176
     1
 64
     7
176
     1
 65
   257
176
     1
 75
     1
176
     1
175
     1
176
     1
 42
1.0
176
     1
 92
        8
176
     1
 66
     8
424
  7895160
176
     1
 43
1.0
176
     1
 76
     1
176
     1
 77
     6
176
     1
 78
     2
176
     1
 67
     7
176
     1
 79
     5
176
     1
170
     0
176
     1
171
     0
176
     1
290
     0
176
     1
 93
       13
176
     1
 44
0.0
176
     1
173
     0
176
     1
  0
VISUALSTYLE
  5
37
102
{ACAD_REACTORS
330
2A
102
}
330
2A
100
AcDbVisualStyle
  2
Thicken
 70
    13
177
     2
291
     1
 71
     2
176
     1
 72
     2
176
     1
 73
     0
176
     1
 90
        0
176
     1
 40
-0.6
176
     1
 41
-30.0
176
     1
 62
     5
 63
     7
421
 16777215
176
     1
 74
     1
176
     1
 91
        4
176
     1
 64
     7
176
     1
 65
   257
176
     1
 75
     1
176
     1
175
     1
176
     1
 42
1.0
176
     1
 92
       12
176
     1
 66
     7
176
     1
 43
1.0
176
     1
 76
     1
176
     1
 77
     6
176
     1
 78
     2
176
     1
 67
     7
176
     1
 79
     5
176
     1
170
     0
176
     1
171
     0
176
     1
290
     0
176
     1
 93
        1
176
     1
 44
0.0
176
     1
173
     0
176
     1
  0
ENDSEC
  0
EOF
