  0
SECTION
  2
HEADER
  9
$ACADVER
  1
AC1024
  9
$ACADMAINTVER
 70
     6
  9
$DWGCODEPAGE
  3
UNDEFINED
  9
$INSBASE
 10
0.0
 20
0.0
 30
0.0
  9
$EXTMIN
 10
1.000000000000000E+20
 20
1.000000000000000E+20
 30
1.000000000000000E+20
  9
$EXTMAX
 10
-1.000000000000000E+20
 20
-1.000000000000000E+20
 30
-1.000000000000000E+20
  9
$LIMMIN
 10
0.0
 20
0.0
  9
$LIMMAX
 10
12.0
 20
9.0
  9
$ORTHOMODE
 70
     0
  9
$REGENMODE
 70
     1
  9
$FILLMODE
 70
     1
  9
$QTEXTMODE
 70
     0
  9
$MIRRTEXT
 70
     1
  9
$LTSCALE
 40
1.0
  9
$ATTMODE
 70
     1
  9
$TEXTSIZE
 40
0.2
  9
$TRACEWID
 40
0.05
  9
$TEXTSTYLE
  7
Standard
  9
$CLAYER
  8
0
  9
$CELTYPE
  6
ByLayer
  9
$CECOLOR
 62
   256
  9
$CELTSCALE
 40
1.0
  9
$DISPSILH
 70
     0
  9
$DIMSCALE
 40
1.0
  9
$DIMASZ
 40
0.18
  9
$DIMEXO
 40
0.0625
  9
$DIMDLI
 40
0.38
  9
$DIMRND
 40
0.0
  9
$DIMDLE
 40
0.0
  9
$DIMEXE
 40
0.18
  9
$DIMTP
 40
0.0
  9
$DIMTM
 40
0.0
  9
$DIMTXT
 40
0.18
  9
$DIMCEN
 40
0.09
  9
$DIMTSZ
 40
0.0
  9
$DIMTOL
 70
     0
  9
$DIMLIM
 70
     0
  9
$DIMTIH
 70
     1
  9
$DIMTOH
 70
     1
  9
$DIMSE1
 70
     0
  9
$DIMSE2
 70
     0
  9
$DIMTAD
 70
     0
  9
$DIMZIN
 70
     0
  9
$DIMBLK
  1

  9
$DIMASO
 70
     1
  9
$DIMSHO
 70
     1
  9
$DIMPOST
  1

  9
$DIMAPOST
  1

  9
$DIMALT
 70
     0
  9
$DIMALTD
 70
     2
  9
$DIMALTF
 40
25.4
  9
$DIMLFAC
 40
1.0
  9
$DIMTOFL
 70
     0
  9
$DIMTVP
 40
0.0
  9
$DIMTIX
 70
     0
  9
$DIMSOXD
 70
     0
  9
$DIMSAH
 70
     0
  9
$DIMBLK1
  1

  9
$DIMBLK2
  1

  9
$DIMSTYLE
  2
Standard
  9
$DIMCLRD
 70
     0
  9
$DIMCLRE
 70
     0
  9
$DIMCLRT
 70
     0
  9
$DIMTFAC
 40
1.0
  9
$DIMGAP
 40
0.09
  9
$DIMJUST
 70
     0
  9
$DIMSD1
 70
     0
  9
$DIMSD2
 70
     0
  9
$DIMTOLJ
 70
     1
  9
$DIMTZIN
 70
     0
  9
$DIMALTZ
 70
     0
  9
$DIMALTTZ
 70
     0
  9
$DIMUPT
 70
     0
  9
$DIMDEC
 70
     4
  9
$DIMTDEC
 70
     4
  9
$DIMALTU
 70
     2
  9
$DIMALTTD
 70
     2
  9
$DIMTXSTY
  7
Standard
  9
$DIMAUNIT
 70
     0
  9
$DIMADEC
 70
     0
  9
$DIMALTRND
 40
0.0
  9
$DIMAZIN
 70
     0
  9
$DIMDSEP
 70
    46
  9
$DIMATFIT
 70
     3
  9
$DIMFRAC
 70
     0
  9
$DIMLDRBLK
  1

  9
$DIMLUNIT
 70
     2
  9
$DIMLWD
 70
    -2
  9
$DIMLWE
 70
    -2
  9
$DIMTMOVE
 70
     0
  9
$DIMFXL
 40
1.0
  9
$DIMFXLON
 70
     0
  9
$DIMJOGANG
 40
0.7853981633974483
  9
$DIMTFILL
 70
     0
  9
$DIMTFILLCLR
 70
     0
  9
$DIMARCSYM
 70
     0
  9
$DIMLTYPE
  6

  9
$DIMLTEX1
  6

  9
$DIMLTEX2
  6

  9
$DIMTXTDIRECTION
 70
     0
  9
$LUNITS
 70
     2
  9
$LUPREC
 70
     4
  9
$SKETCHINC
 40
0.1
  9
$FILLETRAD
 40
0.5
  9
$AUNITS
 70
     0
  9
$AUPREC
 70
     0
  9
$MENU
  1
.
  9
$ELEVATION
 40
0.0
  9
$PELEVATION
 40
0.0
  9
$THICKNESS
 40
0.0
  9
$LIMCHECK
 70
     0
  9
$CHAMFERA
 40
0.5
  9
$CHAMFERB
 40
0.5
  9
$CHAMFERC
 40
1.0
  9
$CHAMFERD
 40
0.0
  9
$SKPOLY
 70
     0
  9
$TDCREATE
 40
2457917.600983785
  9
$TDUCREATE
 40
2457917.225983796
  9
$TDUPDATE
 40
2457917.600983785
  9
$TDUUPDATE
 40
2457917.225983796
  9
$TDINDWG
 40
0.0000000116
  9
$TDUSRTIMER
 40
0.0000000116
  9
$USRTIMER
 70
     1
  9
$ANGBASE
 50
0.0
  9
$ANGDIR
 70
     0
  9
$PDMODE
 70
     0
  9
$PDSIZE
 40
0.0
  9
$PLINEWID
 40
0.0
  9
$SPLFRAME
 70
     0
  9
$SPLINETYPE
 70
     6
  9
$SPLINESEGS
 70
     8
  9
$HANDSEED
  5
12C
  9
$SURFTAB1
 70
     6
  9
$SURFTAB2
 70
     6
  9
$SURFTYPE
 70
     6
  9
$SURFU
 70
     6
  9
$SURFV
 70
     6
  9
$UCSBASE
  2

  9
$UCSNAME
  2

  9
$UCSORG
 10
0.0
 20
0.0
 30
0.0
  9
$UCSXDIR
 10
1.0
 20
0.0
 30
0.0
  9
$UCSYDIR
 10
0.0
 20
1.0
 30
0.0
  9
$UCSORTHOREF
  2

  9
$UCSORTHOVIEW
 70
     0
  9
$UCSORGTOP
 10
0.0
 20
0.0
 30
0.0
  9
$UCSORGBOTTOM
 10
0.0
 20
0.0
 30
0.0
  9
$UCSORGLEFT
 10
0.0
 20
0.0
 30
0.0
  9
$UCSORGRIGHT
 10
0.0
 20
0.0
 30
0.0
  9
$UCSORGFRONT
 10
0.0
 20
0.0
 30
0.0
  9
$UCSORGBACK
 10
0.0
 20
0.0
 30
0.0
  9
$PUCSBASE
  2

  9
$PUCSNAME
  2

  9
$PUCSORG
 10
0.0
 20
0.0
 30
0.0
  9
$PUCSXDIR
 10
1.0
 20
0.0
 30
0.0
  9
$PUCSYDIR
 10
0.0
 20
1.0
 30
0.0
  9
$PUCSORTHOREF
  2

  9
$PUCSORTHOVIEW
 70
     0
  9
$PUCSORGTOP
 10
0.0
 20
0.0
 30
0.0
  9
$PUCSORGBOTTOM
 10
0.0
 20
0.0
 30
0.0
  9
$PUCSORGLEFT
 10
0.0
 20
0.0
 30
0.0
  9
$PUCSORGRIGHT
 10
0.0
 20
0.0
 30
0.0
  9
$PUCSORGFRONT
 10
0.0
 20
0.0
 30
0.0
  9
$PUCSORGBACK
 10
0.0
 20
0.0
 30
0.0
  9
$USERI1
 70
     0
  9
$USERI2
 70
     0
  9
$USERI3
 70
     0
  9
$USERI4
 70
     0
  9
$USERI5
 70
     0
  9
$USERR1
 40
0.0
  9
$USERR2
 40
0.0
  9
$USERR3
 40
0.0
  9
$USERR4
 40
0.0
  9
$USERR5
 40
0.0
  9
$WORLDVIEW
 70
     1
  9
$SHADEDGE
 70
     3
  9
$SHADEDIF
 70
    70
  9
$TILEMODE
 70
     1
  9
$MAXACTVP
 70
    64
  9
$PINSBASE
 10
0.0
 20
0.0
 30
0.0
  9
$PLIMCHECK
 70
     0
  9
$PEXTMIN
 10
1.000000000000000E+20
 20
1.000000000000000E+20
 30
1.000000000000000E+20
  9
$PEXTMAX
 10
-1.000000000000000E+20
 20
-1.000000000000000E+20
 30
-1.000000000000000E+20
  9
$PLIMMIN
 10
0.0
 20
0.0
  9
$PLIMMAX
 10
12.0
 20
9.0
  9
$UNITMODE
 70
     0
  9
$VISRETAIN
 70
     1
  9
$PLINEGEN
 70
     0
  9
$PSLTSCALE
 70
     1
  9
$TREEDEPTH
 70
  3020
  9
$CMLSTYLE
  2
Standard
  9
$CMLJUST
 70
     0
  9
$CMLSCALE
 40
1.0
  9
$PROXYGRAPHICS
 70
     1
  9
$MEASUREMENT
 70
     0
  9
$CELWEIGHT
370
    -1
  9
$ENDCAPS
280
     0
  9
$JOINSTYLE
280
     0
  9
$LWDISPLAY
290
     1
  9
$INSUNITS
 70
     1
  9
$HYPERLINKBASE
  1

  9
$STYLESHEET
  1

  9
$XEDIT
290
     1
  9
$CEPSNTYPE
380
     0
  9
$PSTYLEMODE
290
     1
  9
$FINGERPRINTGUID
  2
{D0DFC0A9-1A5C-DA02-8716-7CB91DC51B8E}
  9
$VERSIONGUID
  2
{FAEB1C32-E019-11D5-929B-00C0DF256EC4}
  9
$EXTNAMES
290
     1
  9
$PSVPSCALE
 40
0.0
  9
$OLESTARTUP
290
     0
  9
$SORTENTS
280
   127
  9
$INDEXCTL
280
     0
  9
$HIDETEXT
280
     1
  9
$XCLIPFRAME
280
     2
  9
$HALOGAP
280
     0
  9
$OBSCOLOR
 70
   257
  9
$OBSLTYPE
280
     0
  9
$INTERSECTIONDISPLAY
280
     0
  9
$INTERSECTIONCOLOR
 70
   257
  9
$DIMASSOC
280
     2
  9
$PROJECTNAME
  1

  9
$CAMERADISPLAY
290
     0
  9
$LENSLENGTH
 40
50.0
  9
$CAMERAHEIGHT
 40
0.0
  9
$STEPSPERSEC
 40
2.0
  9
$STEPSIZE
 40
6.0
  9
$3DDWFPREC
 40
2.0
  9
$PSOLWIDTH
 40
0.25
  9
$PSOLHEIGHT
 40
4.0
  9
$LOFTANG1
 40
1.570796326794897
  9
$LOFTANG2
 40
1.570796326794897
  9
$LOFTMAG1
 40
0.0
  9
$LOFTMAG2
 40
0.0
  9
$LOFTPARAM
 70
     7
  9
$LOFTNORMALS
280
     1
  9
$LATITUDE
 40
37.795
  9
$LONGITUDE
 40
-122.394
  9
$NORTHDIRECTION
 40
0.0
  9
$TIMEZONE
 70
 -8000
  9
$LIGHTGLYPHDISPLAY
280
     1
  9
$TILEMODELIGHTSYNCH
280
     1
  9
$CMATERIAL
347
3C
  9
$SOLIDHIST
280
     1
  9
$SHOWHIST
280
     1
  9
$DWFFRAME
280
     2
  9
$DGNFRAME
280
     2
  9
$REALWORLDSCALE
290
     1
  9
$INTERFERECOLOR
 62
   256
  9
$CSHADOW
280
     0
  9
$SHADOWPLANELOCATION
 40
0.0
  0
ENDSEC
  0
SECTION
  2
CLASSES
  0
CLASS
  1
ACDBDICTIONARYWDFLT
  2
AcDbDictionaryWithDefault
  3
ObjectDBX Classes
 90
        0
 91
        4
280
     0
281
     0
  0
CLASS
  1
VISUALSTYLE
  2
AcDbVisualStyle
  3
ObjectDBX Classes
 90
     4095
 91
        4
280
     0
281
     0
  0
CLASS
  1
MATERIAL
  2
AcDbMaterial
  3
ObjectDBX Classes
 90
     1153
 91
        4
280
     0
281
     0
  0
CLASS
  1
SUN
  2
AcDbSun
  3
SCENEOE
 90
     1024
 91
        4
280
     0
281
     0
  0
ENDSEC
  0
SECTION
  2
TABLES
  0
TABLE
  2
VPORT
  5
8
330
0
100
AcDbSymbolTable
 70
     1
  0
VPORT
  5
29
330
8
100
AcDbSymbolTableRecord
100
AcDbViewportTableRecord
  2
*Active
 70
     0
 10
0.0
 20
0.0
 11
1.0
 21
1.0
 12
0.0
 22
0.0
 13
0.0
 23
0.0
 14
0.5
 24
0.5
 15
0.5
 25
0.5
 16
0.0
 26
0.0
 36
1.0
 17
105.0008280156501
 27
-148.4999710739862
 37
0.0
 40
296.9999421479724
 41
0.7070764206636528
 42
50.0
 43
0.0
 44
0.0
 50
0.0
 51
0.0
 71
     0
 72
   100
 73
     1
 74
     3
 75
     0
 76
     0
 77
     0
 78
     0
281
     0
 65
     1
110
0.0
120
0.0
130
0.0
111
1.0
121
0.0
131
0.0
112
0.0
122
1.0
132
0.0
 79
     0
146
0.0
 60
     3
 61
     5
292
     1
282
     1
141
0.0
142
0.0
 63
   250
361
3F
  0
ENDTAB
  0
TABLE
  2
LTYPE
  5
5
330
0
100
AcDbSymbolTable
 70
     4
  0
LTYPE
  5
14
330
5
100
AcDbSymbolTableRecord
100
AcDbLinetypeTableRecord
  2
ByBlock
 70
     0
  3

 72
    65
 73
     0
 40
0.0
  0
LTYPE
  5
15
330
5
100
AcDbSymbolTableRecord
100
AcDbLinetypeTableRecord
  2
ByLayer
 70
     0
  3

 72
    65
 73
     0
 40
0.0
  0
LTYPE
  5
16
330
5
100
AcDbSymbolTableRecord
100
AcDbLinetypeTableRecord
  2
Continuous
 70
     0
  3
Solid line
 72
    65
 73
     0
 40
0.0
  0
LTYPE
  5
44
330
5
100
AcDbSymbolTableRecord
100
AcDbLinetypeTableRecord
  2
AI-Linetype-1
 70
     0
  3
Adobe Illustrator Linetype No. 1
 72
    65
 73
     2
 40
1.411111110758333
 49
0.7055555553791667
 74
     0
 49
-0.7055555553791667
 74
     0
  0
LTYPE
  5
49
330
5
100
AcDbSymbolTableRecord
100
AcDbLinetypeTableRecord
  2
AI-Linetype-2
 70
     0
  3
Adobe Illustrator Linetype No. 2
 72
    65
 73
     2
 40
1.411111110758333
 49
0.7055555553791667
 74
     0
 49
-0.7055555553791667
 74
     0
  0
LTYPE
  5
4E
330
5
100
AcDbSymbolTableRecord
100
AcDbLinetypeTableRecord
  2
AI-Linetype-3
 70
     0
  3
Adobe Illustrator Linetype No. 3
 72
    65
 73
     2
 40
1.411111110758333
 49
0.7055555553791667
 74
     0
 49
-0.7055555553791667
 74
     0
  0
ENDTAB
  0
TABLE
  2
LAYER
  5
2
330
0
100
AcDbSymbolTable
 70
     2
  0
LAYER
  5
10
330
2
100
AcDbSymbolTableRecord
100
AcDbLayerTableRecord
  2
0
 70
     0
 62
     7
  6
Continuous
370
    -3
390
F
347
3E
  0
LAYER
  5
40
330
2
100
AcDbSymbolTableRecord
100
AcDbLayerTableRecord
  2
_U+30EC_U+30A4_U+30E4_U+30FC 1
 70
     0
 62
     7
  6
Continuous
370
    -3
390
F
347
3E
  0
ENDTAB
  0
TABLE
  2
STYLE
  5
3
330
0
100
AcDbSymbolTable
 70
     1
  0
STYLE
  5
11
330
3
100
AcDbSymbolTableRecord
100
AcDbTextStyleTableRecord
  2
Standard
 70
     0
 40
0.0
 41
1.0
 50
0.0
 71
     0
 42
0.2
  3
txt
  4

  0
ENDTAB
  0
TABLE
  2
VIEW
  5
6
330
0
100
AcDbSymbolTable
 70
     0
  0
ENDTAB
  0
TABLE
  2
UCS
  5
7
330
0
100
AcDbSymbolTable
 70
     0
  0
ENDTAB
  0
TABLE
  2
APPID
  5
9
330
0
100
AcDbSymbolTable
 70
     1
  0
APPID
  5
12
330
9
100
AcDbSymbolTableRecord
100
AcDbRegAppTableRecord
  2
ACAD
 70
     0
  0
ENDTAB
  0
TABLE
  2
DIMSTYLE
  5
A
330
0
100
AcDbSymbolTable
 70
     1
100
AcDbDimStyleTable
  0
DIMSTYLE
105
27
330
A
100
AcDbSymbolTableRecord
100
AcDbDimStyleTableRecord
  2
Standard
 70
     0
178
     0
340
11
  0
ENDTAB
  0
TABLE
  2
BLOCK_RECORD
  5
1
330
0
100
AcDbSymbolTable
 70
     8
  0
BLOCK_RECORD
  5
1F
330
1
100
AcDbSymbolTableRecord
100
AcDbBlockTableRecord
  2
*Model_Space
340
22
 70
     0
280
     1
281
     0
  0
BLOCK_RECORD
  5
1B
330
1
100
AcDbSymbolTableRecord
100
AcDbBlockTableRecord
  2
*Paper_Space
340
1E
 70
     0
280
     1
281
     0
  0
BLOCK_RECORD
  5
23
330
1
100
AcDbSymbolTableRecord
100
AcDbBlockTableRecord
  2
*Paper_Space0
340
26
 70
     0
280
     1
281
     0
  0
BLOCK_RECORD
  5
6F
330
1
100
AcDbSymbolTableRecord
100
AcDbBlockTableRecord
  2
block 2
340
0
102
{BLKREFS
331
70
102
}
 70
     0
280
     1
281
     0
  0
BLOCK_RECORD
  5
8A
330
1
100
AcDbSymbolTableRecord
100
AcDbBlockTableRecord
  2
block 3
340
0
102
{BLKREFS
331
8B
102
}
 70
     0
280
     1
281
     0
  0
BLOCK_RECORD
  5
92
330
1
100
AcDbSymbolTableRecord
100
AcDbBlockTableRecord
  2
block 4
340
0
102
{BLKREFS
331
93
102
}
 70
     0
280
     1
281
     0
  0
BLOCK_RECORD
  5
9F
330
1
100
AcDbSymbolTableRecord
100
AcDbBlockTableRecord
  2
block 5
340
0
102
{BLKREFS
331
A0
102
}
 70
     0
280
     1
281
     0
  0
BLOCK_RECORD
  5
F2
330
1
100
AcDbSymbolTableRecord
100
AcDbBlockTableRecord
  2
block 6
340
0
102
{BLKREFS
331
F3
102
}
 70
     0
280
     1
281
     0
  0
BLOCK_RECORD
  5
108
330
1
100
AcDbSymbolTableRecord
100
AcDbBlockTableRecord
  2
block 7
340
0
102
{BLKREFS
331
109
102
}
 70
     0
280
     1
281
     0
  0
BLOCK_RECORD
  5
121
330
1
100
AcDbSymbolTableRecord
100
AcDbBlockTableRecord
  2
block 8
340
0
102
{BLKREFS
331
122
102
}
 70
     0
280
     1
281
     0
  0
ENDTAB
  0
ENDSEC
  0
SECTION
  2
BLOCKS
  0
BLOCK
  5
20
330
1F
100
AcDbEntity
  8
0
100
AcDbBlockBegin
  2
*Model_Space
 70
     0
 10
0.0
 20
0.0
 30
0.0
  3
*Model_Space
  1

  0
ENDBLK
  5
21
330
1F
100
AcDbEntity
  8
0
100
AcDbBlockEnd
  0
BLOCK
  5
1C
330
1B
100
AcDbEntity
 67
     1
  8
0
100
AcDbBlockBegin
  2
*Paper_Space
 70
     0
 10
0.0
 20
0.0
 30
0.0
  3
*Paper_Space
  1

  0
ENDBLK
  5
1D
330
1B
100
AcDbEntity
 67
     1
  8
0
100
AcDbBlockEnd
  0
BLOCK
  5
24
330
23
100
AcDbEntity
  8
0
100
AcDbBlockBegin
  2
*Paper_Space0
 70
     0
 10
0.0
 20
0.0
 30
0.0
  3
*Paper_Space0
  1

  0
ENDBLK
  5
25
330
23
100
AcDbEntity
  8
0
100
AcDbBlockEnd
  0
BLOCK
  5
71
330
6F
100
AcDbEntity
  8
0
100
AcDbBlockBegin
  2
block 2
 70
     0
 10
0.0
 20
0.0
 30
0.0
  3
block 2
  1

  0
SPLINE
  5
73
330
6F
100
AcDbEntity
  8
_U+30EC_U+30A4_U+30E4_U+30FC 1
370
     0
100
AcDbSpline
210
0.0
220
0.0
230
1.0
 70
    11
 71
     3
 72
    62
 73
    58
 74
     0
 42
0.0000000001
 43
0.0000000001
 12
1.0
 22
0.0
 32
0.0
 13
1.0
 23
0.0
 33
0.0
 40
0.0
 40
0.0
 40
0.0
 40
0.0
 40
1.0
 40
1.0
 40
1.0
 40
2.0
 40
2.0
 40
2.0
 40
3.0
 40
3.0
 40
3.0
 40
4.0
 40
4.0
 40
4.0
 40
5.0
 40
5.0
 40
5.0
 40
6.0
 40
6.0
 40
6.0
 40
7.0
 40
7.0
 40
7.0
 40
8.0
 40
8.0
 40
8.0
 40
9.0
 40
9.0
 40
9.0
 40
10.0
 40
10.0
 40
10.0
 40
11.0
 40
11.0
 40
11.0
 40
12.0
 40
12.0
 40
12.0
 40
13.0
 40
13.0
 40
13.0
 40
14.0
 40
14.0
 40
14.0
 40
15.0
 40
15.0
 40
15.0
 40
16.0
 40
16.0
 40
16.0
 40
17.0
 40
17.0
 40
17.0
 40
18.0
 40
18.0
 40
18.0
 40
19.0
 40
19.0
 40
19.0
 40
19.0
 10
102.0087605539249
 20
-136.6603922184391
 30
0.0
 10
101.9133314089835
 20
-136.6603922184391
 30
0.0
 10
101.6956013743157
 20
-136.6393771359791
 30
0.0
 10
101.5705444082011
 20
-136.4533419797756
 30
0.0
 10
101.4964748552682
 20
-136.3410318669564
 30
0.0
 10
101.4923407406859
 20
-136.2418131169812
 30
0.0
 10
101.4882066261036
 20
-136.1570637680441
 30
0.0
 10
101.4882066261036
 20
-136.1570637680441
 30
0.0
 10
101.7083482276111
 20
-136.1570637680441
 30
0.0
 10
101.7083482276111
 20
-136.1570637680441
 30
0.0
 10
101.7104152849023
 20
-136.2311333209769
 30
0.0
 10
101.720750571358
 20
-136.4657443235225
 30
0.0
 10
102.0042819297941
 20
-136.4657443235225
 30
0.0
 10
102.1417412396555
 20
-136.4657443235225
 30
0.0
 10
102.2943589696521
 20
-136.3961533947204
 30
0.0
 10
102.2943589696521
 20
-136.1677435640484
 30
0.0
 10
102.2943589696521
 20
-136.0512993366469
 30
0.0
 10
102.2561184097658
 20
-136.0027234903049
 30
0.0
 10
102.2244235313015
 20
-135.9710286118406
 30
0.0
 10
102.1503539783687
 20
-135.8969590589077
 30
0.0
 10
102.0339097509672
 20
-135.8842122056123
 30
0.0
 10
101.9791327327518
 20
-135.8842122056123
 30
0.0
 10
101.9598401980344
 20
-135.8842122056123
 30
0.0
 10
101.9240112049877
 20
-135.8862792629034
 30
0.0
 10
101.8964504411058
 20
-135.8904133774857
 30
0.0
 10
101.8964504411058
 20
-135.8904133774857
 30
0.0
 10
101.8964504411058
 20
-135.6957654825691
 30
0.0
 10
101.8964504411058
 20
-135.6957654825691
 30
0.0
 10
101.934691000992
 20
-135.7023111639911
 30
0.0
 10
101.9767211659121
 20
-135.7043782212822
 30
0.0
 10
101.9832668473341
 20
-135.7043782212822
 30
0.0
 10
102.0487236615538
 20
-135.7043782212822
 30
0.0
 10
102.2475056710527
 20
-135.6830186292737
 30
0.0
 10
102.2475056710527
 20
-135.446340569437
 30
0.0
 10
102.2475056710527
 20
-135.2685736423981
 30
0.0
 10
102.1165920426132
 20
-135.2134521146342
 30
0.0
 10
102.0063489870852
 20
-135.2134521146342
 30
0.0
 10
101.7421101633666
 20
-135.2134521146342
 30
0.0
 10
101.7334974246534
 20
-135.446340569437
 30
0.0
 10
101.7293633100711
 20
-135.5179985555302
 30
0.0
 10
101.7293633100711
 20
-135.5179985555302
 30
0.0
 10
101.5261026764414
 20
-135.5179985555302
 30
0.0
 10
101.5261026764414
 20
-135.5179985555302
 30
0.0
 10
101.5347154151545
 20
-135.3932860989642
 30
0.0
 10
101.5622761790365
 20
-135.0167371624264
 30
0.0
 10
102.0190958403806
 20
-135.0167371624264
 30
0.0
 10
102.2433715564704
 20
-135.0167371624264
 30
0.0
 10
102.4845282404379
 20
-135.1438611858321
 30
0.0
 10
102.4845282404379
 20
-135.4397948880151
 30
0.0
 10
102.4845282404379
 20
-135.6261745537671
 30
0.0
 10
102.389443605045
 20
-135.7085123358646
 30
0.0
 10
102.2898803455213
 20
-135.769835035502
 30
0.0
 10
102.3512030451587
 20
-135.797395799384
 30
0.0
 10
102.5331040867799
 20
-135.8776665241903
 30
0.0
 10
102.5331040867799
 20
-136.1549967107529
 30
0.0
 10
102.5331040867799
 20
-136.4933050874045
 30
0.0
 10
102.285746230939
 20
-136.6603922184391
 30
0.0
 10
102.0087605539249
 20
-136.6603922184391
 30
0.0
  0
HATCH
  5
74
330
6F
100
AcDbEntity
  8
_U+30EC_U+30A4_U+30E4_U+30FC 1
 62
   179
420
  2234388
100
AcDbHatch
 10
0.0
 20
0.0
 30
0.0
210
0.0
220
0.0
230
1.0
  2
SOLID
 70
     1
 71
     0
 91
        1
 92
        1
 93
        1
 72
     4
 94
        3
 73
     0
 74
     1
 95
       62
 96
       58
 40
0.0
 40
0.0
 40
0.0
 40
0.0
 40
1.0
 40
1.0
 40
1.0
 40
2.0
 40
2.0
 40
2.0
 40
3.0
 40
3.0
 40
3.0
 40
4.0
 40
4.0
 40
4.0
 40
5.0
 40
5.0
 40
5.0
 40
6.0
 40
6.0
 40
6.0
 40
7.0
 40
7.0
 40
7.0
 40
8.0
 40
8.0
 40
8.0
 40
9.0
 40
9.0
 40
9.0
 40
10.0
 40
10.0
 40
10.0
 40
11.0
 40
11.0
 40
11.0
 40
12.0
 40
12.0
 40
12.0
 40
13.0
 40
13.0
 40
13.0
 40
14.0
 40
14.0
 40
14.0
 40
15.0
 40
15.0
 40
15.0
 40
16.0
 40
16.0
 40
16.0
 40
17.0
 40
17.0
 40
17.0
 40
18.0
 40
18.0
 40
18.0
 40
19.0
 40
19.0
 40
19.0
 40
19.0
 10
102.0087605539249
 20
-136.6603922184391
 10
101.9133314089835
 20
-136.6603922184391
 10
101.6956013743157
 20
-136.6393771359791
 10
101.5705444082011
 20
-136.4533419797756
 10
101.4964748552682
 20
-136.3410318669564
 10
101.4923407406859
 20
-136.2418131169812
 10
101.4882066261036
 20
-136.1570637680441
 10
101.4882066261036
 20
-136.1570637680441
 10
101.7083482276111
 20
-136.1570637680441
 10
101.7083482276111
 20
-136.1570637680441
 10
101.7104152849023
 20
-136.2311333209769
 10
101.720750571358
 20
-136.4657443235225
 10
102.0042819297941
 20
-136.4657443235225
 10
102.1417412396555
 20
-136.4657443235225
 10
102.2943589696521
 20
-136.3961533947204
 10
102.2943589696521
 20
-136.1677435640484
 10
102.2943589696521
 20
-136.0512993366469
 10
102.2561184097658
 20
-136.0027234903049
 10
102.2244235313015
 20
-135.9710286118406
 10
102.1503539783687
 20
-135.8969590589077
 10
102.0339097509672
 20
-135.8842122056123
 10
101.9791327327518
 20
-135.8842122056123
 10
101.9598401980344
 20
-135.8842122056123
 10
101.9240112049877
 20
-135.8862792629034
 10
101.8964504411058
 20
-135.8904133774857
 10
101.8964504411058
 20
-135.8904133774857
 10
101.8964504411058
 20
-135.6957654825691
 10
101.8964504411058
 20
-135.6957654825691
 10
101.934691000992
 20
-135.7023111639911
 10
101.9767211659121
 20
-135.7043782212822
 10
101.9832668473341
 20
-135.7043782212822
 10
102.0487236615538
 20
-135.7043782212822
 10
102.2475056710527
 20
-135.6830186292737
 10
102.2475056710527
 20
-135.446340569437
 10
102.2475056710527
 20
-135.2685736423981
 10
102.1165920426132
 20
-135.2134521146342
 10
102.0063489870852
 20
-135.2134521146342
 10
101.7421101633666
 20
-135.2134521146342
 10
101.7334974246534
 20
-135.446340569437
 10
101.7293633100711
 20
-135.5179985555302
 10
101.7293633100711
 20
-135.5179985555302
 10
101.5261026764414
 20
-135.5179985555302
 10
101.5261026764414
 20
-135.5179985555302
 10
101.5347154151545
 20
-135.3932860989642
 10
101.5622761790365
 20
-135.0167371624264
 10
102.0190958403806
 20
-135.0167371624264
 10
102.2433715564704
 20
-135.0167371624264
 10
102.4845282404379
 20
-135.1438611858321
 10
102.4845282404379
 20
-135.4397948880151
 10
102.4845282404379
 20
-135.6261745537671
 10
102.389443605045
 20
-135.7085123358646
 10
102.2898803455213
 20
-135.769835035502
 10
102.3512030451587
 20
-135.797395799384
 10
102.5331040867799
 20
-135.8776665241903
 10
102.5331040867799
 20
-136.1549967107529
 10
102.5331040867799
 20
-136.4933050874045
 10
102.285746230939
 20
-136.6603922184391
 10
102.0087605539249
 20
-136.6603922184391
 97
        0
 97
        0
 75
     2
 76
     1
 98
        0
  0
SPLINE
  5
75
330
6F
100
AcDbEntity
  8
_U+30EC_U+30A4_U+30E4_U+30FC 1
370
     0
100
AcDbSpline
210
0.0
220
0.0
230
1.0
 70
    11
 71
     3
 72
    62
 73
    58
 74
     0
 42
0.0000000001
 43
0.0000000001
 12
1.0
 22
0.0
 32
0.0
 13
1.0
 23
0.0
 33
0.0
 40
0.0
 40
0.0
 40
0.0
 40
0.0
 40
1.0
 40
1.0
 40
1.0
 40
2.0
 40
2.0
 40
2.0
 40
3.0
 40
3.0
 40
3.0
 40
4.0
 40
4.0
 40
4.0
 40
5.0
 40
5.0
 40
5.0
 40
6.0
 40
6.0
 40
6.0
 40
7.0
 40
7.0
 40
7.0
 40
8.0
 40
8.0
 40
8.0
 40
9.0
 40
9.0
 40
9.0
 40
10.0
 40
10.0
 40
10.0
 40
11.0
 40
11.0
 40
11.0
 40
12.0
 40
12.0
 40
12.0
 40
13.0
 40
13.0
 40
13.0
 40
14.0
 40
14.0
 40
14.0
 40
15.0
 40
15.0
 40
15.0
 40
16.0
 40
16.0
 40
16.0
 40
17.0
 40
17.0
 40
17.0
 40
18.0
 40
18.0
 40
18.0
 40
19.0
 40
19.0
 40
19.0
 40
19.0
 10
103.1856051716862
 20
-136.6603922184391
 30
0.0
 10
103.0901760267448
 20
-136.6603922184391
 30
0.0
 10
102.872445992077
 20
-136.6393771359791
 30
0.0
 10
102.7473890259625
 20
-136.4533419797756
 30
0.0
 10
102.6733194730296
 20
-136.3410318669564
 30
0.0
 10
102.6691853584473
 20
-136.2418131169812
 30
0.0
 10
102.665051243865
 20
-136.1570637680441
 30
0.0
 10
102.665051243865
 20
-136.1570637680441
 30
0.0
 10
102.8851928453725
 20
-136.1570637680441
 30
0.0
 10
102.8851928453725
 20
-136.1570637680441
 30
0.0
 10
102.8872599026636
 20
-136.2311333209769
 30
0.0
 10
102.8975951891194
 20
-136.4657443235225
 30
0.0
 10
103.1811265475554
 20
-136.4657443235225
 30
0.0
 10
103.3185858574169
 20
-136.4657443235225
 30
0.0
 10
103.4712035874135
 20
-136.3961533947204
 30
0.0
 10
103.4712035874135
 20
-136.1677435640484
 30
0.0
 10
103.4712035874135
 20
-136.0512993366469
 30
0.0
 10
103.4329630275272
 20
-136.0027234903049
 30
0.0
 10
103.4012681490629
 20
-135.9710286118406
 30
0.0
 10
103.32719859613
 20
-135.8969590589077
 30
0.0
 10
103.2107543687286
 20
-135.8842122056123
 30
0.0
 10
103.1559773505131
 20
-135.8842122056123
 30
0.0
 10
103.1366848157957
 20
-135.8842122056123
 30
0.0
 10
103.1008558227491
 20
-135.8862792629034
 30
0.0
 10
103.0732950588671
 20
-135.8904133774857
 30
0.0
 10
103.0732950588671
 20
-135.8904133774857
 30
0.0
 10
103.0732950588671
 20
-135.6957654825691
 30
0.0
 10
103.0732950588671
 20
-135.6957654825691
 30
0.0
 10
103.1115356187534
 20
-135.7023111639911
 30
0.0
 10
103.1535657836734
 20
-135.7043782212822
 30
0.0
 10
103.1601114650954
 20
-135.7043782212822
 30
0.0
 10
103.2255682793151
 20
-135.7043782212822
 30
0.0
 10
103.4243502888141
 20
-135.6830186292737
 30
0.0
 10
103.4243502888141
 20
-135.446340569437
 30
0.0
 10
103.4243502888141
 20
-135.2685736423981
 30
0.0
 10
103.2934366603746
 20
-135.2134521146342
 30
0.0
 10
103.1831936048466
 20
-135.2134521146342
 30
0.0
 10
102.9189547811279
 20
-135.2134521146342
 30
0.0
 10
102.9103420424148
 20
-135.446340569437
 30
0.0
 10
102.9062079278325
 20
-135.5179985555302
 30
0.0
 10
102.9062079278325
 20
-135.5179985555302
 30
0.0
 10
102.7029472942027
 20
-135.5179985555302
 30
0.0
 10
102.7029472942027
 20
-135.5179985555302
 30
0.0
 10
102.7115600329159
 20
-135.3932860989642
 30
0.0
 10
102.7391207967979
 20
-135.0167371624264
 30
0.0
 10
103.195940458142
 20
-135.0167371624264
 30
0.0
 10
103.4202161742318
 20
-135.0167371624264
 30
0.0
 10
103.6613728581992
 20
-135.1438611858321
 30
0.0
 10
103.6613728581992
 20
-135.4397948880151
 30
0.0
 10
103.6613728581992
 20
-135.6261745537671
 30
0.0
 10
103.5662882228063
 20
-135.7085123358646
 30
0.0
 10
103.4667249632826
 20
-135.769835035502
 30
0.0
 10
103.5280476629201
 20
-135.797395799384
 30
0.0
 10
103.7099487045413
 20
-135.8776665241903
 30
0.0
 10
103.7099487045413
 20
-136.1549967107529
 30
0.0
 10
103.7099487045413
 20
-136.4933050874045
 30
0.0
 10
103.4625908487003
 20
-136.6603922184391
 30
0.0
 10
103.1856051716862
 20
-136.6603922184391
 30
0.0
  0
HATCH
  5
76
330
6F
100
AcDbEntity
  8
_U+30EC_U+30A4_U+30E4_U+30FC 1
 62
   179
420
  2234388
100
AcDbHatch
 10
0.0
 20
0.0
 30
0.0
210
0.0
220
0.0
230
1.0
  2
SOLID
 70
     1
 71
     0
 91
        1
 92
        1
 93
        1
 72
     4
 94
        3
 73
     0
 74
     1
 95
       62
 96
       58
 40
0.0
 40
0.0
 40
0.0
 40
0.0
 40
1.0
 40
1.0
 40
1.0
 40
2.0
 40
2.0
 40
2.0
 40
3.0
 40
3.0
 40
3.0
 40
4.0
 40
4.0
 40
4.0
 40
5.0
 40
5.0
 40
5.0
 40
6.0
 40
6.0
 40
6.0
 40
7.0
 40
7.0
 40
7.0
 40
8.0
 40
8.0
 40
8.0
 40
9.0
 40
9.0
 40
9.0
 40
10.0
 40
10.0
 40
10.0
 40
11.0
 40
11.0
 40
11.0
 40
12.0
 40
12.0
 40
12.0
 40
13.0
 40
13.0
 40
13.0
 40
14.0
 40
14.0
 40
14.0
 40
15.0
 40
15.0
 40
15.0
 40
16.0
 40
16.0
 40
16.0
 40
17.0
 40
17.0
 40
17.0
 40
18.0
 40
18.0
 40
18.0
 40
19.0
 40
19.0
 40
19.0
 40
19.0
 10
103.1856051716862
 20
-136.6603922184391
 10
103.0901760267448
 20
-136.6603922184391
 10
102.872445992077
 20
-136.6393771359791
 10
102.7473890259625
 20
-136.4533419797756
 10
102.6733194730296
 20
-136.3410318669564
 10
102.6691853584473
 20
-136.2418131169812
 10
102.665051243865
 20
-136.1570637680441
 10
102.665051243865
 20
-136.1570637680441
 10
102.8851928453725
 20
-136.1570637680441
 10
102.8851928453725
 20
-136.1570637680441
 10
102.8872599026636
 20
-136.2311333209769
 10
102.8975951891194
 20
-136.4657443235225
 10
103.1811265475554
 20
-136.4657443235225
 10
103.3185858574169
 20
-136.4657443235225
 10
103.4712035874135
 20
-136.3961533947204
 10
103.4712035874135
 20
-136.1677435640484
 10
103.4712035874135
 20
-136.0512993366469
 10
103.4329630275272
 20
-136.0027234903049
 10
103.4012681490629
 20
-135.9710286118406
 10
103.32719859613
 20
-135.8969590589077
 10
103.2107543687286
 20
-135.8842122056123
 10
103.1559773505131
 20
-135.8842122056123
 10
103.1366848157957
 20
-135.8842122056123
 10
103.1008558227491
 20
-135.8862792629034
 10
103.0732950588671
 20
-135.8904133774857
 10
103.0732950588671
 20
-135.8904133774857
 10
103.0732950588671
 20
-135.6957654825691
 10
103.0732950588671
 20
-135.6957654825691
 10
103.1115356187534
 20
-135.7023111639911
 10
103.1535657836734
 20
-135.7043782212822
 10
103.1601114650954
 20
-135.7043782212822
 10
103.2255682793151
 20
-135.7043782212822
 10
103.4243502888141
 20
-135.6830186292737
 10
103.4243502888141
 20
-135.446340569437
 10
103.4243502888141
 20
-135.2685736423981
 10
103.2934366603746
 20
-135.2134521146342
 10
103.1831936048466
 20
-135.2134521146342
 10
102.9189547811279
 20
-135.2134521146342
 10
102.9103420424148
 20
-135.446340569437
 10
102.9062079278325
 20
-135.5179985555302
 10
102.9062079278325
 20
-135.5179985555302
 10
102.7029472942027
 20
-135.5179985555302
 10
102.7029472942027
 20
-135.5179985555302
 10
102.7115600329159
 20
-135.3932860989642
 10
102.7391207967979
 20
-135.0167371624264
 10
103.195940458142
 20
-135.0167371624264
 10
103.4202161742318
 20
-135.0167371624264
 10
103.6613728581992
 20
-135.1438611858321
 10
103.6613728581992
 20
-135.4397948880151
 10
103.6613728581992
 20
-135.6261745537671
 10
103.5662882228063
 20
-135.7085123358646
 10
103.4667249632826
 20
-135.769835035502
 10
103.5280476629201
 20
-135.797395799384
 10
103.7099487045413
 20
-135.8776665241903
 10
103.7099487045413
 20
-136.1549967107529
 10
103.7099487045413
 20
-136.4933050874045
 10
103.4625908487003
 20
-136.6603922184391
 10
103.1856051716862
 20
-136.6603922184391
 97
        0
 97
        0
 75
     2
 76
     1
 98
        0
  0
ENDBLK
  5
72
330
6F
100
AcDbEntity
  8
0
100
AcDbBlockEnd
  0
BLOCK
  5
8C
330
8A
100
AcDbEntity
  8
0
100
AcDbBlockBegin
  2
block 3
 70
     0
 10
0.0
 20
0.0
 30
0.0
  3
block 3
  1

  0
SPLINE
  5
8E
330
8A
100
AcDbEntity
  8
_U+30EC_U+30A4_U+30E4_U+30FC 1
370
     0
100
AcDbSpline
210
0.0
220
0.0
230
1.0
 70
    11
 71
     3
 72
    29
 73
    25
 74
     0
 42
0.0000000001
 43
0.0000000001
 12
1.0
 22
0.0
 32
0.0
 13
1.0
 23
0.0
 33
0.0
 40
0.0
 40
0.0
 40
0.0
 40
0.0
 40
1.0
 40
1.0
 40
1.0
 40
2.0
 40
2.0
 40
2.0
 40
3.0
 40
3.0
 40
3.0
 40
4.0
 40
4.0
 40
4.0
 40
5.0
 40
5.0
 40
5.0
 40
6.0
 40
6.0
 40
6.0
 40
7.0
 40
7.0
 40
7.0
 40
8.0
 40
8.0
 40
8.0
 40
8.0
 10
90.01862248183562
 20
-156.6732964018039
 30
0.0
 10
89.7519720912773
 20
-156.6732964018039
 30
0.0
 10
89.49841306356291
 20
-156.5358370919424
 30
0.0
 10
89.49841306356291
 20
-156.1868489192866
 30
0.0
 10
89.49841306356291
 20
-155.9308783247326
 30
0.0
 10
89.64000648800666
 20
-155.8357936893397
 30
0.0
 10
89.74577091940384
 20
-155.7744709897022
 30
0.0
 10
89.6210584628378
 20
-155.7152153473559
 30
0.0
 10
89.54492185261377
 20
-155.6008381772456
 30
0.0
 10
89.54492185261377
 20
-155.4399522180845
 30
0.0
 10
89.54492185261377
 20
-155.1650335983615
 30
0.0
 10
89.7437038621127
 20
-155.0296413457912
 30
0.0
 10
90.01862248183562
 20
-155.0296413457912
 30
0.0
 10
90.30215384027169
 20
-155.0296413457912
 30
0.0
 10
90.492667620606
 20
-155.1736463370746
 30
0.0
 10
90.492667620606
 20
-155.4399522180845
 30
0.0
 10
90.492667620606
 20
-155.6008381772456
 30
0.0
 10
90.4141194435423
 20
-155.7152153473559
 30
0.0
 10
90.28940698697626
 20
-155.7744709897022
 30
0.0
 10
90.37829045049571
 20
-155.8251138933354
 30
0.0
 10
90.53710935236573
 20
-155.9201985287283
 30
0.0
 10
90.53710935236573
 20
-156.1827148047043
 30
0.0
 10
90.53710935236573
 20
-156.557196683951
 30
0.0
 10
90.25771210851197
 20
-156.6732964018039
 30
0.0
 10
90.01862248183562
 20
-156.6732964018039
 30
0.0
  0
SPLINE
  5
8F
330
8A
100
AcDbEntity
  8
_U+30EC_U+30A4_U+30E4_U+30FC 1
370
     0
100
AcDbSpline
210
0.0
220
0.0
230
1.0
 70
    11
 71
     3
 72
    17
 73
    13
 74
     0
 42
0.0000000001
 43
0.0000000001
 12
1.0
 22
0.0
 32
0.0
 13
1.0
 23
0.0
 33
0.0
 40
0.0
 40
0.0
 40
0.0
 40
0.0
 40
1.0
 40
1.0
 40
1.0
 40
2.0
 40
2.0
 40
2.0
 40
3.0
 40
3.0
 40
3.0
 40
4.0
 40
4.0
 40
4.0
 40
4.0
 10
90.01862248183562
 20
-155.8823024783906
 30
0.0
 10
89.87496200010071
 20
-155.8823024783906
 30
0.0
 10
89.72234427010414
 20
-155.9691188846188
 30
0.0
 10
89.72234427010414
 20
-156.1720350087
 30
0.0
 10
89.72234427010414
 20
-156.3773626996209
 30
0.0
 10
89.84946829350986
 20
-156.4786485068873
 30
0.0
 10
90.01862248183562
 20
-156.4786485068873
 30
0.0
 10
90.20465763803912
 20
-156.4786485068873
 30
0.0
 10
90.31490069356711
 20
-156.3560031076124
 30
0.0
 10
90.31490069356711
 20
-156.1782361805735
 30
0.0
 10
90.31490069356711
 20
-155.9563720313234
 30
0.0
 10
90.15194767711479
 20
-155.8823024783906
 30
0.0
 10
90.01862248183562
 20
-155.8823024783906
 30
0.0
  0
SPLINE
  5
90
330
8A
100
AcDbEntity
  8
_U+30EC_U+30A4_U+30E4_U+30FC 1
370
     0
100
AcDbSpline
210
0.0
220
0.0
230
1.0
 70
    11
 71
     3
 72
    17
 73
    13
 74
     0
 42
0.0000000001
 43
0.0000000001
 12
1.0
 22
0.0
 32
0.0
 13
1.0
 23
0.0
 33
0.0
 40
0.0
 40
0.0
 40
0.0
 40
0.0
 40
1.0
 40
1.0
 40
1.0
 40
2.0
 40
2.0
 40
2.0
 40
3.0
 40
3.0
 40
3.0
 40
4.0
 40
4.0
 40
4.0
 40
4.0
 10
90.01862248183562
 20
-155.2222221834167
 30
0.0
 10
89.85360240809216
 20
-155.2222221834167
 30
0.0
 10
89.76919756870353
 20
-155.3173068188096
 30
0.0
 10
89.76919756870353
 20
-155.4526990713799
 30
0.0
 10
89.76919756870353
 20
-155.5753444706548
 30
0.0
 10
89.84085555479673
 20
-155.6938557553474
 30
0.0
 10
90.01862248183562
 20
-155.6938557553474
 30
0.0
 10
90.19638940887452
 20
-155.6938557553474
 30
0.0
 10
90.26839190451624
 20
-155.5753444706548
 30
0.0
 10
90.26839190451624
 20
-155.4526990713799
 30
0.0
 10
90.26839190451624
 20
-155.3173068188096
 30
0.0
 10
90.18157549828794
 20
-155.2222221834167
 30
0.0
 10
90.01862248183562
 20
-155.2222221834167
 30
0.0
  0
HATCH
  5
91
330
8A
100
AcDbEntity
  8
_U+30EC_U+30A4_U+30E4_U+30FC 1
 62
   179
420
  2234388
100
AcDbHatch
 10
0.0
 20
0.0
 30
0.0
210
0.0
220
0.0
230
1.0
  2
SOLID
 70
     1
 71
     0
 91
        3
 92
        1
 93
        1
 72
     4
 94
        3
 73
     0
 74
     1
 95
       29
 96
       25
 40
0.0
 40
0.0
 40
0.0
 40
0.0
 40
1.0
 40
1.0
 40
1.0
 40
2.0
 40
2.0
 40
2.0
 40
3.0
 40
3.0
 40
3.0
 40
4.0
 40
4.0
 40
4.0
 40
5.0
 40
5.0
 40
5.0
 40
6.0
 40
6.0
 40
6.0
 40
7.0
 40
7.0
 40
7.0
 40
8.0
 40
8.0
 40
8.0
 40
8.0
 10
90.01862248183562
 20
-156.6732964018039
 10
89.7519720912773
 20
-156.6732964018039
 10
89.49841306356291
 20
-156.5358370919424
 10
89.49841306356291
 20
-156.1868489192866
 10
89.49841306356291
 20
-155.9308783247326
 10
89.64000648800666
 20
-155.8357936893397
 10
89.74577091940384
 20
-155.7744709897022
 10
89.6210584628378
 20
-155.7152153473559
 10
89.54492185261377
 20
-155.6008381772456
 10
89.54492185261377
 20
-155.4399522180845
 10
89.54492185261377
 20
-155.1650335983615
 10
89.7437038621127
 20
-155.0296413457912
 10
90.01862248183562
 20
-155.0296413457912
 10
90.30215384027169
 20
-155.0296413457912
 10
90.492667620606
 20
-155.1736463370746
 10
90.492667620606
 20
-155.4399522180845
 10
90.492667620606
 20
-155.6008381772456
 10
90.4141194435423
 20
-155.7152153473559
 10
90.28940698697626
 20
-155.7744709897022
 10
90.37829045049571
 20
-155.8251138933354
 10
90.53710935236573
 20
-155.9201985287283
 10
90.53710935236573
 20
-156.1827148047043
 10
90.53710935236573
 20
-156.557196683951
 10
90.25771210851197
 20
-156.6732964018039
 10
90.01862248183562
 20
-156.6732964018039
 97
        0
 97
        0
 92
        1
 93
        1
 72
     4
 94
        3
 73
     0
 74
     1
 95
       17
 96
       13
 40
0.0
 40
0.0
 40
0.0
 40
0.0
 40
1.0
 40
1.0
 40
1.0
 40
2.0
 40
2.0
 40
2.0
 40
3.0
 40
3.0
 40
3.0
 40
4.0
 40
4.0
 40
4.0
 40
4.0
 10
90.01862248183562
 20
-155.8823024783906
 10
89.87496200010071
 20
-155.8823024783906
 10
89.72234427010414
 20
-155.9691188846188
 10
89.72234427010414
 20
-156.1720350087
 10
89.72234427010414
 20
-156.3773626996209
 10
89.84946829350986
 20
-156.4786485068873
 10
90.01862248183562
 20
-156.4786485068873
 10
90.20465763803912
 20
-156.4786485068873
 10
90.31490069356711
 20
-156.3560031076124
 10
90.31490069356711
 20
-156.1782361805735
 10
90.31490069356711
 20
-155.9563720313234
 10
90.15194767711479
 20
-155.8823024783906
 10
90.01862248183562
 20
-155.8823024783906
 97
        0
 97
        0
 92
        1
 93
        1
 72
     4
 94
        3
 73
     0
 74
     1
 95
       17
 96
       13
 40
0.0
 40
0.0
 40
0.0
 40
0.0
 40
1.0
 40
1.0
 40
1.0
 40
2.0
 40
2.0
 40
2.0
 40
3.0
 40
3.0
 40
3.0
 40
4.0
 40
4.0
 40
4.0
 40
4.0
 10
90.01862248183562
 20
-155.2222221834167
 10
89.85360240809216
 20
-155.2222221834167
 10
89.76919756870353
 20
-155.3173068188096
 10
89.76919756870353
 20
-155.4526990713799
 10
89.76919756870353
 20
-155.5753444706548
 10
89.84085555479673
 20
-155.6938557553474
 10
90.01862248183562
 20
-155.6938557553474
 10
90.19638940887452
 20
-155.6938557553474
 10
90.26839190451624
 20
-155.5753444706548
 10
90.26839190451624
 20
-155.4526990713799
 10
90.26839190451624
 20
-155.3173068188096
 10
90.18157549828794
 20
-155.2222221834167
 10
90.01862248183562
 20
-155.2222221834167
 97
        0
 97
        0
 75
     2
 76
     1
 98
        0
  0
ENDBLK
  5
8D
330
8A
100
AcDbEntity
  8
0
100
AcDbBlockEnd
  0
BLOCK
  5
94
330
92
100
AcDbEntity
  8
0
100
AcDbBlockBegin
  2
block 4
 70
     0
 10
0.0
 20
0.0
 30
0.0
  3
block 4
  1

  0
SPLINE
  5
96
330
92
100
AcDbEntity
  8
_U+30EC_U+30A4_U+30E4_U+30FC 1
370
     0
100
AcDbSpline
210
0.0
220
0.0
230
1.0
 70
    11
 71
     3
 72
    26
 73
    22
 74
     0
 42
0.0000000001
 43
0.0000000001
 12
1.0
 22
0.0
 32
0.0
 13
1.0
 23
0.0
 33
0.0
 40
0.0
 40
0.0
 40
0.0
 40
0.0
 40
1.0
 40
1.0
 40
1.0
 40
2.0
 40
2.0
 40
2.0
 40
3.0
 40
3.0
 40
3.0
 40
4.0
 40
4.0
 40
4.0
 40
5.0
 40
5.0
 40
5.0
 40
6.0
 40
6.0
 40
6.0
 40
7.0
 40
7.0
 40
7.0
 40
7.0
 10
98.49906952832663
 20
-156.6226534981707
 30
0.0
 10
98.49906952832663
 20
-156.6226534981707
 30
0.0
 10
98.49906952832663
 20
-155.5185003951482
 30
0.0
 10
98.49906952832663
 20
-155.5185003951482
 30
0.0
 10
98.49906952832663
 20
-155.5185003951482
 30
0.0
 10
98.16902938083969
 20
-155.5185003951482
 30
0.0
 10
98.16902938083969
 20
-155.5185003951482
 30
0.0
 10
98.16902938083969
 20
-155.5185003951482
 30
0.0
 10
98.16902938083969
 20
-155.3703612892824
 30
0.0
 10
98.16902938083969
 20
-155.3703612892824
 30
0.0
 10
98.50113658561777
 20
-155.3555473786958
 30
0.0
 10
98.54764537466865
 20
-155.1925943622435
 30
0.0
 10
98.5772731958418
 20
-155.0782171921332
 30
0.0
 10
98.5772731958418
 20
-155.0782171921332
 30
0.0
 10
98.7233452444164
 20
-155.0782171921332
 30
0.0
 10
98.7233452444164
 20
-155.0782171921332
 30
0.0
 10
98.7233452444164
 20
-155.0782171921332
 30
0.0
 10
98.7233452444164
 20
-156.6226534981707
 30
0.0
 10
98.7233452444164
 20
-156.6226534981707
 30
0.0
 10
98.7233452444164
 20
-156.6226534981707
 30
0.0
 10
98.49906952832663
 20
-156.6226534981707
 30
0.0
 10
98.49906952832663
 20
-156.6226534981707
 30
0.0
  0
HATCH
  5
97
330
92
100
AcDbEntity
  8
_U+30EC_U+30A4_U+30E4_U+30FC 1
 62
   179
420
  2234388
100
AcDbHatch
 10
0.0
 20
0.0
 30
0.0
210
0.0
220
0.0
230
1.0
  2
SOLID
 70
     1
 71
     0
 91
        1
 92
        1
 93
        1
 72
     4
 94
        3
 73
     0
 74
     1
 95
       26
 96
       22
 40
0.0
 40
0.0
 40
0.0
 40
0.0
 40
1.0
 40
1.0
 40
1.0
 40
2.0
 40
2.0
 40
2.0
 40
3.0
 40
3.0
 40
3.0
 40
4.0
 40
4.0
 40
4.0
 40
5.0
 40
5.0
 40
5.0
 40
6.0
 40
6.0
 40
6.0
 40
7.0
 40
7.0
 40
7.0
 40
7.0
 10
98.49906952832663
 20
-156.6226534981707
 10
98.49906952832663
 20
-156.6226534981707
 10
98.49906952832663
 20
-155.5185003951482
 10
98.49906952832663
 20
-155.5185003951482
 10
98.49906952832663
 20
-155.5185003951482
 10
98.16902938083969
 20
-155.5185003951482
 10
98.16902938083969
 20
-155.5185003951482
 10
98.16902938083969
 20
-155.5185003951482
 10
98.16902938083969
 20
-155.3703612892824
 10
98.16902938083969
 20
-155.3703612892824
 10
98.50113658561777
 20
-155.3555473786958
 10
98.54764537466865
 20
-155.1925943622435
 10
98.5772731958418
 20
-155.0782171921332
 10
98.5772731958418
 20
-155.0782171921332
 10
98.7233452444164
 20
-155.0782171921332
 10
98.7233452444164
 20
-155.0782171921332
 10
98.7233452444164
 20
-155.0782171921332
 10
98.7233452444164
 20
-156.6226534981707
 10
98.7233452444164
 20
-156.6226534981707
 10
98.7233452444164
 20
-156.6226534981707
 10
98.49906952832663
 20
-156.6226534981707
 10
98.49906952832663
 20
-156.6226534981707
 97
        0
 97
        0
 75
     2
 76
     1
 98
        0
  0
SPLINE
  5
98
330
92
100
AcDbEntity
  8
_U+30EC_U+30A4_U+30E4_U+30FC 1
370
     0
100
AcDbSpline
210
0.0
220
0.0
230
1.0
 70
    11
 71
     3
 72
    29
 73
    25
 74
     0
 42
0.0000000001
 43
0.0000000001
 12
1.0
 22
0.0
 32
0.0
 13
1.0
 23
0.0
 33
0.0
 40
0.0
 40
0.0
 40
0.0
 40
0.0
 40
1.0
 40
1.0
 40
1.0
 40
2.0
 40
2.0
 40
2.0
 40
3.0
 40
3.0
 40
3.0
 40
4.0
 40
4.0
 40
4.0
 40
5.0
 40
5.0
 40
5.0
 40
6.0
 40
6.0
 40
6.0
 40
7.0
 40
7.0
 40
7.0
 40
8.0
 40
8.0
 40
8.0
 40
8.0
 10
100.1223985209763
 20
-156.4448865711318
 30
0.0
 10
100.0142225227395
 20
-156.654348376635
 30
0.0
 10
99.84093421983144
 20
-156.6732964018039
 30
0.0
 10
99.72448999243
 20
-156.6732964018039
 30
0.0
 10
99.56360403326883
 20
-156.6732964018039
 30
0.0
 10
99.42201060882506
 20
-156.626787612753
 30
0.0
 10
99.32692597343217
 20
-156.4448865711318
 30
0.0
 10
99.22322859932615
 20
-156.2502386762152
 30
0.0
 10
99.20428057415727
 20
-156.0135606163786
 30
0.0
 10
99.20428057415727
 20
-155.8506075999262
 30
0.0
 10
99.20428057415727
 20
-155.7066026086428
 30
0.0
 10
99.22116154203499
 20
-155.454766128671
 30
0.0
 10
99.32692597343217
 20
-155.2559841191721
 30
0.0
 10
99.43475746212049
 20
-155.0530679950909
 30
0.0
 10
99.59564342128165
 20
-155.0296413457912
 30
0.0
 10
99.72448999243
 20
-155.0296413457912
 30
0.0
 10
99.88330889430001
 20
-155.0296413457912
 30
0.0
 10
100.0269693760349
 20
-155.0740830775509
 30
0.0
 10
100.1223985209763
 20
-155.2559841191721
 30
0.0
 10
100.2216172709515
 20
-155.4485649567976
 30
0.0
 10
100.2450439202512
 20
-155.6769747874696
 30
0.0
 10
100.2450439202512
 20
-155.8506075999262
 30
0.0
 10
100.2450439202512
 20
-156.0218288455432
 30
0.0
 10
100.2236843282427
 20
-156.2523057335064
 30
0.0
 10
100.1223985209763
 20
-156.4448865711318
 30
0.0
  0
SPLINE
  5
99
330
92
100
AcDbEntity
  8
_U+30EC_U+30A4_U+30E4_U+30FC 1
370
     0
100
AcDbSpline
210
0.0
220
0.0
230
1.0
 70
    11
 71
     3
 72
    17
 73
    13
 74
     0
 42
0.0000000001
 43
0.0000000001
 12
1.0
 22
0.0
 32
0.0
 13
1.0
 23
0.0
 33
0.0
 40
0.0
 40
0.0
 40
0.0
 40
0.0
 40
1.0
 40
1.0
 40
1.0
 40
2.0
 40
2.0
 40
2.0
 40
3.0
 40
3.0
 40
3.0
 40
4.0
 40
4.0
 40
4.0
 40
4.0
 10
99.72448999243
 20
-155.2222221834167
 30
0.0
 10
99.4750650792979
 20
-155.2222221834167
 30
0.0
 10
99.4282117806985
 20
-155.5057535418527
 30
0.0
 10
99.4282117806985
 20
-155.8506075999262
 30
0.0
 10
99.4282117806985
 20
-156.1699679514089
 30
0.0
 10
99.46438528329364
 20
-156.4786485068873
 30
0.0
 10
99.72448999243
 20
-156.4786485068873
 30
0.0
 10
99.97219235781945
 20
-156.4786485068873
 30
0.0
 10
100.0207682041615
 20
-156.1975287152909
 30
0.0
 10
100.0207682041615
 20
-155.8506075999262
 30
0.0
 10
100.0207682041615
 20
-155.5309027388951
 30
0.0
 10
99.98252764427521
 20
-155.2222221834167
 30
0.0
 10
99.72448999243
 20
-155.2222221834167
 30
0.0
  0
HATCH
  5
9A
330
92
100
AcDbEntity
  8
_U+30EC_U+30A4_U+30E4_U+30FC 1
 62
   179
420
  2234388
100
AcDbHatch
 10
0.0
 20
0.0
 30
0.0
210
0.0
220
0.0
230
1.0
  2
SOLID
 70
     1
 71
     0
 91
        2
 92
        1
 93
        1
 72
     4
 94
        3
 73
     0
 74
     1
 95
       29
 96
       25
 40
0.0
 40
0.0
 40
0.0
 40
0.0
 40
1.0
 40
1.0
 40
1.0
 40
2.0
 40
2.0
 40
2.0
 40
3.0
 40
3.0
 40
3.0
 40
4.0
 40
4.0
 40
4.0
 40
5.0
 40
5.0
 40
5.0
 40
6.0
 40
6.0
 40
6.0
 40
7.0
 40
7.0
 40
7.0
 40
8.0
 40
8.0
 40
8.0
 40
8.0
 10
100.1223985209763
 20
-156.4448865711318
 10
100.0142225227395
 20
-156.654348376635
 10
99.84093421983144
 20
-156.6732964018039
 10
99.72448999243
 20
-156.6732964018039
 10
99.56360403326883
 20
-156.6732964018039
 10
99.42201060882506
 20
-156.626787612753
 10
99.32692597343217
 20
-156.4448865711318
 10
99.22322859932615
 20
-156.2502386762152
 10
99.20428057415727
 20
-156.0135606163786
 10
99.20428057415727
 20
-155.8506075999262
 10
99.20428057415727
 20
-155.7066026086428
 10
99.22116154203499
 20
-155.454766128671
 10
99.32692597343217
 20
-155.2559841191721
 10
99.43475746212049
 20
-155.0530679950909
 10
99.59564342128165
 20
-155.0296413457912
 10
99.72448999243
 20
-155.0296413457912
 10
99.88330889430001
 20
-155.0296413457912
 10
100.0269693760349
 20
-155.0740830775509
 10
100.1223985209763
 20
-155.2559841191721
 10
100.2216172709515
 20
-155.4485649567976
 10
100.2450439202512
 20
-155.6769747874696
 10
100.2450439202512
 20
-155.8506075999262
 10
100.2450439202512
 20
-156.0218288455432
 10
100.2236843282427
 20
-156.2523057335064
 10
100.1223985209763
 20
-156.4448865711318
 97
        0
 97
        0
 92
        1
 93
        1
 72
     4
 94
        3
 73
     0
 74
     1
 95
       17
 96
       13
 40
0.0
 40
0.0
 40
0.0
 40
0.0
 40
1.0
 40
1.0
 40
1.0
 40
2.0
 40
2.0
 40
2.0
 40
3.0
 40
3.0
 40
3.0
 40
4.0
 40
4.0
 40
4.0
 40
4.0
 10
99.72448999243
 20
-155.2222221834167
 10
99.4750650792979
 20
-155.2222221834167
 10
99.4282117806985
 20
-155.5057535418527
 10
99.4282117806985
 20
-155.8506075999262
 10
99.4282117806985
 20
-156.1699679514089
 10
99.46438528329364
 20
-156.4786485068873
 10
99.72448999243
 20
-156.4786485068873
 10
99.97219235781945
 20
-156.4786485068873
 10
100.0207682041615
 20
-156.1975287152909
 10
100.0207682041615
 20
-155.8506075999262
 10
100.0207682041615
 20
-155.5309027388951
 10
99.98252764427521
 20
-155.2222221834167
 10
99.72448999243
 20
-155.2222221834167
 97
        0
 97
        0
 75
     2
 76
     1
 98
        0
  0
ENDBLK
  5
95
330
92
100
AcDbEntity
  8
0
100
AcDbBlockEnd
  0
BLOCK
  5
A1
330
9F
100
AcDbEntity
  8
0
100
AcDbBlockBegin
  2
block 5
 70
     0
 10
0.0
 20
0.0
 30
0.0
  3
block 5
  1

  0
SPLINE
  5
A3
330
9F
100
AcDbEntity
  8
_U+30EC_U+30A4_U+30E4_U+30FC 1
370
     0
100
AcDbSpline
210
0.0
220
0.0
230
1.0
 70
    11
 71
     3
 72
    17
 73
    13
 74
     0
 42
0.0000000001
 43
0.0000000001
 12
1.0
 22
0.0
 32
0.0
 13
1.0
 23
0.0
 33
0.0
 40
0.0
 40
0.0
 40
0.0
 40
0.0
 40
1.0
 40
1.0
 40
1.0
 40
2.0
 40
2.0
 40
2.0
 40
3.0
 40
3.0
 40
3.0
 40
4.0
 40
4.0
 40
4.0
 40
4.0
 10
107.4225558542208
 20
-157.922832534304
 30
0.0
 10
107.3167914228236
 20
-157.8170681029069
 30
0.0
 10
107.2361761884687
 20
-157.7791720525691
 30
0.0
 10
107.143158610367
 20
-157.7474771741048
 30
0.0
 10
107.143158610367
 20
-157.7474771741048
 30
0.0
 10
107.253401665895
 20
-157.5824571003613
 30
0.0
 10
107.253401665895
 20
-157.5824571003613
 30
0.0
 10
107.350553358579
 20
-157.6248317748299
 30
0.0
 10
107.4711317005628
 20
-157.7030354423451
 30
0.0
 10
107.5241861710356
 20
-157.7578124605606
 30
0.0
 10
107.5241861710356
 20
-157.7578124605606
 30
0.0
 10
107.4225558542208
 20
-157.922832534304
 30
0.0
 10
107.4225558542208
 20
-157.922832534304
 30
0.0
  0
SPLINE
  5
A4
330
9F
100
AcDbEntity
  8
_U+30EC_U+30A4_U+30E4_U+30FC 1
370
     0
100
AcDbSpline
210
0.0
220
0.0
230
1.0
 70
    11
 71
     3
 72
   182
 73
   178
 74
     0
 42
0.0000000001
 43
0.0000000001
 12
1.0
 22
0.0
 32
0.0
 13
1.0
 23
0.0
 33
0.0
 40
0.0
 40
0.0
 40
0.0
 40
0.0
 40
1.0
 40
1.0
 40
1.0
 40
2.0
 40
2.0
 40
2.0
 40
3.0
 40
3.0
 40
3.0
 40
4.0
 40
4.0
 40
4.0
 40
5.0
 40
5.0
 40
5.0
 40
6.0
 40
6.0
 40
6.0
 40
7.0
 40
7.0
 40
7.0
 40
8.0
 40
8.0
 40
8.0
 40
9.0
 40
9.0
 40
9.0
 40
10.0
 40
10.0
 40
10.0
 40
11.0
 40
11.0
 40
11.0
 40
12.0
 40
12.0
 40
12.0
 40
13.0
 40
13.0
 40
13.0
 40
14.0
 40
14.0
 40
14.0
 40
15.0
 40
15.0
 40
15.0
 40
16.0
 40
16.0
 40
16.0
 40
17.0
 40
17.0
 40
17.0
 40
18.0
 40
18.0
 40
18.0
 40
19.0
 40
19.0
 40
19.0
 40
20.0
 40
20.0
 40
20.0
 40
21.0
 40
21.0
 40
21.0
 40
22.0
 40
22.0
 40
22.0
 40
23.0
 40
23.0
 40
23.0
 40
24.0
 40
24.0
 40
24.0
 40
25.0
 40
25.0
 40
25.0
 40
26.0
 40
26.0
 40
26.0
 40
27.0
 40
27.0
 40
27.0
 40
28.0
 40
28.0
 40
28.0
 40
29.0
 40
29.0
 40
29.0
 40
30.0
 40
30.0
 40
30.0
 40
31.0
 40
31.0
 40
31.0
 40
32.0
 40
32.0
 40
32.0
 40
33.0
 40
33.0
 40
33.0
 40
34.0
 40
34.0
 40
34.0
 40
35.0
 40
35.0
 40
35.0
 40
36.0
 40
36.0
 40
36.0
 40
37.0
 40
37.0
 40
37.0
 40
38.0
 40
38.0
 40
38.0
 40
39.0
 40
39.0
 40
39.0
 40
40.0
 40
40.0
 40
40.0
 40
41.0
 40
41.0
 40
41.0
 40
42.0
 40
42.0
 40
42.0
 40
43.0
 40
43.0
 40
43.0
 40
44.0
 40
44.0
 40
44.0
 40
45.0
 40
45.0
 40
45.0
 40
46.0
 40
46.0
 40
46.0
 40
47.0
 40
47.0
 40
47.0
 40
48.0
 40
48.0
 40
48.0
 40
49.0
 40
49.0
 40
49.0
 40
50.0
 40
50.0
 40
50.0
 40
51.0
 40
51.0
 40
51.0
 40
52.0
 40
52.0
 40
52.0
 40
53.0
 40
53.0
 40
53.0
 40
54.0
 40
54.0
 40
54.0
 40
55.0
 40
55.0
 40
55.0
 40
56.0
 40
56.0
 40
56.0
 40
57.0
 40
57.0
 40
57.0
 40
58.0
 40
58.0
 40
58.0
 40
59.0
 40
59.0
 40
59.0
 40
59.0
 10
108.467453314897
 20
-159.101399699808
 30
0.0
 10
108.467453314897
 20
-159.101399699808
 30
0.0
 10
107.8307996692229
 20
-159.101399699808
 30
0.0
 10
107.8307996692229
 20
-159.101399699808
 30
0.0
 10
107.6172037491374
 20
-159.101399699808
 30
0.0
 10
107.4011962622122
 20
-159.1055338143903
 30
0.0
 10
107.1876003421267
 20
-159.1182806676857
 30
0.0
 10
107.1876003421267
 20
-159.1182806676857
 30
0.0
 10
107.1876003421267
 20
-158.9108859194737
 30
0.0
 10
107.1876003421267
 20
-158.9108859194737
 30
0.0
 10
107.4098090009253
 20
-158.9236327727691
 30
0.0
 10
107.7333034669903
 20
-158.9277668873514
 30
0.0
 10
107.8307996692229
 20
-158.9277668873514
 30
0.0
 10
107.8307996692229
 20
-158.9277668873514
 30
0.0
 10
108.0509412707303
 20
-158.9277668873514
 30
0.0
 10
108.0509412707303
 20
-158.9277668873514
 30
0.0
 10
108.0509412707303
 20
-158.9277668873514
 30
0.0
 10
108.0509412707303
 20
-158.7861734629076
 30
0.0
 10
108.0509412707303
 20
-158.7861734629076
 30
0.0
 10
108.0509412707303
 20
-158.7861734629076
 30
0.0
 10
107.8900553115692
 20
-158.7861734629076
 30
0.0
 10
107.8900553115692
 20
-158.7861734629076
 30
0.0
 10
107.7250352378257
 20
-158.7861734629076
 30
0.0
 10
107.5600151640822
 20
-158.7903075774899
 30
0.0
 10
107.3949950903388
 20
-158.8051214880765
 30
0.0
 10
107.3949950903388
 20
-158.8051214880765
 30
0.0
 10
107.3949950903388
 20
-158.5956596825733
 30
0.0
 10
107.3949950903388
 20
-158.5956596825733
 30
0.0
 10
107.5662163359557
 20
-158.6104735931599
 30
0.0
 10
107.8139187013451
 20
-158.6146077077422
 30
0.0
 10
107.8900553115692
 20
-158.6146077077422
 30
0.0
 10
107.8900553115692
 20
-158.6146077077422
 30
0.0
 10
108.0509412707303
 20
-158.6146077077422
 30
0.0
 10
108.0509412707303
 20
-158.6146077077422
 30
0.0
 10
108.0464626465995
 20
-158.542949721649
 30
0.0
 10
108.0464626465995
 20
-158.536404040227
 30
0.0
 10
108.0402614747261
 20
-158.4836940793027
 30
0.0
 10
108.0402614747261
 20
-158.4836940793027
 30
0.0
 10
108.1797878418787
 20
-158.4985079898893
 30
0.0
 10
108.1797878418787
 20
-158.4985079898893
 30
0.0
 10
108.1797878418787
 20
-158.4985079898893
 30
0.0
 10
108.0805690919035
 20
-158.3269422347238
 30
0.0
 10
108.0805690919035
 20
-158.3269422347238
 30
0.0
 10
108.1270778809543
 20
-158.3334879161458
 30
0.0
 10
108.2011474338872
 20
-158.3417561453104
 30
0.0
 10
108.2180284017649
 20
-158.3417561453104
 30
0.0
 10
108.2686713053981
 20
-158.3417561453104
 30
0.0
 10
108.2855522732758
 20
-158.3207410628504
 30
0.0
 10
108.2855522732758
 20
-158.2635524777952
 30
0.0
 10
108.2855522732758
 20
-158.2635524777952
 30
0.0
 10
108.2855522732758
 20
-158.1260931679338
 30
0.0
 10
108.2855522732758
 20
-158.1260931679338
 30
0.0
 10
108.2855522732758
 20
-158.1260931679338
 30
0.0
 10
108.1797878418787
 20
-158.1260931679338
 30
0.0
 10
108.1797878418787
 20
-158.1260931679338
 30
0.0
 10
108.0464626465995
 20
-158.1260931679338
 30
0.0
 10
107.8900553115692
 20
-158.1260931679338
 30
0.0
 10
107.7674099122943
 20
-158.1388400212292
 30
0.0
 10
107.7674099122943
 20
-158.1388400212292
 30
0.0
 10
107.7674099122943
 20
-157.9483262408949
 30
0.0
 10
107.7674099122943
 20
-157.9483262408949
 30
0.0
 10
107.9344970433289
 20
-157.9652072087726
 30
0.0
 10
108.1649739312921
 20
-157.9672742660638
 30
0.0
 10
108.1797878418787
 20
-157.9672742660638
 30
0.0
 10
108.1797878418787
 20
-157.9672742660638
 30
0.0
 10
108.2855522732758
 20
-157.9672742660638
 30
0.0
 10
108.2855522732758
 20
-157.9672742660638
 30
0.0
 10
108.2855522732758
 20
-157.9672742660638
 30
0.0
 10
108.2855522732758
 20
-157.8363606376242
 30
0.0
 10
108.2855522732758
 20
-157.8363606376242
 30
0.0
 10
108.2855522732758
 20
-157.8363606376242
 30
0.0
 10
108.2476562229381
 20
-157.8363606376242
 30
0.0
 10
108.2476562229381
 20
-157.8363606376242
 30
0.0
 10
108.2032144911784
 20
-157.8363606376242
 30
0.0
 10
108.0781575250638
 20
-157.8404947522066
 30
0.0
 10
107.9892740615444
 20
-157.8487629813712
 30
0.0
 10
107.9892740615444
 20
-157.8487629813712
 30
0.0
 10
107.9892740615444
 20
-157.7684922565648
 30
0.0
 10
107.9892740615444
 20
-157.7684922565648
 30
0.0
 10
107.93656410062
 20
-157.8067328164511
 30
0.0
 10
107.9110703940292
 20
-157.8215467270377
 30
0.0
 10
107.8686957195606
 20
-157.8446288667888
 30
0.0
 10
107.8686957195606
 20
-157.8446288667888
 30
0.0
 10
107.680593506066
 20
-157.7157822956405
 30
0.0
 10
107.680593506066
 20
-157.7157822956405
 30
0.0
 10
107.7587971735811
 20
-157.6816758503365
 30
0.0
 10
107.91554901816
 20
-157.6182860934079
 30
0.0
 10
108.0719563531903
 20
-157.474625611673
 30
0.0
 10
108.1542941352878
 20
-157.3960774346093
 30
0.0
 10
108.2328423123515
 20
-157.3116725952207
 30
0.0
 10
108.2855522732758
 20
-157.2100422784058
 30
0.0
 10
108.2855522732758
 20
-157.2100422784058
 30
0.0
 10
108.4970811360702
 20
-157.2713649780433
 30
0.0
 10
108.4970811360702
 20
-157.2713649780433
 30
0.0
 10
108.5163736707876
 20
-157.2775661499167
 30
0.0
 10
108.5267089572433
 20
-157.2861788886298
 30
0.0
 10
108.5267089572433
 20
-157.2989257419253
 30
0.0
 10
108.5267089572433
 20
-157.315806709803
 30
0.0
 10
108.5139621039479
 20
-157.3220078816765
 30
0.0
 10
108.4888129069056
 20
-157.3347547349719
 30
0.0
 10
108.5690836317119
 20
-157.4322509372045
 30
0.0
 10
108.7320366481642
 20
-157.5294026298885
 30
0.0
 10
108.7657985839197
 20
-157.5483506550574
 30
0.0
 10
108.9160047470766
 20
-157.6372341185768
 30
0.0
 10
109.0303819171869
 20
-157.6647948824588
 30
0.0
 10
109.108585584702
 20
-157.6837429076277
 30
0.0
 10
109.108585584702
 20
-157.6837429076277
 30
0.0
 10
108.9900743000094
 20
-157.853241605502
 30
0.0
 10
108.9900743000094
 20
-157.853241605502
 30
0.0
 10
108.9053249510723
 20
-157.8236137843288
 30
0.0
 10
108.8546820474391
 20
-157.8046657591599
 30
0.0
 10
108.7361707627465
 20
-157.7388644353917
 30
0.0
 10
108.7361707627465
 20
-157.7388644353917
 30
0.0
 10
108.7361707627465
 20
-157.8487629813712
 30
0.0
 10
108.7361707627465
 20
-157.8487629813712
 30
0.0
 10
108.653832980649
 20
-157.8404947522066
 30
0.0
 10
108.5267089572433
 20
-157.8363606376242
 30
0.0
 10
108.473998996319
 20
-157.8363606376242
 30
0.0
 10
108.473998996319
 20
-157.8363606376242
 30
0.0
 10
108.473998996319
 20
-157.9672742660638
 30
0.0
 10
108.473998996319
 20
-157.9672742660638
 30
0.0
 10
108.473998996319
 20
-157.9672742660638
 30
0.0
 10
108.5945773383028
 20
-157.9672742660638
 30
0.0
 10
108.5945773383028
 20
-157.9672742660638
 30
0.0
 10
108.5966443955939
 20
-157.9672742660638
 30
0.0
 10
108.8291883408483
 20
-157.9652072087726
 30
0.0
 10
109.0069552678872
 20
-157.9483262408949
 30
0.0
 10
109.0069552678872
 20
-157.9483262408949
 30
0.0
 10
109.0069552678872
 20
-158.1388400212292
 30
0.0
 10
109.0069552678872
 20
-158.1388400212292
 30
0.0
 10
108.8781086967388
 20
-158.1260931679338
 30
0.0
 10
108.7213568521599
 20
-158.1260931679338
 30
0.0
 10
108.5945773383028
 20
-158.1260931679338
 30
0.0
 10
108.5945773383028
 20
-158.1260931679338
 30
0.0
 10
108.473998996319
 20
-158.1260931679338
 30
0.0
 10
108.473998996319
 20
-158.1260931679338
 30
0.0
 10
108.473998996319
 20
-158.1260931679338
 30
0.0
 10
108.473998996319
 20
-158.3524359413147
 30
0.0
 10
108.473998996319
 20
-158.3524359413147
 30
0.0
 10
108.473998996319
 20
-158.4709472260073
 30
0.0
 10
108.4485052897282
 20
-158.5067762190539
 30
0.0
 10
108.287619330567
 20
-158.5215901296404
 30
0.0
 10
108.2920979546978
 20
-158.5405381548093
 30
0.0
 10
108.2855522732758
 20
-158.5512179508136
 30
0.0
 10
108.2476562229381
 20
-158.5746446001133
 30
0.0
 10
108.2455891656469
 20
-158.5935926252822
 30
0.0
 10
108.2455891656469
 20
-158.5997937971556
 30
0.0
 10
108.2431775988073
 20
-158.6146077077422
 30
0.0
 10
108.2431775988073
 20
-158.6146077077422
 30
0.0
 10
108.3806369086687
 20
-158.6146077077422
 30
0.0
 10
108.3806369086687
 20
-158.6146077077422
 30
0.0
 10
108.5456569824122
 20
-158.6146077077422
 30
0.0
 10
108.7130886229953
 20
-158.6104735931599
 30
0.0
 10
108.88017575403
 20
-158.5956596825733
 30
0.0
 10
108.88017575403
 20
-158.5956596825733
 30
0.0
 10
108.88017575403
 20
-158.8030544307854
 30
0.0
 10
108.88017575403
 20
-158.8030544307854
 30
0.0
 10
108.6641682671048
 20
-158.7861734629076
 30
0.0
 10
108.3999294433861
 20
-158.7861734629076
 30
0.0
 10
108.3806369086687
 20
-158.7861734629076
 30
0.0
 10
108.3806369086687
 20
-158.7861734629076
 30
0.0
 10
108.2411105415161
 20
-158.7861734629076
 30
0.0
 10
108.2411105415161
 20
-158.7861734629076
 30
0.0
 10
108.2411105415161
 20
-158.7861734629076
 30
0.0
 10
108.2411105415161
 20
-158.9277668873514
 30
0.0
 10
108.2411105415161
 20
-158.9277668873514
 30
0.0
 10
108.2411105415161
 20
-158.9277668873514
 30
0.0
 10
108.467453314897
 20
-158.9277668873514
 30
0.0
 10
108.467453314897
 20
-158.9277668873514
 30
0.0
 10
108.6834608018222
 20
-158.9277668873514
 30
0.0
 10
108.90119083649
 20
-158.9236327727691
 30
0.0
 10
109.1168538138666
 20
-158.9108859194737
 30
0.0
 10
109.1168538138666
 20
-158.9108859194737
 30
0.0
 10
109.1168538138666
 20
-159.1182806676857
 30
0.0
 10
109.1168538138666
 20
-159.1182806676857
 30
0.0
 10
108.8357340222702
 20
-159.101399699808
 30
0.0
 10
108.4908799641967
 20
-159.101399699808
 30
0.0
 10
108.467453314897
 20
-159.101399699808
 30
0.0
  0
SPLINE
  5
A5
330
9F
100
AcDbEntity
  8
_U+30EC_U+30A4_U+30E4_U+30FC 1
370
     0
100
AcDbSpline
210
0.0
220
0.0
230
1.0
 70
    11
 71
     3
 72
    23
 73
    19
 74
     0
 42
0.0000000001
 43
0.0000000001
 12
1.0
 22
0.0
 32
0.0
 13
1.0
 23
0.0
 33
0.0
 40
0.0
 40
0.0
 40
0.0
 40
0.0
 40
1.0
 40
1.0
 40
1.0
 40
2.0
 40
2.0
 40
2.0
 40
3.0
 40
3.0
 40
3.0
 40
4.0
 40
4.0
 40
4.0
 40
5.0
 40
5.0
 40
5.0
 40
6.0
 40
6.0
 40
6.0
 40
6.0
 10
107.3484863012879
 20
-158.4730142832984
 30
0.0
 10
107.3484863012879
 20
-158.4940293657585
 30
0.0
 10
107.350553358579
 20
-158.5322699256447
 30
0.0
 10
107.3250596519882
 20
-158.5322699256447
 30
0.0
 10
107.3147243655324
 20
-158.5322699256447
 30
0.0
 10
107.3061116268193
 20
-158.5257242442227
 30
0.0
 10
107.295431830815
 20
-158.508843276345
 30
0.0
 10
107.295431830815
 20
-158.508843276345
 30
0.0
 10
107.191734456709
 20
-158.3269422347238
 30
0.0
 10
107.191734456709
 20
-158.3269422347238
 30
0.0
 10
107.4077419436342
 20
-158.1980956635755
 30
0.0
 10
107.6044568958419
 20
-157.9207654770129
 30
0.0
 10
107.6509656848928
 20
-157.8487629813712
 30
0.0
 10
107.6509656848928
 20
-157.8487629813712
 30
0.0
 10
107.7229681805345
 20
-158.0285969657012
 30
0.0
 10
107.7229681805345
 20
-158.0285969657012
 30
0.0
 10
107.5896429852554
 20
-158.225311917909
 30
0.0
 10
107.4139431155076
 20
-158.4096245263698
 30
0.0
 10
107.3484863012879
 20
-158.4730142832984
 30
0.0
  0
SPLINE
  5
A6
330
9F
100
AcDbEntity
  8
_U+30EC_U+30A4_U+30E4_U+30FC 1
370
     0
100
AcDbSpline
210
0.0
220
0.0
230
1.0
 70
    11
 71
     3
 72
    17
 73
    13
 74
     0
 42
0.0000000001
 43
0.0000000001
 12
1.0
 22
0.0
 32
0.0
 13
1.0
 23
0.0
 33
0.0
 40
0.0
 40
0.0
 40
0.0
 40
0.0
 40
1.0
 40
1.0
 40
1.0
 40
2.0
 40
2.0
 40
2.0
 40
3.0
 40
3.0
 40
3.0
 40
4.0
 40
4.0
 40
4.0
 40
4.0
 10
107.6023898385508
 20
-157.5779784762305
 30
0.0
 10
107.5410671389133
 20
-157.5018418660065
 30
0.0
 10
107.4118760582165
 20
-157.4257052557825
 30
0.0
 10
107.3081786841105
 20
-157.3960774346093
 30
0.0
 10
107.3081786841105
 20
-157.3960774346093
 30
0.0
 10
107.4036078290519
 20
-157.2310573608659
 30
0.0
 10
107.4036078290519
 20
-157.2310573608659
 30
0.0
 10
107.5048936363182
 20
-157.267230863461
 30
0.0
 10
107.6106580677154
 20
-157.3244194485161
 30
0.0
 10
107.6995415312348
 20
-157.4046901733225
 30
0.0
 10
107.6995415312348
 20
-157.4046901733225
 30
0.0
 10
107.6023898385508
 20
-157.5779784762305
 30
0.0
 10
107.6023898385508
 20
-157.5779784762305
 30
0.0
  0
SPLINE
  5
A7
330
9F
100
AcDbEntity
  8
_U+30EC_U+30A4_U+30E4_U+30FC 1
370
     0
100
AcDbSpline
210
0.0
220
0.0
230
1.0
 70
    11
 71
     3
 72
    23
 73
    19
 74
     0
 42
0.0000000001
 43
0.0000000001
 12
1.0
 22
0.0
 32
0.0
 13
1.0
 23
0.0
 33
0.0
 40
0.0
 40
0.0
 40
0.0
 40
0.0
 40
1.0
 40
1.0
 40
1.0
 40
2.0
 40
2.0
 40
2.0
 40
3.0
 40
3.0
 40
3.0
 40
4.0
 40
4.0
 40
4.0
 40
5.0
 40
5.0
 40
5.0
 40
6.0
 40
6.0
 40
6.0
 40
6.0
 10
108.0550753853126
 20
-158.2825005029641
 30
0.0
 10
108.0337157933041
 20
-158.3059271522638
 30
0.0
 10
107.93656410062
 20
-158.4178927555344
 30
0.0
 10
107.7970377334674
 20
-158.4985079898893
 30
0.0
 10
107.7970377334674
 20
-158.4985079898893
 30
0.0
 10
107.6299506024328
 20
-158.3779296479055
 30
0.0
 10
107.6299506024328
 20
-158.3779296479055
 30
0.0
 10
107.7801567655897
 20
-158.3017930376815
 30
0.0
 10
107.8793755155649
 20
-158.2063638927401
 30
0.0
 10
107.9279513619069
 20
-158.1536539318158
 30
0.0
 10
107.9279513619069
 20
-158.1536539318158
 30
0.0
 10
108.1015841743635
 20
-158.2359917139132
 30
0.0
 10
108.1015841743635
 20
-158.2359917139132
 30
0.0
 10
108.1098524035281
 20
-158.2401258284955
 30
0.0
 10
108.1184651422412
 20
-158.2466715099175
 30
0.0
 10
108.1184651422412
 20
-158.2573513059218
 30
0.0
 10
108.1184651422412
 20
-158.2825005029641
 30
0.0
 10
108.0826361491946
 20
-158.2825005029641
 30
0.0
 10
108.0550753853126
 20
-158.2825005029641
 30
0.0
  0
SPLINE
  5
A8
330
9F
100
AcDbEntity
  8
_U+30EC_U+30A4_U+30E4_U+30FC 1
370
     0
100
AcDbSpline
210
0.0
220
0.0
230
1.0
 70
    11
 71
     3
 72
    20
 73
    16
 74
     0
 42
0.0000000001
 43
0.0000000001
 12
1.0
 22
0.0
 32
0.0
 13
1.0
 23
0.0
 33
0.0
 40
0.0
 40
0.0
 40
0.0
 40
0.0
 40
1.0
 40
1.0
 40
1.0
 40
2.0
 40
2.0
 40
2.0
 40
3.0
 40
3.0
 40
3.0
 40
4.0
 40
4.0
 40
4.0
 40
5.0
 40
5.0
 40
5.0
 40
5.0
 10
108.3534206543353
 20
-157.4405191663691
 30
0.0
 10
108.315180094449
 20
-157.4894395222596
 30
0.0
 10
108.2538573948115
 20
-157.5676431897748
 30
0.0
 10
108.1143310276589
 20
-157.6775417357542
 30
0.0
 10
108.1946017524652
 20
-157.6816758503365
 30
0.0
 10
108.2242295736384
 20
-157.6816758503365
 30
0.0
 10
108.2476562229381
 20
-157.6816758503365
 30
0.0
 10
108.2476562229381
 20
-157.6816758503365
 30
0.0
 10
108.4760660536102
 20
-157.6816758503365
 30
0.0
 10
108.4760660536102
 20
-157.6816758503365
 30
0.0
 10
108.5077609320744
 20
-157.6816758503365
 30
0.0
 10
108.5563367784165
 20
-157.6796087930454
 30
0.0
 10
108.6304063313493
 20
-157.6775417357542
 30
0.0
 10
108.5184407280787
 20
-157.6034721828213
 30
0.0
 10
108.4695203721882
 20
-157.5569633937705
 30
0.0
 10
108.3534206543353
 20
-157.4405191663691
 30
0.0
  0
SPLINE
  5
A9
330
9F
100
AcDbEntity
  8
_U+30EC_U+30A4_U+30E4_U+30FC 1
370
     0
100
AcDbSpline
210
0.0
220
0.0
230
1.0
 70
    11
 71
     3
 72
    17
 73
    13
 74
     0
 42
0.0000000001
 43
0.0000000001
 12
1.0
 22
0.0
 32
0.0
 13
1.0
 23
0.0
 33
0.0
 40
0.0
 40
0.0
 40
0.0
 40
0.0
 40
1.0
 40
1.0
 40
1.0
 40
2.0
 40
2.0
 40
2.0
 40
3.0
 40
3.0
 40
3.0
 40
4.0
 40
4.0
 40
4.0
 40
4.0
 10
108.9139376897854
 20
-158.4960964230496
 30
0.0
 10
108.7785454372151
 20
-158.384130819779
 30
0.0
 10
108.6727810058179
 20
-158.3207410628504
 30
0.0
 10
108.5542697211253
 20
-158.2573513059218
 30
0.0
 10
108.5542697211253
 20
-158.2573513059218
 30
0.0
 10
108.6810492349825
 20
-158.1450411931026
 30
0.0
 10
108.6810492349825
 20
-158.1450411931026
 30
0.0
 10
108.8123073729705
 20
-158.1915499821535
 30
0.0
 10
108.92220591895
 20
-158.2487385672086
 30
0.0
 10
109.0472628850646
 20
-158.3503688840235
 30
0.0
 10
109.0472628850646
 20
-158.3503688840235
 30
0.0
 10
108.9139376897854
 20
-158.4960964230496
 30
0.0
 10
108.9139376897854
 20
-158.4960964230496
 30
0.0
  0
HATCH
  5
AA
330
9F
100
AcDbEntity
  8
_U+30EC_U+30A4_U+30E4_U+30FC 1
 62
   179
420
  2234388
100
AcDbHatch
 10
0.0
 20
0.0
 30
0.0
210
0.0
220
0.0
230
1.0
  2
SOLID
 70
     1
 71
     0
 91
        7
 92
        1
 93
        1
 72
     4
 94
        3
 73
     0
 74
     1
 95
       17
 96
       13
 40
0.0
 40
0.0
 40
0.0
 40
0.0
 40
1.0
 40
1.0
 40
1.0
 40
2.0
 40
2.0
 40
2.0
 40
3.0
 40
3.0
 40
3.0
 40
4.0
 40
4.0
 40
4.0
 40
4.0
 10
107.4225558542208
 20
-157.922832534304
 10
107.3167914228236
 20
-157.8170681029069
 10
107.2361761884687
 20
-157.7791720525691
 10
107.143158610367
 20
-157.7474771741048
 10
107.143158610367
 20
-157.7474771741048
 10
107.253401665895
 20
-157.5824571003613
 10
107.253401665895
 20
-157.5824571003613
 10
107.350553358579
 20
-157.6248317748299
 10
107.4711317005628
 20
-157.7030354423451
 10
107.5241861710356
 20
-157.7578124605606
 10
107.5241861710356
 20
-157.7578124605606
 10
107.4225558542208
 20
-157.922832534304
 10
107.4225558542208
 20
-157.922832534304
 97
        0
 97
        0
 92
        1
 93
        1
 72
     4
 94
        3
 73
     0
 74
     1
 95
      182
 96
      178
 40
0.0
 40
0.0
 40
0.0
 40
0.0
 40
1.0
 40
1.0
 40
1.0
 40
2.0
 40
2.0
 40
2.0
 40
3.0
 40
3.0
 40
3.0
 40
4.0
 40
4.0
 40
4.0
 40
5.0
 40
5.0
 40
5.0
 40
6.0
 40
6.0
 40
6.0
 40
7.0
 40
7.0
 40
7.0
 40
8.0
 40
8.0
 40
8.0
 40
9.0
 40
9.0
 40
9.0
 40
10.0
 40
10.0
 40
10.0
 40
11.0
 40
11.0
 40
11.0
 40
12.0
 40
12.0
 40
12.0
 40
13.0
 40
13.0
 40
13.0
 40
14.0
 40
14.0
 40
14.0
 40
15.0
 40
15.0
 40
15.0
 40
16.0
 40
16.0
 40
16.0
 40
17.0
 40
17.0
 40
17.0
 40
18.0
 40
18.0
 40
18.0
 40
19.0
 40
19.0
 40
19.0
 40
20.0
 40
20.0
 40
20.0
 40
21.0
 40
21.0
 40
21.0
 40
22.0
 40
22.0
 40
22.0
 40
23.0
 40
23.0
 40
23.0
 40
24.0
 40
24.0
 40
24.0
 40
25.0
 40
25.0
 40
25.0
 40
26.0
 40
26.0
 40
26.0
 40
27.0
 40
27.0
 40
27.0
 40
28.0
 40
28.0
 40
28.0
 40
29.0
 40
29.0
 40
29.0
 40
30.0
 40
30.0
 40
30.0
 40
31.0
 40
31.0
 40
31.0
 40
32.0
 40
32.0
 40
32.0
 40
33.0
 40
33.0
 40
33.0
 40
34.0
 40
34.0
 40
34.0
 40
35.0
 40
35.0
 40
35.0
 40
36.0
 40
36.0
 40
36.0
 40
37.0
 40
37.0
 40
37.0
 40
38.0
 40
38.0
 40
38.0
 40
39.0
 40
39.0
 40
39.0
 40
40.0
 40
40.0
 40
40.0
 40
41.0
 40
41.0
 40
41.0
 40
42.0
 40
42.0
 40
42.0
 40
43.0
 40
43.0
 40
43.0
 40
44.0
 40
44.0
 40
44.0
 40
45.0
 40
45.0
 40
45.0
 40
46.0
 40
46.0
 40
46.0
 40
47.0
 40
47.0
 40
47.0
 40
48.0
 40
48.0
 40
48.0
 40
49.0
 40
49.0
 40
49.0
 40
50.0
 40
50.0
 40
50.0
 40
51.0
 40
51.0
 40
51.0
 40
52.0
 40
52.0
 40
52.0
 40
53.0
 40
53.0
 40
53.0
 40
54.0
 40
54.0
 40
54.0
 40
55.0
 40
55.0
 40
55.0
 40
56.0
 40
56.0
 40
56.0
 40
57.0
 40
57.0
 40
57.0
 40
58.0
 40
58.0
 40
58.0
 40
59.0
 40
59.0
 40
59.0
 40
59.0
 10
108.467453314897
 20
-159.101399699808
 10
108.467453314897
 20
-159.101399699808
 10
107.8307996692229
 20
-159.101399699808
 10
107.8307996692229
 20
-159.101399699808
 10
107.6172037491374
 20
-159.101399699808
 10
107.4011962622122
 20
-159.1055338143903
 10
107.1876003421267
 20
-159.1182806676857
 10
107.1876003421267
 20
-159.1182806676857
 10
107.1876003421267
 20
-158.9108859194737
 10
107.1876003421267
 20
-158.9108859194737
 10
107.4098090009253
 20
-158.9236327727691
 10
107.7333034669903
 20
-158.9277668873514
 10
107.8307996692229
 20
-158.9277668873514
 10
107.8307996692229
 20
-158.9277668873514
 10
108.0509412707303
 20
-158.9277668873514
 10
108.0509412707303
 20
-158.9277668873514
 10
108.0509412707303
 20
-158.9277668873514
 10
108.0509412707303
 20
-158.7861734629076
 10
108.0509412707303
 20
-158.7861734629076
 10
108.0509412707303
 20
-158.7861734629076
 10
107.8900553115692
 20
-158.7861734629076
 10
107.8900553115692
 20
-158.7861734629076
 10
107.7250352378257
 20
-158.7861734629076
 10
107.5600151640822
 20
-158.7903075774899
 10
107.3949950903388
 20
-158.8051214880765
 10
107.3949950903388
 20
-158.8051214880765
 10
107.3949950903388
 20
-158.5956596825733
 10
107.3949950903388
 20
-158.5956596825733
 10
107.5662163359557
 20
-158.6104735931599
 10
107.8139187013451
 20
-158.6146077077422
 10
107.8900553115692
 20
-158.6146077077422
 10
107.8900553115692
 20
-158.6146077077422
 10
108.0509412707303
 20
-158.6146077077422
 10
108.0509412707303
 20
-158.6146077077422
 10
108.0464626465995
 20
-158.542949721649
 10
108.0464626465995
 20
-158.536404040227
 10
108.0402614747261
 20
-158.4836940793027
 10
108.0402614747261
 20
-158.4836940793027
 10
108.1797878418787
 20
-158.4985079898893
 10
108.1797878418787
 20
-158.4985079898893
 10
108.1797878418787
 20
-158.4985079898893
 10
108.0805690919035
 20
-158.3269422347238
 10
108.0805690919035
 20
-158.3269422347238
 10
108.1270778809543
 20
-158.3334879161458
 10
108.2011474338872
 20
-158.3417561453104
 10
108.2180284017649
 20
-158.3417561453104
 10
108.2686713053981
 20
-158.3417561453104
 10
108.2855522732758
 20
-158.3207410628504
 10
108.2855522732758
 20
-158.2635524777952
 10
108.2855522732758
 20
-158.2635524777952
 10
108.2855522732758
 20
-158.1260931679338
 10
108.2855522732758
 20
-158.1260931679338
 10
108.2855522732758
 20
-158.1260931679338
 10
108.1797878418787
 20
-158.1260931679338
 10
108.1797878418787
 20
-158.1260931679338
 10
108.0464626465995
 20
-158.1260931679338
 10
107.8900553115692
 20
-158.1260931679338
 10
107.7674099122943
 20
-158.1388400212292
 10
107.7674099122943
 20
-158.1388400212292
 10
107.7674099122943
 20
-157.9483262408949
 10
107.7674099122943
 20
-157.9483262408949
 10
107.9344970433289
 20
-157.9652072087726
 10
108.1649739312921
 20
-157.9672742660638
 10
108.1797878418787
 20
-157.9672742660638
 10
108.1797878418787
 20
-157.9672742660638
 10
108.2855522732758
 20
-157.9672742660638
 10
108.2855522732758
 20
-157.9672742660638
 10
108.2855522732758
 20
-157.9672742660638
 10
108.2855522732758
 20
-157.8363606376242
 10
108.2855522732758
 20
-157.8363606376242
 10
108.2855522732758
 20
-157.8363606376242
 10
108.2476562229381
 20
-157.8363606376242
 10
108.2476562229381
 20
-157.8363606376242
 10
108.2032144911784
 20
-157.8363606376242
 10
108.0781575250638
 20
-157.8404947522066
 10
107.9892740615444
 20
-157.8487629813712
 10
107.9892740615444
 20
-157.8487629813712
 10
107.9892740615444
 20
-157.7684922565648
 10
107.9892740615444
 20
-157.7684922565648
 10
107.93656410062
 20
-157.8067328164511
 10
107.9110703940292
 20
-157.8215467270377
 10
107.8686957195606
 20
-157.8446288667888
 10
107.8686957195606
 20
-157.8446288667888
 10
107.680593506066
 20
-157.7157822956405
 10
107.680593506066
 20
-157.7157822956405
 10
107.7587971735811
 20
-157.6816758503365
 10
107.91554901816
 20
-157.6182860934079
 10
108.0719563531903
 20
-157.474625611673
 10
108.1542941352878
 20
-157.3960774346093
 10
108.2328423123515
 20
-157.3116725952207
 10
108.2855522732758
 20
-157.2100422784058
 10
108.2855522732758
 20
-157.2100422784058
 10
108.4970811360702
 20
-157.2713649780433
 10
108.4970811360702
 20
-157.2713649780433
 10
108.5163736707876
 20
-157.2775661499167
 10
108.5267089572433
 20
-157.2861788886298
 10
108.5267089572433
 20
-157.2989257419253
 10
108.5267089572433
 20
-157.315806709803
 10
108.5139621039479
 20
-157.3220078816765
 10
108.4888129069056
 20
-157.3347547349719
 10
108.5690836317119
 20
-157.4322509372045
 10
108.7320366481642
 20
-157.5294026298885
 10
108.7657985839197
 20
-157.5483506550574
 10
108.9160047470766
 20
-157.6372341185768
 10
109.0303819171869
 20
-157.6647948824588
 10
109.108585584702
 20
-157.6837429076277
 10
109.108585584702
 20
-157.6837429076277
 10
108.9900743000094
 20
-157.853241605502
 10
108.9900743000094
 20
-157.853241605502
 10
108.9053249510723
 20
-157.8236137843288
 10
108.8546820474391
 20
-157.8046657591599
 10
108.7361707627465
 20
-157.7388644353917
 10
108.7361707627465
 20
-157.7388644353917
 10
108.7361707627465
 20
-157.8487629813712
 10
108.7361707627465
 20
-157.8487629813712
 10
108.653832980649
 20
-157.8404947522066
 10
108.5267089572433
 20
-157.8363606376242
 10
108.473998996319
 20
-157.8363606376242
 10
108.473998996319
 20
-157.8363606376242
 10
108.473998996319
 20
-157.9672742660638
 10
108.473998996319
 20
-157.9672742660638
 10
108.473998996319
 20
-157.9672742660638
 10
108.5945773383028
 20
-157.9672742660638
 10
108.5945773383028
 20
-157.9672742660638
 10
108.5966443955939
 20
-157.9672742660638
 10
108.8291883408483
 20
-157.9652072087726
 10
109.0069552678872
 20
-157.9483262408949
 10
109.0069552678872
 20
-157.9483262408949
 10
109.0069552678872
 20
-158.1388400212292
 10
109.0069552678872
 20
-158.1388400212292
 10
108.8781086967388
 20
-158.1260931679338
 10
108.7213568521599
 20
-158.1260931679338
 10
108.5945773383028
 20
-158.1260931679338
 10
108.5945773383028
 20
-158.1260931679338
 10
108.473998996319
 20
-158.1260931679338
 10
108.473998996319
 20
-158.1260931679338
 10
108.473998996319
 20
-158.1260931679338
 10
108.473998996319
 20
-158.3524359413147
 10
108.473998996319
 20
-158.3524359413147
 10
108.473998996319
 20
-158.4709472260073
 10
108.4485052897282
 20
-158.5067762190539
 10
108.287619330567
 20
-158.5215901296404
 10
108.2920979546978
 20
-158.5405381548093
 10
108.2855522732758
 20
-158.5512179508136
 10
108.2476562229381
 20
-158.5746446001133
 10
108.2455891656469
 20
-158.5935926252822
 10
108.2455891656469
 20
-158.5997937971556
 10
108.2431775988073
 20
-158.6146077077422
 10
108.2431775988073
 20
-158.6146077077422
 10
108.3806369086687
 20
-158.6146077077422
 10
108.3806369086687
 20
-158.6146077077422
 10
108.5456569824122
 20
-158.6146077077422
 10
108.7130886229953
 20
-158.6104735931599
 10
108.88017575403
 20
-158.5956596825733
 10
108.88017575403
 20
-158.5956596825733
 10
108.88017575403
 20
-158.8030544307854
 10
108.88017575403
 20
-158.8030544307854
 10
108.6641682671048
 20
-158.7861734629076
 10
108.3999294433861
 20
-158.7861734629076
 10
108.3806369086687
 20
-158.7861734629076
 10
108.3806369086687
 20
-158.7861734629076
 10
108.2411105415161
 20
-158.7861734629076
 10
108.2411105415161
 20
-158.7861734629076
 10
108.2411105415161
 20
-158.7861734629076
 10
108.2411105415161
 20
-158.9277668873514
 10
108.2411105415161
 20
-158.9277668873514
 10
108.2411105415161
 20
-158.9277668873514
 10
108.467453314897
 20
-158.9277668873514
 10
108.467453314897
 20
-158.9277668873514
 10
108.6834608018222
 20
-158.9277668873514
 10
108.90119083649
 20
-158.9236327727691
 10
109.1168538138666
 20
-158.9108859194737
 10
109.1168538138666
 20
-158.9108859194737
 10
109.1168538138666
 20
-159.1182806676857
 10
109.1168538138666
 20
-159.1182806676857
 10
108.8357340222702
 20
-159.101399699808
 10
108.4908799641967
 20
-159.101399699808
 10
108.467453314897
 20
-159.101399699808
 97
        0
 97
        0
 92
        1
 93
        1
 72
     4
 94
        3
 73
     0
 74
     1
 95
       23
 96
       19
 40
0.0
 40
0.0
 40
0.0
 40
0.0
 40
1.0
 40
1.0
 40
1.0
 40
2.0
 40
2.0
 40
2.0
 40
3.0
 40
3.0
 40
3.0
 40
4.0
 40
4.0
 40
4.0
 40
5.0
 40
5.0
 40
5.0
 40
6.0
 40
6.0
 40
6.0
 40
6.0
 10
107.3484863012879
 20
-158.4730142832984
 10
107.3484863012879
 20
-158.4940293657585
 10
107.350553358579
 20
-158.5322699256447
 10
107.3250596519882
 20
-158.5322699256447
 10
107.3147243655324
 20
-158.5322699256447
 10
107.3061116268193
 20
-158.5257242442227
 10
107.295431830815
 20
-158.508843276345
 10
107.295431830815
 20
-158.508843276345
 10
107.191734456709
 20
-158.3269422347238
 10
107.191734456709
 20
-158.3269422347238
 10
107.4077419436342
 20
-158.1980956635755
 10
107.6044568958419
 20
-157.9207654770129
 10
107.6509656848928
 20
-157.8487629813712
 10
107.6509656848928
 20
-157.8487629813712
 10
107.7229681805345
 20
-158.0285969657012
 10
107.7229681805345
 20
-158.0285969657012
 10
107.5896429852554
 20
-158.225311917909
 10
107.4139431155076
 20
-158.4096245263698
 10
107.3484863012879
 20
-158.4730142832984
 97
        0
 97
        0
 92
        1
 93
        1
 72
     4
 94
        3
 73
     0
 74
     1
 95
       17
 96
       13
 40
0.0
 40
0.0
 40
0.0
 40
0.0
 40
1.0
 40
1.0
 40
1.0
 40
2.0
 40
2.0
 40
2.0
 40
3.0
 40
3.0
 40
3.0
 40
4.0
 40
4.0
 40
4.0
 40
4.0
 10
107.6023898385508
 20
-157.5779784762305
 10
107.5410671389133
 20
-157.5018418660065
 10
107.4118760582165
 20
-157.4257052557825
 10
107.3081786841105
 20
-157.3960774346093
 10
107.3081786841105
 20
-157.3960774346093
 10
107.4036078290519
 20
-157.2310573608659
 10
107.4036078290519
 20
-157.2310573608659
 10
107.5048936363182
 20
-157.267230863461
 10
107.6106580677154
 20
-157.3244194485161
 10
107.6995415312348
 20
-157.4046901733225
 10
107.6995415312348
 20
-157.4046901733225
 10
107.6023898385508
 20
-157.5779784762305
 10
107.6023898385508
 20
-157.5779784762305
 97
        0
 97
        0
 92
        1
 93
        1
 72
     4
 94
        3
 73
     0
 74
     1
 95
       23
 96
       19
 40
0.0
 40
0.0
 40
0.0
 40
0.0
 40
1.0
 40
1.0
 40
1.0
 40
2.0
 40
2.0
 40
2.0
 40
3.0
 40
3.0
 40
3.0
 40
4.0
 40
4.0
 40
4.0
 40
5.0
 40
5.0
 40
5.0
 40
6.0
 40
6.0
 40
6.0
 40
6.0
 10
108.0550753853126
 20
-158.2825005029641
 10
108.0337157933041
 20
-158.3059271522638
 10
107.93656410062
 20
-158.4178927555344
 10
107.7970377334674
 20
-158.4985079898893
 10
107.7970377334674
 20
-158.4985079898893
 10
107.6299506024328
 20
-158.3779296479055
 10
107.6299506024328
 20
-158.3779296479055
 10
107.7801567655897
 20
-158.3017930376815
 10
107.8793755155649
 20
-158.2063638927401
 10
107.9279513619069
 20
-158.1536539318158
 10
107.9279513619069
 20
-158.1536539318158
 10
108.1015841743635
 20
-158.2359917139132
 10
108.1015841743635
 20
-158.2359917139132
 10
108.1098524035281
 20
-158.2401258284955
 10
108.1184651422412
 20
-158.2466715099175
 10
108.1184651422412
 20
-158.2573513059218
 10
108.1184651422412
 20
-158.2825005029641
 10
108.0826361491946
 20
-158.2825005029641
 10
108.0550753853126
 20
-158.2825005029641
 97
        0
 97
        0
 92
        1
 93
        1
 72
     4
 94
        3
 73
     0
 74
     1
 95
       20
 96
       16
 40
0.0
 40
0.0
 40
0.0
 40
0.0
 40
1.0
 40
1.0
 40
1.0
 40
2.0
 40
2.0
 40
2.0
 40
3.0
 40
3.0
 40
3.0
 40
4.0
 40
4.0
 40
4.0
 40
5.0
 40
5.0
 40
5.0
 40
5.0
 10
108.3534206543353
 20
-157.4405191663691
 10
108.315180094449
 20
-157.4894395222596
 10
108.2538573948115
 20
-157.5676431897748
 10
108.1143310276589
 20
-157.6775417357542
 10
108.1946017524652
 20
-157.6816758503365
 10
108.2242295736384
 20
-157.6816758503365
 10
108.2476562229381
 20
-157.6816758503365
 10
108.2476562229381
 20
-157.6816758503365
 10
108.4760660536102
 20
-157.6816758503365
 10
108.4760660536102
 20
-157.6816758503365
 10
108.5077609320744
 20
-157.6816758503365
 10
108.5563367784165
 20
-157.6796087930454
 10
108.6304063313493
 20
-157.6775417357542
 10
108.5184407280787
 20
-157.6034721828213
 10
108.4695203721882
 20
-157.5569633937705
 10
108.3534206543353
 20
-157.4405191663691
 97
        0
 97
        0
 92
        1
 93
        1
 72
     4
 94
        3
 73
     0
 74
     1
 95
       17
 96
       13
 40
0.0
 40
0.0
 40
0.0
 40
0.0
 40
1.0
 40
1.0
 40
1.0
 40
2.0
 40
2.0
 40
2.0
 40
3.0
 40
3.0
 40
3.0
 40
4.0
 40
4.0
 40
4.0
 40
4.0
 10
108.9139376897854
 20
-158.4960964230496
 10
108.7785454372151
 20
-158.384130819779
 10
108.6727810058179
 20
-158.3207410628504
 10
108.5542697211253
 20
-158.2573513059218
 10
108.5542697211253
 20
-158.2573513059218
 10
108.6810492349825
 20
-158.1450411931026
 10
108.6810492349825
 20
-158.1450411931026
 10
108.8123073729705
 20
-158.1915499821535
 10
108.92220591895
 20
-158.2487385672086
 10
109.0472628850646
 20
-158.3503688840235
 10
109.0472628850646
 20
-158.3503688840235
 10
108.9139376897854
 20
-158.4960964230496
 10
108.9139376897854
 20
-158.4960964230496
 97
        0
 97
        0
 75
     2
 76
     1
 98
        0
  0
SPLINE
  5
AB
330
9F
100
AcDbEntity
  8
_U+30EC_U+30A4_U+30E4_U+30FC 1
370
     0
100
AcDbSpline
210
0.0
220
0.0
230
1.0
 70
    11
 71
     3
 72
   113
 73
   109
 74
     0
 42
0.0000000001
 43
0.0000000001
 12
1.0
 22
0.0
 32
0.0
 13
1.0
 23
0.0
 33
0.0
 40
0.0
 40
0.0
 40
0.0
 40
0.0
 40
1.0
 40
1.0
 40
1.0
 40
2.0
 40
2.0
 40
2.0
 40
3.0
 40
3.0
 40
3.0
 40
4.0
 40
4.0
 40
4.0
 40
5.0
 40
5.0
 40
5.0
 40
6.0
 40
6.0
 40
6.0
 40
7.0
 40
7.0
 40
7.0
 40
8.0
 40
8.0
 40
8.0
 40
9.0
 40
9.0
 40
9.0
 40
10.0
 40
10.0
 40
10.0
 40
11.0
 40
11.0
 40
11.0
 40
12.0
 40
12.0
 40
12.0
 40
13.0
 40
13.0
 40
13.0
 40
14.0
 40
14.0
 40
14.0
 40
15.0
 40
15.0
 40
15.0
 40
16.0
 40
16.0
 40
16.0
 40
17.0
 40
17.0
 40
17.0
 40
18.0
 40
18.0
 40
18.0
 40
19.0
 40
19.0
 40
19.0
 40
20.0
 40
20.0
 40
20.0
 40
21.0
 40
21.0
 40
21.0
 40
22.0
 40
22.0
 40
22.0
 40
23.0
 40
23.0
 40
23.0
 40
24.0
 40
24.0
 40
24.0
 40
25.0
 40
25.0
 40
25.0
 40
26.0
 40
26.0
 40
26.0
 40
27.0
 40
27.0
 40
27.0
 40
28.0
 40
28.0
 40
28.0
 40
29.0
 40
29.0
 40
29.0
 40
30.0
 40
30.0
 40
30.0
 40
31.0
 40
31.0
 40
31.0
 40
32.0
 40
32.0
 40
32.0
 40
33.0
 40
33.0
 40
33.0
 40
34.0
 40
34.0
 40
34.0
 40
35.0
 40
35.0
 40
35.0
 40
36.0
 40
36.0
 40
36.0
 40
36.0
 10
110.7935817865377
 20
-158.4730142832984
 30
0.0
 10
110.7935817865377
 20
-158.4730142832984
 30
0.0
 10
110.8931450460614
 20
-158.5725775428221
 30
0.0
 10
110.8931450460614
 20
-158.5725775428221
 30
0.0
 10
110.9038248420657
 20
-158.5829128292779
 30
0.0
 10
110.9141601285215
 20
-158.5956596825733
 30
0.0
 10
110.9141601285215
 20
-158.6104735931599
 30
0.0
 10
110.9141601285215
 20
-158.6125406504511
 30
0.0
 10
110.9141601285215
 20
-158.6421684716242
 30
0.0
 10
110.8762640781837
 20
-158.6421684716242
 30
0.0
 10
110.8676513394706
 20
-158.6421684716242
 30
0.0
 10
110.8273437222932
 20
-158.6380343570419
 30
0.0
 10
110.8211425504197
 20
-158.6380343570419
 30
0.0
 10
110.7808349332423
 20
-158.6697292355062
 30
0.0
 10
110.7343261441914
 20
-158.7034911712616
 30
0.0
 10
110.6351073942162
 20
-158.7606797563168
 30
0.0
 10
110.7808349332423
 20
-158.8685112450051
 30
0.0
 10
110.9396538351123
 20
-158.9256998300602
 30
0.0
 10
111.2125053975441
 20
-158.9639403899465
 30
0.0
 10
111.2125053975441
 20
-158.9639403899465
 30
0.0
 10
111.0622992343872
 20
-159.1392957501457
 30
0.0
 10
111.0622992343872
 20
-159.1392957501457
 30
0.0
 10
110.8001274679597
 20
-159.067293254504
 30
0.0
 10
110.6433756233808
 20
-158.9787543005331
 30
0.0
 10
110.5672390131568
 20
-158.9256998300602
 30
0.0
 10
110.4170328499999
 20
-158.8240695132454
 30
0.0
 10
110.273372368265
 20
-158.6611164967931
 30
0.0
 10
110.197235758041
 20
-158.4960964230496
 30
0.0
 10
110.1293673769815
 20
-158.5618977468179
 30
0.0
 10
110.0552978240487
 20
-158.6146077077422
 30
0.0
 10
109.9770941565335
 20
-158.6635280636327
 30
0.0
 10
109.9770941565335
 20
-158.6635280636327
 30
0.0
 10
109.9770941565335
 20
-158.915020034056
 30
0.0
 10
109.9770941565335
 20
-158.915020034056
 30
0.0
 10
110.1400471729858
 20
-158.8898708370137
 30
0.0
 10
110.3260823291893
 20
-158.8454291052539
 30
0.0
 10
110.3894720861179
 20
-158.8306151946674
 30
0.0
 10
110.3894720861179
 20
-158.8306151946674
 30
0.0
 10
110.3598442649448
 20
-158.9997693829931
 30
0.0
 10
110.3598442649448
 20
-158.9997693829931
 30
0.0
 10
110.3577772076536
 20
-158.9997693829931
 30
0.0
 10
110.3388291824847
 20
-159.0059705548666
 30
0.0
 10
110.3367621251936
 20
-159.0059705548666
 30
0.0
 10
110.1379801156947
 20
-159.0442111147528
 30
0.0
 10
109.8206868215032
 20
-159.1096679289726
 30
0.0
 10
109.6236273597469
 20
-159.1458414315677
 30
0.0
 10
109.6132920732911
 20
-159.1627223994454
 30
0.0
 10
109.5898654239914
 20
-159.1944172779097
 30
0.0
 10
109.5667832842403
 20
-159.1944172779097
 30
0.0
 10
109.5392225203583
 20
-159.1944172779097
 30
0.0
 10
109.535088405776
 20
-159.1754692527409
 30
0.0
 10
109.5326768389363
 20
-159.1561767180235
 30
0.0
 10
109.5326768389363
 20
-159.1561767180235
 30
0.0
 10
109.507527641894
 20
-158.9828884151154
 30
0.0
 10
109.507527641894
 20
-158.9828884151154
 30
0.0
 10
109.5815971948268
 20
-158.9742756764023
 30
0.0
 10
109.6894286835151
 20
-158.9615288231068
 30
0.0
 10
109.7972601722035
 20
-158.9405137406468
 30
0.0
 10
109.7972601722035
 20
-158.9405137406468
 30
0.0
 10
109.7972601722035
 20
-158.7627468136079
 30
0.0
 10
109.7972601722035
 20
-158.7627468136079
 30
0.0
 10
109.65325518092
 20
-158.8347493092496
 30
0.0
 10
109.5581705455271
 20
-158.8643771304228
 30
0.0
 10
109.3931504717837
 20
-158.8940049515959
 30
0.0
 10
109.3931504717837
 20
-158.8940049515959
 30
0.0
 10
109.2725721297999
 20
-158.7248507632702
 30
0.0
 10
109.2725721297999
 20
-158.7248507632702
 30
0.0
 10
109.5898654239914
 20
-158.6972899993882
 30
0.0
 10
109.7824462616169
 20
-158.6042724212865
 30
0.0
 10
109.9602131886558
 20
-158.4709472260073
 30
0.0
 10
109.8141411400812
 20
-158.4709472260073
 30
0.0
 10
109.5137288137674
 20
-158.4750813405896
 30
0.0
 10
109.3170138615596
 20
-158.4816270220115
 30
0.0
 10
109.3170138615596
 20
-158.4816270220115
 30
0.0
 10
109.3170138615596
 20
-158.3038600949727
 30
0.0
 10
109.3170138615596
 20
-158.3038600949727
 30
0.0
 10
109.4713541392988
 20
-158.3100612668461
 30
0.0
 10
109.7676323510303
 20
-158.3166069482681
 30
0.0
 10
109.9516004499427
 20
-158.3166069482681
 30
0.0
 10
109.9516004499427
 20
-158.3166069482681
 30
0.0
 10
110.163129312737
 20
-158.3166069482681
 30
0.0
 10
110.163129312737
 20
-158.3166069482681
 30
0.0
 10
110.163129312737
 20
-158.2211778033267
 30
0.0
 10
110.1610622554459
 20
-158.1705348996935
 30
0.0
 10
110.1548610835724
 20
-158.1240261106426
 30
0.0
 10
110.1548610835724
 20
-158.1240261106426
 30
0.0
 10
110.370524060949
 20
-158.1409070785203
 30
0.0
 10
110.370524060949
 20
-158.1409070785203
 30
0.0
 10
110.4190999072911
 20
-158.1450411931026
 30
0.0
 10
110.4277126460042
 20
-158.1598551036892
 30
0.0
 10
110.4277126460042
 20
-158.1746690142758
 30
0.0
 10
110.4277126460042
 20
-158.2001627208666
 30
0.0
 10
110.4108316781265
 20
-158.2084309500312
 30
0.0
 10
110.3598442649448
 20
-158.2339246566221
 30
0.0
 10
110.3577772076536
 20
-158.2594183632129
 30
0.0
 10
110.3577772076536
 20
-158.2656195350864
 30
0.0
 10
110.3557101503625
 20
-158.3166069482681
 30
0.0
 10
110.3557101503625
 20
-158.3166069482681
 30
0.0
 10
110.5861870383257
 20
-158.3166069482681
 30
0.0
 10
110.5861870383257
 20
-158.3166069482681
 30
0.0
 10
110.7512071120692
 20
-158.3166069482681
 30
0.0
 10
111.0433512092183
 20
-158.3100612668461
 30
0.0
 10
111.2231851935484
 20
-158.3038600949727
 30
0.0
 10
111.2231851935484
 20
-158.3038600949727
 30
0.0
 10
111.2231851935484
 20
-158.4816270220115
 30
0.0
 10
111.2231851935484
 20
-158.4816270220115
 30
0.0
 10
111.0939941128515
 20
-158.4771483978807
 30
0.0
 10
111.0709119731003
 20
-158.4771483978807
 30
0.0
 10
110.7935817865377
 20
-158.4730142832984
 30
0.0
  0
SPLINE
  5
AC
330
9F
100
AcDbEntity
  8
_U+30EC_U+30A4_U+30E4_U+30FC 1
370
     0
100
AcDbSpline
210
0.0
220
0.0
230
1.0
 70
    11
 71
     3
 72
    23
 73
    19
 74
     0
 42
0.0000000001
 43
0.0000000001
 12
1.0
 22
0.0
 32
0.0
 13
1.0
 23
0.0
 33
0.0
 40
0.0
 40
0.0
 40
0.0
 40
0.0
 40
1.0
 40
1.0
 40
1.0
 40
2.0
 40
2.0
 40
2.0
 40
3.0
 40
3.0
 40
3.0
 40
4.0
 40
4.0
 40
4.0
 40
5.0
 40
5.0
 40
5.0
 40
6.0
 40
6.0
 40
6.0
 40
6.0
 10
109.5095946991851
 20
-158.1219590533515
 30
0.0
 10
109.4927137313074
 20
-158.1619221609804
 30
0.0
 10
109.4861680498854
 20
-158.1788031288581
 30
0.0
 10
109.4651529674254
 20
-158.1788031288581
 30
0.0
 10
109.4503390568388
 20
-158.1788031288581
 30
0.0
 10
109.4396592608345
 20
-158.1619221609804
 30
0.0
 10
109.4334580889611
 20
-158.1491753076849
 30
0.0
 10
109.4334580889611
 20
-158.1491753076849
 30
0.0
 10
109.3338948294374
 20
-157.9841552339415
 30
0.0
 10
109.3338948294374
 20
-157.9841552339415
 30
0.0
 10
109.4355251462522
 20
-157.9524603554772
 30
0.0
 10
109.5857313094091
 20
-157.8976833372617
 30
0.0
 10
109.784513318908
 20
-157.7347303208094
 30
0.0
 10
109.784513318908
 20
-157.7347303208094
 30
0.0
 10
109.8417019039632
 20
-157.9080186237175
 30
0.0
 10
109.8417019039632
 20
-157.9080186237175
 30
0.0
 10
109.7486843258614
 20
-157.9907009153634
 30
0.0
 10
109.659800862342
 20
-158.0478895004186
 30
0.0
 10
109.5095946991851
 20
-158.1219590533515
 30
0.0
  0
SPLINE
  5
AD
330
9F
100
AcDbEntity
  8
_U+30EC_U+30A4_U+30E4_U+30FC 1
370
     0
100
AcDbSpline
210
0.0
220
0.0
230
1.0
 70
    11
 71
     3
 72
    17
 73
    13
 74
     0
 42
0.0000000001
 43
0.0000000001
 12
1.0
 22
0.0
 32
0.0
 13
1.0
 23
0.0
 33
0.0
 40
0.0
 40
0.0
 40
0.0
 40
0.0
 40
1.0
 40
1.0
 40
1.0
 40
2.0
 40
2.0
 40
2.0
 40
3.0
 40
3.0
 40
3.0
 40
4.0
 40
4.0
 40
4.0
 40
4.0
 10
109.6618679196332
 20
-157.6565266532942
 30
0.0
 10
109.63224009846
 20
-157.6162190361168
 30
0.0
 10
109.5643717174006
 20
-157.5190673434327
 30
0.0
 10
109.3824706757794
 20
-157.4088242879047
 30
0.0
 10
109.3824706757794
 20
-157.4088242879047
 30
0.0
 10
109.5095946991851
 20
-157.2754990926256
 30
0.0
 10
109.5095946991851
 20
-157.2754990926256
 30
0.0
 10
109.6956298553886
 20
-157.3771294094404
 30
0.0
 10
109.7528184404437
 20
-157.4660128729599
 30
0.0
 10
109.7803792043257
 20
-157.5083875474285
 30
0.0
 10
109.7803792043257
 20
-157.5083875474285
 30
0.0
 10
109.6618679196332
 20
-157.6565266532942
 30
0.0
 10
109.6618679196332
 20
-157.6565266532942
 30
0.0
  0
SPLINE
  5
AE
330
9F
100
AcDbEntity
  8
_U+30EC_U+30A4_U+30E4_U+30FC 1
370
     0
100
AcDbSpline
210
0.0
220
0.0
230
1.0
 70
    11
 71
     3
 72
    38
 73
    34
 74
     0
 42
0.0000000001
 43
0.0000000001
 12
1.0
 22
0.0
 32
0.0
 13
1.0
 23
0.0
 33
0.0
 40
0.0
 40
0.0
 40
0.0
 40
0.0
 40
1.0
 40
1.0
 40
1.0
 40
2.0
 40
2.0
 40
2.0
 40
3.0
 40
3.0
 40
3.0
 40
4.0
 40
4.0
 40
4.0
 40
5.0
 40
5.0
 40
5.0
 40
6.0
 40
6.0
 40
6.0
 40
7.0
 40
7.0
 40
7.0
 40
8.0
 40
8.0
 40
8.0
 40
9.0
 40
9.0
 40
9.0
 40
10.0
 40
10.0
 40
10.0
 40
11.0
 40
11.0
 40
11.0
 40
11.0
 10
110.0298041174578
 20
-157.3516357028496
 30
0.0
 10
110.0277370601667
 20
-157.398489001449
 30
0.0
 10
110.0256700028755
 20
-157.5145887193019
 30
0.0
 10
110.0256700028755
 20
-157.5590304510616
 30
0.0
 10
110.0256700028755
 20
-157.5590304510616
 30
0.0
 10
110.0256700028755
 20
-157.9059515664263
 30
0.0
 10
110.0256700028755
 20
-157.9059515664263
 30
0.0
 10
110.0256700028755
 20
-157.9927679726546
 30
0.0
 10
110.0277370601667
 20
-158.1343613970984
 30
0.0
 10
110.038416856171
 20
-158.2549397390821
 30
0.0
 10
110.038416856171
 20
-158.2549397390821
 30
0.0
 10
109.8479030758366
 20
-158.2549397390821
 30
0.0
 10
109.8479030758366
 20
-158.2549397390821
 30
0.0
 10
109.8523816999675
 20
-158.1915499821535
 30
0.0
 10
109.8565158145498
 20
-158.1388400212292
 30
0.0
 10
109.8585828718409
 20
-158.0837184934652
 30
0.0
 10
109.8606499291321
 20
-157.9610730941903
 30
0.0
 10
109.8627169864232
 20
-157.9462591836037
 30
0.0
 10
109.8627169864232
 20
-157.901817451844
 30
0.0
 10
109.8627169864232
 20
-157.901817451844
 30
0.0
 10
109.8627169864232
 20
-157.5803900430702
 30
0.0
 10
109.8627169864232
 20
-157.5803900430702
 30
0.0
 10
109.8627169864232
 20
-157.5252685153062
 30
0.0
 10
109.8499701331278
 20
-157.2861788886298
 30
0.0
 10
109.8479030758366
 20
-157.2355359849967
 30
0.0
 10
109.8479030758366
 20
-157.2355359849967
 30
0.0
 10
110.0490966521752
 20
-157.2630967488787
 30
0.0
 10
110.0490966521752
 20
-157.2630967488787
 30
0.0
 10
110.0701117346353
 20
-157.2651638061698
 30
0.0
 10
110.1018066130996
 20
-157.2692979207521
 30
0.0
 10
110.1018066130996
 20
-157.294791627343
 30
0.0
 10
110.1018066130996
 20
-157.3220078816765
 30
0.0
 10
110.0511637094664
 20
-157.343367473685
 30
0.0
 10
110.0298041174578
 20
-157.3516357028496
 30
0.0
  0
SPLINE
  5
AF
330
9F
100
AcDbEntity
  8
_U+30EC_U+30A4_U+30E4_U+30FC 1
370
     0
100
AcDbSpline
210
0.0
220
0.0
230
1.0
 70
    11
 71
     3
 72
    83
 73
    79
 74
     0
 42
0.0000000001
 43
0.0000000001
 12
1.0
 22
0.0
 32
0.0
 13
1.0
 23
0.0
 33
0.0
 40
0.0
 40
0.0
 40
0.0
 40
0.0
 40
1.0
 40
1.0
 40
1.0
 40
2.0
 40
2.0
 40
2.0
 40
3.0
 40
3.0
 40
3.0
 40
4.0
 40
4.0
 40
4.0
 40
5.0
 40
5.0
 40
5.0
 40
6.0
 40
6.0
 40
6.0
 40
7.0
 40
7.0
 40
7.0
 40
8.0
 40
8.0
 40
8.0
 40
9.0
 40
9.0
 40
9.0
 40
10.0
 40
10.0
 40
10.0
 40
11.0
 40
11.0
 40
11.0
 40
12.0
 40
12.0
 40
12.0
 40
13.0
 40
13.0
 40
13.0
 40
14.0
 40
14.0
 40
14.0
 40
15.0
 40
15.0
 40
15.0
 40
16.0
 40
16.0
 40
16.0
 40
17.0
 40
17.0
 40
17.0
 40
18.0
 40
18.0
 40
18.0
 40
19.0
 40
19.0
 40
19.0
 40
20.0
 40
20.0
 40
20.0
 40
21.0
 40
21.0
 40
21.0
 40
22.0
 40
22.0
 40
22.0
 40
23.0
 40
23.0
 40
23.0
 40
24.0
 40
24.0
 40
24.0
 40
25.0
 40
25.0
 40
25.0
 40
26.0
 40
26.0
 40
26.0
 40
26.0
 10
110.831822346424
 20
-157.6734076211719
 30
0.0
 10
110.831822346424
 20
-157.6734076211719
 30
0.0
 10
110.7343261441914
 20
-157.6734076211719
 30
0.0
 10
110.7343261441914
 20
-157.6734076211719
 30
0.0
 10
110.7343261441914
 20
-157.6734076211719
 30
0.0
 10
110.7343261441914
 20
-157.9207654770129
 30
0.0
 10
110.7343261441914
 20
-157.9207654770129
 30
0.0
 10
110.7343261441914
 20
-157.9207654770129
 30
0.0
 10
110.8170084358374
 20
-157.9207654770129
 30
0.0
 10
110.8170084358374
 20
-157.9207654770129
 30
0.0
 10
110.8824652500572
 20
-157.9207654770129
 30
0.0
 10
111.0219916172098
 20
-157.9166313624306
 30
0.0
 10
111.1215548767335
 20
-157.9080186237175
 30
0.0
 10
111.1215548767335
 20
-157.9080186237175
 30
0.0
 10
111.1215548767335
 20
-158.0878526080475
 30
0.0
 10
111.1215548767335
 20
-158.0878526080475
 30
0.0
 10
111.0285372986318
 20
-158.0795843788829
 30
0.0
 10
110.8783311354749
 20
-158.0754502643006
 30
0.0
 10
110.8170084358374
 20
-158.0754502643006
 30
0.0
 10
110.8170084358374
 20
-158.0754502643006
 30
0.0
 10
110.5121174853928
 20
-158.0754502643006
 30
0.0
 10
110.5121174853928
 20
-158.0754502643006
 30
0.0
 10
110.4594075244685
 20
-158.0754502643006
 30
0.0
 10
110.3133354758939
 20
-158.0795843788829
 30
0.0
 10
110.2075710444967
 20
-158.0878526080475
 30
0.0
 10
110.2075710444967
 20
-158.0878526080475
 30
0.0
 10
110.2075710444967
 20
-157.9080186237175
 30
0.0
 10
110.2075710444967
 20
-157.9080186237175
 30
0.0
 10
110.3071343040204
 20
-157.9166313624306
 30
0.0
 10
110.4466606711731
 20
-157.9207654770129
 30
0.0
 10
110.5121174853928
 20
-157.9207654770129
 30
0.0
 10
110.5121174853928
 20
-157.9207654770129
 30
0.0
 10
110.5565592171525
 20
-157.9207654770129
 30
0.0
 10
110.5565592171525
 20
-157.9207654770129
 30
0.0
 10
110.5565592171525
 20
-157.9207654770129
 30
0.0
 10
110.5565592171525
 20
-157.6734076211719
 30
0.0
 10
110.5565592171525
 20
-157.6734076211719
 30
0.0
 10
110.5565592171525
 20
-157.6734076211719
 30
0.0
 10
110.4828341737682
 20
-157.6734076211719
 30
0.0
 10
110.4828341737682
 20
-157.6734076211719
 30
0.0
 10
110.4211669645822
 20
-157.6734076211719
 30
0.0
 10
110.2540798335476
 20
-157.6775417357542
 30
0.0
 10
110.1335014915638
 20
-157.6861544744673
 30
0.0
 10
110.1335014915638
 20
-157.6861544744673
 30
0.0
 10
110.1335014915638
 20
-157.5083875474285
 30
0.0
 10
110.1335014915638
 20
-157.5083875474285
 30
0.0
 10
110.2478786616742
 20
-157.5145887193019
 30
0.0
 10
110.4063530539956
 20
-157.5190673434327
 30
0.0
 10
110.4828341737682
 20
-157.5190673434327
 30
0.0
 10
110.4828341737682
 20
-157.5190673434327
 30
0.0
 10
110.5544921598614
 20
-157.5190673434327
 30
0.0
 10
110.5544921598614
 20
-157.5190673434327
 30
0.0
 10
110.5503580452791
 20
-157.3664496134362
 30
0.0
 10
110.5482909879879
 20
-157.3326876776807
 30
0.0
 10
110.541745306566
 20
-157.239670099579
 30
0.0
 10
110.541745306566
 20
-157.239670099579
 30
0.0
 10
110.7536186789088
 20
-157.2630967488787
 30
0.0
 10
110.7536186789088
 20
-157.2630967488787
 30
0.0
 10
110.7787678759511
 20
-157.2651638061698
 30
0.0
 10
110.8021945252508
 20
-157.2692979207521
 30
0.0
 10
110.8021945252508
 20
-157.2923800605033
 30
0.0
 10
110.8021945252508
 20
-157.3244194485161
 30
0.0
 10
110.7577527934911
 20
-157.3413004163938
 30
0.0
 10
110.7343261441914
 20
-157.3495686455584
 30
0.0
 10
110.7343261441914
 20
-157.3495686455584
 30
0.0
 10
110.7343261441914
 20
-157.5190673434327
 30
0.0
 10
110.7343261441914
 20
-157.5190673434327
 30
0.0
 10
110.7343261441914
 20
-157.5190673434327
 30
0.0
 10
110.831822346424
 20
-157.5190673434327
 30
0.0
 10
110.831822346424
 20
-157.5190673434327
 30
0.0
 10
110.907958956648
 20
-157.5190673434327
 30
0.0
 10
111.0664333489695
 20
-157.5145887193019
 30
0.0
 10
111.182877576371
 20
-157.5083875474285
 30
0.0
 10
111.182877576371
 20
-157.5083875474285
 30
0.0
 10
111.182877576371
 20
-157.6861544744673
 30
0.0
 10
111.182877576371
 20
-157.6861544744673
 30
0.0
 10
111.0750460876826
 20
-157.6796087930454
 30
0.0
 10
110.901413275226
 20
-157.6734076211719
 30
0.0
 10
110.831822346424
 20
-157.6734076211719
 30
0.0
  0
SPLINE
  5
B0
330
9F
100
AcDbEntity
  8
_U+30EC_U+30A4_U+30E4_U+30FC 1
370
     0
100
AcDbSpline
210
0.0
220
0.0
230
1.0
 70
    11
 71
     3
 72
    17
 73
    13
 74
     0
 42
0.0000000001
 43
0.0000000001
 12
1.0
 22
0.0
 32
0.0
 13
1.0
 23
0.0
 33
0.0
 40
0.0
 40
0.0
 40
0.0
 40
0.0
 40
1.0
 40
1.0
 40
1.0
 40
2.0
 40
2.0
 40
2.0
 40
3.0
 40
3.0
 40
3.0
 40
4.0
 40
4.0
 40
4.0
 40
4.0
 10
110.5861870383257
 20
-158.4709472260073
 30
0.0
 10
110.5861870383257
 20
-158.4709472260073
 30
0.0
 10
110.3832709142445
 20
-158.4709472260073
 30
0.0
 10
110.3832709142445
 20
-158.4709472260073
 30
0.0
 10
110.4108316781265
 20
-158.5302028683536
 30
0.0
 10
110.4656086963419
 20
-158.6022053639953
 30
0.0
 10
110.4931694602239
 20
-158.6314886756199
 30
0.0
 10
110.5207302241059
 20
-158.6170192745818
 30
0.0
 10
110.6351073942162
 20
-158.5532850081048
 30
0.0
 10
110.7260579150268
 20
-158.4709472260073
 30
0.0
 10
110.7260579150268
 20
-158.4709472260073
 30
0.0
 10
110.5861870383257
 20
-158.4709472260073
 30
0.0
 10
110.5861870383257
 20
-158.4709472260073
 30
0.0
  0
HATCH
  5
B1
330
9F
100
AcDbEntity
  8
_U+30EC_U+30A4_U+30E4_U+30FC 1
 62
   179
420
  2234388
100
AcDbHatch
 10
0.0
 20
0.0
 30
0.0
210
0.0
220
0.0
230
1.0
  2
SOLID
 70
     1
 71
     0
 91
        6
 92
        1
 93
        1
 72
     4
 94
        3
 73
     0
 74
     1
 95
      113
 96
      109
 40
0.0
 40
0.0
 40
0.0
 40
0.0
 40
1.0
 40
1.0
 40
1.0
 40
2.0
 40
2.0
 40
2.0
 40
3.0
 40
3.0
 40
3.0
 40
4.0
 40
4.0
 40
4.0
 40
5.0
 40
5.0
 40
5.0
 40
6.0
 40
6.0
 40
6.0
 40
7.0
 40
7.0
 40
7.0
 40
8.0
 40
8.0
 40
8.0
 40
9.0
 40
9.0
 40
9.0
 40
10.0
 40
10.0
 40
10.0
 40
11.0
 40
11.0
 40
11.0
 40
12.0
 40
12.0
 40
12.0
 40
13.0
 40
13.0
 40
13.0
 40
14.0
 40
14.0
 40
14.0
 40
15.0
 40
15.0
 40
15.0
 40
16.0
 40
16.0
 40
16.0
 40
17.0
 40
17.0
 40
17.0
 40
18.0
 40
18.0
 40
18.0
 40
19.0
 40
19.0
 40
19.0
 40
20.0
 40
20.0
 40
20.0
 40
21.0
 40
21.0
 40
21.0
 40
22.0
 40
22.0
 40
22.0
 40
23.0
 40
23.0
 40
23.0
 40
24.0
 40
24.0
 40
24.0
 40
25.0
 40
25.0
 40
25.0
 40
26.0
 40
26.0
 40
26.0
 40
27.0
 40
27.0
 40
27.0
 40
28.0
 40
28.0
 40
28.0
 40
29.0
 40
29.0
 40
29.0
 40
30.0
 40
30.0
 40
30.0
 40
31.0
 40
31.0
 40
31.0
 40
32.0
 40
32.0
 40
32.0
 40
33.0
 40
33.0
 40
33.0
 40
34.0
 40
34.0
 40
34.0
 40
35.0
 40
35.0
 40
35.0
 40
36.0
 40
36.0
 40
36.0
 40
36.0
 10
110.7935817865377
 20
-158.4730142832984
 10
110.7935817865377
 20
-158.4730142832984
 10
110.8931450460614
 20
-158.5725775428221
 10
110.8931450460614
 20
-158.5725775428221
 10
110.9038248420657
 20
-158.5829128292779
 10
110.9141601285215
 20
-158.5956596825733
 10
110.9141601285215
 20
-158.6104735931599
 10
110.9141601285215
 20
-158.6125406504511
 10
110.9141601285215
 20
-158.6421684716242
 10
110.8762640781837
 20
-158.6421684716242
 10
110.8676513394706
 20
-158.6421684716242
 10
110.8273437222932
 20
-158.6380343570419
 10
110.8211425504197
 20
-158.6380343570419
 10
110.7808349332423
 20
-158.6697292355062
 10
110.7343261441914
 20
-158.7034911712616
 10
110.6351073942162
 20
-158.7606797563168
 10
110.7808349332423
 20
-158.8685112450051
 10
110.9396538351123
 20
-158.9256998300602
 10
111.2125053975441
 20
-158.9639403899465
 10
111.2125053975441
 20
-158.9639403899465
 10
111.0622992343872
 20
-159.1392957501457
 10
111.0622992343872
 20
-159.1392957501457
 10
110.8001274679597
 20
-159.067293254504
 10
110.6433756233808
 20
-158.9787543005331
 10
110.5672390131568
 20
-158.9256998300602
 10
110.4170328499999
 20
-158.8240695132454
 10
110.273372368265
 20
-158.6611164967931
 10
110.197235758041
 20
-158.4960964230496
 10
110.1293673769815
 20
-158.5618977468179
 10
110.0552978240487
 20
-158.6146077077422
 10
109.9770941565335
 20
-158.6635280636327
 10
109.9770941565335
 20
-158.6635280636327
 10
109.9770941565335
 20
-158.915020034056
 10
109.9770941565335
 20
-158.915020034056
 10
110.1400471729858
 20
-158.8898708370137
 10
110.3260823291893
 20
-158.8454291052539
 10
110.3894720861179
 20
-158.8306151946674
 10
110.3894720861179
 20
-158.8306151946674
 10
110.3598442649448
 20
-158.9997693829931
 10
110.3598442649448
 20
-158.9997693829931
 10
110.3577772076536
 20
-158.9997693829931
 10
110.3388291824847
 20
-159.0059705548666
 10
110.3367621251936
 20
-159.0059705548666
 10
110.1379801156947
 20
-159.0442111147528
 10
109.8206868215032
 20
-159.1096679289726
 10
109.6236273597469
 20
-159.1458414315677
 10
109.6132920732911
 20
-159.1627223994454
 10
109.5898654239914
 20
-159.1944172779097
 10
109.5667832842403
 20
-159.1944172779097
 10
109.5392225203583
 20
-159.1944172779097
 10
109.535088405776
 20
-159.1754692527409
 10
109.5326768389363
 20
-159.1561767180235
 10
109.5326768389363
 20
-159.1561767180235
 10
109.507527641894
 20
-158.9828884151154
 10
109.507527641894
 20
-158.9828884151154
 10
109.5815971948268
 20
-158.9742756764023
 10
109.6894286835151
 20
-158.9615288231068
 10
109.7972601722035
 20
-158.9405137406468
 10
109.7972601722035
 20
-158.9405137406468
 10
109.7972601722035
 20
-158.7627468136079
 10
109.7972601722035
 20
-158.7627468136079
 10
109.65325518092
 20
-158.8347493092496
 10
109.5581705455271
 20
-158.8643771304228
 10
109.3931504717837
 20
-158.8940049515959
 10
109.3931504717837
 20
-158.8940049515959
 10
109.2725721297999
 20
-158.7248507632702
 10
109.2725721297999
 20
-158.7248507632702
 10
109.5898654239914
 20
-158.6972899993882
 10
109.7824462616169
 20
-158.6042724212865
 10
109.9602131886558
 20
-158.4709472260073
 10
109.8141411400812
 20
-158.4709472260073
 10
109.5137288137674
 20
-158.4750813405896
 10
109.3170138615596
 20
-158.4816270220115
 10
109.3170138615596
 20
-158.4816270220115
 10
109.3170138615596
 20
-158.3038600949727
 10
109.3170138615596
 20
-158.3038600949727
 10
109.4713541392988
 20
-158.3100612668461
 10
109.7676323510303
 20
-158.3166069482681
 10
109.9516004499427
 20
-158.3166069482681
 10
109.9516004499427
 20
-158.3166069482681
 10
110.163129312737
 20
-158.3166069482681
 10
110.163129312737
 20
-158.3166069482681
 10
110.163129312737
 20
-158.2211778033267
 10
110.1610622554459
 20
-158.1705348996935
 10
110.1548610835724
 20
-158.1240261106426
 10
110.1548610835724
 20
-158.1240261106426
 10
110.370524060949
 20
-158.1409070785203
 10
110.370524060949
 20
-158.1409070785203
 10
110.4190999072911
 20
-158.1450411931026
 10
110.4277126460042
 20
-158.1598551036892
 10
110.4277126460042
 20
-158.1746690142758
 10
110.4277126460042
 20
-158.2001627208666
 10
110.4108316781265
 20
-158.2084309500312
 10
110.3598442649448
 20
-158.2339246566221
 10
110.3577772076536
 20
-158.2594183632129
 10
110.3577772076536
 20
-158.2656195350864
 10
110.3557101503625
 20
-158.3166069482681
 10
110.3557101503625
 20
-158.3166069482681
 10
110.5861870383257
 20
-158.3166069482681
 10
110.5861870383257
 20
-158.3166069482681
 10
110.7512071120692
 20
-158.3166069482681
 10
111.0433512092183
 20
-158.3100612668461
 10
111.2231851935484
 20
-158.3038600949727
 10
111.2231851935484
 20
-158.3038600949727
 10
111.2231851935484
 20
-158.4816270220115
 10
111.2231851935484
 20
-158.4816270220115
 10
111.0939941128515
 20
-158.4771483978807
 10
111.0709119731003
 20
-158.4771483978807
 10
110.7935817865377
 20
-158.4730142832984
 97
        0
 97
        0
 92
        1
 93
        1
 72
     4
 94
        3
 73
     0
 74
     1
 95
       23
 96
       19
 40
0.0
 40
0.0
 40
0.0
 40
0.0
 40
1.0
 40
1.0
 40
1.0
 40
2.0
 40
2.0
 40
2.0
 40
3.0
 40
3.0
 40
3.0
 40
4.0
 40
4.0
 40
4.0
 40
5.0
 40
5.0
 40
5.0
 40
6.0
 40
6.0
 40
6.0
 40
6.0
 10
109.5095946991851
 20
-158.1219590533515
 10
109.4927137313074
 20
-158.1619221609804
 10
109.4861680498854
 20
-158.1788031288581
 10
109.4651529674254
 20
-158.1788031288581
 10
109.4503390568388
 20
-158.1788031288581
 10
109.4396592608345
 20
-158.1619221609804
 10
109.4334580889611
 20
-158.1491753076849
 10
109.4334580889611
 20
-158.1491753076849
 10
109.3338948294374
 20
-157.9841552339415
 10
109.3338948294374
 20
-157.9841552339415
 10
109.4355251462522
 20
-157.9524603554772
 10
109.5857313094091
 20
-157.8976833372617
 10
109.784513318908
 20
-157.7347303208094
 10
109.784513318908
 20
-157.7347303208094
 10
109.8417019039632
 20
-157.9080186237175
 10
109.8417019039632
 20
-157.9080186237175
 10
109.7486843258614
 20
-157.9907009153634
 10
109.659800862342
 20
-158.0478895004186
 10
109.5095946991851
 20
-158.1219590533515
 97
        0
 97
        0
 92
        1
 93
        1
 72
     4
 94
        3
 73
     0
 74
     1
 95
       17
 96
       13
 40
0.0
 40
0.0
 40
0.0
 40
0.0
 40
1.0
 40
1.0
 40
1.0
 40
2.0
 40
2.0
 40
2.0
 40
3.0
 40
3.0
 40
3.0
 40
4.0
 40
4.0
 40
4.0
 40
4.0
 10
109.6618679196332
 20
-157.6565266532942
 10
109.63224009846
 20
-157.6162190361168
 10
109.5643717174006
 20
-157.5190673434327
 10
109.3824706757794
 20
-157.4088242879047
 10
109.3824706757794
 20
-157.4088242879047
 10
109.5095946991851
 20
-157.2754990926256
 10
109.5095946991851
 20
-157.2754990926256
 10
109.6956298553886
 20
-157.3771294094404
 10
109.7528184404437
 20
-157.4660128729599
 10
109.7803792043257
 20
-157.5083875474285
 10
109.7803792043257
 20
-157.5083875474285
 10
109.6618679196332
 20
-157.6565266532942
 10
109.6618679196332
 20
-157.6565266532942
 97
        0
 97
        0
 92
        1
 93
        1
 72
     4
 94
        3
 73
     0
 74
     1
 95
       38
 96
       34
 40
0.0
 40
0.0
 40
0.0
 40
0.0
 40
1.0
 40
1.0
 40
1.0
 40
2.0
 40
2.0
 40
2.0
 40
3.0
 40
3.0
 40
3.0
 40
4.0
 40
4.0
 40
4.0
 40
5.0
 40
5.0
 40
5.0
 40
6.0
 40
6.0
 40
6.0
 40
7.0
 40
7.0
 40
7.0
 40
8.0
 40
8.0
 40
8.0
 40
9.0
 40
9.0
 40
9.0
 40
10.0
 40
10.0
 40
10.0
 40
11.0
 40
11.0
 40
11.0
 40
11.0
 10
110.0298041174578
 20
-157.3516357028496
 10
110.0277370601667
 20
-157.398489001449
 10
110.0256700028755
 20
-157.5145887193019
 10
110.0256700028755
 20
-157.5590304510616
 10
110.0256700028755
 20
-157.5590304510616
 10
110.0256700028755
 20
-157.9059515664263
 10
110.0256700028755
 20
-157.9059515664263
 10
110.0256700028755
 20
-157.9927679726546
 10
110.0277370601667
 20
-158.1343613970984
 10
110.038416856171
 20
-158.2549397390821
 10
110.038416856171
 20
-158.2549397390821
 10
109.8479030758366
 20
-158.2549397390821
 10
109.8479030758366
 20
-158.2549397390821
 10
109.8523816999675
 20
-158.1915499821535
 10
109.8565158145498
 20
-158.1388400212292
 10
109.8585828718409
 20
-158.0837184934652
 10
109.8606499291321
 20
-157.9610730941903
 10
109.8627169864232
 20
-157.9462591836037
 10
109.8627169864232
 20
-157.901817451844
 10
109.8627169864232
 20
-157.901817451844
 10
109.8627169864232
 20
-157.5803900430702
 10
109.8627169864232
 20
-157.5803900430702
 10
109.8627169864232
 20
-157.5252685153062
 10
109.8499701331278
 20
-157.2861788886298
 10
109.8479030758366
 20
-157.2355359849967
 10
109.8479030758366
 20
-157.2355359849967
 10
110.0490966521752
 20
-157.2630967488787
 10
110.0490966521752
 20
-157.2630967488787
 10
110.0701117346353
 20
-157.2651638061698
 10
110.1018066130996
 20
-157.2692979207521
 10
110.1018066130996
 20
-157.294791627343
 10
110.1018066130996
 20
-157.3220078816765
 10
110.0511637094664
 20
-157.343367473685
 10
110.0298041174578
 20
-157.3516357028496
 97
        0
 97
        0
 92
        1
 93
        1
 72
     4
 94
        3
 73
     0
 74
     1
 95
       83
 96
       79
 40
0.0
 40
0.0
 40
0.0
 40
0.0
 40
1.0
 40
1.0
 40
1.0
 40
2.0
 40
2.0
 40
2.0
 40
3.0
 40
3.0
 40
3.0
 40
4.0
 40
4.0
 40
4.0
 40
5.0
 40
5.0
 40
5.0
 40
6.0
 40
6.0
 40
6.0
 40
7.0
 40
7.0
 40
7.0
 40
8.0
 40
8.0
 40
8.0
 40
9.0
 40
9.0
 40
9.0
 40
10.0
 40
10.0
 40
10.0
 40
11.0
 40
11.0
 40
11.0
 40
12.0
 40
12.0
 40
12.0
 40
13.0
 40
13.0
 40
13.0
 40
14.0
 40
14.0
 40
14.0
 40
15.0
 40
15.0
 40
15.0
 40
16.0
 40
16.0
 40
16.0
 40
17.0
 40
17.0
 40
17.0
 40
18.0
 40
18.0
 40
18.0
 40
19.0
 40
19.0
 40
19.0
 40
20.0
 40
20.0
 40
20.0
 40
21.0
 40
21.0
 40
21.0
 40
22.0
 40
22.0
 40
22.0
 40
23.0
 40
23.0
 40
23.0
 40
24.0
 40
24.0
 40
24.0
 40
25.0
 40
25.0
 40
25.0
 40
26.0
 40
26.0
 40
26.0
 40
26.0
 10
110.831822346424
 20
-157.6734076211719
 10
110.831822346424
 20
-157.6734076211719
 10
110.7343261441914
 20
-157.6734076211719
 10
110.7343261441914
 20
-157.6734076211719
 10
110.7343261441914
 20
-157.6734076211719
 10
110.7343261441914
 20
-157.9207654770129
 10
110.7343261441914
 20
-157.9207654770129
 10
110.7343261441914
 20
-157.9207654770129
 10
110.8170084358374
 20
-157.9207654770129
 10
110.8170084358374
 20
-157.9207654770129
 10
110.8824652500572
 20
-157.9207654770129
 10
111.0219916172098
 20
-157.9166313624306
 10
111.1215548767335
 20
-157.9080186237175
 10
111.1215548767335
 20
-157.9080186237175
 10
111.1215548767335
 20
-158.0878526080475
 10
111.1215548767335
 20
-158.0878526080475
 10
111.0285372986318
 20
-158.0795843788829
 10
110.8783311354749
 20
-158.0754502643006
 10
110.8170084358374
 20
-158.0754502643006
 10
110.8170084358374
 20
-158.0754502643006
 10
110.5121174853928
 20
-158.0754502643006
 10
110.5121174853928
 20
-158.0754502643006
 10
110.4594075244685
 20
-158.0754502643006
 10
110.3133354758939
 20
-158.0795843788829
 10
110.2075710444967
 20
-158.0878526080475
 10
110.2075710444967
 20
-158.0878526080475
 10
110.2075710444967
 20
-157.9080186237175
 10
110.2075710444967
 20
-157.9080186237175
 10
110.3071343040204
 20
-157.9166313624306
 10
110.4466606711731
 20
-157.9207654770129
 10
110.5121174853928
 20
-157.9207654770129
 10
110.5121174853928
 20
-157.9207654770129
 10
110.5565592171525
 20
-157.9207654770129
 10
110.5565592171525
 20
-157.9207654770129
 10
110.5565592171525
 20
-157.9207654770129
 10
110.5565592171525
 20
-157.6734076211719
 10
110.5565592171525
 20
-157.6734076211719
 10
110.5565592171525
 20
-157.6734076211719
 10
110.4828341737682
 20
-157.6734076211719
 10
110.4828341737682
 20
-157.6734076211719
 10
110.4211669645822
 20
-157.6734076211719
 10
110.2540798335476
 20
-157.6775417357542
 10
110.1335014915638
 20
-157.6861544744673
 10
110.1335014915638
 20
-157.6861544744673
 10
110.1335014915638
 20
-157.5083875474285
 10
110.1335014915638
 20
-157.5083875474285
 10
110.2478786616742
 20
-157.5145887193019
 10
110.4063530539956
 20
-157.5190673434327
 10
110.4828341737682
 20
-157.5190673434327
 10
110.4828341737682
 20
-157.5190673434327
 10
110.5544921598614
 20
-157.5190673434327
 10
110.5544921598614
 20
-157.5190673434327
 10
110.5503580452791
 20
-157.3664496134362
 10
110.5482909879879
 20
-157.3326876776807
 10
110.541745306566
 20
-157.239670099579
 10
110.541745306566
 20
-157.239670099579
 10
110.7536186789088
 20
-157.2630967488787
 10
110.7536186789088
 20
-157.2630967488787
 10
110.7787678759511
 20
-157.2651638061698
 10
110.8021945252508
 20
-157.2692979207521
 10
110.8021945252508
 20
-157.2923800605033
 10
110.8021945252508
 20
-157.3244194485161
 10
110.7577527934911
 20
-157.3413004163938
 10
110.7343261441914
 20
-157.3495686455584
 10
110.7343261441914
 20
-157.3495686455584
 10
110.7343261441914
 20
-157.5190673434327
 10
110.7343261441914
 20
-157.5190673434327
 10
110.7343261441914
 20
-157.5190673434327
 10
110.831822346424
 20
-157.5190673434327
 10
110.831822346424
 20
-157.5190673434327
 10
110.907958956648
 20
-157.5190673434327
 10
111.0664333489695
 20
-157.5145887193019
 10
111.182877576371
 20
-157.5083875474285
 10
111.182877576371
 20
-157.5083875474285
 10
111.182877576371
 20
-157.6861544744673
 10
111.182877576371
 20
-157.6861544744673
 10
111.0750460876826
 20
-157.6796087930454
 10
110.901413275226
 20
-157.6734076211719
 10
110.831822346424
 20
-157.6734076211719
 97
        0
 97
        0
 92
        1
 93
        1
 72
     4
 94
        3
 73
     0
 74
     1
 95
       17
 96
       13
 40
0.0
 40
0.0
 40
0.0
 40
0.0
 40
1.0
 40
1.0
 40
1.0
 40
2.0
 40
2.0
 40
2.0
 40
3.0
 40
3.0
 40
3.0
 40
4.0
 40
4.0
 40
4.0
 40
4.0
 10
110.5861870383257
 20
-158.4709472260073
 10
110.5861870383257
 20
-158.4709472260073
 10
110.3832709142445
 20
-158.4709472260073
 10
110.3832709142445
 20
-158.4709472260073
 10
110.4108316781265
 20
-158.5302028683536
 10
110.4656086963419
 20
-158.6022053639953
 10
110.4931694602239
 20
-158.6314886756199
 10
110.5207302241059
 20
-158.6170192745818
 10
110.6351073942162
 20
-158.5532850081048
 10
110.7260579150268
 20
-158.4709472260073
 10
110.7260579150268
 20
-158.4709472260073
 10
110.5861870383257
 20
-158.4709472260073
 10
110.5861870383257
 20
-158.4709472260073
 97
        0
 97
        0
 75
     2
 76
     1
 98
        0
  0
SPLINE
  5
B2
330
9F
100
AcDbEntity
  8
_U+30EC_U+30A4_U+30E4_U+30FC 1
370
     0
100
AcDbSpline
210
0.0
220
0.0
230
1.0
 70
    11
 71
     3
 72
    77
 73
    73
 74
     0
 42
0.0000000001
 43
0.0000000001
 12
1.0
 22
0.0
 32
0.0
 13
1.0
 23
0.0
 33
0.0
 40
0.0
 40
0.0
 40
0.0
 40
0.0
 40
1.0
 40
1.0
 40
1.0
 40
2.0
 40
2.0
 40
2.0
 40
3.0
 40
3.0
 40
3.0
 40
4.0
 40
4.0
 40
4.0
 40
5.0
 40
5.0
 40
5.0
 40
6.0
 40
6.0
 40
6.0
 40
7.0
 40
7.0
 40
7.0
 40
8.0
 40
8.0
 40
8.0
 40
9.0
 40
9.0
 40
9.0
 40
10.0
 40
10.0
 40
10.0
 40
11.0
 40
11.0
 40
11.0
 40
12.0
 40
12.0
 40
12.0
 40
13.0
 40
13.0
 40
13.0
 40
14.0
 40
14.0
 40
14.0
 40
15.0
 40
15.0
 40
15.0
 40
16.0
 40
16.0
 40
16.0
 40
17.0
 40
17.0
 40
17.0
 40
18.0
 40
18.0
 40
18.0
 40
19.0
 40
19.0
 40
19.0
 40
20.0
 40
20.0
 40
20.0
 40
21.0
 40
21.0
 40
21.0
 40
22.0
 40
22.0
 40
22.0
 40
23.0
 40
23.0
 40
23.0
 40
24.0
 40
24.0
 40
24.0
 40
24.0
 10
113.0773355837098
 20
-159.101399699808
 30
0.0
 10
113.030826794659
 20
-159.1265488968503
 30
0.0
 10
112.9061143380929
 20
-159.1392957501457
 30
0.0
 10
112.8275661610292
 20
-159.1392957501457
 30
0.0
 10
112.8151638172823
 20
-159.1392957501457
 30
0.0
 10
112.7896701106915
 20
-159.1392957501457
 30
0.0
 10
112.755908174936
 20
-159.1351616355634
 30
0.0
 10
112.755908174936
 20
-159.1351616355634
 30
0.0
 10
112.6584119727035
 20
-158.9088188621825
 30
0.0
 10
112.6584119727035
 20
-158.9088188621825
 30
0.0
 10
112.6880397938766
 20
-158.915020034056
 30
0.0
 10
112.7452283789318
 20
-158.9236327727691
 30
0.0
 10
112.8616726063332
 20
-158.9236327727691
 30
0.0
 10
112.9398762738484
 20
-158.9236327727691
 30
0.0
 10
112.9419433311395
 20
-158.8812580983005
 30
0.0
 10
112.9419433311395
 20
-158.8240695132454
 30
0.0
 10
112.9419433311395
 20
-158.8240695132454
 30
0.0
 10
112.9419433311395
 20
-158.4750813405896
 30
0.0
 10
112.9419433311395
 20
-158.4750813405896
 30
0.0
 10
112.9419433311395
 20
-158.4750813405896
 30
0.0
 10
112.4827121029557
 20
-158.4750813405896
 30
0.0
 10
112.4827121029557
 20
-158.4750813405896
 30
0.0
 10
112.4851236697954
 20
-158.6125406504511
 30
0.0
 10
112.4871907270865
 20
-158.81132265995
 30
0.0
 10
112.49339189896
 20
-158.9446478552291
 30
0.0
 10
112.4954589562511
 20
-158.9722086191111
 30
0.0
 10
112.4954589562511
 20
-159.0166503508708
 30
0.0
 10
112.5082058095466
 20
-159.0779730505083
 30
0.0
 10
112.5082058095466
 20
-159.0779730505083
 30
0.0
 10
112.2670491255791
 20
-159.0779730505083
 30
0.0
 10
112.2670491255791
 20
-159.0779730505083
 30
0.0
 10
112.2925428321699
 20
-158.9532605939422
 30
0.0
 10
112.2925428321699
 20
-158.6125406504511
 30
0.0
 10
112.2925428321699
 20
-158.4750813405896
 30
0.0
 10
112.2925428321699
 20
-158.4750813405896
 30
0.0
 10
111.8501925718638
 20
-158.4750813405896
 30
0.0
 10
111.8501925718638
 20
-158.4750813405896
 30
0.0
 10
111.8271104321127
 20
-158.6824760888016
 30
0.0
 10
111.7616536178929
 20
-158.9511935366511
 30
0.0
 10
111.5645941561366
 20
-159.1351616355634
 30
0.0
 10
111.5645941561366
 20
-159.1351616355634
 30
0.0
 10
111.376491942642
 20
-159.0125162362885
 30
0.0
 10
111.376491942642
 20
-159.0125162362885
 30
0.0
 10
111.6303954799049
 20
-158.7923746347811
 30
0.0
 10
111.6620903583692
 20
-158.460267430003
 30
0.0
 10
111.6620903583692
 20
-158.1281602252249
 30
0.0
 10
111.6620903583692
 20
-158.1281602252249
 30
0.0
 10
111.6620903583692
 20
-157.6923556463408
 30
0.0
 10
111.6620903583692
 20
-157.6923556463408
 30
0.0
 10
111.6620903583692
 20
-157.6565266532942
 30
0.0
 10
111.6600233010781
 20
-157.4236381984913
 30
0.0
 10
111.6514105623649
 20
-157.3220078816765
 30
0.0
 10
111.7912814390661
 20
-157.3326876776807
 30
0.0
 10
112.0324381230336
 20
-157.3326876776807
 30
0.0
 10
112.1760986047685
 20
-157.3326876776807
 30
0.0
 10
112.1760986047685
 20
-157.3326876776807
 30
0.0
 10
112.6353298329523
 20
-157.3326876776807
 30
0.0
 10
112.6353298329523
 20
-157.3326876776807
 30
0.0
 10
112.6501437435389
 20
-157.3326876776807
 30
0.0
 10
112.9991319161947
 20
-157.3326876776807
 30
0.0
 10
113.1576063085162
 20
-157.3220078816765
 30
0.0
 10
113.155539251225
 20
-157.3750623521493
 30
0.0
 10
113.1493380793516
 20
-157.5359483113105
 30
0.0
 10
113.1493380793516
 20
-157.5865912149436
 30
0.0
 10
113.1493380793516
 20
-157.5865912149436
 30
0.0
 10
113.1493380793516
 20
-158.1936170394447
 30
0.0
 10
113.1493380793516
 20
-158.1936170394447
 30
0.0
 10
113.1493380793516
 20
-158.2129095741621
 30
0.0
 10
113.1596733658073
 20
-158.7841064056165
 30
0.0
 10
113.1596733658073
 20
-158.8960720088871
 30
0.0
 10
113.1596733658073
 20
-158.9532605939422
 30
0.0
 10
113.1596733658073
 20
-159.0548909107571
 30
0.0
 10
113.0773355837098
 20
-159.101399699808
 30
0.0
  0
POLYLINE
  5
B3
330
9F
100
AcDbEntity
  8
_U+30EC_U+30A4_U+30E4_U+30FC 1
370
     0
100
AcDb2dPolyline
 66
     1
 10
0.0
 20
0.0
 30
0.0
  0
VERTEX
  5
B4
330
B3
100
AcDbEntity
  8
_U+30EC_U+30A4_U+30E4_U+30FC 1
370
     0
100
AcDbVertex
100
AcDb2dVertex
 10
112.2925428321699
 20
-157.5145887193019
 30
0.0
  0
VERTEX
  5
B5
330
B3
100
AcDbEntity
  8
_U+30EC_U+30A4_U+30E4_U+30FC 1
370
     0
100
AcDbVertex
100
AcDb2dVertex
 10
111.8546711959947
 20
-157.5145887193019
 30
0.0
  0
VERTEX
  5
B6
330
B3
100
AcDbEntity
  8
_U+30EC_U+30A4_U+30E4_U+30FC 1
370
     0
100
AcDbVertex
100
AcDb2dVertex
 10
111.8546711959947
 20
-157.819135160198
 30
0.0
  0
VERTEX
  5
B7
330
B3
100
AcDbEntity
  8
_U+30EC_U+30A4_U+30E4_U+30FC 1
370
     0
100
AcDbVertex
100
AcDb2dVertex
 10
112.2925428321699
 20
-157.819135160198
 30
0.0
  0
VERTEX
  5
B8
330
B3
100
AcDbEntity
  8
_U+30EC_U+30A4_U+30E4_U+30FC 1
370
     0
100
AcDbVertex
100
AcDb2dVertex
 10
112.2925428321699
 20
-157.5145887193019
 30
0.0
  0
SEQEND
  5
B9
330
B3
100
AcDbEntity
  8
_U+30EC_U+30A4_U+30E4_U+30FC 1
370
     0
  0
POLYLINE
  5
BA
330
9F
100
AcDbEntity
  8
_U+30EC_U+30A4_U+30E4_U+30FC 1
370
     0
100
AcDb2dPolyline
 66
     1
 10
0.0
 20
0.0
 30
0.0
  0
VERTEX
  5
BB
330
BA
100
AcDbEntity
  8
_U+30EC_U+30A4_U+30E4_U+30FC 1
370
     0
100
AcDbVertex
100
AcDb2dVertex
 10
112.2925428321699
 20
-157.9865668007811
 30
0.0
  0
VERTEX
  5
BC
330
BA
100
AcDbEntity
  8
_U+30EC_U+30A4_U+30E4_U+30FC 1
370
     0
100
AcDbVertex
100
AcDb2dVertex
 10
111.8546711959947
 20
-157.9865668007811
 30
0.0
  0
VERTEX
  5
BD
330
BA
100
AcDbEntity
  8
_U+30EC_U+30A4_U+30E4_U+30FC 1
370
     0
100
AcDbVertex
100
AcDb2dVertex
 10
111.8546711959947
 20
-158.2952473562595
 30
0.0
  0
VERTEX
  5
BE
330
BA
100
AcDbEntity
  8
_U+30EC_U+30A4_U+30E4_U+30FC 1
370
     0
100
AcDbVertex
100
AcDb2dVertex
 10
112.2925428321699
 20
-158.2952473562595
 30
0.0
  0
VERTEX
  5
BF
330
BA
100
AcDbEntity
  8
_U+30EC_U+30A4_U+30E4_U+30FC 1
370
     0
100
AcDbVertex
100
AcDb2dVertex
 10
112.2925428321699
 20
-157.9865668007811
 30
0.0
  0
SEQEND
  5
C0
330
BA
100
AcDbEntity
  8
_U+30EC_U+30A4_U+30E4_U+30FC 1
370
     0
  0
POLYLINE
  5
C1
330
9F
100
AcDbEntity
  8
_U+30EC_U+30A4_U+30E4_U+30FC 1
370
     0
100
AcDb2dPolyline
 66
     1
 10
0.0
 20
0.0
 30
0.0
  0
VERTEX
  5
C2
330
C1
100
AcDbEntity
  8
_U+30EC_U+30A4_U+30E4_U+30FC 1
370
     0
100
AcDbVertex
100
AcDb2dVertex
 10
112.9419433311395
 20
-157.5145887193019
 30
0.0
  0
VERTEX
  5
C3
330
C1
100
AcDbEntity
  8
_U+30EC_U+30A4_U+30E4_U+30FC 1
370
     0
100
AcDbVertex
100
AcDb2dVertex
 10
112.4827121029557
 20
-157.5145887193019
 30
0.0
  0
VERTEX
  5
C4
330
C1
100
AcDbEntity
  8
_U+30EC_U+30A4_U+30E4_U+30FC 1
370
     0
100
AcDbVertex
100
AcDb2dVertex
 10
112.4827121029557
 20
-157.819135160198
 30
0.0
  0
VERTEX
  5
C5
330
C1
100
AcDbEntity
  8
_U+30EC_U+30A4_U+30E4_U+30FC 1
370
     0
100
AcDbVertex
100
AcDb2dVertex
 10
112.9419433311395
 20
-157.819135160198
 30
0.0
  0
VERTEX
  5
C6
330
C1
100
AcDbEntity
  8
_U+30EC_U+30A4_U+30E4_U+30FC 1
370
     0
100
AcDbVertex
100
AcDb2dVertex
 10
112.9419433311395
 20
-157.5145887193019
 30
0.0
  0
SEQEND
  5
C7
330
C1
100
AcDbEntity
  8
_U+30EC_U+30A4_U+30E4_U+30FC 1
370
     0
  0
POLYLINE
  5
C8
330
9F
100
AcDbEntity
  8
_U+30EC_U+30A4_U+30E4_U+30FC 1
370
     0
100
AcDb2dPolyline
 66
     1
 10
0.0
 20
0.0
 30
0.0
  0
VERTEX
  5
C9
330
C8
100
AcDbEntity
  8
_U+30EC_U+30A4_U+30E4_U+30FC 1
370
     0
100
AcDbVertex
100
AcDb2dVertex
 10
112.9419433311395
 20
-157.9865668007811
 30
0.0
  0
VERTEX
  5
CA
330
C8
100
AcDbEntity
  8
_U+30EC_U+30A4_U+30E4_U+30FC 1
370
     0
100
AcDbVertex
100
AcDb2dVertex
 10
112.4827121029557
 20
-157.9865668007811
 30
0.0
  0
VERTEX
  5
CB
330
C8
100
AcDbEntity
  8
_U+30EC_U+30A4_U+30E4_U+30FC 1
370
     0
100
AcDbVertex
100
AcDb2dVertex
 10
112.4827121029557
 20
-158.2952473562595
 30
0.0
  0
VERTEX
  5
CC
330
C8
100
AcDbEntity
  8
_U+30EC_U+30A4_U+30E4_U+30FC 1
370
     0
100
AcDbVertex
100
AcDb2dVertex
 10
112.9419433311395
 20
-158.2952473562595
 30
0.0
  0
VERTEX
  5
CD
330
C8
100
AcDbEntity
  8
_U+30EC_U+30A4_U+30E4_U+30FC 1
370
     0
100
AcDbVertex
100
AcDb2dVertex
 10
112.9419433311395
 20
-157.9865668007811
 30
0.0
  0
SEQEND
  5
CE
330
C8
100
AcDbEntity
  8
_U+30EC_U+30A4_U+30E4_U+30FC 1
370
     0
  0
HATCH
  5
CF
330
9F
100
AcDbEntity
  8
_U+30EC_U+30A4_U+30E4_U+30FC 1
 62
   179
420
  2234388
100
AcDbHatch
 10
0.0
 20
0.0
 30
0.0
210
0.0
220
0.0
230
1.0
  2
SOLID
 70
     1
 71
     0
 91
        5
 92
        1
 93
        1
 72
     4
 94
        3
 73
     0
 74
     1
 95
       77
 96
       73
 40
0.0
 40
0.0
 40
0.0
 40
0.0
 40
1.0
 40
1.0
 40
1.0
 40
2.0
 40
2.0
 40
2.0
 40
3.0
 40
3.0
 40
3.0
 40
4.0
 40
4.0
 40
4.0
 40
5.0
 40
5.0
 40
5.0
 40
6.0
 40
6.0
 40
6.0
 40
7.0
 40
7.0
 40
7.0
 40
8.0
 40
8.0
 40
8.0
 40
9.0
 40
9.0
 40
9.0
 40
10.0
 40
10.0
 40
10.0
 40
11.0
 40
11.0
 40
11.0
 40
12.0
 40
12.0
 40
12.0
 40
13.0
 40
13.0
 40
13.0
 40
14.0
 40
14.0
 40
14.0
 40
15.0
 40
15.0
 40
15.0
 40
16.0
 40
16.0
 40
16.0
 40
17.0
 40
17.0
 40
17.0
 40
18.0
 40
18.0
 40
18.0
 40
19.0
 40
19.0
 40
19.0
 40
20.0
 40
20.0
 40
20.0
 40
21.0
 40
21.0
 40
21.0
 40
22.0
 40
22.0
 40
22.0
 40
23.0
 40
23.0
 40
23.0
 40
24.0
 40
24.0
 40
24.0
 40
24.0
 10
113.0773355837098
 20
-159.101399699808
 10
113.030826794659
 20
-159.1265488968503
 10
112.9061143380929
 20
-159.1392957501457
 10
112.8275661610292
 20
-159.1392957501457
 10
112.8151638172823
 20
-159.1392957501457
 10
112.7896701106915
 20
-159.1392957501457
 10
112.755908174936
 20
-159.1351616355634
 10
112.755908174936
 20
-159.1351616355634
 10
112.6584119727035
 20
-158.9088188621825
 10
112.6584119727035
 20
-158.9088188621825
 10
112.6880397938766
 20
-158.915020034056
 10
112.7452283789318
 20
-158.9236327727691
 10
112.8616726063332
 20
-158.9236327727691
 10
112.9398762738484
 20
-158.9236327727691
 10
112.9419433311395
 20
-158.8812580983005
 10
112.9419433311395
 20
-158.8240695132454
 10
112.9419433311395
 20
-158.8240695132454
 10
112.9419433311395
 20
-158.4750813405896
 10
112.9419433311395
 20
-158.4750813405896
 10
112.9419433311395
 20
-158.4750813405896
 10
112.4827121029557
 20
-158.4750813405896
 10
112.4827121029557
 20
-158.4750813405896
 10
112.4851236697954
 20
-158.6125406504511
 10
112.4871907270865
 20
-158.81132265995
 10
112.49339189896
 20
-158.9446478552291
 10
112.4954589562511
 20
-158.9722086191111
 10
112.4954589562511
 20
-159.0166503508708
 10
112.5082058095466
 20
-159.0779730505083
 10
112.5082058095466
 20
-159.0779730505083
 10
112.2670491255791
 20
-159.0779730505083
 10
112.2670491255791
 20
-159.0779730505083
 10
112.2925428321699
 20
-158.9532605939422
 10
112.2925428321699
 20
-158.6125406504511
 10
112.2925428321699
 20
-158.4750813405896
 10
112.2925428321699
 20
-158.4750813405896
 10
111.8501925718638
 20
-158.4750813405896
 10
111.8501925718638
 20
-158.4750813405896
 10
111.8271104321127
 20
-158.6824760888016
 10
111.7616536178929
 20
-158.9511935366511
 10
111.5645941561366
 20
-159.1351616355634
 10
111.5645941561366
 20
-159.1351616355634
 10
111.376491942642
 20
-159.0125162362885
 10
111.376491942642
 20
-159.0125162362885
 10
111.6303954799049
 20
-158.7923746347811
 10
111.6620903583692
 20
-158.460267430003
 10
111.6620903583692
 20
-158.1281602252249
 10
111.6620903583692
 20
-158.1281602252249
 10
111.6620903583692
 20
-157.6923556463408
 10
111.6620903583692
 20
-157.6923556463408
 10
111.6620903583692
 20
-157.6565266532942
 10
111.6600233010781
 20
-157.4236381984913
 10
111.6514105623649
 20
-157.3220078816765
 10
111.7912814390661
 20
-157.3326876776807
 10
112.0324381230336
 20
-157.3326876776807
 10
112.1760986047685
 20
-157.3326876776807
 10
112.1760986047685
 20
-157.3326876776807
 10
112.6353298329523
 20
-157.3326876776807
 10
112.6353298329523
 20
-157.3326876776807
 10
112.6501437435389
 20
-157.3326876776807
 10
112.9991319161947
 20
-157.3326876776807
 10
113.1576063085162
 20
-157.3220078816765
 10
113.155539251225
 20
-157.3750623521493
 10
113.1493380793516
 20
-157.5359483113105
 10
113.1493380793516
 20
-157.5865912149436
 10
113.1493380793516
 20
-157.5865912149436
 10
113.1493380793516
 20
-158.1936170394447
 10
113.1493380793516
 20
-158.1936170394447
 10
113.1493380793516
 20
-158.2129095741621
 10
113.1596733658073
 20
-158.7841064056165
 10
113.1596733658073
 20
-158.8960720088871
 10
113.1596733658073
 20
-158.9532605939422
 10
113.1596733658073
 20
-159.0548909107571
 10
113.0773355837098
 20
-159.101399699808
 97
        0
 97
        0
 92
        1
 93
        4
 72
     1
 10
112.2925428321699
 20
-157.5145887193019
 11
111.8546711959947
 21
-157.5145887193019
 72
     1
 10
111.8546711959947
 20
-157.5145887193019
 11
111.8546711959947
 21
-157.819135160198
 72
     1
 10
111.8546711959947
 20
-157.819135160198
 11
112.2925428321699
 21
-157.819135160198
 72
     1
 10
112.2925428321699
 20
-157.819135160198
 11
112.2925428321699
 21
-157.5145887193019
 97
        0
 92
        1
 93
        4
 72
     1
 10
112.2925428321699
 20
-157.9865668007811
 11
111.8546711959947
 21
-157.9865668007811
 72
     1
 10
111.8546711959947
 20
-157.9865668007811
 11
111.8546711959947
 21
-158.2952473562595
 72
     1
 10
111.8546711959947
 20
-158.2952473562595
 11
112.2925428321699
 21
-158.2952473562595
 72
     1
 10
112.2925428321699
 20
-158.2952473562595
 11
112.2925428321699
 21
-157.9865668007811
 97
        0
 92
        1
 93
        4
 72
     1
 10
112.9419433311395
 20
-157.5145887193019
 11
112.4827121029557
 21
-157.5145887193019
 72
     1
 10
112.4827121029557
 20
-157.5145887193019
 11
112.4827121029557
 21
-157.819135160198
 72
     1
 10
112.4827121029557
 20
-157.819135160198
 11
112.9419433311395
 21
-157.819135160198
 72
     1
 10
112.9419433311395
 20
-157.819135160198
 11
112.9419433311395
 21
-157.5145887193019
 97
        0
 92
        1
 93
        4
 72
     1
 10
112.9419433311395
 20
-157.9865668007811
 11
112.4827121029557
 21
-157.9865668007811
 72
     1
 10
112.4827121029557
 20
-157.9865668007811
 11
112.4827121029557
 21
-158.2952473562595
 72
     1
 10
112.4827121029557
 20
-158.2952473562595
 11
112.9419433311395
 21
-158.2952473562595
 72
     1
 10
112.9419433311395
 20
-158.2952473562595
 11
112.9419433311395
 21
-157.9865668007811
 97
        0
 75
     2
 76
     1
 98
        0
  0
SPLINE
  5
D0
330
9F
100
AcDbEntity
  8
_U+30EC_U+30A4_U+30E4_U+30FC 1
370
     0
100
AcDbSpline
210
0.0
220
0.0
230
1.0
 70
    11
 71
     3
 72
    44
 73
    40
 74
     0
 42
0.0000000001
 43
0.0000000001
 12
1.0
 22
0.0
 32
0.0
 13
1.0
 23
0.0
 33
0.0
 40
0.0
 40
0.0
 40
0.0
 40
0.0
 40
1.0
 40
1.0
 40
1.0
 40
2.0
 40
2.0
 40
2.0
 40
3.0
 40
3.0
 40
3.0
 40
4.0
 40
4.0
 40
4.0
 40
5.0
 40
5.0
 40
5.0
 40
6.0
 40
6.0
 40
6.0
 40
7.0
 40
7.0
 40
7.0
 40
8.0
 40
8.0
 40
8.0
 40
9.0
 40
9.0
 40
9.0
 40
10.0
 40
10.0
 40
10.0
 40
11.0
 40
11.0
 40
11.0
 40
12.0
 40
12.0
 40
12.0
 40
13.0
 40
13.0
 40
13.0
 40
13.0
 10
108.6259277072185
 20
-160.3912434494855
 30
0.0
 10
108.5139621039479
 20
-160.7591796473102
 30
0.0
 10
108.4633192003147
 20
-160.9179985491802
 30
0.0
 10
108.266604248107
 20
-161.1674234623123
 30
0.0
 10
108.0822916396461
 20
-161.398244859824
 30
0.0
 10
107.8456135798094
 20
-161.5842800160275
 30
0.0
 10
107.5662163359557
 20
-161.6772975941293
 30
0.0
 10
107.5662163359557
 20
-161.6772975941293
 30
0.0
 10
107.3736354983302
 20
-161.4974636097992
 30
0.0
 10
107.3736354983302
 20
-161.4974636097992
 30
0.0
 10
108.0147677681352
 20
-161.3451903893512
 30
0.0
 10
108.3448079156221
 20
-160.7888074684834
 30
0.0
 10
108.4081976725507
 20
-160.348868775017
 30
0.0
 10
108.4081976725507
 20
-160.348868775017
 30
0.0
 10
107.6423529461797
 20
-160.348868775017
 30
0.0
 10
107.6423529461797
 20
-160.348868775017
 30
0.0
 10
107.5493353680779
 20
-160.348868775017
 30
0.0
 10
107.3653672691656
 20
-160.3530028895993
 30
0.0
 10
107.2086154245867
 20
-160.3719509147681
 30
0.0
 10
107.2086154245867
 20
-160.3719509147681
 30
0.0
 10
107.2086154245867
 20
-160.1521538228092
 30
0.0
 10
107.2086154245867
 20
-160.1521538228092
 30
0.0
 10
107.295431830815
 20
-160.1731689052692
 30
0.0
 10
107.5472683107868
 20
-160.1731689052692
 30
0.0
 10
107.646487060762
 20
-160.1731689052692
 30
0.0
 10
107.646487060762
 20
-160.1731689052692
 30
0.0
 10
108.0781575250638
 20
-160.1731689052692
 30
0.0
 10
108.0781575250638
 20
-160.1731689052692
 30
0.0
 10
108.1205321995324
 20
-160.1731689052692
 30
0.0
 10
108.3551432020779
 20
-160.1711018479781
 30
0.0
 10
108.3933837619642
 20
-160.1649006761046
 30
0.0
 10
108.4357584364327
 20
-160.1583549946826
 30
0.0
 10
108.4378254937239
 20
-160.1562879373915
 30
0.0
 10
108.4991481933613
 20
-160.1159803202141
 30
0.0
 10
108.4991481933613
 20
-160.1159803202141
 30
0.0
 10
108.687250406856
 20
-160.2706651075018
 30
0.0
 10
108.687250406856
 20
-160.2706651075018
 30
0.0
 10
108.6579670952313
 20
-160.3002929286749
 30
0.0
 10
108.6431531846448
 20
-160.3319878071392
 30
0.0
 10
108.6259277072185
 20
-160.3912434494855
 30
0.0
  0
SPLINE
  5
D1
330
9F
100
AcDbEntity
  8
_U+30EC_U+30A4_U+30E4_U+30FC 1
370
     0
100
AcDbSpline
210
0.0
220
0.0
230
1.0
 70
    11
 71
     3
 72
    17
 73
    13
 74
     0
 42
0.0000000001
 43
0.0000000001
 12
1.0
 22
0.0
 32
0.0
 13
1.0
 23
0.0
 33
0.0
 40
0.0
 40
0.0
 40
0.0
 40
0.0
 40
1.0
 40
1.0
 40
1.0
 40
2.0
 40
2.0
 40
2.0
 40
3.0
 40
3.0
 40
3.0
 40
4.0
 40
4.0
 40
4.0
 40
4.0
 10
108.8353895127217
 20
-160.1921169304381
 30
0.0
 10
108.7086099988645
 20
-160.1921169304381
 30
0.0
 10
108.6069796820497
 20
-160.0908311231717
 30
0.0
 10
108.6069796820497
 20
-159.963707099766
 30
0.0
 10
108.6069796820497
 20
-159.8369275859088
 30
0.0
 10
108.7086099988645
 20
-159.7332302118028
 30
0.0
 10
108.8353895127217
 20
-159.7332302118028
 30
0.0
 10
108.9625135361274
 20
-159.7332302118028
 30
0.0
 10
109.0662109102335
 20
-159.8369275859088
 30
0.0
 10
109.0662109102335
 20
-159.963707099766
 30
0.0
 10
109.0662109102335
 20
-160.0908311231717
 30
0.0
 10
108.9625135361274
 20
-160.1921169304381
 30
0.0
 10
108.8353895127217
 20
-160.1921169304381
 30
0.0
  0
SPLINE
  5
D2
330
9F
100
AcDbEntity
  8
_U+30EC_U+30A4_U+30E4_U+30FC 1
370
     0
100
AcDbSpline
210
0.0
220
0.0
230
1.0
 70
    11
 71
     3
 72
    17
 73
    13
 74
     0
 42
0.0000000001
 43
0.0000000001
 12
1.0
 22
0.0
 32
0.0
 13
1.0
 23
0.0
 33
0.0
 40
0.0
 40
0.0
 40
0.0
 40
0.0
 40
1.0
 40
1.0
 40
1.0
 40
2.0
 40
2.0
 40
2.0
 40
3.0
 40
3.0
 40
3.0
 40
4.0
 40
4.0
 40
4.0
 40
4.0
 10
108.8333224554306
 20
-159.8620767829512
 30
0.0
 10
108.7785454372151
 20
-159.8620767829512
 30
0.0
 10
108.7341037054554
 20
-159.9065185147109
 30
0.0
 10
108.7341037054554
 20
-159.9616400424749
 30
0.0
 10
108.7341037054554
 20
-160.01882862753
 30
0.0
 10
108.7785454372151
 20
-160.067404473872
 30
0.0
 10
108.8374565700129
 20
-160.067404473872
 30
0.0
 10
108.8967122123592
 20
-160.067404473872
 30
0.0
 10
108.9370198295366
 20
-160.0167615702389
 30
0.0
 10
108.9370198295366
 20
-159.963707099766
 30
0.0
 10
108.9370198295366
 20
-159.9065185147109
 30
0.0
 10
108.8905110404857
 20
-159.8620767829512
 30
0.0
 10
108.8333224554306
 20
-159.8620767829512
 30
0.0
  0
HATCH
  5
D3
330
9F
100
AcDbEntity
  8
_U+30EC_U+30A4_U+30E4_U+30FC 1
 62
   179
420
  2234388
100
AcDbHatch
 10
0.0
 20
0.0
 30
0.0
210
0.0
220
0.0
230
1.0
  2
SOLID
 70
     1
 71
     0
 91
        3
 92
        1
 93
        1
 72
     4
 94
        3
 73
     0
 74
     1
 95
       44
 96
       40
 40
0.0
 40
0.0
 40
0.0
 40
0.0
 40
1.0
 40
1.0
 40
1.0
 40
2.0
 40
2.0
 40
2.0
 40
3.0
 40
3.0
 40
3.0
 40
4.0
 40
4.0
 40
4.0
 40
5.0
 40
5.0
 40
5.0
 40
6.0
 40
6.0
 40
6.0
 40
7.0
 40
7.0
 40
7.0
 40
8.0
 40
8.0
 40
8.0
 40
9.0
 40
9.0
 40
9.0
 40
10.0
 40
10.0
 40
10.0
 40
11.0
 40
11.0
 40
11.0
 40
12.0
 40
12.0
 40
12.0
 40
13.0
 40
13.0
 40
13.0
 40
13.0
 10
108.6259277072185
 20
-160.3912434494855
 10
108.5139621039479
 20
-160.7591796473102
 10
108.4633192003147
 20
-160.9179985491802
 10
108.266604248107
 20
-161.1674234623123
 10
108.0822916396461
 20
-161.398244859824
 10
107.8456135798094
 20
-161.5842800160275
 10
107.5662163359557
 20
-161.6772975941293
 10
107.5662163359557
 20
-161.6772975941293
 10
107.3736354983302
 20
-161.4974636097992
 10
107.3736354983302
 20
-161.4974636097992
 10
108.0147677681352
 20
-161.3451903893512
 10
108.3448079156221
 20
-160.7888074684834
 10
108.4081976725507
 20
-160.348868775017
 10
108.4081976725507
 20
-160.348868775017
 10
107.6423529461797
 20
-160.348868775017
 10
107.6423529461797
 20
-160.348868775017
 10
107.5493353680779
 20
-160.348868775017
 10
107.3653672691656
 20
-160.3530028895993
 10
107.2086154245867
 20
-160.3719509147681
 10
107.2086154245867
 20
-160.3719509147681
 10
107.2086154245867
 20
-160.1521538228092
 10
107.2086154245867
 20
-160.1521538228092
 10
107.295431830815
 20
-160.1731689052692
 10
107.5472683107868
 20
-160.1731689052692
 10
107.646487060762
 20
-160.1731689052692
 10
107.646487060762
 20
-160.1731689052692
 10
108.0781575250638
 20
-160.1731689052692
 10
108.0781575250638
 20
-160.1731689052692
 10
108.1205321995324
 20
-160.1731689052692
 10
108.3551432020779
 20
-160.1711018479781
 10
108.3933837619642
 20
-160.1649006761046
 10
108.4357584364327
 20
-160.1583549946826
 10
108.4378254937239
 20
-160.1562879373915
 10
108.4991481933613
 20
-160.1159803202141
 10
108.4991481933613
 20
-160.1159803202141
 10
108.687250406856
 20
-160.2706651075018
 10
108.687250406856
 20
-160.2706651075018
 10
108.6579670952313
 20
-160.3002929286749
 10
108.6431531846448
 20
-160.3319878071392
 10
108.6259277072185
 20
-160.3912434494855
 97
        0
 97
        0
 92
        1
 93
        1
 72
     4
 94
        3
 73
     0
 74
     1
 95
       17
 96
       13
 40
0.0
 40
0.0
 40
0.0
 40
0.0
 40
1.0
 40
1.0
 40
1.0
 40
2.0
 40
2.0
 40
2.0
 40
3.0
 40
3.0
 40
3.0
 40
4.0
 40
4.0
 40
4.0
 40
4.0
 10
108.8353895127217
 20
-160.1921169304381
 10
108.7086099988645
 20
-160.1921169304381
 10
108.6069796820497
 20
-160.0908311231717
 10
108.6069796820497
 20
-159.963707099766
 10
108.6069796820497
 20
-159.8369275859088
 10
108.7086099988645
 20
-159.7332302118028
 10
108.8353895127217
 20
-159.7332302118028
 10
108.9625135361274
 20
-159.7332302118028
 10
109.0662109102335
 20
-159.8369275859088
 10
109.0662109102335
 20
-159.963707099766
 10
109.0662109102335
 20
-160.0908311231717
 10
108.9625135361274
 20
-160.1921169304381
 10
108.8353895127217
 20
-160.1921169304381
 97
        0
 97
        0
 92
        1
 93
        1
 72
     4
 94
        3
 73
     0
 74
     1
 95
       17
 96
       13
 40
0.0
 40
0.0
 40
0.0
 40
0.0
 40
1.0
 40
1.0
 40
1.0
 40
2.0
 40
2.0
 40
2.0
 40
3.0
 40
3.0
 40
3.0
 40
4.0
 40
4.0
 40
4.0
 40
4.0
 10
108.8333224554306
 20
-159.8620767829512
 10
108.7785454372151
 20
-159.8620767829512
 10
108.7341037054554
 20
-159.9065185147109
 10
108.7341037054554
 20
-159.9616400424749
 10
108.7341037054554
 20
-160.01882862753
 10
108.7785454372151
 20
-160.067404473872
 10
108.8374565700129
 20
-160.067404473872
 10
108.8967122123592
 20
-160.067404473872
 10
108.9370198295366
 20
-160.0167615702389
 10
108.9370198295366
 20
-159.963707099766
 10
108.9370198295366
 20
-159.9065185147109
 10
108.8905110404857
 20
-159.8620767829512
 10
108.8333224554306
 20
-159.8620767829512
 97
        0
 97
        0
 75
     2
 76
     1
 98
        0
  0
SPLINE
  5
D4
330
9F
100
AcDbEntity
  8
_U+30EC_U+30A4_U+30E4_U+30FC 1
370
     0
100
AcDbSpline
210
0.0
220
0.0
230
1.0
 70
    11
 71
     3
 72
    50
 73
    46
 74
     0
 42
0.0000000001
 43
0.0000000001
 12
1.0
 22
0.0
 32
0.0
 13
1.0
 23
0.0
 33
0.0
 40
0.0
 40
0.0
 40
0.0
 40
0.0
 40
1.0
 40
1.0
 40
1.0
 40
2.0
 40
2.0
 40
2.0
 40
3.0
 40
3.0
 40
3.0
 40
4.0
 40
4.0
 40
4.0
 40
5.0
 40
5.0
 40
5.0
 40
6.0
 40
6.0
 40
6.0
 40
7.0
 40
7.0
 40
7.0
 40
8.0
 40
8.0
 40
8.0
 40
9.0
 40
9.0
 40
9.0
 40
10.0
 40
10.0
 40
10.0
 40
11.0
 40
11.0
 40
11.0
 40
12.0
 40
12.0
 40
12.0
 40
13.0
 40
13.0
 40
13.0
 40
14.0
 40
14.0
 40
14.0
 40
15.0
 40
15.0
 40
15.0
 40
15.0
 10
110.6306287700854
 20
-160.6999240049639
 30
0.0
 10
110.5520805930217
 20
-160.8776909320028
 30
0.0
 10
110.4166883404514
 20
-161.0850856802149
 30
0.0
 10
110.2792290305899
 20
-161.2246120473675
 30
0.0
 10
110.1100748422642
 20
-161.3958332929844
 30
0.0
 10
109.9471218258118
 20
-161.4847167565038
 30
0.0
 10
109.6277614743292
 20
-161.6266546904961
 30
0.0
 10
109.6277614743292
 20
-161.6266546904961
 30
0.0
 10
109.4586072860034
 20
-161.438207967453
 30
0.0
 10
109.4586072860034
 20
-161.438207967453
 30
0.0
 10
109.6446424422069
 20
-161.4151258277018
 30
0.0
 10
109.8158636878238
 20
-161.3283094214735
 30
0.0
 10
109.9684814178204
 20
-161.2225449900763
 30
0.0
 10
110.2306531842479
 20
-161.0406439484551
 30
0.0
 10
110.4211669645822
 20
-160.7274847688459
 30
0.0
 10
110.4697428109242
 20
-160.5455837272247
 30
0.0
 10
110.4697428109242
 20
-160.5455837272247
 30
0.0
 10
109.7989827199461
 20
-160.5455837272247
 30
0.0
 10
109.7989827199461
 20
-160.5455837272247
 30
0.0
 10
109.6405083276246
 20
-160.5455837272247
 30
0.0
 10
109.3483642304754
 20
-160.5538519563893
 30
0.0
 10
109.1960910100274
 20
-160.5710774338156
 30
0.0
 10
109.1960910100274
 20
-160.5710774338156
 30
0.0
 10
109.1960910100274
 20
-160.342323093595
 30
0.0
 10
109.1960910100274
 20
-160.342323093595
 30
0.0
 10
109.2301974553313
 20
-160.348868775017
 30
0.0
 10
109.2553466523737
 20
-160.3550699468904
 30
0.0
 10
109.3084011228465
 20
-160.3592040614727
 30
0.0
 10
109.4096869301129
 20
-160.3657497428947
 30
0.0
 10
109.6067463918692
 20
-160.3678168001858
 30
0.0
 10
109.6911512312578
 20
-160.3678168001858
 30
0.0
 10
109.6911512312578
 20
-160.3678168001858
 30
0.0
 10
110.1968912484924
 20
-160.3678168001858
 30
0.0
 10
110.1968912484924
 20
-160.3678168001858
 30
0.0
 10
110.2644151200033
 20
-160.3678168001858
 30
0.0
 10
110.4104871685779
 20
-160.3636826856035
 30
0.0
 10
110.4718098682154
 20
-160.3571370041816
 30
0.0
 10
110.5438123638571
 20
-160.348868775017
 30
0.0
 10
110.5713731277391
 20
-160.3340548644304
 30
0.0
 10
110.6051350634946
 20
-160.3106282151307
 30
0.0
 10
110.6051350634946
 20
-160.3106282151307
 30
0.0
 10
110.770155137238
 20
-160.4777153461653
 30
0.0
 10
110.770155137238
 20
-160.4777153461653
 30
0.0
 10
110.7002196988875
 20
-160.5455837272247
 30
0.0
 10
110.6537109098366
 20
-160.6492811013307
 30
0.0
 10
110.6306287700854
 20
-160.6999240049639
 30
0.0
  0
SPLINE
  5
D5
330
9F
100
AcDbEntity
  8
_U+30EC_U+30A4_U+30E4_U+30FC 1
370
     0
100
AcDbSpline
210
0.0
220
0.0
230
1.0
 70
    11
 71
     3
 72
    29
 73
    25
 74
     0
 42
0.0000000001
 43
0.0000000001
 12
1.0
 22
0.0
 32
0.0
 13
1.0
 23
0.0
 33
0.0
 40
0.0
 40
0.0
 40
0.0
 40
0.0
 40
1.0
 40
1.0
 40
1.0
 40
2.0
 40
2.0
 40
2.0
 40
3.0
 40
3.0
 40
3.0
 40
4.0
 40
4.0
 40
4.0
 40
5.0
 40
5.0
 40
5.0
 40
6.0
 40
6.0
 40
6.0
 40
7.0
 40
7.0
 40
7.0
 40
8.0
 40
8.0
 40
8.0
 40
8.0
 10
110.1376356061461
 20
-160.073950155294
 30
0.0
 10
110.1376356061461
 20
-160.073950155294
 30
0.0
 10
109.7969156626549
 20
-160.073950155294
 30
0.0
 10
109.7969156626549
 20
-160.073950155294
 30
0.0
 10
109.6828830020932
 20
-160.073950155294
 30
0.0
 10
109.5664387746917
 20
-160.0780842698763
 30
0.0
 10
109.4520616045814
 20
-160.0928981804629
 30
0.0
 10
109.4520616045814
 20
-160.0928981804629
 30
0.0
 10
109.4520616045814
 20
-159.8834363749597
 30
0.0
 10
109.4520616045814
 20
-159.8834363749597
 30
0.0
 10
109.570572889274
 20
-159.8982502855463
 30
0.0
 10
109.7442057017306
 20
-159.9023844001286
 30
0.0
 10
109.7969156626549
 20
-159.9023844001286
 30
0.0
 10
109.7969156626549
 20
-159.9023844001286
 30
0.0
 10
110.1376356061461
 20
-159.9023844001286
 30
0.0
 10
110.1376356061461
 20
-159.9023844001286
 30
0.0
 10
110.2540798335476
 20
-159.9023844001286
 30
0.0
 10
110.3701795514005
 20
-159.8982502855463
 30
0.0
 10
110.486623778802
 20
-159.8834363749597
 30
0.0
 10
110.486623778802
 20
-159.8834363749597
 30
0.0
 10
110.486623778802
 20
-160.0928981804629
 30
0.0
 10
110.486623778802
 20
-160.0928981804629
 30
0.0
 10
110.3364176156451
 20
-160.073950155294
 30
0.0
 10
110.1524495167327
 20
-160.073950155294
 30
0.0
 10
110.1376356061461
 20
-160.073950155294
 30
0.0
  0
HATCH
  5
D6
330
9F
100
AcDbEntity
  8
_U+30EC_U+30A4_U+30E4_U+30FC 1
 62
   179
420
  2234388
100
AcDbHatch
 10
0.0
 20
0.0
 30
0.0
210
0.0
220
0.0
230
1.0
  2
SOLID
 70
     1
 71
     0
 91
        2
 92
        1
 93
        1
 72
     4
 94
        3
 73
     0
 74
     1
 95
       50
 96
       46
 40
0.0
 40
0.0
 40
0.0
 40
0.0
 40
1.0
 40
1.0
 40
1.0
 40
2.0
 40
2.0
 40
2.0
 40
3.0
 40
3.0
 40
3.0
 40
4.0
 40
4.0
 40
4.0
 40
5.0
 40
5.0
 40
5.0
 40
6.0
 40
6.0
 40
6.0
 40
7.0
 40
7.0
 40
7.0
 40
8.0
 40
8.0
 40
8.0
 40
9.0
 40
9.0
 40
9.0
 40
10.0
 40
10.0
 40
10.0
 40
11.0
 40
11.0
 40
11.0
 40
12.0
 40
12.0
 40
12.0
 40
13.0
 40
13.0
 40
13.0
 40
14.0
 40
14.0
 40
14.0
 40
15.0
 40
15.0
 40
15.0
 40
15.0
 10
110.6306287700854
 20
-160.6999240049639
 10
110.5520805930217
 20
-160.8776909320028
 10
110.4166883404514
 20
-161.0850856802149
 10
110.2792290305899
 20
-161.2246120473675
 10
110.1100748422642
 20
-161.3958332929844
 10
109.9471218258118
 20
-161.4847167565038
 10
109.6277614743292
 20
-161.6266546904961
 10
109.6277614743292
 20
-161.6266546904961
 10
109.4586072860034
 20
-161.438207967453
 10
109.4586072860034
 20
-161.438207967453
 10
109.6446424422069
 20
-161.4151258277018
 10
109.8158636878238
 20
-161.3283094214735
 10
109.9684814178204
 20
-161.2225449900763
 10
110.2306531842479
 20
-161.0406439484551
 10
110.4211669645822
 20
-160.7274847688459
 10
110.4697428109242
 20
-160.5455837272247
 10
110.4697428109242
 20
-160.5455837272247
 10
109.7989827199461
 20
-160.5455837272247
 10
109.7989827199461
 20
-160.5455837272247
 10
109.6405083276246
 20
-160.5455837272247
 10
109.3483642304754
 20
-160.5538519563893
 10
109.1960910100274
 20
-160.5710774338156
 10
109.1960910100274
 20
-160.5710774338156
 10
109.1960910100274
 20
-160.342323093595
 10
109.1960910100274
 20
-160.342323093595
 10
109.2301974553313
 20
-160.348868775017
 10
109.2553466523737
 20
-160.3550699468904
 10
109.3084011228465
 20
-160.3592040614727
 10
109.4096869301129
 20
-160.3657497428947
 10
109.6067463918692
 20
-160.3678168001858
 10
109.6911512312578
 20
-160.3678168001858
 10
109.6911512312578
 20
-160.3678168001858
 10
110.1968912484924
 20
-160.3678168001858
 10
110.1968912484924
 20
-160.3678168001858
 10
110.2644151200033
 20
-160.3678168001858
 10
110.4104871685779
 20
-160.3636826856035
 10
110.4718098682154
 20
-160.3571370041816
 10
110.5438123638571
 20
-160.348868775017
 10
110.5713731277391
 20
-160.3340548644304
 10
110.6051350634946
 20
-160.3106282151307
 10
110.6051350634946
 20
-160.3106282151307
 10
110.770155137238
 20
-160.4777153461653
 10
110.770155137238
 20
-160.4777153461653
 10
110.7002196988875
 20
-160.5455837272247
 10
110.6537109098366
 20
-160.6492811013307
 10
110.6306287700854
 20
-160.6999240049639
 97
        0
 97
        0
 92
        1
 93
        1
 72
     4
 94
        3
 73
     0
 74
     1
 95
       29
 96
       25
 40
0.0
 40
0.0
 40
0.0
 40
0.0
 40
1.0
 40
1.0
 40
1.0
 40
2.0
 40
2.0
 40
2.0
 40
3.0
 40
3.0
 40
3.0
 40
4.0
 40
4.0
 40
4.0
 40
5.0
 40
5.0
 40
5.0
 40
6.0
 40
6.0
 40
6.0
 40
7.0
 40
7.0
 40
7.0
 40
8.0
 40
8.0
 40
8.0
 40
8.0
 10
110.1376356061461
 20
-160.073950155294
 10
110.1376356061461
 20
-160.073950155294
 10
109.7969156626549
 20
-160.073950155294
 10
109.7969156626549
 20
-160.073950155294
 10
109.6828830020932
 20
-160.073950155294
 10
109.5664387746917
 20
-160.0780842698763
 10
109.4520616045814
 20
-160.0928981804629
 10
109.4520616045814
 20
-160.0928981804629
 10
109.4520616045814
 20
-159.8834363749597
 10
109.4520616045814
 20
-159.8834363749597
 10
109.570572889274
 20
-159.8982502855463
 10
109.7442057017306
 20
-159.9023844001286
 10
109.7969156626549
 20
-159.9023844001286
 10
109.7969156626549
 20
-159.9023844001286
 10
110.1376356061461
 20
-159.9023844001286
 10
110.1376356061461
 20
-159.9023844001286
 10
110.2540798335476
 20
-159.9023844001286
 10
110.3701795514005
 20
-159.8982502855463
 10
110.486623778802
 20
-159.8834363749597
 10
110.486623778802
 20
-159.8834363749597
 10
110.486623778802
 20
-160.0928981804629
 10
110.486623778802
 20
-160.0928981804629
 10
110.3364176156451
 20
-160.073950155294
 10
110.1524495167327
 20
-160.073950155294
 10
110.1376356061461
 20
-160.073950155294
 97
        0
 97
        0
 75
     2
 76
     1
 98
        0
  0
SPLINE
  5
D7
330
9F
100
AcDbEntity
  8
_U+30EC_U+30A4_U+30E4_U+30FC 1
370
     0
100
AcDbSpline
210
0.0
220
0.0
230
1.0
 70
    11
 71
     3
 72
    50
 73
    46
 74
     0
 42
0.0000000001
 43
0.0000000001
 12
1.0
 22
0.0
 32
0.0
 13
1.0
 23
0.0
 33
0.0
 40
0.0
 40
0.0
 40
0.0
 40
0.0
 40
1.0
 40
1.0
 40
1.0
 40
2.0
 40
2.0
 40
2.0
 40
3.0
 40
3.0
 40
3.0
 40
4.0
 40
4.0
 40
4.0
 40
5.0
 40
5.0
 40
5.0
 40
6.0
 40
6.0
 40
6.0
 40
7.0
 40
7.0
 40
7.0
 40
8.0
 40
8.0
 40
8.0
 40
9.0
 40
9.0
 40
9.0
 40
10.0
 40
10.0
 40
10.0
 40
11.0
 40
11.0
 40
11.0
 40
12.0
 40
12.0
 40
12.0
 40
13.0
 40
13.0
 40
13.0
 40
14.0
 40
14.0
 40
14.0
 40
15.0
 40
15.0
 40
15.0
 40
15.0
 10
112.3407741689634
 20
-160.0591362447074
 30
0.0
 10
112.1313123634602
 20
-160.2727321647929
 30
0.0
 10
112.059654377367
 20
-160.3447346604347
 30
0.0
 10
111.9177164433747
 20
-160.4629014355787
 30
0.0
 10
111.9177164433747
 20
-160.4629014355787
 30
0.0
 10
111.9177164433747
 20
-161.0299641524508
 30
0.0
 10
111.9177164433747
 20
-161.0299641524508
 30
0.0
 10
111.9177164433747
 20
-161.1801703156077
 30
0.0
 10
111.9242621247967
 20
-161.1991183407766
 30
0.0
 10
111.928396239379
 20
-161.3768852678155
 30
0.0
 10
111.9304632966702
 20
-161.5081434058035
 30
0.0
 10
111.9366644685436
 20
-161.5567192521455
 30
0.0
 10
111.9432101499656
 20
-161.6159748944918
 30
0.0
 10
111.9432101499656
 20
-161.6159748944918
 30
0.0
 10
111.7168673765847
 20
-161.6159748944918
 30
0.0
 10
111.7168673765847
 20
-161.6159748944918
 30
0.0
 10
111.721001491167
 20
-161.5715331627321
 30
0.0
 10
111.7251356057493
 20
-161.5250243736812
 30
0.0
 10
111.7251356057493
 20
-161.5164116349681
 30
0.0
 10
111.7251356057493
 20
-161.4361409101618
 30
0.0
 10
111.7296142298801
 20
-161.0850856802149
 30
0.0
 10
111.7296142298801
 20
-161.0130831845731
 30
0.0
 10
111.7296142298801
 20
-161.0130831845731
 30
0.0
 10
111.7296142298801
 20
-160.6069064268622
 30
0.0
 10
111.7296142298801
 20
-160.6069064268622
 30
0.0
 10
111.5477131882589
 20
-160.7316188834282
 30
0.0
 10
111.3530652933423
 20
-160.8418619389562
 30
0.0
 10
111.1498046597126
 20
-160.928333835636
 30
0.0
 10
111.1498046597126
 20
-160.928333835636
 30
0.0
 10
110.9468885356313
 20
-160.7653808191837
 30
0.0
 10
110.9468885356313
 20
-160.7653808191837
 30
0.0
 10
111.0695339349062
 20
-160.7295518261371
 30
0.0
 10
111.3255045294603
 20
-160.6554822732042
 30
0.0
 10
111.6703585875338
 20
-160.3995116786501
 30
0.0
 10
111.8860215649105
 20
-160.2410372863286
 30
0.0
 10
112.0786024025359
 20
-160.0525905632855
 30
0.0
 10
112.230875622984
 20
-159.832448961778
 30
0.0
 10
112.230875622984
 20
-159.832448961778
 30
0.0
 10
112.4234564606094
 20
-159.9764539530615
 30
0.0
 10
112.4234564606094
 20
-159.9764539530615
 30
0.0
 10
112.4362033139048
 20
-159.9871337490657
 30
0.0
 10
112.4444715430694
 20
-160.0019476596523
 30
0.0
 10
112.4444715430694
 20
-160.0146945129477
 30
0.0
 10
112.4444715430694
 20
-160.0546576205766
 30
0.0
 10
112.4065754927317
 20
-160.0546576205766
 30
0.0
 10
112.3407741689634
 20
-160.0591362447074
 30
0.0
  0
HATCH
  5
D8
330
9F
100
AcDbEntity
  8
_U+30EC_U+30A4_U+30E4_U+30FC 1
 62
   179
420
  2234388
100
AcDbHatch
 10
0.0
 20
0.0
 30
0.0
210
0.0
220
0.0
230
1.0
  2
SOLID
 70
     1
 71
     0
 91
        1
 92
        1
 93
        1
 72
     4
 94
        3
 73
     0
 74
     1
 95
       50
 96
       46
 40
0.0
 40
0.0
 40
0.0
 40
0.0
 40
1.0
 40
1.0
 40
1.0
 40
2.0
 40
2.0
 40
2.0
 40
3.0
 40
3.0
 40
3.0
 40
4.0
 40
4.0
 40
4.0
 40
5.0
 40
5.0
 40
5.0
 40
6.0
 40
6.0
 40
6.0
 40
7.0
 40
7.0
 40
7.0
 40
8.0
 40
8.0
 40
8.0
 40
9.0
 40
9.0
 40
9.0
 40
10.0
 40
10.0
 40
10.0
 40
11.0
 40
11.0
 40
11.0
 40
12.0
 40
12.0
 40
12.0
 40
13.0
 40
13.0
 40
13.0
 40
14.0
 40
14.0
 40
14.0
 40
15.0
 40
15.0
 40
15.0
 40
15.0
 10
112.3407741689634
 20
-160.0591362447074
 10
112.1313123634602
 20
-160.2727321647929
 10
112.059654377367
 20
-160.3447346604347
 10
111.9177164433747
 20
-160.4629014355787
 10
111.9177164433747
 20
-160.4629014355787
 10
111.9177164433747
 20
-161.0299641524508
 10
111.9177164433747
 20
-161.0299641524508
 10
111.9177164433747
 20
-161.1801703156077
 10
111.9242621247967
 20
-161.1991183407766
 10
111.928396239379
 20
-161.3768852678155
 10
111.9304632966702
 20
-161.5081434058035
 10
111.9366644685436
 20
-161.5567192521455
 10
111.9432101499656
 20
-161.6159748944918
 10
111.9432101499656
 20
-161.6159748944918
 10
111.7168673765847
 20
-161.6159748944918
 10
111.7168673765847
 20
-161.6159748944918
 10
111.721001491167
 20
-161.5715331627321
 10
111.7251356057493
 20
-161.5250243736812
 10
111.7251356057493
 20
-161.5164116349681
 10
111.7251356057493
 20
-161.4361409101618
 10
111.7296142298801
 20
-161.0850856802149
 10
111.7296142298801
 20
-161.0130831845731
 10
111.7296142298801
 20
-161.0130831845731
 10
111.7296142298801
 20
-160.6069064268622
 10
111.7296142298801
 20
-160.6069064268622
 10
111.5477131882589
 20
-160.7316188834282
 10
111.3530652933423
 20
-160.8418619389562
 10
111.1498046597126
 20
-160.928333835636
 10
111.1498046597126
 20
-160.928333835636
 10
110.9468885356313
 20
-160.7653808191837
 10
110.9468885356313
 20
-160.7653808191837
 10
111.0695339349062
 20
-160.7295518261371
 10
111.3255045294603
 20
-160.6554822732042
 10
111.6703585875338
 20
-160.3995116786501
 10
111.8860215649105
 20
-160.2410372863286
 10
112.0786024025359
 20
-160.0525905632855
 10
112.230875622984
 20
-159.832448961778
 10
112.230875622984
 20
-159.832448961778
 10
112.4234564606094
 20
-159.9764539530615
 10
112.4234564606094
 20
-159.9764539530615
 10
112.4362033139048
 20
-159.9871337490657
 10
112.4444715430694
 20
-160.0019476596523
 10
112.4444715430694
 20
-160.0146945129477
 10
112.4444715430694
 20
-160.0546576205766
 10
112.4065754927317
 20
-160.0546576205766
 10
112.3407741689634
 20
-160.0591362447074
 97
        0
 97
        0
 75
     2
 76
     1
 98
        0
  0
SPLINE
  5
D9
330
9F
100
AcDbEntity
  8
_U+30EC_U+30A4_U+30E4_U+30FC 1
370
     0
100
AcDbSpline
210
0.0
220
0.0
230
1.0
 70
    11
 71
     3
 72
    50
 73
    46
 74
     0
 42
0.0000000001
 43
0.0000000001
 12
1.0
 22
0.0
 32
0.0
 13
1.0
 23
0.0
 33
0.0
 40
0.0
 40
0.0
 40
0.0
 40
0.0
 40
1.0
 40
1.0
 40
1.0
 40
2.0
 40
2.0
 40
2.0
 40
3.0
 40
3.0
 40
3.0
 40
4.0
 40
4.0
 40
4.0
 40
5.0
 40
5.0
 40
5.0
 40
6.0
 40
6.0
 40
6.0
 40
7.0
 40
7.0
 40
7.0
 40
8.0
 40
8.0
 40
8.0
 40
9.0
 40
9.0
 40
9.0
 40
10.0
 40
10.0
 40
10.0
 40
11.0
 40
11.0
 40
11.0
 40
12.0
 40
12.0
 40
12.0
 40
13.0
 40
13.0
 40
13.0
 40
14.0
 40
14.0
 40
14.0
 40
15.0
 40
15.0
 40
15.0
 40
15.0
 10
114.0491970200988
 20
-160.5858913444021
 30
0.0
 10
113.9878743204614
 20
-160.6575493304953
 30
0.0
 10
113.7274251017765
 20
-160.9748426246869
 30
0.0
 10
113.6705810262699
 20
-161.038576891164
 30
0.0
 10
113.7549858656585
 20
-161.135728583848
 30
0.0
 10
113.8059732788402
 20
-161.1991183407766
 30
0.0
 10
113.8714300930599
 20
-161.2900688615872
 30
0.0
 10
113.8714300930599
 20
-161.2900688615872
 30
0.0
 10
113.6874619941476
 20
-161.4278726809972
 30
0.0
 10
113.6874619941476
 20
-161.4278726809972
 30
0.0
 10
113.5520697415773
 20
-161.2159993086543
 30
0.0
 10
113.3805039864118
 20
-160.9920681021131
 30
0.0
 10
113.08663734152
 20
-160.7929415830657
 30
0.0
 10
113.08663734152
 20
-160.7929415830657
 30
0.0
 10
113.2347764473858
 20
-160.6386013053265
 30
0.0
 10
113.2347764473858
 20
-160.6386013053265
 30
0.0
 10
113.3446749933652
 20
-160.7188720301328
 30
0.0
 10
113.4483723674713
 20
-160.8077554936522
 30
0.0
 10
113.5455240601553
 20
-160.9031846385936
 30
0.0
 10
113.6133924412147
 20
-160.8270480283696
 30
0.0
 10
113.8163085652959
 20
-160.5834797775625
 30
0.0
 10
113.9496337605751
 20
-160.3550699468904
 30
0.0
 10
113.9496337605751
 20
-160.3550699468904
 30
0.0
 10
113.2768066123058
 20
-160.3550699468904
 30
0.0
 10
113.2768066123058
 20
-160.3550699468904
 30
0.0
 10
113.1520941557398
 20
-160.3550699468904
 30
0.0
 10
112.900257675768
 20
-160.3636826856035
 30
0.0
 10
112.6907958702648
 20
-160.3740179720593
 30
0.0
 10
112.6907958702648
 20
-160.3740179720593
 30
0.0
 10
112.6907958702648
 20
-160.1542208801004
 30
0.0
 10
112.6907958702648
 20
-160.1542208801004
 30
0.0
 10
112.8751084787257
 20
-160.1731689052692
 30
0.0
 10
113.080091660098
 20
-160.1773030198515
 30
0.0
 10
113.2685383831412
 20
-160.1773030198515
 30
0.0
 10
113.2685383831412
 20
-160.1773030198515
 30
0.0
 10
113.7718668335362
 20
-160.1773030198515
 30
0.0
 10
113.7718668335362
 20
-160.1773030198515
 30
0.0
 10
114.1105197197363
 20
-160.1773030198515
 30
0.0
 10
114.154961451496
 20
-160.162489109265
 30
0.0
 10
114.2372992335935
 20
-160.122526001636
 30
0.0
 10
114.2372992335935
 20
-160.122526001636
 30
0.0
 10
114.4043863646281
 20
-160.2810003939575
 30
0.0
 10
114.4043863646281
 20
-160.2810003939575
 30
0.0
 10
114.25211314418
 20
-160.3530028895993
 30
0.0
 10
114.1084526624451
 20
-160.5159559060516
 30
0.0
 10
114.0491970200988
 20
-160.5858913444021
 30
0.0
  0
HATCH
  5
DA
330
9F
100
AcDbEntity
  8
_U+30EC_U+30A4_U+30E4_U+30FC 1
 62
   179
420
  2234388
100
AcDbHatch
 10
0.0
 20
0.0
 30
0.0
210
0.0
220
0.0
230
1.0
  2
SOLID
 70
     1
 71
     0
 91
        1
 92
        1
 93
        1
 72
     4
 94
        3
 73
     0
 74
     1
 95
       50
 96
       46
 40
0.0
 40
0.0
 40
0.0
 40
0.0
 40
1.0
 40
1.0
 40
1.0
 40
2.0
 40
2.0
 40
2.0
 40
3.0
 40
3.0
 40
3.0
 40
4.0
 40
4.0
 40
4.0
 40
5.0
 40
5.0
 40
5.0
 40
6.0
 40
6.0
 40
6.0
 40
7.0
 40
7.0
 40
7.0
 40
8.0
 40
8.0
 40
8.0
 40
9.0
 40
9.0
 40
9.0
 40
10.0
 40
10.0
 40
10.0
 40
11.0
 40
11.0
 40
11.0
 40
12.0
 40
12.0
 40
12.0
 40
13.0
 40
13.0
 40
13.0
 40
14.0
 40
14.0
 40
14.0
 40
15.0
 40
15.0
 40
15.0
 40
15.0
 10
114.0491970200988
 20
-160.5858913444021
 10
113.9878743204614
 20
-160.6575493304953
 10
113.7274251017765
 20
-160.9748426246869
 10
113.6705810262699
 20
-161.038576891164
 10
113.7549858656585
 20
-161.135728583848
 10
113.8059732788402
 20
-161.1991183407766
 10
113.8714300930599
 20
-161.2900688615872
 10
113.8714300930599
 20
-161.2900688615872
 10
113.6874619941476
 20
-161.4278726809972
 10
113.6874619941476
 20
-161.4278726809972
 10
113.5520697415773
 20
-161.2159993086543
 10
113.3805039864118
 20
-160.9920681021131
 10
113.08663734152
 20
-160.7929415830657
 10
113.08663734152
 20
-160.7929415830657
 10
113.2347764473858
 20
-160.6386013053265
 10
113.2347764473858
 20
-160.6386013053265
 10
113.3446749933652
 20
-160.7188720301328
 10
113.4483723674713
 20
-160.8077554936522
 10
113.5455240601553
 20
-160.9031846385936
 10
113.6133924412147
 20
-160.8270480283696
 10
113.8163085652959
 20
-160.5834797775625
 10
113.9496337605751
 20
-160.3550699468904
 10
113.9496337605751
 20
-160.3550699468904
 10
113.2768066123058
 20
-160.3550699468904
 10
113.2768066123058
 20
-160.3550699468904
 10
113.1520941557398
 20
-160.3550699468904
 10
112.900257675768
 20
-160.3636826856035
 10
112.6907958702648
 20
-160.3740179720593
 10
112.6907958702648
 20
-160.3740179720593
 10
112.6907958702648
 20
-160.1542208801004
 10
112.6907958702648
 20
-160.1542208801004
 10
112.8751084787257
 20
-160.1731689052692
 10
113.080091660098
 20
-160.1773030198515
 10
113.2685383831412
 20
-160.1773030198515
 10
113.2685383831412
 20
-160.1773030198515
 10
113.7718668335362
 20
-160.1773030198515
 10
113.7718668335362
 20
-160.1773030198515
 10
114.1105197197363
 20
-160.1773030198515
 10
114.154961451496
 20
-160.162489109265
 10
114.2372992335935
 20
-160.122526001636
 10
114.2372992335935
 20
-160.122526001636
 10
114.4043863646281
 20
-160.2810003939575
 10
114.4043863646281
 20
-160.2810003939575
 10
114.25211314418
 20
-160.3530028895993
 10
114.1084526624451
 20
-160.5159559060516
 10
114.0491970200988
 20
-160.5858913444021
 97
        0
 97
        0
 75
     2
 76
     1
 98
        0
  0
SPLINE
  5
DB
330
9F
100
AcDbEntity
  8
_U+30EC_U+30A4_U+30E4_U+30FC 1
370
     0
100
AcDbSpline
210
0.0
220
0.0
230
1.0
 70
    11
 71
     3
 72
    29
 73
    25
 74
     0
 42
0.0000000001
 43
0.0000000001
 12
1.0
 22
0.0
 32
0.0
 13
1.0
 23
0.0
 33
0.0
 40
0.0
 40
0.0
 40
0.0
 40
0.0
 40
1.0
 40
1.0
 40
1.0
 40
2.0
 40
2.0
 40
2.0
 40
3.0
 40
3.0
 40
3.0
 40
4.0
 40
4.0
 40
4.0
 40
5.0
 40
5.0
 40
5.0
 40
6.0
 40
6.0
 40
6.0
 40
7.0
 40
7.0
 40
7.0
 40
8.0
 40
8.0
 40
8.0
 40
8.0
 10
115.6728705222971
 20
-160.8291150856608
 30
0.0
 10
115.6728705222971
 20
-160.8291150856608
 30
0.0
 10
115.1884900970709
 20
-160.8291150856608
 30
0.0
 10
115.1884900970709
 20
-160.8291150856608
 30
0.0
 10
115.1609293331889
 20
-160.8291150856608
 30
0.0
 10
114.8436360389974
 20
-160.8291150856608
 30
0.0
 10
114.6321071762031
 20
-160.8542642827031
 30
0.0
 10
114.6321071762031
 20
-160.8542642827031
 30
0.0
 10
114.6321071762031
 20
-160.6237873947399
 30
0.0
 10
114.6321071762031
 20
-160.6237873947399
 30
0.0
 10
114.7905815685246
 20
-160.6472140440396
 30
0.0
 10
114.9810953488589
 20
-160.6492811013307
 30
0.0
 10
115.1884900970709
 20
-160.6492811013307
 30
0.0
 10
115.1884900970709
 20
-160.6492811013307
 30
0.0
 10
115.6728705222971
 20
-160.6492811013307
 30
0.0
 10
115.6728705222971
 20
-160.6492811013307
 30
0.0
 10
115.8589056785006
 20
-160.6492811013307
 30
0.0
 10
116.0452853442526
 20
-160.6472140440396
 30
0.0
 10
116.2292534431649
 20
-160.6237873947399
 30
0.0
 10
116.2292534431649
 20
-160.6237873947399
 30
0.0
 10
116.2292534431649
 20
-160.8542642827031
 30
0.0
 10
116.2292534431649
 20
-160.8542642827031
 30
0.0
 10
116.0452853442526
 20
-160.8311821429519
 30
0.0
 10
115.7975829788631
 20
-160.8291150856608
 30
0.0
 10
115.6728705222971
 20
-160.8291150856608
 30
0.0
  0
HATCH
  5
DC
330
9F
100
AcDbEntity
  8
_U+30EC_U+30A4_U+30E4_U+30FC 1
 62
   179
420
  2234388
100
AcDbHatch
 10
0.0
 20
0.0
 30
0.0
210
0.0
220
0.0
230
1.0
  2
SOLID
 70
     1
 71
     0
 91
        1
 92
        1
 93
        1
 72
     4
 94
        3
 73
     0
 74
     1
 95
       29
 96
       25
 40
0.0
 40
0.0
 40
0.0
 40
0.0
 40
1.0
 40
1.0
 40
1.0
 40
2.0
 40
2.0
 40
2.0
 40
3.0
 40
3.0
 40
3.0
 40
4.0
 40
4.0
 40
4.0
 40
5.0
 40
5.0
 40
5.0
 40
6.0
 40
6.0
 40
6.0
 40
7.0
 40
7.0
 40
7.0
 40
8.0
 40
8.0
 40
8.0
 40
8.0
 10
115.6728705222971
 20
-160.8291150856608
 10
115.6728705222971
 20
-160.8291150856608
 10
115.1884900970709
 20
-160.8291150856608
 10
115.1884900970709
 20
-160.8291150856608
 10
115.1609293331889
 20
-160.8291150856608
 10
114.8436360389974
 20
-160.8291150856608
 10
114.6321071762031
 20
-160.8542642827031
 10
114.6321071762031
 20
-160.8542642827031
 10
114.6321071762031
 20
-160.6237873947399
 10
114.6321071762031
 20
-160.6237873947399
 10
114.7905815685246
 20
-160.6472140440396
 10
114.9810953488589
 20
-160.6492811013307
 10
115.1884900970709
 20
-160.6492811013307
 10
115.1884900970709
 20
-160.6492811013307
 10
115.6728705222971
 20
-160.6492811013307
 10
115.6728705222971
 20
-160.6492811013307
 10
115.8589056785006
 20
-160.6492811013307
 10
116.0452853442526
 20
-160.6472140440396
 10
116.2292534431649
 20
-160.6237873947399
 10
116.2292534431649
 20
-160.6237873947399
 10
116.2292534431649
 20
-160.8542642827031
 10
116.2292534431649
 20
-160.8542642827031
 10
116.0452853442526
 20
-160.8311821429519
 10
115.7975829788631
 20
-160.8291150856608
 10
115.6728705222971
 20
-160.8291150856608
 97
        0
 97
        0
 75
     2
 76
     1
 98
        0
  0
ENDBLK
  5
A2
330
9F
100
AcDbEntity
  8
0
100
AcDbBlockEnd
  0
BLOCK
  5
F4
330
F2
100
AcDbEntity
  8
0
100
AcDbBlockBegin
  2
block 6
 70
     0
 10
0.0
 20
0.0
 30
0.0
  3
block 6
  1

  0
SPLINE
  5
F6
330
F2
100
AcDbEntity
  8
_U+30EC_U+30A4_U+30E4_U+30FC 1
370
     0
100
AcDbSpline
210
0.0
220
0.0
230
1.0
 70
    11
 71
     3
 72
    26
 73
    22
 74
     0
 42
0.0000000001
 43
0.0000000001
 12
1.0
 22
0.0
 32
0.0
 13
1.0
 23
0.0
 33
0.0
 40
0.0
 40
0.0
 40
0.0
 40
0.0
 40
1.0
 40
1.0
 40
1.0
 40
2.0
 40
2.0
 40
2.0
 40
3.0
 40
3.0
 40
3.0
 40
4.0
 40
4.0
 40
4.0
 40
5.0
 40
5.0
 40
5.0
 40
6.0
 40
6.0
 40
6.0
 40
7.0
 40
7.0
 40
7.0
 40
7.0
 10
121.7758571744172
 20
-138.5999809766347
 30
0.0
 10
121.7758571744172
 20
-138.5999809766347
 30
0.0
 10
120.6717040713946
 20
-138.5999809766347
 30
0.0
 10
120.6717040713946
 20
-138.5999809766347
 30
0.0
 10
120.6717040713946
 20
-138.5999809766347
 30
0.0
 10
120.6717040713946
 20
-138.9300211241217
 30
0.0
 10
120.6717040713946
 20
-138.9300211241217
 30
0.0
 10
120.6717040713946
 20
-138.9300211241217
 30
0.0
 10
120.5235649655288
 20
-138.9300211241217
 30
0.0
 10
120.5235649655288
 20
-138.9300211241217
 30
0.0
 10
120.5087510549423
 20
-138.5979139193436
 30
0.0
 10
120.3457980384899
 20
-138.5514051302927
 30
0.0
 10
120.2314208683796
 20
-138.5217773091196
 30
0.0
 10
120.2314208683796
 20
-138.5217773091196
 30
0.0
 10
120.2314208683796
 20
-138.375705260545
 30
0.0
 10
120.2314208683796
 20
-138.375705260545
 30
0.0
 10
120.2314208683796
 20
-138.375705260545
 30
0.0
 10
121.7758571744172
 20
-138.375705260545
 30
0.0
 10
121.7758571744172
 20
-138.375705260545
 30
0.0
 10
121.7758571744172
 20
-138.375705260545
 30
0.0
 10
121.7758571744172
 20
-138.5999809766347
 30
0.0
 10
121.7758571744172
 20
-138.5999809766347
 30
0.0
  0
HATCH
  5
F7
330
F2
100
AcDbEntity
  8
_U+30EC_U+30A4_U+30E4_U+30FC 1
 62
   179
420
  2234388
100
AcDbHatch
 10
0.0
 20
0.0
 30
0.0
210
0.0
220
0.0
230
1.0
  2
SOLID
 70
     1
 71
     0
 91
        1
 92
        1
 93
        1
 72
     4
 94
        3
 73
     0
 74
     1
 95
       26
 96
       22
 40
0.0
 40
0.0
 40
0.0
 40
0.0
 40
1.0
 40
1.0
 40
1.0
 40
2.0
 40
2.0
 40
2.0
 40
3.0
 40
3.0
 40
3.0
 40
4.0
 40
4.0
 40
4.0
 40
5.0
 40
5.0
 40
5.0
 40
6.0
 40
6.0
 40
6.0
 40
7.0
 40
7.0
 40
7.0
 40
7.0
 10
121.7758571744172
 20
-138.5999809766347
 10
121.7758571744172
 20
-138.5999809766347
 10
120.6717040713946
 20
-138.5999809766347
 10
120.6717040713946
 20
-138.5999809766347
 10
120.6717040713946
 20
-138.5999809766347
 10
120.6717040713946
 20
-138.9300211241217
 10
120.6717040713946
 20
-138.9300211241217
 10
120.6717040713946
 20
-138.9300211241217
 10
120.5235649655288
 20
-138.9300211241217
 10
120.5235649655288
 20
-138.9300211241217
 10
120.5087510549423
 20
-138.5979139193436
 10
120.3457980384899
 20
-138.5514051302927
 10
120.2314208683796
 20
-138.5217773091196
 10
120.2314208683796
 20
-138.5217773091196
 10
120.2314208683796
 20
-138.375705260545
 10
120.2314208683796
 20
-138.375705260545
 10
120.2314208683796
 20
-138.375705260545
 10
121.7758571744172
 20
-138.375705260545
 10
121.7758571744172
 20
-138.375705260545
 10
121.7758571744172
 20
-138.375705260545
 10
121.7758571744172
 20
-138.5999809766347
 10
121.7758571744172
 20
-138.5999809766347
 97
        0
 97
        0
 75
     2
 76
     1
 98
        0
  0
ENDBLK
  5
F5
330
F2
100
AcDbEntity
  8
0
100
AcDbBlockEnd
  0
BLOCK
  5
10A
330
108
100
AcDbEntity
  8
0
100
AcDbBlockBegin
  2
block 7
 70
     0
 10
0.0
 20
0.0
 30
0.0
  3
block 7
  1

  0
SPLINE
  5
10C
330
108
100
AcDbEntity
  8
_U+30EC_U+30A4_U+30E4_U+30FC 1
370
     0
100
AcDbSpline
210
0.0
220
0.0
230
1.0
 70
    11
 71
     3
 72
    29
 73
    25
 74
     0
 42
0.0000000001
 43
0.0000000001
 12
1.0
 22
0.0
 32
0.0
 13
1.0
 23
0.0
 33
0.0
 40
0.0
 40
0.0
 40
0.0
 40
0.0
 40
1.0
 40
1.0
 40
1.0
 40
2.0
 40
2.0
 40
2.0
 40
3.0
 40
3.0
 40
3.0
 40
4.0
 40
4.0
 40
4.0
 40
5.0
 40
5.0
 40
5.0
 40
6.0
 40
6.0
 40
6.0
 40
7.0
 40
7.0
 40
7.0
 40
8.0
 40
8.0
 40
8.0
 40
8.0
 10
106.5974554855034
 20
-150.1710231829434
 30
0.0
 10
106.8069172910066
 20
-150.2791991811802
 30
0.0
 10
106.8258653161755
 20
-150.4524874840883
 30
0.0
 10
106.8258653161755
 20
-150.5689317114897
 30
0.0
 10
106.8258653161755
 20
-150.7298176706509
 30
0.0
 10
106.7793565271246
 20
-150.8714110950947
 30
0.0
 10
106.5974554855034
 20
-150.9664957304875
 30
0.0
 10
106.4028075905868
 20
-151.0701931045936
 30
0.0
 10
106.1661295307501
 20
-151.089485639311
 30
0.0
 10
106.0031765142978
 20
-151.089485639311
 30
0.0
 10
105.8591715230144
 20
-151.089485639311
 30
0.0
 10
105.6073350430426
 20
-151.0722601618847
 30
0.0
 10
105.4083807787694
 20
-150.9664957304875
 30
0.0
 10
105.2054646546882
 20
-150.8586642417992
 30
0.0
 10
105.1820380053885
 20
-150.6977782826381
 30
0.0
 10
105.1820380053885
 20
-150.5689317114897
 30
0.0
 10
105.1820380053885
 20
-150.4101128096197
 30
0.0
 10
105.2264797371483
 20
-150.2664523278848
 30
0.0
 10
105.4083807787694
 20
-150.1710231829434
 30
0.0
 10
105.6011338711692
 20
-150.0718044329682
 30
0.0
 10
105.8295437018412
 20
-150.0483777836685
 30
0.0
 10
106.0031765142978
 20
-150.0483777836685
 30
0.0
 10
106.1743977599147
 20
-150.0483777836685
 30
0.0
 10
106.4048746478779
 20
-150.069737375677
 30
0.0
 10
106.5974554855034
 20
-150.1710231829434
 30
0.0
  0
SPLINE
  5
10D
330
108
100
AcDbEntity
  8
_U+30EC_U+30A4_U+30E4_U+30FC 1
370
     0
100
AcDbSpline
210
0.0
220
0.0
230
1.0
 70
    11
 71
     3
 72
    17
 73
    13
 74
     0
 42
0.0000000001
 43
0.0000000001
 12
1.0
 22
0.0
 32
0.0
 13
1.0
 23
0.0
 33
0.0
 40
0.0
 40
0.0
 40
0.0
 40
0.0
 40
1.0
 40
1.0
 40
1.0
 40
2.0
 40
2.0
 40
2.0
 40
3.0
 40
3.0
 40
3.0
 40
4.0
 40
4.0
 40
4.0
 40
4.0
 10
105.374618843014
 20
-150.5689317114897
 30
0.0
 10
105.374618843014
 20
-150.8187011341703
 30
0.0
 10
105.6583224562243
 20
-150.8652099232212
 30
0.0
 10
106.0031765142978
 20
-150.8652099232212
 30
0.0
 10
106.3225368657805
 20
-150.8652099232212
 30
0.0
 10
106.6312174212589
 20
-150.8290364206261
 30
0.0
 10
106.6312174212589
 20
-150.5689317114897
 30
0.0
 10
106.6312174212589
 20
-150.3212293461003
 30
0.0
 10
106.3500976296625
 20
-150.2726534997582
 30
0.0
 10
106.0031765142978
 20
-150.2726534997582
 30
0.0
 10
105.6834716532666
 20
-150.2726534997582
 30
0.0
 10
105.374618843014
 20
-150.3108940596445
 30
0.0
 10
105.374618843014
 20
-150.5689317114897
 30
0.0
  0
HATCH
  5
10E
330
108
100
AcDbEntity
  8
_U+30EC_U+30A4_U+30E4_U+30FC 1
 62
   179
420
  2234388
100
AcDbHatch
 10
0.0
 20
0.0
 30
0.0
210
0.0
220
0.0
230
1.0
  2
SOLID
 70
     1
 71
     0
 91
        2
 92
        1
 93
        1
 72
     4
 94
        3
 73
     0
 74
     1
 95
       29
 96
       25
 40
0.0
 40
0.0
 40
0.0
 40
0.0
 40
1.0
 40
1.0
 40
1.0
 40
2.0
 40
2.0
 40
2.0
 40
3.0
 40
3.0
 40
3.0
 40
4.0
 40
4.0
 40
4.0
 40
5.0
 40
5.0
 40
5.0
 40
6.0
 40
6.0
 40
6.0
 40
7.0
 40
7.0
 40
7.0
 40
8.0
 40
8.0
 40
8.0
 40
8.0
 10
106.5974554855034
 20
-150.1710231829434
 10
106.8069172910066
 20
-150.2791991811802
 10
106.8258653161755
 20
-150.4524874840883
 10
106.8258653161755
 20
-150.5689317114897
 10
106.8258653161755
 20
-150.7298176706509
 10
106.7793565271246
 20
-150.8714110950947
 10
106.5974554855034
 20
-150.9664957304875
 10
106.4028075905868
 20
-151.0701931045936
 10
106.1661295307501
 20
-151.089485639311
 10
106.0031765142978
 20
-151.089485639311
 10
105.8591715230144
 20
-151.089485639311
 10
105.6073350430426
 20
-151.0722601618847
 10
105.4083807787694
 20
-150.9664957304875
 10
105.2054646546882
 20
-150.8586642417992
 10
105.1820380053885
 20
-150.6977782826381
 10
105.1820380053885
 20
-150.5689317114897
 10
105.1820380053885
 20
-150.4101128096197
 10
105.2264797371483
 20
-150.2664523278848
 10
105.4083807787694
 20
-150.1710231829434
 10
105.6011338711692
 20
-150.0718044329682
 10
105.8295437018412
 20
-150.0483777836685
 10
106.0031765142978
 20
-150.0483777836685
 10
106.1743977599147
 20
-150.0483777836685
 10
106.4048746478779
 20
-150.069737375677
 10
106.5974554855034
 20
-150.1710231829434
 97
        0
 97
        0
 92
        1
 93
        1
 72
     4
 94
        3
 73
     0
 74
     1
 95
       17
 96
       13
 40
0.0
 40
0.0
 40
0.0
 40
0.0
 40
1.0
 40
1.0
 40
1.0
 40
2.0
 40
2.0
 40
2.0
 40
3.0
 40
3.0
 40
3.0
 40
4.0
 40
4.0
 40
4.0
 40
4.0
 10
105.374618843014
 20
-150.5689317114897
 10
105.374618843014
 20
-150.8187011341703
 10
105.6583224562243
 20
-150.8652099232212
 10
106.0031765142978
 20
-150.8652099232212
 10
106.3225368657805
 20
-150.8652099232212
 10
106.6312174212589
 20
-150.8290364206261
 10
106.6312174212589
 20
-150.5689317114897
 10
106.6312174212589
 20
-150.3212293461003
 10
106.3500976296625
 20
-150.2726534997582
 10
106.0031765142978
 20
-150.2726534997582
 10
105.6834716532666
 20
-150.2726534997582
 10
105.374618843014
 20
-150.3108940596445
 10
105.374618843014
 20
-150.5689317114897
 97
        0
 97
        0
 75
     2
 76
     1
 98
        0
  0
POLYLINE
  5
10F
330
108
100
AcDbEntity
  8
_U+30EC_U+30A4_U+30E4_U+30FC 1
370
     0
100
AcDb2dPolyline
 66
     1
 10
0.0
 20
0.0
 30
0.0
  0
VERTEX
  5
110
330
10F
100
AcDbEntity
  8
_U+30EC_U+30A4_U+30E4_U+30FC 1
370
     0
100
AcDbVertex
100
AcDb2dVertex
 10
106.7752224125423
 20
-149.8320257871948
 30
0.0
  0
VERTEX
  5
111
330
10F
100
AcDbEntity
  8
_U+30EC_U+30A4_U+30E4_U+30FC 1
370
     0
100
AcDbVertex
100
AcDb2dVertex
 10
106.5233859325705
 20
-149.8320257871948
 30
0.0
  0
VERTEX
  5
112
330
10F
100
AcDbEntity
  8
_U+30EC_U+30A4_U+30E4_U+30FC 1
370
     0
100
AcDbVertex
100
AcDb2dVertex
 10
106.5233859325705
 20
-149.580189307223
 30
0.0
  0
VERTEX
  5
113
330
10F
100
AcDbEntity
  8
_U+30EC_U+30A4_U+30E4_U+30FC 1
370
     0
100
AcDbVertex
100
AcDb2dVertex
 10
106.7752224125423
 20
-149.580189307223
 30
0.0
  0
VERTEX
  5
114
330
10F
100
AcDbEntity
  8
_U+30EC_U+30A4_U+30E4_U+30FC 1
370
     0
100
AcDbVertex
100
AcDb2dVertex
 10
106.7752224125423
 20
-149.8320257871948
 30
0.0
  0
SEQEND
  5
115
330
10F
100
AcDbEntity
  8
_U+30EC_U+30A4_U+30E4_U+30FC 1
370
     0
  0
HATCH
  5
116
330
108
100
AcDbEntity
  8
_U+30EC_U+30A4_U+30E4_U+30FC 1
 62
   179
420
  2234388
100
AcDbHatch
 10
0.0
 20
0.0
 30
0.0
210
0.0
220
0.0
230
1.0
  2
SOLID
 70
     1
 71
     0
 91
        1
 92
        1
 93
        4
 72
     1
 10
106.7752224125423
 20
-149.8320257871948
 11
106.5233859325705
 21
-149.8320257871948
 72
     1
 10
106.5233859325705
 20
-149.8320257871948
 11
106.5233859325705
 21
-149.580189307223
 72
     1
 10
106.5233859325705
 20
-149.580189307223
 11
106.7752224125423
 21
-149.580189307223
 72
     1
 10
106.7752224125423
 20
-149.580189307223
 11
106.7752224125423
 21
-149.8320257871948
 97
        0
 75
     2
 76
     1
 98
        0
  0
SPLINE
  5
117
330
108
100
AcDbEntity
  8
_U+30EC_U+30A4_U+30E4_U+30FC 1
370
     0
100
AcDbSpline
210
0.0
220
0.0
230
1.0
 70
    11
 71
     3
 72
    53
 73
    49
 74
     0
 42
0.0000000001
 43
0.0000000001
 12
1.0
 22
0.0
 32
0.0
 13
1.0
 23
0.0
 33
0.0
 40
0.0
 40
0.0
 40
0.0
 40
0.0
 40
1.0
 40
1.0
 40
1.0
 40
2.0
 40
2.0
 40
2.0
 40
3.0
 40
3.0
 40
3.0
 40
4.0
 40
4.0
 40
4.0
 40
5.0
 40
5.0
 40
5.0
 40
6.0
 40
6.0
 40
6.0
 40
7.0
 40
7.0
 40
7.0
 40
8.0
 40
8.0
 40
8.0
 40
9.0
 40
9.0
 40
9.0
 40
10.0
 40
10.0
 40
10.0
 40
11.0
 40
11.0
 40
11.0
 40
12.0
 40
12.0
 40
12.0
 40
13.0
 40
13.0
 40
13.0
 40
14.0
 40
14.0
 40
14.0
 40
15.0
 40
15.0
 40
15.0
 40
16.0
 40
16.0
 40
16.0
 40
16.0
 10
106.8258653161755
 20
-148.862920427194
 30
0.0
 10
106.8258653161755
 20
-148.9411240947092
 30
0.0
 10
106.8089843482978
 20
-149.042754411524
 30
0.0
 10
106.7455945913692
 20
-149.1443847283389
 30
0.0
 10
106.6356960453897
 20
-149.317673031247
 30
0.0
 10
106.5044379074017
 20
-149.3390326232555
 30
0.0
 10
106.3966064187133
 20
-149.3579806484244
 30
0.0
 10
106.3966064187133
 20
-149.3579806484244
 30
0.0
 10
106.3966064187133
 20
-149.1357719896258
 30
0.0
 10
106.3966064187133
 20
-149.1357719896258
 30
0.0
 10
106.5953884282123
 20
-149.0809949714103
 30
0.0
 10
106.6250162493854
 20
-148.9538709480046
 30
0.0
 10
106.6250162493854
 20
-148.8608533699029
 30
0.0
 10
106.6250162493854
 20
-148.7213270027502
 30
0.0
 10
106.5254529898617
 20
-148.5690537823022
 30
0.0
 10
106.2929090446073
 20
-148.5690537823022
 30
0.0
 10
106.0369384500533
 20
-148.5690537823022
 30
0.0
 10
105.9670030117027
 20
-148.7488877666322
 30
0.0
 10
105.9670030117027
 20
-148.869466108616
 30
0.0
 10
105.9670030117027
 20
-148.9011609870803
 30
0.0
 10
105.9670030117027
 20
-149.042754411524
 30
0.0
 10
106.0961940923996
 20
-149.1316378750435
 30
0.0
 10
106.0961940923996
 20
-149.1316378750435
 30
0.0
 10
106.0772460672307
 20
-149.3073377447912
 30
0.0
 10
106.0772460672307
 20
-149.3073377447912
 30
0.0
 10
106.0772460672307
 20
-149.3073377447912
 30
0.0
 10
105.2306138517306
 20
-149.1867594028075
 30
0.0
 10
105.2306138517306
 20
-149.1867594028075
 30
0.0
 10
105.2306138517306
 20
-149.1867594028075
 30
0.0
 10
105.2306138517306
 20
-148.408167823141
 30
0.0
 10
105.2306138517306
 20
-148.408167823141
 30
0.0
 10
105.2306138517306
 20
-148.408167823141
 30
0.0
 10
105.4252617466472
 20
-148.408167823141
 30
0.0
 10
105.4252617466472
 20
-148.408167823141
 30
0.0
 10
105.4252617466472
 20
-148.408167823141
 30
0.0
 10
105.4252617466472
 20
-149.0238063863552
 30
0.0
 10
105.4252617466472
 20
-149.0238063863552
 30
0.0
 10
105.4252617466472
 20
-149.0238063863552
 30
0.0
 10
105.8484917270101
 20
-149.0892632005749
 30
0.0
 10
105.8484917270101
 20
-149.0892632005749
 30
0.0
 10
105.8147297912546
 20
-149.0279405009375
 30
0.0
 10
105.7744221740772
 20
-148.94560271884
 30
0.0
 10
105.7744221740772
 20
-148.8270914341474
 30
0.0
 10
105.7744221740772
 20
-148.5731878968845
 30
0.0
 10
105.9608018398292
 20
-148.3361653274993
 30
0.0
 10
106.2739610194385
 20
-148.3361653274993
 30
0.0
 10
106.59125431363
 20
-148.3361653274993
 30
0.0
 10
106.8258653161755
 20
-148.5604410435891
 30
0.0
 10
106.8258653161755
 20
-148.862920427194
 30
0.0
  0
HATCH
  5
118
330
108
100
AcDbEntity
  8
_U+30EC_U+30A4_U+30E4_U+30FC 1
 62
   179
420
  2234388
100
AcDbHatch
 10
0.0
 20
0.0
 30
0.0
210
0.0
220
0.0
230
1.0
  2
SOLID
 70
     1
 71
     0
 91
        1
 92
        1
 93
        1
 72
     4
 94
        3
 73
     0
 74
     1
 95
       53
 96
       49
 40
0.0
 40
0.0
 40
0.0
 40
0.0
 40
1.0
 40
1.0
 40
1.0
 40
2.0
 40
2.0
 40
2.0
 40
3.0
 40
3.0
 40
3.0
 40
4.0
 40
4.0
 40
4.0
 40
5.0
 40
5.0
 40
5.0
 40
6.0
 40
6.0
 40
6.0
 40
7.0
 40
7.0
 40
7.0
 40
8.0
 40
8.0
 40
8.0
 40
9.0
 40
9.0
 40
9.0
 40
10.0
 40
10.0
 40
10.0
 40
11.0
 40
11.0
 40
11.0
 40
12.0
 40
12.0
 40
12.0
 40
13.0
 40
13.0
 40
13.0
 40
14.0
 40
14.0
 40
14.0
 40
15.0
 40
15.0
 40
15.0
 40
16.0
 40
16.0
 40
16.0
 40
16.0
 10
106.8258653161755
 20
-148.862920427194
 10
106.8258653161755
 20
-148.9411240947092
 10
106.8089843482978
 20
-149.042754411524
 10
106.7455945913692
 20
-149.1443847283389
 10
106.6356960453897
 20
-149.317673031247
 10
106.5044379074017
 20
-149.3390326232555
 10
106.3966064187133
 20
-149.3579806484244
 10
106.3966064187133
 20
-149.3579806484244
 10
106.3966064187133
 20
-149.1357719896258
 10
106.3966064187133
 20
-149.1357719896258
 10
106.5953884282123
 20
-149.0809949714103
 10
106.6250162493854
 20
-148.9538709480046
 10
106.6250162493854
 20
-148.8608533699029
 10
106.6250162493854
 20
-148.7213270027502
 10
106.5254529898617
 20
-148.5690537823022
 10
106.2929090446073
 20
-148.5690537823022
 10
106.0369384500533
 20
-148.5690537823022
 10
105.9670030117027
 20
-148.7488877666322
 10
105.9670030117027
 20
-148.869466108616
 10
105.9670030117027
 20
-148.9011609870803
 10
105.9670030117027
 20
-149.042754411524
 10
106.0961940923996
 20
-149.1316378750435
 10
106.0961940923996
 20
-149.1316378750435
 10
106.0772460672307
 20
-149.3073377447912
 10
106.0772460672307
 20
-149.3073377447912
 10
106.0772460672307
 20
-149.3073377447912
 10
105.2306138517306
 20
-149.1867594028075
 10
105.2306138517306
 20
-149.1867594028075
 10
105.2306138517306
 20
-149.1867594028075
 10
105.2306138517306
 20
-148.408167823141
 10
105.2306138517306
 20
-148.408167823141
 10
105.2306138517306
 20
-148.408167823141
 10
105.4252617466472
 20
-148.408167823141
 10
105.4252617466472
 20
-148.408167823141
 10
105.4252617466472
 20
-148.408167823141
 10
105.4252617466472
 20
-149.0238063863552
 10
105.4252617466472
 20
-149.0238063863552
 10
105.4252617466472
 20
-149.0238063863552
 10
105.8484917270101
 20
-149.0892632005749
 10
105.8484917270101
 20
-149.0892632005749
 10
105.8147297912546
 20
-149.0279405009375
 10
105.7744221740772
 20
-148.94560271884
 10
105.7744221740772
 20
-148.8270914341474
 10
105.7744221740772
 20
-148.5731878968845
 10
105.9608018398292
 20
-148.3361653274993
 10
106.2739610194385
 20
-148.3361653274993
 10
106.59125431363
 20
-148.3361653274993
 10
106.8258653161755
 20
-148.5604410435891
 10
106.8258653161755
 20
-148.862920427194
 97
        0
 97
        0
 75
     2
 76
     1
 98
        0
  0
ENDBLK
  5
10B
330
108
100
AcDbEntity
  8
0
100
AcDbBlockEnd
  0
BLOCK
  5
123
330
121
100
AcDbEntity
  8
0
100
AcDbBlockBegin
  2
block 8
 70
     0
 10
0.0
 20
0.0
 30
0.0
  3
block 8
  1

  0
SPLINE
  5
125
330
121
100
AcDbEntity
  8
_U+30EC_U+30A4_U+30E4_U+30FC 1
370
     0
100
AcDbSpline
210
0.0
220
0.0
230
1.0
 70
    11
 71
     3
 72
    26
 73
    22
 74
     0
 42
0.0000000001
 43
0.0000000001
 12
1.0
 22
0.0
 32
0.0
 13
1.0
 23
0.0
 33
0.0
 40
0.0
 40
0.0
 40
0.0
 40
0.0
 40
1.0
 40
1.0
 40
1.0
 40
2.0
 40
2.0
 40
2.0
 40
3.0
 40
3.0
 40
3.0
 40
4.0
 40
4.0
 40
4.0
 40
5.0
 40
5.0
 40
5.0
 40
6.0
 40
6.0
 40
6.0
 40
7.0
 40
7.0
 40
7.0
 40
7.0
 10
121.7755126648686
 20
-148.1911268075703
 30
0.0
 10
121.7755126648686
 20
-148.1911268075703
 30
0.0
 10
120.6713595618461
 20
-148.1911268075703
 30
0.0
 10
120.6713595618461
 20
-148.1911268075703
 30
0.0
 10
120.6713595618461
 20
-148.1911268075703
 30
0.0
 10
120.6713595618461
 20
-148.5211669550572
 30
0.0
 10
120.6713595618461
 20
-148.5211669550572
 30
0.0
 10
120.6713595618461
 20
-148.5211669550572
 30
0.0
 10
120.5232204559803
 20
-148.5211669550572
 30
0.0
 10
120.5232204559803
 20
-148.5211669550572
 30
0.0
 10
120.5084065453937
 20
-148.1890597502791
 30
0.0
 10
120.3454535289414
 20
-148.1425509612283
 30
0.0
 10
120.2310763588311
 20
-148.1129231400551
 30
0.0
 10
120.2310763588311
 20
-148.1129231400551
 30
0.0
 10
120.2310763588311
 20
-147.9668510914805
 30
0.0
 10
120.2310763588311
 20
-147.9668510914805
 30
0.0
 10
120.2310763588311
 20
-147.9668510914805
 30
0.0
 10
121.7755126648686
 20
-147.9668510914805
 30
0.0
 10
121.7755126648686
 20
-147.9668510914805
 30
0.0
 10
121.7755126648686
 20
-147.9668510914805
 30
0.0
 10
121.7755126648686
 20
-148.1911268075703
 30
0.0
 10
121.7755126648686
 20
-148.1911268075703
 30
0.0
  0
HATCH
  5
126
330
121
100
AcDbEntity
  8
_U+30EC_U+30A4_U+30E4_U+30FC 1
 62
   179
420
  2234388
100
AcDbHatch
 10
0.0
 20
0.0
 30
0.0
210
0.0
220
0.0
230
1.0
  2
SOLID
 70
     1
 71
     0
 91
        1
 92
        1
 93
        1
 72
     4
 94
        3
 73
     0
 74
     1
 95
       26
 96
       22
 40
0.0
 40
0.0
 40
0.0
 40
0.0
 40
1.0
 40
1.0
 40
1.0
 40
2.0
 40
2.0
 40
2.0
 40
3.0
 40
3.0
 40
3.0
 40
4.0
 40
4.0
 40
4.0
 40
5.0
 40
5.0
 40
5.0
 40
6.0
 40
6.0
 40
6.0
 40
7.0
 40
7.0
 40
7.0
 40
7.0
 10
121.7755126648686
 20
-148.1911268075703
 10
121.7755126648686
 20
-148.1911268075703
 10
120.6713595618461
 20
-148.1911268075703
 10
120.6713595618461
 20
-148.1911268075703
 10
120.6713595618461
 20
-148.1911268075703
 10
120.6713595618461
 20
-148.5211669550572
 10
120.6713595618461
 20
-148.5211669550572
 10
120.6713595618461
 20
-148.5211669550572
 10
120.5232204559803
 20
-148.5211669550572
 10
120.5232204559803
 20
-148.5211669550572
 10
120.5084065453937
 20
-148.1890597502791
 10
120.3454535289414
 20
-148.1425509612283
 10
120.2310763588311
 20
-148.1129231400551
 10
120.2310763588311
 20
-148.1129231400551
 10
120.2310763588311
 20
-147.9668510914805
 10
120.2310763588311
 20
-147.9668510914805
 10
120.2310763588311
 20
-147.9668510914805
 10
121.7755126648686
 20
-147.9668510914805
 10
121.7755126648686
 20
-147.9668510914805
 10
121.7755126648686
 20
-147.9668510914805
 10
121.7755126648686
 20
-148.1911268075703
 10
121.7755126648686
 20
-148.1911268075703
 97
        0
 97
        0
 75
     2
 76
     1
 98
        0
  0
SPLINE
  5
127
330
121
100
AcDbEntity
  8
_U+30EC_U+30A4_U+30E4_U+30FC 1
370
     0
100
AcDbSpline
210
0.0
220
0.0
230
1.0
 70
    11
 71
     3
 72
    29
 73
    25
 74
     0
 42
0.0000000001
 43
0.0000000001
 12
1.0
 22
0.0
 32
0.0
 13
1.0
 23
0.0
 33
0.0
 40
0.0
 40
0.0
 40
0.0
 40
0.0
 40
1.0
 40
1.0
 40
1.0
 40
2.0
 40
2.0
 40
2.0
 40
3.0
 40
3.0
 40
3.0
 40
4.0
 40
4.0
 40
4.0
 40
5.0
 40
5.0
 40
5.0
 40
6.0
 40
6.0
 40
6.0
 40
7.0
 40
7.0
 40
7.0
 40
8.0
 40
8.0
 40
8.0
 40
8.0
 10
121.5977457378297
 20
-146.5677978149206
 30
0.0
 10
121.8072075433329
 20
-146.6759738131574
 30
0.0
 10
121.8261555685018
 20
-146.8492621160655
 30
0.0
 10
121.8261555685018
 20
-146.9657063434669
 30
0.0
 10
121.8261555685018
 20
-147.1265923026281
 30
0.0
 10
121.7796467794509
 20
-147.2681857270719
 30
0.0
 10
121.5977457378297
 20
-147.3632703624647
 30
0.0
 10
121.4030978429131
 20
-147.4669677365708
 30
0.0
 10
121.1660752735279
 20
-147.4859157617396
 30
0.0
 10
121.0034667666241
 20
-147.4859157617396
 30
0.0
 10
120.8594617753407
 20
-147.4859157617396
 30
0.0
 10
120.6076252953689
 20
-147.4690347938619
 30
0.0
 10
120.40884328587
 20
-147.3632703624647
 30
0.0
 10
120.2059271617888
 20
-147.2554388737764
 30
0.0
 10
120.1825005124891
 20
-147.0945529146153
 30
0.0
 10
120.1825005124891
 20
-146.9657063434669
 30
0.0
 10
120.1825005124891
 20
-146.8068874415969
 30
0.0
 10
120.2269422442488
 20
-146.663226959862
 30
0.0
 10
120.40884328587
 20
-146.5677978149206
 30
0.0
 10
120.6014241234955
 20
-146.4685790649454
 30
0.0
 10
120.8298339541675
 20
-146.4451524156457
 30
0.0
 10
121.0034667666241
 20
-146.4451524156457
 30
0.0
 10
121.174688012241
 20
-146.4451524156457
 30
0.0
 10
121.4051649002043
 20
-146.4665120076542
 30
0.0
 10
121.5977457378297
 20
-146.5677978149206
 30
0.0
  0
SPLINE
  5
128
330
121
100
AcDbEntity
  8
_U+30EC_U+30A4_U+30E4_U+30FC 1
370
     0
100
AcDbSpline
210
0.0
220
0.0
230
1.0
 70
    11
 71
     3
 72
    17
 73
    13
 74
     0
 42
0.0000000001
 43
0.0000000001
 12
1.0
 22
0.0
 32
0.0
 13
1.0
 23
0.0
 33
0.0
 40
0.0
 40
0.0
 40
0.0
 40
0.0
 40
1.0
 40
1.0
 40
1.0
 40
2.0
 40
2.0
 40
2.0
 40
3.0
 40
3.0
 40
3.0
 40
4.0
 40
4.0
 40
4.0
 40
4.0
 10
120.3750813501146
 20
-146.9657063434669
 30
0.0
 10
120.3750813501146
 20
-147.215131256599
 30
0.0
 10
120.6586127085506
 20
-147.2619845551984
 30
0.0
 10
121.0034667666241
 20
-147.2619845551984
 30
0.0
 10
121.3228271181068
 20
-147.2619845551984
 30
0.0
 10
121.6315076735852
 20
-147.2258110526033
 30
0.0
 10
121.6315076735852
 20
-146.9657063434669
 30
0.0
 10
121.6315076735852
 20
-146.7180039780775
 30
0.0
 10
121.3503878819888
 20
-146.6694281317354
 30
0.0
 10
121.0034667666241
 20
-146.6694281317354
 30
0.0
 10
120.683761905593
 20
-146.6694281317354
 30
0.0
 10
120.3750813501146
 20
-146.7076686916217
 30
0.0
 10
120.3750813501146
 20
-146.9657063434669
 30
0.0
  0
HATCH
  5
129
330
121
100
AcDbEntity
  8
_U+30EC_U+30A4_U+30E4_U+30FC 1
 62
   179
420
  2234388
100
AcDbHatch
 10
0.0
 20
0.0
 30
0.0
210
0.0
220
0.0
230
1.0
  2
SOLID
 70
     1
 71
     0
 91
        2
 92
        1
 93
        1
 72
     4
 94
        3
 73
     0
 74
     1
 95
       29
 96
       25
 40
0.0
 40
0.0
 40
0.0
 40
0.0
 40
1.0
 40
1.0
 40
1.0
 40
2.0
 40
2.0
 40
2.0
 40
3.0
 40
3.0
 40
3.0
 40
4.0
 40
4.0
 40
4.0
 40
5.0
 40
5.0
 40
5.0
 40
6.0
 40
6.0
 40
6.0
 40
7.0
 40
7.0
 40
7.0
 40
8.0
 40
8.0
 40
8.0
 40
8.0
 10
121.5977457378297
 20
-146.5677978149206
 10
121.8072075433329
 20
-146.6759738131574
 10
121.8261555685018
 20
-146.8492621160655
 10
121.8261555685018
 20
-146.9657063434669
 10
121.8261555685018
 20
-147.1265923026281
 10
121.7796467794509
 20
-147.2681857270719
 10
121.5977457378297
 20
-147.3632703624647
 10
121.4030978429131
 20
-147.4669677365708
 10
121.1660752735279
 20
-147.4859157617396
 10
121.0034667666241
 20
-147.4859157617396
 10
120.8594617753407
 20
-147.4859157617396
 10
120.6076252953689
 20
-147.4690347938619
 10
120.40884328587
 20
-147.3632703624647
 10
120.2059271617888
 20
-147.2554388737764
 10
120.1825005124891
 20
-147.0945529146153
 10
120.1825005124891
 20
-146.9657063434669
 10
120.1825005124891
 20
-146.8068874415969
 10
120.2269422442488
 20
-146.663226959862
 10
120.40884328587
 20
-146.5677978149206
 10
120.6014241234955
 20
-146.4685790649454
 10
120.8298339541675
 20
-146.4451524156457
 10
121.0034667666241
 20
-146.4451524156457
 10
121.174688012241
 20
-146.4451524156457
 10
121.4051649002043
 20
-146.4665120076542
 10
121.5977457378297
 20
-146.5677978149206
 97
        0
 97
        0
 92
        1
 93
        1
 72
     4
 94
        3
 73
     0
 74
     1
 95
       17
 96
       13
 40
0.0
 40
0.0
 40
0.0
 40
0.0
 40
1.0
 40
1.0
 40
1.0
 40
2.0
 40
2.0
 40
2.0
 40
3.0
 40
3.0
 40
3.0
 40
4.0
 40
4.0
 40
4.0
 40
4.0
 10
120.3750813501146
 20
-146.9657063434669
 10
120.3750813501146
 20
-147.215131256599
 10
120.6586127085506
 20
-147.2619845551984
 10
121.0034667666241
 20
-147.2619845551984
 10
121.3228271181068
 20
-147.2619845551984
 10
121.6315076735852
 20
-147.2258110526033
 10
121.6315076735852
 20
-146.9657063434669
 10
121.6315076735852
 20
-146.7180039780775
 10
121.3503878819888
 20
-146.6694281317354
 10
121.0034667666241
 20
-146.6694281317354
 10
120.683761905593
 20
-146.6694281317354
 10
120.3750813501146
 20
-146.7076686916217
 10
120.3750813501146
 20
-146.9657063434669
 97
        0
 97
        0
 75
     2
 76
     1
 98
        0
  0
ENDBLK
  5
124
330
121
100
AcDbEntity
  8
0
100
AcDbBlockEnd
  0
ENDSEC
  0
SECTION
  2
ENTITIES
  0
POLYLINE
  5
41
330
1F
100
AcDbEntity
  8
_U+30EC_U+30A4_U+30E4_U+30FC 1
  6
AI-Linetype-1
 62
   154
420
    23468
370
    25
100
AcDb2dPolyline
 66
     1
 10
0.0
 20
0.0
 30
0.0
  0
VERTEX
  5
42
330
41
100
AcDbEntity
  8
_U+30EC_U+30A4_U+30E4_U+30FC 1
  6
AI-Linetype-1
 62
   154
420
    23468
370
    25
100
AcDbVertex
100
AcDb2dVertex
 10
93.40084233936821
 20
-154.3516371836342
 30
0.0
  0
VERTEX
  5
43
330
41
100
AcDbEntity
  8
_U+30EC_U+30A4_U+30E4_U+30FC 1
  6
AI-Linetype-1
 62
   154
420
    23468
370
    25
100
AcDbVertex
100
AcDb2dVertex
 10
93.40084233936821
 20
-143.3114919086165
 30
0.0
  0
SEQEND
  5
45
330
41
100
AcDbEntity
  8
_U+30EC_U+30A4_U+30E4_U+30FC 1
  6
AI-Linetype-1
 62
   154
420
    23468
370
    25
  0
POLYLINE
  5
46
330
1F
100
AcDbEntity
  8
_U+30EC_U+30A4_U+30E4_U+30FC 1
  6
AI-Linetype-2
 62
   154
420
    23468
370
    25
100
AcDb2dPolyline
 66
     1
 10
0.0
 20
0.0
 30
0.0
  0
VERTEX
  5
47
330
46
100
AcDbEntity
  8
_U+30EC_U+30A4_U+30E4_U+30FC 1
  6
AI-Linetype-2
 62
   154
420
    23468
370
    25
100
AcDbVertex
100
AcDb2dVertex
 10
85.97769252874855
 20
-143.0406996864619
 30
0.0
  0
VERTEX
  5
48
330
46
100
AcDbEntity
  8
_U+30EC_U+30A4_U+30E4_U+30FC 1
  6
AI-Linetype-2
 62
   154
420
    23468
370
    25
100
AcDbVertex
100
AcDb2dVertex
 10
93.31162484164435
 20
-143.0406996864619
 30
0.0
  0
SEQEND
  5
4A
330
46
100
AcDbEntity
  8
_U+30EC_U+30A4_U+30E4_U+30FC 1
  6
AI-Linetype-2
 62
   154
420
    23468
370
    25
  0
POLYLINE
  5
4B
330
1F
100
AcDbEntity
  8
_U+30EC_U+30A4_U+30E4_U+30FC 1
  6
AI-Linetype-3
 62
   154
420
    23468
370
    25
100
AcDb2dPolyline
 66
     1
 10
0.0
 20
0.0
 30
0.0
  0
VERTEX
  5
4C
330
4B
100
AcDbEntity
  8
_U+30EC_U+30A4_U+30E4_U+30FC 1
  6
AI-Linetype-3
 62
   154
420
    23468
370
    25
100
AcDbVertex
100
AcDb2dVertex
 10
93.86763788301482
 20
-154.5404438502538
 30
0.0
  0
VERTEX
  5
4D
330
4B
100
AcDbEntity
  8
_U+30EC_U+30A4_U+30E4_U+30FC 1
  6
AI-Linetype-3
 62
   154
420
    23468
370
    25
100
AcDbVertex
100
AcDb2dVertex
 10
104.1774623422115
 20
-153.6750446838032
 30
0.0
  0
SEQEND
  5
4F
330
4B
100
AcDbEntity
  8
_U+30EC_U+30A4_U+30E4_U+30FC 1
  6
AI-Linetype-3
 62
   154
420
    23468
370
    25
  0
POLYLINE
  5
50
330
1F
100
AcDbEntity
  8
_U+30EC_U+30A4_U+30E4_U+30FC 1
 62
   179
420
  2234388
370
    25
100
AcDb2dPolyline
 66
     1
 10
0.0
 20
0.0
 30
0.0
  0
VERTEX
  5
51
330
50
100
AcDbEntity
  8
_U+30EC_U+30A4_U+30E4_U+30FC 1
 62
   179
420
  2234388
370
    25
100
AcDbVertex
100
AcDb2dVertex
 10
86.07795197063516
 20
-142.5535841310282
 30
0.0
  0
VERTEX
  5
52
330
50
100
AcDbEntity
  8
_U+30EC_U+30A4_U+30E4_U+30FC 1
 62
   179
420
  2234388
370
    25
100
AcDbVertex
100
AcDb2dVertex
 10
94.07778759987568
 20
-142.5535841310282
 30
0.0
  0
VERTEX
  5
53
330
50
100
AcDbEntity
  8
_U+30EC_U+30A4_U+30E4_U+30FC 1
 62
   179
420
  2234388
370
    25
100
AcDbVertex
100
AcDb2dVertex
 10
94.07778759987568
 20
-153.7549488504501
 30
0.0
  0
VERTEX
  5
54
330
50
100
AcDbEntity
  8
_U+30EC_U+30A4_U+30E4_U+30FC 1
 62
   179
420
  2234388
370
    25
100
AcDbVertex
100
AcDb2dVertex
 10
104.0775204003168
 20
-153.0542263506252
 30
0.0
  0
VERTEX
  5
55
330
50
100
AcDbEntity
  8
_U+30EC_U+30A4_U+30E4_U+30FC 1
 62
   179
420
  2234388
370
    25
100
AcDbVertex
100
AcDb2dVertex
 10
104.0775204003168
 20
-152.5539874618614
 30
0.0
  0
VERTEX
  5
56
330
50
100
AcDbEntity
  8
_U+30EC_U+30A4_U+30E4_U+30FC 1
 62
   179
420
  2234388
370
    25
100
AcDbVertex
100
AcDb2dVertex
 10
97.07780974556097
 20
-152.5539874618614
 30
0.0
  0
VERTEX
  5
57
330
50
100
AcDbEntity
  8
_U+30EC_U+30A4_U+30E4_U+30FC 1
 62
   179
420
  2234388
370
    25
100
AcDbVertex
100
AcDb2dVertex
 10
97.07780974556097
 20
-142.5542544088059
 30
0.0
  0
VERTEX
  5
58
330
50
100
AcDbEntity
  8
_U+30EC_U+30A4_U+30E4_U+30FC 1
 62
   179
420
  2234388
370
    25
100
AcDbVertex
100
AcDb2dVertex
 10
119.0776694146749
 20
-142.5542544088059
 30
0.0
  0
VERTEX
  5
59
330
50
100
AcDbEntity
  8
_U+30EC_U+30A4_U+30E4_U+30FC 1
 62
   179
420
  2234388
370
    25
100
AcDbVertex
100
AcDb2dVertex
 10
119.0776694146749
 20
-141.553811909056
 30
0.0
  0
VERTEX
  5
5A
330
50
100
AcDbEntity
  8
_U+30EC_U+30A4_U+30E4_U+30FC 1
 62
   179
420
  2234388
370
    25
100
AcDbVertex
100
AcDb2dVertex
 10
96.0773319933075
 20
-141.553811909056
 30
0.0
  0
VERTEX
  5
5B
330
50
100
AcDbEntity
  8
_U+30EC_U+30A4_U+30E4_U+30FC 1
 62
   179
420
  2234388
370
    25
100
AcDbVertex
100
AcDb2dVertex
 10
96.0773319933075
 20
-152.5539874618614
 30
0.0
  0
VERTEX
  5
5C
330
50
100
AcDbEntity
  8
_U+30EC_U+30A4_U+30E4_U+30FC 1
 62
   179
420
  2234388
370
    25
100
AcDbVertex
100
AcDb2dVertex
 10
95.07755979659159
 20
-152.5539874618614
 30
0.0
  0
VERTEX
  5
5D
330
50
100
AcDbEntity
  8
_U+30EC_U+30A4_U+30E4_U+30FC 1
 62
   179
420
  2234388
370
    25
100
AcDbVertex
100
AcDb2dVertex
 10
95.07755979659159
 20
-141.553811909056
 30
0.0
  0
VERTEX
  5
5E
330
50
100
AcDbEntity
  8
_U+30EC_U+30A4_U+30E4_U+30FC 1
 62
   179
420
  2234388
370
    25
100
AcDbVertex
100
AcDb2dVertex
 10
86.07795197063516
 20
-141.553811909056
 30
0.0
  0
VERTEX
  5
5F
330
50
100
AcDbEntity
  8
_U+30EC_U+30A4_U+30E4_U+30FC 1
 62
   179
420
  2234388
370
    25
100
AcDbVertex
100
AcDb2dVertex
 10
86.07795197063516
 20
-142.5535841310282
 30
0.0
  0
SEQEND
  5
60
330
50
100
AcDbEntity
  8
_U+30EC_U+30A4_U+30E4_U+30FC 1
 62
   179
420
  2234388
370
    25
  0
POLYLINE
  5
61
330
1F
100
AcDbEntity
  8
_U+30EC_U+30A4_U+30E4_U+30FC 1
 62
   179
420
  2234388
370
     9
100
AcDb2dPolyline
 66
     1
 10
0.0
 20
0.0
 30
0.0
  0
VERTEX
  5
62
330
61
100
AcDbEntity
  8
_U+30EC_U+30A4_U+30E4_U+30FC 1
 62
   179
420
  2234388
370
     9
100
AcDbVertex
100
AcDb2dVertex
 10
119.0473305257939
 20
-137.8599816322017
 30
0.0
  0
VERTEX
  5
63
330
61
100
AcDbEntity
  8
_U+30EC_U+30A4_U+30E4_U+30FC 1
 62
   179
420
  2234388
370
     9
100
AcDbVertex
100
AcDb2dVertex
 10
86.07795197063516
 20
-137.8599816322017
 30
0.0
  0
SEQEND
  5
64
330
61
100
AcDbEntity
  8
_U+30EC_U+30A4_U+30E4_U+30FC 1
 62
   179
420
  2234388
370
     9
  0
SPLINE
  5
65
330
1F
100
AcDbEntity
  8
_U+30EC_U+30A4_U+30E4_U+30FC 1
 62
   179
420
  2234388
370
     9
100
AcDbSpline
210
0.0
220
0.0
230
1.0
 70
    11
 71
     3
 72
    17
 73
    13
 74
     0
 42
0.0000000001
 43
0.0000000001
 12
1.0
 22
0.0
 32
0.0
 13
1.0
 23
0.0
 33
0.0
 40
0.0
 40
0.0
 40
0.0
 40
0.0
 40
1.0
 40
1.0
 40
1.0
 40
2.0
 40
2.0
 40
2.0
 40
3.0
 40
3.0
 40
3.0
 40
4.0
 40
4.0
 40
4.0
 40
4.0
 10
86.04729558252838
 20
-137.7600749655601
 30
0.0
 10
85.99215641726843
 20
-137.7600749655601
 30
0.0
 10
85.94738891841054
 20
-137.8048424655489
 30
0.0
 10
85.94738891841054
 20
-137.8599816322017
 30
0.0
 10
85.94738891841054
 20
-137.9150855210769
 30
0.0
 10
85.99215641726843
 20
-137.9598882988433
 30
0.0
 10
86.04729558252838
 20
-137.9598882988433
 30
0.0
 10
86.10239947001145
 20
-137.9598882988433
 30
0.0
 10
86.14720224664622
 20
-137.9150855210769
 30
0.0
 10
86.14720224664622
 20
-137.8599816322017
 30
0.0
 10
86.14720224664622
 20
-137.8048424655489
 30
0.0
 10
86.10239947001145
 20
-137.7600749655601
 30
0.0
 10
86.04729558252838
 20
-137.7600749655601
 30
0.0
  0
POLYLINE
  5
66
330
1F
100
AcDbEntity
  8
_U+30EC_U+30A4_U+30E4_U+30FC 1
 62
   179
420
  2234388
370
     9
100
AcDb2dPolyline
 66
     1
 10
0.0
 20
0.0
 30
0.0
  0
VERTEX
  5
67
330
66
100
AcDbEntity
  8
_U+30EC_U+30A4_U+30E4_U+30FC 1
 62
   179
420
  2234388
370
     9
100
AcDbVertex
100
AcDb2dVertex
 10
86.04729558252838
 20
-136.3999402436777
 30
0.0
  0
VERTEX
  5
68
330
66
100
AcDbEntity
  8
_U+30EC_U+30A4_U+30E4_U+30FC 1
 62
   179
420
  2234388
370
     9
100
AcDbVertex
100
AcDb2dVertex
 10
86.04729558252838
 20
-139.1405296874371
 30
0.0
  0
SEQEND
  5
69
330
66
100
AcDbEntity
  8
_U+30EC_U+30A4_U+30E4_U+30FC 1
 62
   179
420
  2234388
370
     9
  0
SPLINE
  5
6A
330
1F
100
AcDbEntity
  8
_U+30EC_U+30A4_U+30E4_U+30FC 1
 62
   179
420
  2234388
370
     9
100
AcDbSpline
210
0.0
220
0.0
230
1.0
 70
    11
 71
     3
 72
    17
 73
    13
 74
     0
 42
0.0000000001
 43
0.0000000001
 12
1.0
 22
0.0
 32
0.0
 13
1.0
 23
0.0
 33
0.0
 40
0.0
 40
0.0
 40
0.0
 40
0.0
 40
1.0
 40
1.0
 40
1.0
 40
2.0
 40
2.0
 40
2.0
 40
3.0
 40
3.0
 40
3.0
 40
4.0
 40
4.0
 40
4.0
 40
4.0
 10
119.0473305257939
 20
-137.7600749655601
 30
0.0
 10
118.9922236309221
 20
-137.7600749655601
 30
0.0
 10
118.9474208542874
 20
-137.8048424655489
 30
0.0
 10
118.9474208542874
 20
-137.8599816322017
 30
0.0
 10
118.9474208542874
 20
-137.9150855210769
 30
0.0
 10
118.9922236309221
 20
-137.9598882988433
 30
0.0
 10
119.0473305257939
 20
-137.9598882988433
 30
0.0
 10
119.1024666836652
 20
-137.9598882988433
 30
0.0
 10
119.147234182523
 20
-137.9150855210769
 30
0.0
 10
119.147234182523
 20
-137.8599816322017
 30
0.0
 10
119.147234182523
 20
-137.8048424655489
 30
0.0
 10
119.1024666836652
 20
-137.7600749655601
 30
0.0
 10
119.0473305257939
 20
-137.7600749655601
 30
0.0
  0
POLYLINE
  5
6B
330
1F
100
AcDbEntity
  8
_U+30EC_U+30A4_U+30E4_U+30FC 1
 62
   179
420
  2234388
370
     9
100
AcDb2dPolyline
 66
     1
 10
0.0
 20
0.0
 30
0.0
  0
VERTEX
  5
6C
330
6B
100
AcDbEntity
  8
_U+30EC_U+30A4_U+30E4_U+30FC 1
 62
   179
420
  2234388
370
     9
100
AcDbVertex
100
AcDb2dVertex
 10
119.0473305257939
 20
-136.3999402436777
 30
0.0
  0
VERTEX
  5
6D
330
6B
100
AcDbEntity
  8
_U+30EC_U+30A4_U+30E4_U+30FC 1
 62
   179
420
  2234388
370
     9
100
AcDbVertex
100
AcDb2dVertex
 10
119.0473305257939
 20
-139.1405296874371
 30
0.0
  0
SEQEND
  5
6E
330
6B
100
AcDbEntity
  8
_U+30EC_U+30A4_U+30E4_U+30FC 1
 62
   179
420
  2234388
370
     9
  0
INSERT
  5
70
330
1F
100
AcDbEntity
  8
_U+30EC_U+30A4_U+30E4_U+30FC 1
100
AcDbBlockReference
  2
block 2
 10
0.0
 20
0.0
 30
0.0
  0
SPLINE
  5
77
330
1F
100
AcDbEntity
  8
_U+30EC_U+30A4_U+30E4_U+30FC 1
 62
   179
420
  2234388
370
     9
100
AcDbSpline
210
0.0
220
0.0
230
1.0
 70
    11
 71
     3
 72
    17
 73
    13
 74
     0
 42
0.0000000001
 43
0.0000000001
 12
1.0
 22
0.0
 32
0.0
 13
1.0
 23
0.0
 33
0.0
 40
0.0
 40
0.0
 40
0.0
 40
0.0
 40
1.0
 40
1.0
 40
1.0
 40
2.0
 40
2.0
 40
2.0
 40
3.0
 40
3.0
 40
3.0
 40
4.0
 40
4.0
 40
4.0
 40
4.0
 10
86.17852891251367
 20
-158.0409871827121
 30
0.0
 10
86.17852891251367
 20
-157.9858832938371
 30
0.0
 10
86.13376141365579
 20
-157.9410805160704
 30
0.0
 10
86.07795197063516
 20
-157.9410805160704
 30
0.0
 10
86.02281280537521
 20
-157.9410805160704
 30
0.0
 10
85.97804530651733
 20
-157.9858832938371
 30
0.0
 10
85.97804530651733
 20
-158.0409871827121
 30
0.0
 10
85.97804530651733
 20
-158.0961263493651
 30
0.0
 10
86.02281280537521
 20
-158.1408938493537
 30
0.0
 10
86.07795197063516
 20
-158.1408938493537
 30
0.0
 10
86.13376141365579
 20
-158.1408938493537
 30
0.0
 10
86.17852891251367
 20
-158.0961263493651
 30
0.0
 10
86.17852891251367
 20
-158.0409871827121
 30
0.0
  0
POLYLINE
  5
78
330
1F
100
AcDbEntity
  8
_U+30EC_U+30A4_U+30E4_U+30FC 1
 62
   179
420
  2234388
370
     9
100
AcDb2dPolyline
 66
     1
 10
0.0
 20
0.0
 30
0.0
  0
VERTEX
  5
79
330
78
100
AcDbEntity
  8
_U+30EC_U+30A4_U+30E4_U+30FC 1
 62
   179
420
  2234388
370
     9
100
AcDbVertex
100
AcDb2dVertex
 10
86.07795197063516
 20
-158.0409871827121
 30
0.0
  0
VERTEX
  5
7A
330
78
100
AcDbEntity
  8
_U+30EC_U+30A4_U+30E4_U+30FC 1
 62
   179
420
  2234388
370
     9
100
AcDbVertex
100
AcDb2dVertex
 10
104.0775204003168
 20
-158.0409871827121
 30
0.0
  0
SEQEND
  5
7B
330
78
100
AcDbEntity
  8
_U+30EC_U+30A4_U+30E4_U+30FC 1
 62
   179
420
  2234388
370
     9
  0
POLYLINE
  5
7C
330
1F
100
AcDbEntity
  8
_U+30EC_U+30A4_U+30E4_U+30FC 1
 62
   179
420
  2234388
370
     9
100
AcDb2dPolyline
 66
     1
 10
0.0
 20
0.0
 30
0.0
  0
VERTEX
  5
7D
330
7C
100
AcDbEntity
  8
_U+30EC_U+30A4_U+30E4_U+30FC 1
 62
   179
420
  2234388
370
     9
100
AcDbVertex
100
AcDb2dVertex
 10
86.07795197063516
 20
-145.7544074635613
 30
0.0
  0
VERTEX
  5
7E
330
7C
100
AcDbEntity
  8
_U+30EC_U+30A4_U+30E4_U+30FC 1
 62
   179
420
  2234388
370
     9
100
AcDbVertex
100
AcDb2dVertex
 10
86.07795197063516
 20
-158.8719552380597
 30
0.0
  0
SEQEND
  5
7F
330
7C
100
AcDbEntity
  8
_U+30EC_U+30A4_U+30E4_U+30FC 1
 62
   179
420
  2234388
370
     9
  0
SPLINE
  5
80
330
1F
100
AcDbEntity
  8
_U+30EC_U+30A4_U+30E4_U+30FC 1
 62
   179
420
  2234388
370
     9
100
AcDbSpline
210
0.0
220
0.0
230
1.0
 70
    11
 71
     3
 72
    17
 73
    13
 74
     0
 42
0.0000000001
 43
0.0000000001
 12
1.0
 22
0.0
 32
0.0
 13
1.0
 23
0.0
 33
0.0
 40
0.0
 40
0.0
 40
0.0
 40
0.0
 40
1.0
 40
1.0
 40
1.0
 40
2.0
 40
2.0
 40
2.0
 40
3.0
 40
3.0
 40
3.0
 40
4.0
 40
4.0
 40
4.0
 40
4.0
 10
104.1781326199722
 20
-158.0409871827121
 30
0.0
 10
104.1781326199722
 20
-157.9858832938371
 30
0.0
 10
104.1333651211143
 20
-157.9410805160704
 30
0.0
 10
104.0775204003168
 20
-157.9410805160704
 30
0.0
 10
104.0224165128337
 20
-157.9410805160704
 30
0.0
 10
103.977613736199
 20
-157.9858832938371
 30
0.0
 10
103.977613736199
 20
-158.0409871827121
 30
0.0
 10
103.977613736199
 20
-158.0961263493651
 30
0.0
 10
104.0224165128337
 20
-158.1408938493537
 30
0.0
 10
104.0775204003168
 20
-158.1408938493537
 30
0.0
 10
104.1333651211143
 20
-158.1408938493537
 30
0.0
 10
104.1781326199722
 20
-158.0961263493651
 30
0.0
 10
104.1781326199722
 20
-158.0409871827121
 30
0.0
  0
POLYLINE
  5
81
330
1F
100
AcDbEntity
  8
_U+30EC_U+30A4_U+30E4_U+30FC 1
 62
   179
420
  2234388
370
     9
100
AcDb2dPolyline
 66
     1
 10
0.0
 20
0.0
 30
0.0
  0
VERTEX
  5
82
330
81
100
AcDbEntity
  8
_U+30EC_U+30A4_U+30E4_U+30FC 1
 62
   179
420
  2234388
370
     9
100
AcDbVertex
100
AcDb2dVertex
 10
104.0775204003168
 20
-155.7414052388424
 30
0.0
  0
VERTEX
  5
83
330
81
100
AcDbEntity
  8
_U+30EC_U+30A4_U+30E4_U+30FC 1
 62
   179
420
  2234388
370
     9
100
AcDbVertex
100
AcDb2dVertex
 10
104.0775204003168
 20
-158.8719552380597
 30
0.0
  0
SEQEND
  5
84
330
81
100
AcDbEntity
  8
_U+30EC_U+30A4_U+30E4_U+30FC 1
 62
   179
420
  2234388
370
     9
  0
SPLINE
  5
85
330
1F
100
AcDbEntity
  8
_U+30EC_U+30A4_U+30E4_U+30FC 1
 62
   179
420
  2234388
370
     9
100
AcDbSpline
210
0.0
220
0.0
230
1.0
 70
    11
 71
     3
 72
    17
 73
    13
 74
     0
 42
0.0000000001
 43
0.0000000001
 12
1.0
 22
0.0
 32
0.0
 13
1.0
 23
0.0
 33
0.0
 40
0.0
 40
0.0
 40
0.0
 40
0.0
 40
1.0
 40
1.0
 40
1.0
 40
2.0
 40
2.0
 40
2.0
 40
3.0
 40
3.0
 40
3.0
 40
4.0
 40
4.0
 40
4.0
 40
4.0
 10
94.17839981953107
 20
-158.0409871827121
 30
0.0
 10
94.17839981953107
 20
-157.9858832938371
 30
0.0
 10
94.13359704289631
 20
-157.9410805160704
 30
0.0
 10
94.07778759987568
 20
-157.9410805160704
 30
0.0
 10
94.02268608760535
 20
-157.9410805160704
 30
0.0
 10
93.97788330983894
 20
-157.9858832938371
 30
0.0
 10
93.97788330983894
 20
-158.0409871827121
 30
0.0
 10
93.97788330983894
 20
-158.0961263493651
 30
0.0
 10
94.02268608760535
 20
-158.1408938493537
 30
0.0
 10
94.07778759987568
 20
-158.1408938493537
 30
0.0
 10
94.13359704289631
 20
-158.1408938493537
 30
0.0
 10
94.17839981953107
 20
-158.0961263493651
 30
0.0
 10
94.17839981953107
 20
-158.0409871827121
 30
0.0
  0
POLYLINE
  5
86
330
1F
100
AcDbEntity
  8
_U+30EC_U+30A4_U+30E4_U+30FC 1
 62
   179
420
  2234388
370
     9
100
AcDb2dPolyline
 66
     1
 10
0.0
 20
0.0
 30
0.0
  0
VERTEX
  5
87
330
86
100
AcDbEntity
  8
_U+30EC_U+30A4_U+30E4_U+30FC 1
 62
   179
420
  2234388
370
     9
100
AcDbVertex
100
AcDb2dVertex
 10
94.07778759987568
 20
-155.7414052388424
 30
0.0
  0
VERTEX
  5
88
330
86
100
AcDbEntity
  8
_U+30EC_U+30A4_U+30E4_U+30FC 1
 62
   179
420
  2234388
370
     9
100
AcDbVertex
100
AcDb2dVertex
 10
94.07778759987568
 20
-158.8719552380597
 30
0.0
  0
SEQEND
  5
89
330
86
100
AcDbEntity
  8
_U+30EC_U+30A4_U+30E4_U+30FC 1
 62
   179
420
  2234388
370
     9
  0
INSERT
  5
8B
330
1F
100
AcDbEntity
  8
_U+30EC_U+30A4_U+30E4_U+30FC 1
100
AcDbBlockReference
  2
block 3
 10
0.0
 20
0.0
 30
0.0
  0
INSERT
  5
93
330
1F
100
AcDbEntity
  8
_U+30EC_U+30A4_U+30E4_U+30FC 1
100
AcDbBlockReference
  2
block 4
 10
0.0
 20
0.0
 30
0.0
  0
POLYLINE
  5
9B
330
1F
100
AcDbEntity
  8
_U+30EC_U+30A4_U+30E4_U+30FC 1
 62
   179
420
  2234388
370
     9
100
AcDb2dPolyline
 66
     1
 10
0.0
 20
0.0
 30
0.0
  0
VERTEX
  5
9C
330
9B
100
AcDbEntity
  8
_U+30EC_U+30A4_U+30E4_U+30FC 1
 62
   179
420
  2234388
370
     9
100
AcDbVertex
100
AcDb2dVertex
 10
104.1774623422115
 20
-153.7652852393365
 30
0.0
  0
VERTEX
  5
9D
330
9B
100
AcDbEntity
  8
_U+30EC_U+30A4_U+30E4_U+30FC 1
 62
   179
420
  2234388
370
     9
100
AcDbVertex
100
AcDb2dVertex
 10
107.8349211377909
 20
-156.8138496830184
 30
0.0
  0
SEQEND
  5
9E
330
9B
100
AcDbEntity
  8
_U+30EC_U+30A4_U+30E4_U+30FC 1
 62
   179
420
  2234388
370
     9
  0
INSERT
  5
A0
330
1F
100
AcDbEntity
  8
_U+30EC_U+30A4_U+30E4_U+30FC 1
100
AcDbBlockReference
  2
block 5
 10
0.0
 20
0.0
 30
0.0
  0
SPLINE
  5
DD
330
1F
100
AcDbEntity
  8
_U+30EC_U+30A4_U+30E4_U+30FC 1
 62
   179
420
  2234388
370
     9
100
AcDbSpline
210
0.0
220
0.0
230
1.0
 70
    11
 71
     3
 72
    17
 73
    13
 74
     0
 42
0.0000000001
 43
0.0000000001
 12
1.0
 22
0.0
 32
0.0
 13
1.0
 23
0.0
 33
0.0
 40
0.0
 40
0.0
 40
0.0
 40
0.0
 40
1.0
 40
1.0
 40
1.0
 40
2.0
 40
2.0
 40
2.0
 40
3.0
 40
3.0
 40
3.0
 40
4.0
 40
4.0
 40
4.0
 40
4.0
 10
123.1773321352622
 20
-141.553811909056
 30
0.0
 10
123.1773321352622
 20
-141.4980024646255
 30
0.0
 10
123.1325293586275
 20
-141.4531996868588
 30
0.0
 10
123.0774254711444
 20
-141.4531996868588
 30
0.0
 10
123.0222863058844
 20
-141.4531996868588
 30
0.0
 10
122.9775188070266
 20
-141.4980024646255
 30
0.0
 10
122.9775188070266
 20
-141.553811909056
 30
0.0
 10
122.9775188070266
 20
-141.6089157979312
 30
0.0
 10
123.0222863058844
 20
-141.6537185756976
 30
0.0
 10
123.0774254711444
 20
-141.6537185756976
 30
0.0
 10
123.1325293586275
 20
-141.6537185756976
 30
0.0
 10
123.1773321352622
 20
-141.6089157979312
 30
0.0
 10
123.1773321352622
 20
-141.553811909056
 30
0.0
  0
SPLINE
  5
DE
330
1F
100
AcDbEntity
  8
_U+30EC_U+30A4_U+30E4_U+30FC 1
 62
   179
420
  2234388
370
     9
100
AcDbSpline
210
0.0
220
0.0
230
1.0
 70
    11
 71
     3
 72
    17
 73
    13
 74
     0
 42
0.0000000001
 43
0.0000000001
 12
1.0
 22
0.0
 32
0.0
 13
1.0
 23
0.0
 33
0.0
 40
0.0
 40
0.0
 40
0.0
 40
0.0
 40
1.0
 40
1.0
 40
1.0
 40
2.0
 40
2.0
 40
2.0
 40
3.0
 40
3.0
 40
3.0
 40
4.0
 40
4.0
 40
4.0
 40
4.0
 10
123.1773321352622
 20
-142.5535841310282
 30
0.0
 10
123.1773321352622
 20
-142.4984449643754
 30
0.0
 10
123.1325293586275
 20
-142.4536774643865
 30
0.0
 10
123.0774254711444
 20
-142.4536774643865
 30
0.0
 10
123.0222863058844
 20
-142.4536774643865
 30
0.0
 10
122.9775188070266
 20
-142.4984449643754
 30
0.0
 10
122.9775188070266
 20
-142.5535841310282
 30
0.0
 10
122.9775188070266
 20
-142.6086880199034
 30
0.0
 10
123.0222863058844
 20
-142.6534907976701
 30
0.0
 10
123.0774254711444
 20
-142.6534907976701
 30
0.0
 10
123.1325293586275
 20
-142.6534907976701
 30
0.0
 10
123.1773321352622
 20
-142.6086880199034
 30
0.0
 10
123.1773321352622
 20
-142.5535841310282
 30
0.0
  0
SPLINE
  5
DF
330
1F
100
AcDbEntity
  8
_U+30EC_U+30A4_U+30E4_U+30FC 1
 62
   179
420
  2234388
370
     9
100
AcDbSpline
210
0.0
220
0.0
230
1.0
 70
    11
 71
     3
 72
    17
 73
    13
 74
     0
 42
0.0000000001
 43
0.0000000001
 12
1.0
 22
0.0
 32
0.0
 13
1.0
 23
0.0
 33
0.0
 40
0.0
 40
0.0
 40
0.0
 40
0.0
 40
1.0
 40
1.0
 40
1.0
 40
2.0
 40
2.0
 40
2.0
 40
3.0
 40
3.0
 40
3.0
 40
4.0
 40
4.0
 40
4.0
 40
4.0
 10
108.1773625179433
 20
-152.5539874618614
 30
0.0
 10
108.1773625179433
 20
-152.498178017431
 30
0.0
 10
108.1325950190855
 20
-152.4534105174424
 30
0.0
 10
108.0774558538255
 20
-152.4534105174424
 30
0.0
 10
108.0223519663424
 20
-152.4534105174424
 30
0.0
 10
107.9775491897077
 20
-152.498178017431
 30
0.0
 10
107.9775491897077
 20
-152.5539874618614
 30
0.0
 10
107.9775491897077
 20
-152.6091266285145
 30
0.0
 10
108.0223519663424
 20
-152.6538941285031
 30
0.0
 10
108.0774558538255
 20
-152.6538941285031
 30
0.0
 10
108.1325950190855
 20
-152.6538941285031
 30
0.0
 10
108.1773625179433
 20
-152.6091266285145
 30
0.0
 10
108.1773625179433
 20
-152.5539874618614
 30
0.0
  0
SPLINE
  5
E0
330
1F
100
AcDbEntity
  8
_U+30EC_U+30A4_U+30E4_U+30FC 1
 62
   179
420
  2234388
370
     9
100
AcDbSpline
210
0.0
220
0.0
230
1.0
 70
    11
 71
     3
 72
    17
 73
    13
 74
     0
 42
0.0000000001
 43
0.0000000001
 12
1.0
 22
0.0
 32
0.0
 13
1.0
 23
0.0
 33
0.0
 40
0.0
 40
0.0
 40
0.0
 40
0.0
 40
1.0
 40
1.0
 40
1.0
 40
2.0
 40
2.0
 40
2.0
 40
3.0
 40
3.0
 40
3.0
 40
4.0
 40
4.0
 40
4.0
 40
4.0
 10
108.1773625179433
 20
-153.0542263506252
 30
0.0
 10
108.1773625179433
 20
-152.9990871839727
 30
0.0
 10
108.1325950190855
 20
-152.9543196839835
 30
0.0
 10
108.0774558538255
 20
-152.9543196839835
 30
0.0
 10
108.0223519663424
 20
-152.9543196839835
 30
0.0
 10
107.9775491897077
 20
-152.9990871839727
 30
0.0
 10
107.9775491897077
 20
-153.0542263506252
 30
0.0
 10
107.9775491897077
 20
-153.1093302395007
 30
0.0
 10
108.0223519663424
 20
-153.1541330172668
 30
0.0
 10
108.0774558538255
 20
-153.1541330172668
 30
0.0
 10
108.1325950190855
 20
-153.1541330172668
 30
0.0
 10
108.1773625179433
 20
-153.1093302395007
 30
0.0
 10
108.1773625179433
 20
-153.0542263506252
 30
0.0
  0
SPLINE
  5
E1
330
1F
100
AcDbEntity
  8
_U+30EC_U+30A4_U+30E4_U+30FC 1
 62
   179
420
  2234388
370
     9
100
AcDbSpline
210
0.0
220
0.0
230
1.0
 70
    11
 71
     3
 72
    17
 73
    13
 74
     0
 42
0.0000000001
 43
0.0000000001
 12
1.0
 22
0.0
 32
0.0
 13
1.0
 23
0.0
 33
0.0
 40
0.0
 40
0.0
 40
0.0
 40
0.0
 40
1.0
 40
1.0
 40
1.0
 40
2.0
 40
2.0
 40
2.0
 40
3.0
 40
3.0
 40
3.0
 40
4.0
 40
4.0
 40
4.0
 40
4.0
 10
123.1773321352622
 20
-152.5539874618614
 30
0.0
 10
123.1773321352622
 20
-152.498178017431
 30
0.0
 10
123.1325293586275
 20
-152.4534105174424
 30
0.0
 10
123.0774254711444
 20
-152.4534105174424
 30
0.0
 10
123.0222863058844
 20
-152.4534105174424
 30
0.0
 10
122.9775188070266
 20
-152.498178017431
 30
0.0
 10
122.9775188070266
 20
-152.5539874618614
 30
0.0
 10
122.9775188070266
 20
-152.6091266285145
 30
0.0
 10
123.0222863058844
 20
-152.6538941285031
 30
0.0
 10
123.0774254711444
 20
-152.6538941285031
 30
0.0
 10
123.1325293586275
 20
-152.6538941285031
 30
0.0
 10
123.1773321352622
 20
-152.6091266285145
 30
0.0
 10
123.1773321352622
 20
-152.5539874618614
 30
0.0
  0
POLYLINE
  5
E2
330
1F
100
AcDbEntity
  8
_U+30EC_U+30A4_U+30E4_U+30FC 1
 62
   179
420
  2234388
370
     9
100
AcDb2dPolyline
 66
     1
 10
0.0
 20
0.0
 30
0.0
  0
VERTEX
  5
E3
330
E2
100
AcDbEntity
  8
_U+30EC_U+30A4_U+30E4_U+30FC 1
 62
   179
420
  2234388
370
     9
100
AcDbVertex
100
AcDb2dVertex
 10
123.0774254711444
 20
-141.553811909056
 30
0.0
  0
VERTEX
  5
E4
330
E2
100
AcDbEntity
  8
_U+30EC_U+30A4_U+30E4_U+30FC 1
 62
   179
420
  2234388
370
     9
100
AcDbVertex
100
AcDb2dVertex
 10
123.0774254711444
 20
-137.7834994099985
 30
0.0
  0
SEQEND
  5
E5
330
E2
100
AcDbEntity
  8
_U+30EC_U+30A4_U+30E4_U+30FC 1
 62
   179
420
  2234388
370
     9
  0
POLYLINE
  5
E6
330
1F
100
AcDbEntity
  8
_U+30EC_U+30A4_U+30E4_U+30FC 1
 62
   179
420
  2234388
370
     9
100
AcDb2dPolyline
 66
     1
 10
0.0
 20
0.0
 30
0.0
  0
VERTEX
  5
E7
330
E6
100
AcDbEntity
  8
_U+30EC_U+30A4_U+30E4_U+30FC 1
 62
   179
420
  2234388
370
     9
100
AcDbVertex
100
AcDb2dVertex
 10
123.0774254711444
 20
-141.553811909056
 30
0.0
  0
VERTEX
  5
E8
330
E6
100
AcDbEntity
  8
_U+30EC_U+30A4_U+30E4_U+30FC 1
 62
   179
420
  2234388
370
     9
100
AcDbVertex
100
AcDb2dVertex
 10
123.0774254711444
 20
-142.5535841310282
 30
0.0
  0
SEQEND
  5
E9
330
E6
100
AcDbEntity
  8
_U+30EC_U+30A4_U+30E4_U+30FC 1
 62
   179
420
  2234388
370
     9
  0
POLYLINE
  5
EA
330
1F
100
AcDbEntity
  8
_U+30EC_U+30A4_U+30E4_U+30FC 1
 62
   179
420
  2234388
370
     9
100
AcDb2dPolyline
 66
     1
 10
0.0
 20
0.0
 30
0.0
  0
VERTEX
  5
EB
330
EA
100
AcDbEntity
  8
_U+30EC_U+30A4_U+30E4_U+30FC 1
 62
   179
420
  2234388
370
     9
100
AcDbVertex
100
AcDb2dVertex
 10
121.6173841195043
 20
-141.553811909056
 30
0.0
  0
VERTEX
  5
EC
330
EA
100
AcDbEntity
  8
_U+30EC_U+30A4_U+30E4_U+30FC 1
 62
   179
420
  2234388
370
     9
100
AcDbVertex
100
AcDb2dVertex
 10
124.077867945621
 20
-141.553811909056
 30
0.0
  0
SEQEND
  5
ED
330
EA
100
AcDbEntity
  8
_U+30EC_U+30A4_U+30E4_U+30FC 1
 62
   179
420
  2234388
370
     9
  0
POLYLINE
  5
EE
330
1F
100
AcDbEntity
  8
_U+30EC_U+30A4_U+30E4_U+30FC 1
 62
   179
420
  2234388
370
     9
100
AcDb2dPolyline
 66
     1
 10
0.0
 20
0.0
 30
0.0
  0
VERTEX
  5
EF
330
EE
100
AcDbEntity
  8
_U+30EC_U+30A4_U+30E4_U+30FC 1
 62
   179
420
  2234388
370
     9
100
AcDbVertex
100
AcDb2dVertex
 10
121.6173841195043
 20
-142.5535841310282
 30
0.0
  0
VERTEX
  5
F0
330
EE
100
AcDbEntity
  8
_U+30EC_U+30A4_U+30E4_U+30FC 1
 62
   179
420
  2234388
370
     9
100
AcDbVertex
100
AcDb2dVertex
 10
124.077867945621
 20
-142.5535841310282
 30
0.0
  0
SEQEND
  5
F1
330
EE
100
AcDbEntity
  8
_U+30EC_U+30A4_U+30E4_U+30FC 1
 62
   179
420
  2234388
370
     9
  0
INSERT
  5
F3
330
1F
100
AcDbEntity
  8
_U+30EC_U+30A4_U+30E4_U+30FC 1
100
AcDbBlockReference
  2
block 6
 10
0.0
 20
0.0
 30
0.0
  0
POLYLINE
  5
F8
330
1F
100
AcDbEntity
  8
_U+30EC_U+30A4_U+30E4_U+30FC 1
 62
   179
420
  2234388
370
     9
100
AcDb2dPolyline
 66
     1
 10
0.0
 20
0.0
 30
0.0
  0
VERTEX
  5
F9
330
F8
100
AcDbEntity
  8
_U+30EC_U+30A4_U+30E4_U+30FC 1
 62
   179
420
  2234388
370
     9
100
AcDbVertex
100
AcDb2dVertex
 10
108.0774558538255
 20
-152.5539874618614
 30
0.0
  0
VERTEX
  5
FA
330
F8
100
AcDbEntity
  8
_U+30EC_U+30A4_U+30E4_U+30FC 1
 62
   179
420
  2234388
370
     9
100
AcDbVertex
100
AcDb2dVertex
 10
108.0774558538255
 20
-147.4966005186813
 30
0.0
  0
SEQEND
  5
FB
330
F8
100
AcDbEntity
  8
_U+30EC_U+30A4_U+30E4_U+30FC 1
 62
   179
420
  2234388
370
     9
  0
POLYLINE
  5
FC
330
1F
100
AcDbEntity
  8
_U+30EC_U+30A4_U+30E4_U+30FC 1
 62
   179
420
  2234388
370
     9
100
AcDb2dPolyline
 66
     1
 10
0.0
 20
0.0
 30
0.0
  0
VERTEX
  5
FD
330
FC
100
AcDbEntity
  8
_U+30EC_U+30A4_U+30E4_U+30FC 1
 62
   179
420
  2234388
370
     9
100
AcDbVertex
100
AcDb2dVertex
 10
108.0774558538255
 20
-152.5539874618614
 30
0.0
  0
VERTEX
  5
FE
330
FC
100
AcDbEntity
  8
_U+30EC_U+30A4_U+30E4_U+30FC 1
 62
   179
420
  2234388
370
     9
100
AcDbVertex
100
AcDb2dVertex
 10
108.0774558538255
 20
-154.0539985725977
 30
0.0
  0
SEQEND
  5
FF
330
FC
100
AcDbEntity
  8
_U+30EC_U+30A4_U+30E4_U+30FC 1
 62
   179
420
  2234388
370
     9
  0
POLYLINE
  5
100
330
1F
100
AcDbEntity
  8
_U+30EC_U+30A4_U+30E4_U+30FC 1
 62
   179
420
  2234388
370
     9
100
AcDb2dPolyline
 66
     1
 10
0.0
 20
0.0
 30
0.0
  0
VERTEX
  5
101
330
100
100
AcDbEntity
  8
_U+30EC_U+30A4_U+30E4_U+30FC 1
 62
   179
420
  2234388
370
     9
100
AcDbVertex
100
AcDb2dVertex
 10
106.6174497799622
 20
-152.5539874618614
 30
0.0
  0
VERTEX
  5
102
330
100
100
AcDbEntity
  8
_U+30EC_U+30A4_U+30E4_U+30FC 1
 62
   179
420
  2234388
370
     9
100
AcDbVertex
100
AcDb2dVertex
 10
109.0772280505414
 20
-152.5539874618614
 30
0.0
  0
SEQEND
  5
103
330
100
100
AcDbEntity
  8
_U+30EC_U+30A4_U+30E4_U+30FC 1
 62
   179
420
  2234388
370
     9
  0
POLYLINE
  5
104
330
1F
100
AcDbEntity
  8
_U+30EC_U+30A4_U+30E4_U+30FC 1
 62
   179
420
  2234388
370
     9
100
AcDb2dPolyline
 66
     1
 10
0.0
 20
0.0
 30
0.0
  0
VERTEX
  5
105
330
104
100
AcDbEntity
  8
_U+30EC_U+30A4_U+30E4_U+30FC 1
 62
   179
420
  2234388
370
     9
100
AcDbVertex
100
AcDb2dVertex
 10
106.6174497799622
 20
-153.0542263506252
 30
0.0
  0
VERTEX
  5
106
330
104
100
AcDbEntity
  8
_U+30EC_U+30A4_U+30E4_U+30FC 1
 62
   179
420
  2234388
370
     9
100
AcDbVertex
100
AcDb2dVertex
 10
109.0772280505414
 20
-153.0542263506252
 30
0.0
  0
SEQEND
  5
107
330
104
100
AcDbEntity
  8
_U+30EC_U+30A4_U+30E4_U+30FC 1
 62
   179
420
  2234388
370
     9
  0
INSERT
  5
109
330
1F
100
AcDbEntity
  8
_U+30EC_U+30A4_U+30E4_U+30FC 1
100
AcDbBlockReference
  2
block 7
 10
0.0
 20
0.0
 30
0.0
  0
POLYLINE
  5
119
330
1F
100
AcDbEntity
  8
_U+30EC_U+30A4_U+30E4_U+30FC 1
 62
   179
420
  2234388
370
     9
100
AcDb2dPolyline
 66
     1
 10
0.0
 20
0.0
 30
0.0
  0
VERTEX
  5
11A
330
119
100
AcDbEntity
  8
_U+30EC_U+30A4_U+30E4_U+30FC 1
 62
   179
420
  2234388
370
     9
100
AcDbVertex
100
AcDb2dVertex
 10
123.0774254711444
 20
-152.5539874618614
 30
0.0
  0
VERTEX
  5
11B
330
119
100
AcDbEntity
  8
_U+30EC_U+30A4_U+30E4_U+30FC 1
 62
   179
420
  2234388
370
     9
100
AcDbVertex
100
AcDb2dVertex
 10
123.0774254711444
 20
-142.5535841310282
 30
0.0
  0
SEQEND
  5
11C
330
119
100
AcDbEntity
  8
_U+30EC_U+30A4_U+30E4_U+30FC 1
 62
   179
420
  2234388
370
     9
  0
POLYLINE
  5
11D
330
1F
100
AcDbEntity
  8
_U+30EC_U+30A4_U+30E4_U+30FC 1
 62
   179
420
  2234388
370
     9
100
AcDb2dPolyline
 66
     1
 10
0.0
 20
0.0
 30
0.0
  0
VERTEX
  5
11E
330
11D
100
AcDbEntity
  8
_U+30EC_U+30A4_U+30E4_U+30FC 1
 62
   179
420
  2234388
370
     9
100
AcDbVertex
100
AcDb2dVertex
 10
106.6174497799622
 20
-152.5539874618614
 30
0.0
  0
VERTEX
  5
11F
330
11D
100
AcDbEntity
  8
_U+30EC_U+30A4_U+30E4_U+30FC 1
 62
   179
420
  2234388
370
     9
100
AcDbVertex
100
AcDb2dVertex
 10
124.077867945621
 20
-152.5539874618614
 30
0.0
  0
SEQEND
  5
120
330
11D
100
AcDbEntity
  8
_U+30EC_U+30A4_U+30E4_U+30FC 1
 62
   179
420
  2234388
370
     9
  0
INSERT
  5
122
330
1F
100
AcDbEntity
  8
_U+30EC_U+30A4_U+30E4_U+30FC 1
100
AcDbBlockReference
  2
block 8
 10
0.0
 20
0.0
 30
0.0
  0
ENDSEC
  0
SECTION
  2
OBJECTS
  0
DICTIONARY
  5
C
330
0
100
AcDbDictionary
281
     1
  3
ACAD_GROUP
350
D
  3
ACAD_LAYOUT
350
1A
  3
ACAD_MATERIAL
350
3B
  3
ACAD_MLEADERSTYLE
350
12B
  3
ACAD_MLINESTYLE
350
17
  3
ACAD_PLOTSETTINGS
350
19
  3
ACAD_PLOTSTYLENAME
350
E
  3
ACAD_TABLESTYLE
350
12A
  3
ACAD_VISUALSTYLE
350
2A
  0
SUN
  5
3F
330
29
100
AcDbSun
 90
        1
290
     0
 63
     7
421
 16777215
 40
1.0
291
     1
 91
  2455826
 92
 54000000
292
     0
 70
     2
 71
   256
280
     1
  0
DICTIONARY
  5
D
102
{ACAD_REACTORS
330
C
102
}
330
C
100
AcDbDictionary
281
     1
  0
DICTIONARY
  5
1A
102
{ACAD_REACTORS
330
C
102
}
330
C
100
AcDbDictionary
281
     1
  3
Layout1
350
1E
  3
Layout2
350
26
  3
Model
350
22
  0
DICTIONARY
  5
3B
102
{ACAD_REACTORS
330
C
102
}
330
C
100
AcDbDictionary
281
     1
  3
ByBlock
350
3D
  3
ByLayer
350
3C
  3
Global
350
3E
  0
DICTIONARY
  5
12B
102
{ACAD_REACTORS
330
C
102
}
330
C
100
AcDbDictionary
281
     1
  0
DICTIONARY
  5
17
102
{ACAD_REACTORS
330
C
102
}
330
C
100
AcDbDictionary
281
     1
  3
Standard
350
18
  0
DICTIONARY
  5
19
102
{ACAD_REACTORS
330
C
102
}
330
C
100
AcDbDictionary
281
     1
  0
ACDBDICTIONARYWDFLT
  5
E
102
{ACAD_REACTORS
330
C
102
}
330
C
100
AcDbDictionary
281
     1
  3
Normal
350
F
100
AcDbDictionaryWithDefault
340
F
  0
DICTIONARY
  5
12A
102
{ACAD_REACTORS
330
C
102
}
330
C
100
AcDbDictionary
281
     1
  0
DICTIONARY
  5
2A
102
{ACAD_REACTORS
330
C
102
}
330
C
100
AcDbDictionary
281
     1
  3
2dWireframe
350
2F
  3
3D Hidden
350
31
  3
3dWireframe
350
30
  3
Basic
350
32
  3
Brighten
350
36
  3
ColorChange
350
3A
  3
Conceptual
350
34
  3
Dim
350
35
  3
Facepattern
350
39
  3
Flat
350
2B
  3
FlatWithEdges
350
2C
  3
Gouraud
350
2D
  3
GouraudWithEdges
350
2E
  3
Linepattern
350
38
  3
Realistic
350
33
  3
Thicken
350
37
  0
LAYOUT
  5
1E
102
{ACAD_REACTORS
330
1A
102
}
330
1A
100
AcDbPlotSettings
  1

  2
none_device
  4

  6

 40
0.0
 41
0.0
 42
0.0
 43
0.0
 44
0.0
 45
0.0
 46
0.0
 47
0.0
 48
0.0
 49
0.0
140
0.0
141
0.0
142
1.0
143
1.0
 70
   688
 72
     0
 73
     0
 74
     5
  7

 75
    16
 76
     0
 77
     2
 78
   300
147
1.0
148
0.0
149
0.0
100
AcDbLayout
  1
Layout1
 70
     1
 71
     1
 10
0.0
 20
0.0
 11
12.0
 21
9.0
 12
0.0
 22
0.0
 32
0.0
 14
1.000000000000000E+20
 24
1.000000000000000E+20
 34
1.000000000000000E+20
 15
-1.000000000000000E+20
 25
-1.000000000000000E+20
 35
-1.000000000000000E+20
146
0.0
 13
0.0
 23
0.0
 33
0.0
 16
1.0
 26
0.0
 36
0.0
 17
0.0
 27
1.0
 37
0.0
 76
     0
330
1B
  0
LAYOUT
  5
26
102
{ACAD_REACTORS
330
1A
102
}
330
1A
100
AcDbPlotSettings
  1

  2
none_device
  4

  6

 40
0.0
 41
0.0
 42
0.0
 43
0.0
 44
0.0
 45
0.0
 46
0.0
 47
0.0
 48
0.0
 49
0.0
140
0.0
141
0.0
142
1.0
143
1.0
 70
   688
 72
     0
 73
     0
 74
     5
  7

 75
    16
 76
     0
 77
     2
 78
   300
147
1.0
148
0.0
149
0.0
100
AcDbLayout
  1
Layout2
 70
     1
 71
     2
 10
0.0
 20
0.0
 11
0.0
 21
0.0
 12
0.0
 22
0.0
 32
0.0
 14
0.0
 24
0.0
 34
0.0
 15
0.0
 25
0.0
 35
0.0
146
0.0
 13
0.0
 23
0.0
 33
0.0
 16
1.0
 26
0.0
 36
0.0
 17
0.0
 27
1.0
 37
0.0
 76
     0
330
23
  0
LAYOUT
  5
22
102
{ACAD_REACTORS
330
1A
102
}
330
1A
100
AcDbPlotSettings
  1

  2
none_device
  4

  6

 40
0.0
 41
0.0
 42
0.0
 43
0.0
 44
0.0
 45
0.0
 46
0.0
 47
0.0
 48
0.0
 49
0.0
140
0.0
141
0.0
142
1.0
143
1.0
 70
  1712
 72
     0
 73
     0
 74
     0
  7

 75
     0
 76
     0
 77
     2
 78
   300
147
1.0
148
0.0
149
0.0
100
AcDbLayout
  1
Model
 70
     1
 71
     0
 10
0.0
 20
0.0
 11
12.0
 21
9.0
 12
0.0
 22
0.0
 32
0.0
 14
1.000000000000000E+20
 24
1.000000000000000E+20
 34
1.000000000000000E+20
 15
-1.000000000000000E+20
 25
-1.000000000000000E+20
 35
-1.000000000000000E+20
146
0.0
 13
0.0
 23
0.0
 33
0.0
 16
1.0
 26
0.0
 36
0.0
 17
0.0
 27
1.0
 37
0.0
 76
     0
330
1F
331
29
  0
MATERIAL
  5
3D
102
{ACAD_REACTORS
330
3B
102
}
330
3B
100
AcDbMaterial
  1
ByBlock
 72
     1
 94
      127
  0
MATERIAL
  5
3C
102
{ACAD_REACTORS
330
3B
102
}
330
3B
100
AcDbMaterial
  1
ByLayer
 72
     1
 94
      127
  0
MATERIAL
  5
3E
102
{ACAD_REACTORS
330
3B
102
}
330
3B
100
AcDbMaterial
  1
Global
 72
     1
 94
      127
  0
MLINESTYLE
  5
18
102
{ACAD_REACTORS
330
17
102
}
330
17
100
AcDbMlineStyle
  2
Standard
 70
     0
  3

 62
   256
 51
90.0
 52
90.0
 71
     2
 49
0.5
 62
   256
  6
BYLAYER
 49
-0.5
 62
   256
  6
BYLAYER
  0
ACDBPLACEHOLDER
  5
F
102
{ACAD_REACTORS
330
E
102
}
330
E
  0
VISUALSTYLE
  5
2F
102
{ACAD_REACTORS
330
2A
102
}
330
2A
100
AcDbVisualStyle
  2
2dWireframe
 70
     4
177
     2
291
     0
 71
     0
176
     1
 72
     2
176
     1
 73
     0
176
     1
 90
        0
176
     1
 40
-0.6
176
     1
 41
-30.0
176
     1
 62
     5
 63
     7
421
 16777215
176
     1
 74
     1
176
     1
 91
        4
176
     1
 64
     7
176
     1
 65
   257
176
     1
 75
     1
176
     1
175
     1
176
     1
 42
1.0
176
     1
 92
        0
176
     1
 66
   257
176
     1
 43
1.0
176
     1
 76
     1
176
     1
 77
     6
176
     1
 78
     2
176
     1
 67
     7
176
     1
 79
     5
176
     1
170
     0
176
     1
171
     0
176
     1
290
     0
176
     1
 93
        1
176
     1
 44
0.0
176
     1
173
     0
176
     1
  0
VISUALSTYLE
  5
31
102
{ACAD_REACTORS
330
2A
102
}
330
2A
100
AcDbVisualStyle
  2
3D Hidden
 70
     6
177
     2
291
     0
 71
     1
176
     1
 72
     2
176
     1
 73
     2
176
     1
 90
        0
176
     1
 40
-0.6
176
     1
 41
-30.0
176
     1
 62
     5
 63
     7
421
 16777215
176
     1
 74
     2
176
     1
 91
        2
176
     1
 64
     7
176
     1
 65
   257
176
     1
 75
     2
176
     1
175
     1
176
     1
 42
40.0
176
     1
 92
        0
176
     1
 66
   257
176
     1
 43
1.0
176
     1
 76
     1
176
     1
 77
     6
176
     1
 78
     2
176
     1
 67
     7
176
     1
 79
     3
176
     1
170
     0
176
     1
171
     0
176
     1
290
     0
176
     1
 93
        1
176
     1
 44
0.0
176
     1
173
     0
176
     1
  0
VISUALSTYLE
  5
30
102
{ACAD_REACTORS
330
2A
102
}
330
2A
100
AcDbVisualStyle
  2
3dWireframe
 70
     5
177
     2
291
     0
 71
     0
176
     1
 72
     2
176
     1
 73
     0
176
     1
 90
        0
176
     1
 40
-0.6
176
     1
 41
-30.0
176
     1
 62
     5
 63
     7
421
 16777215
176
     1
 74
     1
176
     1
 91
        4
176
     1
 64
     7
176
     1
 65
   257
176
     1
 75
     1
176
     1
175
     1
176
     1
 42
1.0
176
     1
 92
        0
176
     1
 66
   257
176
     1
 43
1.0
176
     1
 76
     1
176
     1
 77
     6
176
     1
 78
     2
176
     1
 67
     7
176
     1
 79
     5
176
     1
170
     0
176
     1
171
     0
176
     1
290
     0
176
     1
 93
        1
176
     1
 44
0.0
176
     1
173
     0
176
     1
  0
VISUALSTYLE
  5
32
102
{ACAD_REACTORS
330
2A
102
}
330
2A
100
AcDbVisualStyle
  2
Basic
 70
     7
177
     2
291
     1
 71
     1
176
     1
 72
     0
176
     1
 73
     1
176
     1
 90
        0
176
     1
 40
-0.6
176
     1
 41
-30.0
176
     1
 62
     5
 63
     7
421
 16777215
176
     1
 74
     0
176
     1
 91
        4
176
     1
 64
     7
176
     1
 65
   257
176
     1
 75
     1
176
     1
175
     1
176
     1
 42
1.0
176
     1
 92
        8
176
     1
 66
     7
176
     1
 43
1.0
176
     1
 76
     1
176
     1
 77
     6
176
     1
 78
     2
176
     1
 67
     7
176
     1
 79
     5
176
     1
170
     0
176
     1
171
     0
176
     1
290
     0
176
     1
 93
        1
176
     1
 44
0.0
176
     1
173
     0
176
     1
  0
VISUALSTYLE
  5
36
102
{ACAD_REACTORS
330
2A
102
}
330
2A
100
AcDbVisualStyle
  2
Brighten
 70
    12
177
     2
291
     1
 71
     2
176
     1
 72
     2
176
     1
 73
     0
176
     1
 90
        0
176
     1
 40
-0.6
176
     1
 41
-30.0
176
     1
 62
     5
 63
     7
421
 16777215
176
     1
 74
     1
176
     1
 91
        4
176
     1
 64
     7
176
     1
 65
   257
176
     1
 75
     1
176
     1
175
     1
176
     1
 42
1.0
176
     1
 92
        8
176
     1
 66
     7
176
     1
 43
1.0
176
     1
 76
     1
176
     1
 77
     6
176
     1
 78
     2
176
     1
 67
     7
176
     1
 79
     5
176
     1
170
     0
176
     1
171
     0
176
     1
290
     0
176
     1
 93
        1
176
     1
 44
50.0
176
     1
173
     0
176
     1
  0
VISUALSTYLE
  5
3A
102
{ACAD_REACTORS
330
2A
102
}
330
2A
100
AcDbVisualStyle
  2
ColorChange
 70
    16
177
     2
291
     1
 71
     2
176
     1
 72
     2
176
     1
 73
     3
176
     1
 90
        0
176
     1
 40
-0.6
176
     1
 41
-30.0
176
     1
 62
     5
 63
     8
421
  8421504
176
     1
 74
     1
176
     1
 91
        4
176
     1
 64
     7
176
     1
 65
   257
176
     1
 75
     1
176
     1
175
     1
176
     1
 42
1.0
176
     1
 92
        8
176
     1
 66
     8
424
  8421504
176
     1
 43
1.0
176
     1
 76
     1
176
     1
 77
     6
176
     1
 78
     2
176
     1
 67
     7
176
     1
 79
     5
176
     1
170
     0
176
     1
171
     0
176
     1
290
     0
176
     1
 93
        1
176
     1
 44
0.0
176
     1
173
     0
176
     1
  0
VISUALSTYLE
  5
34
102
{ACAD_REACTORS
330
2A
102
}
330
2A
100
AcDbVisualStyle
  2
Conceptual
 70
     9
177
     2
291
     0
 71
     3
176
     1
 72
     2
176
     1
 73
     0
176
     1
 90
        0
176
     1
 40
-0.6
176
     1
 41
-30.0
176
     1
 62
     5
 63
     7
421
 16777215
176
     1
 74
     2
176
     1
 91
        2
176
     1
 64
     7
176
     1
 65
   257
176
     1
 75
     1
176
     1
175
     1
176
     1
 42
40.0
176
     1
 92
        8
176
     1
 66
     7
176
     1
 43
1.0
176
     1
 76
     1
176
     1
 77
     6
176
     1
 78
     2
176
     1
 67
     7
176
     1
 79
     3
176
     1
170
     0
176
     1
171
     0
176
     1
290
     0
176
     1
 93
        1
176
     1
 44
0.0
176
     1
173
     0
176
     1
  0
VISUALSTYLE
  5
35
102
{ACAD_REACTORS
330
2A
102
}
330
2A
100
AcDbVisualStyle
  2
Dim
 70
    11
177
     2
291
     1
 71
     2
176
     1
 72
     2
176
     1
 73
     0
176
     1
 90
        0
176
     1
 40
-0.6
176
     1
 41
-30.0
176
     1
 62
     5
 63
     7
421
 16777215
176
     1
 74
     1
176
     1
 91
        4
176
     1
 64
     7
176
     1
 65
   257
176
     1
 75
     1
176
     1
175
     1
176
     1
 42
1.0
176
     1
 92
        8
176
     1
 66
     7
176
     1
 43
1.0
176
     1
 76
     1
176
     1
 77
     6
176
     1
 78
     2
176
     1
 67
     7
176
     1
 79
     5
176
     1
170
     0
176
     1
171
     0
176
     1
290
     0
176
     1
 93
        1
176
     1
 44
-50.0
176
     1
173
     0
176
     1
  0
VISUALSTYLE
  5
39
102
{ACAD_REACTORS
330
2A
102
}
330
2A
100
AcDbVisualStyle
  2
Facepattern
 70
    15
177
     2
291
     1
 71
     2
176
     1
 72
     2
176
     1
 73
     0
176
     1
 90
        0
176
     1
 40
-0.6
176
     1
 41
-30.0
176
     1
 62
     5
 63
     7
421
 16777215
176
     1
 74
     1
176
     1
 91
        4
176
     1
 64
     7
176
     1
 65
   257
176
     1
 75
     1
176
     1
175
     1
176
     1
 42
1.0
176
     1
 92
        8
176
     1
 66
     7
176
     1
 43
1.0
176
     1
 76
     1
176
     1
 77
     6
176
     1
 78
     2
176
     1
 67
     7
176
     1
 79
     5
176
     1
170
     0
176
     1
171
     0
176
     1
290
     0
176
     1
 93
        1
176
     1
 44
0.0
176
     1
173
     0
176
     1
  0
VISUALSTYLE
  5
2B
102
{ACAD_REACTORS
330
2A
102
}
330
2A
100
AcDbVisualStyle
  2
Flat
 70
     0
177
     2
291
     1
 71
     2
176
     1
 72
     1
176
     1
 73
     1
176
     1
 90
        2
176
     1
 40
-0.6
176
     1
 41
30.0
176
     1
 62
     5
 63
     7
421
 16777215
176
     1
 74
     0
176
     1
 91
        4
176
     1
 64
     7
176
     1
 65
   257
176
     1
 75
     1
176
     1
175
     1
176
     1
 42
1.0
176
     1
 92
        8
176
     1
 66
     7
176
     1
 43
1.0
176
     1
 76
     1
176
     1
 77
     6
176
     1
 78
     2
176
     1
 67
     7
176
     1
 79
     5
176
     1
170
     0
176
     1
171
     0
176
     1
290
     0
176
     1
 93
       13
176
     1
 44
0.0
176
     1
173
     0
176
     1
  0
VISUALSTYLE
  5
2C
102
{ACAD_REACTORS
330
2A
102
}
330
2A
100
AcDbVisualStyle
  2
FlatWithEdges
 70
     1
177
     2
291
     1
 71
     2
176
     1
 72
     1
176
     1
 73
     1
176
     1
 90
        2
176
     1
 40
-0.6
176
     1
 41
30.0
176
     1
 62
     5
 63
     7
421
 16777215
176
     1
 74
     1
176
     1
 91
        4
176
     1
 64
     7
176
     1
 65
   257
176
     1
 75
     1
176
     1
175
     1
176
     1
 42
1.0
176
     1
 92
        0
176
     1
 66
   257
176
     1
 43
1.0
176
     1
 76
     1
176
     1
 77
     6
176
     1
 78
     2
176
     1
 67
     7
176
     1
 79
     5
176
     1
170
     0
176
     1
171
     0
176
     1
290
     0
176
     1
 93
       13
176
     1
 44
0.0
176
     1
173
     0
176
     1
  0
VISUALSTYLE
  5
2D
102
{ACAD_REACTORS
330
2A
102
}
330
2A
100
AcDbVisualStyle
  2
Gouraud
 70
     2
177
     2
291
     1
 71
     2
176
     1
 72
     2
176
     1
 73
     1
176
     1
 90
        2
176
     1
 40
-0.6
176
     1
 41
30.0
176
     1
 62
     5
 63
     7
421
 16777215
176
     1
 74
     0
176
     1
 91
        4
176
     1
 64
     7
176
     1
 65
   257
176
     1
 75
     1
176
     1
175
     1
176
     1
 42
1.0
176
     1
 92
        0
176
     1
 66
     7
176
     1
 43
1.0
176
     1
 76
     1
176
     1
 77
     6
176
     1
 78
     2
176
     1
 67
     7
176
     1
 79
     5
176
     1
170
     0
176
     1
171
     0
176
     1
290
     0
176
     1
 93
       13
176
     1
 44
0.0
176
     1
173
     0
176
     1
  0
VISUALSTYLE
  5
2E
102
{ACAD_REACTORS
330
2A
102
}
330
2A
100
AcDbVisualStyle
  2
GouraudWithEdges
 70
     3
177
     2
291
     1
 71
     2
176
     1
 72
     2
176
     1
 73
     1
176
     1
 90
        2
176
     1
 40
-0.6
176
     1
 41
30.0
176
     1
 62
     5
 63
     7
421
 16777215
176
     1
 74
     1
176
     1
 91
        4
176
     1
 64
     7
176
     1
 65
   257
176
     1
 75
     1
176
     1
175
     1
176
     1
 42
1.0
176
     1
 92
        0
176
     1
 66
   257
176
     1
 43
1.0
176
     1
 76
     1
176
     1
 77
     6
176
     1
 78
     2
176
     1
 67
     7
176
     1
 79
     5
176
     1
170
     0
176
     1
171
     0
176
     1
290
     0
176
     1
 93
       13
176
     1
 44
0.0
176
     1
173
     0
176
     1
  0
VISUALSTYLE
  5
38
102
{ACAD_REACTORS
330
2A
102
}
330
2A
100
AcDbVisualStyle
  2
Linepattern
 70
    14
177
     2
291
     1
 71
     2
176
     1
 72
     2
176
     1
 73
     0
176
     1
 90
        0
176
     1
 40
-0.6
176
     1
 41
-30.0
176
     1
 62
     5
 63
     7
421
 16777215
176
     1
 74
     1
176
     1
 91
        4
176
     1
 64
     7
176
     1
 65
   257
176
     1
 75
     7
176
     1
175
     7
176
     1
 42
1.0
176
     1
 92
        8
176
     1
 66
     7
176
     1
 43
1.0
176
     1
 76
     1
176
     1
 77
     6
176
     1
 78
     2
176
     1
 67
     7
176
     1
 79
     5
176
     1
170
     0
176
     1
171
     0
176
     1
290
     0
176
     1
 93
        1
176
     1
 44
0.0
176
     1
173
     0
176
     1
  0
VISUALSTYLE
  5
33
102
{ACAD_REACTORS
330
2A
102
}
330
2A
100
AcDbVisualStyle
  2
Realistic
 70
     8
177
     2
291
     0
 71
     2
176
     1
 72
     2
176
     1
 73
     0
176
     1
 90
        0
176
     1
 40
-0.6
176
     1
 41
-30.0
176
     1
 62
     5
 63
     7
421
 16777215
176
     1
 74
     1
176
     1
 91
        0
176
     1
 64
     7
176
     1
 65
   257
176
     1
 75
     1
176
     1
175
     1
176
     1
 42
1.0
176
     1
 92
        8
176
     1
 66
     8
424
  7895160
176
     1
 43
1.0
176
     1
 76
     1
176
     1
 77
     6
176
     1
 78
     2
176
     1
 67
     7
176
     1
 79
     5
176
     1
170
     0
176
     1
171
     0
176
     1
290
     0
176
     1
 93
       13
176
     1
 44
0.0
176
     1
173
     0
176
     1
  0
VISUALSTYLE
  5
37
102
{ACAD_REACTORS
330
2A
102
}
330
2A
100
AcDbVisualStyle
  2
Thicken
 70
    13
177
     2
291
     1
 71
     2
176
     1
 72
     2
176
     1
 73
     0
176
     1
 90
        0
176
     1
 40
-0.6
176
     1
 41
-30.0
176
     1
 62
     5
 63
     7
421
 16777215
176
     1
 74
     1
176
     1
 91
        4
176
     1
 64
     7
176
     1
 65
   257
176
     1
 75
     1
176
     1
175
     1
176
     1
 42
1.0
176
     1
 92
       12
176
     1
 66
     7
176
     1
 43
1.0
176
     1
 76
     1
176
     1
 77
     6
176
     1
 78
     2
176
     1
 67
     7
176
     1
 79
     5
176
     1
170
     0
176
     1
171
     0
176
     1
290
     0
176
     1
 93
        1
176
     1
 44
0.0
176
     1
173
     0
176
     1
  0
ENDSEC
  0
EOF
