  0
SECTION
  2
HEADER
  9
$ACADVER
  1
AC1024
  9
$ACADMAINTVER
 70
     6
  9
$DWGCODEPAGE
  3
UNDEFINED
  9
$INSBASE
 10
0.0
 20
0.0
 30
0.0
  9
$EXTMIN
 10
1.000000000000000E+20
 20
1.000000000000000E+20
 30
1.000000000000000E+20
  9
$EXTMAX
 10
-1.000000000000000E+20
 20
-1.000000000000000E+20
 30
-1.000000000000000E+20
  9
$LIMMIN
 10
0.0
 20
0.0
  9
$LIMMAX
 10
12.0
 20
9.0
  9
$ORTHOMODE
 70
     0
  9
$REGENMODE
 70
     1
  9
$FILLMODE
 70
     1
  9
$QTEXTMODE
 70
     0
  9
$MIRRTEXT
 70
     1
  9
$LTSCALE
 40
1.0
  9
$ATTMODE
 70
     1
  9
$TEXTSIZE
 40
0.2
  9
$TRACEWID
 40
0.05
  9
$TEXTSTYLE
  7
Standard
  9
$CLAYER
  8
0
  9
$CELTYPE
  6
ByLayer
  9
$CECOLOR
 62
   256
  9
$CELTSCALE
 40
1.0
  9
$DISPSILH
 70
     0
  9
$DIMSCALE
 40
1.0
  9
$DIMASZ
 40
0.18
  9
$DIMEXO
 40
0.0625
  9
$DIMDLI
 40
0.38
  9
$DIMRND
 40
0.0
  9
$DIMDLE
 40
0.0
  9
$DIMEXE
 40
0.18
  9
$DIMTP
 40
0.0
  9
$DIMTM
 40
0.0
  9
$DIMTXT
 40
0.18
  9
$DIMCEN
 40
0.09
  9
$DIMTSZ
 40
0.0
  9
$DIMTOL
 70
     0
  9
$DIMLIM
 70
     0
  9
$DIMTIH
 70
     1
  9
$DIMTOH
 70
     1
  9
$DIMSE1
 70
     0
  9
$DIMSE2
 70
     0
  9
$DIMTAD
 70
     0
  9
$DIMZIN
 70
     0
  9
$DIMBLK
  1

  9
$DIMASO
 70
     1
  9
$DIMSHO
 70
     1
  9
$DIMPOST
  1

  9
$DIMAPOST
  1

  9
$DIMALT
 70
     0
  9
$DIMALTD
 70
     2
  9
$DIMALTF
 40
25.4
  9
$DIMLFAC
 40
1.0
  9
$DIMTOFL
 70
     0
  9
$DIMTVP
 40
0.0
  9
$DIMTIX
 70
     0
  9
$DIMSOXD
 70
     0
  9
$DIMSAH
 70
     0
  9
$DIMBLK1
  1

  9
$DIMBLK2
  1

  9
$DIMSTYLE
  2
Standard
  9
$DIMCLRD
 70
     0
  9
$DIMCLRE
 70
     0
  9
$DIMCLRT
 70
     0
  9
$DIMTFAC
 40
1.0
  9
$DIMGAP
 40
0.09
  9
$DIMJUST
 70
     0
  9
$DIMSD1
 70
     0
  9
$DIMSD2
 70
     0
  9
$DIMTOLJ
 70
     1
  9
$DIMTZIN
 70
     0
  9
$DIMALTZ
 70
     0
  9
$DIMALTTZ
 70
     0
  9
$DIMUPT
 70
     0
  9
$DIMDEC
 70
     4
  9
$DIMTDEC
 70
     4
  9
$DIMALTU
 70
     2
  9
$DIMALTTD
 70
     2
  9
$DIMTXSTY
  7
Standard
  9
$DIMAUNIT
 70
     0
  9
$DIMADEC
 70
     0
  9
$DIMALTRND
 40
0.0
  9
$DIMAZIN
 70
     0
  9
$DIMDSEP
 70
    46
  9
$DIMATFIT
 70
     3
  9
$DIMFRAC
 70
     0
  9
$DIMLDRBLK
  1

  9
$DIMLUNIT
 70
     2
  9
$DIMLWD
 70
    -2
  9
$DIMLWE
 70
    -2
  9
$DIMTMOVE
 70
     0
  9
$DIMFXL
 40
1.0
  9
$DIMFXLON
 70
     0
  9
$DIMJOGANG
 40
0.7853981633974483
  9
$DIMTFILL
 70
     0
  9
$DIMTFILLCLR
 70
     0
  9
$DIMARCSYM
 70
     0
  9
$DIMLTYPE
  6

  9
$DIMLTEX1
  6

  9
$DIMLTEX2
  6

  9
$DIMTXTDIRECTION
 70
     0
  9
$LUNITS
 70
     2
  9
$LUPREC
 70
     4
  9
$SKETCHINC
 40
0.1
  9
$FILLETRAD
 40
0.5
  9
$AUNITS
 70
     0
  9
$AUPREC
 70
     0
  9
$MENU
  1
.
  9
$ELEVATION
 40
0.0
  9
$PELEVATION
 40
0.0
  9
$THICKNESS
 40
0.0
  9
$LIMCHECK
 70
     0
  9
$CHAMFERA
 40
0.5
  9
$CHAMFERB
 40
0.5
  9
$CHAMFERC
 40
1.0
  9
$CHAMFERD
 40
0.0
  9
$SKPOLY
 70
     0
  9
$TDCREATE
 40
2457917.600960648
  9
$TDUCREATE
 40
2457917.225960648
  9
$TDUPDATE
 40
2457917.600960648
  9
$TDUUPDATE
 40
2457917.225960648
  9
$TDINDWG
 40
0.0000000116
  9
$TDUSRTIMER
 40
0.0000000116
  9
$USRTIMER
 70
     1
  9
$ANGBASE
 50
0.0
  9
$ANGDIR
 70
     0
  9
$PDMODE
 70
     0
  9
$PDSIZE
 40
0.0
  9
$PLINEWID
 40
0.0
  9
$SPLFRAME
 70
     0
  9
$SPLINETYPE
 70
     6
  9
$SPLINESEGS
 70
     8
  9
$HANDSEED
  5
138
  9
$SURFTAB1
 70
     6
  9
$SURFTAB2
 70
     6
  9
$SURFTYPE
 70
     6
  9
$SURFU
 70
     6
  9
$SURFV
 70
     6
  9
$UCSBASE
  2

  9
$UCSNAME
  2

  9
$UCSORG
 10
0.0
 20
0.0
 30
0.0
  9
$UCSXDIR
 10
1.0
 20
0.0
 30
0.0
  9
$UCSYDIR
 10
0.0
 20
1.0
 30
0.0
  9
$UCSORTHOREF
  2

  9
$UCSORTHOVIEW
 70
     0
  9
$UCSORGTOP
 10
0.0
 20
0.0
 30
0.0
  9
$UCSORGBOTTOM
 10
0.0
 20
0.0
 30
0.0
  9
$UCSORGLEFT
 10
0.0
 20
0.0
 30
0.0
  9
$UCSORGRIGHT
 10
0.0
 20
0.0
 30
0.0
  9
$UCSORGFRONT
 10
0.0
 20
0.0
 30
0.0
  9
$UCSORGBACK
 10
0.0
 20
0.0
 30
0.0
  9
$PUCSBASE
  2

  9
$PUCSNAME
  2

  9
$PUCSORG
 10
0.0
 20
0.0
 30
0.0
  9
$PUCSXDIR
 10
1.0
 20
0.0
 30
0.0
  9
$PUCSYDIR
 10
0.0
 20
1.0
 30
0.0
  9
$PUCSORTHOREF
  2

  9
$PUCSORTHOVIEW
 70
     0
  9
$PUCSORGTOP
 10
0.0
 20
0.0
 30
0.0
  9
$PUCSORGBOTTOM
 10
0.0
 20
0.0
 30
0.0
  9
$PUCSORGLEFT
 10
0.0
 20
0.0
 30
0.0
  9
$PUCSORGRIGHT
 10
0.0
 20
0.0
 30
0.0
  9
$PUCSORGFRONT
 10
0.0
 20
0.0
 30
0.0
  9
$PUCSORGBACK
 10
0.0
 20
0.0
 30
0.0
  9
$USERI1
 70
     0
  9
$USERI2
 70
     0
  9
$USERI3
 70
     0
  9
$USERI4
 70
     0
  9
$USERI5
 70
     0
  9
$USERR1
 40
0.0
  9
$USERR2
 40
0.0
  9
$USERR3
 40
0.0
  9
$USERR4
 40
0.0
  9
$USERR5
 40
0.0
  9
$WORLDVIEW
 70
     1
  9
$SHADEDGE
 70
     3
  9
$SHADEDIF
 70
    70
  9
$TILEMODE
 70
     1
  9
$MAXACTVP
 70
    64
  9
$PINSBASE
 10
0.0
 20
0.0
 30
0.0
  9
$PLIMCHECK
 70
     0
  9
$PEXTMIN
 10
1.000000000000000E+20
 20
1.000000000000000E+20
 30
1.000000000000000E+20
  9
$PEXTMAX
 10
-1.000000000000000E+20
 20
-1.000000000000000E+20
 30
-1.000000000000000E+20
  9
$PLIMMIN
 10
0.0
 20
0.0
  9
$PLIMMAX
 10
12.0
 20
9.0
  9
$UNITMODE
 70
     0
  9
$VISRETAIN
 70
     1
  9
$PLINEGEN
 70
     0
  9
$PSLTSCALE
 70
     1
  9
$TREEDEPTH
 70
  3020
  9
$CMLSTYLE
  2
Standard
  9
$CMLJUST
 70
     0
  9
$CMLSCALE
 40
1.0
  9
$PROXYGRAPHICS
 70
     1
  9
$MEASUREMENT
 70
     0
  9
$CELWEIGHT
370
    -1
  9
$ENDCAPS
280
     0
  9
$JOINSTYLE
280
     0
  9
$LWDISPLAY
290
     1
  9
$INSUNITS
 70
     1
  9
$HYPERLINKBASE
  1

  9
$STYLESHEET
  1

  9
$XEDIT
290
     1
  9
$CEPSNTYPE
380
     0
  9
$PSTYLEMODE
290
     1
  9
$FINGERPRINTGUID
  2
{F8B83E9D-EB39-803F-00B1-8001729C5027}
  9
$VERSIONGUID
  2
{FAEB1C32-E019-11D5-929B-00C0DF256EC4}
  9
$EXTNAMES
290
     1
  9
$PSVPSCALE
 40
0.0
  9
$OLESTARTUP
290
     0
  9
$SORTENTS
280
   127
  9
$INDEXCTL
280
     0
  9
$HIDETEXT
280
     1
  9
$XCLIPFRAME
280
     2
  9
$HALOGAP
280
     0
  9
$OBSCOLOR
 70
   257
  9
$OBSLTYPE
280
     0
  9
$INTERSECTIONDISPLAY
280
     0
  9
$INTERSECTIONCOLOR
 70
   257
  9
$DIMASSOC
280
     2
  9
$PROJECTNAME
  1

  9
$CAMERADISPLAY
290
     0
  9
$LENSLENGTH
 40
50.0
  9
$CAMERAHEIGHT
 40
0.0
  9
$STEPSPERSEC
 40
2.0
  9
$STEPSIZE
 40
6.0
  9
$3DDWFPREC
 40
2.0
  9
$PSOLWIDTH
 40
0.25
  9
$PSOLHEIGHT
 40
4.0
  9
$LOFTANG1
 40
1.570796326794897
  9
$LOFTANG2
 40
1.570796326794897
  9
$LOFTMAG1
 40
0.0
  9
$LOFTMAG2
 40
0.0
  9
$LOFTPARAM
 70
     7
  9
$LOFTNORMALS
280
     1
  9
$LATITUDE
 40
37.795
  9
$LONGITUDE
 40
-122.394
  9
$NORTHDIRECTION
 40
0.0
  9
$TIMEZONE
 70
 -8000
  9
$LIGHTGLYPHDISPLAY
280
     1
  9
$TILEMODELIGHTSYNCH
280
     1
  9
$CMATERIAL
347
3C
  9
$SOLIDHIST
280
     1
  9
$SHOWHIST
280
     1
  9
$DWFFRAME
280
     2
  9
$DGNFRAME
280
     2
  9
$REALWORLDSCALE
290
     1
  9
$INTERFERECOLOR
 62
   256
  9
$CSHADOW
280
     0
  9
$SHADOWPLANELOCATION
 40
0.0
  0
ENDSEC
  0
SECTION
  2
CLASSES
  0
CLASS
  1
ACDBDICTIONARYWDFLT
  2
AcDbDictionaryWithDefault
  3
ObjectDBX Classes
 90
        0
 91
        4
280
     0
281
     0
  0
CLASS
  1
VISUALSTYLE
  2
AcDbVisualStyle
  3
ObjectDBX Classes
 90
     4095
 91
        4
280
     0
281
     0
  0
CLASS
  1
MATERIAL
  2
AcDbMaterial
  3
ObjectDBX Classes
 90
     1153
 91
        4
280
     0
281
     0
  0
CLASS
  1
SUN
  2
AcDbSun
  3
SCENEOE
 90
     1024
 91
        4
280
     0
281
     0
  0
ENDSEC
  0
SECTION
  2
TABLES
  0
TABLE
  2
VPORT
  5
8
330
0
100
AcDbSymbolTable
 70
     1
  0
VPORT
  5
29
330
8
100
AcDbSymbolTableRecord
100
AcDbViewportTableRecord
  2
*Active
 70
     0
 10
0.0
 20
0.0
 11
1.0
 21
1.0
 12
0.0
 22
0.0
 13
0.0
 23
0.0
 14
0.5
 24
0.5
 15
0.5
 25
0.5
 16
0.0
 26
0.0
 36
1.0
 17
105.0008280156501
 27
-148.4999710739862
 37
0.0
 40
296.9999421479724
 41
0.7070764206636528
 42
50.0
 43
0.0
 44
0.0
 50
0.0
 51
0.0
 71
     0
 72
   100
 73
     1
 74
     3
 75
     0
 76
     0
 77
     0
 78
     0
281
     0
 65
     1
110
0.0
120
0.0
130
0.0
111
1.0
121
0.0
131
0.0
112
0.0
122
1.0
132
0.0
 79
     0
146
0.0
 60
     3
 61
     5
292
     1
282
     1
141
0.0
142
0.0
 63
   250
361
3F
  0
ENDTAB
  0
TABLE
  2
LTYPE
  5
5
330
0
100
AcDbSymbolTable
 70
     4
  0
LTYPE
  5
14
330
5
100
AcDbSymbolTableRecord
100
AcDbLinetypeTableRecord
  2
ByBlock
 70
     0
  3

 72
    65
 73
     0
 40
0.0
  0
LTYPE
  5
15
330
5
100
AcDbSymbolTableRecord
100
AcDbLinetypeTableRecord
  2
ByLayer
 70
     0
  3

 72
    65
 73
     0
 40
0.0
  0
LTYPE
  5
16
330
5
100
AcDbSymbolTableRecord
100
AcDbLinetypeTableRecord
  2
Continuous
 70
     0
  3
Solid line
 72
    65
 73
     0
 40
0.0
  0
LTYPE
  5
48
330
5
100
AcDbSymbolTableRecord
100
AcDbLinetypeTableRecord
  2
AI-Linetype-1
 70
     0
  3
Adobe Illustrator Linetype No. 1
 72
    65
 73
     2
 40
1.411111110758333
 49
0.7055555553791667
 74
     0
 49
-0.7055555553791667
 74
     0
  0
LTYPE
  5
4D
330
5
100
AcDbSymbolTableRecord
100
AcDbLinetypeTableRecord
  2
AI-Linetype-2
 70
     0
  3
Adobe Illustrator Linetype No. 2
 72
    65
 73
     2
 40
1.411111110758333
 49
0.7055555553791667
 74
     0
 49
-0.7055555553791667
 74
     0
  0
LTYPE
  5
52
330
5
100
AcDbSymbolTableRecord
100
AcDbLinetypeTableRecord
  2
AI-Linetype-3
 70
     0
  3
Adobe Illustrator Linetype No. 3
 72
    65
 73
     2
 40
1.411111110758333
 49
0.7055555553791667
 74
     0
 49
-0.7055555553791667
 74
     0
  0
ENDTAB
  0
TABLE
  2
LAYER
  5
2
330
0
100
AcDbSymbolTable
 70
     2
  0
LAYER
  5
10
330
2
100
AcDbSymbolTableRecord
100
AcDbLayerTableRecord
  2
0
 70
     0
 62
     7
  6
Continuous
370
    -3
390
F
347
3E
  0
LAYER
  5
40
330
2
100
AcDbSymbolTableRecord
100
AcDbLayerTableRecord
  2
_U+30EC_U+30A4_U+30E4_U+30FC 1
 70
     0
 62
     7
  6
Continuous
370
    -3
390
F
347
3E
  0
ENDTAB
  0
TABLE
  2
STYLE
  5
3
330
0
100
AcDbSymbolTable
 70
     1
  0
STYLE
  5
11
330
3
100
AcDbSymbolTableRecord
100
AcDbTextStyleTableRecord
  2
Standard
 70
     0
 40
0.0
 41
1.0
 50
0.0
 71
     0
 42
0.2
  3
txt
  4

  0
ENDTAB
  0
TABLE
  2
VIEW
  5
6
330
0
100
AcDbSymbolTable
 70
     0
  0
ENDTAB
  0
TABLE
  2
UCS
  5
7
330
0
100
AcDbSymbolTable
 70
     0
  0
ENDTAB
  0
TABLE
  2
APPID
  5
9
330
0
100
AcDbSymbolTable
 70
     1
  0
APPID
  5
12
330
9
100
AcDbSymbolTableRecord
100
AcDbRegAppTableRecord
  2
ACAD
 70
     0
  0
ENDTAB
  0
TABLE
  2
DIMSTYLE
  5
A
330
0
100
AcDbSymbolTable
 70
     1
100
AcDbDimStyleTable
  0
DIMSTYLE
105
27
330
A
100
AcDbSymbolTableRecord
100
AcDbDimStyleTableRecord
  2
Standard
 70
     0
178
     0
340
11
  0
ENDTAB
  0
TABLE
  2
BLOCK_RECORD
  5
1
330
0
100
AcDbSymbolTable
 70
     9
  0
BLOCK_RECORD
  5
1F
330
1
100
AcDbSymbolTableRecord
100
AcDbBlockTableRecord
  2
*Model_Space
340
22
 70
     0
280
     1
281
     0
  0
BLOCK_RECORD
  5
1B
330
1
100
AcDbSymbolTableRecord
100
AcDbBlockTableRecord
  2
*Paper_Space
340
1E
 70
     0
280
     1
281
     0
  0
BLOCK_RECORD
  5
23
330
1
100
AcDbSymbolTableRecord
100
AcDbBlockTableRecord
  2
*Paper_Space0
340
26
 70
     0
280
     1
281
     0
  0
BLOCK_RECORD
  5
41
330
1
100
AcDbSymbolTableRecord
100
AcDbBlockTableRecord
  2
block 2
340
0
102
{BLKREFS
331
42
102
}
 70
     0
280
     1
281
     0
  0
BLOCK_RECORD
  5
73
330
1
100
AcDbSymbolTableRecord
100
AcDbBlockTableRecord
  2
block 3
340
0
102
{BLKREFS
331
74
102
}
 70
     0
280
     1
281
     0
  0
BLOCK_RECORD
  5
8E
330
1
100
AcDbSymbolTableRecord
100
AcDbBlockTableRecord
  2
block 4
340
0
102
{BLKREFS
331
8F
102
}
 70
     0
280
     1
281
     0
  0
BLOCK_RECORD
  5
96
330
1
100
AcDbSymbolTableRecord
100
AcDbBlockTableRecord
  2
block 5
340
0
102
{BLKREFS
331
97
102
}
 70
     0
280
     1
281
     0
  0
BLOCK_RECORD
  5
A3
330
1
100
AcDbSymbolTableRecord
100
AcDbBlockTableRecord
  2
block 6
340
0
102
{BLKREFS
331
A4
102
}
 70
     0
280
     1
281
     0
  0
BLOCK_RECORD
  5
F6
330
1
100
AcDbSymbolTableRecord
100
AcDbBlockTableRecord
  2
block 7
340
0
102
{BLKREFS
331
F7
102
}
 70
     0
280
     1
281
     0
  0
BLOCK_RECORD
  5
10C
330
1
100
AcDbSymbolTableRecord
100
AcDbBlockTableRecord
  2
block 8
340
0
102
{BLKREFS
331
10D
102
}
 70
     0
280
     1
281
     0
  0
BLOCK_RECORD
  5
125
330
1
100
AcDbSymbolTableRecord
100
AcDbBlockTableRecord
  2
block 9
340
0
102
{BLKREFS
331
126
102
}
 70
     0
280
     1
281
     0
  0
ENDTAB
  0
ENDSEC
  0
SECTION
  2
BLOCKS
  0
BLOCK
  5
20
330
1F
100
AcDbEntity
  8
0
100
AcDbBlockBegin
  2
*Model_Space
 70
     0
 10
0.0
 20
0.0
 30
0.0
  3
*Model_Space
  1

  0
ENDBLK
  5
21
330
1F
100
AcDbEntity
  8
0
100
AcDbBlockEnd
  0
BLOCK
  5
1C
330
1B
100
AcDbEntity
 67
     1
  8
0
100
AcDbBlockBegin
  2
*Paper_Space
 70
     0
 10
0.0
 20
0.0
 30
0.0
  3
*Paper_Space
  1

  0
ENDBLK
  5
1D
330
1B
100
AcDbEntity
 67
     1
  8
0
100
AcDbBlockEnd
  0
BLOCK
  5
24
330
23
100
AcDbEntity
  8
0
100
AcDbBlockBegin
  2
*Paper_Space0
 70
     0
 10
0.0
 20
0.0
 30
0.0
  3
*Paper_Space0
  1

  0
ENDBLK
  5
25
330
23
100
AcDbEntity
  8
0
100
AcDbBlockEnd
  0
BLOCK
  5
43
330
41
100
AcDbEntity
  8
0
100
AcDbBlockBegin
  2
block 2
 70
     0
 10
0.0
 20
0.0
 30
0.0
  3
block 2
  1

  0
POLYLINE
  5
45
330
41
100
AcDbEntity
  8
_U+30EC_U+30A4_U+30E4_U+30FC 1
  6
AI-Linetype-1
 62
   154
420
    23468
370
    25
100
AcDb2dPolyline
 66
     1
 10
0.0
 20
0.0
 30
0.0
  0
VERTEX
  5
46
330
45
100
AcDbEntity
  8
_U+30EC_U+30A4_U+30E4_U+30FC 1
  6
AI-Linetype-1
 62
   154
420
    23468
370
    25
100
AcDbVertex
100
AcDb2dVertex
 10
94.10604509915477
 20
-152.5877482951863
 30
0.0
  0
VERTEX
  5
47
330
45
100
AcDbEntity
  8
_U+30EC_U+30A4_U+30E4_U+30FC 1
  6
AI-Linetype-1
 62
   154
420
    23468
370
    25
100
AcDbVertex
100
AcDb2dVertex
 10
94.10604509915477
 20
-145.2483124636879
 30
0.0
  0
SEQEND
  5
49
330
45
100
AcDbEntity
  8
_U+30EC_U+30A4_U+30E4_U+30FC 1
  6
AI-Linetype-1
 62
   154
420
    23468
370
    25
  0
POLYLINE
  5
4A
330
41
100
AcDbEntity
  8
_U+30EC_U+30A4_U+30E4_U+30FC 1
  6
AI-Linetype-2
 62
   154
420
    23468
370
    25
100
AcDb2dPolyline
 66
     1
 10
0.0
 20
0.0
 30
0.0
  0
VERTEX
  5
4B
330
4A
100
AcDbEntity
  8
_U+30EC_U+30A4_U+30E4_U+30FC 1
  6
AI-Linetype-2
 62
   154
420
    23468
370
    25
100
AcDbVertex
100
AcDb2dVertex
 10
86.68307167741949
 20
-144.9775555193112
 30
0.0
  0
VERTEX
  5
4C
330
4A
100
AcDbEntity
  8
_U+30EC_U+30A4_U+30E4_U+30FC 1
  6
AI-Linetype-2
 62
   154
420
    23468
370
    25
100
AcDbVertex
100
AcDb2dVertex
 10
94.0168276014309
 20
-144.9775555193112
 30
0.0
  0
SEQEND
  5
4E
330
4A
100
AcDbEntity
  8
_U+30EC_U+30A4_U+30E4_U+30FC 1
  6
AI-Linetype-2
 62
   154
420
    23468
370
    25
  0
POLYLINE
  5
4F
330
41
100
AcDbEntity
  8
_U+30EC_U+30A4_U+30E4_U+30FC 1
  6
AI-Linetype-3
 62
   154
420
    23468
370
    25
100
AcDb2dPolyline
 66
     1
 10
0.0
 20
0.0
 30
0.0
  0
VERTEX
  5
50
330
4F
100
AcDbEntity
  8
_U+30EC_U+30A4_U+30E4_U+30FC 1
  6
AI-Linetype-3
 62
   154
420
    23468
370
    25
100
AcDbVertex
100
AcDb2dVertex
 10
94.57287592057826
 20
-152.7765549618058
 30
0.0
  0
VERTEX
  5
51
330
4F
100
AcDbEntity
  8
_U+30EC_U+30A4_U+30E4_U+30FC 1
  6
AI-Linetype-3
 62
   154
420
    23468
370
    25
100
AcDbVertex
100
AcDb2dVertex
 10
104.8826651019981
 20
-151.9111557953553
 30
0.0
  0
SEQEND
  5
53
330
4F
100
AcDbEntity
  8
_U+30EC_U+30A4_U+30E4_U+30FC 1
  6
AI-Linetype-3
 62
   154
420
    23468
370
    25
  0
ENDBLK
  5
44
330
41
100
AcDbEntity
  8
0
100
AcDbBlockEnd
  0
BLOCK
  5
75
330
73
100
AcDbEntity
  8
0
100
AcDbBlockBegin
  2
block 3
 70
     0
 10
0.0
 20
0.0
 30
0.0
  3
block 3
  1

  0
SPLINE
  5
77
330
73
100
AcDbEntity
  8
_U+30EC_U+30A4_U+30E4_U+30FC 1
370
     0
100
AcDbSpline
210
0.0
220
0.0
230
1.0
 70
    11
 71
     3
 72
    62
 73
    58
 74
     0
 42
0.0000000001
 43
0.0000000001
 12
1.0
 22
0.0
 32
0.0
 13
1.0
 23
0.0
 33
0.0
 40
0.0
 40
0.0
 40
0.0
 40
0.0
 40
1.0
 40
1.0
 40
1.0
 40
2.0
 40
2.0
 40
2.0
 40
3.0
 40
3.0
 40
3.0
 40
4.0
 40
4.0
 40
4.0
 40
5.0
 40
5.0
 40
5.0
 40
6.0
 40
6.0
 40
6.0
 40
7.0
 40
7.0
 40
7.0
 40
8.0
 40
8.0
 40
8.0
 40
9.0
 40
9.0
 40
9.0
 40
10.0
 40
10.0
 40
10.0
 40
11.0
 40
11.0
 40
11.0
 40
12.0
 40
12.0
 40
12.0
 40
13.0
 40
13.0
 40
13.0
 40
14.0
 40
14.0
 40
14.0
 40
15.0
 40
15.0
 40
15.0
 40
16.0
 40
16.0
 40
16.0
 40
17.0
 40
17.0
 40
17.0
 40
18.0
 40
18.0
 40
18.0
 40
19.0
 40
19.0
 40
19.0
 40
19.0
 10
102.2142604996201
 20
-138.5975694097951
 30
0.0
 10
102.1188313546786
 20
-138.5975694097951
 30
0.0
 10
101.9011013200108
 20
-138.576554327335
 30
0.0
 10
101.7760443538963
 20
-138.3905191711315
 30
0.0
 10
101.7019748009634
 20
-138.2782090583124
 30
0.0
 10
101.6978406863811
 20
-138.1789903083372
 30
0.0
 10
101.6937065717988
 20
-138.0942409594001
 30
0.0
 10
101.6937065717988
 20
-138.0942409594001
 30
0.0
 10
101.9138481733063
 20
-138.0942409594001
 30
0.0
 10
101.9138481733063
 20
-138.0942409594001
 30
0.0
 10
101.9159152305974
 20
-138.1683105123329
 30
0.0
 10
101.9262505170532
 20
-138.4029215148784
 30
0.0
 10
102.2097818754892
 20
-138.4029215148784
 30
0.0
 10
102.3472411853507
 20
-138.4029215148784
 30
0.0
 10
102.4998589153473
 20
-138.3333305860764
 30
0.0
 10
102.4998589153473
 20
-138.1049207554043
 30
0.0
 10
102.4998589153473
 20
-137.9884765280029
 30
0.0
 10
102.461618355461
 20
-137.9399006816609
 30
0.0
 10
102.4299234769967
 20
-137.9082058031966
 30
0.0
 10
102.3558539240638
 20
-137.8341362502637
 30
0.0
 10
102.2394096966624
 20
-137.8213893969683
 30
0.0
 10
102.1846326784469
 20
-137.8213893969683
 30
0.0
 10
102.1653401437295
 20
-137.8213893969683
 30
0.0
 10
102.1295111506829
 20
-137.8234564542594
 30
0.0
 10
102.1019503868009
 20
-137.8275905688417
 30
0.0
 10
102.1019503868009
 20
-137.8275905688417
 30
0.0
 10
102.1019503868009
 20
-137.6329426739251
 30
0.0
 10
102.1019503868009
 20
-137.6329426739251
 30
0.0
 10
102.1401909466872
 20
-137.6394883553471
 30
0.0
 10
102.1822211116072
 20
-137.6415554126382
 30
0.0
 10
102.1887667930292
 20
-137.6415554126382
 30
0.0
 10
102.2542236072489
 20
-137.6415554126382
 30
0.0
 10
102.4530056167479
 20
-137.6201958206297
 30
0.0
 10
102.4530056167479
 20
-137.383517760793
 30
0.0
 10
102.4530056167479
 20
-137.2057508337541
 30
0.0
 10
102.3220919883084
 20
-137.1506293059901
 30
0.0
 10
102.2118489327804
 20
-137.1506293059901
 30
0.0
 10
101.9476101090617
 20
-137.1506293059901
 30
0.0
 10
101.9389973703486
 20
-137.383517760793
 30
0.0
 10
101.9348632557663
 20
-137.4551757468862
 30
0.0
 10
101.9348632557663
 20
-137.4551757468862
 30
0.0
 10
101.7316026221365
 20
-137.4551757468862
 30
0.0
 10
101.7316026221365
 20
-137.4551757468862
 30
0.0
 10
101.7402153608497
 20
-137.3304632903202
 30
0.0
 10
101.7677761247317
 20
-136.9539143537824
 30
0.0
 10
102.2245957860758
 20
-136.9539143537824
 30
0.0
 10
102.4488715021656
 20
-136.9539143537824
 30
0.0
 10
102.690028186133
 20
-137.0810383771881
 30
0.0
 10
102.690028186133
 20
-137.376972079371
 30
0.0
 10
102.690028186133
 20
-137.563351745123
 30
0.0
 10
102.5949435507402
 20
-137.6456895272205
 30
0.0
 10
102.4953802912164
 20
-137.707012226858
 30
0.0
 10
102.5567029908539
 20
-137.73457299074
 30
0.0
 10
102.7386040324751
 20
-137.8148437155463
 30
0.0
 10
102.7386040324751
 20
-138.0921739021089
 30
0.0
 10
102.7386040324751
 20
-138.4304822787605
 30
0.0
 10
102.4912461766341
 20
-138.5975694097951
 30
0.0
 10
102.2142604996201
 20
-138.5975694097951
 30
0.0
  0
HATCH
  5
78
330
73
100
AcDbEntity
  8
_U+30EC_U+30A4_U+30E4_U+30FC 1
 62
   179
420
  2234388
100
AcDbHatch
 10
0.0
 20
0.0
 30
0.0
210
0.0
220
0.0
230
1.0
  2
SOLID
 70
     1
 71
     0
 91
        1
 92
        1
 93
        1
 72
     4
 94
        3
 73
     0
 74
     1
 95
       62
 96
       58
 40
0.0
 40
0.0
 40
0.0
 40
0.0
 40
1.0
 40
1.0
 40
1.0
 40
2.0
 40
2.0
 40
2.0
 40
3.0
 40
3.0
 40
3.0
 40
4.0
 40
4.0
 40
4.0
 40
5.0
 40
5.0
 40
5.0
 40
6.0
 40
6.0
 40
6.0
 40
7.0
 40
7.0
 40
7.0
 40
8.0
 40
8.0
 40
8.0
 40
9.0
 40
9.0
 40
9.0
 40
10.0
 40
10.0
 40
10.0
 40
11.0
 40
11.0
 40
11.0
 40
12.0
 40
12.0
 40
12.0
 40
13.0
 40
13.0
 40
13.0
 40
14.0
 40
14.0
 40
14.0
 40
15.0
 40
15.0
 40
15.0
 40
16.0
 40
16.0
 40
16.0
 40
17.0
 40
17.0
 40
17.0
 40
18.0
 40
18.0
 40
18.0
 40
19.0
 40
19.0
 40
19.0
 40
19.0
 10
102.2142604996201
 20
-138.5975694097951
 10
102.1188313546786
 20
-138.5975694097951
 10
101.9011013200108
 20
-138.576554327335
 10
101.7760443538963
 20
-138.3905191711315
 10
101.7019748009634
 20
-138.2782090583124
 10
101.6978406863811
 20
-138.1789903083372
 10
101.6937065717988
 20
-138.0942409594001
 10
101.6937065717988
 20
-138.0942409594001
 10
101.9138481733063
 20
-138.0942409594001
 10
101.9138481733063
 20
-138.0942409594001
 10
101.9159152305974
 20
-138.1683105123329
 10
101.9262505170532
 20
-138.4029215148784
 10
102.2097818754892
 20
-138.4029215148784
 10
102.3472411853507
 20
-138.4029215148784
 10
102.4998589153473
 20
-138.3333305860764
 10
102.4998589153473
 20
-138.1049207554043
 10
102.4998589153473
 20
-137.9884765280029
 10
102.461618355461
 20
-137.9399006816609
 10
102.4299234769967
 20
-137.9082058031966
 10
102.3558539240638
 20
-137.8341362502637
 10
102.2394096966624
 20
-137.8213893969683
 10
102.1846326784469
 20
-137.8213893969683
 10
102.1653401437295
 20
-137.8213893969683
 10
102.1295111506829
 20
-137.8234564542594
 10
102.1019503868009
 20
-137.8275905688417
 10
102.1019503868009
 20
-137.8275905688417
 10
102.1019503868009
 20
-137.6329426739251
 10
102.1019503868009
 20
-137.6329426739251
 10
102.1401909466872
 20
-137.6394883553471
 10
102.1822211116072
 20
-137.6415554126382
 10
102.1887667930292
 20
-137.6415554126382
 10
102.2542236072489
 20
-137.6415554126382
 10
102.4530056167479
 20
-137.6201958206297
 10
102.4530056167479
 20
-137.383517760793
 10
102.4530056167479
 20
-137.2057508337541
 10
102.3220919883084
 20
-137.1506293059901
 10
102.2118489327804
 20
-137.1506293059901
 10
101.9476101090617
 20
-137.1506293059901
 10
101.9389973703486
 20
-137.383517760793
 10
101.9348632557663
 20
-137.4551757468862
 10
101.9348632557663
 20
-137.4551757468862
 10
101.7316026221365
 20
-137.4551757468862
 10
101.7316026221365
 20
-137.4551757468862
 10
101.7402153608497
 20
-137.3304632903202
 10
101.7677761247317
 20
-136.9539143537824
 10
102.2245957860758
 20
-136.9539143537824
 10
102.4488715021656
 20
-136.9539143537824
 10
102.690028186133
 20
-137.0810383771881
 10
102.690028186133
 20
-137.376972079371
 10
102.690028186133
 20
-137.563351745123
 10
102.5949435507402
 20
-137.6456895272205
 10
102.4953802912164
 20
-137.707012226858
 10
102.5567029908539
 20
-137.73457299074
 10
102.7386040324751
 20
-137.8148437155463
 10
102.7386040324751
 20
-138.0921739021089
 10
102.7386040324751
 20
-138.4304822787605
 10
102.4912461766341
 20
-138.5975694097951
 10
102.2142604996201
 20
-138.5975694097951
 97
        0
 97
        0
 75
     2
 76
     1
 98
        0
  0
SPLINE
  5
79
330
73
100
AcDbEntity
  8
_U+30EC_U+30A4_U+30E4_U+30FC 1
370
     0
100
AcDbSpline
210
0.0
220
0.0
230
1.0
 70
    11
 71
     3
 72
    44
 73
    40
 74
     0
 42
0.0000000001
 43
0.0000000001
 12
1.0
 22
0.0
 32
0.0
 13
1.0
 23
0.0
 33
0.0
 40
0.0
 40
0.0
 40
0.0
 40
0.0
 40
1.0
 40
1.0
 40
1.0
 40
2.0
 40
2.0
 40
2.0
 40
3.0
 40
3.0
 40
3.0
 40
4.0
 40
4.0
 40
4.0
 40
5.0
 40
5.0
 40
5.0
 40
6.0
 40
6.0
 40
6.0
 40
7.0
 40
7.0
 40
7.0
 40
8.0
 40
8.0
 40
8.0
 40
9.0
 40
9.0
 40
9.0
 40
10.0
 40
10.0
 40
10.0
 40
11.0
 40
11.0
 40
11.0
 40
12.0
 40
12.0
 40
12.0
 40
13.0
 40
13.0
 40
13.0
 40
13.0
 10
103.4923909246477
 20
-137.9650498787032
 30
0.0
 10
103.27466088998
 20
-138.1238687805732
 30
0.0
 10
103.1816433118782
 20
-138.1979383335061
 30
0.0
 10
103.1327229559877
 20
-138.341598815241
 30
0.0
 10
103.1327229559877
 20
-138.341598815241
 30
0.0
 10
103.9113145356541
 20
-138.341598815241
 30
0.0
 10
103.9113145356541
 20
-138.341598815241
 30
0.0
 10
103.9113145356541
 20
-138.341598815241
 30
0.0
 10
103.9113145356541
 20
-138.5469265061619
 30
0.0
 10
103.9113145356541
 20
-138.5469265061619
 30
0.0
 10
103.9113145356541
 20
-138.5469265061619
 30
0.0
 10
102.8832980428556
 20
-138.5469265061619
 30
0.0
 10
102.8832980428556
 20
-138.5469265061619
 30
0.0
 10
102.9149929213199
 20
-138.189325594793
 30
0.0
 10
102.9804497355396
 20
-138.1111219272778
 30
0.0
 10
103.3656114107905
 20
-137.8127766582551
 30
0.0
 10
103.6215820053446
 20
-137.6139946487562
 30
0.0
 10
103.6870388195643
 20
-137.5461262676968
 30
0.0
 10
103.6870388195643
 20
-137.4086669578354
 30
0.0
 10
103.6870388195643
 20
-137.2901556731427
 30
0.0
 10
103.6150363239226
 20
-137.1592420447033
 30
0.0
 10
103.4183213717149
 20
-137.1592420447033
 30
0.0
 10
103.1582166625785
 20
-137.1592420447033
 30
0.0
 10
103.1496039238654
 20
-137.3897189326665
 30
0.0
 10
103.1454698092831
 20
-137.5061631600679
 30
0.0
 10
103.1454698092831
 20
-137.5061631600679
 30
0.0
 10
102.9211940931933
 20
-137.5061631600679
 30
0.0
 10
102.9211940931933
 20
-137.5061631600679
 30
0.0
 10
102.9298068319064
 20
-137.3790391366622
 30
0.0
 10
102.9404866279107
 20
-137.2670735333916
 30
0.0
 10
103.020757352717
 20
-137.148562248699
 30
0.0
 10
103.1306558986965
 20
-136.9876762895378
 30
0.0
 10
103.3170355644485
 20
-136.9539143537824
 30
0.0
 10
103.4331352823014
 20
-136.9539143537824
 30
0.0
 10
103.7104654688641
 20
-136.9539143537824
 30
0.0
 10
103.9178602170761
 20
-137.1378824526947
 30
0.0
 10
103.9178602170761
 20
-137.4107340151265
 30
0.0
 10
103.9178602170761
 20
-137.6394883553471
 30
0.0
 10
103.8014159896747
 20
-137.7387071053223
 30
0.0
 10
103.4923909246477
 20
-137.9650498787032
 30
0.0
  0
HATCH
  5
7A
330
73
100
AcDbEntity
  8
_U+30EC_U+30A4_U+30E4_U+30FC 1
 62
   179
420
  2234388
100
AcDbHatch
 10
0.0
 20
0.0
 30
0.0
210
0.0
220
0.0
230
1.0
  2
SOLID
 70
     1
 71
     0
 91
        1
 92
        1
 93
        1
 72
     4
 94
        3
 73
     0
 74
     1
 95
       44
 96
       40
 40
0.0
 40
0.0
 40
0.0
 40
0.0
 40
1.0
 40
1.0
 40
1.0
 40
2.0
 40
2.0
 40
2.0
 40
3.0
 40
3.0
 40
3.0
 40
4.0
 40
4.0
 40
4.0
 40
5.0
 40
5.0
 40
5.0
 40
6.0
 40
6.0
 40
6.0
 40
7.0
 40
7.0
 40
7.0
 40
8.0
 40
8.0
 40
8.0
 40
9.0
 40
9.0
 40
9.0
 40
10.0
 40
10.0
 40
10.0
 40
11.0
 40
11.0
 40
11.0
 40
12.0
 40
12.0
 40
12.0
 40
13.0
 40
13.0
 40
13.0
 40
13.0
 10
103.4923909246477
 20
-137.9650498787032
 10
103.27466088998
 20
-138.1238687805732
 10
103.1816433118782
 20
-138.1979383335061
 10
103.1327229559877
 20
-138.341598815241
 10
103.1327229559877
 20
-138.341598815241
 10
103.9113145356541
 20
-138.341598815241
 10
103.9113145356541
 20
-138.341598815241
 10
103.9113145356541
 20
-138.341598815241
 10
103.9113145356541
 20
-138.5469265061619
 10
103.9113145356541
 20
-138.5469265061619
 10
103.9113145356541
 20
-138.5469265061619
 10
102.8832980428556
 20
-138.5469265061619
 10
102.8832980428556
 20
-138.5469265061619
 10
102.9149929213199
 20
-138.189325594793
 10
102.9804497355396
 20
-138.1111219272778
 10
103.3656114107905
 20
-137.8127766582551
 10
103.6215820053446
 20
-137.6139946487562
 10
103.6870388195643
 20
-137.5461262676968
 10
103.6870388195643
 20
-137.4086669578354
 10
103.6870388195643
 20
-137.2901556731427
 10
103.6150363239226
 20
-137.1592420447033
 10
103.4183213717149
 20
-137.1592420447033
 10
103.1582166625785
 20
-137.1592420447033
 10
103.1496039238654
 20
-137.3897189326665
 10
103.1454698092831
 20
-137.5061631600679
 10
103.1454698092831
 20
-137.5061631600679
 10
102.9211940931933
 20
-137.5061631600679
 10
102.9211940931933
 20
-137.5061631600679
 10
102.9298068319064
 20
-137.3790391366622
 10
102.9404866279107
 20
-137.2670735333916
 10
103.020757352717
 20
-137.148562248699
 10
103.1306558986965
 20
-136.9876762895378
 10
103.3170355644485
 20
-136.9539143537824
 10
103.4331352823014
 20
-136.9539143537824
 10
103.7104654688641
 20
-136.9539143537824
 10
103.9178602170761
 20
-137.1378824526947
 10
103.9178602170761
 20
-137.4107340151265
 10
103.9178602170761
 20
-137.6394883553471
 10
103.8014159896747
 20
-137.7387071053223
 10
103.4923909246477
 20
-137.9650498787032
 97
        0
 97
        0
 75
     2
 76
     1
 98
        0
  0
ENDBLK
  5
76
330
73
100
AcDbEntity
  8
0
100
AcDbBlockEnd
  0
BLOCK
  5
90
330
8E
100
AcDbEntity
  8
0
100
AcDbBlockBegin
  2
block 4
 70
     0
 10
0.0
 20
0.0
 30
0.0
  3
block 4
  1

  0
SPLINE
  5
92
330
8E
100
AcDbEntity
  8
_U+30EC_U+30A4_U+30E4_U+30FC 1
370
     0
100
AcDbSpline
210
0.0
220
0.0
230
1.0
 70
    11
 71
     3
 72
    29
 73
    25
 74
     0
 42
0.0000000001
 43
0.0000000001
 12
1.0
 22
0.0
 32
0.0
 13
1.0
 23
0.0
 33
0.0
 40
0.0
 40
0.0
 40
0.0
 40
0.0
 40
1.0
 40
1.0
 40
1.0
 40
2.0
 40
2.0
 40
2.0
 40
3.0
 40
3.0
 40
3.0
 40
4.0
 40
4.0
 40
4.0
 40
5.0
 40
5.0
 40
5.0
 40
6.0
 40
6.0
 40
6.0
 40
7.0
 40
7.0
 40
7.0
 40
8.0
 40
8.0
 40
8.0
 40
8.0
 10
90.72383352766627
 20
-154.9097520229045
 30
0.0
 10
90.45718313710793
 20
-154.9097520229045
 30
0.0
 10
90.20362410939354
 20
-154.772292713043
 30
0.0
 10
90.20362410939354
 20
-154.4233045403872
 30
0.0
 10
90.20362410939354
 20
-154.1673339458332
 30
0.0
 10
90.34521753383731
 20
-154.0722493104403
 30
0.0
 10
90.45098196523448
 20
-154.0109266108028
 30
0.0
 10
90.32626950866843
 20
-153.9516709684565
 30
0.0
 10
90.25013289844442
 20
-153.8372937983463
 30
0.0
 10
90.25013289844442
 20
-153.6764078391851
 30
0.0
 10
90.25013289844442
 20
-153.4014892194621
 30
0.0
 10
90.44891490794333
 20
-153.2660969668918
 30
0.0
 10
90.72383352766627
 20
-153.2660969668918
 30
0.0
 10
91.00736488610232
 20
-153.2660969668918
 30
0.0
 10
91.19787866643665
 20
-153.4101019581753
 30
0.0
 10
91.19787866643665
 20
-153.6764078391851
 30
0.0
 10
91.19787866643665
 20
-153.8372937983463
 30
0.0
 10
91.11933048937296
 20
-153.9516709684565
 30
0.0
 10
90.99461803280691
 20
-154.0109266108028
 30
0.0
 10
91.08350149632635
 20
-154.061569514436
 30
0.0
 10
91.24232039819637
 20
-154.1566541498289
 30
0.0
 10
91.24232039819637
 20
-154.4191704258049
 30
0.0
 10
91.24232039819637
 20
-154.7936523050516
 30
0.0
 10
90.9629231543426
 20
-154.9097520229045
 30
0.0
 10
90.72383352766627
 20
-154.9097520229045
 30
0.0
  0
SPLINE
  5
93
330
8E
100
AcDbEntity
  8
_U+30EC_U+30A4_U+30E4_U+30FC 1
370
     0
100
AcDbSpline
210
0.0
220
0.0
230
1.0
 70
    11
 71
     3
 72
    17
 73
    13
 74
     0
 42
0.0000000001
 43
0.0000000001
 12
1.0
 22
0.0
 32
0.0
 13
1.0
 23
0.0
 33
0.0
 40
0.0
 40
0.0
 40
0.0
 40
0.0
 40
1.0
 40
1.0
 40
1.0
 40
2.0
 40
2.0
 40
2.0
 40
3.0
 40
3.0
 40
3.0
 40
4.0
 40
4.0
 40
4.0
 40
4.0
 10
90.72383352766627
 20
-154.1187580994911
 30
0.0
 10
90.58017304593135
 20
-154.1187580994911
 30
0.0
 10
90.42755531593478
 20
-154.2055745057195
 30
0.0
 10
90.42755531593478
 20
-154.4084906298007
 30
0.0
 10
90.42755531593478
 20
-154.6138183207215
 30
0.0
 10
90.5546793393405
 20
-154.7151041279879
 30
0.0
 10
90.72383352766627
 20
-154.7151041279879
 30
0.0
 10
90.90986868386976
 20
-154.7151041279879
 30
0.0
 10
91.02011173939775
 20
-154.592458728713
 30
0.0
 10
91.02011173939775
 20
-154.4146918016741
 30
0.0
 10
91.02011173939775
 20
-154.192827652424
 30
0.0
 10
90.85715872294544
 20
-154.1187580994911
 30
0.0
 10
90.72383352766627
 20
-154.1187580994911
 30
0.0
  0
SPLINE
  5
94
330
8E
100
AcDbEntity
  8
_U+30EC_U+30A4_U+30E4_U+30FC 1
370
     0
100
AcDbSpline
210
0.0
220
0.0
230
1.0
 70
    11
 71
     3
 72
    17
 73
    13
 74
     0
 42
0.0000000001
 43
0.0000000001
 12
1.0
 22
0.0
 32
0.0
 13
1.0
 23
0.0
 33
0.0
 40
0.0
 40
0.0
 40
0.0
 40
0.0
 40
1.0
 40
1.0
 40
1.0
 40
2.0
 40
2.0
 40
2.0
 40
3.0
 40
3.0
 40
3.0
 40
4.0
 40
4.0
 40
4.0
 40
4.0
 10
90.72383352766627
 20
-153.4586778045173
 30
0.0
 10
90.5588134539228
 20
-153.4586778045173
 30
0.0
 10
90.47440861453418
 20
-153.5537624399102
 30
0.0
 10
90.47440861453418
 20
-153.6891546924805
 30
0.0
 10
90.47440861453418
 20
-153.8118000917554
 30
0.0
 10
90.54606660062737
 20
-153.930311376448
 30
0.0
 10
90.72383352766627
 20
-153.930311376448
 30
0.0
 10
90.90160045470516
 20
-153.930311376448
 30
0.0
 10
90.97360295034689
 20
-153.8118000917554
 30
0.0
 10
90.97360295034689
 20
-153.6891546924805
 30
0.0
 10
90.97360295034689
 20
-153.5537624399102
 30
0.0
 10
90.88678654411858
 20
-153.4586778045173
 30
0.0
 10
90.72383352766627
 20
-153.4586778045173
 30
0.0
  0
HATCH
  5
95
330
8E
100
AcDbEntity
  8
_U+30EC_U+30A4_U+30E4_U+30FC 1
 62
   179
420
  2234388
100
AcDbHatch
 10
0.0
 20
0.0
 30
0.0
210
0.0
220
0.0
230
1.0
  2
SOLID
 70
     1
 71
     0
 91
        3
 92
        1
 93
        1
 72
     4
 94
        3
 73
     0
 74
     1
 95
       29
 96
       25
 40
0.0
 40
0.0
 40
0.0
 40
0.0
 40
1.0
 40
1.0
 40
1.0
 40
2.0
 40
2.0
 40
2.0
 40
3.0
 40
3.0
 40
3.0
 40
4.0
 40
4.0
 40
4.0
 40
5.0
 40
5.0
 40
5.0
 40
6.0
 40
6.0
 40
6.0
 40
7.0
 40
7.0
 40
7.0
 40
8.0
 40
8.0
 40
8.0
 40
8.0
 10
90.72383352766627
 20
-154.9097520229045
 10
90.45718313710793
 20
-154.9097520229045
 10
90.20362410939354
 20
-154.772292713043
 10
90.20362410939354
 20
-154.4233045403872
 10
90.20362410939354
 20
-154.1673339458332
 10
90.34521753383731
 20
-154.0722493104403
 10
90.45098196523448
 20
-154.0109266108028
 10
90.32626950866843
 20
-153.9516709684565
 10
90.25013289844442
 20
-153.8372937983463
 10
90.25013289844442
 20
-153.6764078391851
 10
90.25013289844442
 20
-153.4014892194621
 10
90.44891490794333
 20
-153.2660969668918
 10
90.72383352766627
 20
-153.2660969668918
 10
91.00736488610232
 20
-153.2660969668918
 10
91.19787866643665
 20
-153.4101019581753
 10
91.19787866643665
 20
-153.6764078391851
 10
91.19787866643665
 20
-153.8372937983463
 10
91.11933048937296
 20
-153.9516709684565
 10
90.99461803280691
 20
-154.0109266108028
 10
91.08350149632635
 20
-154.061569514436
 10
91.24232039819637
 20
-154.1566541498289
 10
91.24232039819637
 20
-154.4191704258049
 10
91.24232039819637
 20
-154.7936523050516
 10
90.9629231543426
 20
-154.9097520229045
 10
90.72383352766627
 20
-154.9097520229045
 97
        0
 97
        0
 92
        1
 93
        1
 72
     4
 94
        3
 73
     0
 74
     1
 95
       17
 96
       13
 40
0.0
 40
0.0
 40
0.0
 40
0.0
 40
1.0
 40
1.0
 40
1.0
 40
2.0
 40
2.0
 40
2.0
 40
3.0
 40
3.0
 40
3.0
 40
4.0
 40
4.0
 40
4.0
 40
4.0
 10
90.72383352766627
 20
-154.1187580994911
 10
90.58017304593135
 20
-154.1187580994911
 10
90.42755531593478
 20
-154.2055745057195
 10
90.42755531593478
 20
-154.4084906298007
 10
90.42755531593478
 20
-154.6138183207215
 10
90.5546793393405
 20
-154.7151041279879
 10
90.72383352766627
 20
-154.7151041279879
 10
90.90986868386976
 20
-154.7151041279879
 10
91.02011173939775
 20
-154.592458728713
 10
91.02011173939775
 20
-154.4146918016741
 10
91.02011173939775
 20
-154.192827652424
 10
90.85715872294544
 20
-154.1187580994911
 10
90.72383352766627
 20
-154.1187580994911
 97
        0
 97
        0
 92
        1
 93
        1
 72
     4
 94
        3
 73
     0
 74
     1
 95
       17
 96
       13
 40
0.0
 40
0.0
 40
0.0
 40
0.0
 40
1.0
 40
1.0
 40
1.0
 40
2.0
 40
2.0
 40
2.0
 40
3.0
 40
3.0
 40
3.0
 40
4.0
 40
4.0
 40
4.0
 40
4.0
 10
90.72383352766627
 20
-153.4586778045173
 10
90.5588134539228
 20
-153.4586778045173
 10
90.47440861453418
 20
-153.5537624399102
 10
90.47440861453418
 20
-153.6891546924805
 10
90.47440861453418
 20
-153.8118000917554
 10
90.54606660062737
 20
-153.930311376448
 10
90.72383352766627
 20
-153.930311376448
 10
90.90160045470516
 20
-153.930311376448
 10
90.97360295034689
 20
-153.8118000917554
 10
90.97360295034689
 20
-153.6891546924805
 10
90.97360295034689
 20
-153.5537624399102
 10
90.88678654411858
 20
-153.4586778045173
 10
90.72383352766627
 20
-153.4586778045173
 97
        0
 97
        0
 75
     2
 76
     1
 98
        0
  0
ENDBLK
  5
91
330
8E
100
AcDbEntity
  8
0
100
AcDbBlockEnd
  0
BLOCK
  5
98
330
96
100
AcDbEntity
  8
0
100
AcDbBlockBegin
  2
block 5
 70
     0
 10
0.0
 20
0.0
 30
0.0
  3
block 5
  1

  0
SPLINE
  5
9A
330
96
100
AcDbEntity
  8
_U+30EC_U+30A4_U+30E4_U+30FC 1
370
     0
100
AcDbSpline
210
0.0
220
0.0
230
1.0
 70
    11
 71
     3
 72
    26
 73
    22
 74
     0
 42
0.0000000001
 43
0.0000000001
 12
1.0
 22
0.0
 32
0.0
 13
1.0
 23
0.0
 33
0.0
 40
0.0
 40
0.0
 40
0.0
 40
0.0
 40
1.0
 40
1.0
 40
1.0
 40
2.0
 40
2.0
 40
2.0
 40
3.0
 40
3.0
 40
3.0
 40
4.0
 40
4.0
 40
4.0
 40
5.0
 40
5.0
 40
5.0
 40
6.0
 40
6.0
 40
6.0
 40
7.0
 40
7.0
 40
7.0
 40
7.0
 10
99.20462508370579
 20
-154.8591091192714
 30
0.0
 10
99.20462508370579
 20
-154.8591091192714
 30
0.0
 10
99.20462508370579
 20
-153.7549560162488
 30
0.0
 10
99.20462508370579
 20
-153.7549560162488
 30
0.0
 10
99.20462508370579
 20
-153.7549560162488
 30
0.0
 10
98.87458493621885
 20
-153.7549560162488
 30
0.0
 10
98.87458493621885
 20
-153.7549560162488
 30
0.0
 10
98.87458493621885
 20
-153.7549560162488
 30
0.0
 10
98.87458493621885
 20
-153.606816910383
 30
0.0
 10
98.87458493621885
 20
-153.606816910383
 30
0.0
 10
99.20669214099695
 20
-153.5920029997964
 30
0.0
 10
99.25320093004781
 20
-153.4290499833441
 30
0.0
 10
99.28282875122096
 20
-153.3146728132338
 30
0.0
 10
99.28282875122096
 20
-153.3146728132338
 30
0.0
 10
99.42890079979556
 20
-153.3146728132338
 30
0.0
 10
99.42890079979556
 20
-153.3146728132338
 30
0.0
 10
99.42890079979556
 20
-153.3146728132338
 30
0.0
 10
99.42890079979556
 20
-154.8591091192714
 30
0.0
 10
99.42890079979556
 20
-154.8591091192714
 30
0.0
 10
99.42890079979556
 20
-154.8591091192714
 30
0.0
 10
99.20462508370579
 20
-154.8591091192714
 30
0.0
 10
99.20462508370579
 20
-154.8591091192714
 30
0.0
  0
HATCH
  5
9B
330
96
100
AcDbEntity
  8
_U+30EC_U+30A4_U+30E4_U+30FC 1
 62
   179
420
  2234388
100
AcDbHatch
 10
0.0
 20
0.0
 30
0.0
210
0.0
220
0.0
230
1.0
  2
SOLID
 70
     1
 71
     0
 91
        1
 92
        1
 93
        1
 72
     4
 94
        3
 73
     0
 74
     1
 95
       26
 96
       22
 40
0.0
 40
0.0
 40
0.0
 40
0.0
 40
1.0
 40
1.0
 40
1.0
 40
2.0
 40
2.0
 40
2.0
 40
3.0
 40
3.0
 40
3.0
 40
4.0
 40
4.0
 40
4.0
 40
5.0
 40
5.0
 40
5.0
 40
6.0
 40
6.0
 40
6.0
 40
7.0
 40
7.0
 40
7.0
 40
7.0
 10
99.20462508370579
 20
-154.8591091192714
 10
99.20462508370579
 20
-154.8591091192714
 10
99.20462508370579
 20
-153.7549560162488
 10
99.20462508370579
 20
-153.7549560162488
 10
99.20462508370579
 20
-153.7549560162488
 10
98.87458493621885
 20
-153.7549560162488
 10
98.87458493621885
 20
-153.7549560162488
 10
98.87458493621885
 20
-153.7549560162488
 10
98.87458493621885
 20
-153.606816910383
 10
98.87458493621885
 20
-153.606816910383
 10
99.20669214099695
 20
-153.5920029997964
 10
99.25320093004781
 20
-153.4290499833441
 10
99.28282875122096
 20
-153.3146728132338
 10
99.28282875122096
 20
-153.3146728132338
 10
99.42890079979556
 20
-153.3146728132338
 10
99.42890079979556
 20
-153.3146728132338
 10
99.42890079979556
 20
-153.3146728132338
 10
99.42890079979556
 20
-154.8591091192714
 10
99.42890079979556
 20
-154.8591091192714
 10
99.42890079979556
 20
-154.8591091192714
 10
99.20462508370579
 20
-154.8591091192714
 10
99.20462508370579
 20
-154.8591091192714
 97
        0
 97
        0
 75
     2
 76
     1
 98
        0
  0
SPLINE
  5
9C
330
96
100
AcDbEntity
  8
_U+30EC_U+30A4_U+30E4_U+30FC 1
370
     0
100
AcDbSpline
210
0.0
220
0.0
230
1.0
 70
    11
 71
     3
 72
    29
 73
    25
 74
     0
 42
0.0000000001
 43
0.0000000001
 12
1.0
 22
0.0
 32
0.0
 13
1.0
 23
0.0
 33
0.0
 40
0.0
 40
0.0
 40
0.0
 40
0.0
 40
1.0
 40
1.0
 40
1.0
 40
2.0
 40
2.0
 40
2.0
 40
3.0
 40
3.0
 40
3.0
 40
4.0
 40
4.0
 40
4.0
 40
5.0
 40
5.0
 40
5.0
 40
6.0
 40
6.0
 40
6.0
 40
7.0
 40
7.0
 40
7.0
 40
8.0
 40
8.0
 40
8.0
 40
8.0
 10
100.8279540763555
 20
-154.6813421922324
 30
0.0
 10
100.7197780781187
 20
-154.8908039977356
 30
0.0
 10
100.5464897752106
 20
-154.9097520229045
 30
0.0
 10
100.4300455478092
 20
-154.9097520229045
 30
0.0
 10
100.269159588648
 20
-154.9097520229045
 30
0.0
 10
100.1275661642042
 20
-154.8632432338536
 30
0.0
 10
100.0324815288113
 20
-154.6813421922324
 30
0.0
 10
99.92878415470531
 20
-154.4866942973158
 30
0.0
 10
99.90983612953643
 20
-154.2500162374792
 30
0.0
 10
99.90983612953643
 20
-154.0870632210269
 30
0.0
 10
99.90983612953643
 20
-153.9430582297434
 30
0.0
 10
99.92671709741415
 20
-153.6912217497716
 30
0.0
 10
100.0324815288113
 20
-153.4924397402727
 30
0.0
 10
100.1403130174997
 20
-153.2895236161915
 30
0.0
 10
100.3011989766608
 20
-153.2660969668918
 30
0.0
 10
100.4300455478092
 20
-153.2660969668918
 30
0.0
 10
100.5888644496792
 20
-153.2660969668918
 30
0.0
 10
100.7325249314141
 20
-153.3105386986515
 30
0.0
 10
100.8279540763555
 20
-153.4924397402727
 30
0.0
 10
100.9271728263307
 20
-153.6850205778982
 30
0.0
 10
100.9505994756304
 20
-153.9134304085703
 30
0.0
 10
100.9505994756304
 20
-154.0870632210269
 30
0.0
 10
100.9505994756304
 20
-154.2582844666438
 30
0.0
 10
100.9292398836219
 20
-154.488761354607
 30
0.0
 10
100.8279540763555
 20
-154.6813421922324
 30
0.0
  0
SPLINE
  5
9D
330
96
100
AcDbEntity
  8
_U+30EC_U+30A4_U+30E4_U+30FC 1
370
     0
100
AcDbSpline
210
0.0
220
0.0
230
1.0
 70
    11
 71
     3
 72
    17
 73
    13
 74
     0
 42
0.0000000001
 43
0.0000000001
 12
1.0
 22
0.0
 32
0.0
 13
1.0
 23
0.0
 33
0.0
 40
0.0
 40
0.0
 40
0.0
 40
0.0
 40
1.0
 40
1.0
 40
1.0
 40
2.0
 40
2.0
 40
2.0
 40
3.0
 40
3.0
 40
3.0
 40
4.0
 40
4.0
 40
4.0
 40
4.0
 10
100.4300455478092
 20
-153.4586778045173
 30
0.0
 10
100.1806206346771
 20
-153.4586778045173
 30
0.0
 10
100.1337673360777
 20
-153.7422091629533
 30
0.0
 10
100.1337673360777
 20
-154.0870632210269
 30
0.0
 10
100.1337673360777
 20
-154.4064235725095
 30
0.0
 10
100.1699408386728
 20
-154.7151041279879
 30
0.0
 10
100.4300455478092
 20
-154.7151041279879
 30
0.0
 10
100.6777479131986
 20
-154.7151041279879
 30
0.0
 10
100.7263237595406
 20
-154.4339843363915
 30
0.0
 10
100.7263237595406
 20
-154.0870632210269
 30
0.0
 10
100.7263237595406
 20
-153.7673583599957
 30
0.0
 10
100.6880831996544
 20
-153.4586778045173
 30
0.0
 10
100.4300455478092
 20
-153.4586778045173
 30
0.0
  0
HATCH
  5
9E
330
96
100
AcDbEntity
  8
_U+30EC_U+30A4_U+30E4_U+30FC 1
 62
   179
420
  2234388
100
AcDbHatch
 10
0.0
 20
0.0
 30
0.0
210
0.0
220
0.0
230
1.0
  2
SOLID
 70
     1
 71
     0
 91
        2
 92
        1
 93
        1
 72
     4
 94
        3
 73
     0
 74
     1
 95
       29
 96
       25
 40
0.0
 40
0.0
 40
0.0
 40
0.0
 40
1.0
 40
1.0
 40
1.0
 40
2.0
 40
2.0
 40
2.0
 40
3.0
 40
3.0
 40
3.0
 40
4.0
 40
4.0
 40
4.0
 40
5.0
 40
5.0
 40
5.0
 40
6.0
 40
6.0
 40
6.0
 40
7.0
 40
7.0
 40
7.0
 40
8.0
 40
8.0
 40
8.0
 40
8.0
 10
100.8279540763555
 20
-154.6813421922324
 10
100.7197780781187
 20
-154.8908039977356
 10
100.5464897752106
 20
-154.9097520229045
 10
100.4300455478092
 20
-154.9097520229045
 10
100.269159588648
 20
-154.9097520229045
 10
100.1275661642042
 20
-154.8632432338536
 10
100.0324815288113
 20
-154.6813421922324
 10
99.92878415470531
 20
-154.4866942973158
 10
99.90983612953643
 20
-154.2500162374792
 10
99.90983612953643
 20
-154.0870632210269
 10
99.90983612953643
 20
-153.9430582297434
 10
99.92671709741415
 20
-153.6912217497716
 10
100.0324815288113
 20
-153.4924397402727
 10
100.1403130174997
 20
-153.2895236161915
 10
100.3011989766608
 20
-153.2660969668918
 10
100.4300455478092
 20
-153.2660969668918
 10
100.5888644496792
 20
-153.2660969668918
 10
100.7325249314141
 20
-153.3105386986515
 10
100.8279540763555
 20
-153.4924397402727
 10
100.9271728263307
 20
-153.6850205778982
 10
100.9505994756304
 20
-153.9134304085703
 10
100.9505994756304
 20
-154.0870632210269
 10
100.9505994756304
 20
-154.2582844666438
 10
100.9292398836219
 20
-154.488761354607
 10
100.8279540763555
 20
-154.6813421922324
 97
        0
 97
        0
 92
        1
 93
        1
 72
     4
 94
        3
 73
     0
 74
     1
 95
       17
 96
       13
 40
0.0
 40
0.0
 40
0.0
 40
0.0
 40
1.0
 40
1.0
 40
1.0
 40
2.0
 40
2.0
 40
2.0
 40
3.0
 40
3.0
 40
3.0
 40
4.0
 40
4.0
 40
4.0
 40
4.0
 10
100.4300455478092
 20
-153.4586778045173
 10
100.1806206346771
 20
-153.4586778045173
 10
100.1337673360777
 20
-153.7422091629533
 10
100.1337673360777
 20
-154.0870632210269
 10
100.1337673360777
 20
-154.4064235725095
 10
100.1699408386728
 20
-154.7151041279879
 10
100.4300455478092
 20
-154.7151041279879
 10
100.6777479131986
 20
-154.7151041279879
 10
100.7263237595406
 20
-154.4339843363915
 10
100.7263237595406
 20
-154.0870632210269
 10
100.7263237595406
 20
-153.7673583599957
 10
100.6880831996544
 20
-153.4586778045173
 10
100.4300455478092
 20
-153.4586778045173
 97
        0
 97
        0
 75
     2
 76
     1
 98
        0
  0
ENDBLK
  5
99
330
96
100
AcDbEntity
  8
0
100
AcDbBlockEnd
  0
BLOCK
  5
A5
330
A3
100
AcDbEntity
  8
0
100
AcDbBlockBegin
  2
block 6
 70
     0
 10
0.0
 20
0.0
 30
0.0
  3
block 6
  1

  0
SPLINE
  5
A7
330
A3
100
AcDbEntity
  8
_U+30EC_U+30A4_U+30E4_U+30FC 1
370
     0
100
AcDbSpline
210
0.0
220
0.0
230
1.0
 70
    11
 71
     3
 72
    17
 73
    13
 74
     0
 42
0.0000000001
 43
0.0000000001
 12
1.0
 22
0.0
 32
0.0
 13
1.0
 23
0.0
 33
0.0
 40
0.0
 40
0.0
 40
0.0
 40
0.0
 40
1.0
 40
1.0
 40
1.0
 40
2.0
 40
2.0
 40
2.0
 40
3.0
 40
3.0
 40
3.0
 40
4.0
 40
4.0
 40
4.0
 40
4.0
 10
108.1277669000514
 20
-156.1592881554046
 30
0.0
 10
108.0220024686542
 20
-156.0535237240074
 30
0.0
 10
107.9413872342994
 20
-156.0152831641212
 30
0.0
 10
107.8483696561976
 20
-155.9835882856569
 30
0.0
 10
107.8483696561976
 20
-155.9835882856569
 30
0.0
 10
107.9586127117256
 20
-155.8185682119134
 30
0.0
 10
107.9586127117256
 20
-155.8185682119134
 30
0.0
 10
108.0557644044097
 20
-155.860942886382
 30
0.0
 10
108.1763427463934
 20
-155.9391465538972
 30
0.0
 10
108.2293972168663
 20
-155.9942680816612
 30
0.0
 10
108.2293972168663
 20
-155.9942680816612
 30
0.0
 10
108.1277669000514
 20
-156.1592881554046
 30
0.0
 10
108.1277669000514
 20
-156.1592881554046
 30
0.0
  0
SPLINE
  5
A8
330
A3
100
AcDbEntity
  8
_U+30EC_U+30A4_U+30E4_U+30FC 1
370
     0
100
AcDbSpline
210
0.0
220
0.0
230
1.0
 70
    11
 71
     3
 72
   182
 73
   178
 74
     0
 42
0.0000000001
 43
0.0000000001
 12
1.0
 22
0.0
 32
0.0
 13
1.0
 23
0.0
 33
0.0
 40
0.0
 40
0.0
 40
0.0
 40
0.0
 40
1.0
 40
1.0
 40
1.0
 40
2.0
 40
2.0
 40
2.0
 40
3.0
 40
3.0
 40
3.0
 40
4.0
 40
4.0
 40
4.0
 40
5.0
 40
5.0
 40
5.0
 40
6.0
 40
6.0
 40
6.0
 40
7.0
 40
7.0
 40
7.0
 40
8.0
 40
8.0
 40
8.0
 40
9.0
 40
9.0
 40
9.0
 40
10.0
 40
10.0
 40
10.0
 40
11.0
 40
11.0
 40
11.0
 40
12.0
 40
12.0
 40
12.0
 40
13.0
 40
13.0
 40
13.0
 40
14.0
 40
14.0
 40
14.0
 40
15.0
 40
15.0
 40
15.0
 40
16.0
 40
16.0
 40
16.0
 40
17.0
 40
17.0
 40
17.0
 40
18.0
 40
18.0
 40
18.0
 40
19.0
 40
19.0
 40
19.0
 40
20.0
 40
20.0
 40
20.0
 40
21.0
 40
21.0
 40
21.0
 40
22.0
 40
22.0
 40
22.0
 40
23.0
 40
23.0
 40
23.0
 40
24.0
 40
24.0
 40
24.0
 40
25.0
 40
25.0
 40
25.0
 40
26.0
 40
26.0
 40
26.0
 40
27.0
 40
27.0
 40
27.0
 40
28.0
 40
28.0
 40
28.0
 40
29.0
 40
29.0
 40
29.0
 40
30.0
 40
30.0
 40
30.0
 40
31.0
 40
31.0
 40
31.0
 40
32.0
 40
32.0
 40
32.0
 40
33.0
 40
33.0
 40
33.0
 40
34.0
 40
34.0
 40
34.0
 40
35.0
 40
35.0
 40
35.0
 40
36.0
 40
36.0
 40
36.0
 40
37.0
 40
37.0
 40
37.0
 40
38.0
 40
38.0
 40
38.0
 40
39.0
 40
39.0
 40
39.0
 40
40.0
 40
40.0
 40
40.0
 40
41.0
 40
41.0
 40
41.0
 40
42.0
 40
42.0
 40
42.0
 40
43.0
 40
43.0
 40
43.0
 40
44.0
 40
44.0
 40
44.0
 40
45.0
 40
45.0
 40
45.0
 40
46.0
 40
46.0
 40
46.0
 40
47.0
 40
47.0
 40
47.0
 40
48.0
 40
48.0
 40
48.0
 40
49.0
 40
49.0
 40
49.0
 40
50.0
 40
50.0
 40
50.0
 40
51.0
 40
51.0
 40
51.0
 40
52.0
 40
52.0
 40
52.0
 40
53.0
 40
53.0
 40
53.0
 40
54.0
 40
54.0
 40
54.0
 40
55.0
 40
55.0
 40
55.0
 40
56.0
 40
56.0
 40
56.0
 40
57.0
 40
57.0
 40
57.0
 40
58.0
 40
58.0
 40
58.0
 40
59.0
 40
59.0
 40
59.0
 40
59.0
 10
109.1726643607277
 20
-157.3375108113601
 30
0.0
 10
109.1726643607277
 20
-157.3375108113601
 30
0.0
 10
108.5360107150535
 20
-157.3375108113601
 30
0.0
 10
108.5360107150535
 20
-157.3375108113601
 30
0.0
 10
108.322414794968
 20
-157.3375108113601
 30
0.0
 10
108.1064073080428
 20
-157.3419894354909
 30
0.0
 10
107.8928113879574
 20
-157.3543917792378
 30
0.0
 10
107.8928113879574
 20
-157.3543917792378
 30
0.0
 10
107.8928113879574
 20
-157.1473415405743
 30
0.0
 10
107.8928113879574
 20
-157.1473415405743
 30
0.0
 10
108.115020046756
 20
-157.1597438843212
 30
0.0
 10
108.4385145128209
 20
-157.164222508452
 30
0.0
 10
108.5360107150535
 20
-157.164222508452
 30
0.0
 10
108.5360107150535
 20
-157.164222508452
 30
0.0
 10
108.756152316561
 20
-157.164222508452
 30
0.0
 10
108.756152316561
 20
-157.164222508452
 30
0.0
 10
108.756152316561
 20
-157.164222508452
 30
0.0
 10
108.756152316561
 20
-157.0222845744597
 30
0.0
 10
108.756152316561
 20
-157.0222845744597
 30
0.0
 10
108.756152316561
 20
-157.0222845744597
 30
0.0
 10
108.5952663573998
 20
-157.0222845744597
 30
0.0
 10
108.5952663573998
 20
-157.0222845744597
 30
0.0
 10
108.4302462836563
 20
-157.0222845744597
 30
0.0
 10
108.2652262099129
 20
-157.0267631985905
 30
0.0
 10
108.1002061361694
 20
-157.0415771091771
 30
0.0
 10
108.1002061361694
 20
-157.0415771091771
 30
0.0
 10
108.1002061361694
 20
-156.8321153036739
 30
0.0
 10
108.1002061361694
 20
-156.8321153036739
 30
0.0
 10
108.2714273817863
 20
-156.8469292142605
 30
0.0
 10
108.5191297471758
 20
-156.8510633288428
 30
0.0
 10
108.5952663573998
 20
-156.8510633288428
 30
0.0
 10
108.5952663573998
 20
-156.8510633288428
 30
0.0
 10
108.756152316561
 20
-156.8510633288428
 30
0.0
 10
108.756152316561
 20
-156.8510633288428
 30
0.0
 10
108.7516736924301
 20
-156.7790608332011
 30
0.0
 10
108.7516736924301
 20
-156.7728596613276
 30
0.0
 10
108.7454725205567
 20
-156.7198051908548
 30
0.0
 10
108.7454725205567
 20
-156.7198051908548
 30
0.0
 10
108.8849988877093
 20
-156.7346191014414
 30
0.0
 10
108.8849988877093
 20
-156.7346191014414
 30
0.0
 10
108.8849988877093
 20
-156.7346191014414
 30
0.0
 10
108.7857801377341
 20
-156.5633978558244
 30
0.0
 10
108.7857801377341
 20
-156.5633978558244
 30
0.0
 10
108.832288926785
 20
-156.5695990276979
 30
0.0
 10
108.9063584797179
 20
-156.578211766411
 30
0.0
 10
108.9232394475956
 20
-156.578211766411
 30
0.0
 10
108.9738823512288
 20
-156.578211766411
 30
0.0
 10
108.9907633191065
 20
-156.5568521744025
 30
0.0
 10
108.9907633191065
 20
-156.5000080988958
 30
0.0
 10
108.9907633191065
 20
-156.5000080988958
 30
0.0
 10
108.9907633191065
 20
-156.3622042794858
 30
0.0
 10
108.9907633191065
 20
-156.3622042794858
 30
0.0
 10
108.9907633191065
 20
-156.3622042794858
 30
0.0
 10
108.8849988877093
 20
-156.3622042794858
 30
0.0
 10
108.8849988877093
 20
-156.3622042794858
 30
0.0
 10
108.7516736924301
 20
-156.3622042794858
 30
0.0
 10
108.5952663573998
 20
-156.3622042794858
 30
0.0
 10
108.4726209581249
 20
-156.3749511327813
 30
0.0
 10
108.4726209581249
 20
-156.3749511327813
 30
0.0
 10
108.4726209581249
 20
-156.1847818619955
 30
0.0
 10
108.4726209581249
 20
-156.1847818619955
 30
0.0
 10
108.6397080891595
 20
-156.2016628298732
 30
0.0
 10
108.8701849771227
 20
-156.2037298871643
 30
0.0
 10
108.8849988877093
 20
-156.2037298871643
 30
0.0
 10
108.8849988877093
 20
-156.2037298871643
 30
0.0
 10
108.9907633191065
 20
-156.2037298871643
 30
0.0
 10
108.9907633191065
 20
-156.2037298871643
 30
0.0
 10
108.9907633191065
 20
-156.2037298871643
 30
0.0
 10
108.9907633191065
 20
-156.0724717491763
 30
0.0
 10
108.9907633191065
 20
-156.0724717491763
 30
0.0
 10
108.9907633191065
 20
-156.0724717491763
 30
0.0
 10
108.9528672687687
 20
-156.0724717491763
 30
0.0
 10
108.9528672687687
 20
-156.0724717491763
 30
0.0
 10
108.908425537009
 20
-156.0724717491763
 30
0.0
 10
108.7833685708944
 20
-156.0766058637586
 30
0.0
 10
108.694485107375
 20
-156.0852186024718
 30
0.0
 10
108.694485107375
 20
-156.0852186024718
 30
0.0
 10
108.694485107375
 20
-156.0049478776654
 30
0.0
 10
108.694485107375
 20
-156.0049478776654
 30
0.0
 10
108.6417751464507
 20
-156.0428439280032
 30
0.0
 10
108.6162814398598
 20
-156.0576578385898
 30
0.0
 10
108.5739067653913
 20
-156.0810844878895
 30
0.0
 10
108.5739067653913
 20
-156.0810844878895
 30
0.0
 10
108.3858045518966
 20
-155.9518934071926
 30
0.0
 10
108.3858045518966
 20
-155.9518934071926
 30
0.0
 10
108.4640082194118
 20
-155.9181314714371
 30
0.0
 10
108.6207600639906
 20
-155.8547417145085
 30
0.0
 10
108.777167399021
 20
-155.7107367232251
 30
0.0
 10
108.8595051811185
 20
-155.6325330557099
 30
0.0
 10
108.9380533581822
 20
-155.5477837067728
 30
0.0
 10
108.9907633191065
 20
-155.4464978995064
 30
0.0
 10
108.9907633191065
 20
-155.4464978995064
 30
0.0
 10
109.2022921819008
 20
-155.5078205991439
 30
0.0
 10
109.2022921819008
 20
-155.5078205991439
 30
0.0
 10
109.2215847166182
 20
-155.5140217710173
 30
0.0
 10
109.231920003074
 20
-155.5226345097305
 30
0.0
 10
109.231920003074
 20
-155.5350368534774
 30
0.0
 10
109.231920003074
 20
-155.5522623309036
 30
0.0
 10
109.2191731497785
 20
-155.558463502777
 30
0.0
 10
109.1940239527362
 20
-155.5712103560725
 30
0.0
 10
109.2742946775425
 20
-155.6683620487565
 30
0.0
 10
109.4372476939949
 20
-155.7658582509891
 30
0.0
 10
109.4710096297503
 20
-155.784806276158
 30
0.0
 10
109.6212157929072
 20
-155.8736897396774
 30
0.0
 10
109.7355929630175
 20
-155.9012505035594
 30
0.0
 10
109.8137966305327
 20
-155.9201985287283
 30
0.0
 10
109.8137966305327
 20
-155.9201985287283
 30
0.0
 10
109.6952853458401
 20
-156.0893527170541
 30
0.0
 10
109.6952853458401
 20
-156.0893527170541
 30
0.0
 10
109.6105359969029
 20
-156.0597248958809
 30
0.0
 10
109.5598930932697
 20
-156.040776870712
 30
0.0
 10
109.4413818085772
 20
-155.9753200564923
 30
0.0
 10
109.4413818085772
 20
-155.9753200564923
 30
0.0
 10
109.4413818085772
 20
-156.0852186024718
 30
0.0
 10
109.4413818085772
 20
-156.0852186024718
 30
0.0
 10
109.3590440264797
 20
-156.0766058637586
 30
0.0
 10
109.231920003074
 20
-156.0724717491763
 30
0.0
 10
109.1792100421496
 20
-156.0724717491763
 30
0.0
 10
109.1792100421496
 20
-156.0724717491763
 30
0.0
 10
109.1792100421496
 20
-156.2037298871643
 30
0.0
 10
109.1792100421496
 20
-156.2037298871643
 30
0.0
 10
109.1792100421496
 20
-156.2037298871643
 30
0.0
 10
109.2997883841334
 20
-156.2037298871643
 30
0.0
 10
109.2997883841334
 20
-156.2037298871643
 30
0.0
 10
109.3018554414245
 20
-156.2037298871643
 30
0.0
 10
109.5343993866789
 20
-156.2016628298732
 30
0.0
 10
109.7121663137178
 20
-156.1847818619955
 30
0.0
 10
109.7121663137178
 20
-156.1847818619955
 30
0.0
 10
109.7121663137178
 20
-156.3749511327813
 30
0.0
 10
109.7121663137178
 20
-156.3749511327813
 30
0.0
 10
109.5833197425695
 20
-156.3622042794858
 30
0.0
 10
109.4265678979906
 20
-156.3622042794858
 30
0.0
 10
109.2997883841334
 20
-156.3622042794858
 30
0.0
 10
109.2997883841334
 20
-156.3622042794858
 30
0.0
 10
109.1792100421496
 20
-156.3622042794858
 30
0.0
 10
109.1792100421496
 20
-156.3622042794858
 30
0.0
 10
109.1792100421496
 20
-156.3622042794858
 30
0.0
 10
109.1792100421496
 20
-156.5885470528668
 30
0.0
 10
109.1792100421496
 20
-156.5885470528668
 30
0.0
 10
109.1792100421496
 20
-156.7070583375593
 30
0.0
 10
109.1537163355588
 20
-156.7432318401545
 30
0.0
 10
108.9928303763976
 20
-156.758045750741
 30
0.0
 10
108.9973090005285
 20
-156.7769937759099
 30
0.0
 10
108.9907633191065
 20
-156.7876735719142
 30
0.0
 10
108.9528672687687
 20
-156.8107557116654
 30
0.0
 10
108.9508002114776
 20
-156.8297037368343
 30
0.0
 10
108.9508002114776
 20
-156.8362494182562
 30
0.0
 10
108.9483886446379
 20
-156.8510633288428
 30
0.0
 10
108.9483886446379
 20
-156.8510633288428
 30
0.0
 10
109.0858479544994
 20
-156.8510633288428
 30
0.0
 10
109.0858479544994
 20
-156.8510633288428
 30
0.0
 10
109.2508680282428
 20
-156.8510633288428
 30
0.0
 10
109.418299668826
 20
-156.8469292142605
 30
0.0
 10
109.5853867998606
 20
-156.8321153036739
 30
0.0
 10
109.5853867998606
 20
-156.8321153036739
 30
0.0
 10
109.5853867998606
 20
-157.0391655423374
 30
0.0
 10
109.5853867998606
 20
-157.0391655423374
 30
0.0
 10
109.3693793129354
 20
-157.0222845744597
 30
0.0
 10
109.1051404892168
 20
-157.0222845744597
 30
0.0
 10
109.0858479544994
 20
-157.0222845744597
 30
0.0
 10
109.0858479544994
 20
-157.0222845744597
 30
0.0
 10
108.9463215873468
 20
-157.0222845744597
 30
0.0
 10
108.9463215873468
 20
-157.0222845744597
 30
0.0
 10
108.9463215873468
 20
-157.0222845744597
 30
0.0
 10
108.9463215873468
 20
-157.164222508452
 30
0.0
 10
108.9463215873468
 20
-157.164222508452
 30
0.0
 10
108.9463215873468
 20
-157.164222508452
 30
0.0
 10
109.1726643607277
 20
-157.164222508452
 30
0.0
 10
109.1726643607277
 20
-157.164222508452
 30
0.0
 10
109.3886718476528
 20
-157.164222508452
 30
0.0
 10
109.6064018823206
 20
-157.1597438843212
 30
0.0
 10
109.8220648596973
 20
-157.1473415405743
 30
0.0
 10
109.8220648596973
 20
-157.1473415405743
 30
0.0
 10
109.8220648596973
 20
-157.3543917792378
 30
0.0
 10
109.8220648596973
 20
-157.3543917792378
 30
0.0
 10
109.5409450681009
 20
-157.3375108113601
 30
0.0
 10
109.1960910100274
 20
-157.3375108113601
 30
0.0
 10
109.1726643607277
 20
-157.3375108113601
 30
0.0
  0
SPLINE
  5
A9
330
A3
100
AcDbEntity
  8
_U+30EC_U+30A4_U+30E4_U+30FC 1
370
     0
100
AcDbSpline
210
0.0
220
0.0
230
1.0
 70
    11
 71
     3
 72
    23
 73
    19
 74
     0
 42
0.0000000001
 43
0.0000000001
 12
1.0
 22
0.0
 32
0.0
 13
1.0
 23
0.0
 33
0.0
 40
0.0
 40
0.0
 40
0.0
 40
0.0
 40
1.0
 40
1.0
 40
1.0
 40
2.0
 40
2.0
 40
2.0
 40
3.0
 40
3.0
 40
3.0
 40
4.0
 40
4.0
 40
4.0
 40
5.0
 40
5.0
 40
5.0
 40
6.0
 40
6.0
 40
6.0
 40
6.0
 10
108.0536973471185
 20
-156.7091253948505
 30
0.0
 10
108.0536973471185
 20
-156.730484986859
 30
0.0
 10
108.0557644044097
 20
-156.7683810371968
 30
0.0
 10
108.0302706978188
 20
-156.7683810371968
 30
0.0
 10
108.0199354113631
 20
-156.7683810371968
 30
0.0
 10
108.01132267265
 20
-156.7621798653234
 30
0.0
 10
108.0006428766457
 20
-156.7452988974456
 30
0.0
 10
108.0006428766457
 20
-156.7452988974456
 30
0.0
 10
107.8969455025397
 20
-156.5633978558244
 30
0.0
 10
107.8969455025397
 20
-156.5633978558244
 30
0.0
 10
108.1129529894648
 20
-156.4342067751276
 30
0.0
 10
108.3096679416726
 20
-156.1572210981135
 30
0.0
 10
108.3561767307235
 20
-156.0852186024718
 30
0.0
 10
108.3561767307235
 20
-156.0852186024718
 30
0.0
 10
108.4281792263652
 20
-156.2650525868018
 30
0.0
 10
108.4281792263652
 20
-156.2650525868018
 30
0.0
 10
108.294854031086
 20
-156.4617675390096
 30
0.0
 10
108.1191541613383
 20
-156.6457356379219
 30
0.0
 10
108.0536973471185
 20
-156.7091253948505
 30
0.0
  0
SPLINE
  5
AA
330
A3
100
AcDbEntity
  8
_U+30EC_U+30A4_U+30E4_U+30FC 1
370
     0
100
AcDbSpline
210
0.0
220
0.0
230
1.0
 70
    11
 71
     3
 72
    17
 73
    13
 74
     0
 42
0.0000000001
 43
0.0000000001
 12
1.0
 22
0.0
 32
0.0
 13
1.0
 23
0.0
 33
0.0
 40
0.0
 40
0.0
 40
0.0
 40
0.0
 40
1.0
 40
1.0
 40
1.0
 40
2.0
 40
2.0
 40
2.0
 40
3.0
 40
3.0
 40
3.0
 40
4.0
 40
4.0
 40
4.0
 40
4.0
 10
108.3076008843814
 20
-155.8144340973311
 30
0.0
 10
108.246278184744
 20
-155.7382974871071
 30
0.0
 10
108.1170871040471
 20
-155.6621608768831
 30
0.0
 10
108.0133897299411
 20
-155.6325330557099
 30
0.0
 10
108.0133897299411
 20
-155.6325330557099
 30
0.0
 10
108.1088188748825
 20
-155.4675129819665
 30
0.0
 10
108.1088188748825
 20
-155.4675129819665
 30
0.0
 10
108.2101046821489
 20
-155.5033419750131
 30
0.0
 10
108.315869113546
 20
-155.5605305600682
 30
0.0
 10
108.4047525770655
 20
-155.6408012848745
 30
0.0
 10
108.4047525770655
 20
-155.6408012848745
 30
0.0
 10
108.3076008843814
 20
-155.8144340973311
 30
0.0
 10
108.3076008843814
 20
-155.8144340973311
 30
0.0
  0
SPLINE
  5
AB
330
A3
100
AcDbEntity
  8
_U+30EC_U+30A4_U+30E4_U+30FC 1
370
     0
100
AcDbSpline
210
0.0
220
0.0
230
1.0
 70
    11
 71
     3
 72
    23
 73
    19
 74
     0
 42
0.0000000001
 43
0.0000000001
 12
1.0
 22
0.0
 32
0.0
 13
1.0
 23
0.0
 33
0.0
 40
0.0
 40
0.0
 40
0.0
 40
0.0
 40
1.0
 40
1.0
 40
1.0
 40
2.0
 40
2.0
 40
2.0
 40
3.0
 40
3.0
 40
3.0
 40
4.0
 40
4.0
 40
4.0
 40
5.0
 40
5.0
 40
5.0
 40
6.0
 40
6.0
 40
6.0
 40
6.0
 10
108.7602864311433
 20
-156.5189561240647
 30
0.0
 10
108.7389268391347
 20
-156.5420382638159
 30
0.0
 10
108.6417751464507
 20
-156.654348376635
 30
0.0
 10
108.5022487792981
 20
-156.7346191014414
 30
0.0
 10
108.5022487792981
 20
-156.7346191014414
 30
0.0
 10
108.3351616482634
 20
-156.6140407594576
 30
0.0
 10
108.3351616482634
 20
-156.6140407594576
 30
0.0
 10
108.4853678114203
 20
-156.5379041492336
 30
0.0
 10
108.5845865613955
 20
-156.4428195138407
 30
0.0
 10
108.6331624077375
 20
-156.3897650433678
 30
0.0
 10
108.6331624077375
 20
-156.3897650433678
 30
0.0
 10
108.8067952201941
 20
-156.4724473350138
 30
0.0
 10
108.8067952201941
 20
-156.4724473350138
 30
0.0
 10
108.8150634493587
 20
-156.4765814495962
 30
0.0
 10
108.8236761880719
 20
-156.4827826214696
 30
0.0
 10
108.8236761880719
 20
-156.4934624174739
 30
0.0
 10
108.8236761880719
 20
-156.5189561240647
 30
0.0
 10
108.7878471950253
 20
-156.5189561240647
 30
0.0
 10
108.7602864311433
 20
-156.5189561240647
 30
0.0
  0
SPLINE
  5
AC
330
A3
100
AcDbEntity
  8
_U+30EC_U+30A4_U+30E4_U+30FC 1
370
     0
100
AcDbSpline
210
0.0
220
0.0
230
1.0
 70
    11
 71
     3
 72
    20
 73
    16
 74
     0
 42
0.0000000001
 43
0.0000000001
 12
1.0
 22
0.0
 32
0.0
 13
1.0
 23
0.0
 33
0.0
 40
0.0
 40
0.0
 40
0.0
 40
0.0
 40
1.0
 40
1.0
 40
1.0
 40
2.0
 40
2.0
 40
2.0
 40
3.0
 40
3.0
 40
3.0
 40
4.0
 40
4.0
 40
4.0
 40
5.0
 40
5.0
 40
5.0
 40
5.0
 10
109.0586317001659
 20
-155.6769747874696
 30
0.0
 10
109.0203911402796
 20
-155.7255506338117
 30
0.0
 10
108.9590684406422
 20
-155.8037543013268
 30
0.0
 10
108.8195420734896
 20
-155.9139973568548
 30
0.0
 10
108.8998127982959
 20
-155.9181314714371
 30
0.0
 10
108.929440619469
 20
-155.9181314714371
 30
0.0
 10
108.9528672687687
 20
-155.9181314714371
 30
0.0
 10
108.9528672687687
 20
-155.9181314714371
 30
0.0
 10
109.1812770994408
 20
-155.9181314714371
 30
0.0
 10
109.1812770994408
 20
-155.9181314714371
 30
0.0
 10
109.2129719779051
 20
-155.9181314714371
 30
0.0
 10
109.2615478242471
 20
-155.916064414146
 30
0.0
 10
109.33561737718
 20
-155.9139973568548
 30
0.0
 10
109.2236517739094
 20
-155.839927803922
 30
0.0
 10
109.1747314180188
 20
-155.7934190148711
 30
0.0
 10
109.0586317001659
 20
-155.6769747874696
 30
0.0
  0
SPLINE
  5
AD
330
A3
100
AcDbEntity
  8
_U+30EC_U+30A4_U+30E4_U+30FC 1
370
     0
100
AcDbSpline
210
0.0
220
0.0
230
1.0
 70
    11
 71
     3
 72
    17
 73
    13
 74
     0
 42
0.0000000001
 43
0.0000000001
 12
1.0
 22
0.0
 32
0.0
 13
1.0
 23
0.0
 33
0.0
 40
0.0
 40
0.0
 40
0.0
 40
0.0
 40
1.0
 40
1.0
 40
1.0
 40
2.0
 40
2.0
 40
2.0
 40
3.0
 40
3.0
 40
3.0
 40
4.0
 40
4.0
 40
4.0
 40
4.0
 10
109.6191487356161
 20
-156.7325520441502
 30
0.0
 10
109.4837564830457
 20
-156.6205864408796
 30
0.0
 10
109.3779920516486
 20
-156.5568521744025
 30
0.0
 10
109.259480766956
 20
-156.4934624174739
 30
0.0
 10
109.259480766956
 20
-156.4934624174739
 30
0.0
 10
109.3862602808132
 20
-156.3814968142032
 30
0.0
 10
109.3862602808132
 20
-156.3814968142032
 30
0.0
 10
109.5175184188012
 20
-156.4280056032541
 30
0.0
 10
109.6274169647807
 20
-156.4851941883093
 30
0.0
 10
109.7524739308952
 20
-156.5864799955756
 30
0.0
 10
109.7524739308952
 20
-156.5864799955756
 30
0.0
 10
109.6191487356161
 20
-156.7325520441502
 30
0.0
 10
109.6191487356161
 20
-156.7325520441502
 30
0.0
  0
HATCH
  5
AE
330
A3
100
AcDbEntity
  8
_U+30EC_U+30A4_U+30E4_U+30FC 1
 62
   179
420
  2234388
100
AcDbHatch
 10
0.0
 20
0.0
 30
0.0
210
0.0
220
0.0
230
1.0
  2
SOLID
 70
     1
 71
     0
 91
        7
 92
        1
 93
        1
 72
     4
 94
        3
 73
     0
 74
     1
 95
       17
 96
       13
 40
0.0
 40
0.0
 40
0.0
 40
0.0
 40
1.0
 40
1.0
 40
1.0
 40
2.0
 40
2.0
 40
2.0
 40
3.0
 40
3.0
 40
3.0
 40
4.0
 40
4.0
 40
4.0
 40
4.0
 10
108.1277669000514
 20
-156.1592881554046
 10
108.0220024686542
 20
-156.0535237240074
 10
107.9413872342994
 20
-156.0152831641212
 10
107.8483696561976
 20
-155.9835882856569
 10
107.8483696561976
 20
-155.9835882856569
 10
107.9586127117256
 20
-155.8185682119134
 10
107.9586127117256
 20
-155.8185682119134
 10
108.0557644044097
 20
-155.860942886382
 10
108.1763427463934
 20
-155.9391465538972
 10
108.2293972168663
 20
-155.9942680816612
 10
108.2293972168663
 20
-155.9942680816612
 10
108.1277669000514
 20
-156.1592881554046
 10
108.1277669000514
 20
-156.1592881554046
 97
        0
 97
        0
 92
        1
 93
        1
 72
     4
 94
        3
 73
     0
 74
     1
 95
      182
 96
      178
 40
0.0
 40
0.0
 40
0.0
 40
0.0
 40
1.0
 40
1.0
 40
1.0
 40
2.0
 40
2.0
 40
2.0
 40
3.0
 40
3.0
 40
3.0
 40
4.0
 40
4.0
 40
4.0
 40
5.0
 40
5.0
 40
5.0
 40
6.0
 40
6.0
 40
6.0
 40
7.0
 40
7.0
 40
7.0
 40
8.0
 40
8.0
 40
8.0
 40
9.0
 40
9.0
 40
9.0
 40
10.0
 40
10.0
 40
10.0
 40
11.0
 40
11.0
 40
11.0
 40
12.0
 40
12.0
 40
12.0
 40
13.0
 40
13.0
 40
13.0
 40
14.0
 40
14.0
 40
14.0
 40
15.0
 40
15.0
 40
15.0
 40
16.0
 40
16.0
 40
16.0
 40
17.0
 40
17.0
 40
17.0
 40
18.0
 40
18.0
 40
18.0
 40
19.0
 40
19.0
 40
19.0
 40
20.0
 40
20.0
 40
20.0
 40
21.0
 40
21.0
 40
21.0
 40
22.0
 40
22.0
 40
22.0
 40
23.0
 40
23.0
 40
23.0
 40
24.0
 40
24.0
 40
24.0
 40
25.0
 40
25.0
 40
25.0
 40
26.0
 40
26.0
 40
26.0
 40
27.0
 40
27.0
 40
27.0
 40
28.0
 40
28.0
 40
28.0
 40
29.0
 40
29.0
 40
29.0
 40
30.0
 40
30.0
 40
30.0
 40
31.0
 40
31.0
 40
31.0
 40
32.0
 40
32.0
 40
32.0
 40
33.0
 40
33.0
 40
33.0
 40
34.0
 40
34.0
 40
34.0
 40
35.0
 40
35.0
 40
35.0
 40
36.0
 40
36.0
 40
36.0
 40
37.0
 40
37.0
 40
37.0
 40
38.0
 40
38.0
 40
38.0
 40
39.0
 40
39.0
 40
39.0
 40
40.0
 40
40.0
 40
40.0
 40
41.0
 40
41.0
 40
41.0
 40
42.0
 40
42.0
 40
42.0
 40
43.0
 40
43.0
 40
43.0
 40
44.0
 40
44.0
 40
44.0
 40
45.0
 40
45.0
 40
45.0
 40
46.0
 40
46.0
 40
46.0
 40
47.0
 40
47.0
 40
47.0
 40
48.0
 40
48.0
 40
48.0
 40
49.0
 40
49.0
 40
49.0
 40
50.0
 40
50.0
 40
50.0
 40
51.0
 40
51.0
 40
51.0
 40
52.0
 40
52.0
 40
52.0
 40
53.0
 40
53.0
 40
53.0
 40
54.0
 40
54.0
 40
54.0
 40
55.0
 40
55.0
 40
55.0
 40
56.0
 40
56.0
 40
56.0
 40
57.0
 40
57.0
 40
57.0
 40
58.0
 40
58.0
 40
58.0
 40
59.0
 40
59.0
 40
59.0
 40
59.0
 10
109.1726643607277
 20
-157.3375108113601
 10
109.1726643607277
 20
-157.3375108113601
 10
108.5360107150535
 20
-157.3375108113601
 10
108.5360107150535
 20
-157.3375108113601
 10
108.322414794968
 20
-157.3375108113601
 10
108.1064073080428
 20
-157.3419894354909
 10
107.8928113879574
 20
-157.3543917792378
 10
107.8928113879574
 20
-157.3543917792378
 10
107.8928113879574
 20
-157.1473415405743
 10
107.8928113879574
 20
-157.1473415405743
 10
108.115020046756
 20
-157.1597438843212
 10
108.4385145128209
 20
-157.164222508452
 10
108.5360107150535
 20
-157.164222508452
 10
108.5360107150535
 20
-157.164222508452
 10
108.756152316561
 20
-157.164222508452
 10
108.756152316561
 20
-157.164222508452
 10
108.756152316561
 20
-157.164222508452
 10
108.756152316561
 20
-157.0222845744597
 10
108.756152316561
 20
-157.0222845744597
 10
108.756152316561
 20
-157.0222845744597
 10
108.5952663573998
 20
-157.0222845744597
 10
108.5952663573998
 20
-157.0222845744597
 10
108.4302462836563
 20
-157.0222845744597
 10
108.2652262099129
 20
-157.0267631985905
 10
108.1002061361694
 20
-157.0415771091771
 10
108.1002061361694
 20
-157.0415771091771
 10
108.1002061361694
 20
-156.8321153036739
 10
108.1002061361694
 20
-156.8321153036739
 10
108.2714273817863
 20
-156.8469292142605
 10
108.5191297471758
 20
-156.8510633288428
 10
108.5952663573998
 20
-156.8510633288428
 10
108.5952663573998
 20
-156.8510633288428
 10
108.756152316561
 20
-156.8510633288428
 10
108.756152316561
 20
-156.8510633288428
 10
108.7516736924301
 20
-156.7790608332011
 10
108.7516736924301
 20
-156.7728596613276
 10
108.7454725205567
 20
-156.7198051908548
 10
108.7454725205567
 20
-156.7198051908548
 10
108.8849988877093
 20
-156.7346191014414
 10
108.8849988877093
 20
-156.7346191014414
 10
108.8849988877093
 20
-156.7346191014414
 10
108.7857801377341
 20
-156.5633978558244
 10
108.7857801377341
 20
-156.5633978558244
 10
108.832288926785
 20
-156.5695990276979
 10
108.9063584797179
 20
-156.578211766411
 10
108.9232394475956
 20
-156.578211766411
 10
108.9738823512288
 20
-156.578211766411
 10
108.9907633191065
 20
-156.5568521744025
 10
108.9907633191065
 20
-156.5000080988958
 10
108.9907633191065
 20
-156.5000080988958
 10
108.9907633191065
 20
-156.3622042794858
 10
108.9907633191065
 20
-156.3622042794858
 10
108.9907633191065
 20
-156.3622042794858
 10
108.8849988877093
 20
-156.3622042794858
 10
108.8849988877093
 20
-156.3622042794858
 10
108.7516736924301
 20
-156.3622042794858
 10
108.5952663573998
 20
-156.3622042794858
 10
108.4726209581249
 20
-156.3749511327813
 10
108.4726209581249
 20
-156.3749511327813
 10
108.4726209581249
 20
-156.1847818619955
 10
108.4726209581249
 20
-156.1847818619955
 10
108.6397080891595
 20
-156.2016628298732
 10
108.8701849771227
 20
-156.2037298871643
 10
108.8849988877093
 20
-156.2037298871643
 10
108.8849988877093
 20
-156.2037298871643
 10
108.9907633191065
 20
-156.2037298871643
 10
108.9907633191065
 20
-156.2037298871643
 10
108.9907633191065
 20
-156.2037298871643
 10
108.9907633191065
 20
-156.0724717491763
 10
108.9907633191065
 20
-156.0724717491763
 10
108.9907633191065
 20
-156.0724717491763
 10
108.9528672687687
 20
-156.0724717491763
 10
108.9528672687687
 20
-156.0724717491763
 10
108.908425537009
 20
-156.0724717491763
 10
108.7833685708944
 20
-156.0766058637586
 10
108.694485107375
 20
-156.0852186024718
 10
108.694485107375
 20
-156.0852186024718
 10
108.694485107375
 20
-156.0049478776654
 10
108.694485107375
 20
-156.0049478776654
 10
108.6417751464507
 20
-156.0428439280032
 10
108.6162814398598
 20
-156.0576578385898
 10
108.5739067653913
 20
-156.0810844878895
 10
108.5739067653913
 20
-156.0810844878895
 10
108.3858045518966
 20
-155.9518934071926
 10
108.3858045518966
 20
-155.9518934071926
 10
108.4640082194118
 20
-155.9181314714371
 10
108.6207600639906
 20
-155.8547417145085
 10
108.777167399021
 20
-155.7107367232251
 10
108.8595051811185
 20
-155.6325330557099
 10
108.9380533581822
 20
-155.5477837067728
 10
108.9907633191065
 20
-155.4464978995064
 10
108.9907633191065
 20
-155.4464978995064
 10
109.2022921819008
 20
-155.5078205991439
 10
109.2022921819008
 20
-155.5078205991439
 10
109.2215847166182
 20
-155.5140217710173
 10
109.231920003074
 20
-155.5226345097305
 10
109.231920003074
 20
-155.5350368534774
 10
109.231920003074
 20
-155.5522623309036
 10
109.2191731497785
 20
-155.558463502777
 10
109.1940239527362
 20
-155.5712103560725
 10
109.2742946775425
 20
-155.6683620487565
 10
109.4372476939949
 20
-155.7658582509891
 10
109.4710096297503
 20
-155.784806276158
 10
109.6212157929072
 20
-155.8736897396774
 10
109.7355929630175
 20
-155.9012505035594
 10
109.8137966305327
 20
-155.9201985287283
 10
109.8137966305327
 20
-155.9201985287283
 10
109.6952853458401
 20
-156.0893527170541
 10
109.6952853458401
 20
-156.0893527170541
 10
109.6105359969029
 20
-156.0597248958809
 10
109.5598930932697
 20
-156.040776870712
 10
109.4413818085772
 20
-155.9753200564923
 10
109.4413818085772
 20
-155.9753200564923
 10
109.4413818085772
 20
-156.0852186024718
 10
109.4413818085772
 20
-156.0852186024718
 10
109.3590440264797
 20
-156.0766058637586
 10
109.231920003074
 20
-156.0724717491763
 10
109.1792100421496
 20
-156.0724717491763
 10
109.1792100421496
 20
-156.0724717491763
 10
109.1792100421496
 20
-156.2037298871643
 10
109.1792100421496
 20
-156.2037298871643
 10
109.1792100421496
 20
-156.2037298871643
 10
109.2997883841334
 20
-156.2037298871643
 10
109.2997883841334
 20
-156.2037298871643
 10
109.3018554414245
 20
-156.2037298871643
 10
109.5343993866789
 20
-156.2016628298732
 10
109.7121663137178
 20
-156.1847818619955
 10
109.7121663137178
 20
-156.1847818619955
 10
109.7121663137178
 20
-156.3749511327813
 10
109.7121663137178
 20
-156.3749511327813
 10
109.5833197425695
 20
-156.3622042794858
 10
109.4265678979906
 20
-156.3622042794858
 10
109.2997883841334
 20
-156.3622042794858
 10
109.2997883841334
 20
-156.3622042794858
 10
109.1792100421496
 20
-156.3622042794858
 10
109.1792100421496
 20
-156.3622042794858
 10
109.1792100421496
 20
-156.3622042794858
 10
109.1792100421496
 20
-156.5885470528668
 10
109.1792100421496
 20
-156.5885470528668
 10
109.1792100421496
 20
-156.7070583375593
 10
109.1537163355588
 20
-156.7432318401545
 10
108.9928303763976
 20
-156.758045750741
 10
108.9973090005285
 20
-156.7769937759099
 10
108.9907633191065
 20
-156.7876735719142
 10
108.9528672687687
 20
-156.8107557116654
 10
108.9508002114776
 20
-156.8297037368343
 10
108.9508002114776
 20
-156.8362494182562
 10
108.9483886446379
 20
-156.8510633288428
 10
108.9483886446379
 20
-156.8510633288428
 10
109.0858479544994
 20
-156.8510633288428
 10
109.0858479544994
 20
-156.8510633288428
 10
109.2508680282428
 20
-156.8510633288428
 10
109.418299668826
 20
-156.8469292142605
 10
109.5853867998606
 20
-156.8321153036739
 10
109.5853867998606
 20
-156.8321153036739
 10
109.5853867998606
 20
-157.0391655423374
 10
109.5853867998606
 20
-157.0391655423374
 10
109.3693793129354
 20
-157.0222845744597
 10
109.1051404892168
 20
-157.0222845744597
 10
109.0858479544994
 20
-157.0222845744597
 10
109.0858479544994
 20
-157.0222845744597
 10
108.9463215873468
 20
-157.0222845744597
 10
108.9463215873468
 20
-157.0222845744597
 10
108.9463215873468
 20
-157.0222845744597
 10
108.9463215873468
 20
-157.164222508452
 10
108.9463215873468
 20
-157.164222508452
 10
108.9463215873468
 20
-157.164222508452
 10
109.1726643607277
 20
-157.164222508452
 10
109.1726643607277
 20
-157.164222508452
 10
109.3886718476528
 20
-157.164222508452
 10
109.6064018823206
 20
-157.1597438843212
 10
109.8220648596973
 20
-157.1473415405743
 10
109.8220648596973
 20
-157.1473415405743
 10
109.8220648596973
 20
-157.3543917792378
 10
109.8220648596973
 20
-157.3543917792378
 10
109.5409450681009
 20
-157.3375108113601
 10
109.1960910100274
 20
-157.3375108113601
 10
109.1726643607277
 20
-157.3375108113601
 97
        0
 97
        0
 92
        1
 93
        1
 72
     4
 94
        3
 73
     0
 74
     1
 95
       23
 96
       19
 40
0.0
 40
0.0
 40
0.0
 40
0.0
 40
1.0
 40
1.0
 40
1.0
 40
2.0
 40
2.0
 40
2.0
 40
3.0
 40
3.0
 40
3.0
 40
4.0
 40
4.0
 40
4.0
 40
5.0
 40
5.0
 40
5.0
 40
6.0
 40
6.0
 40
6.0
 40
6.0
 10
108.0536973471185
 20
-156.7091253948505
 10
108.0536973471185
 20
-156.730484986859
 10
108.0557644044097
 20
-156.7683810371968
 10
108.0302706978188
 20
-156.7683810371968
 10
108.0199354113631
 20
-156.7683810371968
 10
108.01132267265
 20
-156.7621798653234
 10
108.0006428766457
 20
-156.7452988974456
 10
108.0006428766457
 20
-156.7452988974456
 10
107.8969455025397
 20
-156.5633978558244
 10
107.8969455025397
 20
-156.5633978558244
 10
108.1129529894648
 20
-156.4342067751276
 10
108.3096679416726
 20
-156.1572210981135
 10
108.3561767307235
 20
-156.0852186024718
 10
108.3561767307235
 20
-156.0852186024718
 10
108.4281792263652
 20
-156.2650525868018
 10
108.4281792263652
 20
-156.2650525868018
 10
108.294854031086
 20
-156.4617675390096
 10
108.1191541613383
 20
-156.6457356379219
 10
108.0536973471185
 20
-156.7091253948505
 97
        0
 97
        0
 92
        1
 93
        1
 72
     4
 94
        3
 73
     0
 74
     1
 95
       17
 96
       13
 40
0.0
 40
0.0
 40
0.0
 40
0.0
 40
1.0
 40
1.0
 40
1.0
 40
2.0
 40
2.0
 40
2.0
 40
3.0
 40
3.0
 40
3.0
 40
4.0
 40
4.0
 40
4.0
 40
4.0
 10
108.3076008843814
 20
-155.8144340973311
 10
108.246278184744
 20
-155.7382974871071
 10
108.1170871040471
 20
-155.6621608768831
 10
108.0133897299411
 20
-155.6325330557099
 10
108.0133897299411
 20
-155.6325330557099
 10
108.1088188748825
 20
-155.4675129819665
 10
108.1088188748825
 20
-155.4675129819665
 10
108.2101046821489
 20
-155.5033419750131
 10
108.315869113546
 20
-155.5605305600682
 10
108.4047525770655
 20
-155.6408012848745
 10
108.4047525770655
 20
-155.6408012848745
 10
108.3076008843814
 20
-155.8144340973311
 10
108.3076008843814
 20
-155.8144340973311
 97
        0
 97
        0
 92
        1
 93
        1
 72
     4
 94
        3
 73
     0
 74
     1
 95
       23
 96
       19
 40
0.0
 40
0.0
 40
0.0
 40
0.0
 40
1.0
 40
1.0
 40
1.0
 40
2.0
 40
2.0
 40
2.0
 40
3.0
 40
3.0
 40
3.0
 40
4.0
 40
4.0
 40
4.0
 40
5.0
 40
5.0
 40
5.0
 40
6.0
 40
6.0
 40
6.0
 40
6.0
 10
108.7602864311433
 20
-156.5189561240647
 10
108.7389268391347
 20
-156.5420382638159
 10
108.6417751464507
 20
-156.654348376635
 10
108.5022487792981
 20
-156.7346191014414
 10
108.5022487792981
 20
-156.7346191014414
 10
108.3351616482634
 20
-156.6140407594576
 10
108.3351616482634
 20
-156.6140407594576
 10
108.4853678114203
 20
-156.5379041492336
 10
108.5845865613955
 20
-156.4428195138407
 10
108.6331624077375
 20
-156.3897650433678
 10
108.6331624077375
 20
-156.3897650433678
 10
108.8067952201941
 20
-156.4724473350138
 10
108.8067952201941
 20
-156.4724473350138
 10
108.8150634493587
 20
-156.4765814495962
 10
108.8236761880719
 20
-156.4827826214696
 10
108.8236761880719
 20
-156.4934624174739
 10
108.8236761880719
 20
-156.5189561240647
 10
108.7878471950253
 20
-156.5189561240647
 10
108.7602864311433
 20
-156.5189561240647
 97
        0
 97
        0
 92
        1
 93
        1
 72
     4
 94
        3
 73
     0
 74
     1
 95
       20
 96
       16
 40
0.0
 40
0.0
 40
0.0
 40
0.0
 40
1.0
 40
1.0
 40
1.0
 40
2.0
 40
2.0
 40
2.0
 40
3.0
 40
3.0
 40
3.0
 40
4.0
 40
4.0
 40
4.0
 40
5.0
 40
5.0
 40
5.0
 40
5.0
 10
109.0586317001659
 20
-155.6769747874696
 10
109.0203911402796
 20
-155.7255506338117
 10
108.9590684406422
 20
-155.8037543013268
 10
108.8195420734896
 20
-155.9139973568548
 10
108.8998127982959
 20
-155.9181314714371
 10
108.929440619469
 20
-155.9181314714371
 10
108.9528672687687
 20
-155.9181314714371
 10
108.9528672687687
 20
-155.9181314714371
 10
109.1812770994408
 20
-155.9181314714371
 10
109.1812770994408
 20
-155.9181314714371
 10
109.2129719779051
 20
-155.9181314714371
 10
109.2615478242471
 20
-155.916064414146
 10
109.33561737718
 20
-155.9139973568548
 10
109.2236517739094
 20
-155.839927803922
 10
109.1747314180188
 20
-155.7934190148711
 10
109.0586317001659
 20
-155.6769747874696
 97
        0
 97
        0
 92
        1
 93
        1
 72
     4
 94
        3
 73
     0
 74
     1
 95
       17
 96
       13
 40
0.0
 40
0.0
 40
0.0
 40
0.0
 40
1.0
 40
1.0
 40
1.0
 40
2.0
 40
2.0
 40
2.0
 40
3.0
 40
3.0
 40
3.0
 40
4.0
 40
4.0
 40
4.0
 40
4.0
 10
109.6191487356161
 20
-156.7325520441502
 10
109.4837564830457
 20
-156.6205864408796
 10
109.3779920516486
 20
-156.5568521744025
 10
109.259480766956
 20
-156.4934624174739
 10
109.259480766956
 20
-156.4934624174739
 10
109.3862602808132
 20
-156.3814968142032
 10
109.3862602808132
 20
-156.3814968142032
 10
109.5175184188012
 20
-156.4280056032541
 10
109.6274169647807
 20
-156.4851941883093
 10
109.7524739308952
 20
-156.5864799955756
 10
109.7524739308952
 20
-156.5864799955756
 10
109.6191487356161
 20
-156.7325520441502
 10
109.6191487356161
 20
-156.7325520441502
 97
        0
 97
        0
 75
     2
 76
     1
 98
        0
  0
SPLINE
  5
AF
330
A3
100
AcDbEntity
  8
_U+30EC_U+30A4_U+30E4_U+30FC 1
370
     0
100
AcDbSpline
210
0.0
220
0.0
230
1.0
 70
    11
 71
     3
 72
   113
 73
   109
 74
     0
 42
0.0000000001
 43
0.0000000001
 12
1.0
 22
0.0
 32
0.0
 13
1.0
 23
0.0
 33
0.0
 40
0.0
 40
0.0
 40
0.0
 40
0.0
 40
1.0
 40
1.0
 40
1.0
 40
2.0
 40
2.0
 40
2.0
 40
3.0
 40
3.0
 40
3.0
 40
4.0
 40
4.0
 40
4.0
 40
5.0
 40
5.0
 40
5.0
 40
6.0
 40
6.0
 40
6.0
 40
7.0
 40
7.0
 40
7.0
 40
8.0
 40
8.0
 40
8.0
 40
9.0
 40
9.0
 40
9.0
 40
10.0
 40
10.0
 40
10.0
 40
11.0
 40
11.0
 40
11.0
 40
12.0
 40
12.0
 40
12.0
 40
13.0
 40
13.0
 40
13.0
 40
14.0
 40
14.0
 40
14.0
 40
15.0
 40
15.0
 40
15.0
 40
16.0
 40
16.0
 40
16.0
 40
17.0
 40
17.0
 40
17.0
 40
18.0
 40
18.0
 40
18.0
 40
19.0
 40
19.0
 40
19.0
 40
20.0
 40
20.0
 40
20.0
 40
21.0
 40
21.0
 40
21.0
 40
22.0
 40
22.0
 40
22.0
 40
23.0
 40
23.0
 40
23.0
 40
24.0
 40
24.0
 40
24.0
 40
25.0
 40
25.0
 40
25.0
 40
26.0
 40
26.0
 40
26.0
 40
27.0
 40
27.0
 40
27.0
 40
28.0
 40
28.0
 40
28.0
 40
29.0
 40
29.0
 40
29.0
 40
30.0
 40
30.0
 40
30.0
 40
31.0
 40
31.0
 40
31.0
 40
32.0
 40
32.0
 40
32.0
 40
33.0
 40
33.0
 40
33.0
 40
34.0
 40
34.0
 40
34.0
 40
35.0
 40
35.0
 40
35.0
 40
36.0
 40
36.0
 40
36.0
 40
36.0
 10
111.4987928323684
 20
-156.7091253948505
 30
0.0
 10
111.4987928323684
 20
-156.7091253948505
 30
0.0
 10
111.5983560918921
 20
-156.8086886543742
 30
0.0
 10
111.5983560918921
 20
-156.8086886543742
 30
0.0
 10
111.6090358878964
 20
-156.8193684503785
 30
0.0
 10
111.6193711743521
 20
-156.8321153036739
 30
0.0
 10
111.6193711743521
 20
-156.8469292142605
 30
0.0
 10
111.6193711743521
 20
-156.8489962715516
 30
0.0
 10
111.6193711743521
 20
-156.8786240927248
 30
0.0
 10
111.5814751240144
 20
-156.8786240927248
 30
0.0
 10
111.5728623853012
 20
-156.8786240927248
 30
0.0
 10
111.5325547681238
 20
-156.874145468594
 30
0.0
 10
111.5263535962504
 20
-156.874145468594
 30
0.0
 10
111.4860459790729
 20
-156.9061848566068
 30
0.0
 10
111.4395371900221
 20
-156.9399467923622
 30
0.0
 10
111.3403184400469
 20
-156.9971353774174
 30
0.0
 10
111.4860459790729
 20
-157.1049668661057
 30
0.0
 10
111.644864880943
 20
-157.1621554511609
 30
0.0
 10
111.9177164433747
 20
-157.2000515014986
 30
0.0
 10
111.9177164433747
 20
-157.2000515014986
 30
0.0
 10
111.7675102802178
 20
-157.3757513712463
 30
0.0
 10
111.7675102802178
 20
-157.3757513712463
 30
0.0
 10
111.5053385137903
 20
-157.3037488756046
 30
0.0
 10
111.3485866692115
 20
-157.2148654120852
 30
0.0
 10
111.2724500589874
 20
-157.1621554511609
 30
0.0
 10
111.1222438958306
 20
-157.060525134346
 30
0.0
 10
110.9785834140956
 20
-156.8975721178937
 30
0.0
 10
110.9024468038716
 20
-156.7325520441502
 30
0.0
 10
110.8345784228122
 20
-156.7980088583699
 30
0.0
 10
110.7605088698793
 20
-156.8510633288428
 30
0.0
 10
110.6823052023641
 20
-156.8996391751848
 30
0.0
 10
110.6823052023641
 20
-156.8996391751848
 30
0.0
 10
110.6823052023641
 20
-157.1514756551566
 30
0.0
 10
110.6823052023641
 20
-157.1514756551566
 30
0.0
 10
110.8452582188165
 20
-157.1259819485657
 30
0.0
 10
111.03129337502
 20
-157.081540216806
 30
0.0
 10
111.0946831319486
 20
-157.0667263062194
 30
0.0
 10
111.0946831319486
 20
-157.0667263062194
 30
0.0
 10
111.0650553107754
 20
-157.2358804945452
 30
0.0
 10
111.0650553107754
 20
-157.2358804945452
 30
0.0
 10
111.0629882534843
 20
-157.2358804945452
 30
0.0
 10
111.0440402283154
 20
-157.2424261759672
 30
0.0
 10
111.0419731710242
 20
-157.2424261759672
 30
0.0
 10
110.8431911615253
 20
-157.2803222263049
 30
0.0
 10
110.5258978673338
 20
-157.3461235500732
 30
0.0
 10
110.3288384055775
 20
-157.3819525431198
 30
0.0
 10
110.3185031191218
 20
-157.3988335109975
 30
0.0
 10
110.2950764698221
 20
-157.4305283894618
 30
0.0
 10
110.2719943300709
 20
-157.4305283894618
 30
0.0
 10
110.2444335661889
 20
-157.4305283894618
 30
0.0
 10
110.2402994516066
 20
-157.4115803642929
 30
0.0
 10
110.2378878847669
 20
-157.3926323391241
 30
0.0
 10
110.2378878847669
 20
-157.3926323391241
 30
0.0
 10
110.2127386877246
 20
-157.2189995266675
 30
0.0
 10
110.2127386877246
 20
-157.2189995266675
 30
0.0
 10
110.2868082406575
 20
-157.2107312975029
 30
0.0
 10
110.3946397293458
 20
-157.1979844442075
 30
0.0
 10
110.5024712180341
 20
-157.1769693617474
 30
0.0
 10
110.5024712180341
 20
-157.1769693617474
 30
0.0
 10
110.5024712180341
 20
-156.9992024347085
 30
0.0
 10
110.5024712180341
 20
-156.9992024347085
 30
0.0
 10
110.3584662267507
 20
-157.0712049303503
 30
0.0
 10
110.2633815913578
 20
-157.1004882419749
 30
0.0
 10
110.0983615176143
 20
-157.130116063148
 30
0.0
 10
110.0983615176143
 20
-157.130116063148
 30
0.0
 10
109.9777831756306
 20
-156.9609618748223
 30
0.0
 10
109.9777831756306
 20
-156.9609618748223
 30
0.0
 10
110.2950764698221
 20
-156.9334011109403
 30
0.0
 10
110.4876573074475
 20
-156.8403835328385
 30
0.0
 10
110.6654242344864
 20
-156.7070583375593
 30
0.0
 10
110.5193521859118
 20
-156.7070583375593
 30
0.0
 10
110.2189398595981
 20
-156.7115369616902
 30
0.0
 10
110.0222249073903
 20
-156.7177381335636
 30
0.0
 10
110.0222249073903
 20
-156.7177381335636
 30
0.0
 10
110.0222249073903
 20
-156.5399712065247
 30
0.0
 10
110.0222249073903
 20
-156.5399712065247
 30
0.0
 10
110.1765651851295
 20
-156.5465168879467
 30
0.0
 10
110.472843396861
 20
-156.5527180598202
 30
0.0
 10
110.6568114957733
 20
-156.5527180598202
 30
0.0
 10
110.6568114957733
 20
-156.5527180598202
 30
0.0
 10
110.8683403585676
 20
-156.5527180598202
 30
0.0
 10
110.8683403585676
 20
-156.5527180598202
 30
0.0
 10
110.8683403585676
 20
-156.4576334244273
 30
0.0
 10
110.8662733012765
 20
-156.4066460112456
 30
0.0
 10
110.860072129403
 20
-156.3601372221947
 30
0.0
 10
110.860072129403
 20
-156.3601372221947
 30
0.0
 10
111.0757351067797
 20
-156.3770181900724
 30
0.0
 10
111.0757351067797
 20
-156.3770181900724
 30
0.0
 10
111.1243109531217
 20
-156.3814968142032
 30
0.0
 10
111.1329236918348
 20
-156.3963107247898
 30
0.0
 10
111.1329236918348
 20
-156.4111246353764
 30
0.0
 10
111.1329236918348
 20
-156.4362738324187
 30
0.0
 10
111.1160427239571
 20
-156.4448865711318
 30
0.0
 10
111.0650553107754
 20
-156.4703802777227
 30
0.0
 10
111.0629882534843
 20
-156.495529474765
 30
0.0
 10
111.0629882534843
 20
-156.502075156187
 30
0.0
 10
111.0609211961931
 20
-156.5527180598202
 30
0.0
 10
111.0609211961931
 20
-156.5527180598202
 30
0.0
 10
111.2913980841563
 20
-156.5527180598202
 30
0.0
 10
111.2913980841563
 20
-156.5527180598202
 30
0.0
 10
111.4564181578998
 20
-156.5527180598202
 30
0.0
 10
111.748562255049
 20
-156.5465168879467
 30
0.0
 10
111.928396239379
 20
-156.5399712065247
 30
0.0
 10
111.928396239379
 20
-156.5399712065247
 30
0.0
 10
111.928396239379
 20
-156.7177381335636
 30
0.0
 10
111.928396239379
 20
-156.7177381335636
 30
0.0
 10
111.7992051586821
 20
-156.7136040189813
 30
0.0
 10
111.776123018931
 20
-156.7136040189813
 30
0.0
 10
111.4987928323684
 20
-156.7091253948505
 30
0.0
  0
SPLINE
  5
B0
330
A3
100
AcDbEntity
  8
_U+30EC_U+30A4_U+30E4_U+30FC 1
370
     0
100
AcDbSpline
210
0.0
220
0.0
230
1.0
 70
    11
 71
     3
 72
    23
 73
    19
 74
     0
 42
0.0000000001
 43
0.0000000001
 12
1.0
 22
0.0
 32
0.0
 13
1.0
 23
0.0
 33
0.0
 40
0.0
 40
0.0
 40
0.0
 40
0.0
 40
1.0
 40
1.0
 40
1.0
 40
2.0
 40
2.0
 40
2.0
 40
3.0
 40
3.0
 40
3.0
 40
4.0
 40
4.0
 40
4.0
 40
5.0
 40
5.0
 40
5.0
 40
6.0
 40
6.0
 40
6.0
 40
6.0
 10
110.2148057450158
 20
-156.3580701649036
 30
0.0
 10
110.197924777138
 20
-156.398377782081
 30
0.0
 10
110.191379095716
 20
-156.4152587499587
 30
0.0
 10
110.170364013256
 20
-156.4152587499587
 30
0.0
 10
110.1555501026695
 20
-156.4152587499587
 30
0.0
 10
110.1448703066652
 20
-156.398377782081
 30
0.0
 10
110.1386691347917
 20
-156.3856309287855
 30
0.0
 10
110.1386691347917
 20
-156.3856309287855
 30
0.0
 10
110.039105875268
 20
-156.2206108550421
 30
0.0
 10
110.039105875268
 20
-156.2206108550421
 30
0.0
 10
110.1407361920829
 20
-156.1889159765778
 30
0.0
 10
110.2909423552398
 20
-156.1337944488138
 30
0.0
 10
110.4897243647387
 20
-155.9708414323615
 30
0.0
 10
110.4897243647387
 20
-155.9708414323615
 30
0.0
 10
110.5469129497938
 20
-156.144474244818
 30
0.0
 10
110.5469129497938
 20
-156.144474244818
 30
0.0
 10
110.4538953716921
 20
-156.2268120269155
 30
0.0
 10
110.3650119081726
 20
-156.2840006119707
 30
0.0
 10
110.2148057450158
 20
-156.3580701649036
 30
0.0
  0
SPLINE
  5
B1
330
A3
100
AcDbEntity
  8
_U+30EC_U+30A4_U+30E4_U+30FC 1
370
     0
100
AcDbSpline
210
0.0
220
0.0
230
1.0
 70
    11
 71
     3
 72
    17
 73
    13
 74
     0
 42
0.0000000001
 43
0.0000000001
 12
1.0
 22
0.0
 32
0.0
 13
1.0
 23
0.0
 33
0.0
 40
0.0
 40
0.0
 40
0.0
 40
0.0
 40
1.0
 40
1.0
 40
1.0
 40
2.0
 40
2.0
 40
2.0
 40
3.0
 40
3.0
 40
3.0
 40
4.0
 40
4.0
 40
4.0
 40
4.0
 10
110.3670789654638
 20
-155.8926377648463
 30
0.0
 10
110.3374511442906
 20
-155.8526746572174
 30
0.0
 10
110.2695827632312
 20
-155.7551784549848
 30
0.0
 10
110.08768172161
 20
-155.6452799090054
 30
0.0
 10
110.08768172161
 20
-155.6452799090054
 30
0.0
 10
110.2148057450158
 20
-155.5119547137262
 30
0.0
 10
110.2148057450158
 20
-155.5119547137262
 30
0.0
 10
110.4008409012192
 20
-155.6135850305411
 30
0.0
 10
110.4580294862744
 20
-155.7024684940605
 30
0.0
 10
110.4855902501564
 20
-155.7444986589805
 30
0.0
 10
110.4855902501564
 20
-155.7444986589805
 30
0.0
 10
110.3670789654638
 20
-155.8926377648463
 30
0.0
 10
110.3670789654638
 20
-155.8926377648463
 30
0.0
  0
SPLINE
  5
B2
330
A3
100
AcDbEntity
  8
_U+30EC_U+30A4_U+30E4_U+30FC 1
370
     0
100
AcDbSpline
210
0.0
220
0.0
230
1.0
 70
    11
 71
     3
 72
    38
 73
    34
 74
     0
 42
0.0000000001
 43
0.0000000001
 12
1.0
 22
0.0
 32
0.0
 13
1.0
 23
0.0
 33
0.0
 40
0.0
 40
0.0
 40
0.0
 40
0.0
 40
1.0
 40
1.0
 40
1.0
 40
2.0
 40
2.0
 40
2.0
 40
3.0
 40
3.0
 40
3.0
 40
4.0
 40
4.0
 40
4.0
 40
5.0
 40
5.0
 40
5.0
 40
6.0
 40
6.0
 40
6.0
 40
7.0
 40
7.0
 40
7.0
 40
8.0
 40
8.0
 40
8.0
 40
9.0
 40
9.0
 40
9.0
 40
10.0
 40
10.0
 40
10.0
 40
11.0
 40
11.0
 40
11.0
 40
11.0
 10
110.7350151632885
 20
-155.5880913239502
 30
0.0
 10
110.7329481059973
 20
-155.6346001130011
 30
0.0
 10
110.7308810487062
 20
-155.7510443404025
 30
0.0
 10
110.7308810487062
 20
-155.7954860721622
 30
0.0
 10
110.7308810487062
 20
-155.7954860721622
 30
0.0
 10
110.7308810487062
 20
-156.1424071875269
 30
0.0
 10
110.7308810487062
 20
-156.1424071875269
 30
0.0
 10
110.7308810487062
 20
-156.2292235937552
 30
0.0
 10
110.7329481059973
 20
-156.370817018199
 30
0.0
 10
110.7436279020016
 20
-156.4913953601827
 30
0.0
 10
110.7436279020016
 20
-156.4913953601827
 30
0.0
 10
110.5531141216673
 20
-156.4913953601827
 30
0.0
 10
110.5531141216673
 20
-156.4913953601827
 30
0.0
 10
110.5575927457981
 20
-156.4280056032541
 30
0.0
 10
110.5617268603804
 20
-156.3749511327813
 30
0.0
 10
110.5637939176716
 20
-156.3201741145658
 30
0.0
 10
110.5658609749627
 20
-156.1971842057424
 30
0.0
 10
110.5679280322539
 20
-156.1823702951558
 30
0.0
 10
110.5679280322539
 20
-156.1379285633961
 30
0.0
 10
110.5679280322539
 20
-156.1379285633961
 30
0.0
 10
110.5679280322539
 20
-155.8165011546223
 30
0.0
 10
110.5679280322539
 20
-155.8165011546223
 30
0.0
 10
110.5679280322539
 20
-155.7613796268583
 30
0.0
 10
110.5551811789584
 20
-155.5226345097305
 30
0.0
 10
110.5531141216673
 20
-155.4716470965488
 30
0.0
 10
110.5531141216673
 20
-155.4716470965488
 30
0.0
 10
110.7543076980059
 20
-155.4992078604308
 30
0.0
 10
110.7543076980059
 20
-155.4992078604308
 30
0.0
 10
110.7753227804659
 20
-155.5012749177219
 30
0.0
 10
110.8070176589302
 20
-155.5054090323042
 30
0.0
 10
110.8070176589302
 20
-155.5309027388951
 30
0.0
 10
110.8070176589302
 20
-155.558463502777
 30
0.0
 10
110.756374755297
 20
-155.5794785852371
 30
0.0
 10
110.7350151632885
 20
-155.5880913239502
 30
0.0
  0
SPLINE
  5
B3
330
A3
100
AcDbEntity
  8
_U+30EC_U+30A4_U+30E4_U+30FC 1
370
     0
100
AcDbSpline
210
0.0
220
0.0
230
1.0
 70
    11
 71
     3
 72
    83
 73
    79
 74
     0
 42
0.0000000001
 43
0.0000000001
 12
1.0
 22
0.0
 32
0.0
 13
1.0
 23
0.0
 33
0.0
 40
0.0
 40
0.0
 40
0.0
 40
0.0
 40
1.0
 40
1.0
 40
1.0
 40
2.0
 40
2.0
 40
2.0
 40
3.0
 40
3.0
 40
3.0
 40
4.0
 40
4.0
 40
4.0
 40
5.0
 40
5.0
 40
5.0
 40
6.0
 40
6.0
 40
6.0
 40
7.0
 40
7.0
 40
7.0
 40
8.0
 40
8.0
 40
8.0
 40
9.0
 40
9.0
 40
9.0
 40
10.0
 40
10.0
 40
10.0
 40
11.0
 40
11.0
 40
11.0
 40
12.0
 40
12.0
 40
12.0
 40
13.0
 40
13.0
 40
13.0
 40
14.0
 40
14.0
 40
14.0
 40
15.0
 40
15.0
 40
15.0
 40
16.0
 40
16.0
 40
16.0
 40
17.0
 40
17.0
 40
17.0
 40
18.0
 40
18.0
 40
18.0
 40
19.0
 40
19.0
 40
19.0
 40
20.0
 40
20.0
 40
20.0
 40
21.0
 40
21.0
 40
21.0
 40
22.0
 40
22.0
 40
22.0
 40
23.0
 40
23.0
 40
23.0
 40
24.0
 40
24.0
 40
24.0
 40
25.0
 40
25.0
 40
25.0
 40
26.0
 40
26.0
 40
26.0
 40
26.0
 10
111.5370333922546
 20
-155.909518732724
 30
0.0
 10
111.5370333922546
 20
-155.909518732724
 30
0.0
 10
111.4395371900221
 20
-155.909518732724
 30
0.0
 10
111.4395371900221
 20
-155.909518732724
 30
0.0
 10
111.4395371900221
 20
-155.909518732724
 30
0.0
 10
111.4395371900221
 20
-156.1572210981135
 30
0.0
 10
111.4395371900221
 20
-156.1572210981135
 30
0.0
 10
111.4395371900221
 20
-156.1572210981135
 30
0.0
 10
111.5222194816681
 20
-156.1572210981135
 30
0.0
 10
111.5222194816681
 20
-156.1572210981135
 30
0.0
 10
111.5876762958878
 20
-156.1572210981135
 30
0.0
 10
111.7272026630404
 20
-156.1527424739826
 30
0.0
 10
111.8267659225641
 20
-156.144474244818
 30
0.0
 10
111.8267659225641
 20
-156.144474244818
 30
0.0
 10
111.8267659225641
 20
-156.3243082291481
 30
0.0
 10
111.8267659225641
 20
-156.3243082291481
 30
0.0
 10
111.7337483444624
 20
-156.315695490435
 30
0.0
 10
111.5835421813055
 20
-156.3115613758527
 30
0.0
 10
111.5222194816681
 20
-156.3115613758527
 30
0.0
 10
111.5222194816681
 20
-156.3115613758527
 30
0.0
 10
111.2173285312234
 20
-156.3115613758527
 30
0.0
 10
111.2173285312234
 20
-156.3115613758527
 30
0.0
 10
111.1646185702991
 20
-156.3115613758527
 30
0.0
 10
111.0185465217245
 20
-156.315695490435
 30
0.0
 10
110.9127820903274
 20
-156.3243082291481
 30
0.0
 10
110.9127820903274
 20
-156.3243082291481
 30
0.0
 10
110.9127820903274
 20
-156.144474244818
 30
0.0
 10
110.9127820903274
 20
-156.144474244818
 30
0.0
 10
111.0123453498511
 20
-156.1527424739826
 30
0.0
 10
111.1518717170037
 20
-156.1572210981135
 30
0.0
 10
111.2173285312234
 20
-156.1572210981135
 30
0.0
 10
111.2173285312234
 20
-156.1572210981135
 30
0.0
 10
111.2617702629832
 20
-156.1572210981135
 30
0.0
 10
111.2617702629832
 20
-156.1572210981135
 30
0.0
 10
111.2617702629832
 20
-156.1572210981135
 30
0.0
 10
111.2617702629832
 20
-155.909518732724
 30
0.0
 10
111.2617702629832
 20
-155.909518732724
 30
0.0
 10
111.2617702629832
 20
-155.909518732724
 30
0.0
 10
111.1880452195988
 20
-155.909518732724
 30
0.0
 10
111.1880452195988
 20
-155.909518732724
 30
0.0
 10
111.1263780104129
 20
-155.909518732724
 30
0.0
 10
110.9592908793782
 20
-155.9139973568548
 30
0.0
 10
110.8387125373945
 20
-155.9222655860194
 30
0.0
 10
110.8387125373945
 20
-155.9222655860194
 30
0.0
 10
110.8387125373945
 20
-155.7444986589805
 30
0.0
 10
110.8387125373945
 20
-155.7444986589805
 30
0.0
 10
110.9530897075048
 20
-155.7510443404025
 30
0.0
 10
111.1115640998263
 20
-155.7551784549848
 30
0.0
 10
111.1880452195988
 20
-155.7551784549848
 30
0.0
 10
111.1880452195988
 20
-155.7551784549848
 30
0.0
 10
111.259703205692
 20
-155.7551784549848
 30
0.0
 10
111.259703205692
 20
-155.7551784549848
 30
0.0
 10
111.2555690911097
 20
-155.6029052345368
 30
0.0
 10
111.2535020338186
 20
-155.5691432987813
 30
0.0
 10
111.2469563523966
 20
-155.475781211131
 30
0.0
 10
111.2469563523966
 20
-155.475781211131
 30
0.0
 10
111.4588297247395
 20
-155.4992078604308
 30
0.0
 10
111.4588297247395
 20
-155.4992078604308
 30
0.0
 10
111.4839789217818
 20
-155.5012749177219
 30
0.0
 10
111.5074055710815
 20
-155.5054090323042
 30
0.0
 10
111.5074055710815
 20
-155.5288356816039
 30
0.0
 10
111.5074055710815
 20
-155.5605305600682
 30
0.0
 10
111.4629638393218
 20
-155.5774115279459
 30
0.0
 10
111.4395371900221
 20
-155.5860242666591
 30
0.0
 10
111.4395371900221
 20
-155.5860242666591
 30
0.0
 10
111.4395371900221
 20
-155.7551784549848
 30
0.0
 10
111.4395371900221
 20
-155.7551784549848
 30
0.0
 10
111.4395371900221
 20
-155.7551784549848
 30
0.0
 10
111.5370333922546
 20
-155.7551784549848
 30
0.0
 10
111.5370333922546
 20
-155.7551784549848
 30
0.0
 10
111.6131700024787
 20
-155.7551784549848
 30
0.0
 10
111.7716443948001
 20
-155.7510443404025
 30
0.0
 10
111.8880886222016
 20
-155.7444986589805
 30
0.0
 10
111.8880886222016
 20
-155.7444986589805
 30
0.0
 10
111.8880886222016
 20
-155.9222655860194
 30
0.0
 10
111.8880886222016
 20
-155.9222655860194
 30
0.0
 10
111.7802571335133
 20
-155.916064414146
 30
0.0
 10
111.6066243210567
 20
-155.909518732724
 30
0.0
 10
111.5370333922546
 20
-155.909518732724
 30
0.0
  0
SPLINE
  5
B4
330
A3
100
AcDbEntity
  8
_U+30EC_U+30A4_U+30E4_U+30FC 1
370
     0
100
AcDbSpline
210
0.0
220
0.0
230
1.0
 70
    11
 71
     3
 72
    17
 73
    13
 74
     0
 42
0.0000000001
 43
0.0000000001
 12
1.0
 22
0.0
 32
0.0
 13
1.0
 23
0.0
 33
0.0
 40
0.0
 40
0.0
 40
0.0
 40
0.0
 40
1.0
 40
1.0
 40
1.0
 40
2.0
 40
2.0
 40
2.0
 40
3.0
 40
3.0
 40
3.0
 40
4.0
 40
4.0
 40
4.0
 40
4.0
 10
111.2913980841563
 20
-156.7070583375593
 30
0.0
 10
111.2913980841563
 20
-156.7070583375593
 30
0.0
 10
111.0884819600751
 20
-156.7070583375593
 30
0.0
 10
111.0884819600751
 20
-156.7070583375593
 30
0.0
 10
111.1160427239571
 20
-156.7663139799056
 30
0.0
 10
111.1708197421726
 20
-156.8383164755474
 30
0.0
 10
111.1983805060546
 20
-156.8679442967205
 30
0.0
 10
111.2259412699366
 20
-156.853130386134
 30
0.0
 10
111.3403184400469
 20
-156.7897406292053
 30
0.0
 10
111.4312689608575
 20
-156.7070583375593
 30
0.0
 10
111.4312689608575
 20
-156.7070583375593
 30
0.0
 10
111.2913980841563
 20
-156.7070583375593
 30
0.0
 10
111.2913980841563
 20
-156.7070583375593
 30
0.0
  0
HATCH
  5
B5
330
A3
100
AcDbEntity
  8
_U+30EC_U+30A4_U+30E4_U+30FC 1
 62
   179
420
  2234388
100
AcDbHatch
 10
0.0
 20
0.0
 30
0.0
210
0.0
220
0.0
230
1.0
  2
SOLID
 70
     1
 71
     0
 91
        6
 92
        1
 93
        1
 72
     4
 94
        3
 73
     0
 74
     1
 95
      113
 96
      109
 40
0.0
 40
0.0
 40
0.0
 40
0.0
 40
1.0
 40
1.0
 40
1.0
 40
2.0
 40
2.0
 40
2.0
 40
3.0
 40
3.0
 40
3.0
 40
4.0
 40
4.0
 40
4.0
 40
5.0
 40
5.0
 40
5.0
 40
6.0
 40
6.0
 40
6.0
 40
7.0
 40
7.0
 40
7.0
 40
8.0
 40
8.0
 40
8.0
 40
9.0
 40
9.0
 40
9.0
 40
10.0
 40
10.0
 40
10.0
 40
11.0
 40
11.0
 40
11.0
 40
12.0
 40
12.0
 40
12.0
 40
13.0
 40
13.0
 40
13.0
 40
14.0
 40
14.0
 40
14.0
 40
15.0
 40
15.0
 40
15.0
 40
16.0
 40
16.0
 40
16.0
 40
17.0
 40
17.0
 40
17.0
 40
18.0
 40
18.0
 40
18.0
 40
19.0
 40
19.0
 40
19.0
 40
20.0
 40
20.0
 40
20.0
 40
21.0
 40
21.0
 40
21.0
 40
22.0
 40
22.0
 40
22.0
 40
23.0
 40
23.0
 40
23.0
 40
24.0
 40
24.0
 40
24.0
 40
25.0
 40
25.0
 40
25.0
 40
26.0
 40
26.0
 40
26.0
 40
27.0
 40
27.0
 40
27.0
 40
28.0
 40
28.0
 40
28.0
 40
29.0
 40
29.0
 40
29.0
 40
30.0
 40
30.0
 40
30.0
 40
31.0
 40
31.0
 40
31.0
 40
32.0
 40
32.0
 40
32.0
 40
33.0
 40
33.0
 40
33.0
 40
34.0
 40
34.0
 40
34.0
 40
35.0
 40
35.0
 40
35.0
 40
36.0
 40
36.0
 40
36.0
 40
36.0
 10
111.4987928323684
 20
-156.7091253948505
 10
111.4987928323684
 20
-156.7091253948505
 10
111.5983560918921
 20
-156.8086886543742
 10
111.5983560918921
 20
-156.8086886543742
 10
111.6090358878964
 20
-156.8193684503785
 10
111.6193711743521
 20
-156.8321153036739
 10
111.6193711743521
 20
-156.8469292142605
 10
111.6193711743521
 20
-156.8489962715516
 10
111.6193711743521
 20
-156.8786240927248
 10
111.5814751240144
 20
-156.8786240927248
 10
111.5728623853012
 20
-156.8786240927248
 10
111.5325547681238
 20
-156.874145468594
 10
111.5263535962504
 20
-156.874145468594
 10
111.4860459790729
 20
-156.9061848566068
 10
111.4395371900221
 20
-156.9399467923622
 10
111.3403184400469
 20
-156.9971353774174
 10
111.4860459790729
 20
-157.1049668661057
 10
111.644864880943
 20
-157.1621554511609
 10
111.9177164433747
 20
-157.2000515014986
 10
111.9177164433747
 20
-157.2000515014986
 10
111.7675102802178
 20
-157.3757513712463
 10
111.7675102802178
 20
-157.3757513712463
 10
111.5053385137903
 20
-157.3037488756046
 10
111.3485866692115
 20
-157.2148654120852
 10
111.2724500589874
 20
-157.1621554511609
 10
111.1222438958306
 20
-157.060525134346
 10
110.9785834140956
 20
-156.8975721178937
 10
110.9024468038716
 20
-156.7325520441502
 10
110.8345784228122
 20
-156.7980088583699
 10
110.7605088698793
 20
-156.8510633288428
 10
110.6823052023641
 20
-156.8996391751848
 10
110.6823052023641
 20
-156.8996391751848
 10
110.6823052023641
 20
-157.1514756551566
 10
110.6823052023641
 20
-157.1514756551566
 10
110.8452582188165
 20
-157.1259819485657
 10
111.03129337502
 20
-157.081540216806
 10
111.0946831319486
 20
-157.0667263062194
 10
111.0946831319486
 20
-157.0667263062194
 10
111.0650553107754
 20
-157.2358804945452
 10
111.0650553107754
 20
-157.2358804945452
 10
111.0629882534843
 20
-157.2358804945452
 10
111.0440402283154
 20
-157.2424261759672
 10
111.0419731710242
 20
-157.2424261759672
 10
110.8431911615253
 20
-157.2803222263049
 10
110.5258978673338
 20
-157.3461235500732
 10
110.3288384055775
 20
-157.3819525431198
 10
110.3185031191218
 20
-157.3988335109975
 10
110.2950764698221
 20
-157.4305283894618
 10
110.2719943300709
 20
-157.4305283894618
 10
110.2444335661889
 20
-157.4305283894618
 10
110.2402994516066
 20
-157.4115803642929
 10
110.2378878847669
 20
-157.3926323391241
 10
110.2378878847669
 20
-157.3926323391241
 10
110.2127386877246
 20
-157.2189995266675
 10
110.2127386877246
 20
-157.2189995266675
 10
110.2868082406575
 20
-157.2107312975029
 10
110.3946397293458
 20
-157.1979844442075
 10
110.5024712180341
 20
-157.1769693617474
 10
110.5024712180341
 20
-157.1769693617474
 10
110.5024712180341
 20
-156.9992024347085
 10
110.5024712180341
 20
-156.9992024347085
 10
110.3584662267507
 20
-157.0712049303503
 10
110.2633815913578
 20
-157.1004882419749
 10
110.0983615176143
 20
-157.130116063148
 10
110.0983615176143
 20
-157.130116063148
 10
109.9777831756306
 20
-156.9609618748223
 10
109.9777831756306
 20
-156.9609618748223
 10
110.2950764698221
 20
-156.9334011109403
 10
110.4876573074475
 20
-156.8403835328385
 10
110.6654242344864
 20
-156.7070583375593
 10
110.5193521859118
 20
-156.7070583375593
 10
110.2189398595981
 20
-156.7115369616902
 10
110.0222249073903
 20
-156.7177381335636
 10
110.0222249073903
 20
-156.7177381335636
 10
110.0222249073903
 20
-156.5399712065247
 10
110.0222249073903
 20
-156.5399712065247
 10
110.1765651851295
 20
-156.5465168879467
 10
110.472843396861
 20
-156.5527180598202
 10
110.6568114957733
 20
-156.5527180598202
 10
110.6568114957733
 20
-156.5527180598202
 10
110.8683403585676
 20
-156.5527180598202
 10
110.8683403585676
 20
-156.5527180598202
 10
110.8683403585676
 20
-156.4576334244273
 10
110.8662733012765
 20
-156.4066460112456
 10
110.860072129403
 20
-156.3601372221947
 10
110.860072129403
 20
-156.3601372221947
 10
111.0757351067797
 20
-156.3770181900724
 10
111.0757351067797
 20
-156.3770181900724
 10
111.1243109531217
 20
-156.3814968142032
 10
111.1329236918348
 20
-156.3963107247898
 10
111.1329236918348
 20
-156.4111246353764
 10
111.1329236918348
 20
-156.4362738324187
 10
111.1160427239571
 20
-156.4448865711318
 10
111.0650553107754
 20
-156.4703802777227
 10
111.0629882534843
 20
-156.495529474765
 10
111.0629882534843
 20
-156.502075156187
 10
111.0609211961931
 20
-156.5527180598202
 10
111.0609211961931
 20
-156.5527180598202
 10
111.2913980841563
 20
-156.5527180598202
 10
111.2913980841563
 20
-156.5527180598202
 10
111.4564181578998
 20
-156.5527180598202
 10
111.748562255049
 20
-156.5465168879467
 10
111.928396239379
 20
-156.5399712065247
 10
111.928396239379
 20
-156.5399712065247
 10
111.928396239379
 20
-156.7177381335636
 10
111.928396239379
 20
-156.7177381335636
 10
111.7992051586821
 20
-156.7136040189813
 10
111.776123018931
 20
-156.7136040189813
 10
111.4987928323684
 20
-156.7091253948505
 97
        0
 97
        0
 92
        1
 93
        1
 72
     4
 94
        3
 73
     0
 74
     1
 95
       23
 96
       19
 40
0.0
 40
0.0
 40
0.0
 40
0.0
 40
1.0
 40
1.0
 40
1.0
 40
2.0
 40
2.0
 40
2.0
 40
3.0
 40
3.0
 40
3.0
 40
4.0
 40
4.0
 40
4.0
 40
5.0
 40
5.0
 40
5.0
 40
6.0
 40
6.0
 40
6.0
 40
6.0
 10
110.2148057450158
 20
-156.3580701649036
 10
110.197924777138
 20
-156.398377782081
 10
110.191379095716
 20
-156.4152587499587
 10
110.170364013256
 20
-156.4152587499587
 10
110.1555501026695
 20
-156.4152587499587
 10
110.1448703066652
 20
-156.398377782081
 10
110.1386691347917
 20
-156.3856309287855
 10
110.1386691347917
 20
-156.3856309287855
 10
110.039105875268
 20
-156.2206108550421
 10
110.039105875268
 20
-156.2206108550421
 10
110.1407361920829
 20
-156.1889159765778
 10
110.2909423552398
 20
-156.1337944488138
 10
110.4897243647387
 20
-155.9708414323615
 10
110.4897243647387
 20
-155.9708414323615
 10
110.5469129497938
 20
-156.144474244818
 10
110.5469129497938
 20
-156.144474244818
 10
110.4538953716921
 20
-156.2268120269155
 10
110.3650119081726
 20
-156.2840006119707
 10
110.2148057450158
 20
-156.3580701649036
 97
        0
 97
        0
 92
        1
 93
        1
 72
     4
 94
        3
 73
     0
 74
     1
 95
       17
 96
       13
 40
0.0
 40
0.0
 40
0.0
 40
0.0
 40
1.0
 40
1.0
 40
1.0
 40
2.0
 40
2.0
 40
2.0
 40
3.0
 40
3.0
 40
3.0
 40
4.0
 40
4.0
 40
4.0
 40
4.0
 10
110.3670789654638
 20
-155.8926377648463
 10
110.3374511442906
 20
-155.8526746572174
 10
110.2695827632312
 20
-155.7551784549848
 10
110.08768172161
 20
-155.6452799090054
 10
110.08768172161
 20
-155.6452799090054
 10
110.2148057450158
 20
-155.5119547137262
 10
110.2148057450158
 20
-155.5119547137262
 10
110.4008409012192
 20
-155.6135850305411
 10
110.4580294862744
 20
-155.7024684940605
 10
110.4855902501564
 20
-155.7444986589805
 10
110.4855902501564
 20
-155.7444986589805
 10
110.3670789654638
 20
-155.8926377648463
 10
110.3670789654638
 20
-155.8926377648463
 97
        0
 97
        0
 92
        1
 93
        1
 72
     4
 94
        3
 73
     0
 74
     1
 95
       38
 96
       34
 40
0.0
 40
0.0
 40
0.0
 40
0.0
 40
1.0
 40
1.0
 40
1.0
 40
2.0
 40
2.0
 40
2.0
 40
3.0
 40
3.0
 40
3.0
 40
4.0
 40
4.0
 40
4.0
 40
5.0
 40
5.0
 40
5.0
 40
6.0
 40
6.0
 40
6.0
 40
7.0
 40
7.0
 40
7.0
 40
8.0
 40
8.0
 40
8.0
 40
9.0
 40
9.0
 40
9.0
 40
10.0
 40
10.0
 40
10.0
 40
11.0
 40
11.0
 40
11.0
 40
11.0
 10
110.7350151632885
 20
-155.5880913239502
 10
110.7329481059973
 20
-155.6346001130011
 10
110.7308810487062
 20
-155.7510443404025
 10
110.7308810487062
 20
-155.7954860721622
 10
110.7308810487062
 20
-155.7954860721622
 10
110.7308810487062
 20
-156.1424071875269
 10
110.7308810487062
 20
-156.1424071875269
 10
110.7308810487062
 20
-156.2292235937552
 10
110.7329481059973
 20
-156.370817018199
 10
110.7436279020016
 20
-156.4913953601827
 10
110.7436279020016
 20
-156.4913953601827
 10
110.5531141216673
 20
-156.4913953601827
 10
110.5531141216673
 20
-156.4913953601827
 10
110.5575927457981
 20
-156.4280056032541
 10
110.5617268603804
 20
-156.3749511327813
 10
110.5637939176716
 20
-156.3201741145658
 10
110.5658609749627
 20
-156.1971842057424
 10
110.5679280322539
 20
-156.1823702951558
 10
110.5679280322539
 20
-156.1379285633961
 10
110.5679280322539
 20
-156.1379285633961
 10
110.5679280322539
 20
-155.8165011546223
 10
110.5679280322539
 20
-155.8165011546223
 10
110.5679280322539
 20
-155.7613796268583
 10
110.5551811789584
 20
-155.5226345097305
 10
110.5531141216673
 20
-155.4716470965488
 10
110.5531141216673
 20
-155.4716470965488
 10
110.7543076980059
 20
-155.4992078604308
 10
110.7543076980059
 20
-155.4992078604308
 10
110.7753227804659
 20
-155.5012749177219
 10
110.8070176589302
 20
-155.5054090323042
 10
110.8070176589302
 20
-155.5309027388951
 10
110.8070176589302
 20
-155.558463502777
 10
110.756374755297
 20
-155.5794785852371
 10
110.7350151632885
 20
-155.5880913239502
 97
        0
 97
        0
 92
        1
 93
        1
 72
     4
 94
        3
 73
     0
 74
     1
 95
       83
 96
       79
 40
0.0
 40
0.0
 40
0.0
 40
0.0
 40
1.0
 40
1.0
 40
1.0
 40
2.0
 40
2.0
 40
2.0
 40
3.0
 40
3.0
 40
3.0
 40
4.0
 40
4.0
 40
4.0
 40
5.0
 40
5.0
 40
5.0
 40
6.0
 40
6.0
 40
6.0
 40
7.0
 40
7.0
 40
7.0
 40
8.0
 40
8.0
 40
8.0
 40
9.0
 40
9.0
 40
9.0
 40
10.0
 40
10.0
 40
10.0
 40
11.0
 40
11.0
 40
11.0
 40
12.0
 40
12.0
 40
12.0
 40
13.0
 40
13.0
 40
13.0
 40
14.0
 40
14.0
 40
14.0
 40
15.0
 40
15.0
 40
15.0
 40
16.0
 40
16.0
 40
16.0
 40
17.0
 40
17.0
 40
17.0
 40
18.0
 40
18.0
 40
18.0
 40
19.0
 40
19.0
 40
19.0
 40
20.0
 40
20.0
 40
20.0
 40
21.0
 40
21.0
 40
21.0
 40
22.0
 40
22.0
 40
22.0
 40
23.0
 40
23.0
 40
23.0
 40
24.0
 40
24.0
 40
24.0
 40
25.0
 40
25.0
 40
25.0
 40
26.0
 40
26.0
 40
26.0
 40
26.0
 10
111.5370333922546
 20
-155.909518732724
 10
111.5370333922546
 20
-155.909518732724
 10
111.4395371900221
 20
-155.909518732724
 10
111.4395371900221
 20
-155.909518732724
 10
111.4395371900221
 20
-155.909518732724
 10
111.4395371900221
 20
-156.1572210981135
 10
111.4395371900221
 20
-156.1572210981135
 10
111.4395371900221
 20
-156.1572210981135
 10
111.5222194816681
 20
-156.1572210981135
 10
111.5222194816681
 20
-156.1572210981135
 10
111.5876762958878
 20
-156.1572210981135
 10
111.7272026630404
 20
-156.1527424739826
 10
111.8267659225641
 20
-156.144474244818
 10
111.8267659225641
 20
-156.144474244818
 10
111.8267659225641
 20
-156.3243082291481
 10
111.8267659225641
 20
-156.3243082291481
 10
111.7337483444624
 20
-156.315695490435
 10
111.5835421813055
 20
-156.3115613758527
 10
111.5222194816681
 20
-156.3115613758527
 10
111.5222194816681
 20
-156.3115613758527
 10
111.2173285312234
 20
-156.3115613758527
 10
111.2173285312234
 20
-156.3115613758527
 10
111.1646185702991
 20
-156.3115613758527
 10
111.0185465217245
 20
-156.315695490435
 10
110.9127820903274
 20
-156.3243082291481
 10
110.9127820903274
 20
-156.3243082291481
 10
110.9127820903274
 20
-156.144474244818
 10
110.9127820903274
 20
-156.144474244818
 10
111.0123453498511
 20
-156.1527424739826
 10
111.1518717170037
 20
-156.1572210981135
 10
111.2173285312234
 20
-156.1572210981135
 10
111.2173285312234
 20
-156.1572210981135
 10
111.2617702629832
 20
-156.1572210981135
 10
111.2617702629832
 20
-156.1572210981135
 10
111.2617702629832
 20
-156.1572210981135
 10
111.2617702629832
 20
-155.909518732724
 10
111.2617702629832
 20
-155.909518732724
 10
111.2617702629832
 20
-155.909518732724
 10
111.1880452195988
 20
-155.909518732724
 10
111.1880452195988
 20
-155.909518732724
 10
111.1263780104129
 20
-155.909518732724
 10
110.9592908793782
 20
-155.9139973568548
 10
110.8387125373945
 20
-155.9222655860194
 10
110.8387125373945
 20
-155.9222655860194
 10
110.8387125373945
 20
-155.7444986589805
 10
110.8387125373945
 20
-155.7444986589805
 10
110.9530897075048
 20
-155.7510443404025
 10
111.1115640998263
 20
-155.7551784549848
 10
111.1880452195988
 20
-155.7551784549848
 10
111.1880452195988
 20
-155.7551784549848
 10
111.259703205692
 20
-155.7551784549848
 10
111.259703205692
 20
-155.7551784549848
 10
111.2555690911097
 20
-155.6029052345368
 10
111.2535020338186
 20
-155.5691432987813
 10
111.2469563523966
 20
-155.475781211131
 10
111.2469563523966
 20
-155.475781211131
 10
111.4588297247395
 20
-155.4992078604308
 10
111.4588297247395
 20
-155.4992078604308
 10
111.4839789217818
 20
-155.5012749177219
 10
111.5074055710815
 20
-155.5054090323042
 10
111.5074055710815
 20
-155.5288356816039
 10
111.5074055710815
 20
-155.5605305600682
 10
111.4629638393218
 20
-155.5774115279459
 10
111.4395371900221
 20
-155.5860242666591
 10
111.4395371900221
 20
-155.5860242666591
 10
111.4395371900221
 20
-155.7551784549848
 10
111.4395371900221
 20
-155.7551784549848
 10
111.4395371900221
 20
-155.7551784549848
 10
111.5370333922546
 20
-155.7551784549848
 10
111.5370333922546
 20
-155.7551784549848
 10
111.6131700024787
 20
-155.7551784549848
 10
111.7716443948001
 20
-155.7510443404025
 10
111.8880886222016
 20
-155.7444986589805
 10
111.8880886222016
 20
-155.7444986589805
 10
111.8880886222016
 20
-155.9222655860194
 10
111.8880886222016
 20
-155.9222655860194
 10
111.7802571335133
 20
-155.916064414146
 10
111.6066243210567
 20
-155.909518732724
 10
111.5370333922546
 20
-155.909518732724
 97
        0
 97
        0
 92
        1
 93
        1
 72
     4
 94
        3
 73
     0
 74
     1
 95
       17
 96
       13
 40
0.0
 40
0.0
 40
0.0
 40
0.0
 40
1.0
 40
1.0
 40
1.0
 40
2.0
 40
2.0
 40
2.0
 40
3.0
 40
3.0
 40
3.0
 40
4.0
 40
4.0
 40
4.0
 40
4.0
 10
111.2913980841563
 20
-156.7070583375593
 10
111.2913980841563
 20
-156.7070583375593
 10
111.0884819600751
 20
-156.7070583375593
 10
111.0884819600751
 20
-156.7070583375593
 10
111.1160427239571
 20
-156.7663139799056
 10
111.1708197421726
 20
-156.8383164755474
 10
111.1983805060546
 20
-156.8679442967205
 10
111.2259412699366
 20
-156.853130386134
 10
111.3403184400469
 20
-156.7897406292053
 10
111.4312689608575
 20
-156.7070583375593
 10
111.4312689608575
 20
-156.7070583375593
 10
111.2913980841563
 20
-156.7070583375593
 10
111.2913980841563
 20
-156.7070583375593
 97
        0
 97
        0
 75
     2
 76
     1
 98
        0
  0
SPLINE
  5
B6
330
A3
100
AcDbEntity
  8
_U+30EC_U+30A4_U+30E4_U+30FC 1
370
     0
100
AcDbSpline
210
0.0
220
0.0
230
1.0
 70
    11
 71
     3
 72
    77
 73
    73
 74
     0
 42
0.0000000001
 43
0.0000000001
 12
1.0
 22
0.0
 32
0.0
 13
1.0
 23
0.0
 33
0.0
 40
0.0
 40
0.0
 40
0.0
 40
0.0
 40
1.0
 40
1.0
 40
1.0
 40
2.0
 40
2.0
 40
2.0
 40
3.0
 40
3.0
 40
3.0
 40
4.0
 40
4.0
 40
4.0
 40
5.0
 40
5.0
 40
5.0
 40
6.0
 40
6.0
 40
6.0
 40
7.0
 40
7.0
 40
7.0
 40
8.0
 40
8.0
 40
8.0
 40
9.0
 40
9.0
 40
9.0
 40
10.0
 40
10.0
 40
10.0
 40
11.0
 40
11.0
 40
11.0
 40
12.0
 40
12.0
 40
12.0
 40
13.0
 40
13.0
 40
13.0
 40
14.0
 40
14.0
 40
14.0
 40
15.0
 40
15.0
 40
15.0
 40
16.0
 40
16.0
 40
16.0
 40
17.0
 40
17.0
 40
17.0
 40
18.0
 40
18.0
 40
18.0
 40
19.0
 40
19.0
 40
19.0
 40
20.0
 40
20.0
 40
20.0
 40
21.0
 40
21.0
 40
21.0
 40
22.0
 40
22.0
 40
22.0
 40
23.0
 40
23.0
 40
23.0
 40
24.0
 40
24.0
 40
24.0
 40
24.0
 10
113.7825466295405
 20
-157.3375108113601
 30
0.0
 10
113.7360378404896
 20
-157.3630045179509
 30
0.0
 10
113.6113253839236
 20
-157.3757513712463
 30
0.0
 10
113.5327772068599
 20
-157.3757513712463
 30
0.0
 10
113.520374863113
 20
-157.3757513712463
 30
0.0
 10
113.4948811565221
 20
-157.3757513712463
 30
0.0
 10
113.4611192207667
 20
-157.3712727471155
 30
0.0
 10
113.4611192207667
 20
-157.3712727471155
 30
0.0
 10
113.3636230185341
 20
-157.1449299737346
 30
0.0
 10
113.3636230185341
 20
-157.1449299737346
 30
0.0
 10
113.3932508397072
 20
-157.1514756551566
 30
0.0
 10
113.4504394247624
 20
-157.1597438843212
 30
0.0
 10
113.5668836521638
 20
-157.1597438843212
 30
0.0
 10
113.645087319679
 20
-157.1597438843212
 30
0.0
 10
113.6471543769702
 20
-157.1177137194011
 30
0.0
 10
113.6471543769702
 20
-157.060525134346
 30
0.0
 10
113.6471543769702
 20
-157.060525134346
 30
0.0
 10
113.6471543769702
 20
-156.7115369616902
 30
0.0
 10
113.6471543769702
 20
-156.7115369616902
 30
0.0
 10
113.6471543769702
 20
-156.7115369616902
 30
0.0
 10
113.1879231487864
 20
-156.7115369616902
 30
0.0
 10
113.1879231487864
 20
-156.7115369616902
 30
0.0
 10
113.190334715626
 20
-156.8489962715516
 30
0.0
 10
113.1924017729172
 20
-157.0477782810506
 30
0.0
 10
113.1986029447906
 20
-157.1811034763297
 30
0.0
 10
113.2006700020818
 20
-157.2086642402117
 30
0.0
 10
113.2006700020818
 20
-157.2531059719715
 30
0.0
 10
113.2134168553772
 20
-157.3144286716089
 30
0.0
 10
113.2134168553772
 20
-157.3144286716089
 30
0.0
 10
112.9722601714097
 20
-157.3144286716089
 30
0.0
 10
112.9722601714097
 20
-157.3144286716089
 30
0.0
 10
112.9977538780006
 20
-157.1893717054943
 30
0.0
 10
112.9977538780006
 20
-156.8489962715516
 30
0.0
 10
112.9977538780006
 20
-156.7115369616902
 30
0.0
 10
112.9977538780006
 20
-156.7115369616902
 30
0.0
 10
112.5554036176945
 20
-156.7115369616902
 30
0.0
 10
112.5554036176945
 20
-156.7115369616902
 30
0.0
 10
112.5323214779433
 20
-156.9185872003537
 30
0.0
 10
112.4668646637236
 20
-157.1873046482032
 30
0.0
 10
112.2698052019673
 20
-157.3712727471155
 30
0.0
 10
112.2698052019673
 20
-157.3712727471155
 30
0.0
 10
112.0817029884726
 20
-157.2486273478406
 30
0.0
 10
112.0817029884726
 20
-157.2486273478406
 30
0.0
 10
112.3356065257355
 20
-157.0288302558817
 30
0.0
 10
112.3673014041998
 20
-156.6967230511036
 30
0.0
 10
112.3673014041998
 20
-156.3646158463255
 30
0.0
 10
112.3673014041998
 20
-156.3646158463255
 30
0.0
 10
112.3673014041998
 20
-155.9288112674414
 30
0.0
 10
112.3673014041998
 20
-155.9288112674414
 30
0.0
 10
112.3673014041998
 20
-155.8926377648463
 30
0.0
 10
112.3652343469087
 20
-155.6600938195919
 30
0.0
 10
112.3566216081956
 20
-155.558463502777
 30
0.0
 10
112.4964924848967
 20
-155.5691432987813
 30
0.0
 10
112.7376491688642
 20
-155.5691432987813
 30
0.0
 10
112.8813096505991
 20
-155.5691432987813
 30
0.0
 10
112.8813096505991
 20
-155.5691432987813
 30
0.0
 10
113.3405408787829
 20
-155.5691432987813
 30
0.0
 10
113.3405408787829
 20
-155.5691432987813
 30
0.0
 10
113.3553547893695
 20
-155.5691432987813
 30
0.0
 10
113.7043429620253
 20
-155.5691432987813
 30
0.0
 10
113.8628173543468
 20
-155.558463502777
 30
0.0
 10
113.8607502970556
 20
-155.6111734637014
 30
0.0
 10
113.8545491251822
 20
-155.7720594228626
 30
0.0
 10
113.8545491251822
 20
-155.8230468360443
 30
0.0
 10
113.8545491251822
 20
-155.8230468360443
 30
0.0
 10
113.8545491251822
 20
-156.4300726605453
 30
0.0
 10
113.8545491251822
 20
-156.4300726605453
 30
0.0
 10
113.8545491251822
 20
-156.4490206857141
 30
0.0
 10
113.8648844116379
 20
-157.0202175171686
 30
0.0
 10
113.8648844116379
 20
-157.1325276299877
 30
0.0
 10
113.8648844116379
 20
-157.1893717054943
 30
0.0
 10
113.8648844116379
 20
-157.2910020223092
 30
0.0
 10
113.7825466295405
 20
-157.3375108113601
 30
0.0
  0
POLYLINE
  5
B7
330
A3
100
AcDbEntity
  8
_U+30EC_U+30A4_U+30E4_U+30FC 1
370
     0
100
AcDb2dPolyline
 66
     1
 10
0.0
 20
0.0
 30
0.0
  0
VERTEX
  5
B8
330
B7
100
AcDbEntity
  8
_U+30EC_U+30A4_U+30E4_U+30FC 1
370
     0
100
AcDbVertex
100
AcDb2dVertex
 10
112.9977538780006
 20
-155.7510443404025
 30
0.0
  0
VERTEX
  5
B9
330
B7
100
AcDbEntity
  8
_U+30EC_U+30A4_U+30E4_U+30FC 1
370
     0
100
AcDbVertex
100
AcDb2dVertex
 10
112.5598822418253
 20
-155.7510443404025
 30
0.0
  0
VERTEX
  5
BA
330
B7
100
AcDbEntity
  8
_U+30EC_U+30A4_U+30E4_U+30FC 1
370
     0
100
AcDbVertex
100
AcDb2dVertex
 10
112.5598822418253
 20
-156.0555907812986
 30
0.0
  0
VERTEX
  5
BB
330
B7
100
AcDbEntity
  8
_U+30EC_U+30A4_U+30E4_U+30FC 1
370
     0
100
AcDbVertex
100
AcDb2dVertex
 10
112.9977538780006
 20
-156.0555907812986
 30
0.0
  0
VERTEX
  5
BC
330
B7
100
AcDbEntity
  8
_U+30EC_U+30A4_U+30E4_U+30FC 1
370
     0
100
AcDbVertex
100
AcDb2dVertex
 10
112.9977538780006
 20
-155.7510443404025
 30
0.0
  0
SEQEND
  5
BD
330
B7
100
AcDbEntity
  8
_U+30EC_U+30A4_U+30E4_U+30FC 1
370
     0
  0
POLYLINE
  5
BE
330
A3
100
AcDbEntity
  8
_U+30EC_U+30A4_U+30E4_U+30FC 1
370
     0
100
AcDb2dPolyline
 66
     1
 10
0.0
 20
0.0
 30
0.0
  0
VERTEX
  5
BF
330
BE
100
AcDbEntity
  8
_U+30EC_U+30A4_U+30E4_U+30FC 1
370
     0
100
AcDbVertex
100
AcDb2dVertex
 10
112.9977538780006
 20
-156.2226779123332
 30
0.0
  0
VERTEX
  5
C0
330
BE
100
AcDbEntity
  8
_U+30EC_U+30A4_U+30E4_U+30FC 1
370
     0
100
AcDbVertex
100
AcDb2dVertex
 10
112.5598822418253
 20
-156.2226779123332
 30
0.0
  0
VERTEX
  5
C1
330
BE
100
AcDbEntity
  8
_U+30EC_U+30A4_U+30E4_U+30FC 1
370
     0
100
AcDbVertex
100
AcDb2dVertex
 10
112.5598822418253
 20
-156.5317029773601
 30
0.0
  0
VERTEX
  5
C2
330
BE
100
AcDbEntity
  8
_U+30EC_U+30A4_U+30E4_U+30FC 1
370
     0
100
AcDbVertex
100
AcDb2dVertex
 10
112.9977538780006
 20
-156.5317029773601
 30
0.0
  0
VERTEX
  5
C3
330
BE
100
AcDbEntity
  8
_U+30EC_U+30A4_U+30E4_U+30FC 1
370
     0
100
AcDbVertex
100
AcDb2dVertex
 10
112.9977538780006
 20
-156.2226779123332
 30
0.0
  0
SEQEND
  5
C4
330
BE
100
AcDbEntity
  8
_U+30EC_U+30A4_U+30E4_U+30FC 1
370
     0
  0
POLYLINE
  5
C5
330
A3
100
AcDbEntity
  8
_U+30EC_U+30A4_U+30E4_U+30FC 1
370
     0
100
AcDb2dPolyline
 66
     1
 10
0.0
 20
0.0
 30
0.0
  0
VERTEX
  5
C6
330
C5
100
AcDbEntity
  8
_U+30EC_U+30A4_U+30E4_U+30FC 1
370
     0
100
AcDbVertex
100
AcDb2dVertex
 10
113.6471543769702
 20
-155.7510443404025
 30
0.0
  0
VERTEX
  5
C7
330
C5
100
AcDbEntity
  8
_U+30EC_U+30A4_U+30E4_U+30FC 1
370
     0
100
AcDbVertex
100
AcDb2dVertex
 10
113.1879231487864
 20
-155.7510443404025
 30
0.0
  0
VERTEX
  5
C8
330
C5
100
AcDbEntity
  8
_U+30EC_U+30A4_U+30E4_U+30FC 1
370
     0
100
AcDbVertex
100
AcDb2dVertex
 10
113.1879231487864
 20
-156.0555907812986
 30
0.0
  0
VERTEX
  5
C9
330
C5
100
AcDbEntity
  8
_U+30EC_U+30A4_U+30E4_U+30FC 1
370
     0
100
AcDbVertex
100
AcDb2dVertex
 10
113.6471543769702
 20
-156.0555907812986
 30
0.0
  0
VERTEX
  5
CA
330
C5
100
AcDbEntity
  8
_U+30EC_U+30A4_U+30E4_U+30FC 1
370
     0
100
AcDbVertex
100
AcDb2dVertex
 10
113.6471543769702
 20
-155.7510443404025
 30
0.0
  0
SEQEND
  5
CB
330
C5
100
AcDbEntity
  8
_U+30EC_U+30A4_U+30E4_U+30FC 1
370
     0
  0
POLYLINE
  5
CC
330
A3
100
AcDbEntity
  8
_U+30EC_U+30A4_U+30E4_U+30FC 1
370
     0
100
AcDb2dPolyline
 66
     1
 10
0.0
 20
0.0
 30
0.0
  0
VERTEX
  5
CD
330
CC
100
AcDbEntity
  8
_U+30EC_U+30A4_U+30E4_U+30FC 1
370
     0
100
AcDbVertex
100
AcDb2dVertex
 10
113.6471543769702
 20
-156.2226779123332
 30
0.0
  0
VERTEX
  5
CE
330
CC
100
AcDbEntity
  8
_U+30EC_U+30A4_U+30E4_U+30FC 1
370
     0
100
AcDbVertex
100
AcDb2dVertex
 10
113.1879231487864
 20
-156.2226779123332
 30
0.0
  0
VERTEX
  5
CF
330
CC
100
AcDbEntity
  8
_U+30EC_U+30A4_U+30E4_U+30FC 1
370
     0
100
AcDbVertex
100
AcDb2dVertex
 10
113.1879231487864
 20
-156.5317029773601
 30
0.0
  0
VERTEX
  5
D0
330
CC
100
AcDbEntity
  8
_U+30EC_U+30A4_U+30E4_U+30FC 1
370
     0
100
AcDbVertex
100
AcDb2dVertex
 10
113.6471543769702
 20
-156.5317029773601
 30
0.0
  0
VERTEX
  5
D1
330
CC
100
AcDbEntity
  8
_U+30EC_U+30A4_U+30E4_U+30FC 1
370
     0
100
AcDbVertex
100
AcDb2dVertex
 10
113.6471543769702
 20
-156.2226779123332
 30
0.0
  0
SEQEND
  5
D2
330
CC
100
AcDbEntity
  8
_U+30EC_U+30A4_U+30E4_U+30FC 1
370
     0
  0
HATCH
  5
D3
330
A3
100
AcDbEntity
  8
_U+30EC_U+30A4_U+30E4_U+30FC 1
 62
   179
420
  2234388
100
AcDbHatch
 10
0.0
 20
0.0
 30
0.0
210
0.0
220
0.0
230
1.0
  2
SOLID
 70
     1
 71
     0
 91
        5
 92
        1
 93
        1
 72
     4
 94
        3
 73
     0
 74
     1
 95
       77
 96
       73
 40
0.0
 40
0.0
 40
0.0
 40
0.0
 40
1.0
 40
1.0
 40
1.0
 40
2.0
 40
2.0
 40
2.0
 40
3.0
 40
3.0
 40
3.0
 40
4.0
 40
4.0
 40
4.0
 40
5.0
 40
5.0
 40
5.0
 40
6.0
 40
6.0
 40
6.0
 40
7.0
 40
7.0
 40
7.0
 40
8.0
 40
8.0
 40
8.0
 40
9.0
 40
9.0
 40
9.0
 40
10.0
 40
10.0
 40
10.0
 40
11.0
 40
11.0
 40
11.0
 40
12.0
 40
12.0
 40
12.0
 40
13.0
 40
13.0
 40
13.0
 40
14.0
 40
14.0
 40
14.0
 40
15.0
 40
15.0
 40
15.0
 40
16.0
 40
16.0
 40
16.0
 40
17.0
 40
17.0
 40
17.0
 40
18.0
 40
18.0
 40
18.0
 40
19.0
 40
19.0
 40
19.0
 40
20.0
 40
20.0
 40
20.0
 40
21.0
 40
21.0
 40
21.0
 40
22.0
 40
22.0
 40
22.0
 40
23.0
 40
23.0
 40
23.0
 40
24.0
 40
24.0
 40
24.0
 40
24.0
 10
113.7825466295405
 20
-157.3375108113601
 10
113.7360378404896
 20
-157.3630045179509
 10
113.6113253839236
 20
-157.3757513712463
 10
113.5327772068599
 20
-157.3757513712463
 10
113.520374863113
 20
-157.3757513712463
 10
113.4948811565221
 20
-157.3757513712463
 10
113.4611192207667
 20
-157.3712727471155
 10
113.4611192207667
 20
-157.3712727471155
 10
113.3636230185341
 20
-157.1449299737346
 10
113.3636230185341
 20
-157.1449299737346
 10
113.3932508397072
 20
-157.1514756551566
 10
113.4504394247624
 20
-157.1597438843212
 10
113.5668836521638
 20
-157.1597438843212
 10
113.645087319679
 20
-157.1597438843212
 10
113.6471543769702
 20
-157.1177137194011
 10
113.6471543769702
 20
-157.060525134346
 10
113.6471543769702
 20
-157.060525134346
 10
113.6471543769702
 20
-156.7115369616902
 10
113.6471543769702
 20
-156.7115369616902
 10
113.6471543769702
 20
-156.7115369616902
 10
113.1879231487864
 20
-156.7115369616902
 10
113.1879231487864
 20
-156.7115369616902
 10
113.190334715626
 20
-156.8489962715516
 10
113.1924017729172
 20
-157.0477782810506
 10
113.1986029447906
 20
-157.1811034763297
 10
113.2006700020818
 20
-157.2086642402117
 10
113.2006700020818
 20
-157.2531059719715
 10
113.2134168553772
 20
-157.3144286716089
 10
113.2134168553772
 20
-157.3144286716089
 10
112.9722601714097
 20
-157.3144286716089
 10
112.9722601714097
 20
-157.3144286716089
 10
112.9977538780006
 20
-157.1893717054943
 10
112.9977538780006
 20
-156.8489962715516
 10
112.9977538780006
 20
-156.7115369616902
 10
112.9977538780006
 20
-156.7115369616902
 10
112.5554036176945
 20
-156.7115369616902
 10
112.5554036176945
 20
-156.7115369616902
 10
112.5323214779433
 20
-156.9185872003537
 10
112.4668646637236
 20
-157.1873046482032
 10
112.2698052019673
 20
-157.3712727471155
 10
112.2698052019673
 20
-157.3712727471155
 10
112.0817029884726
 20
-157.2486273478406
 10
112.0817029884726
 20
-157.2486273478406
 10
112.3356065257355
 20
-157.0288302558817
 10
112.3673014041998
 20
-156.6967230511036
 10
112.3673014041998
 20
-156.3646158463255
 10
112.3673014041998
 20
-156.3646158463255
 10
112.3673014041998
 20
-155.9288112674414
 10
112.3673014041998
 20
-155.9288112674414
 10
112.3673014041998
 20
-155.8926377648463
 10
112.3652343469087
 20
-155.6600938195919
 10
112.3566216081956
 20
-155.558463502777
 10
112.4964924848967
 20
-155.5691432987813
 10
112.7376491688642
 20
-155.5691432987813
 10
112.8813096505991
 20
-155.5691432987813
 10
112.8813096505991
 20
-155.5691432987813
 10
113.3405408787829
 20
-155.5691432987813
 10
113.3405408787829
 20
-155.5691432987813
 10
113.3553547893695
 20
-155.5691432987813
 10
113.7043429620253
 20
-155.5691432987813
 10
113.8628173543468
 20
-155.558463502777
 10
113.8607502970556
 20
-155.6111734637014
 10
113.8545491251822
 20
-155.7720594228626
 10
113.8545491251822
 20
-155.8230468360443
 10
113.8545491251822
 20
-155.8230468360443
 10
113.8545491251822
 20
-156.4300726605453
 10
113.8545491251822
 20
-156.4300726605453
 10
113.8545491251822
 20
-156.4490206857141
 10
113.8648844116379
 20
-157.0202175171686
 10
113.8648844116379
 20
-157.1325276299877
 10
113.8648844116379
 20
-157.1893717054943
 10
113.8648844116379
 20
-157.2910020223092
 10
113.7825466295405
 20
-157.3375108113601
 97
        0
 97
        0
 92
        1
 93
        4
 72
     1
 10
112.9977538780006
 20
-155.7510443404025
 11
112.5598822418253
 21
-155.7510443404025
 72
     1
 10
112.5598822418253
 20
-155.7510443404025
 11
112.5598822418253
 21
-156.0555907812986
 72
     1
 10
112.5598822418253
 20
-156.0555907812986
 11
112.9977538780006
 21
-156.0555907812986
 72
     1
 10
112.9977538780006
 20
-156.0555907812986
 11
112.9977538780006
 21
-155.7510443404025
 97
        0
 92
        1
 93
        4
 72
     1
 10
112.9977538780006
 20
-156.2226779123332
 11
112.5598822418253
 21
-156.2226779123332
 72
     1
 10
112.5598822418253
 20
-156.2226779123332
 11
112.5598822418253
 21
-156.5317029773601
 72
     1
 10
112.5598822418253
 20
-156.5317029773601
 11
112.9977538780006
 21
-156.5317029773601
 72
     1
 10
112.9977538780006
 20
-156.5317029773601
 11
112.9977538780006
 21
-156.2226779123332
 97
        0
 92
        1
 93
        4
 72
     1
 10
113.6471543769702
 20
-155.7510443404025
 11
113.1879231487864
 21
-155.7510443404025
 72
     1
 10
113.1879231487864
 20
-155.7510443404025
 11
113.1879231487864
 21
-156.0555907812986
 72
     1
 10
113.1879231487864
 20
-156.0555907812986
 11
113.6471543769702
 21
-156.0555907812986
 72
     1
 10
113.6471543769702
 20
-156.0555907812986
 11
113.6471543769702
 21
-155.7510443404025
 97
        0
 92
        1
 93
        4
 72
     1
 10
113.6471543769702
 20
-156.2226779123332
 11
113.1879231487864
 21
-156.2226779123332
 72
     1
 10
113.1879231487864
 20
-156.2226779123332
 11
113.1879231487864
 21
-156.5317029773601
 72
     1
 10
113.1879231487864
 20
-156.5317029773601
 11
113.6471543769702
 21
-156.5317029773601
 72
     1
 10
113.6471543769702
 20
-156.5317029773601
 11
113.6471543769702
 21
-156.2226779123332
 97
        0
 75
     2
 76
     1
 98
        0
  0
SPLINE
  5
D4
330
A3
100
AcDbEntity
  8
_U+30EC_U+30A4_U+30E4_U+30FC 1
370
     0
100
AcDbSpline
210
0.0
220
0.0
230
1.0
 70
    11
 71
     3
 72
    44
 73
    40
 74
     0
 42
0.0000000001
 43
0.0000000001
 12
1.0
 22
0.0
 32
0.0
 13
1.0
 23
0.0
 33
0.0
 40
0.0
 40
0.0
 40
0.0
 40
0.0
 40
1.0
 40
1.0
 40
1.0
 40
2.0
 40
2.0
 40
2.0
 40
3.0
 40
3.0
 40
3.0
 40
4.0
 40
4.0
 40
4.0
 40
5.0
 40
5.0
 40
5.0
 40
6.0
 40
6.0
 40
6.0
 40
7.0
 40
7.0
 40
7.0
 40
8.0
 40
8.0
 40
8.0
 40
9.0
 40
9.0
 40
9.0
 40
10.0
 40
10.0
 40
10.0
 40
11.0
 40
11.0
 40
11.0
 40
12.0
 40
12.0
 40
12.0
 40
13.0
 40
13.0
 40
13.0
 40
13.0
 10
109.3311387530492
 20
-158.6273545610376
 30
0.0
 10
109.2191731497785
 20
-158.9956352684108
 30
0.0
 10
109.1685302461454
 20
-159.1541096607323
 30
0.0
 10
108.9718152939376
 20
-159.4038790834129
 30
0.0
 10
108.7875026854767
 20
-159.6343559713762
 30
0.0
 10
108.5508246256401
 20
-159.8203911275796
 30
0.0
 10
108.2714273817863
 20
-159.9137532152299
 30
0.0
 10
108.2714273817863
 20
-159.9137532152299
 30
0.0
 10
108.0788465441609
 20
-159.7339192308999
 30
0.0
 10
108.0788465441609
 20
-159.7339192308999
 30
0.0
 10
108.7199788139658
 20
-159.5816460104518
 30
0.0
 10
109.0500189614528
 20
-159.025263089584
 30
0.0
 10
109.1134087183814
 20
-158.584979886569
 30
0.0
 10
109.1134087183814
 20
-158.584979886569
 30
0.0
 10
108.3475639920103
 20
-158.584979886569
 30
0.0
 10
108.3475639920103
 20
-158.584979886569
 30
0.0
 10
108.2545464139086
 20
-158.584979886569
 30
0.0
 10
108.0705783149963
 20
-158.5894585106999
 30
0.0
 10
107.9138264704174
 20
-158.6084065358687
 30
0.0
 10
107.9138264704174
 20
-158.6084065358687
 30
0.0
 10
107.9138264704174
 20
-158.3882649343613
 30
0.0
 10
107.9138264704174
 20
-158.3882649343613
 30
0.0
 10
108.0006428766457
 20
-158.4096245263698
 30
0.0
 10
108.2524793566174
 20
-158.4096245263698
 30
0.0
 10
108.3516981065926
 20
-158.4096245263698
 30
0.0
 10
108.3516981065926
 20
-158.4096245263698
 30
0.0
 10
108.7833685708944
 20
-158.4096245263698
 30
0.0
 10
108.7833685708944
 20
-158.4096245263698
 30
0.0
 10
108.825743245363
 20
-158.4096245263698
 30
0.0
 10
109.0603542479085
 20
-158.4072129595301
 30
0.0
 10
109.0985948077948
 20
-158.4010117876567
 30
0.0
 10
109.1409694822634
 20
-158.3948106157833
 30
0.0
 10
109.1430365395545
 20
-158.3927435584921
 30
0.0
 10
109.204359239192
 20
-158.3524359413147
 30
0.0
 10
109.204359239192
 20
-158.3524359413147
 30
0.0
 10
109.3924614526866
 20
-158.5067762190539
 30
0.0
 10
109.3924614526866
 20
-158.5067762190539
 30
0.0
 10
109.363178141062
 20
-158.536404040227
 30
0.0
 10
109.3483642304754
 20
-158.5680989186913
 30
0.0
 10
109.3311387530492
 20
-158.6273545610376
 30
0.0
  0
SPLINE
  5
D5
330
A3
100
AcDbEntity
  8
_U+30EC_U+30A4_U+30E4_U+30FC 1
370
     0
100
AcDbSpline
210
0.0
220
0.0
230
1.0
 70
    11
 71
     3
 72
    17
 73
    13
 74
     0
 42
0.0000000001
 43
0.0000000001
 12
1.0
 22
0.0
 32
0.0
 13
1.0
 23
0.0
 33
0.0
 40
0.0
 40
0.0
 40
0.0
 40
0.0
 40
1.0
 40
1.0
 40
1.0
 40
2.0
 40
2.0
 40
2.0
 40
3.0
 40
3.0
 40
3.0
 40
4.0
 40
4.0
 40
4.0
 40
4.0
 10
109.5406005585524
 20
-158.4285725515387
 30
0.0
 10
109.4138210446952
 20
-158.4285725515387
 30
0.0
 10
109.3121907278803
 20
-158.3269422347238
 30
0.0
 10
109.3121907278803
 20
-158.2001627208666
 30
0.0
 10
109.3121907278803
 20
-158.0730386974609
 30
0.0
 10
109.4138210446952
 20
-157.9693413233549
 30
0.0
 10
109.5406005585524
 20
-157.9693413233549
 30
0.0
 10
109.6677245819581
 20
-157.9693413233549
 30
0.0
 10
109.7714219560641
 20
-158.0730386974609
 30
0.0
 10
109.7714219560641
 20
-158.2001627208666
 30
0.0
 10
109.7714219560641
 20
-158.3269422347238
 30
0.0
 10
109.6677245819581
 20
-158.4285725515387
 30
0.0
 10
109.5406005585524
 20
-158.4285725515387
 30
0.0
  0
SPLINE
  5
D6
330
A3
100
AcDbEntity
  8
_U+30EC_U+30A4_U+30E4_U+30FC 1
370
     0
100
AcDbSpline
210
0.0
220
0.0
230
1.0
 70
    11
 71
     3
 72
    17
 73
    13
 74
     0
 42
0.0000000001
 43
0.0000000001
 12
1.0
 22
0.0
 32
0.0
 13
1.0
 23
0.0
 33
0.0
 40
0.0
 40
0.0
 40
0.0
 40
0.0
 40
1.0
 40
1.0
 40
1.0
 40
2.0
 40
2.0
 40
2.0
 40
3.0
 40
3.0
 40
3.0
 40
4.0
 40
4.0
 40
4.0
 40
4.0
 10
109.5385335012612
 20
-158.0985324040518
 30
0.0
 10
109.4837564830457
 20
-158.0985324040518
 30
0.0
 10
109.439314751286
 20
-158.1429741358115
 30
0.0
 10
109.439314751286
 20
-158.1980956635755
 30
0.0
 10
109.439314751286
 20
-158.2549397390821
 30
0.0
 10
109.4837564830457
 20
-158.3038600949727
 30
0.0
 10
109.5426676158435
 20
-158.3038600949727
 30
0.0
 10
109.6019232581898
 20
-158.3038600949727
 30
0.0
 10
109.6422308753672
 20
-158.252872681791
 30
0.0
 10
109.6422308753672
 20
-158.2001627208666
 30
0.0
 10
109.6422308753672
 20
-158.1429741358115
 30
0.0
 10
109.5957220863164
 20
-158.0985324040518
 30
0.0
 10
109.5385335012612
 20
-158.0985324040518
 30
0.0
  0
HATCH
  5
D7
330
A3
100
AcDbEntity
  8
_U+30EC_U+30A4_U+30E4_U+30FC 1
 62
   179
420
  2234388
100
AcDbHatch
 10
0.0
 20
0.0
 30
0.0
210
0.0
220
0.0
230
1.0
  2
SOLID
 70
     1
 71
     0
 91
        3
 92
        1
 93
        1
 72
     4
 94
        3
 73
     0
 74
     1
 95
       44
 96
       40
 40
0.0
 40
0.0
 40
0.0
 40
0.0
 40
1.0
 40
1.0
 40
1.0
 40
2.0
 40
2.0
 40
2.0
 40
3.0
 40
3.0
 40
3.0
 40
4.0
 40
4.0
 40
4.0
 40
5.0
 40
5.0
 40
5.0
 40
6.0
 40
6.0
 40
6.0
 40
7.0
 40
7.0
 40
7.0
 40
8.0
 40
8.0
 40
8.0
 40
9.0
 40
9.0
 40
9.0
 40
10.0
 40
10.0
 40
10.0
 40
11.0
 40
11.0
 40
11.0
 40
12.0
 40
12.0
 40
12.0
 40
13.0
 40
13.0
 40
13.0
 40
13.0
 10
109.3311387530492
 20
-158.6273545610376
 10
109.2191731497785
 20
-158.9956352684108
 10
109.1685302461454
 20
-159.1541096607323
 10
108.9718152939376
 20
-159.4038790834129
 10
108.7875026854767
 20
-159.6343559713762
 10
108.5508246256401
 20
-159.8203911275796
 10
108.2714273817863
 20
-159.9137532152299
 10
108.2714273817863
 20
-159.9137532152299
 10
108.0788465441609
 20
-159.7339192308999
 10
108.0788465441609
 20
-159.7339192308999
 10
108.7199788139658
 20
-159.5816460104518
 10
109.0500189614528
 20
-159.025263089584
 10
109.1134087183814
 20
-158.584979886569
 10
109.1134087183814
 20
-158.584979886569
 10
108.3475639920103
 20
-158.584979886569
 10
108.3475639920103
 20
-158.584979886569
 10
108.2545464139086
 20
-158.584979886569
 10
108.0705783149963
 20
-158.5894585106999
 10
107.9138264704174
 20
-158.6084065358687
 10
107.9138264704174
 20
-158.6084065358687
 10
107.9138264704174
 20
-158.3882649343613
 10
107.9138264704174
 20
-158.3882649343613
 10
108.0006428766457
 20
-158.4096245263698
 10
108.2524793566174
 20
-158.4096245263698
 10
108.3516981065926
 20
-158.4096245263698
 10
108.3516981065926
 20
-158.4096245263698
 10
108.7833685708944
 20
-158.4096245263698
 10
108.7833685708944
 20
-158.4096245263698
 10
108.825743245363
 20
-158.4096245263698
 10
109.0603542479085
 20
-158.4072129595301
 10
109.0985948077948
 20
-158.4010117876567
 10
109.1409694822634
 20
-158.3948106157833
 10
109.1430365395545
 20
-158.3927435584921
 10
109.204359239192
 20
-158.3524359413147
 10
109.204359239192
 20
-158.3524359413147
 10
109.3924614526866
 20
-158.5067762190539
 10
109.3924614526866
 20
-158.5067762190539
 10
109.363178141062
 20
-158.536404040227
 10
109.3483642304754
 20
-158.5680989186913
 10
109.3311387530492
 20
-158.6273545610376
 97
        0
 97
        0
 92
        1
 93
        1
 72
     4
 94
        3
 73
     0
 74
     1
 95
       17
 96
       13
 40
0.0
 40
0.0
 40
0.0
 40
0.0
 40
1.0
 40
1.0
 40
1.0
 40
2.0
 40
2.0
 40
2.0
 40
3.0
 40
3.0
 40
3.0
 40
4.0
 40
4.0
 40
4.0
 40
4.0
 10
109.5406005585524
 20
-158.4285725515387
 10
109.4138210446952
 20
-158.4285725515387
 10
109.3121907278803
 20
-158.3269422347238
 10
109.3121907278803
 20
-158.2001627208666
 10
109.3121907278803
 20
-158.0730386974609
 10
109.4138210446952
 20
-157.9693413233549
 10
109.5406005585524
 20
-157.9693413233549
 10
109.6677245819581
 20
-157.9693413233549
 10
109.7714219560641
 20
-158.0730386974609
 10
109.7714219560641
 20
-158.2001627208666
 10
109.7714219560641
 20
-158.3269422347238
 10
109.6677245819581
 20
-158.4285725515387
 10
109.5406005585524
 20
-158.4285725515387
 97
        0
 97
        0
 92
        1
 93
        1
 72
     4
 94
        3
 73
     0
 74
     1
 95
       17
 96
       13
 40
0.0
 40
0.0
 40
0.0
 40
0.0
 40
1.0
 40
1.0
 40
1.0
 40
2.0
 40
2.0
 40
2.0
 40
3.0
 40
3.0
 40
3.0
 40
4.0
 40
4.0
 40
4.0
 40
4.0
 10
109.5385335012612
 20
-158.0985324040518
 10
109.4837564830457
 20
-158.0985324040518
 10
109.439314751286
 20
-158.1429741358115
 10
109.439314751286
 20
-158.1980956635755
 10
109.439314751286
 20
-158.2549397390821
 10
109.4837564830457
 20
-158.3038600949727
 10
109.5426676158435
 20
-158.3038600949727
 10
109.6019232581898
 20
-158.3038600949727
 10
109.6422308753672
 20
-158.252872681791
 10
109.6422308753672
 20
-158.2001627208666
 10
109.6422308753672
 20
-158.1429741358115
 10
109.5957220863164
 20
-158.0985324040518
 10
109.5385335012612
 20
-158.0985324040518
 97
        0
 97
        0
 75
     2
 76
     1
 98
        0
  0
SPLINE
  5
D8
330
A3
100
AcDbEntity
  8
_U+30EC_U+30A4_U+30E4_U+30FC 1
370
     0
100
AcDbSpline
210
0.0
220
0.0
230
1.0
 70
    11
 71
     3
 72
    50
 73
    46
 74
     0
 42
0.0000000001
 43
0.0000000001
 12
1.0
 22
0.0
 32
0.0
 13
1.0
 23
0.0
 33
0.0
 40
0.0
 40
0.0
 40
0.0
 40
0.0
 40
1.0
 40
1.0
 40
1.0
 40
2.0
 40
2.0
 40
2.0
 40
3.0
 40
3.0
 40
3.0
 40
4.0
 40
4.0
 40
4.0
 40
5.0
 40
5.0
 40
5.0
 40
6.0
 40
6.0
 40
6.0
 40
7.0
 40
7.0
 40
7.0
 40
8.0
 40
8.0
 40
8.0
 40
9.0
 40
9.0
 40
9.0
 40
10.0
 40
10.0
 40
10.0
 40
11.0
 40
11.0
 40
11.0
 40
12.0
 40
12.0
 40
12.0
 40
13.0
 40
13.0
 40
13.0
 40
14.0
 40
14.0
 40
14.0
 40
15.0
 40
15.0
 40
15.0
 40
15.0
 10
111.335839815916
 20
-158.9363796260645
 30
0.0
 10
111.2572916388524
 20
-159.1138020435549
 30
0.0
 10
111.121899386282
 20
-159.3211967917669
 30
0.0
 10
110.9844400764206
 20
-159.4610676684681
 30
0.0
 10
110.8152858880948
 20
-159.632288914085
 30
0.0
 10
110.6523328716425
 20
-159.7211723776044
 30
0.0
 10
110.3329725201598
 20
-159.8627658020482
 30
0.0
 10
110.3329725201598
 20
-159.8627658020482
 30
0.0
 10
110.1638183318341
 20
-159.6746635885536
 30
0.0
 10
110.1638183318341
 20
-159.6746635885536
 30
0.0
 10
110.3498534880375
 20
-159.6512369392539
 30
0.0
 10
110.5210747336545
 20
-159.5644205330256
 30
0.0
 10
110.673692463651
 20
-159.4586561016284
 30
0.0
 10
110.9358642300785
 20
-159.2767550600072
 30
0.0
 10
111.1263780104129
 20
-158.963595880398
 30
0.0
 10
111.1749538567549
 20
-158.7816948387768
 30
0.0
 10
111.1749538567549
 20
-158.7816948387768
 30
0.0
 10
110.5041937657767
 20
-158.7816948387768
 30
0.0
 10
110.5041937657767
 20
-158.7816948387768
 30
0.0
 10
110.3457193734552
 20
-158.7816948387768
 30
0.0
 10
110.053575276306
 20
-158.7903075774899
 30
0.0
 10
109.901302055858
 20
-158.8071885453677
 30
0.0
 10
109.901302055858
 20
-158.8071885453677
 30
0.0
 10
109.901302055858
 20
-158.5787787146956
 30
0.0
 10
109.901302055858
 20
-158.5787787146956
 30
0.0
 10
109.935408501162
 20
-158.584979886569
 30
0.0
 10
109.9605576982043
 20
-158.591525567991
 30
0.0
 10
110.0136121686772
 20
-158.5956596825733
 30
0.0
 10
110.1148979759435
 20
-158.6018608544468
 30
0.0
 10
110.3119574376998
 20
-158.6042724212865
 30
0.0
 10
110.3963622770884
 20
-158.6042724212865
 30
0.0
 10
110.3963622770884
 20
-158.6042724212865
 30
0.0
 10
110.9021022943231
 20
-158.6042724212865
 30
0.0
 10
110.9021022943231
 20
-158.6042724212865
 30
0.0
 10
110.969626165834
 20
-158.6042724212865
 30
0.0
 10
111.1156982144086
 20
-158.5997937971556
 30
0.0
 10
111.177020914046
 20
-158.5935926252822
 30
0.0
 10
111.2490234096878
 20
-158.584979886569
 30
0.0
 10
111.2765841735697
 20
-158.5701659759825
 30
0.0
 10
111.3103461093252
 20
-158.5470838362313
 30
0.0
 10
111.3103461093252
 20
-158.5470838362313
 30
0.0
 10
111.4753661830687
 20
-158.7141709672659
 30
0.0
 10
111.4753661830687
 20
-158.7141709672659
 30
0.0
 10
111.4054307447181
 20
-158.7816948387768
 30
0.0
 10
111.3589219556672
 20
-158.8853922128828
 30
0.0
 10
111.335839815916
 20
-158.9363796260645
 30
0.0
  0
SPLINE
  5
D9
330
A3
100
AcDbEntity
  8
_U+30EC_U+30A4_U+30E4_U+30FC 1
370
     0
100
AcDbSpline
210
0.0
220
0.0
230
1.0
 70
    11
 71
     3
 72
    29
 73
    25
 74
     0
 42
0.0000000001
 43
0.0000000001
 12
1.0
 22
0.0
 32
0.0
 13
1.0
 23
0.0
 33
0.0
 40
0.0
 40
0.0
 40
0.0
 40
0.0
 40
1.0
 40
1.0
 40
1.0
 40
2.0
 40
2.0
 40
2.0
 40
3.0
 40
3.0
 40
3.0
 40
4.0
 40
4.0
 40
4.0
 40
5.0
 40
5.0
 40
5.0
 40
6.0
 40
6.0
 40
6.0
 40
7.0
 40
7.0
 40
7.0
 40
8.0
 40
8.0
 40
8.0
 40
8.0
 10
110.8428466519768
 20
-158.3100612668461
 30
0.0
 10
110.8428466519768
 20
-158.3100612668461
 30
0.0
 10
110.5021267084856
 20
-158.3100612668461
 30
0.0
 10
110.5021267084856
 20
-158.3100612668461
 30
0.0
 10
110.3880940479238
 20
-158.3100612668461
 30
0.0
 10
110.2716498205224
 20
-158.3141953814284
 30
0.0
 10
110.1572726504121
 20
-158.329009292015
 30
0.0
 10
110.1572726504121
 20
-158.329009292015
 30
0.0
 10
110.1572726504121
 20
-158.1195474865118
 30
0.0
 10
110.1572726504121
 20
-158.1195474865118
 30
0.0
 10
110.2757839351047
 20
-158.1343613970984
 30
0.0
 10
110.4494167475613
 20
-158.1388400212292
 30
0.0
 10
110.5021267084856
 20
-158.1388400212292
 30
0.0
 10
110.5021267084856
 20
-158.1388400212292
 30
0.0
 10
110.8428466519768
 20
-158.1388400212292
 30
0.0
 10
110.8428466519768
 20
-158.1388400212292
 30
0.0
 10
110.9592908793782
 20
-158.1388400212292
 30
0.0
 10
111.0753905972312
 20
-158.1343613970984
 30
0.0
 10
111.1918348246326
 20
-158.1195474865118
 30
0.0
 10
111.1918348246326
 20
-158.1195474865118
 30
0.0
 10
111.1918348246326
 20
-158.329009292015
 30
0.0
 10
111.1918348246326
 20
-158.329009292015
 30
0.0
 10
111.0416286614757
 20
-158.3100612668461
 30
0.0
 10
110.8576605625634
 20
-158.3100612668461
 30
0.0
 10
110.8428466519768
 20
-158.3100612668461
 30
0.0
  0
HATCH
  5
DA
330
A3
100
AcDbEntity
  8
_U+30EC_U+30A4_U+30E4_U+30FC 1
 62
   179
420
  2234388
100
AcDbHatch
 10
0.0
 20
0.0
 30
0.0
210
0.0
220
0.0
230
1.0
  2
SOLID
 70
     1
 71
     0
 91
        2
 92
        1
 93
        1
 72
     4
 94
        3
 73
     0
 74
     1
 95
       50
 96
       46
 40
0.0
 40
0.0
 40
0.0
 40
0.0
 40
1.0
 40
1.0
 40
1.0
 40
2.0
 40
2.0
 40
2.0
 40
3.0
 40
3.0
 40
3.0
 40
4.0
 40
4.0
 40
4.0
 40
5.0
 40
5.0
 40
5.0
 40
6.0
 40
6.0
 40
6.0
 40
7.0
 40
7.0
 40
7.0
 40
8.0
 40
8.0
 40
8.0
 40
9.0
 40
9.0
 40
9.0
 40
10.0
 40
10.0
 40
10.0
 40
11.0
 40
11.0
 40
11.0
 40
12.0
 40
12.0
 40
12.0
 40
13.0
 40
13.0
 40
13.0
 40
14.0
 40
14.0
 40
14.0
 40
15.0
 40
15.0
 40
15.0
 40
15.0
 10
111.335839815916
 20
-158.9363796260645
 10
111.2572916388524
 20
-159.1138020435549
 10
111.121899386282
 20
-159.3211967917669
 10
110.9844400764206
 20
-159.4610676684681
 10
110.8152858880948
 20
-159.632288914085
 10
110.6523328716425
 20
-159.7211723776044
 10
110.3329725201598
 20
-159.8627658020482
 10
110.3329725201598
 20
-159.8627658020482
 10
110.1638183318341
 20
-159.6746635885536
 10
110.1638183318341
 20
-159.6746635885536
 10
110.3498534880375
 20
-159.6512369392539
 10
110.5210747336545
 20
-159.5644205330256
 10
110.673692463651
 20
-159.4586561016284
 10
110.9358642300785
 20
-159.2767550600072
 10
111.1263780104129
 20
-158.963595880398
 10
111.1749538567549
 20
-158.7816948387768
 10
111.1749538567549
 20
-158.7816948387768
 10
110.5041937657767
 20
-158.7816948387768
 10
110.5041937657767
 20
-158.7816948387768
 10
110.3457193734552
 20
-158.7816948387768
 10
110.053575276306
 20
-158.7903075774899
 10
109.901302055858
 20
-158.8071885453677
 10
109.901302055858
 20
-158.8071885453677
 10
109.901302055858
 20
-158.5787787146956
 10
109.901302055858
 20
-158.5787787146956
 10
109.935408501162
 20
-158.584979886569
 10
109.9605576982043
 20
-158.591525567991
 10
110.0136121686772
 20
-158.5956596825733
 10
110.1148979759435
 20
-158.6018608544468
 10
110.3119574376998
 20
-158.6042724212865
 10
110.3963622770884
 20
-158.6042724212865
 10
110.3963622770884
 20
-158.6042724212865
 10
110.9021022943231
 20
-158.6042724212865
 10
110.9021022943231
 20
-158.6042724212865
 10
110.969626165834
 20
-158.6042724212865
 10
111.1156982144086
 20
-158.5997937971556
 10
111.177020914046
 20
-158.5935926252822
 10
111.2490234096878
 20
-158.584979886569
 10
111.2765841735697
 20
-158.5701659759825
 10
111.3103461093252
 20
-158.5470838362313
 10
111.3103461093252
 20
-158.5470838362313
 10
111.4753661830687
 20
-158.7141709672659
 10
111.4753661830687
 20
-158.7141709672659
 10
111.4054307447181
 20
-158.7816948387768
 10
111.3589219556672
 20
-158.8853922128828
 10
111.335839815916
 20
-158.9363796260645
 97
        0
 97
        0
 92
        1
 93
        1
 72
     4
 94
        3
 73
     0
 74
     1
 95
       29
 96
       25
 40
0.0
 40
0.0
 40
0.0
 40
0.0
 40
1.0
 40
1.0
 40
1.0
 40
2.0
 40
2.0
 40
2.0
 40
3.0
 40
3.0
 40
3.0
 40
4.0
 40
4.0
 40
4.0
 40
5.0
 40
5.0
 40
5.0
 40
6.0
 40
6.0
 40
6.0
 40
7.0
 40
7.0
 40
7.0
 40
8.0
 40
8.0
 40
8.0
 40
8.0
 10
110.8428466519768
 20
-158.3100612668461
 10
110.8428466519768
 20
-158.3100612668461
 10
110.5021267084856
 20
-158.3100612668461
 10
110.5021267084856
 20
-158.3100612668461
 10
110.3880940479238
 20
-158.3100612668461
 10
110.2716498205224
 20
-158.3141953814284
 10
110.1572726504121
 20
-158.329009292015
 10
110.1572726504121
 20
-158.329009292015
 10
110.1572726504121
 20
-158.1195474865118
 10
110.1572726504121
 20
-158.1195474865118
 10
110.2757839351047
 20
-158.1343613970984
 10
110.4494167475613
 20
-158.1388400212292
 10
110.5021267084856
 20
-158.1388400212292
 10
110.5021267084856
 20
-158.1388400212292
 10
110.8428466519768
 20
-158.1388400212292
 10
110.8428466519768
 20
-158.1388400212292
 10
110.9592908793782
 20
-158.1388400212292
 10
111.0753905972312
 20
-158.1343613970984
 10
111.1918348246326
 20
-158.1195474865118
 10
111.1918348246326
 20
-158.1195474865118
 10
111.1918348246326
 20
-158.329009292015
 10
111.1918348246326
 20
-158.329009292015
 10
111.0416286614757
 20
-158.3100612668461
 10
110.8576605625634
 20
-158.3100612668461
 10
110.8428466519768
 20
-158.3100612668461
 97
        0
 97
        0
 75
     2
 76
     1
 98
        0
  0
SPLINE
  5
DB
330
A3
100
AcDbEntity
  8
_U+30EC_U+30A4_U+30E4_U+30FC 1
370
     0
100
AcDbSpline
210
0.0
220
0.0
230
1.0
 70
    11
 71
     3
 72
    50
 73
    46
 74
     0
 42
0.0000000001
 43
0.0000000001
 12
1.0
 22
0.0
 32
0.0
 13
1.0
 23
0.0
 33
0.0
 40
0.0
 40
0.0
 40
0.0
 40
0.0
 40
1.0
 40
1.0
 40
1.0
 40
2.0
 40
2.0
 40
2.0
 40
3.0
 40
3.0
 40
3.0
 40
4.0
 40
4.0
 40
4.0
 40
5.0
 40
5.0
 40
5.0
 40
6.0
 40
6.0
 40
6.0
 40
7.0
 40
7.0
 40
7.0
 40
8.0
 40
8.0
 40
8.0
 40
9.0
 40
9.0
 40
9.0
 40
10.0
 40
10.0
 40
10.0
 40
11.0
 40
11.0
 40
11.0
 40
12.0
 40
12.0
 40
12.0
 40
13.0
 40
13.0
 40
13.0
 40
14.0
 40
14.0
 40
14.0
 40
15.0
 40
15.0
 40
15.0
 40
15.0
 10
113.0459852147941
 20
-158.2952473562595
 30
0.0
 10
112.8365234092909
 20
-158.508843276345
 30
0.0
 10
112.7648654231977
 20
-158.5808457719867
 30
0.0
 10
112.6229274892054
 20
-158.6993570566793
 30
0.0
 10
112.6229274892054
 20
-158.6993570566793
 30
0.0
 10
112.6229274892054
 20
-159.2664197735515
 30
0.0
 10
112.6229274892054
 20
-159.2664197735515
 30
0.0
 10
112.6229274892054
 20
-159.4166259367084
 30
0.0
 10
112.6294731706274
 20
-159.4355739618772
 30
0.0
 10
112.6336072852097
 20
-159.6133408889161
 30
0.0
 10
112.6356743425008
 20
-159.7442545173556
 30
0.0
 10
112.6418755143743
 20
-159.7931748732462
 30
0.0
 10
112.6484211957962
 20
-159.8524305155925
 30
0.0
 10
112.6484211957962
 20
-159.8524305155925
 30
0.0
 10
112.4220784224153
 20
-159.8524305155925
 30
0.0
 10
112.4220784224153
 20
-159.8524305155925
 30
0.0
 10
112.4262125369976
 20
-159.8079887838327
 30
0.0
 10
112.4303466515799
 20
-159.7611354852333
 30
0.0
 10
112.4303466515799
 20
-159.7528672560687
 30
0.0
 10
112.4303466515799
 20
-159.6725965312624
 30
0.0
 10
112.4348252757108
 20
-159.3211967917669
 30
0.0
 10
112.4348252757108
 20
-159.2491942961252
 30
0.0
 10
112.4348252757108
 20
-159.2491942961252
 30
0.0
 10
112.4348252757108
 20
-158.8430175384142
 30
0.0
 10
112.4348252757108
 20
-158.8430175384142
 30
0.0
 10
112.2529242340895
 20
-158.9680745045288
 30
0.0
 10
112.0582763391729
 20
-159.0779730505083
 30
0.0
 10
111.8550157055432
 20
-159.1647894567366
 30
0.0
 10
111.8550157055432
 20
-159.1647894567366
 30
0.0
 10
111.652099581462
 20
-159.0018364402843
 30
0.0
 10
111.652099581462
 20
-159.0018364402843
 30
0.0
 10
111.7747449807369
 20
-158.9660074472377
 30
0.0
 10
112.0307155752909
 20
-158.8919378943048
 30
0.0
 10
112.3755696333644
 20
-158.6359672997507
 30
0.0
 10
112.5912326107411
 20
-158.4771483978807
 30
0.0
 10
112.7838134483666
 20
-158.2890461843861
 30
0.0
 10
112.9360866688146
 20
-158.0689045828786
 30
0.0
 10
112.9360866688146
 20
-158.0689045828786
 30
0.0
 10
113.1286675064401
 20
-158.2129095741621
 30
0.0
 10
113.1286675064401
 20
-158.2129095741621
 30
0.0
 10
113.1414143597355
 20
-158.2232448606178
 30
0.0
 10
113.1496825889001
 20
-158.2380587712044
 30
0.0
 10
113.1496825889001
 20
-158.2508056244998
 30
0.0
 10
113.1496825889001
 20
-158.2911132416772
 30
0.0
 10
113.1117865385623
 20
-158.2911132416772
 30
0.0
 10
113.0459852147941
 20
-158.2952473562595
 30
0.0
  0
HATCH
  5
DC
330
A3
100
AcDbEntity
  8
_U+30EC_U+30A4_U+30E4_U+30FC 1
 62
   179
420
  2234388
100
AcDbHatch
 10
0.0
 20
0.0
 30
0.0
210
0.0
220
0.0
230
1.0
  2
SOLID
 70
     1
 71
     0
 91
        1
 92
        1
 93
        1
 72
     4
 94
        3
 73
     0
 74
     1
 95
       50
 96
       46
 40
0.0
 40
0.0
 40
0.0
 40
0.0
 40
1.0
 40
1.0
 40
1.0
 40
2.0
 40
2.0
 40
2.0
 40
3.0
 40
3.0
 40
3.0
 40
4.0
 40
4.0
 40
4.0
 40
5.0
 40
5.0
 40
5.0
 40
6.0
 40
6.0
 40
6.0
 40
7.0
 40
7.0
 40
7.0
 40
8.0
 40
8.0
 40
8.0
 40
9.0
 40
9.0
 40
9.0
 40
10.0
 40
10.0
 40
10.0
 40
11.0
 40
11.0
 40
11.0
 40
12.0
 40
12.0
 40
12.0
 40
13.0
 40
13.0
 40
13.0
 40
14.0
 40
14.0
 40
14.0
 40
15.0
 40
15.0
 40
15.0
 40
15.0
 10
113.0459852147941
 20
-158.2952473562595
 10
112.8365234092909
 20
-158.508843276345
 10
112.7648654231977
 20
-158.5808457719867
 10
112.6229274892054
 20
-158.6993570566793
 10
112.6229274892054
 20
-158.6993570566793
 10
112.6229274892054
 20
-159.2664197735515
 10
112.6229274892054
 20
-159.2664197735515
 10
112.6229274892054
 20
-159.4166259367084
 10
112.6294731706274
 20
-159.4355739618772
 10
112.6336072852097
 20
-159.6133408889161
 10
112.6356743425008
 20
-159.7442545173556
 10
112.6418755143743
 20
-159.7931748732462
 10
112.6484211957962
 20
-159.8524305155925
 10
112.6484211957962
 20
-159.8524305155925
 10
112.4220784224153
 20
-159.8524305155925
 10
112.4220784224153
 20
-159.8524305155925
 10
112.4262125369976
 20
-159.8079887838327
 10
112.4303466515799
 20
-159.7611354852333
 10
112.4303466515799
 20
-159.7528672560687
 10
112.4303466515799
 20
-159.6725965312624
 10
112.4348252757108
 20
-159.3211967917669
 10
112.4348252757108
 20
-159.2491942961252
 10
112.4348252757108
 20
-159.2491942961252
 10
112.4348252757108
 20
-158.8430175384142
 10
112.4348252757108
 20
-158.8430175384142
 10
112.2529242340895
 20
-158.9680745045288
 10
112.0582763391729
 20
-159.0779730505083
 10
111.8550157055432
 20
-159.1647894567366
 10
111.8550157055432
 20
-159.1647894567366
 10
111.652099581462
 20
-159.0018364402843
 10
111.652099581462
 20
-159.0018364402843
 10
111.7747449807369
 20
-158.9660074472377
 10
112.0307155752909
 20
-158.8919378943048
 10
112.3755696333644
 20
-158.6359672997507
 10
112.5912326107411
 20
-158.4771483978807
 10
112.7838134483666
 20
-158.2890461843861
 10
112.9360866688146
 20
-158.0689045828786
 10
112.9360866688146
 20
-158.0689045828786
 10
113.1286675064401
 20
-158.2129095741621
 10
113.1286675064401
 20
-158.2129095741621
 10
113.1414143597355
 20
-158.2232448606178
 10
113.1496825889001
 20
-158.2380587712044
 10
113.1496825889001
 20
-158.2508056244998
 10
113.1496825889001
 20
-158.2911132416772
 10
113.1117865385623
 20
-158.2911132416772
 10
113.0459852147941
 20
-158.2952473562595
 97
        0
 97
        0
 75
     2
 76
     1
 98
        0
  0
SPLINE
  5
DD
330
A3
100
AcDbEntity
  8
_U+30EC_U+30A4_U+30E4_U+30FC 1
370
     0
100
AcDbSpline
210
0.0
220
0.0
230
1.0
 70
    11
 71
     3
 72
    50
 73
    46
 74
     0
 42
0.0000000001
 43
0.0000000001
 12
1.0
 22
0.0
 32
0.0
 13
1.0
 23
0.0
 33
0.0
 40
0.0
 40
0.0
 40
0.0
 40
0.0
 40
1.0
 40
1.0
 40
1.0
 40
2.0
 40
2.0
 40
2.0
 40
3.0
 40
3.0
 40
3.0
 40
4.0
 40
4.0
 40
4.0
 40
5.0
 40
5.0
 40
5.0
 40
6.0
 40
6.0
 40
6.0
 40
7.0
 40
7.0
 40
7.0
 40
8.0
 40
8.0
 40
8.0
 40
9.0
 40
9.0
 40
9.0
 40
10.0
 40
10.0
 40
10.0
 40
11.0
 40
11.0
 40
11.0
 40
12.0
 40
12.0
 40
12.0
 40
13.0
 40
13.0
 40
13.0
 40
14.0
 40
14.0
 40
14.0
 40
15.0
 40
15.0
 40
15.0
 40
15.0
 10
114.7544080659295
 20
-158.8220024559542
 30
0.0
 10
114.693085366292
 20
-158.8940049515959
 30
0.0
 10
114.4326361476071
 20
-159.2112982457874
 30
0.0
 10
114.3757920721005
 20
-159.2746880027161
 30
0.0
 10
114.4601969114891
 20
-159.3721842049486
 30
0.0
 10
114.5111843246708
 20
-159.4355739618772
 30
0.0
 10
114.5766411388906
 20
-159.5265244826878
 30
0.0
 10
114.5766411388906
 20
-159.5265244826878
 30
0.0
 10
114.3926730399782
 20
-159.6639837925493
 30
0.0
 10
114.3926730399782
 20
-159.6639837925493
 30
0.0
 10
114.2572807874079
 20
-159.4524549297549
 30
0.0
 10
114.0857150322425
 20
-159.2281792136652
 30
0.0
 10
113.7918483873507
 20
-159.0293972041663
 30
0.0
 10
113.7918483873507
 20
-159.0293972041663
 30
0.0
 10
113.9399874932164
 20
-158.8750569264271
 30
0.0
 10
113.9399874932164
 20
-158.8750569264271
 30
0.0
 10
114.0498860391959
 20
-158.9553276512334
 30
0.0
 10
114.1535834133019
 20
-159.0442111147528
 30
0.0
 10
114.2507351059859
 20
-159.1392957501457
 30
0.0
 10
114.3186034870454
 20
-159.0631591399217
 30
0.0
 10
114.5215196111266
 20
-158.8199353986631
 30
0.0
 10
114.6548448064057
 20
-158.591525567991
 30
0.0
 10
114.6548448064057
 20
-158.591525567991
 30
0.0
 10
113.9820176581364
 20
-158.591525567991
 30
0.0
 10
113.9820176581364
 20
-158.591525567991
 30
0.0
 10
113.8573052015704
 20
-158.591525567991
 30
0.0
 10
113.6054687215986
 20
-158.5997937971556
 30
0.0
 10
113.3960069160954
 20
-158.6104735931599
 30
0.0
 10
113.3960069160954
 20
-158.6104735931599
 30
0.0
 10
113.3960069160954
 20
-158.3903319916524
 30
0.0
 10
113.3960069160954
 20
-158.3903319916524
 30
0.0
 10
113.5803195245563
 20
-158.4096245263698
 30
0.0
 10
113.7853027059287
 20
-158.4137586409521
 30
0.0
 10
113.9737494289718
 20
-158.4137586409521
 30
0.0
 10
113.9737494289718
 20
-158.4137586409521
 30
0.0
 10
114.4770778793668
 20
-158.4137586409521
 30
0.0
 10
114.4770778793668
 20
-158.4137586409521
 30
0.0
 10
114.8157307655669
 20
-158.4137586409521
 30
0.0
 10
114.8601724973266
 20
-158.3989447303655
 30
0.0
 10
114.9425102794241
 20
-158.3586371131881
 30
0.0
 10
114.9425102794241
 20
-158.3586371131881
 30
0.0
 10
115.1095974104587
 20
-158.5174560150581
 30
0.0
 10
115.1095974104587
 20
-158.5174560150581
 30
0.0
 10
114.9573241900107
 20
-158.5894585106999
 30
0.0
 10
114.8136637082758
 20
-158.7520670176037
 30
0.0
 10
114.7544080659295
 20
-158.8220024559542
 30
0.0
  0
HATCH
  5
DE
330
A3
100
AcDbEntity
  8
_U+30EC_U+30A4_U+30E4_U+30FC 1
 62
   179
420
  2234388
100
AcDbHatch
 10
0.0
 20
0.0
 30
0.0
210
0.0
220
0.0
230
1.0
  2
SOLID
 70
     1
 71
     0
 91
        1
 92
        1
 93
        1
 72
     4
 94
        3
 73
     0
 74
     1
 95
       50
 96
       46
 40
0.0
 40
0.0
 40
0.0
 40
0.0
 40
1.0
 40
1.0
 40
1.0
 40
2.0
 40
2.0
 40
2.0
 40
3.0
 40
3.0
 40
3.0
 40
4.0
 40
4.0
 40
4.0
 40
5.0
 40
5.0
 40
5.0
 40
6.0
 40
6.0
 40
6.0
 40
7.0
 40
7.0
 40
7.0
 40
8.0
 40
8.0
 40
8.0
 40
9.0
 40
9.0
 40
9.0
 40
10.0
 40
10.0
 40
10.0
 40
11.0
 40
11.0
 40
11.0
 40
12.0
 40
12.0
 40
12.0
 40
13.0
 40
13.0
 40
13.0
 40
14.0
 40
14.0
 40
14.0
 40
15.0
 40
15.0
 40
15.0
 40
15.0
 10
114.7544080659295
 20
-158.8220024559542
 10
114.693085366292
 20
-158.8940049515959
 10
114.4326361476071
 20
-159.2112982457874
 10
114.3757920721005
 20
-159.2746880027161
 10
114.4601969114891
 20
-159.3721842049486
 10
114.5111843246708
 20
-159.4355739618772
 10
114.5766411388906
 20
-159.5265244826878
 10
114.5766411388906
 20
-159.5265244826878
 10
114.3926730399782
 20
-159.6639837925493
 10
114.3926730399782
 20
-159.6639837925493
 10
114.2572807874079
 20
-159.4524549297549
 10
114.0857150322425
 20
-159.2281792136652
 10
113.7918483873507
 20
-159.0293972041663
 10
113.7918483873507
 20
-159.0293972041663
 10
113.9399874932164
 20
-158.8750569264271
 10
113.9399874932164
 20
-158.8750569264271
 10
114.0498860391959
 20
-158.9553276512334
 10
114.1535834133019
 20
-159.0442111147528
 10
114.2507351059859
 20
-159.1392957501457
 10
114.3186034870454
 20
-159.0631591399217
 10
114.5215196111266
 20
-158.8199353986631
 10
114.6548448064057
 20
-158.591525567991
 10
114.6548448064057
 20
-158.591525567991
 10
113.9820176581364
 20
-158.591525567991
 10
113.9820176581364
 20
-158.591525567991
 10
113.8573052015704
 20
-158.591525567991
 10
113.6054687215986
 20
-158.5997937971556
 10
113.3960069160954
 20
-158.6104735931599
 10
113.3960069160954
 20
-158.6104735931599
 10
113.3960069160954
 20
-158.3903319916524
 10
113.3960069160954
 20
-158.3903319916524
 10
113.5803195245563
 20
-158.4096245263698
 10
113.7853027059287
 20
-158.4137586409521
 10
113.9737494289718
 20
-158.4137586409521
 10
113.9737494289718
 20
-158.4137586409521
 10
114.4770778793668
 20
-158.4137586409521
 10
114.4770778793668
 20
-158.4137586409521
 10
114.8157307655669
 20
-158.4137586409521
 10
114.8601724973266
 20
-158.3989447303655
 10
114.9425102794241
 20
-158.3586371131881
 10
114.9425102794241
 20
-158.3586371131881
 10
115.1095974104587
 20
-158.5174560150581
 10
115.1095974104587
 20
-158.5174560150581
 10
114.9573241900107
 20
-158.5894585106999
 10
114.8136637082758
 20
-158.7520670176037
 10
114.7544080659295
 20
-158.8220024559542
 97
        0
 97
        0
 75
     2
 76
     1
 98
        0
  0
SPLINE
  5
DF
330
A3
100
AcDbEntity
  8
_U+30EC_U+30A4_U+30E4_U+30FC 1
370
     0
100
AcDbSpline
210
0.0
220
0.0
230
1.0
 70
    11
 71
     3
 72
    29
 73
    25
 74
     0
 42
0.0000000001
 43
0.0000000001
 12
1.0
 22
0.0
 32
0.0
 13
1.0
 23
0.0
 33
0.0
 40
0.0
 40
0.0
 40
0.0
 40
0.0
 40
1.0
 40
1.0
 40
1.0
 40
2.0
 40
2.0
 40
2.0
 40
3.0
 40
3.0
 40
3.0
 40
4.0
 40
4.0
 40
4.0
 40
5.0
 40
5.0
 40
5.0
 40
6.0
 40
6.0
 40
6.0
 40
7.0
 40
7.0
 40
7.0
 40
8.0
 40
8.0
 40
8.0
 40
8.0
 10
116.3780815681277
 20
-159.0652261972129
 30
0.0
 10
116.3780815681277
 20
-159.0652261972129
 30
0.0
 10
115.8937011429016
 20
-159.0652261972129
 30
0.0
 10
115.8937011429016
 20
-159.0652261972129
 30
0.0
 10
115.8661403790196
 20
-159.0652261972129
 30
0.0
 10
115.5488470848281
 20
-159.0652261972129
 30
0.0
 10
115.3373182220337
 20
-159.0907199038037
 30
0.0
 10
115.3373182220337
 20
-159.0907199038037
 30
0.0
 10
115.3373182220337
 20
-158.8602430158405
 30
0.0
 10
115.3373182220337
 20
-158.8602430158405
 30
0.0
 10
115.4957926143552
 20
-158.8833251555917
 30
0.0
 10
115.6863063946895
 20
-158.8853922128828
 30
0.0
 10
115.8937011429016
 20
-158.8853922128828
 30
0.0
 10
115.8937011429016
 20
-158.8853922128828
 30
0.0
 10
116.3780815681277
 20
-158.8853922128828
 30
0.0
 10
116.3780815681277
 20
-158.8853922128828
 30
0.0
 10
116.5641167243312
 20
-158.8853922128828
 30
0.0
 10
116.7504963900832
 20
-158.8833251555917
 30
0.0
 10
116.9344644889956
 20
-158.8602430158405
 30
0.0
 10
116.9344644889956
 20
-158.8602430158405
 30
0.0
 10
116.9344644889956
 20
-159.0907199038037
 30
0.0
 10
116.9344644889956
 20
-159.0907199038037
 30
0.0
 10
116.7504963900832
 20
-159.067293254504
 30
0.0
 10
116.5027940246938
 20
-159.0652261972129
 30
0.0
 10
116.3780815681277
 20
-159.0652261972129
 30
0.0
  0
HATCH
  5
E0
330
A3
100
AcDbEntity
  8
_U+30EC_U+30A4_U+30E4_U+30FC 1
 62
   179
420
  2234388
100
AcDbHatch
 10
0.0
 20
0.0
 30
0.0
210
0.0
220
0.0
230
1.0
  2
SOLID
 70
     1
 71
     0
 91
        1
 92
        1
 93
        1
 72
     4
 94
        3
 73
     0
 74
     1
 95
       29
 96
       25
 40
0.0
 40
0.0
 40
0.0
 40
0.0
 40
1.0
 40
1.0
 40
1.0
 40
2.0
 40
2.0
 40
2.0
 40
3.0
 40
3.0
 40
3.0
 40
4.0
 40
4.0
 40
4.0
 40
5.0
 40
5.0
 40
5.0
 40
6.0
 40
6.0
 40
6.0
 40
7.0
 40
7.0
 40
7.0
 40
8.0
 40
8.0
 40
8.0
 40
8.0
 10
116.3780815681277
 20
-159.0652261972129
 10
116.3780815681277
 20
-159.0652261972129
 10
115.8937011429016
 20
-159.0652261972129
 10
115.8937011429016
 20
-159.0652261972129
 10
115.8661403790196
 20
-159.0652261972129
 10
115.5488470848281
 20
-159.0652261972129
 10
115.3373182220337
 20
-159.0907199038037
 10
115.3373182220337
 20
-159.0907199038037
 10
115.3373182220337
 20
-158.8602430158405
 10
115.3373182220337
 20
-158.8602430158405
 10
115.4957926143552
 20
-158.8833251555917
 10
115.6863063946895
 20
-158.8853922128828
 10
115.8937011429016
 20
-158.8853922128828
 10
115.8937011429016
 20
-158.8853922128828
 10
116.3780815681277
 20
-158.8853922128828
 10
116.3780815681277
 20
-158.8853922128828
 10
116.5641167243312
 20
-158.8853922128828
 10
116.7504963900832
 20
-158.8833251555917
 10
116.9344644889956
 20
-158.8602430158405
 10
116.9344644889956
 20
-158.8602430158405
 10
116.9344644889956
 20
-159.0907199038037
 10
116.9344644889956
 20
-159.0907199038037
 10
116.7504963900832
 20
-159.067293254504
 10
116.5027940246938
 20
-159.0652261972129
 10
116.3780815681277
 20
-159.0652261972129
 97
        0
 97
        0
 75
     2
 76
     1
 98
        0
  0
ENDBLK
  5
A6
330
A3
100
AcDbEntity
  8
0
100
AcDbBlockEnd
  0
BLOCK
  5
F8
330
F6
100
AcDbEntity
  8
0
100
AcDbBlockBegin
  2
block 7
 70
     0
 10
0.0
 20
0.0
 30
0.0
  3
block 7
  1

  0
SPLINE
  5
FA
330
F6
100
AcDbEntity
  8
_U+30EC_U+30A4_U+30E4_U+30FC 1
370
     0
100
AcDbSpline
210
0.0
220
0.0
230
1.0
 70
    11
 71
     3
 72
    26
 73
    22
 74
     0
 42
0.0000000001
 43
0.0000000001
 12
1.0
 22
0.0
 32
0.0
 13
1.0
 23
0.0
 33
0.0
 40
0.0
 40
0.0
 40
0.0
 40
0.0
 40
1.0
 40
1.0
 40
1.0
 40
2.0
 40
2.0
 40
2.0
 40
3.0
 40
3.0
 40
3.0
 40
4.0
 40
4.0
 40
4.0
 40
5.0
 40
5.0
 40
5.0
 40
6.0
 40
6.0
 40
6.0
 40
7.0
 40
7.0
 40
7.0
 40
7.0
 10
121.4809570008798
 20
-140.5368136584422
 30
0.0
 10
121.4809570008798
 20
-140.5368136584422
 30
0.0
 10
120.3768038978572
 20
-140.5368136584422
 30
0.0
 10
120.3768038978572
 20
-140.5368136584422
 30
0.0
 10
120.3768038978572
 20
-140.5368136584422
 30
0.0
 10
120.3768038978572
 20
-140.8668538059291
 30
0.0
 10
120.3768038978572
 20
-140.8668538059291
 30
0.0
 10
120.3768038978572
 20
-140.8668538059291
 30
0.0
 10
120.2286647919914
 20
-140.8668538059291
 30
0.0
 10
120.2286647919914
 20
-140.8668538059291
 30
0.0
 10
120.2138508814049
 20
-140.534746601151
 30
0.0
 10
120.0508978649526
 20
-140.4882378121002
 30
0.0
 10
119.9365206948423
 20
-140.458609990927
 30
0.0
 10
119.9365206948423
 20
-140.458609990927
 30
0.0
 10
119.9365206948423
 20
-140.3125379423524
 30
0.0
 10
119.9365206948423
 20
-140.3125379423524
 30
0.0
 10
119.9365206948423
 20
-140.3125379423524
 30
0.0
 10
121.4809570008798
 20
-140.3125379423524
 30
0.0
 10
121.4809570008798
 20
-140.3125379423524
 30
0.0
 10
121.4809570008798
 20
-140.3125379423524
 30
0.0
 10
121.4809570008798
 20
-140.5368136584422
 30
0.0
 10
121.4809570008798
 20
-140.5368136584422
 30
0.0
  0
HATCH
  5
FB
330
F6
100
AcDbEntity
  8
_U+30EC_U+30A4_U+30E4_U+30FC 1
 62
   179
420
  2234388
100
AcDbHatch
 10
0.0
 20
0.0
 30
0.0
210
0.0
220
0.0
230
1.0
  2
SOLID
 70
     1
 71
     0
 91
        1
 92
        1
 93
        1
 72
     4
 94
        3
 73
     0
 74
     1
 95
       26
 96
       22
 40
0.0
 40
0.0
 40
0.0
 40
0.0
 40
1.0
 40
1.0
 40
1.0
 40
2.0
 40
2.0
 40
2.0
 40
3.0
 40
3.0
 40
3.0
 40
4.0
 40
4.0
 40
4.0
 40
5.0
 40
5.0
 40
5.0
 40
6.0
 40
6.0
 40
6.0
 40
7.0
 40
7.0
 40
7.0
 40
7.0
 10
121.4809570008798
 20
-140.5368136584422
 10
121.4809570008798
 20
-140.5368136584422
 10
120.3768038978572
 20
-140.5368136584422
 10
120.3768038978572
 20
-140.5368136584422
 10
120.3768038978572
 20
-140.5368136584422
 10
120.3768038978572
 20
-140.8668538059291
 10
120.3768038978572
 20
-140.8668538059291
 10
120.3768038978572
 20
-140.8668538059291
 10
120.2286647919914
 20
-140.8668538059291
 10
120.2286647919914
 20
-140.8668538059291
 10
120.2138508814049
 20
-140.534746601151
 10
120.0508978649526
 20
-140.4882378121002
 10
119.9365206948423
 20
-140.458609990927
 10
119.9365206948423
 20
-140.458609990927
 10
119.9365206948423
 20
-140.3125379423524
 10
119.9365206948423
 20
-140.3125379423524
 10
119.9365206948423
 20
-140.3125379423524
 10
121.4809570008798
 20
-140.3125379423524
 10
121.4809570008798
 20
-140.3125379423524
 10
121.4809570008798
 20
-140.3125379423524
 10
121.4809570008798
 20
-140.5368136584422
 10
121.4809570008798
 20
-140.5368136584422
 97
        0
 97
        0
 75
     2
 76
     1
 98
        0
  0
ENDBLK
  5
F9
330
F6
100
AcDbEntity
  8
0
100
AcDbBlockEnd
  0
BLOCK
  5
10E
330
10C
100
AcDbEntity
  8
0
100
AcDbBlockBegin
  2
block 8
 70
     0
 10
0.0
 20
0.0
 30
0.0
  3
block 8
  1

  0
SPLINE
  5
110
330
10C
100
AcDbEntity
  8
_U+30EC_U+30A4_U+30E4_U+30FC 1
370
     0
100
AcDbSpline
210
0.0
220
0.0
230
1.0
 70
    11
 71
     3
 72
    29
 73
    25
 74
     0
 42
0.0000000001
 43
0.0000000001
 12
1.0
 22
0.0
 32
0.0
 13
1.0
 23
0.0
 33
0.0
 40
0.0
 40
0.0
 40
0.0
 40
0.0
 40
1.0
 40
1.0
 40
1.0
 40
2.0
 40
2.0
 40
2.0
 40
3.0
 40
3.0
 40
3.0
 40
4.0
 40
4.0
 40
4.0
 40
5.0
 40
5.0
 40
5.0
 40
6.0
 40
6.0
 40
6.0
 40
7.0
 40
7.0
 40
7.0
 40
8.0
 40
8.0
 40
8.0
 40
8.0
 10
107.3026665313341
 20
-148.407478804044
 30
0.0
 10
107.5121283368373
 20
-148.5156548022808
 30
0.0
 10
107.5310763620061
 20
-148.6889431051889
 30
0.0
 10
107.5310763620061
 20
-148.8053873325903
 30
0.0
 10
107.5310763620061
 20
-148.9662732917515
 30
0.0
 10
107.4845675729553
 20
-149.1078667161953
 30
0.0
 10
107.3026665313341
 20
-149.2029513515882
 30
0.0
 10
107.1080186364174
 20
-149.3066487256942
 30
0.0
 10
106.8713405765808
 20
-149.3259412604116
 30
0.0
 10
106.7083875601285
 20
-149.3259412604116
 30
0.0
 10
106.564382568845
 20
-149.3259412604116
 30
0.0
 10
106.3125460888733
 20
-149.3087157829853
 30
0.0
 10
106.1137640793743
 20
-149.2029513515882
 30
0.0
 10
105.9108479552931
 20
-149.0951198628998
 30
0.0
 10
105.8874213059934
 20
-148.9342339037387
 30
0.0
 10
105.8874213059934
 20
-148.8053873325903
 30
0.0
 10
105.8874213059934
 20
-148.6465684307203
 30
0.0
 10
105.9318630377531
 20
-148.5029079489854
 30
0.0
 10
106.1137640793743
 20
-148.407478804044
 30
0.0
 10
106.3063449169998
 20
-148.3082600540688
 30
0.0
 10
106.5347547476719
 20
-148.2848334047691
 30
0.0
 10
106.7083875601285
 20
-148.2848334047691
 30
0.0
 10
106.8796088057454
 20
-148.2848334047691
 30
0.0
 10
107.1100856937086
 20
-148.3061929967776
 30
0.0
 10
107.3026665313341
 20
-148.407478804044
 30
0.0
  0
SPLINE
  5
111
330
10C
100
AcDbEntity
  8
_U+30EC_U+30A4_U+30E4_U+30FC 1
370
     0
100
AcDbSpline
210
0.0
220
0.0
230
1.0
 70
    11
 71
     3
 72
    17
 73
    13
 74
     0
 42
0.0000000001
 43
0.0000000001
 12
1.0
 22
0.0
 32
0.0
 13
1.0
 23
0.0
 33
0.0
 40
0.0
 40
0.0
 40
0.0
 40
0.0
 40
1.0
 40
1.0
 40
1.0
 40
2.0
 40
2.0
 40
2.0
 40
3.0
 40
3.0
 40
3.0
 40
4.0
 40
4.0
 40
4.0
 40
4.0
 10
106.0800021436189
 20
-148.8053873325903
 30
0.0
 10
106.0800021436189
 20
-149.0551567552709
 30
0.0
 10
106.3635335020549
 20
-149.1016655443218
 30
0.0
 10
106.7083875601285
 20
-149.1016655443218
 30
0.0
 10
107.0277479116111
 20
-149.1016655443218
 30
0.0
 10
107.3364284670895
 20
-149.0654920417267
 30
0.0
 10
107.3364284670895
 20
-148.8053873325903
 30
0.0
 10
107.3364284670895
 20
-148.5576849672009
 30
0.0
 10
107.0553086754931
 20
-148.5091091208589
 30
0.0
 10
106.7083875601285
 20
-148.5091091208589
 30
0.0
 10
106.3886826990973
 20
-148.5091091208589
 30
0.0
 10
106.0800021436189
 20
-148.5473496807451
 30
0.0
 10
106.0800021436189
 20
-148.8053873325903
 30
0.0
  0
HATCH
  5
112
330
10C
100
AcDbEntity
  8
_U+30EC_U+30A4_U+30E4_U+30FC 1
 62
   179
420
  2234388
100
AcDbHatch
 10
0.0
 20
0.0
 30
0.0
210
0.0
220
0.0
230
1.0
  2
SOLID
 70
     1
 71
     0
 91
        2
 92
        1
 93
        1
 72
     4
 94
        3
 73
     0
 74
     1
 95
       29
 96
       25
 40
0.0
 40
0.0
 40
0.0
 40
0.0
 40
1.0
 40
1.0
 40
1.0
 40
2.0
 40
2.0
 40
2.0
 40
3.0
 40
3.0
 40
3.0
 40
4.0
 40
4.0
 40
4.0
 40
5.0
 40
5.0
 40
5.0
 40
6.0
 40
6.0
 40
6.0
 40
7.0
 40
7.0
 40
7.0
 40
8.0
 40
8.0
 40
8.0
 40
8.0
 10
107.3026665313341
 20
-148.407478804044
 10
107.5121283368373
 20
-148.5156548022808
 10
107.5310763620061
 20
-148.6889431051889
 10
107.5310763620061
 20
-148.8053873325903
 10
107.5310763620061
 20
-148.9662732917515
 10
107.4845675729553
 20
-149.1078667161953
 10
107.3026665313341
 20
-149.2029513515882
 10
107.1080186364174
 20
-149.3066487256942
 10
106.8713405765808
 20
-149.3259412604116
 10
106.7083875601285
 20
-149.3259412604116
 10
106.564382568845
 20
-149.3259412604116
 10
106.3125460888733
 20
-149.3087157829853
 10
106.1137640793743
 20
-149.2029513515882
 10
105.9108479552931
 20
-149.0951198628998
 10
105.8874213059934
 20
-148.9342339037387
 10
105.8874213059934
 20
-148.8053873325903
 10
105.8874213059934
 20
-148.6465684307203
 10
105.9318630377531
 20
-148.5029079489854
 10
106.1137640793743
 20
-148.407478804044
 10
106.3063449169998
 20
-148.3082600540688
 10
106.5347547476719
 20
-148.2848334047691
 10
106.7083875601285
 20
-148.2848334047691
 10
106.8796088057454
 20
-148.2848334047691
 10
107.1100856937086
 20
-148.3061929967776
 10
107.3026665313341
 20
-148.407478804044
 97
        0
 97
        0
 92
        1
 93
        1
 72
     4
 94
        3
 73
     0
 74
     1
 95
       17
 96
       13
 40
0.0
 40
0.0
 40
0.0
 40
0.0
 40
1.0
 40
1.0
 40
1.0
 40
2.0
 40
2.0
 40
2.0
 40
3.0
 40
3.0
 40
3.0
 40
4.0
 40
4.0
 40
4.0
 40
4.0
 10
106.0800021436189
 20
-148.8053873325903
 10
106.0800021436189
 20
-149.0551567552709
 10
106.3635335020549
 20
-149.1016655443218
 10
106.7083875601285
 20
-149.1016655443218
 10
107.0277479116111
 20
-149.1016655443218
 10
107.3364284670895
 20
-149.0654920417267
 10
107.3364284670895
 20
-148.8053873325903
 10
107.3364284670895
 20
-148.5576849672009
 10
107.0553086754931
 20
-148.5091091208589
 10
106.7083875601285
 20
-148.5091091208589
 10
106.3886826990973
 20
-148.5091091208589
 10
106.0800021436189
 20
-148.5473496807451
 10
106.0800021436189
 20
-148.8053873325903
 97
        0
 97
        0
 75
     2
 76
     1
 98
        0
  0
POLYLINE
  5
113
330
10C
100
AcDbEntity
  8
_U+30EC_U+30A4_U+30E4_U+30FC 1
370
     0
100
AcDb2dPolyline
 66
     1
 10
0.0
 20
0.0
 30
0.0
  0
VERTEX
  5
114
330
113
100
AcDbEntity
  8
_U+30EC_U+30A4_U+30E4_U+30FC 1
370
     0
100
AcDbVertex
100
AcDb2dVertex
 10
107.480433458373
 20
-148.0684814082954
 30
0.0
  0
VERTEX
  5
115
330
113
100
AcDbEntity
  8
_U+30EC_U+30A4_U+30E4_U+30FC 1
370
     0
100
AcDbVertex
100
AcDb2dVertex
 10
107.2285969784012
 20
-148.0684814082954
 30
0.0
  0
VERTEX
  5
116
330
113
100
AcDbEntity
  8
_U+30EC_U+30A4_U+30E4_U+30FC 1
370
     0
100
AcDbVertex
100
AcDb2dVertex
 10
107.2285969784012
 20
-147.8166449283236
 30
0.0
  0
VERTEX
  5
117
330
113
100
AcDbEntity
  8
_U+30EC_U+30A4_U+30E4_U+30FC 1
370
     0
100
AcDbVertex
100
AcDb2dVertex
 10
107.480433458373
 20
-147.8166449283236
 30
0.0
  0
VERTEX
  5
118
330
113
100
AcDbEntity
  8
_U+30EC_U+30A4_U+30E4_U+30FC 1
370
     0
100
AcDbVertex
100
AcDb2dVertex
 10
107.480433458373
 20
-148.0684814082954
 30
0.0
  0
SEQEND
  5
119
330
113
100
AcDbEntity
  8
_U+30EC_U+30A4_U+30E4_U+30FC 1
370
     0
  0
HATCH
  5
11A
330
10C
100
AcDbEntity
  8
_U+30EC_U+30A4_U+30E4_U+30FC 1
 62
   179
420
  2234388
100
AcDbHatch
 10
0.0
 20
0.0
 30
0.0
210
0.0
220
0.0
230
1.0
  2
SOLID
 70
     1
 71
     0
 91
        1
 92
        1
 93
        4
 72
     1
 10
107.480433458373
 20
-148.0684814082954
 11
107.2285969784012
 21
-148.0684814082954
 72
     1
 10
107.2285969784012
 20
-148.0684814082954
 11
107.2285969784012
 21
-147.8166449283236
 72
     1
 10
107.2285969784012
 20
-147.8166449283236
 11
107.480433458373
 21
-147.8166449283236
 72
     1
 10
107.480433458373
 20
-147.8166449283236
 11
107.480433458373
 21
-148.0684814082954
 97
        0
 75
     2
 76
     1
 98
        0
  0
SPLINE
  5
11B
330
10C
100
AcDbEntity
  8
_U+30EC_U+30A4_U+30E4_U+30FC 1
370
     0
100
AcDbSpline
210
0.0
220
0.0
230
1.0
 70
    11
 71
     3
 72
    62
 73
    58
 74
     0
 42
0.0000000001
 43
0.0000000001
 12
1.0
 22
0.0
 32
0.0
 13
1.0
 23
0.0
 33
0.0
 40
0.0
 40
0.0
 40
0.0
 40
0.0
 40
1.0
 40
1.0
 40
1.0
 40
2.0
 40
2.0
 40
2.0
 40
3.0
 40
3.0
 40
3.0
 40
4.0
 40
4.0
 40
4.0
 40
5.0
 40
5.0
 40
5.0
 40
6.0
 40
6.0
 40
6.0
 40
7.0
 40
7.0
 40
7.0
 40
8.0
 40
8.0
 40
8.0
 40
9.0
 40
9.0
 40
9.0
 40
10.0
 40
10.0
 40
10.0
 40
11.0
 40
11.0
 40
11.0
 40
12.0
 40
12.0
 40
12.0
 40
13.0
 40
13.0
 40
13.0
 40
14.0
 40
14.0
 40
14.0
 40
15.0
 40
15.0
 40
15.0
 40
16.0
 40
16.0
 40
16.0
 40
17.0
 40
17.0
 40
17.0
 40
18.0
 40
18.0
 40
18.0
 40
19.0
 40
19.0
 40
19.0
 40
19.0
 10
107.5310763620061
 20
-147.0886962522903
 30
0.0
 10
107.5310763620061
 20
-147.1841253972318
 30
0.0
 10
107.5100612795461
 20
-147.4018554318995
 30
0.0
 10
107.3240261233426
 20
-147.5269123980141
 30
0.0
 10
107.2117160105235
 20
-147.6006374413984
 30
0.0
 10
107.1124972605483
 20
-147.6051160655293
 30
0.0
 10
107.0277479116111
 20
-147.6092501801116
 30
0.0
 10
107.0277479116111
 20
-147.6092501801116
 30
0.0
 10
107.0277479116111
 20
-147.3891085786041
 30
0.0
 10
107.0277479116111
 20
-147.3891085786041
 30
0.0
 10
107.101817464544
 20
-147.387041521313
 30
0.0
 10
107.3364284670895
 20
-147.3767062348572
 30
0.0
 10
107.3364284670895
 20
-147.0931748764212
 30
0.0
 10
107.3364284670895
 20
-146.9557155665597
 30
0.0
 10
107.2668375382875
 20
-146.8030978365631
 30
0.0
 10
107.0384277076154
 20
-146.8030978365631
 30
0.0
 10
106.921983480214
 20
-146.8030978365631
 30
0.0
 10
106.8734076338719
 20
-146.8413383964494
 30
0.0
 10
106.8417127554076
 20
-146.8730332749137
 30
0.0
 10
106.7676432024748
 20
-146.9471028278466
 30
0.0
 10
106.7548963491793
 20
-147.063547055248
 30
0.0
 10
106.7548963491793
 20
-147.1183240734635
 30
0.0
 10
106.7548963491793
 20
-147.1376166081809
 30
0.0
 10
106.7569634064705
 20
-147.1734456012275
 30
0.0
 10
106.7610975210528
 20
-147.2010063651095
 30
0.0
 10
106.7610975210528
 20
-147.2010063651095
 30
0.0
 10
106.5664496261362
 20
-147.2010063651095
 30
0.0
 10
106.5664496261362
 20
-147.2010063651095
 30
0.0
 10
106.5729953075581
 20
-147.1627658052232
 30
0.0
 10
106.5750623648493
 20
-147.1207356403032
 30
0.0
 10
106.5750623648493
 20
-147.1141899588812
 30
0.0
 10
106.5750623648493
 20
-147.0487331446614
 30
0.0
 10
106.5537027728408
 20
-146.8499511351625
 30
0.0
 10
106.3170247130041
 20
-146.8499511351625
 30
0.0
 10
106.1392577859652
 20
-146.8499511351625
 30
0.0
 10
106.0841362582012
 20
-146.980864763602
 30
0.0
 10
106.0841362582012
 20
-147.09110781913
 30
0.0
 10
106.0841362582012
 20
-147.3553466428487
 30
0.0
 10
106.3170247130041
 20
-147.3639593815618
 30
0.0
 10
106.3886826990973
 20
-147.3680934961441
 30
0.0
 10
106.3886826990973
 20
-147.3680934961441
 30
0.0
 10
106.3886826990973
 20
-147.5713541297738
 30
0.0
 10
106.3886826990973
 20
-147.5713541297738
 30
0.0
 10
106.2639702425312
 20
-147.5627413910607
 30
0.0
 10
105.8874213059934
 20
-147.5351806271787
 30
0.0
 10
105.8874213059934
 20
-147.0783609658346
 30
0.0
 10
105.8874213059934
 20
-146.8540852497448
 30
0.0
 10
106.0145453293991
 20
-146.6129285657773
 30
0.0
 10
106.3104790315821
 20
-146.6129285657773
 30
0.0
 10
106.4968586973341
 20
-146.6129285657773
 30
0.0
 10
106.5791964794316
 20
-146.7080132011702
 30
0.0
 10
106.640519179069
 20
-146.807576460694
 30
0.0
 10
106.668079942951
 20
-146.7462537610565
 30
0.0
 10
106.7483506677574
 20
-146.5643527194353
 30
0.0
 10
107.02568085432
 20
-146.5643527194353
 30
0.0
 10
107.3639892309715
 20
-146.5643527194353
 30
0.0
 10
107.5310763620061
 20
-146.8117105752762
 30
0.0
 10
107.5310763620061
 20
-147.0886962522903
 30
0.0
  0
HATCH
  5
11C
330
10C
100
AcDbEntity
  8
_U+30EC_U+30A4_U+30E4_U+30FC 1
 62
   179
420
  2234388
100
AcDbHatch
 10
0.0
 20
0.0
 30
0.0
210
0.0
220
0.0
230
1.0
  2
SOLID
 70
     1
 71
     0
 91
        1
 92
        1
 93
        1
 72
     4
 94
        3
 73
     0
 74
     1
 95
       62
 96
       58
 40
0.0
 40
0.0
 40
0.0
 40
0.0
 40
1.0
 40
1.0
 40
1.0
 40
2.0
 40
2.0
 40
2.0
 40
3.0
 40
3.0
 40
3.0
 40
4.0
 40
4.0
 40
4.0
 40
5.0
 40
5.0
 40
5.0
 40
6.0
 40
6.0
 40
6.0
 40
7.0
 40
7.0
 40
7.0
 40
8.0
 40
8.0
 40
8.0
 40
9.0
 40
9.0
 40
9.0
 40
10.0
 40
10.0
 40
10.0
 40
11.0
 40
11.0
 40
11.0
 40
12.0
 40
12.0
 40
12.0
 40
13.0
 40
13.0
 40
13.0
 40
14.0
 40
14.0
 40
14.0
 40
15.0
 40
15.0
 40
15.0
 40
16.0
 40
16.0
 40
16.0
 40
17.0
 40
17.0
 40
17.0
 40
18.0
 40
18.0
 40
18.0
 40
19.0
 40
19.0
 40
19.0
 40
19.0
 10
107.5310763620061
 20
-147.0886962522903
 10
107.5310763620061
 20
-147.1841253972318
 10
107.5100612795461
 20
-147.4018554318995
 10
107.3240261233426
 20
-147.5269123980141
 10
107.2117160105235
 20
-147.6006374413984
 10
107.1124972605483
 20
-147.6051160655293
 10
107.0277479116111
 20
-147.6092501801116
 10
107.0277479116111
 20
-147.6092501801116
 10
107.0277479116111
 20
-147.3891085786041
 10
107.0277479116111
 20
-147.3891085786041
 10
107.101817464544
 20
-147.387041521313
 10
107.3364284670895
 20
-147.3767062348572
 10
107.3364284670895
 20
-147.0931748764212
 10
107.3364284670895
 20
-146.9557155665597
 10
107.2668375382875
 20
-146.8030978365631
 10
107.0384277076154
 20
-146.8030978365631
 10
106.921983480214
 20
-146.8030978365631
 10
106.8734076338719
 20
-146.8413383964494
 10
106.8417127554076
 20
-146.8730332749137
 10
106.7676432024748
 20
-146.9471028278466
 10
106.7548963491793
 20
-147.063547055248
 10
106.7548963491793
 20
-147.1183240734635
 10
106.7548963491793
 20
-147.1376166081809
 10
106.7569634064705
 20
-147.1734456012275
 10
106.7610975210528
 20
-147.2010063651095
 10
106.7610975210528
 20
-147.2010063651095
 10
106.5664496261362
 20
-147.2010063651095
 10
106.5664496261362
 20
-147.2010063651095
 10
106.5729953075581
 20
-147.1627658052232
 10
106.5750623648493
 20
-147.1207356403032
 10
106.5750623648493
 20
-147.1141899588812
 10
106.5750623648493
 20
-147.0487331446614
 10
106.5537027728408
 20
-146.8499511351625
 10
106.3170247130041
 20
-146.8499511351625
 10
106.1392577859652
 20
-146.8499511351625
 10
106.0841362582012
 20
-146.980864763602
 10
106.0841362582012
 20
-147.09110781913
 10
106.0841362582012
 20
-147.3553466428487
 10
106.3170247130041
 20
-147.3639593815618
 10
106.3886826990973
 20
-147.3680934961441
 10
106.3886826990973
 20
-147.3680934961441
 10
106.3886826990973
 20
-147.5713541297738
 10
106.3886826990973
 20
-147.5713541297738
 10
106.2639702425312
 20
-147.5627413910607
 10
105.8874213059934
 20
-147.5351806271787
 10
105.8874213059934
 20
-147.0783609658346
 10
105.8874213059934
 20
-146.8540852497448
 10
106.0145453293991
 20
-146.6129285657773
 10
106.3104790315821
 20
-146.6129285657773
 10
106.4968586973341
 20
-146.6129285657773
 10
106.5791964794316
 20
-146.7080132011702
 10
106.640519179069
 20
-146.807576460694
 10
106.668079942951
 20
-146.7462537610565
 10
106.7483506677574
 20
-146.5643527194353
 10
107.02568085432
 20
-146.5643527194353
 10
107.3639892309715
 20
-146.5643527194353
 10
107.5310763620061
 20
-146.8117105752762
 10
107.5310763620061
 20
-147.0886962522903
 97
        0
 97
        0
 75
     2
 76
     1
 98
        0
  0
ENDBLK
  5
10F
330
10C
100
AcDbEntity
  8
0
100
AcDbBlockEnd
  0
BLOCK
  5
127
330
125
100
AcDbEntity
  8
0
100
AcDbBlockBegin
  2
block 9
 70
     0
 10
0.0
 20
0.0
 30
0.0
  3
block 9
  1

  0
SPLINE
  5
129
330
125
100
AcDbEntity
  8
_U+30EC_U+30A4_U+30E4_U+30FC 1
370
     0
100
AcDbSpline
210
0.0
220
0.0
230
1.0
 70
    11
 71
     3
 72
    32
 73
    28
 74
     0
 42
0.0000000001
 43
0.0000000001
 12
1.0
 22
0.0
 32
0.0
 13
1.0
 23
0.0
 33
0.0
 40
0.0
 40
0.0
 40
0.0
 40
0.0
 40
1.0
 40
1.0
 40
1.0
 40
2.0
 40
2.0
 40
2.0
 40
3.0
 40
3.0
 40
3.0
 40
4.0
 40
4.0
 40
4.0
 40
5.0
 40
5.0
 40
5.0
 40
6.0
 40
6.0
 40
6.0
 40
7.0
 40
7.0
 40
7.0
 40
8.0
 40
8.0
 40
8.0
 40
9.0
 40
9.0
 40
9.0
 40
9.0
 10
121.5315999045129
 20
-148.5514837953274
 30
0.0
 10
121.5315999045129
 20
-149.0675590990178
 30
0.0
 10
120.9776285504848
 20
-149.0758273281824
 30
0.0
 10
120.7636881208507
 20
-149.0758273281824
 30
0.0
 10
120.5332112328875
 20
-149.0758273281824
 30
0.0
 10
119.8858777912091
 20
-149.0568793030136
 30
0.0
 10
119.8858777912091
 20
-148.5132432354411
 30
0.0
 10
119.8858777912091
 20
-148.3399549325331
 30
0.0
 10
119.9558132295597
 20
-148.0943196244347
 30
0.0
 10
120.2879204343377
 20
-148.056423574097
 30
0.0
 10
120.2879204343377
 20
-148.056423574097
 30
0.0
 10
120.2879204343377
 20
-148.2700194941825
 30
0.0
 10
120.2879204343377
 20
-148.2700194941825
 30
0.0
 10
120.2307318492826
 20
-148.2806992901868
 30
0.0
 10
120.0825927434169
 20
-148.3123941686511
 30
0.0
 10
120.0825927434169
 20
-148.5153102927323
 30
0.0
 10
120.0825927434169
 20
-148.8074543898815
 30
0.0
 10
120.4105658336126
 20
-148.8474174975104
 30
0.0
 10
120.615549014985
 20
-148.8601643508058
 30
0.0
 10
120.5373453474698
 20
-148.7671467727041
 30
0.0
 10
120.4780897051235
 20
-148.6992783916446
 30
0.0
 10
120.4780897051235
 20
-148.5173773500235
 30
0.0
 10
120.4780897051235
 20
-148.3375433656934
 30
0.0
 10
120.5862657033604
 20
-148.0350639820885
 30
0.0
 10
120.9924424610713
 20
-148.0350639820885
 30
0.0
 10
121.311802812554
 20
-148.0350639820885
 30
0.0
 10
121.5315999045129
 20
-148.2341905011359
 30
0.0
 10
121.5315999045129
 20
-148.5514837953274
 30
0.0
  0
SPLINE
  5
12A
330
125
100
AcDbEntity
  8
_U+30EC_U+30A4_U+30E4_U+30FC 1
370
     0
100
AcDbSpline
210
0.0
220
0.0
230
1.0
 70
    11
 71
     3
 72
    17
 73
    13
 74
     0
 42
0.0000000001
 43
0.0000000001
 12
1.0
 22
0.0
 32
0.0
 13
1.0
 23
0.0
 33
0.0
 40
0.0
 40
0.0
 40
0.0
 40
0.0
 40
1.0
 40
1.0
 40
1.0
 40
2.0
 40
2.0
 40
2.0
 40
3.0
 40
3.0
 40
3.0
 40
4.0
 40
4.0
 40
4.0
 40
4.0
 10
120.6727376000402
 20
-148.5342583179012
 30
0.0
 10
120.6727376000402
 20
-148.7967745938772
 30
0.0
 10
120.8842664628345
 20
-148.834670644215
 30
0.0
 10
121.0007106902359
 20
-148.834670644215
 30
0.0
 10
121.1764105599837
 20
-148.834670644215
 30
0.0
 10
121.339363576436
 20
-148.739586008822
 30
0.0
 10
121.339363576436
 20
-148.5556179099097
 30
0.0
 10
121.339363576436
 20
-148.435039567926
 30
0.0
 10
121.2801079340897
 20
-148.2593396981782
 30
0.0
 10
120.9945095183625
 20
-148.2593396981782
 30
0.0
 10
120.7702338022727
 20
-148.2593396981782
 30
0.0
 10
120.6727376000402
 20
-148.3992105748794
 30
0.0
 10
120.6727376000402
 20
-148.5342583179012
 30
0.0
  0
HATCH
  5
12B
330
125
100
AcDbEntity
  8
_U+30EC_U+30A4_U+30E4_U+30FC 1
 62
   179
420
  2234388
100
AcDbHatch
 10
0.0
 20
0.0
 30
0.0
210
0.0
220
0.0
230
1.0
  2
SOLID
 70
     1
 71
     0
 91
        2
 92
        1
 93
        1
 72
     4
 94
        3
 73
     0
 74
     1
 95
       32
 96
       28
 40
0.0
 40
0.0
 40
0.0
 40
0.0
 40
1.0
 40
1.0
 40
1.0
 40
2.0
 40
2.0
 40
2.0
 40
3.0
 40
3.0
 40
3.0
 40
4.0
 40
4.0
 40
4.0
 40
5.0
 40
5.0
 40
5.0
 40
6.0
 40
6.0
 40
6.0
 40
7.0
 40
7.0
 40
7.0
 40
8.0
 40
8.0
 40
8.0
 40
9.0
 40
9.0
 40
9.0
 40
9.0
 10
121.5315999045129
 20
-148.5514837953274
 10
121.5315999045129
 20
-149.0675590990178
 10
120.9776285504848
 20
-149.0758273281824
 10
120.7636881208507
 20
-149.0758273281824
 10
120.5332112328875
 20
-149.0758273281824
 10
119.8858777912091
 20
-149.0568793030136
 10
119.8858777912091
 20
-148.5132432354411
 10
119.8858777912091
 20
-148.3399549325331
 10
119.9558132295597
 20
-148.0943196244347
 10
120.2879204343377
 20
-148.056423574097
 10
120.2879204343377
 20
-148.056423574097
 10
120.2879204343377
 20
-148.2700194941825
 10
120.2879204343377
 20
-148.2700194941825
 10
120.2307318492826
 20
-148.2806992901868
 10
120.0825927434169
 20
-148.3123941686511
 10
120.0825927434169
 20
-148.5153102927323
 10
120.0825927434169
 20
-148.8074543898815
 10
120.4105658336126
 20
-148.8474174975104
 10
120.615549014985
 20
-148.8601643508058
 10
120.5373453474698
 20
-148.7671467727041
 10
120.4780897051235
 20
-148.6992783916446
 10
120.4780897051235
 20
-148.5173773500235
 10
120.4780897051235
 20
-148.3375433656934
 10
120.5862657033604
 20
-148.0350639820885
 10
120.9924424610713
 20
-148.0350639820885
 10
121.311802812554
 20
-148.0350639820885
 10
121.5315999045129
 20
-148.2341905011359
 10
121.5315999045129
 20
-148.5514837953274
 97
        0
 97
        0
 92
        1
 93
        1
 72
     4
 94
        3
 73
     0
 74
     1
 95
       17
 96
       13
 40
0.0
 40
0.0
 40
0.0
 40
0.0
 40
1.0
 40
1.0
 40
1.0
 40
2.0
 40
2.0
 40
2.0
 40
3.0
 40
3.0
 40
3.0
 40
4.0
 40
4.0
 40
4.0
 40
4.0
 10
120.6727376000402
 20
-148.5342583179012
 10
120.6727376000402
 20
-148.7967745938772
 10
120.8842664628345
 20
-148.834670644215
 10
121.0007106902359
 20
-148.834670644215
 10
121.1764105599837
 20
-148.834670644215
 10
121.339363576436
 20
-148.739586008822
 10
121.339363576436
 20
-148.5556179099097
 10
121.339363576436
 20
-148.435039567926
 10
121.2801079340897
 20
-148.2593396981782
 10
120.9945095183625
 20
-148.2593396981782
 10
120.7702338022727
 20
-148.2593396981782
 10
120.6727376000402
 20
-148.3992105748794
 10
120.6727376000402
 20
-148.5342583179012
 97
        0
 97
        0
 75
     2
 76
     1
 98
        0
  0
POLYLINE
  5
12C
330
125
100
AcDbEntity
  8
_U+30EC_U+30A4_U+30E4_U+30FC 1
370
     0
100
AcDb2dPolyline
 66
     1
 10
0.0
 20
0.0
 30
0.0
  0
VERTEX
  5
12D
330
12C
100
AcDbEntity
  8
_U+30EC_U+30A4_U+30E4_U+30FC 1
370
     0
100
AcDbVertex
100
AcDb2dVertex
 10
121.4809570008798
 20
-147.8187119856148
 30
0.0
  0
VERTEX
  5
12E
330
12C
100
AcDbEntity
  8
_U+30EC_U+30A4_U+30E4_U+30FC 1
370
     0
100
AcDbVertex
100
AcDb2dVertex
 10
121.229120520908
 20
-147.8187119856148
 30
0.0
  0
VERTEX
  5
12F
330
12C
100
AcDbEntity
  8
_U+30EC_U+30A4_U+30E4_U+30FC 1
370
     0
100
AcDbVertex
100
AcDb2dVertex
 10
121.229120520908
 20
-147.566875505643
 30
0.0
  0
VERTEX
  5
130
330
12C
100
AcDbEntity
  8
_U+30EC_U+30A4_U+30E4_U+30FC 1
370
     0
100
AcDbVertex
100
AcDb2dVertex
 10
121.4809570008798
 20
-147.566875505643
 30
0.0
  0
VERTEX
  5
131
330
12C
100
AcDbEntity
  8
_U+30EC_U+30A4_U+30E4_U+30FC 1
370
     0
100
AcDbVertex
100
AcDb2dVertex
 10
121.4809570008798
 20
-147.8187119856148
 30
0.0
  0
SEQEND
  5
132
330
12C
100
AcDbEntity
  8
_U+30EC_U+30A4_U+30E4_U+30FC 1
370
     0
  0
HATCH
  5
133
330
125
100
AcDbEntity
  8
_U+30EC_U+30A4_U+30E4_U+30FC 1
 62
   179
420
  2234388
100
AcDbHatch
 10
0.0
 20
0.0
 30
0.0
210
0.0
220
0.0
230
1.0
  2
SOLID
 70
     1
 71
     0
 91
        1
 92
        1
 93
        4
 72
     1
 10
121.4809570008798
 20
-147.8187119856148
 11
121.229120520908
 21
-147.8187119856148
 72
     1
 10
121.229120520908
 20
-147.8187119856148
 11
121.229120520908
 21
-147.566875505643
 72
     1
 10
121.229120520908
 20
-147.566875505643
 11
121.4809570008798
 21
-147.566875505643
 72
     1
 10
121.4809570008798
 20
-147.566875505643
 11
121.4809570008798
 21
-147.8187119856148
 97
        0
 75
     2
 76
     1
 98
        0
  0
SPLINE
  5
134
330
125
100
AcDbEntity
  8
_U+30EC_U+30A4_U+30E4_U+30FC 1
370
     0
100
AcDbSpline
210
0.0
220
0.0
230
1.0
 70
    11
 71
     3
 72
    53
 73
    49
 74
     0
 42
0.0000000001
 43
0.0000000001
 12
1.0
 22
0.0
 32
0.0
 13
1.0
 23
0.0
 33
0.0
 40
0.0
 40
0.0
 40
0.0
 40
0.0
 40
1.0
 40
1.0
 40
1.0
 40
2.0
 40
2.0
 40
2.0
 40
3.0
 40
3.0
 40
3.0
 40
4.0
 40
4.0
 40
4.0
 40
5.0
 40
5.0
 40
5.0
 40
6.0
 40
6.0
 40
6.0
 40
7.0
 40
7.0
 40
7.0
 40
8.0
 40
8.0
 40
8.0
 40
9.0
 40
9.0
 40
9.0
 40
10.0
 40
10.0
 40
10.0
 40
11.0
 40
11.0
 40
11.0
 40
12.0
 40
12.0
 40
12.0
 40
13.0
 40
13.0
 40
13.0
 40
14.0
 40
14.0
 40
14.0
 40
15.0
 40
15.0
 40
15.0
 40
16.0
 40
16.0
 40
16.0
 40
16.0
 10
121.5315999045129
 20
-146.849606625614
 30
0.0
 10
121.5315999045129
 20
-146.9278102931292
 30
0.0
 10
121.5147189366352
 20
-147.029440609944
 30
0.0
 10
121.4513291797066
 20
-147.1310709267589
 30
0.0
 10
121.3414306337271
 20
-147.304359229667
 30
0.0
 10
121.2101724957391
 20
-147.3257188216755
 30
0.0
 10
121.1023410070508
 20
-147.3446668468444
 30
0.0
 10
121.1023410070508
 20
-147.3446668468444
 30
0.0
 10
121.1023410070508
 20
-147.1224581880458
 30
0.0
 10
121.1023410070508
 20
-147.1224581880458
 30
0.0
 10
121.3011230165497
 20
-147.0676811698303
 30
0.0
 10
121.3307508377229
 20
-146.9405571464246
 30
0.0
 10
121.3307508377229
 20
-146.8475395683228
 30
0.0
 10
121.3307508377229
 20
-146.7080132011702
 30
0.0
 10
121.2311875781992
 20
-146.5557399807222
 30
0.0
 10
120.9986436329448
 20
-146.5557399807222
 30
0.0
 10
120.7426730383907
 20
-146.5557399807222
 30
0.0
 10
120.6727376000402
 20
-146.7355739650522
 30
0.0
 10
120.6727376000402
 20
-146.856152307036
 30
0.0
 10
120.6727376000402
 20
-146.8878471855003
 30
0.0
 10
120.6727376000402
 20
-147.029440609944
 30
0.0
 10
120.801928680737
 20
-147.1183240734635
 30
0.0
 10
120.801928680737
 20
-147.1183240734635
 30
0.0
 10
120.7829806555682
 20
-147.2940239432112
 30
0.0
 10
120.7829806555682
 20
-147.2940239432112
 30
0.0
 10
120.7829806555682
 20
-147.2940239432112
 30
0.0
 10
119.9365206948423
 20
-147.1734456012275
 30
0.0
 10
119.9365206948423
 20
-147.1734456012275
 30
0.0
 10
119.9365206948423
 20
-147.1734456012275
 30
0.0
 10
119.9365206948423
 20
-146.394854021561
 30
0.0
 10
119.9365206948423
 20
-146.394854021561
 30
0.0
 10
119.9365206948423
 20
-146.394854021561
 30
0.0
 10
120.1311685897589
 20
-146.394854021561
 30
0.0
 10
120.1311685897589
 20
-146.394854021561
 30
0.0
 10
120.1311685897589
 20
-146.394854021561
 30
0.0
 10
120.1311685897589
 20
-147.0104925847752
 30
0.0
 10
120.1311685897589
 20
-147.0104925847752
 30
0.0
 10
120.1311685897589
 20
-147.0104925847752
 30
0.0
 10
120.5542263153476
 20
-147.0759493989949
 30
0.0
 10
120.5542263153476
 20
-147.0759493989949
 30
0.0
 10
120.5204643795921
 20
-147.0146266993574
 30
0.0
 10
120.4801567624147
 20
-146.93228891726
 30
0.0
 10
120.4801567624147
 20
-146.8137776325674
 30
0.0
 10
120.4801567624147
 20
-146.5598740953045
 30
0.0
 10
120.6665364281667
 20
-146.3228515259193
 30
0.0
 10
120.9796956077759
 20
-146.3228515259193
 30
0.0
 10
121.2969889019674
 20
-146.3228515259193
 30
0.0
 10
121.5315999045129
 20
-146.5471272420091
 30
0.0
 10
121.5315999045129
 20
-146.849606625614
 30
0.0
  0
HATCH
  5
135
330
125
100
AcDbEntity
  8
_U+30EC_U+30A4_U+30E4_U+30FC 1
 62
   179
420
  2234388
100
AcDbHatch
 10
0.0
 20
0.0
 30
0.0
210
0.0
220
0.0
230
1.0
  2
SOLID
 70
     1
 71
     0
 91
        1
 92
        1
 93
        1
 72
     4
 94
        3
 73
     0
 74
     1
 95
       53
 96
       49
 40
0.0
 40
0.0
 40
0.0
 40
0.0
 40
1.0
 40
1.0
 40
1.0
 40
2.0
 40
2.0
 40
2.0
 40
3.0
 40
3.0
 40
3.0
 40
4.0
 40
4.0
 40
4.0
 40
5.0
 40
5.0
 40
5.0
 40
6.0
 40
6.0
 40
6.0
 40
7.0
 40
7.0
 40
7.0
 40
8.0
 40
8.0
 40
8.0
 40
9.0
 40
9.0
 40
9.0
 40
10.0
 40
10.0
 40
10.0
 40
11.0
 40
11.0
 40
11.0
 40
12.0
 40
12.0
 40
12.0
 40
13.0
 40
13.0
 40
13.0
 40
14.0
 40
14.0
 40
14.0
 40
15.0
 40
15.0
 40
15.0
 40
16.0
 40
16.0
 40
16.0
 40
16.0
 10
121.5315999045129
 20
-146.849606625614
 10
121.5315999045129
 20
-146.9278102931292
 10
121.5147189366352
 20
-147.029440609944
 10
121.4513291797066
 20
-147.1310709267589
 10
121.3414306337271
 20
-147.304359229667
 10
121.2101724957391
 20
-147.3257188216755
 10
121.1023410070508
 20
-147.3446668468444
 10
121.1023410070508
 20
-147.3446668468444
 10
121.1023410070508
 20
-147.1224581880458
 10
121.1023410070508
 20
-147.1224581880458
 10
121.3011230165497
 20
-147.0676811698303
 10
121.3307508377229
 20
-146.9405571464246
 10
121.3307508377229
 20
-146.8475395683228
 10
121.3307508377229
 20
-146.7080132011702
 10
121.2311875781992
 20
-146.5557399807222
 10
120.9986436329448
 20
-146.5557399807222
 10
120.7426730383907
 20
-146.5557399807222
 10
120.6727376000402
 20
-146.7355739650522
 10
120.6727376000402
 20
-146.856152307036
 10
120.6727376000402
 20
-146.8878471855003
 10
120.6727376000402
 20
-147.029440609944
 10
120.801928680737
 20
-147.1183240734635
 10
120.801928680737
 20
-147.1183240734635
 10
120.7829806555682
 20
-147.2940239432112
 10
120.7829806555682
 20
-147.2940239432112
 10
120.7829806555682
 20
-147.2940239432112
 10
119.9365206948423
 20
-147.1734456012275
 10
119.9365206948423
 20
-147.1734456012275
 10
119.9365206948423
 20
-147.1734456012275
 10
119.9365206948423
 20
-146.394854021561
 10
119.9365206948423
 20
-146.394854021561
 10
119.9365206948423
 20
-146.394854021561
 10
120.1311685897589
 20
-146.394854021561
 10
120.1311685897589
 20
-146.394854021561
 10
120.1311685897589
 20
-146.394854021561
 10
120.1311685897589
 20
-147.0104925847752
 10
120.1311685897589
 20
-147.0104925847752
 10
120.1311685897589
 20
-147.0104925847752
 10
120.5542263153476
 20
-147.0759493989949
 10
120.5542263153476
 20
-147.0759493989949
 10
120.5204643795921
 20
-147.0146266993574
 10
120.4801567624147
 20
-146.93228891726
 10
120.4801567624147
 20
-146.8137776325674
 10
120.4801567624147
 20
-146.5598740953045
 10
120.6665364281667
 20
-146.3228515259193
 10
120.9796956077759
 20
-146.3228515259193
 10
121.2969889019674
 20
-146.3228515259193
 10
121.5315999045129
 20
-146.5471272420091
 10
121.5315999045129
 20
-146.849606625614
 97
        0
 97
        0
 75
     2
 76
     1
 98
        0
  0
ENDBLK
  5
128
330
125
100
AcDbEntity
  8
0
100
AcDbBlockEnd
  0
ENDSEC
  0
SECTION
  2
ENTITIES
  0
INSERT
  5
42
330
1F
100
AcDbEntity
  8
_U+30EC_U+30A4_U+30E4_U+30FC 1
100
AcDbBlockReference
  2
block 2
 10
0.0
 20
0.0
 30
0.0
  0
POLYLINE
  5
54
330
1F
100
AcDbEntity
  8
_U+30EC_U+30A4_U+30E4_U+30FC 1
 62
   179
420
  2234388
370
    25
100
AcDb2dPolyline
 66
     1
 10
0.0
 20
0.0
 30
0.0
  0
VERTEX
  5
55
330
54
100
AcDbEntity
  8
_U+30EC_U+30A4_U+30E4_U+30FC 1
 62
   179
420
  2234388
370
    25
100
AcDbVertex
100
AcDb2dVertex
 10
86.7833333116375
 20
-144.4904046860996
 30
0.0
  0
VERTEX
  5
56
330
54
100
AcDbEntity
  8
_U+30EC_U+30A4_U+30E4_U+30FC 1
 62
   179
420
  2234388
370
    25
100
AcDbVertex
100
AcDb2dVertex
 10
94.78302563743911
 20
-144.4904046860996
 30
0.0
  0
VERTEX
  5
57
330
54
100
AcDbEntity
  8
_U+30EC_U+30A4_U+30E4_U+30FC 1
 62
   179
420
  2234388
370
    25
100
AcDbVertex
100
AcDb2dVertex
 10
94.78302563743911
 20
-151.9910599620022
 30
0.0
  0
VERTEX
  5
58
330
54
100
AcDbEntity
  8
_U+30EC_U+30A4_U+30E4_U+30FC 1
 62
   179
420
  2234388
370
    25
100
AcDbVertex
100
AcDb2dVertex
 10
104.7827610849154
 20
-151.2903374621772
 30
0.0
  0
VERTEX
  5
59
330
54
100
AcDbEntity
  8
_U+30EC_U+30A4_U+30E4_U+30FC 1
 62
   179
420
  2234388
370
    25
100
AcDbVertex
100
AcDb2dVertex
 10
104.7827610849154
 20
-150.9906174622523
 30
0.0
  0
VERTEX
  5
5A
330
54
100
AcDbEntity
  8
_U+30EC_U+30A4_U+30E4_U+30FC 1
 62
   179
420
  2234388
370
    25
100
AcDbVertex
100
AcDb2dVertex
 10
97.78301250534751
 20
-150.9906174622523
 30
0.0
  0
VERTEX
  5
5B
330
54
100
AcDbEntity
  8
_U+30EC_U+30A4_U+30E4_U+30FC 1
 62
   179
420
  2234388
370
    25
100
AcDbVertex
100
AcDb2dVertex
 10
97.78301250534751
 20
-144.4911102416551
 30
0.0
  0
VERTEX
  5
5C
330
54
100
AcDbEntity
  8
_U+30EC_U+30A4_U+30E4_U+30FC 1
 62
   179
420
  2234388
370
    25
100
AcDbVertex
100
AcDb2dVertex
 10
118.7827471925267
 20
-144.4911102416551
 30
0.0
  0
VERTEX
  5
5D
330
54
100
AcDbEntity
  8
_U+30EC_U+30A4_U+30E4_U+30FC 1
 62
   179
420
  2234388
370
    25
100
AcDbVertex
100
AcDb2dVertex
 10
118.7827471925267
 20
-143.4906324641274
 30
0.0
  0
VERTEX
  5
5E
330
54
100
AcDbEntity
  8
_U+30EC_U+30A4_U+30E4_U+30FC 1
 62
   179
420
  2234388
370
    25
100
AcDbVertex
100
AcDb2dVertex
 10
96.78253475309405
 20
-143.4906324641274
 30
0.0
  0
VERTEX
  5
5F
330
54
100
AcDbEntity
  8
_U+30EC_U+30A4_U+30E4_U+30FC 1
 62
   179
420
  2234388
370
    25
100
AcDbVertex
100
AcDb2dVertex
 10
96.78253475309405
 20
-150.9906174622523
 30
0.0
  0
VERTEX
  5
60
330
54
100
AcDbEntity
  8
_U+30EC_U+30A4_U+30E4_U+30FC 1
 62
   179
420
  2234388
370
    25
100
AcDbVertex
100
AcDb2dVertex
 10
95.78279783415502
 20
-150.9906174622523
 30
0.0
  0
VERTEX
  5
61
330
54
100
AcDbEntity
  8
_U+30EC_U+30A4_U+30E4_U+30FC 1
 62
   179
420
  2234388
370
    25
100
AcDbVertex
100
AcDb2dVertex
 10
95.78279783415502
 20
-143.4906324641274
 30
0.0
  0
VERTEX
  5
62
330
54
100
AcDbEntity
  8
_U+30EC_U+30A4_U+30E4_U+30FC 1
 62
   179
420
  2234388
370
    25
100
AcDbVertex
100
AcDb2dVertex
 10
86.7833333116375
 20
-143.4906324641274
 30
0.0
  0
VERTEX
  5
63
330
54
100
AcDbEntity
  8
_U+30EC_U+30A4_U+30E4_U+30FC 1
 62
   179
420
  2234388
370
    25
100
AcDbVertex
100
AcDb2dVertex
 10
86.7833333116375
 20
-144.4904046860996
 30
0.0
  0
SEQEND
  5
64
330
54
100
AcDbEntity
  8
_U+30EC_U+30A4_U+30E4_U+30FC 1
 62
   179
420
  2234388
370
    25
  0
POLYLINE
  5
65
330
1F
100
AcDbEntity
  8
_U+30EC_U+30A4_U+30E4_U+30FC 1
 62
   179
420
  2234388
370
     9
100
AcDb2dPolyline
 66
     1
 10
0.0
 20
0.0
 30
0.0
  0
VERTEX
  5
66
330
65
100
AcDbEntity
  8
_U+30EC_U+30A4_U+30E4_U+30FC 1
 62
   179
420
  2234388
370
     9
100
AcDbVertex
100
AcDb2dVertex
 10
118.752440581484
 20
-139.7971549650509
 30
0.0
  0
VERTEX
  5
67
330
65
100
AcDbEntity
  8
_U+30EC_U+30A4_U+30E4_U+30FC 1
 62
   179
420
  2234388
370
     9
100
AcDbVertex
100
AcDb2dVertex
 10
86.7833333116375
 20
-139.7971549650509
 30
0.0
  0
SEQEND
  5
68
330
65
100
AcDbEntity
  8
_U+30EC_U+30A4_U+30E4_U+30FC 1
 62
   179
420
  2234388
370
     9
  0
SPLINE
  5
69
330
1F
100
AcDbEntity
  8
_U+30EC_U+30A4_U+30E4_U+30FC 1
 62
   179
420
  2234388
370
     9
100
AcDbSpline
210
0.0
220
0.0
230
1.0
 70
    11
 71
     3
 72
    17
 73
    13
 74
     0
 42
0.0000000001
 43
0.0000000001
 12
1.0
 22
0.0
 32
0.0
 13
1.0
 23
0.0
 33
0.0
 40
0.0
 40
0.0
 40
0.0
 40
0.0
 40
1.0
 40
1.0
 40
1.0
 40
2.0
 40
2.0
 40
2.0
 40
3.0
 40
3.0
 40
3.0
 40
4.0
 40
4.0
 40
4.0
 40
4.0
 10
86.75267473119932
 20
-139.6972482984089
 30
0.0
 10
86.69753556593938
 20
-139.6972482984089
 30
0.0
 10
86.6527680670815
 20
-139.7420157983978
 30
0.0
 10
86.6527680670815
 20
-139.7971549650509
 30
0.0
 10
86.6527680670815
 20
-139.8522588539258
 30
0.0
 10
86.69753556593938
 20
-139.8970616316925
 30
0.0
 10
86.75267473119932
 20
-139.8970616316925
 30
0.0
 10
86.80777861868239
 20
-139.8970616316925
 30
0.0
 10
86.85258139531716
 20
-139.8522588539258
 30
0.0
 10
86.85258139531716
 20
-139.7971549650509
 30
0.0
 10
86.85258139531716
 20
-139.7420157983978
 30
0.0
 10
86.80777861868239
 20
-139.6972482984089
 30
0.0
 10
86.75267473119932
 20
-139.6972482984089
 30
0.0
  0
POLYLINE
  5
6A
330
1F
100
AcDbEntity
  8
_U+30EC_U+30A4_U+30E4_U+30FC 1
 62
   179
420
  2234388
370
     9
100
AcDb2dPolyline
 66
     1
 10
0.0
 20
0.0
 30
0.0
  0
VERTEX
  5
6B
330
6A
100
AcDbEntity
  8
_U+30EC_U+30A4_U+30E4_U+30FC 1
 62
   179
420
  2234388
370
     9
100
AcDbVertex
100
AcDb2dVertex
 10
86.75267473119932
 20
-138.3367607987491
 30
0.0
  0
VERTEX
  5
6C
330
6A
100
AcDbEntity
  8
_U+30EC_U+30A4_U+30E4_U+30FC 1
 62
   179
420
  2234388
370
     9
100
AcDbVertex
100
AcDb2dVertex
 10
86.75267473119932
 20
-141.0777030202863
 30
0.0
  0
SEQEND
  5
6D
330
6A
100
AcDbEntity
  8
_U+30EC_U+30A4_U+30E4_U+30FC 1
 62
   179
420
  2234388
370
     9
  0
SPLINE
  5
6E
330
1F
100
AcDbEntity
  8
_U+30EC_U+30A4_U+30E4_U+30FC 1
 62
   179
420
  2234388
370
     9
100
AcDbSpline
210
0.0
220
0.0
230
1.0
 70
    11
 71
     3
 72
    17
 73
    13
 74
     0
 42
0.0000000001
 43
0.0000000001
 12
1.0
 22
0.0
 32
0.0
 13
1.0
 23
0.0
 33
0.0
 40
0.0
 40
0.0
 40
0.0
 40
0.0
 40
1.0
 40
1.0
 40
1.0
 40
2.0
 40
2.0
 40
2.0
 40
3.0
 40
3.0
 40
3.0
 40
4.0
 40
4.0
 40
4.0
 40
4.0
 10
118.752440581484
 20
-139.6972482984089
 30
0.0
 10
118.697301416224
 20
-139.6972482984089
 30
0.0
 10
118.6525339173661
 20
-139.7420157983978
 30
0.0
 10
118.6525339173661
 20
-139.7971549650509
 30
0.0
 10
118.6525339173661
 20
-139.8522588539258
 30
0.0
 10
118.697301416224
 20
-139.8970616316925
 30
0.0
 10
118.752440581484
 20
-139.8970616316925
 30
0.0
 10
118.807544468967
 20
-139.8970616316925
 30
0.0
 10
118.8523472456018
 20
-139.8522588539258
 30
0.0
 10
118.8523472456018
 20
-139.7971549650509
 30
0.0
 10
118.8523472456018
 20
-139.7420157983978
 30
0.0
 10
118.807544468967
 20
-139.6972482984089
 30
0.0
 10
118.752440581484
 20
-139.6972482984089
 30
0.0
  0
POLYLINE
  5
6F
330
1F
100
AcDbEntity
  8
_U+30EC_U+30A4_U+30E4_U+30FC 1
 62
   179
420
  2234388
370
     9
100
AcDb2dPolyline
 66
     1
 10
0.0
 20
0.0
 30
0.0
  0
VERTEX
  5
70
330
6F
100
AcDbEntity
  8
_U+30EC_U+30A4_U+30E4_U+30FC 1
 62
   179
420
  2234388
370
     9
100
AcDbVertex
100
AcDb2dVertex
 10
118.752440581484
 20
-138.3367607987491
 30
0.0
  0
VERTEX
  5
71
330
6F
100
AcDbEntity
  8
_U+30EC_U+30A4_U+30E4_U+30FC 1
 62
   179
420
  2234388
370
     9
100
AcDbVertex
100
AcDb2dVertex
 10
118.752440581484
 20
-141.0777030202863
 30
0.0
  0
SEQEND
  5
72
330
6F
100
AcDbEntity
  8
_U+30EC_U+30A4_U+30E4_U+30FC 1
 62
   179
420
  2234388
370
     9
  0
INSERT
  5
74
330
1F
100
AcDbEntity
  8
_U+30EC_U+30A4_U+30E4_U+30FC 1
100
AcDbBlockReference
  2
block 3
 10
0.0
 20
0.0
 30
0.0
  0
SPLINE
  5
7B
330
1F
100
AcDbEntity
  8
_U+30EC_U+30A4_U+30E4_U+30FC 1
 62
   179
420
  2234388
370
     9
100
AcDbSpline
210
0.0
220
0.0
230
1.0
 70
    11
 71
     3
 72
    17
 73
    13
 74
     0
 42
0.0000000001
 43
0.0000000001
 12
1.0
 22
0.0
 32
0.0
 13
1.0
 23
0.0
 33
0.0
 40
0.0
 40
0.0
 40
0.0
 40
0.0
 40
1.0
 40
1.0
 40
1.0
 40
2.0
 40
2.0
 40
2.0
 40
3.0
 40
3.0
 40
3.0
 40
4.0
 40
4.0
 40
4.0
 40
4.0
 10
86.8839433389615
 20
-156.2770982942641
 30
0.0
 10
86.8839433389615
 20
-156.2219944053892
 30
0.0
 10
86.83914056232673
 20
-156.1771916276225
 30
0.0
 10
86.7833333116375
 20
-156.1771916276225
 30
0.0
 10
86.72822723182303
 20
-156.1771916276225
 30
0.0
 10
86.68342445518827
 20
-156.2219944053892
 30
0.0
 10
86.68342445518827
 20
-156.2770982942641
 30
0.0
 10
86.68342445518827
 20
-156.3322374609172
 30
0.0
 10
86.72822723182303
 20
-156.3770049609058
 30
0.0
 10
86.7833333116375
 20
-156.3770049609058
 30
0.0
 10
86.83914056232673
 20
-156.3770049609058
 30
0.0
 10
86.8839433389615
 20
-156.3322374609172
 30
0.0
 10
86.8839433389615
 20
-156.2770982942641
 30
0.0
  0
POLYLINE
  5
7C
330
1F
100
AcDbEntity
  8
_U+30EC_U+30A4_U+30E4_U+30FC 1
 62
   179
420
  2234388
370
     9
100
AcDb2dPolyline
 66
     1
 10
0.0
 20
0.0
 30
0.0
  0
VERTEX
  5
7D
330
7C
100
AcDbEntity
  8
_U+30EC_U+30A4_U+30E4_U+30FC 1
 62
   179
420
  2234388
370
     9
100
AcDbVertex
100
AcDb2dVertex
 10
86.7833333116375
 20
-156.2770982942641
 30
0.0
  0
VERTEX
  5
7E
330
7C
100
AcDbEntity
  8
_U+30EC_U+30A4_U+30E4_U+30FC 1
 62
   179
420
  2234388
370
     9
100
AcDbVertex
100
AcDb2dVertex
 10
104.7827610849154
 20
-156.2770982942641
 30
0.0
  0
SEQEND
  5
7F
330
7C
100
AcDbEntity
  8
_U+30EC_U+30A4_U+30E4_U+30FC 1
 62
   179
420
  2234388
370
     9
  0
POLYLINE
  5
80
330
1F
100
AcDbEntity
  8
_U+30EC_U+30A4_U+30E4_U+30FC 1
 62
   179
420
  2234388
370
     9
100
AcDb2dPolyline
 66
     1
 10
0.0
 20
0.0
 30
0.0
  0
VERTEX
  5
81
330
80
100
AcDbEntity
  8
_U+30EC_U+30A4_U+30E4_U+30FC 1
 62
   179
420
  2234388
370
     9
100
AcDbVertex
100
AcDb2dVertex
 10
86.7833333116375
 20
-146.990505518808
 30
0.0
  0
VERTEX
  5
82
330
80
100
AcDbEntity
  8
_U+30EC_U+30A4_U+30E4_U+30FC 1
 62
   179
420
  2234388
370
     9
100
AcDbVertex
100
AcDb2dVertex
 10
86.7833333116375
 20
-157.1080663496118
 30
0.0
  0
SEQEND
  5
83
330
80
100
AcDbEntity
  8
_U+30EC_U+30A4_U+30E4_U+30FC 1
 62
   179
420
  2234388
370
     9
  0
SPLINE
  5
84
330
1F
100
AcDbEntity
  8
_U+30EC_U+30A4_U+30E4_U+30FC 1
 62
   179
420
  2234388
370
     9
100
AcDbSpline
210
0.0
220
0.0
230
1.0
 70
    11
 71
     3
 72
    17
 73
    13
 74
     0
 42
0.0000000001
 43
0.0000000001
 12
1.0
 22
0.0
 32
0.0
 13
1.0
 23
0.0
 33
0.0
 40
0.0
 40
0.0
 40
0.0
 40
0.0
 40
1.0
 40
1.0
 40
1.0
 40
2.0
 40
2.0
 40
2.0
 40
3.0
 40
3.0
 40
3.0
 40
4.0
 40
4.0
 40
4.0
 40
4.0
 10
104.8833353797587
 20
-156.2770982942641
 30
0.0
 10
104.8833353797587
 20
-156.2219944053892
 30
0.0
 10
104.8385678809009
 20
-156.1771916276225
 30
0.0
 10
104.7827610849154
 20
-156.1771916276225
 30
0.0
 10
104.7276192726203
 20
-156.1771916276225
 30
0.0
 10
104.6828517737624
 20
-156.2219944053892
 30
0.0
 10
104.6828517737624
 20
-156.2770982942641
 30
0.0
 10
104.6828517737624
 20
-156.3322374609172
 30
0.0
 10
104.7276192726203
 20
-156.3770049609058
 30
0.0
 10
104.7827610849154
 20
-156.3770049609058
 30
0.0
 10
104.8385678809009
 20
-156.3770049609058
 30
0.0
 10
104.8833353797587
 20
-156.3322374609172
 30
0.0
 10
104.8833353797587
 20
-156.2770982942641
 30
0.0
  0
POLYLINE
  5
85
330
1F
100
AcDbEntity
  8
_U+30EC_U+30A4_U+30E4_U+30FC 1
 62
   179
420
  2234388
370
     9
100
AcDb2dPolyline
 66
     1
 10
0.0
 20
0.0
 30
0.0
  0
VERTEX
  5
86
330
85
100
AcDbEntity
  8
_U+30EC_U+30A4_U+30E4_U+30FC 1
 62
   179
420
  2234388
370
     9
100
AcDbVertex
100
AcDb2dVertex
 10
104.7827610849154
 20
-153.9775163503945
 30
0.0
  0
VERTEX
  5
87
330
85
100
AcDbEntity
  8
_U+30EC_U+30A4_U+30E4_U+30FC 1
 62
   179
420
  2234388
370
     9
100
AcDbVertex
100
AcDb2dVertex
 10
104.7827610849154
 20
-157.1080663496118
 30
0.0
  0
SEQEND
  5
88
330
85
100
AcDbEntity
  8
_U+30EC_U+30A4_U+30E4_U+30FC 1
 62
   179
420
  2234388
370
     9
  0
SPLINE
  5
89
330
1F
100
AcDbEntity
  8
_U+30EC_U+30A4_U+30E4_U+30FC 1
 62
   179
420
  2234388
370
     9
100
AcDbSpline
210
0.0
220
0.0
230
1.0
 70
    11
 71
     3
 72
    17
 73
    13
 74
     0
 42
0.0000000001
 43
0.0000000001
 12
1.0
 22
0.0
 32
0.0
 13
1.0
 23
0.0
 33
0.0
 40
0.0
 40
0.0
 40
0.0
 40
0.0
 40
1.0
 40
1.0
 40
1.0
 40
2.0
 40
2.0
 40
2.0
 40
3.0
 40
3.0
 40
3.0
 40
4.0
 40
4.0
 40
4.0
 40
4.0
 10
94.88360257931762
 20
-156.2770982942641
 30
0.0
 10
94.88360257931762
 20
-156.2219944053892
 30
0.0
 10
94.83883508045975
 20
-156.1771916276225
 30
0.0
 10
94.78302563743911
 20
-156.1771916276225
 30
0.0
 10
94.72788886520708
 20
-156.1771916276225
 30
0.0
 10
94.68311897332129
 20
-156.2219944053892
 30
0.0
 10
94.68311897332129
 20
-156.2770982942641
 30
0.0
 10
94.68311897332129
 20
-156.3322374609172
 30
0.0
 10
94.72788886520708
 20
-156.3770049609058
 30
0.0
 10
94.78302563743911
 20
-156.3770049609058
 30
0.0
 10
94.83883508045975
 20
-156.3770049609058
 30
0.0
 10
94.88360257931762
 20
-156.3322374609172
 30
0.0
 10
94.88360257931762
 20
-156.2770982942641
 30
0.0
  0
POLYLINE
  5
8A
330
1F
100
AcDbEntity
  8
_U+30EC_U+30A4_U+30E4_U+30FC 1
 62
   179
420
  2234388
370
     9
100
AcDb2dPolyline
 66
     1
 10
0.0
 20
0.0
 30
0.0
  0
VERTEX
  5
8B
330
8A
100
AcDbEntity
  8
_U+30EC_U+30A4_U+30E4_U+30FC 1
 62
   179
420
  2234388
370
     9
100
AcDbVertex
100
AcDb2dVertex
 10
94.78302563743911
 20
-153.9775163503945
 30
0.0
  0
VERTEX
  5
8C
330
8A
100
AcDbEntity
  8
_U+30EC_U+30A4_U+30E4_U+30FC 1
 62
   179
420
  2234388
370
     9
100
AcDbVertex
100
AcDb2dVertex
 10
94.78302563743911
 20
-157.1080663496118
 30
0.0
  0
SEQEND
  5
8D
330
8A
100
AcDbEntity
  8
_U+30EC_U+30A4_U+30E4_U+30FC 1
 62
   179
420
  2234388
370
     9
  0
INSERT
  5
8F
330
1F
100
AcDbEntity
  8
_U+30EC_U+30A4_U+30E4_U+30FC 1
100
AcDbBlockReference
  2
block 4
 10
0.0
 20
0.0
 30
0.0
  0
INSERT
  5
97
330
1F
100
AcDbEntity
  8
_U+30EC_U+30A4_U+30E4_U+30FC 1
100
AcDbBlockReference
  2
block 5
 10
0.0
 20
0.0
 30
0.0
  0
POLYLINE
  5
9F
330
1F
100
AcDbEntity
  8
_U+30EC_U+30A4_U+30E4_U+30FC 1
 62
   179
420
  2234388
370
     9
100
AcDb2dPolyline
 66
     1
 10
0.0
 20
0.0
 30
0.0
  0
VERTEX
  5
A0
330
9F
100
AcDbEntity
  8
_U+30EC_U+30A4_U+30E4_U+30FC 1
 62
   179
420
  2234388
370
     9
100
AcDbVertex
100
AcDb2dVertex
 10
104.8826651019981
 20
-152.0013963508886
 30
0.0
  0
VERTEX
  5
A1
330
9F
100
AcDbEntity
  8
_U+30EC_U+30A4_U+30E4_U+30FC 1
 62
   179
420
  2234388
370
     9
100
AcDbVertex
100
AcDb2dVertex
 10
108.5398063975855
 20
-155.0499607945705
 30
0.0
  0
SEQEND
  5
A2
330
9F
100
AcDbEntity
  8
_U+30EC_U+30A4_U+30E4_U+30FC 1
 62
   179
420
  2234388
370
     9
  0
INSERT
  5
A4
330
1F
100
AcDbEntity
  8
_U+30EC_U+30A4_U+30E4_U+30FC 1
100
AcDbBlockReference
  2
block 6
 10
0.0
 20
0.0
 30
0.0
  0
SPLINE
  5
E1
330
1F
100
AcDbEntity
  8
_U+30EC_U+30A4_U+30E4_U+30FC 1
 62
   179
420
  2234388
370
     9
100
AcDbSpline
210
0.0
220
0.0
230
1.0
 70
    11
 71
     3
 72
    17
 73
    13
 74
     0
 42
0.0000000001
 43
0.0000000001
 12
1.0
 22
0.0
 32
0.0
 13
1.0
 23
0.0
 33
0.0
 40
0.0
 40
0.0
 40
0.0
 40
0.0
 40
1.0
 40
1.0
 40
1.0
 40
2.0
 40
2.0
 40
2.0
 40
3.0
 40
3.0
 40
3.0
 40
4.0
 40
4.0
 40
4.0
 40
4.0
 10
122.8824099205641
 20
-143.4906324641274
 30
0.0
 10
122.8824099205641
 20
-143.4348230196969
 30
0.0
 10
122.8376424217062
 20
-143.3900555197081
 30
0.0
 10
122.7825032564463
 20
-143.3900555197081
 30
0.0
 10
122.7273993689632
 20
-143.3900555197081
 30
0.0
 10
122.6825965923284
 20
-143.4348230196969
 30
0.0
 10
122.6825965923284
 20
-143.4906324641274
 30
0.0
 10
122.6825965923284
 20
-143.5457716307801
 30
0.0
 10
122.7273993689632
 20
-143.590539130769
 30
0.0
 10
122.7825032564463
 20
-143.590539130769
 30
0.0
 10
122.8376424217062
 20
-143.590539130769
 30
0.0
 10
122.8824099205641
 20
-143.5457716307801
 30
0.0
 10
122.8824099205641
 20
-143.4906324641274
 30
0.0
  0
SPLINE
  5
E2
330
1F
100
AcDbEntity
  8
_U+30EC_U+30A4_U+30E4_U+30FC 1
 62
   179
420
  2234388
370
     9
100
AcDbSpline
210
0.0
220
0.0
230
1.0
 70
    11
 71
     3
 72
    17
 73
    13
 74
     0
 42
0.0000000001
 43
0.0000000001
 12
1.0
 22
0.0
 32
0.0
 13
1.0
 23
0.0
 33
0.0
 40
0.0
 40
0.0
 40
0.0
 40
0.0
 40
1.0
 40
1.0
 40
1.0
 40
2.0
 40
2.0
 40
2.0
 40
3.0
 40
3.0
 40
3.0
 40
4.0
 40
4.0
 40
4.0
 40
4.0
 10
122.8824099205641
 20
-144.4904046860996
 30
0.0
 10
122.8824099205641
 20
-144.4353007972244
 30
0.0
 10
122.8376424217062
 20
-144.390498019458
 30
0.0
 10
122.7825032564463
 20
-144.390498019458
 30
0.0
 10
122.7273993689632
 20
-144.390498019458
 30
0.0
 10
122.6825965923284
 20
-144.4353007972244
 30
0.0
 10
122.6825965923284
 20
-144.4904046860996
 30
0.0
 10
122.6825965923284
 20
-144.5455438527524
 30
0.0
 10
122.7273993689632
 20
-144.5903113527413
 30
0.0
 10
122.7825032564463
 20
-144.5903113527413
 30
0.0
 10
122.8376424217062
 20
-144.5903113527413
 30
0.0
 10
122.8824099205641
 20
-144.5455438527524
 30
0.0
 10
122.8824099205641
 20
-144.4904046860996
 30
0.0
  0
SPLINE
  5
E3
330
1F
100
AcDbEntity
  8
_U+30EC_U+30A4_U+30E4_U+30FC 1
 62
   179
420
  2234388
370
     9
100
AcDbSpline
210
0.0
220
0.0
230
1.0
 70
    11
 71
     3
 72
    17
 73
    13
 74
     0
 42
0.0000000001
 43
0.0000000001
 12
1.0
 22
0.0
 32
0.0
 13
1.0
 23
0.0
 33
0.0
 40
0.0
 40
0.0
 40
0.0
 40
0.0
 40
1.0
 40
1.0
 40
1.0
 40
2.0
 40
2.0
 40
2.0
 40
3.0
 40
3.0
 40
3.0
 40
4.0
 40
4.0
 40
4.0
 40
4.0
 10
108.882247777738
 20
-150.9906174622523
 30
0.0
 10
108.882247777738
 20
-150.9348080178219
 30
0.0
 10
108.8374450011032
 20
-150.8900052400552
 30
0.0
 10
108.7823411136202
 20
-150.8900052400552
 30
0.0
 10
108.7272019483602
 20
-150.8900052400552
 30
0.0
 10
108.6824344495023
 20
-150.9348080178219
 30
0.0
 10
108.6824344495023
 20
-150.9906174622523
 30
0.0
 10
108.6824344495023
 20
-151.0457213511272
 30
0.0
 10
108.7272019483602
 20
-151.0905241288939
 30
0.0
 10
108.7823411136202
 20
-151.0905241288939
 30
0.0
 10
108.8374450011032
 20
-151.0905241288939
 30
0.0
 10
108.882247777738
 20
-151.0457213511272
 30
0.0
 10
108.882247777738
 20
-150.9906174622523
 30
0.0
  0
SPLINE
  5
E4
330
1F
100
AcDbEntity
  8
_U+30EC_U+30A4_U+30E4_U+30FC 1
 62
   179
420
  2234388
370
     9
100
AcDbSpline
210
0.0
220
0.0
230
1.0
 70
    11
 71
     3
 72
    17
 73
    13
 74
     0
 42
0.0000000001
 43
0.0000000001
 12
1.0
 22
0.0
 32
0.0
 13
1.0
 23
0.0
 33
0.0
 40
0.0
 40
0.0
 40
0.0
 40
0.0
 40
1.0
 40
1.0
 40
1.0
 40
2.0
 40
2.0
 40
2.0
 40
3.0
 40
3.0
 40
3.0
 40
4.0
 40
4.0
 40
4.0
 40
4.0
 10
108.882247777738
 20
-151.2903374621772
 30
0.0
 10
108.882247777738
 20
-151.2351982955248
 30
0.0
 10
108.8374450011032
 20
-151.1904307955356
 30
0.0
 10
108.7823411136202
 20
-151.1904307955356
 30
0.0
 10
108.7272019483602
 20
-151.1904307955356
 30
0.0
 10
108.6824344495023
 20
-151.2351982955248
 30
0.0
 10
108.6824344495023
 20
-151.2903374621772
 30
0.0
 10
108.6824344495023
 20
-151.3454413510528
 30
0.0
 10
108.7272019483602
 20
-151.3902441288189
 30
0.0
 10
108.7823411136202
 20
-151.3902441288189
 30
0.0
 10
108.8374450011032
 20
-151.3902441288189
 30
0.0
 10
108.882247777738
 20
-151.3454413510528
 30
0.0
 10
108.882247777738
 20
-151.2903374621772
 30
0.0
  0
SPLINE
  5
E5
330
1F
100
AcDbEntity
  8
_U+30EC_U+30A4_U+30E4_U+30FC 1
 62
   179
420
  2234388
370
     9
100
AcDbSpline
210
0.0
220
0.0
230
1.0
 70
    11
 71
     3
 72
    17
 73
    13
 74
     0
 42
0.0000000001
 43
0.0000000001
 12
1.0
 22
0.0
 32
0.0
 13
1.0
 23
0.0
 33
0.0
 40
0.0
 40
0.0
 40
0.0
 40
0.0
 40
1.0
 40
1.0
 40
1.0
 40
2.0
 40
2.0
 40
2.0
 40
3.0
 40
3.0
 40
3.0
 40
4.0
 40
4.0
 40
4.0
 40
4.0
 10
122.8824099205641
 20
-150.9906174622523
 30
0.0
 10
122.8824099205641
 20
-150.9348080178219
 30
0.0
 10
122.8376424217062
 20
-150.8900052400552
 30
0.0
 10
122.7825032564463
 20
-150.8900052400552
 30
0.0
 10
122.7273993689632
 20
-150.8900052400552
 30
0.0
 10
122.6825965923284
 20
-150.9348080178219
 30
0.0
 10
122.6825965923284
 20
-150.9906174622523
 30
0.0
 10
122.6825965923284
 20
-151.0457213511272
 30
0.0
 10
122.7273993689632
 20
-151.0905241288939
 30
0.0
 10
122.7825032564463
 20
-151.0905241288939
 30
0.0
 10
122.8376424217062
 20
-151.0905241288939
 30
0.0
 10
122.8824099205641
 20
-151.0457213511272
 30
0.0
 10
122.8824099205641
 20
-150.9906174622523
 30
0.0
  0
POLYLINE
  5
E6
330
1F
100
AcDbEntity
  8
_U+30EC_U+30A4_U+30E4_U+30FC 1
 62
   179
420
  2234388
370
     9
100
AcDb2dPolyline
 66
     1
 10
0.0
 20
0.0
 30
0.0
  0
VERTEX
  5
E7
330
E6
100
AcDbEntity
  8
_U+30EC_U+30A4_U+30E4_U+30FC 1
 62
   179
420
  2234388
370
     9
100
AcDbVertex
100
AcDb2dVertex
 10
122.7825032564463
 20
-143.4906324641274
 30
0.0
  0
VERTEX
  5
E8
330
E6
100
AcDbEntity
  8
_U+30EC_U+30A4_U+30E4_U+30FC 1
 62
   179
420
  2234388
370
     9
100
AcDbVertex
100
AcDb2dVertex
 10
122.7825032564463
 20
-139.72031996507
 30
0.0
  0
SEQEND
  5
E9
330
E6
100
AcDbEntity
  8
_U+30EC_U+30A4_U+30E4_U+30FC 1
 62
   179
420
  2234388
370
     9
  0
POLYLINE
  5
EA
330
1F
100
AcDbEntity
  8
_U+30EC_U+30A4_U+30E4_U+30FC 1
 62
   179
420
  2234388
370
     9
100
AcDb2dPolyline
 66
     1
 10
0.0
 20
0.0
 30
0.0
  0
VERTEX
  5
EB
330
EA
100
AcDbEntity
  8
_U+30EC_U+30A4_U+30E4_U+30FC 1
 62
   179
420
  2234388
370
     9
100
AcDbVertex
100
AcDb2dVertex
 10
122.7825032564463
 20
-143.4906324641274
 30
0.0
  0
VERTEX
  5
EC
330
EA
100
AcDbEntity
  8
_U+30EC_U+30A4_U+30E4_U+30FC 1
 62
   179
420
  2234388
370
     9
100
AcDbVertex
100
AcDb2dVertex
 10
122.7825032564463
 20
-144.4904046860996
 30
0.0
  0
SEQEND
  5
ED
330
EA
100
AcDbEntity
  8
_U+30EC_U+30A4_U+30E4_U+30FC 1
 62
   179
420
  2234388
370
     9
  0
POLYLINE
  5
EE
330
1F
100
AcDbEntity
  8
_U+30EC_U+30A4_U+30E4_U+30FC 1
 62
   179
420
  2234388
370
     9
100
AcDb2dPolyline
 66
     1
 10
0.0
 20
0.0
 30
0.0
  0
VERTEX
  5
EF
330
EE
100
AcDbEntity
  8
_U+30EC_U+30A4_U+30E4_U+30FC 1
 62
   179
420
  2234388
370
     9
100
AcDbVertex
100
AcDb2dVertex
 10
121.322497182583
 20
-143.4906324641274
 30
0.0
  0
VERTEX
  5
F0
330
EE
100
AcDbEntity
  8
_U+30EC_U+30A4_U+30E4_U+30FC 1
 62
   179
420
  2234388
370
     9
100
AcDbVertex
100
AcDb2dVertex
 10
123.7829810086997
 20
-143.4906324641274
 30
0.0
  0
SEQEND
  5
F1
330
EE
100
AcDbEntity
  8
_U+30EC_U+30A4_U+30E4_U+30FC 1
 62
   179
420
  2234388
370
     9
  0
POLYLINE
  5
F2
330
1F
100
AcDbEntity
  8
_U+30EC_U+30A4_U+30E4_U+30FC 1
 62
   179
420
  2234388
370
     9
100
AcDb2dPolyline
 66
     1
 10
0.0
 20
0.0
 30
0.0
  0
VERTEX
  5
F3
330
F2
100
AcDbEntity
  8
_U+30EC_U+30A4_U+30E4_U+30FC 1
 62
   179
420
  2234388
370
     9
100
AcDbVertex
100
AcDb2dVertex
 10
121.322497182583
 20
-144.4904046860996
 30
0.0
  0
VERTEX
  5
F4
330
F2
100
AcDbEntity
  8
_U+30EC_U+30A4_U+30E4_U+30FC 1
 62
   179
420
  2234388
370
     9
100
AcDbVertex
100
AcDb2dVertex
 10
123.7829810086997
 20
-144.4904046860996
 30
0.0
  0
SEQEND
  5
F5
330
F2
100
AcDbEntity
  8
_U+30EC_U+30A4_U+30E4_U+30FC 1
 62
   179
420
  2234388
370
     9
  0
INSERT
  5
F7
330
1F
100
AcDbEntity
  8
_U+30EC_U+30A4_U+30E4_U+30FC 1
100
AcDbBlockReference
  2
block 7
 10
0.0
 20
0.0
 30
0.0
  0
POLYLINE
  5
FC
330
1F
100
AcDbEntity
  8
_U+30EC_U+30A4_U+30E4_U+30FC 1
 62
   179
420
  2234388
370
     9
100
AcDb2dPolyline
 66
     1
 10
0.0
 20
0.0
 30
0.0
  0
VERTEX
  5
FD
330
FC
100
AcDbEntity
  8
_U+30EC_U+30A4_U+30E4_U+30FC 1
 62
   179
420
  2234388
370
     9
100
AcDbVertex
100
AcDb2dVertex
 10
108.7823411136202
 20
-150.9906174622523
 30
0.0
  0
VERTEX
  5
FE
330
FC
100
AcDbEntity
  8
_U+30EC_U+30A4_U+30E4_U+30FC 1
 62
   179
420
  2234388
370
     9
100
AcDbVertex
100
AcDb2dVertex
 10
108.7823411136202
 20
-145.7327116302334
 30
0.0
  0
SEQEND
  5
FF
330
FC
100
AcDbEntity
  8
_U+30EC_U+30A4_U+30E4_U+30FC 1
 62
   179
420
  2234388
370
     9
  0
POLYLINE
  5
100
330
1F
100
AcDbEntity
  8
_U+30EC_U+30A4_U+30E4_U+30FC 1
 62
   179
420
  2234388
370
     9
100
AcDb2dPolyline
 66
     1
 10
0.0
 20
0.0
 30
0.0
  0
VERTEX
  5
101
330
100
100
AcDbEntity
  8
_U+30EC_U+30A4_U+30E4_U+30FC 1
 62
   179
420
  2234388
370
     9
100
AcDbVertex
100
AcDb2dVertex
 10
108.7823411136202
 20
-150.9906174622523
 30
0.0
  0
VERTEX
  5
102
330
100
100
AcDbEntity
  8
_U+30EC_U+30A4_U+30E4_U+30FC 1
 62
   179
420
  2234388
370
     9
100
AcDbVertex
100
AcDb2dVertex
 10
108.7823411136202
 20
-152.2901096841498
 30
0.0
  0
SEQEND
  5
103
330
100
100
AcDbEntity
  8
_U+30EC_U+30A4_U+30E4_U+30FC 1
 62
   179
420
  2234388
370
     9
  0
POLYLINE
  5
104
330
1F
100
AcDbEntity
  8
_U+30EC_U+30A4_U+30E4_U+30FC 1
 62
   179
420
  2234388
370
     9
100
AcDb2dPolyline
 66
     1
 10
0.0
 20
0.0
 30
0.0
  0
VERTEX
  5
105
330
104
100
AcDbEntity
  8
_U+30EC_U+30A4_U+30E4_U+30FC 1
 62
   179
420
  2234388
370
     9
100
AcDbVertex
100
AcDb2dVertex
 10
107.32229976198
 20
-150.9906174622523
 30
0.0
  0
VERTEX
  5
106
330
104
100
AcDbEntity
  8
_U+30EC_U+30A4_U+30E4_U+30FC 1
 62
   179
420
  2234388
370
     9
100
AcDbVertex
100
AcDb2dVertex
 10
109.7827835880967
 20
-150.9906174622523
 30
0.0
  0
SEQEND
  5
107
330
104
100
AcDbEntity
  8
_U+30EC_U+30A4_U+30E4_U+30FC 1
 62
   179
420
  2234388
370
     9
  0
POLYLINE
  5
108
330
1F
100
AcDbEntity
  8
_U+30EC_U+30A4_U+30E4_U+30FC 1
 62
   179
420
  2234388
370
     9
100
AcDb2dPolyline
 66
     1
 10
0.0
 20
0.0
 30
0.0
  0
VERTEX
  5
109
330
108
100
AcDbEntity
  8
_U+30EC_U+30A4_U+30E4_U+30FC 1
 62
   179
420
  2234388
370
     9
100
AcDbVertex
100
AcDb2dVertex
 10
107.32229976198
 20
-151.2903374621772
 30
0.0
  0
VERTEX
  5
10A
330
108
100
AcDbEntity
  8
_U+30EC_U+30A4_U+30E4_U+30FC 1
 62
   179
420
  2234388
370
     9
100
AcDbVertex
100
AcDb2dVertex
 10
109.7827835880967
 20
-151.2903374621772
 30
0.0
  0
SEQEND
  5
10B
330
108
100
AcDbEntity
  8
_U+30EC_U+30A4_U+30E4_U+30FC 1
 62
   179
420
  2234388
370
     9
  0
INSERT
  5
10D
330
1F
100
AcDbEntity
  8
_U+30EC_U+30A4_U+30E4_U+30FC 1
100
AcDbBlockReference
  2
block 8
 10
0.0
 20
0.0
 30
0.0
  0
POLYLINE
  5
11D
330
1F
100
AcDbEntity
  8
_U+30EC_U+30A4_U+30E4_U+30FC 1
 62
   179
420
  2234388
370
     9
100
AcDb2dPolyline
 66
     1
 10
0.0
 20
0.0
 30
0.0
  0
VERTEX
  5
11E
330
11D
100
AcDbEntity
  8
_U+30EC_U+30A4_U+30E4_U+30FC 1
 62
   179
420
  2234388
370
     9
100
AcDbVertex
100
AcDb2dVertex
 10
122.7825032564463
 20
-150.9906174622523
 30
0.0
  0
VERTEX
  5
11F
330
11D
100
AcDbEntity
  8
_U+30EC_U+30A4_U+30E4_U+30FC 1
 62
   179
420
  2234388
370
     9
100
AcDbVertex
100
AcDb2dVertex
 10
122.7825032564463
 20
-144.4904046860996
 30
0.0
  0
SEQEND
  5
120
330
11D
100
AcDbEntity
  8
_U+30EC_U+30A4_U+30E4_U+30FC 1
 62
   179
420
  2234388
370
     9
  0
POLYLINE
  5
121
330
1F
100
AcDbEntity
  8
_U+30EC_U+30A4_U+30E4_U+30FC 1
 62
   179
420
  2234388
370
     9
100
AcDb2dPolyline
 66
     1
 10
0.0
 20
0.0
 30
0.0
  0
VERTEX
  5
122
330
121
100
AcDbEntity
  8
_U+30EC_U+30A4_U+30E4_U+30FC 1
 62
   179
420
  2234388
370
     9
100
AcDbVertex
100
AcDb2dVertex
 10
107.32229976198
 20
-150.9906174622523
 30
0.0
  0
VERTEX
  5
123
330
121
100
AcDbEntity
  8
_U+30EC_U+30A4_U+30E4_U+30FC 1
 62
   179
420
  2234388
370
     9
100
AcDbVertex
100
AcDb2dVertex
 10
123.7829810086997
 20
-150.9906174622523
 30
0.0
  0
SEQEND
  5
124
330
121
100
AcDbEntity
  8
_U+30EC_U+30A4_U+30E4_U+30FC 1
 62
   179
420
  2234388
370
     9
  0
INSERT
  5
126
330
1F
100
AcDbEntity
  8
_U+30EC_U+30A4_U+30E4_U+30FC 1
100
AcDbBlockReference
  2
block 9
 10
0.0
 20
0.0
 30
0.0
  0
ENDSEC
  0
SECTION
  2
OBJECTS
  0
DICTIONARY
  5
C
330
0
100
AcDbDictionary
281
     1
  3
ACAD_GROUP
350
D
  3
ACAD_LAYOUT
350
1A
  3
ACAD_MATERIAL
350
3B
  3
ACAD_MLEADERSTYLE
350
137
  3
ACAD_MLINESTYLE
350
17
  3
ACAD_PLOTSETTINGS
350
19
  3
ACAD_PLOTSTYLENAME
350
E
  3
ACAD_TABLESTYLE
350
136
  3
ACAD_VISUALSTYLE
350
2A
  0
SUN
  5
3F
330
29
100
AcDbSun
 90
        1
290
     0
 63
     7
421
 16777215
 40
1.0
291
     1
 91
  2455826
 92
 54000000
292
     0
 70
     2
 71
   256
280
     1
  0
DICTIONARY
  5
D
102
{ACAD_REACTORS
330
C
102
}
330
C
100
AcDbDictionary
281
     1
  0
DICTIONARY
  5
1A
102
{ACAD_REACTORS
330
C
102
}
330
C
100
AcDbDictionary
281
     1
  3
Layout1
350
1E
  3
Layout2
350
26
  3
Model
350
22
  0
DICTIONARY
  5
3B
102
{ACAD_REACTORS
330
C
102
}
330
C
100
AcDbDictionary
281
     1
  3
ByBlock
350
3D
  3
ByLayer
350
3C
  3
Global
350
3E
  0
DICTIONARY
  5
137
102
{ACAD_REACTORS
330
C
102
}
330
C
100
AcDbDictionary
281
     1
  0
DICTIONARY
  5
17
102
{ACAD_REACTORS
330
C
102
}
330
C
100
AcDbDictionary
281
     1
  3
Standard
350
18
  0
DICTIONARY
  5
19
102
{ACAD_REACTORS
330
C
102
}
330
C
100
AcDbDictionary
281
     1
  0
ACDBDICTIONARYWDFLT
  5
E
102
{ACAD_REACTORS
330
C
102
}
330
C
100
AcDbDictionary
281
     1
  3
Normal
350
F
100
AcDbDictionaryWithDefault
340
F
  0
DICTIONARY
  5
136
102
{ACAD_REACTORS
330
C
102
}
330
C
100
AcDbDictionary
281
     1
  0
DICTIONARY
  5
2A
102
{ACAD_REACTORS
330
C
102
}
330
C
100
AcDbDictionary
281
     1
  3
2dWireframe
350
2F
  3
3D Hidden
350
31
  3
3dWireframe
350
30
  3
Basic
350
32
  3
Brighten
350
36
  3
ColorChange
350
3A
  3
Conceptual
350
34
  3
Dim
350
35
  3
Facepattern
350
39
  3
Flat
350
2B
  3
FlatWithEdges
350
2C
  3
Gouraud
350
2D
  3
GouraudWithEdges
350
2E
  3
Linepattern
350
38
  3
Realistic
350
33
  3
Thicken
350
37
  0
LAYOUT
  5
1E
102
{ACAD_REACTORS
330
1A
102
}
330
1A
100
AcDbPlotSettings
  1

  2
none_device
  4

  6

 40
0.0
 41
0.0
 42
0.0
 43
0.0
 44
0.0
 45
0.0
 46
0.0
 47
0.0
 48
0.0
 49
0.0
140
0.0
141
0.0
142
1.0
143
1.0
 70
   688
 72
     0
 73
     0
 74
     5
  7

 75
    16
 76
     0
 77
     2
 78
   300
147
1.0
148
0.0
149
0.0
100
AcDbLayout
  1
Layout1
 70
     1
 71
     1
 10
0.0
 20
0.0
 11
12.0
 21
9.0
 12
0.0
 22
0.0
 32
0.0
 14
1.000000000000000E+20
 24
1.000000000000000E+20
 34
1.000000000000000E+20
 15
-1.000000000000000E+20
 25
-1.000000000000000E+20
 35
-1.000000000000000E+20
146
0.0
 13
0.0
 23
0.0
 33
0.0
 16
1.0
 26
0.0
 36
0.0
 17
0.0
 27
1.0
 37
0.0
 76
     0
330
1B
  0
LAYOUT
  5
26
102
{ACAD_REACTORS
330
1A
102
}
330
1A
100
AcDbPlotSettings
  1

  2
none_device
  4

  6

 40
0.0
 41
0.0
 42
0.0
 43
0.0
 44
0.0
 45
0.0
 46
0.0
 47
0.0
 48
0.0
 49
0.0
140
0.0
141
0.0
142
1.0
143
1.0
 70
   688
 72
     0
 73
     0
 74
     5
  7

 75
    16
 76
     0
 77
     2
 78
   300
147
1.0
148
0.0
149
0.0
100
AcDbLayout
  1
Layout2
 70
     1
 71
     2
 10
0.0
 20
0.0
 11
0.0
 21
0.0
 12
0.0
 22
0.0
 32
0.0
 14
0.0
 24
0.0
 34
0.0
 15
0.0
 25
0.0
 35
0.0
146
0.0
 13
0.0
 23
0.0
 33
0.0
 16
1.0
 26
0.0
 36
0.0
 17
0.0
 27
1.0
 37
0.0
 76
     0
330
23
  0
LAYOUT
  5
22
102
{ACAD_REACTORS
330
1A
102
}
330
1A
100
AcDbPlotSettings
  1

  2
none_device
  4

  6

 40
0.0
 41
0.0
 42
0.0
 43
0.0
 44
0.0
 45
0.0
 46
0.0
 47
0.0
 48
0.0
 49
0.0
140
0.0
141
0.0
142
1.0
143
1.0
 70
  1712
 72
     0
 73
     0
 74
     0
  7

 75
     0
 76
     0
 77
     2
 78
   300
147
1.0
148
0.0
149
0.0
100
AcDbLayout
  1
Model
 70
     1
 71
     0
 10
0.0
 20
0.0
 11
12.0
 21
9.0
 12
0.0
 22
0.0
 32
0.0
 14
1.000000000000000E+20
 24
1.000000000000000E+20
 34
1.000000000000000E+20
 15
-1.000000000000000E+20
 25
-1.000000000000000E+20
 35
-1.000000000000000E+20
146
0.0
 13
0.0
 23
0.0
 33
0.0
 16
1.0
 26
0.0
 36
0.0
 17
0.0
 27
1.0
 37
0.0
 76
     0
330
1F
331
29
  0
MATERIAL
  5
3D
102
{ACAD_REACTORS
330
3B
102
}
330
3B
100
AcDbMaterial
  1
ByBlock
 72
     1
 94
      127
  0
MATERIAL
  5
3C
102
{ACAD_REACTORS
330
3B
102
}
330
3B
100
AcDbMaterial
  1
ByLayer
 72
     1
 94
      127
  0
MATERIAL
  5
3E
102
{ACAD_REACTORS
330
3B
102
}
330
3B
100
AcDbMaterial
  1
Global
 72
     1
 94
      127
  0
MLINESTYLE
  5
18
102
{ACAD_REACTORS
330
17
102
}
330
17
100
AcDbMlineStyle
  2
Standard
 70
     0
  3

 62
   256
 51
90.0
 52
90.0
 71
     2
 49
0.5
 62
   256
  6
BYLAYER
 49
-0.5
 62
   256
  6
BYLAYER
  0
ACDBPLACEHOLDER
  5
F
102
{ACAD_REACTORS
330
E
102
}
330
E
  0
VISUALSTYLE
  5
2F
102
{ACAD_REACTORS
330
2A
102
}
330
2A
100
AcDbVisualStyle
  2
2dWireframe
 70
     4
177
     2
291
     0
 71
     0
176
     1
 72
     2
176
     1
 73
     0
176
     1
 90
        0
176
     1
 40
-0.6
176
     1
 41
-30.0
176
     1
 62
     5
 63
     7
421
 16777215
176
     1
 74
     1
176
     1
 91
        4
176
     1
 64
     7
176
     1
 65
   257
176
     1
 75
     1
176
     1
175
     1
176
     1
 42
1.0
176
     1
 92
        0
176
     1
 66
   257
176
     1
 43
1.0
176
     1
 76
     1
176
     1
 77
     6
176
     1
 78
     2
176
     1
 67
     7
176
     1
 79
     5
176
     1
170
     0
176
     1
171
     0
176
     1
290
     0
176
     1
 93
        1
176
     1
 44
0.0
176
     1
173
     0
176
     1
  0
VISUALSTYLE
  5
31
102
{ACAD_REACTORS
330
2A
102
}
330
2A
100
AcDbVisualStyle
  2
3D Hidden
 70
     6
177
     2
291
     0
 71
     1
176
     1
 72
     2
176
     1
 73
     2
176
     1
 90
        0
176
     1
 40
-0.6
176
     1
 41
-30.0
176
     1
 62
     5
 63
     7
421
 16777215
176
     1
 74
     2
176
     1
 91
        2
176
     1
 64
     7
176
     1
 65
   257
176
     1
 75
     2
176
     1
175
     1
176
     1
 42
40.0
176
     1
 92
        0
176
     1
 66
   257
176
     1
 43
1.0
176
     1
 76
     1
176
     1
 77
     6
176
     1
 78
     2
176
     1
 67
     7
176
     1
 79
     3
176
     1
170
     0
176
     1
171
     0
176
     1
290
     0
176
     1
 93
        1
176
     1
 44
0.0
176
     1
173
     0
176
     1
  0
VISUALSTYLE
  5
30
102
{ACAD_REACTORS
330
2A
102
}
330
2A
100
AcDbVisualStyle
  2
3dWireframe
 70
     5
177
     2
291
     0
 71
     0
176
     1
 72
     2
176
     1
 73
     0
176
     1
 90
        0
176
     1
 40
-0.6
176
     1
 41
-30.0
176
     1
 62
     5
 63
     7
421
 16777215
176
     1
 74
     1
176
     1
 91
        4
176
     1
 64
     7
176
     1
 65
   257
176
     1
 75
     1
176
     1
175
     1
176
     1
 42
1.0
176
     1
 92
        0
176
     1
 66
   257
176
     1
 43
1.0
176
     1
 76
     1
176
     1
 77
     6
176
     1
 78
     2
176
     1
 67
     7
176
     1
 79
     5
176
     1
170
     0
176
     1
171
     0
176
     1
290
     0
176
     1
 93
        1
176
     1
 44
0.0
176
     1
173
     0
176
     1
  0
VISUALSTYLE
  5
32
102
{ACAD_REACTORS
330
2A
102
}
330
2A
100
AcDbVisualStyle
  2
Basic
 70
     7
177
     2
291
     1
 71
     1
176
     1
 72
     0
176
     1
 73
     1
176
     1
 90
        0
176
     1
 40
-0.6
176
     1
 41
-30.0
176
     1
 62
     5
 63
     7
421
 16777215
176
     1
 74
     0
176
     1
 91
        4
176
     1
 64
     7
176
     1
 65
   257
176
     1
 75
     1
176
     1
175
     1
176
     1
 42
1.0
176
     1
 92
        8
176
     1
 66
     7
176
     1
 43
1.0
176
     1
 76
     1
176
     1
 77
     6
176
     1
 78
     2
176
     1
 67
     7
176
     1
 79
     5
176
     1
170
     0
176
     1
171
     0
176
     1
290
     0
176
     1
 93
        1
176
     1
 44
0.0
176
     1
173
     0
176
     1
  0
VISUALSTYLE
  5
36
102
{ACAD_REACTORS
330
2A
102
}
330
2A
100
AcDbVisualStyle
  2
Brighten
 70
    12
177
     2
291
     1
 71
     2
176
     1
 72
     2
176
     1
 73
     0
176
     1
 90
        0
176
     1
 40
-0.6
176
     1
 41
-30.0
176
     1
 62
     5
 63
     7
421
 16777215
176
     1
 74
     1
176
     1
 91
        4
176
     1
 64
     7
176
     1
 65
   257
176
     1
 75
     1
176
     1
175
     1
176
     1
 42
1.0
176
     1
 92
        8
176
     1
 66
     7
176
     1
 43
1.0
176
     1
 76
     1
176
     1
 77
     6
176
     1
 78
     2
176
     1
 67
     7
176
     1
 79
     5
176
     1
170
     0
176
     1
171
     0
176
     1
290
     0
176
     1
 93
        1
176
     1
 44
50.0
176
     1
173
     0
176
     1
  0
VISUALSTYLE
  5
3A
102
{ACAD_REACTORS
330
2A
102
}
330
2A
100
AcDbVisualStyle
  2
ColorChange
 70
    16
177
     2
291
     1
 71
     2
176
     1
 72
     2
176
     1
 73
     3
176
     1
 90
        0
176
     1
 40
-0.6
176
     1
 41
-30.0
176
     1
 62
     5
 63
     8
421
  8421504
176
     1
 74
     1
176
     1
 91
        4
176
     1
 64
     7
176
     1
 65
   257
176
     1
 75
     1
176
     1
175
     1
176
     1
 42
1.0
176
     1
 92
        8
176
     1
 66
     8
424
  8421504
176
     1
 43
1.0
176
     1
 76
     1
176
     1
 77
     6
176
     1
 78
     2
176
     1
 67
     7
176
     1
 79
     5
176
     1
170
     0
176
     1
171
     0
176
     1
290
     0
176
     1
 93
        1
176
     1
 44
0.0
176
     1
173
     0
176
     1
  0
VISUALSTYLE
  5
34
102
{ACAD_REACTORS
330
2A
102
}
330
2A
100
AcDbVisualStyle
  2
Conceptual
 70
     9
177
     2
291
     0
 71
     3
176
     1
 72
     2
176
     1
 73
     0
176
     1
 90
        0
176
     1
 40
-0.6
176
     1
 41
-30.0
176
     1
 62
     5
 63
     7
421
 16777215
176
     1
 74
     2
176
     1
 91
        2
176
     1
 64
     7
176
     1
 65
   257
176
     1
 75
     1
176
     1
175
     1
176
     1
 42
40.0
176
     1
 92
        8
176
     1
 66
     7
176
     1
 43
1.0
176
     1
 76
     1
176
     1
 77
     6
176
     1
 78
     2
176
     1
 67
     7
176
     1
 79
     3
176
     1
170
     0
176
     1
171
     0
176
     1
290
     0
176
     1
 93
        1
176
     1
 44
0.0
176
     1
173
     0
176
     1
  0
VISUALSTYLE
  5
35
102
{ACAD_REACTORS
330
2A
102
}
330
2A
100
AcDbVisualStyle
  2
Dim
 70
    11
177
     2
291
     1
 71
     2
176
     1
 72
     2
176
     1
 73
     0
176
     1
 90
        0
176
     1
 40
-0.6
176
     1
 41
-30.0
176
     1
 62
     5
 63
     7
421
 16777215
176
     1
 74
     1
176
     1
 91
        4
176
     1
 64
     7
176
     1
 65
   257
176
     1
 75
     1
176
     1
175
     1
176
     1
 42
1.0
176
     1
 92
        8
176
     1
 66
     7
176
     1
 43
1.0
176
     1
 76
     1
176
     1
 77
     6
176
     1
 78
     2
176
     1
 67
     7
176
     1
 79
     5
176
     1
170
     0
176
     1
171
     0
176
     1
290
     0
176
     1
 93
        1
176
     1
 44
-50.0
176
     1
173
     0
176
     1
  0
VISUALSTYLE
  5
39
102
{ACAD_REACTORS
330
2A
102
}
330
2A
100
AcDbVisualStyle
  2
Facepattern
 70
    15
177
     2
291
     1
 71
     2
176
     1
 72
     2
176
     1
 73
     0
176
     1
 90
        0
176
     1
 40
-0.6
176
     1
 41
-30.0
176
     1
 62
     5
 63
     7
421
 16777215
176
     1
 74
     1
176
     1
 91
        4
176
     1
 64
     7
176
     1
 65
   257
176
     1
 75
     1
176
     1
175
     1
176
     1
 42
1.0
176
     1
 92
        8
176
     1
 66
     7
176
     1
 43
1.0
176
     1
 76
     1
176
     1
 77
     6
176
     1
 78
     2
176
     1
 67
     7
176
     1
 79
     5
176
     1
170
     0
176
     1
171
     0
176
     1
290
     0
176
     1
 93
        1
176
     1
 44
0.0
176
     1
173
     0
176
     1
  0
VISUALSTYLE
  5
2B
102
{ACAD_REACTORS
330
2A
102
}
330
2A
100
AcDbVisualStyle
  2
Flat
 70
     0
177
     2
291
     1
 71
     2
176
     1
 72
     1
176
     1
 73
     1
176
     1
 90
        2
176
     1
 40
-0.6
176
     1
 41
30.0
176
     1
 62
     5
 63
     7
421
 16777215
176
     1
 74
     0
176
     1
 91
        4
176
     1
 64
     7
176
     1
 65
   257
176
     1
 75
     1
176
     1
175
     1
176
     1
 42
1.0
176
     1
 92
        8
176
     1
 66
     7
176
     1
 43
1.0
176
     1
 76
     1
176
     1
 77
     6
176
     1
 78
     2
176
     1
 67
     7
176
     1
 79
     5
176
     1
170
     0
176
     1
171
     0
176
     1
290
     0
176
     1
 93
       13
176
     1
 44
0.0
176
     1
173
     0
176
     1
  0
VISUALSTYLE
  5
2C
102
{ACAD_REACTORS
330
2A
102
}
330
2A
100
AcDbVisualStyle
  2
FlatWithEdges
 70
     1
177
     2
291
     1
 71
     2
176
     1
 72
     1
176
     1
 73
     1
176
     1
 90
        2
176
     1
 40
-0.6
176
     1
 41
30.0
176
     1
 62
     5
 63
     7
421
 16777215
176
     1
 74
     1
176
     1
 91
        4
176
     1
 64
     7
176
     1
 65
   257
176
     1
 75
     1
176
     1
175
     1
176
     1
 42
1.0
176
     1
 92
        0
176
     1
 66
   257
176
     1
 43
1.0
176
     1
 76
     1
176
     1
 77
     6
176
     1
 78
     2
176
     1
 67
     7
176
     1
 79
     5
176
     1
170
     0
176
     1
171
     0
176
     1
290
     0
176
     1
 93
       13
176
     1
 44
0.0
176
     1
173
     0
176
     1
  0
VISUALSTYLE
  5
2D
102
{ACAD_REACTORS
330
2A
102
}
330
2A
100
AcDbVisualStyle
  2
Gouraud
 70
     2
177
     2
291
     1
 71
     2
176
     1
 72
     2
176
     1
 73
     1
176
     1
 90
        2
176
     1
 40
-0.6
176
     1
 41
30.0
176
     1
 62
     5
 63
     7
421
 16777215
176
     1
 74
     0
176
     1
 91
        4
176
     1
 64
     7
176
     1
 65
   257
176
     1
 75
     1
176
     1
175
     1
176
     1
 42
1.0
176
     1
 92
        0
176
     1
 66
     7
176
     1
 43
1.0
176
     1
 76
     1
176
     1
 77
     6
176
     1
 78
     2
176
     1
 67
     7
176
     1
 79
     5
176
     1
170
     0
176
     1
171
     0
176
     1
290
     0
176
     1
 93
       13
176
     1
 44
0.0
176
     1
173
     0
176
     1
  0
VISUALSTYLE
  5
2E
102
{ACAD_REACTORS
330
2A
102
}
330
2A
100
AcDbVisualStyle
  2
GouraudWithEdges
 70
     3
177
     2
291
     1
 71
     2
176
     1
 72
     2
176
     1
 73
     1
176
     1
 90
        2
176
     1
 40
-0.6
176
     1
 41
30.0
176
     1
 62
     5
 63
     7
421
 16777215
176
     1
 74
     1
176
     1
 91
        4
176
     1
 64
     7
176
     1
 65
   257
176
     1
 75
     1
176
     1
175
     1
176
     1
 42
1.0
176
     1
 92
        0
176
     1
 66
   257
176
     1
 43
1.0
176
     1
 76
     1
176
     1
 77
     6
176
     1
 78
     2
176
     1
 67
     7
176
     1
 79
     5
176
     1
170
     0
176
     1
171
     0
176
     1
290
     0
176
     1
 93
       13
176
     1
 44
0.0
176
     1
173
     0
176
     1
  0
VISUALSTYLE
  5
38
102
{ACAD_REACTORS
330
2A
102
}
330
2A
100
AcDbVisualStyle
  2
Linepattern
 70
    14
177
     2
291
     1
 71
     2
176
     1
 72
     2
176
     1
 73
     0
176
     1
 90
        0
176
     1
 40
-0.6
176
     1
 41
-30.0
176
     1
 62
     5
 63
     7
421
 16777215
176
     1
 74
     1
176
     1
 91
        4
176
     1
 64
     7
176
     1
 65
   257
176
     1
 75
     7
176
     1
175
     7
176
     1
 42
1.0
176
     1
 92
        8
176
     1
 66
     7
176
     1
 43
1.0
176
     1
 76
     1
176
     1
 77
     6
176
     1
 78
     2
176
     1
 67
     7
176
     1
 79
     5
176
     1
170
     0
176
     1
171
     0
176
     1
290
     0
176
     1
 93
        1
176
     1
 44
0.0
176
     1
173
     0
176
     1
  0
VISUALSTYLE
  5
33
102
{ACAD_REACTORS
330
2A
102
}
330
2A
100
AcDbVisualStyle
  2
Realistic
 70
     8
177
     2
291
     0
 71
     2
176
     1
 72
     2
176
     1
 73
     0
176
     1
 90
        0
176
     1
 40
-0.6
176
     1
 41
-30.0
176
     1
 62
     5
 63
     7
421
 16777215
176
     1
 74
     1
176
     1
 91
        0
176
     1
 64
     7
176
     1
 65
   257
176
     1
 75
     1
176
     1
175
     1
176
     1
 42
1.0
176
     1
 92
        8
176
     1
 66
     8
424
  7895160
176
     1
 43
1.0
176
     1
 76
     1
176
     1
 77
     6
176
     1
 78
     2
176
     1
 67
     7
176
     1
 79
     5
176
     1
170
     0
176
     1
171
     0
176
     1
290
     0
176
     1
 93
       13
176
     1
 44
0.0
176
     1
173
     0
176
     1
  0
VISUALSTYLE
  5
37
102
{ACAD_REACTORS
330
2A
102
}
330
2A
100
AcDbVisualStyle
  2
Thicken
 70
    13
177
     2
291
     1
 71
     2
176
     1
 72
     2
176
     1
 73
     0
176
     1
 90
        0
176
     1
 40
-0.6
176
     1
 41
-30.0
176
     1
 62
     5
 63
     7
421
 16777215
176
     1
 74
     1
176
     1
 91
        4
176
     1
 64
     7
176
     1
 65
   257
176
     1
 75
     1
176
     1
175
     1
176
     1
 42
1.0
176
     1
 92
       12
176
     1
 66
     7
176
     1
 43
1.0
176
     1
 76
     1
176
     1
 77
     6
176
     1
 78
     2
176
     1
 67
     7
176
     1
 79
     5
176
     1
170
     0
176
     1
171
     0
176
     1
290
     0
176
     1
 93
        1
176
     1
 44
0.0
176
     1
173
     0
176
     1
  0
ENDSEC
  0
EOF
