  0
SECTION
  2
HEADER
  9
$ACADVER
  1
AC1024
  9
$ACADMAINTVER
 70
   226
  9
$DWGCODEPAGE
  3
ANSI_932
  9
$INSBASE
 10
0.0
 20
0.0
 30
0.0
  9
$EXTMIN
 10
1.000000000000000E+20
 20
1.000000000000000E+20
 30
1.000000000000000E+20
  9
$EXTMAX
 10
-1.000000000000000E+20
 20
-1.000000000000000E+20
 30
-1.000000000000000E+20
  9
$LIMMIN
 10
0.0
 20
0.0
  9
$LIMMAX
 10
12.0
 20
9.0
  9
$ORTHOMODE
 70
     0
  9
$REGENMODE
 70
     1
  9
$FILLMODE
 70
     1
  9
$QTEXTMODE
 70
     0
  9
$MIRRTEXT
 70
     0
  9
$LTSCALE
 40
1.0
  9
$ATTMODE
 70
     1
  9
$TEXTSIZE
 40
0.2
  9
$TRACEWID
 40
0.05
  9
$TEXTSTYLE
  7
Standard
  9
$CLAYER
  8
0
  9
$CELTYPE
  6
ByLayer
  9
$CECOLOR
 62
   256
  9
$CELTSCALE
 40
1.0
  9
$DISPSILH
 70
     0
  9
$DIMSCALE
 40
1.0
  9
$DIMASZ
 40
0.18
  9
$DIMEXO
 40
0.0625
  9
$DIMDLI
 40
0.38
  9
$DIMRND
 40
0.0
  9
$DIMDLE
 40
0.0
  9
$DIMEXE
 40
0.18
  9
$DIMTP
 40
0.0
  9
$DIMTM
 40
0.0
  9
$DIMTXT
 40
0.18
  9
$DIMCEN
 40
0.09
  9
$DIMTSZ
 40
0.0
  9
$DIMTOL
 70
     0
  9
$DIMLIM
 70
     0
  9
$DIMTIH
 70
     1
  9
$DIMTOH
 70
     1
  9
$DIMSE1
 70
     0
  9
$DIMSE2
 70
     0
  9
$DIMTAD
 70
     0
  9
$DIMZIN
 70
     0
  9
$DIMBLK
  1

  9
$DIMASO
 70
     1
  9
$DIMSHO
 70
     1
  9
$DIMPOST
  1

  9
$DIMAPOST
  1

  9
$DIMALT
 70
     0
  9
$DIMALTD
 70
     2
  9
$DIMALTF
 40
25.4
  9
$DIMLFAC
 40
1.0
  9
$DIMTOFL
 70
     0
  9
$DIMTVP
 40
0.0
  9
$DIMTIX
 70
     0
  9
$DIMSOXD
 70
     0
  9
$DIMSAH
 70
     0
  9
$DIMBLK1
  1

  9
$DIMBLK2
  1

  9
$DIMSTYLE
  2
Standard
  9
$DIMCLRD
 70
     0
  9
$DIMCLRE
 70
     0
  9
$DIMCLRT
 70
     0
  9
$DIMTFAC
 40
1.0
  9
$DIMGAP
 40
0.09
  9
$DIMJUST
 70
     0
  9
$DIMSD1
 70
     0
  9
$DIMSD2
 70
     0
  9
$DIMTOLJ
 70
     1
  9
$DIMTZIN
 70
     0
  9
$DIMALTZ
 70
     0
  9
$DIMALTTZ
 70
     0
  9
$DIMUPT
 70
     0
  9
$DIMDEC
 70
     4
  9
$DIMTDEC
 70
     4
  9
$DIMALTU
 70
     2
  9
$DIMALTTD
 70
     2
  9
$DIMTXSTY
  7
Standard
  9
$DIMAUNIT
 70
     0
  9
$DIMADEC
 70
     0
  9
$DIMALTRND
 40
0.0
  9
$DIMAZIN
 70
     0
  9
$DIMDSEP
 70
    46
  9
$DIMATFIT
 70
     3
  9
$DIMFRAC
 70
     0
  9
$DIMLDRBLK
  1

  9
$DIMLUNIT
 70
     2
  9
$DIMLWD
 70
    -2
  9
$DIMLWE
 70
    -2
  9
$DIMTMOVE
 70
     0
  9
$DIMFXL
 40
1.0
  9
$DIMFXLON
 70
     0
  9
$DIMJOGANG
 40
0.7853981633974483
  9
$DIMTFILL
 70
     0
  9
$DIMTFILLCLR
 70
     0
  9
$DIMARCSYM
 70
     0
  9
$DIMLTYPE
  6

  9
$DIMLTEX1
  6

  9
$DIMLTEX2
  6

  9
$DIMTXTDIRECTION
 70
     0
  9
$LUNITS
 70
     2
  9
$LUPREC
 70
     4
  9
$SKETCHINC
 40
0.1
  9
$FILLETRAD
 40
0.0
  9
$AUNITS
 70
     0
  9
$AUPREC
 70
     0
  9
$MENU
  1
.
  9
$ELEVATION
 40
0.0
  9
$PELEVATION
 40
0.0
  9
$THICKNESS
 40
0.0
  9
$LIMCHECK
 70
     0
  9
$CHAMFERA
 40
0.0
  9
$CHAMFERB
 40
0.0
  9
$CHAMFERC
 40
0.0
  9
$CHAMFERD
 40
0.0
  9
$SKPOLY
 70
     0
  9
$TDCREATE
 40
2459569.503530093
  9
$TDUCREATE
 40
2459569.128530093
  9
$TDUPDATE
 40
2459569.503530093
  9
$TDUUPDATE
 40
2459569.128530093
  9
$TDINDWG
 40
0.0000000000
  9
$TDUSRTIMER
 40
0.0000000000
  9
$USRTIMER
 70
     1
  9
$ANGBASE
 50
0.0
  9
$ANGDIR
 70
     0
  9
$PDMODE
 70
     0
  9
$PDSIZE
 40
0.0
  9
$PLINEWID
 40
0.0
  9
$SPLFRAME
 70
     0
  9
$SPLINETYPE
 70
     6
  9
$SPLINESEGS
 70
     8
  9
$HANDSEED
  5
146
  9
$SURFTAB1
 70
     6
  9
$SURFTAB2
 70
     6
  9
$SURFTYPE
 70
     6
  9
$SURFU
 70
     6
  9
$SURFV
 70
     6
  9
$UCSBASE
  2

  9
$UCSNAME
  2

  9
$UCSORG
 10
0.0
 20
0.0
 30
0.0
  9
$UCSXDIR
 10
1.0
 20
0.0
 30
0.0
  9
$UCSYDIR
 10
0.0
 20
1.0
 30
0.0
  9
$UCSORTHOREF
  2

  9
$UCSORTHOVIEW
 70
     0
  9
$UCSORGTOP
 10
0.0
 20
0.0
 30
0.0
  9
$UCSORGBOTTOM
 10
0.0
 20
0.0
 30
0.0
  9
$UCSORGLEFT
 10
0.0
 20
0.0
 30
0.0
  9
$UCSORGRIGHT
 10
0.0
 20
0.0
 30
0.0
  9
$UCSORGFRONT
 10
0.0
 20
0.0
 30
0.0
  9
$UCSORGBACK
 10
0.0
 20
0.0
 30
0.0
  9
$PUCSBASE
  2

  9
$PUCSNAME
  2

  9
$PUCSORG
 10
0.0
 20
0.0
 30
0.0
  9
$PUCSXDIR
 10
1.0
 20
0.0
 30
0.0
  9
$PUCSYDIR
 10
0.0
 20
1.0
 30
0.0
  9
$PUCSORTHOREF
  2

  9
$PUCSORTHOVIEW
 70
     0
  9
$PUCSORGTOP
 10
0.0
 20
0.0
 30
0.0
  9
$PUCSORGBOTTOM
 10
0.0
 20
0.0
 30
0.0
  9
$PUCSORGLEFT
 10
0.0
 20
0.0
 30
0.0
  9
$PUCSORGRIGHT
 10
0.0
 20
0.0
 30
0.0
  9
$PUCSORGFRONT
 10
0.0
 20
0.0
 30
0.0
  9
$PUCSORGBACK
 10
0.0
 20
0.0
 30
0.0
  9
$USERI1
 70
     0
  9
$USERI2
 70
     0
  9
$USERI3
 70
     0
  9
$USERI4
 70
     0
  9
$USERI5
 70
     0
  9
$USERR1
 40
0.0
  9
$USERR2
 40
0.0
  9
$USERR3
 40
0.0
  9
$USERR4
 40
0.0
  9
$USERR5
 40
0.0
  9
$WORLDVIEW
 70
     1
  9
$SHADEDGE
 70
     3
  9
$SHADEDIF
 70
    70
  9
$TILEMODE
 70
     1
  9
$MAXACTVP
 70
    64
  9
$PINSBASE
 10
0.0
 20
0.0
 30
0.0
  9
$PLIMCHECK
 70
     0
  9
$PEXTMIN
 10
1.000000000000000E+20
 20
1.000000000000000E+20
 30
1.000000000000000E+20
  9
$PEXTMAX
 10
-1.000000000000000E+20
 20
-1.000000000000000E+20
 30
-1.000000000000000E+20
  9
$PLIMMIN
 10
0.0
 20
0.0
  9
$PLIMMAX
 10
12.0
 20
9.0
  9
$UNITMODE
 70
     0
  9
$VISRETAIN
 70
     1
  9
$PLINEGEN
 70
     0
  9
$PSLTSCALE
 70
     1
  9
$TREEDEPTH
 70
  3020
  9
$CMLSTYLE
  2
Standard
  9
$CMLJUST
 70
     0
  9
$CMLSCALE
 40
1.0
  9
$PROXYGRAPHICS
 70
     1
  9
$MEASUREMENT
 70
     0
  9
$CELWEIGHT
370
    -1
  9
$ENDCAPS
280
     0
  9
$JOINSTYLE
280
     0
  9
$LWDISPLAY
290
     1
  9
$INSUNITS
 70
     4
  9
$HYPERLINKBASE
  1

  9
$STYLESHEET
  1

  9
$XEDIT
290
     1
  9
$CEPSNTYPE
380
     0
  9
$PSTYLEMODE
290
     1
  9
$FINGERPRINTGUID
  2
{C9090B7A-62E7-9C46-A94B-FB7C64F9E560}
  9
$VERSIONGUID
  2
{A83B7678-DB28-4442-876B-A6CA7A08F342}
  9
$EXTNAMES
290
     1
  9
$PSVPSCALE
 40
0.0
  9
$OLESTARTUP
290
     0
  9
$SORTENTS
280
   127
  9
$INDEXCTL
280
     0
  9
$HIDETEXT
280
     1
  9
$XCLIPFRAME
280
     2
  9
$HALOGAP
280
     0
  9
$OBSCOLOR
 70
   257
  9
$OBSLTYPE
280
     0
  9
$INTERSECTIONDISPLAY
280
     0
  9
$INTERSECTIONCOLOR
 70
   257
  9
$DIMASSOC
280
     2
  9
$PROJECTNAME
  1

  9
$CAMERADISPLAY
290
     0
  9
$LENSLENGTH
 40
50.0
  9
$CAMERAHEIGHT
 40
0.0
  9
$STEPSPERSEC
 40
2.0
  9
$STEPSIZE
 40
6.0
  9
$3DDWFPREC
 40
2.0
  9
$PSOLWIDTH
 40
0.25
  9
$PSOLHEIGHT
 40
4.0
  9
$LOFTANG1
 40
1.570796326794896
  9
$LOFTANG2
 40
1.570796326794896
  9
$LOFTMAG1
 40
0.0
  9
$LOFTMAG2
 40
0.0
  9
$LOFTPARAM
 70
     7
  9
$LOFTNORMALS
280
     1
  9
$LATITUDE
 40
37.795
  9
$LONGITUDE
 40
-122.394
  9
$NORTHDIRECTION
 40
0.0
  9
$TIMEZONE
 70
 -8000
  9
$LIGHTGLYPHDISPLAY
280
     1
  9
$TILEMODELIGHTSYNCH
280
     1
  9
$CMATERIAL
347
11
  9
$SOLIDHIST
280
     0
  9
$SHOWHIST
280
     1
  9
$DWFFRAME
280
     2
  9
$DGNFRAME
280
     0
  9
$REALWORLDSCALE
290
     1
  9
$INTERFERECOLOR
 62
     1
  9
$INTERFEREOBJVS
345
33
  9
$INTERFEREVPVS
346
30
  9
$CSHADOW
280
     0
  9
$SHADOWPLANELOCATION
 40
0.0
  0
ENDSEC
  0
SECTION
  2
CLASSES
  0
CLASS
  1
ACDBDICTIONARYWDFLT
  2
AcDbDictionaryWithDefault
  3
ObjectDBX Classes
 90
        0
 91
        1
280
     0
281
     0
  0
CLASS
  1
MATERIAL
  2
AcDbMaterial
  3
ObjectDBX Classes
 90
     1153
 91
        3
280
     0
281
     0
  0
CLASS
  1
VISUALSTYLE
  2
AcDbVisualStyle
  3
ObjectDBX Classes
 90
     4095
 91
       24
280
     0
281
     0
  0
CLASS
  1
SCALE
  2
AcDbScale
  3
ObjectDBX Classes
 90
     1153
 91
       17
280
     0
281
     0
  0
CLASS
  1
TABLESTYLE
  2
AcDbTableStyle
  3
ObjectDBX Classes
 90
     4095
 91
        1
280
     0
281
     0
  0
CLASS
  1
MLEADERSTYLE
  2
AcDbMLeaderStyle
  3
ACDB_MLEADERSTYLE_CLASS
 90
     4095
 91
        1
280
     0
281
     0
  0
CLASS
  1
ACDBSECTIONVIEWSTYLE
  2
AcDbSectionViewStyle
  3
ObjectDBX Classes
 90
     1025
 91
        1
280
     0
281
     0
  0
CLASS
  1
ACDBDETAILVIEWSTYLE
  2
AcDbDetailViewStyle
  3
ObjectDBX Classes
 90
     1025
 91
        1
280
     0
281
     0
  0
CLASS
  1
DICTIONARYVAR
  2
AcDbDictionaryVar
  3
ObjectDBX Classes
 90
        0
 91
        5
280
     0
281
     0
  0
CLASS
  1
CELLSTYLEMAP
  2
AcDbCellStyleMap
  3
ObjectDBX Classes
 90
     1152
 91
        1
280
     0
281
     0
  0
ENDSEC
  0
SECTION
  2
TABLES
  0
TABLE
  2
VPORT
  5
8
330
0
100
AcDbSymbolTable
 70
     1
  0
VPORT
  5
57
330
8
100
AcDbSymbolTableRecord
100
AcDbViewportTableRecord
  2
*Active
 70
     0
 10
0.0
 20
0.0
 11
1.0
 21
1.0
 12
0.0
 22
0.0
 13
0.0
 23
0.0
 14
1.0
 24
1.0
 15
0.0
 25
0.0
 16
0.0
 26
0.0
 36
1.0
 17
104.9999999737534
 27
-148.4999999628701
 37
0.0
 40
302.939999924255
 41
0.7070707070707534
 42
50.0
 43
0.0
 44
0.0
 50
0.0
 51
0.0
 71
     0
 72
   100
 73
     1
 74
     0
 75
     1
 76
     0
 77
     0
 78
     0
281
     0
 65
     1
110
0.0
120
0.0
130
0.0
111
1.0
121
0.0
131
0.0
112
0.0
122
1.0
132
0.0
 79
     0
146
0.0
 60
     3
 61
     5
292
     1
282
     1
141
0.0
142
0.0
 63
   250
421
  3355443
  0
ENDTAB
  0
TABLE
  2
LTYPE
  5
5
330
0
100
AcDbSymbolTable
 70
     3
  0
LTYPE
  5
5B
330
5
100
AcDbSymbolTableRecord
100
AcDbLinetypeTableRecord
  2
ByBlock
 70
     0
  3

 72
    65
 73
     0
 40
0.0
  0
LTYPE
  5
5C
330
5
100
AcDbSymbolTableRecord
100
AcDbLinetypeTableRecord
  2
ByLayer
 70
     0
  3

 72
    65
 73
     0
 40
0.0
  0
LTYPE
  5
5D
330
5
100
AcDbSymbolTableRecord
100
AcDbLinetypeTableRecord
  2
Continuous
 70
     0
  3
Solid line
 72
    65
 73
     0
 40
0.0
  0
LTYPE
  5
D6
330
5
100
AcDbSymbolTableRecord
100
AcDbLinetypeTableRecord
  2
AI-Linetype-0
 70
     0
  3
Adobe Illustrator Linetype No. 0
 72
    65
 73
     2
 40
1.411111110758333
 49
0.7055555553791667
 74
     0
 49
-0.7055555553791667
 74
     0
  0
LTYPE
  5
D8
330
5
100
AcDbSymbolTableRecord
100
AcDbLinetypeTableRecord
  2
AI-Linetype-1
 70
     0
  3
Adobe Illustrator Linetype No. 1
 72
    65
 73
     2
 40
1.411111110758333
 49
0.7055555553791667
 74
     0
 49
-0.7055555553791667
 74
     0
  0
ENDTAB
  0
TABLE
  2
LAYER
  5
2
330
0
100
AcDbSymbolTable
 70
     2
  0
LAYER
  5
54
330
2
100
AcDbSymbolTableRecord
100
AcDbLayerTableRecord
  2
0
 70
     0
 62
     7
  6
Continuous
370
    -3
390
F
347
21
  0
LAYER
  5
78
330
2
100
AcDbSymbolTableRecord
100
AcDbLayerTableRecord
  2
レイヤー 1
 70
     0
 62
     7
  6
Continuous
370
     0
390
F
347
21
  0
ENDTAB
  0
TABLE
  2
STYLE
  5
3
330
0
100
AcDbSymbolTable
 70
     2
  0
STYLE
  5
55
330
3
100
AcDbSymbolTableRecord
100
AcDbTextStyleTableRecord
  2
Standard
 70
     0
 40
0.0
 41
1.0
 50
0.0
 71
     0
 42
0.2
  3
txt
  4

  0
STYLE
  5
5A
330
3
100
AcDbSymbolTableRecord
100
AcDbTextStyleTableRecord
  2
Annotative
 70
     0
 40
0.0
 41
1.0
 50
0.0
 71
     0
 42
0.2
  3
txt
  4

1001
AcadAnnotative
1000
AnnotativeData
1002
{
1070
     1
1070
     1
1002
}
  0
ENDTAB
  0
TABLE
  2
VIEW
  5
6
330
0
100
AcDbSymbolTable
 70
     0
  0
ENDTAB
  0
TABLE
  2
UCS
  5
7
330
0
100
AcDbSymbolTable
 70
     0
  0
ENDTAB
  0
TABLE
  2
APPID
  5
9
330
0
100
AcDbSymbolTable
 70
     2
  0
APPID
  5
56
330
9
100
AcDbSymbolTableRecord
100
AcDbRegAppTableRecord
  2
ACAD
 70
     0
  0
APPID
  5
5E
330
9
100
AcDbSymbolTableRecord
100
AcDbRegAppTableRecord
  2
AcadAnnotative
 70
     0
  0
ENDTAB
  0
TABLE
  2
DIMSTYLE
  5
A
330
0
100
AcDbSymbolTable
 70
     2
100
AcDbDimStyleTable
 71
     0
  0
DIMSTYLE
105
58
330
A
100
AcDbSymbolTableRecord
100
AcDbDimStyleTableRecord
  2
Standard
 70
     0
340
55
  0
DIMSTYLE
105
59
330
A
100
AcDbSymbolTableRecord
100
AcDbDimStyleTableRecord
  2
Annotative
 70
     0
340
55
1001
AcadAnnotative
1000
AnnotativeData
1002
{
1070
     1
1070
     1
1002
}
  0
ENDTAB
  0
TABLE
  2
BLOCK_RECORD
  5
1
330
0
100
AcDbSymbolTable
 70
    14
  0
BLOCK_RECORD
  5
70
330
1
100
AcDbSymbolTableRecord
100
AcDbBlockTableRecord
  2
*Model_Space
340
73
 70
     0
280
     1
281
     0
  0
BLOCK_RECORD
  5
6C
330
1
100
AcDbSymbolTableRecord
100
AcDbBlockTableRecord
  2
*Paper_Space
340
6F
 70
     0
280
     1
281
     0
  0
BLOCK_RECORD
  5
74
330
1
100
AcDbSymbolTableRecord
100
AcDbBlockTableRecord
  2
*Paper_Space0
340
77
 70
     0
280
     1
281
     0
  0
BLOCK_RECORD
  5
8B
330
1
100
AcDbSymbolTableRecord
100
AcDbBlockTableRecord
  2
Block_0
340
0
102
{BLKREFS
331
8C
102
}
 70
     0
280
     1
281
     0
  0
BLOCK_RECORD
  5
8F
330
1
100
AcDbSymbolTableRecord
100
AcDbBlockTableRecord
  2
Block_1
340
0
102
{BLKREFS
331
90
102
}
 70
     0
280
     1
281
     0
  0
BLOCK_RECORD
  5
99
330
1
100
AcDbSymbolTableRecord
100
AcDbBlockTableRecord
  2
Block_2
340
0
102
{BLKREFS
331
9A
102
}
 70
     0
280
     1
281
     0
  0
BLOCK_RECORD
  5
A4
330
1
100
AcDbSymbolTableRecord
100
AcDbBlockTableRecord
  2
Block_3
340
0
102
{BLKREFS
331
A5
102
}
 70
     0
280
     1
281
     0
  0
BLOCK_RECORD
  5
A8
330
1
100
AcDbSymbolTableRecord
100
AcDbBlockTableRecord
  2
Block_4
340
0
102
{BLKREFS
331
A9
102
}
 70
     0
280
     1
281
     0
  0
BLOCK_RECORD
  5
B6
330
1
100
AcDbSymbolTableRecord
100
AcDbBlockTableRecord
  2
Block_5
340
0
102
{BLKREFS
331
B7
102
}
 70
     0
280
     1
281
     0
  0
BLOCK_RECORD
  5
BA
330
1
100
AcDbSymbolTableRecord
100
AcDbBlockTableRecord
  2
Block_6
340
0
102
{BLKREFS
331
BB
102
}
 70
     0
280
     1
281
     0
  0
BLOCK_RECORD
  5
C9
330
1
100
AcDbSymbolTableRecord
100
AcDbBlockTableRecord
  2
Block_7
340
0
102
{BLKREFS
331
CA
102
}
 70
     0
280
     1
281
     0
  0
BLOCK_RECORD
  5
CD
330
1
100
AcDbSymbolTableRecord
100
AcDbBlockTableRecord
  2
Block_8
340
0
102
{BLKREFS
331
CE
102
}
 70
     0
280
     1
281
     0
  0
BLOCK_RECORD
  5
D9
330
1
100
AcDbSymbolTableRecord
100
AcDbBlockTableRecord
  2
Block_9
340
0
102
{BLKREFS
331
DA
102
}
 70
     0
280
     1
281
     0
  0
BLOCK_RECORD
  5
DD
330
1
100
AcDbSymbolTableRecord
100
AcDbBlockTableRecord
  2
Block_10
340
0
102
{BLKREFS
331
DE
102
}
 70
     0
280
     1
281
     0
  0
BLOCK_RECORD
  5
EE
330
1
100
AcDbSymbolTableRecord
100
AcDbBlockTableRecord
  2
Block_11
340
0
102
{BLKREFS
331
EF
102
}
 70
     0
280
     1
281
     0
  0
BLOCK_RECORD
  5
F2
330
1
100
AcDbSymbolTableRecord
100
AcDbBlockTableRecord
  2
Block_12
340
0
102
{BLKREFS
331
F3
102
}
 70
     0
280
     1
281
     0
  0
ENDTAB
  0
ENDSEC
  0
SECTION
  2
BLOCKS
  0
BLOCK
  5
71
330
70
100
AcDbEntity
  8
0
100
AcDbBlockBegin
  2
*Model_Space
 70
     0
 10
0.0
 20
0.0
 30
0.0
  3
*Model_Space
  1

  0
ENDBLK
  5
72
330
70
100
AcDbEntity
  8
0
100
AcDbBlockEnd
  0
BLOCK
  5
6D
330
6C
100
AcDbEntity
 67
     1
  8
0
100
AcDbBlockBegin
  2
*Paper_Space
 70
     0
 10
0.0
 20
0.0
 30
0.0
  3
*Paper_Space
  1

  0
ENDBLK
  5
6E
330
6C
100
AcDbEntity
 67
     1
  8
0
100
AcDbBlockEnd
  0
BLOCK
  5
75
330
74
100
AcDbEntity
 67
     1
  8
0
100
AcDbBlockBegin
  2
*Paper_Space0
 70
     0
 10
0.0
 20
0.0
 30
0.0
  3
*Paper_Space0
  1

  0
ENDBLK
  5
76
330
74
100
AcDbEntity
 67
     1
  8
0
100
AcDbBlockEnd
  0
BLOCK
  5
8D
330
8B
100
AcDbEntity
  8
0
100
AcDbBlockBegin
  2
Block_0
 70
     0
 10
0.0
 20
0.0
 30
0.0
  3
Block_0
  1

  0
INSERT
  5
90
330
8B
100
AcDbEntity
  8
レイヤー 1
100
AcDbBlockReference
  2
Block_1
 10
0.0
 20
0.0
 30
0.0
  0
ENDBLK
  5
8E
330
8B
100
AcDbEntity
  8
0
100
AcDbBlockEnd
  0
BLOCK
  5
91
330
8F
100
AcDbEntity
  8
0
100
AcDbBlockBegin
  2
Block_1
 70
     0
 10
0.0
 20
0.0
 30
0.0
  3
Block_1
  1

  0
SPLINE
  5
93
330
8F
100
AcDbEntity
  8
レイヤー 1
100
AcDbSpline
210
0.0
220
0.0
230
1.0
 70
    11
 71
     3
 72
    26
 73
    22
 74
     0
 42
0.0000000001
 43
0.0000000001
 40
0.0
 40
0.0
 40
0.0
 40
0.0
 40
1.0
 40
1.0
 40
1.0
 40
2.0
 40
2.0
 40
2.0
 40
3.0
 40
3.0
 40
3.0
 40
4.0
 40
4.0
 40
4.0
 40
5.0
 40
5.0
 40
5.0
 40
6.0
 40
6.0
 40
6.0
 40
7.0
 40
7.0
 40
7.0
 40
7.0
 10
108.908425537009
 20
-155.2542615714295
 30
0.0
 10
108.908425537009
 20
-155.2542615714295
 30
0.0
 10
108.908425537009
 20
-154.1501084684069
 30
0.0
 10
108.908425537009
 20
-154.1501084684069
 30
0.0
 10
108.908425537009
 20
-154.1501084684069
 30
0.0
 10
108.6269612358641
 20
-154.1501084684069
 30
0.0
 10
108.6269612358641
 20
-154.1501084684069
 30
0.0
 10
108.6269612358641
 20
-154.1501084684069
 30
0.0
 10
108.6269612358641
 20
-154.0019693625412
 30
0.0
 10
108.6269612358641
 20
-154.0019693625412
 30
0.0
 10
108.9101480847516
 20
-153.9871554519546
 30
0.0
 10
108.949766682832
 20
-153.8242024355023
 30
0.0
 10
108.9749158798743
 20
-153.709825265392
 30
0.0
 10
108.9749158798743
 20
-153.709825265392
 30
0.0
 10
109.0996283364404
 20
-153.709825265392
 30
0.0
 10
109.0996283364404
 20
-153.709825265392
 30
0.0
 10
109.0996283364404
 20
-153.709825265392
 30
0.0
 10
109.0996283364404
 20
-155.2542615714295
 30
0.0
 10
109.0996283364404
 20
-155.2542615714295
 30
0.0
 10
109.0996283364404
 20
-155.2542615714295
 30
0.0
 10
108.908425537009
 20
-155.2542615714295
 30
0.0
 10
108.908425537009
 20
-155.2542615714295
 30
0.0
  0
HATCH
  5
94
330
8F
100
AcDbEntity
  8
レイヤー 1
 62
   250
420
  2299925
440
 33554687
100
AcDbHatch
 10
0.0
 20
0.0
 30
0.0
210
0.0
220
0.0
230
1.0
  2
SOLID
 70
     1
 71
     1
 91
        1
 92
        1
 93
        1
 72
     4
 94
        3
 73
     0
 74
     0
 95
       26
 96
       22
 40
0.0
 40
0.0
 40
0.0
 40
0.0
 40
1.0
 40
1.0
 40
1.0
 40
2.0
 40
2.0
 40
2.0
 40
3.0
 40
3.0
 40
3.0
 40
4.0
 40
4.0
 40
4.0
 40
5.0
 40
5.0
 40
5.0
 40
6.0
 40
6.0
 40
6.0
 40
7.0
 40
7.0
 40
7.0
 40
7.0
 10
108.908425537009
 20
-155.2542615714295
 10
108.908425537009
 20
-155.2542615714295
 10
108.908425537009
 20
-154.1501084684069
 10
108.908425537009
 20
-154.1501084684069
 10
108.908425537009
 20
-154.1501084684069
 10
108.6269612358641
 20
-154.1501084684069
 10
108.6269612358641
 20
-154.1501084684069
 10
108.6269612358641
 20
-154.1501084684069
 10
108.6269612358641
 20
-154.0019693625412
 10
108.6269612358641
 20
-154.0019693625412
 10
108.9101480847516
 20
-153.9871554519546
 10
108.949766682832
 20
-153.8242024355023
 10
108.9749158798743
 20
-153.709825265392
 10
108.9749158798743
 20
-153.709825265392
 10
109.0996283364404
 20
-153.709825265392
 10
109.0996283364404
 20
-153.709825265392
 10
109.0996283364404
 20
-153.709825265392
 10
109.0996283364404
 20
-155.2542615714295
 10
109.0996283364404
 20
-155.2542615714295
 10
109.0996283364404
 20
-155.2542615714295
 10
108.908425537009
 20
-155.2542615714295
 10
108.908425537009
 20
-155.2542615714295
 97
        0
 97
        1
330
93
 75
     2
 76
     1
 98
        1
 10
0.0
 20
0.0
450
        0
451
        0
460
0.0
461
0.0
452
        0
462
0.0
453
        0
470

  0
SPLINE
  5
95
330
8F
100
AcDbEntity
  8
レイヤー 1
100
AcDbSpline
210
0.0
220
0.0
230
1.0
 70
     9
 71
     3
 72
    26
 73
    22
 74
     0
 42
0.0000000001
 43
0.0000000001
 40
0.0
 40
0.0
 40
0.0
 40
0.0
 40
1.0
 40
1.0
 40
1.0
 40
2.0
 40
2.0
 40
2.0
 40
3.0
 40
3.0
 40
3.0
 40
4.0
 40
4.0
 40
4.0
 40
5.0
 40
5.0
 40
5.0
 40
6.0
 40
6.0
 40
6.0
 40
7.0
 40
7.0
 40
7.0
 40
7.0
 10
109.8758083492671
 20
-155.2542615714295
 30
0.0
 10
109.8758083492671
 20
-155.2542615714295
 30
0.0
 10
109.6739257538315
 20
-155.2542615714295
 30
0.0
 10
109.6739257538315
 20
-155.2542615714295
 30
0.0
 10
109.6956298553886
 20
-154.9452365064025
 30
0.0
 10
109.8596164004865
 20
-154.427094145421
 30
0.0
 10
110.2058484967541
 20
-153.9213541281863
 30
0.0
 10
110.2058484967541
 20
-153.9213541281863
 30
0.0
 10
109.4916802026618
 20
-153.9213541281863
 30
0.0
 10
109.4916802026618
 20
-153.9213541281863
 30
0.0
 10
109.4916802026618
 20
-153.9213541281863
 30
0.0
 10
109.4916802026618
 20
-153.709825265392
 30
0.0
 10
109.4916802026618
 20
-153.709825265392
 30
0.0
 10
109.4916802026618
 20
-153.709825265392
 30
0.0
 10
110.4077310921897
 20
-153.709825265392
 30
0.0
 10
110.4077310921897
 20
-153.709825265392
 30
0.0
 10
110.4077310921897
 20
-153.709825265392
 30
0.0
 10
110.4077310921897
 20
-153.9213541281863
 30
0.0
 10
110.4077310921897
 20
-153.9213541281863
 30
0.0
 10
110.1321234533697
 20
-154.2114311680444
 30
0.0
 10
109.9047471513432
 20
-154.8036430819588
 30
0.0
 10
109.8758083492671
 20
-155.2542615714295
 30
0.0
  0
HATCH
  5
96
330
8F
100
AcDbEntity
  8
レイヤー 1
 62
   250
420
  2299925
440
 33554687
100
AcDbHatch
 10
0.0
 20
0.0
 30
0.0
210
0.0
220
0.0
230
1.0
  2
SOLID
 70
     1
 71
     1
 91
        1
 92
        1
 93
        1
 72
     4
 94
        3
 73
     0
 74
     0
 95
       26
 96
       22
 40
0.0
 40
0.0
 40
0.0
 40
0.0
 40
1.0
 40
1.0
 40
1.0
 40
2.0
 40
2.0
 40
2.0
 40
3.0
 40
3.0
 40
3.0
 40
4.0
 40
4.0
 40
4.0
 40
5.0
 40
5.0
 40
5.0
 40
6.0
 40
6.0
 40
6.0
 40
7.0
 40
7.0
 40
7.0
 40
7.0
 10
109.8758083492671
 20
-155.2542615714295
 10
109.8758083492671
 20
-155.2542615714295
 10
109.6739257538315
 20
-155.2542615714295
 10
109.6739257538315
 20
-155.2542615714295
 10
109.6956298553886
 20
-154.9452365064025
 10
109.8596164004865
 20
-154.427094145421
 10
110.2058484967541
 20
-153.9213541281863
 10
110.2058484967541
 20
-153.9213541281863
 10
109.4916802026618
 20
-153.9213541281863
 10
109.4916802026618
 20
-153.9213541281863
 10
109.4916802026618
 20
-153.9213541281863
 10
109.4916802026618
 20
-153.709825265392
 10
109.4916802026618
 20
-153.709825265392
 10
109.4916802026618
 20
-153.709825265392
 10
110.4077310921897
 20
-153.709825265392
 10
110.4077310921897
 20
-153.709825265392
 10
110.4077310921897
 20
-153.709825265392
 10
110.4077310921897
 20
-153.9213541281863
 10
110.4077310921897
 20
-153.9213541281863
 10
110.1321234533697
 20
-154.2114311680444
 10
109.9047471513432
 20
-154.8036430819588
 10
109.8758083492671
 20
-155.2542615714295
 97
        0
 97
        1
330
95
 75
     2
 76
     1
 98
        1
 10
0.0
 20
0.0
450
        0
451
        0
460
0.0
461
0.0
452
        0
462
0.0
453
        0
470

  0
ENDBLK
  5
92
330
8F
100
AcDbEntity
  8
0
100
AcDbBlockEnd
  0
BLOCK
  5
9B
330
99
100
AcDbEntity
  8
0
100
AcDbBlockBegin
  2
Block_2
 70
     0
 10
0.0
 20
0.0
 30
0.0
  3
Block_2
  1

  0
SPLINE
  5
9D
330
99
100
AcDbEntity
  8
レイヤー 1
100
AcDbSpline
210
0.0
220
0.0
230
1.0
 70
     9
 71
     3
 72
    17
 73
    13
 74
     0
 42
0.0000000001
 43
0.0000000001
 40
0.0
 40
0.0
 40
0.0
 40
0.0
 40
1.0
 40
1.0
 40
1.0
 40
2.0
 40
2.0
 40
2.0
 40
3.0
 40
3.0
 40
3.0
 40
4.0
 40
4.0
 40
4.0
 40
4.0
 10
120.8866780296741
 20
-147.8176784569692
 30
0.0
 10
120.8866780296741
 20
-148.0412651539619
 30
0.0
 10
121.0982068924685
 20
-148.0738213062975
 30
0.0
 10
121.2146511198699
 20
-148.0738213062975
 30
0.0
 10
121.3903509896177
 20
-148.0738213062975
 30
0.0
 10
121.55330400607
 20
-147.9925170528456
 30
0.0
 10
121.55330400607
 20
-147.8357652082667
 30
0.0
 10
121.55330400607
 20
-147.732929108032
 30
0.0
 10
121.4940483637237
 20
-147.5832397091979
 30
0.0
 10
121.2084499479965
 20
-147.5832397091979
 30
0.0
 10
120.9841742319067
 20
-147.5832397091979
 30
0.0
 10
120.8866780296741
 20
-147.7022677582133
 30
0.0
 10
120.8866780296741
 20
-147.8176784569692
 30
0.0
  0
SPLINE
  5
9E
330
99
100
AcDbEntity
  8
レイヤー 1
100
AcDbSpline
210
0.0
220
0.0
230
1.0
 70
     9
 71
     3
 72
    32
 73
    28
 74
     0
 42
0.0000000001
 43
0.0000000001
 40
0.0
 40
0.0
 40
0.0
 40
0.0
 40
1.0
 40
1.0
 40
1.0
 40
2.0
 40
2.0
 40
2.0
 40
3.0
 40
3.0
 40
3.0
 40
4.0
 40
4.0
 40
4.0
 40
5.0
 40
5.0
 40
5.0
 40
6.0
 40
6.0
 40
6.0
 40
7.0
 40
7.0
 40
7.0
 40
8.0
 40
8.0
 40
8.0
 40
9.0
 40
9.0
 40
9.0
 40
9.0
 10
121.7455403341469
 20
-147.8321478580072
 30
0.0
 10
121.7455403341469
 20
-148.2720865514736
 30
0.0
 10
121.1915689801188
 20
-148.2793212519927
 30
0.0
 10
120.9776285504847
 20
-148.2793212519927
 30
0.0
 10
120.7471516625215
 20
-148.2793212519927
 30
0.0
 10
120.0998182208431
 20
-148.263129303212
 30
0.0
 10
120.0998182208431
 20
-147.7995917056716
 30
0.0
 10
120.0998182208431
 20
-147.6517971093544
 30
0.0
 10
120.1697536591936
 20
-147.4425075586255
 30
0.0
 10
120.5018608639717
 20
-147.4101236610641
 30
0.0
 10
120.5018608639717
 20
-147.4101236610641
 30
0.0
 10
120.5018608639717
 20
-147.5921969574596
 30
0.0
 10
120.5018608639717
 20
-147.5921969574596
 30
0.0
 10
120.4446722789166
 20
-147.6013264604955
 30
0.0
 10
120.2965331730508
 20
-147.6283704600547
 30
0.0
 10
120.2965331730508
 20
-147.8014865081885
 30
0.0
 10
120.2965331730508
 20
-148.0502224022235
 30
0.0
 10
120.6245062632466
 20
-148.0845011023018
 30
0.0
 10
120.829489444619
 20
-148.0953531530803
 30
0.0
 10
120.7512857771038
 20
-148.0161159569195
 30
0.0
 10
120.6920301347575
 20
-147.9584106075416
 30
0.0
 10
120.6920301347575
 20
-147.8032090559311
 30
0.0
 10
120.6920301347575
 20
-147.6499023068375
 30
0.0
 10
120.8002061329944
 20
-147.3920369097665
 30
0.0
 10
121.2063828907053
 20
-147.3920369097665
 30
0.0
 10
121.525743242188
 20
-147.3920369097665
 30
0.0
 10
121.7455403341469
 20
-147.5615356076408
 30
0.0
 10
121.7455403341469
 20
-147.8321478580072
 30
0.0
  0
HATCH
  5
9F
330
99
100
AcDbEntity
  8
レイヤー 1
 62
   250
420
  2299925
440
 33554687
100
AcDbHatch
 10
0.0
 20
0.0
 30
0.0
210
0.0
220
0.0
230
1.0
  2
SOLID
 70
     1
 71
     1
 91
        2
 92
        1
 93
        1
 72
     4
 94
        3
 73
     0
 74
     0
 95
       17
 96
       13
 40
0.0
 40
0.0
 40
0.0
 40
0.0
 40
1.0
 40
1.0
 40
1.0
 40
2.0
 40
2.0
 40
2.0
 40
3.0
 40
3.0
 40
3.0
 40
4.0
 40
4.0
 40
4.0
 40
4.0
 10
120.8866780296741
 20
-147.8176784569692
 10
120.8866780296741
 20
-148.0412651539619
 10
121.0982068924685
 20
-148.0738213062975
 10
121.2146511198699
 20
-148.0738213062975
 10
121.3903509896177
 20
-148.0738213062975
 10
121.55330400607
 20
-147.9925170528456
 10
121.55330400607
 20
-147.8357652082667
 10
121.55330400607
 20
-147.732929108032
 10
121.4940483637237
 20
-147.5832397091979
 10
121.2084499479965
 20
-147.5832397091979
 10
120.9841742319067
 20
-147.5832397091979
 10
120.8866780296741
 20
-147.7022677582133
 10
120.8866780296741
 20
-147.8176784569692
 97
        0
 97
        1
330
9D
 92
        1
 93
        1
 72
     4
 94
        3
 73
     0
 74
     0
 95
       32
 96
       28
 40
0.0
 40
0.0
 40
0.0
 40
0.0
 40
1.0
 40
1.0
 40
1.0
 40
2.0
 40
2.0
 40
2.0
 40
3.0
 40
3.0
 40
3.0
 40
4.0
 40
4.0
 40
4.0
 40
5.0
 40
5.0
 40
5.0
 40
6.0
 40
6.0
 40
6.0
 40
7.0
 40
7.0
 40
7.0
 40
8.0
 40
8.0
 40
8.0
 40
9.0
 40
9.0
 40
9.0
 40
9.0
 10
121.7455403341469
 20
-147.8321478580072
 10
121.7455403341469
 20
-148.2720865514736
 10
121.1915689801188
 20
-148.2793212519927
 10
120.9776285504847
 20
-148.2793212519927
 10
120.7471516625215
 20
-148.2793212519927
 10
120.0998182208431
 20
-148.263129303212
 10
120.0998182208431
 20
-147.7995917056716
 10
120.0998182208431
 20
-147.6517971093544
 10
120.1697536591936
 20
-147.4425075586255
 10
120.5018608639717
 20
-147.4101236610641
 10
120.5018608639717
 20
-147.4101236610641
 10
120.5018608639717
 20
-147.5921969574596
 10
120.5018608639717
 20
-147.5921969574596
 10
120.4446722789166
 20
-147.6013264604955
 10
120.2965331730508
 20
-147.6283704600547
 10
120.2965331730508
 20
-147.8014865081885
 10
120.2965331730508
 20
-148.0502224022235
 10
120.6245062632466
 20
-148.0845011023018
 10
120.829489444619
 20
-148.0953531530803
 10
120.7512857771038
 20
-148.0161159569195
 10
120.6920301347575
 20
-147.9584106075416
 10
120.6920301347575
 20
-147.8032090559311
 10
120.6920301347575
 20
-147.6499023068375
 10
120.8002061329944
 20
-147.3920369097665
 10
121.2063828907053
 20
-147.3920369097665
 10
121.525743242188
 20
-147.3920369097665
 10
121.7455403341469
 20
-147.5615356076408
 10
121.7455403341469
 20
-147.8321478580072
 97
        0
 97
        1
330
9E
 75
     2
 76
     1
 98
        1
 10
0.0
 20
0.0
450
        0
451
        0
460
0.0
461
0.0
452
        0
462
0.0
453
        0
470

  0
ENDBLK
  5
9C
330
99
100
AcDbEntity
  8
0
100
AcDbBlockEnd
  0
BLOCK
  5
A6
330
A4
100
AcDbEntity
  8
0
100
AcDbBlockBegin
  2
Block_3
 70
     0
 10
0.0
 20
0.0
 30
0.0
  3
Block_3
  1

  0
INSERT
  5
A9
330
A4
100
AcDbEntity
  8
レイヤー 1
100
AcDbBlockReference
  2
Block_4
 10
0.0
 20
0.0
 30
0.0
  0
ENDBLK
  5
A7
330
A4
100
AcDbEntity
  8
0
100
AcDbBlockEnd
  0
BLOCK
  5
AA
330
A8
100
AcDbEntity
  8
0
100
AcDbBlockBegin
  2
Block_4
 70
     0
 10
0.0
 20
0.0
 30
0.0
  3
Block_4
  1

  0
SPLINE
  5
AC
330
A8
100
AcDbEntity
  8
レイヤー 1
100
AcDbSpline
210
0.0
220
0.0
230
1.0
 70
    11
 71
     3
 72
    26
 73
    22
 74
     0
 42
0.0000000001
 43
0.0000000001
 40
0.0
 40
0.0
 40
0.0
 40
0.0
 40
1.0
 40
1.0
 40
1.0
 40
2.0
 40
2.0
 40
2.0
 40
3.0
 40
3.0
 40
3.0
 40
4.0
 40
4.0
 40
4.0
 40
5.0
 40
5.0
 40
5.0
 40
6.0
 40
6.0
 40
6.0
 40
7.0
 40
7.0
 40
7.0
 40
7.0
 10
86.46466197925191
 20
-143.768657733155
 30
0.0
 10
86.46466197925191
 20
-143.768657733155
 30
0.0
 10
85.36033662145506
 20
-143.768657733155
 30
0.0
 10
85.36033662145506
 20
-143.768657733155
 30
0.0
 10
85.36033662145506
 20
-143.768657733155
 30
0.0
 10
85.36033662145506
 20
-144.0501220343
 30
0.0
 10
85.36033662145506
 20
-144.0501220343
 30
0.0
 10
85.36033662145506
 20
-144.0501220343
 30
0.0
 10
85.2121975155893
 20
-144.0501220343
 30
0.0
 10
85.2121975155893
 20
-144.0501220343
 30
0.0
 10
85.197555859777
 20
-143.7669351854124
 30
0.0
 10
85.03460284332469
 20
-143.727316587332
 30
0.0
 10
84.92039792798866
 20
-143.7021673902897
 30
0.0
 10
84.92039792798866
 20
-143.7021673902897
 30
0.0
 10
84.92039792798866
 20
-143.5774549337237
 30
0.0
 10
84.92039792798866
 20
-143.5774549337237
 30
0.0
 10
84.92039792798866
 20
-143.5774549337237
 30
0.0
 10
86.46466197925191
 20
-143.5774549337237
 30
0.0
 10
86.46466197925191
 20
-143.5774549337237
 30
0.0
 10
86.46466197925191
 20
-143.5774549337237
 30
0.0
 10
86.46466197925191
 20
-143.768657733155
 30
0.0
 10
86.46466197925191
 20
-143.768657733155
 30
0.0
  0
HATCH
  5
AD
330
A8
100
AcDbEntity
  8
レイヤー 1
 62
   250
420
  2299925
440
 33554687
100
AcDbHatch
 10
0.0
 20
0.0
 30
0.0
210
0.0
220
0.0
230
1.0
  2
SOLID
 70
     1
 71
     1
 91
        1
 92
        1
 93
        1
 72
     4
 94
        3
 73
     0
 74
     0
 95
       26
 96
       22
 40
0.0
 40
0.0
 40
0.0
 40
0.0
 40
1.0
 40
1.0
 40
1.0
 40
2.0
 40
2.0
 40
2.0
 40
3.0
 40
3.0
 40
3.0
 40
4.0
 40
4.0
 40
4.0
 40
5.0
 40
5.0
 40
5.0
 40
6.0
 40
6.0
 40
6.0
 40
7.0
 40
7.0
 40
7.0
 40
7.0
 10
86.46466197925191
 20
-143.768657733155
 10
86.46466197925191
 20
-143.768657733155
 10
85.36033662145506
 20
-143.768657733155
 10
85.36033662145506
 20
-143.768657733155
 10
85.36033662145506
 20
-143.768657733155
 10
85.36033662145506
 20
-144.0501220343
 10
85.36033662145506
 20
-144.0501220343
 10
85.36033662145506
 20
-144.0501220343
 10
85.2121975155893
 20
-144.0501220343
 10
85.2121975155893
 20
-144.0501220343
 10
85.197555859777
 20
-143.7669351854124
 10
85.03460284332469
 20
-143.727316587332
 10
84.92039792798866
 20
-143.7021673902897
 10
84.92039792798866
 20
-143.7021673902897
 10
84.92039792798866
 20
-143.5774549337237
 10
84.92039792798866
 20
-143.5774549337237
 10
84.92039792798866
 20
-143.5774549337237
 10
86.46466197925191
 20
-143.5774549337237
 10
86.46466197925191
 20
-143.5774549337237
 10
86.46466197925191
 20
-143.5774549337237
 10
86.46466197925191
 20
-143.768657733155
 10
86.46466197925191
 20
-143.768657733155
 97
        0
 97
        1
330
AC
 75
     2
 76
     1
 98
        1
 10
0.0
 20
0.0
450
        0
451
        0
460
0.0
461
0.0
452
        0
462
0.0
453
        0
470

  0
SPLINE
  5
AE
330
A8
100
AcDbEntity
  8
レイヤー 1
100
AcDbSpline
210
0.0
220
0.0
230
1.0
 70
    11
 71
     3
 72
    17
 73
    13
 74
     0
 42
0.0000000001
 43
0.0000000001
 40
0.0
 40
0.0
 40
0.0
 40
0.0
 40
1.0
 40
1.0
 40
1.0
 40
2.0
 40
2.0
 40
2.0
 40
3.0
 40
3.0
 40
3.0
 40
4.0
 40
4.0
 40
4.0
 40
4.0
 10
86.46466197925191
 20
-143.1006537185651
 30
0.0
 10
86.46466197925191
 20
-143.1006537185651
 30
0.0
 10
86.21299775405439
 20
-143.1006537185651
 30
0.0
 10
86.21299775405439
 20
-143.1006537185651
 30
0.0
 10
86.21299775405439
 20
-143.1006537185651
 30
0.0
 10
86.21299775405439
 20
-142.886024269834
 30
0.0
 10
86.21299775405439
 20
-142.886024269834
 30
0.0
 10
86.21299775405439
 20
-142.886024269834
 30
0.0
 10
86.46466197925191
 20
-142.886024269834
 30
0.0
 10
86.46466197925191
 20
-142.886024269834
 30
0.0
 10
86.46466197925191
 20
-142.886024269834
 30
0.0
 10
86.46466197925191
 20
-143.1006537185651
 30
0.0
 10
86.46466197925191
 20
-143.1006537185651
 30
0.0
  0
HATCH
  5
AF
330
A8
100
AcDbEntity
  8
レイヤー 1
 62
   250
420
  2299925
440
 33554687
100
AcDbHatch
 10
0.0
 20
0.0
 30
0.0
210
0.0
220
0.0
230
1.0
  2
SOLID
 70
     1
 71
     1
 91
        1
 92
        1
 93
        1
 72
     4
 94
        3
 73
     0
 74
     0
 95
       17
 96
       13
 40
0.0
 40
0.0
 40
0.0
 40
0.0
 40
1.0
 40
1.0
 40
1.0
 40
2.0
 40
2.0
 40
2.0
 40
3.0
 40
3.0
 40
3.0
 40
4.0
 40
4.0
 40
4.0
 40
4.0
 10
86.46466197925191
 20
-143.1006537185651
 10
86.46466197925191
 20
-143.1006537185651
 10
86.21299775405439
 20
-143.1006537185651
 10
86.21299775405439
 20
-143.1006537185651
 10
86.21299775405439
 20
-143.1006537185651
 10
86.21299775405439
 20
-142.886024269834
 10
86.21299775405439
 20
-142.886024269834
 10
86.21299775405439
 20
-142.886024269834
 10
86.46466197925191
 20
-142.886024269834
 10
86.46466197925191
 20
-142.886024269834
 10
86.46466197925191
 20
-142.886024269834
 10
86.46466197925191
 20
-143.1006537185651
 10
86.46466197925191
 20
-143.1006537185651
 97
        0
 97
        1
330
AE
 75
     2
 76
     1
 98
        1
 10
0.0
 20
0.0
450
        0
451
        0
460
0.0
461
0.0
452
        0
462
0.0
453
        0
470

  0
SPLINE
  5
B0
330
A8
100
AcDbEntity
  8
レイヤー 1
100
AcDbSpline
210
0.0
220
0.0
230
1.0
 70
    11
 71
     3
 72
    26
 73
    22
 74
     0
 42
0.0000000001
 43
0.0000000001
 40
0.0
 40
0.0
 40
0.0
 40
0.0
 40
1.0
 40
1.0
 40
1.0
 40
2.0
 40
2.0
 40
2.0
 40
3.0
 40
3.0
 40
3.0
 40
4.0
 40
4.0
 40
4.0
 40
5.0
 40
5.0
 40
5.0
 40
6.0
 40
6.0
 40
6.0
 40
7.0
 40
7.0
 40
7.0
 40
7.0
 10
86.46466197925191
 20
-142.300013527793
 30
0.0
 10
86.46466197925191
 20
-142.300013527793
 30
0.0
 10
85.36033662145506
 20
-142.300013527793
 30
0.0
 10
85.36033662145506
 20
-142.300013527793
 30
0.0
 10
85.36033662145506
 20
-142.300013527793
 30
0.0
 10
85.36033662145506
 20
-142.5814778289379
 30
0.0
 10
85.36033662145506
 20
-142.5814778289379
 30
0.0
 10
85.36033662145506
 20
-142.5814778289379
 30
0.0
 10
85.2121975155893
 20
-142.5814778289379
 30
0.0
 10
85.2121975155893
 20
-142.5814778289379
 30
0.0
 10
85.197555859777
 20
-142.2982909800504
 30
0.0
 10
85.03460284332469
 20
-142.25867238197
 30
0.0
 10
84.92039792798866
 20
-142.2335231849277
 30
0.0
 10
84.92039792798866
 20
-142.2335231849277
 30
0.0
 10
84.92039792798866
 20
-142.1088107283617
 30
0.0
 10
84.92039792798866
 20
-142.1088107283617
 30
0.0
 10
84.92039792798866
 20
-142.1088107283617
 30
0.0
 10
86.46466197925191
 20
-142.1088107283617
 30
0.0
 10
86.46466197925191
 20
-142.1088107283617
 30
0.0
 10
86.46466197925191
 20
-142.1088107283617
 30
0.0
 10
86.46466197925191
 20
-142.300013527793
 30
0.0
 10
86.46466197925191
 20
-142.300013527793
 30
0.0
  0
HATCH
  5
B1
330
A8
100
AcDbEntity
  8
レイヤー 1
 62
   250
420
  2299925
440
 33554687
100
AcDbHatch
 10
0.0
 20
0.0
 30
0.0
210
0.0
220
0.0
230
1.0
  2
SOLID
 70
     1
 71
     1
 91
        1
 92
        1
 93
        1
 72
     4
 94
        3
 73
     0
 74
     0
 95
       26
 96
       22
 40
0.0
 40
0.0
 40
0.0
 40
0.0
 40
1.0
 40
1.0
 40
1.0
 40
2.0
 40
2.0
 40
2.0
 40
3.0
 40
3.0
 40
3.0
 40
4.0
 40
4.0
 40
4.0
 40
5.0
 40
5.0
 40
5.0
 40
6.0
 40
6.0
 40
6.0
 40
7.0
 40
7.0
 40
7.0
 40
7.0
 10
86.46466197925191
 20
-142.300013527793
 10
86.46466197925191
 20
-142.300013527793
 10
85.36033662145506
 20
-142.300013527793
 10
85.36033662145506
 20
-142.300013527793
 10
85.36033662145506
 20
-142.300013527793
 10
85.36033662145506
 20
-142.5814778289379
 10
85.36033662145506
 20
-142.5814778289379
 10
85.36033662145506
 20
-142.5814778289379
 10
85.2121975155893
 20
-142.5814778289379
 10
85.2121975155893
 20
-142.5814778289379
 10
85.197555859777
 20
-142.2982909800504
 10
85.03460284332469
 20
-142.25867238197
 10
84.92039792798866
 20
-142.2335231849277
 10
84.92039792798866
 20
-142.2335231849277
 10
84.92039792798866
 20
-142.1088107283617
 10
84.92039792798866
 20
-142.1088107283617
 10
84.92039792798866
 20
-142.1088107283617
 10
86.46466197925191
 20
-142.1088107283617
 10
86.46466197925191
 20
-142.1088107283617
 10
86.46466197925191
 20
-142.1088107283617
 10
86.46466197925191
 20
-142.300013527793
 10
86.46466197925191
 20
-142.300013527793
 97
        0
 97
        1
330
B0
 75
     2
 76
     1
 98
        1
 10
0.0
 20
0.0
450
        0
451
        0
460
0.0
461
0.0
452
        0
462
0.0
453
        0
470

  0
ENDBLK
  5
AB
330
A8
100
AcDbEntity
  8
0
100
AcDbBlockEnd
  0
BLOCK
  5
B8
330
B6
100
AcDbEntity
  8
0
100
AcDbBlockBegin
  2
Block_5
 70
     0
 10
0.0
 20
0.0
 30
0.0
  3
Block_5
  1

  0
INSERT
  5
BB
330
B6
100
AcDbEntity
  8
レイヤー 1
100
AcDbBlockReference
  2
Block_6
 10
0.0
 20
0.0
 30
0.0
  0
ENDBLK
  5
B9
330
B6
100
AcDbEntity
  8
0
100
AcDbBlockEnd
  0
BLOCK
  5
BC
330
BA
100
AcDbEntity
  8
0
100
AcDbBlockBegin
  2
Block_6
 70
     0
 10
0.0
 20
0.0
 30
0.0
  3
Block_6
  1

  0
SPLINE
  5
BE
330
BA
100
AcDbEntity
  8
レイヤー 1
100
AcDbSpline
210
0.0
220
0.0
230
1.0
 70
     9
 71
     3
 72
    17
 73
    13
 74
     0
 42
0.0000000001
 43
0.0000000001
 40
0.0
 40
0.0
 40
0.0
 40
0.0
 40
1.0
 40
1.0
 40
1.0
 40
2.0
 40
2.0
 40
2.0
 40
3.0
 40
3.0
 40
3.0
 40
4.0
 40
4.0
 40
4.0
 40
4.0
 10
123.7378390532669
 20
-151.9156195366739
 30
0.0
 10
123.7378390532669
 20
-152.1281819281138
 30
0.0
 10
124.021370411703
 20
-152.1681450357427
 30
0.0
 10
124.3662244697765
 20
-152.1681450357427
 30
0.0
 10
124.6855848212591
 20
-152.1681450357427
 30
0.0
 10
124.9942653767375
 20
-152.1374836859239
 30
0.0
 10
124.9942653767375
 20
-151.9156195366739
 30
0.0
 10
124.9942653767375
 20
-151.7044351834281
 30
0.0
 10
124.7131455851411
 20
-151.663094037605
 30
0.0
 10
124.3662244697765
 20
-151.663094037605
 30
0.0
 10
124.0465196087453
 20
-151.663094037605
 30
0.0
 10
123.7378390532669
 20
-151.6954779351664
 30
0.0
 10
123.7378390532669
 20
-151.9156195366739
 30
0.0
  0
SPLINE
  5
BF
330
BA
100
AcDbEntity
  8
レイヤー 1
100
AcDbSpline
210
0.0
220
0.0
230
1.0
 70
     9
 71
     3
 72
    29
 73
    25
 74
     0
 42
0.0000000001
 43
0.0000000001
 40
0.0
 40
0.0
 40
0.0
 40
0.0
 40
1.0
 40
1.0
 40
1.0
 40
2.0
 40
2.0
 40
2.0
 40
3.0
 40
3.0
 40
3.0
 40
4.0
 40
4.0
 40
4.0
 40
5.0
 40
5.0
 40
5.0
 40
6.0
 40
6.0
 40
6.0
 40
7.0
 40
7.0
 40
7.0
 40
8.0
 40
8.0
 40
8.0
 40
8.0
 10
124.9605034409821
 20
-151.5766221409253
 30
0.0
 10
125.1699652464853
 20
-151.6686061903814
 30
0.0
 10
125.1889132716542
 20
-151.8164007866987
 30
0.0
 10
125.1889132716542
 20
-151.9156195366739
 30
0.0
 10
125.1889132716542
 20
-152.0527343369868
 30
0.0
 10
125.1424044826033
 20
-152.1733126789706
 30
0.0
 10
124.9605034409821
 20
-152.2546169324224
 30
0.0
 10
124.7658555460654
 20
-152.3428113768448
 30
0.0
 10
124.5288329766803
 20
-152.3590033256255
 30
0.0
 10
124.3662244697765
 20
-152.3590033256255
 30
0.0
 10
124.222219478493
 20
-152.3590033256255
 30
0.0
 10
123.9703829985213
 20
-152.344878434136
 30
0.0
 10
123.7716009890224
 20
-152.2546169324224
 30
0.0
 10
123.5686848649411
 20
-152.1626328829663
 30
0.0
 10
123.5452582156414
 20
-152.0255180826533
 30
0.0
 10
123.5452582156414
 20
-151.9156195366739
 30
0.0
 10
123.5452582156414
 20
-151.7802272841036
 30
0.0
 10
123.5896999474012
 20
-151.6575818848286
 30
0.0
 10
123.7716009890224
 20
-151.5766221409253
 30
0.0
 10
123.9641818266478
 20
-151.4918727919881
 30
0.0
 10
124.1925916573199
 20
-151.4718912381737
 30
0.0
 10
124.3662244697765
 20
-151.4718912381737
 30
0.0
 10
124.5374457153934
 20
-151.4718912381737
 30
0.0
 10
124.7679226033566
 20
-151.4901502442455
 30
0.0
 10
124.9605034409821
 20
-151.5766221409253
 30
0.0
  0
HATCH
  5
C0
330
BA
100
AcDbEntity
  8
レイヤー 1
 62
   250
420
  2299925
440
 33554687
100
AcDbHatch
 10
0.0
 20
0.0
 30
0.0
210
0.0
220
0.0
230
1.0
  2
SOLID
 70
     1
 71
     1
 91
        2
 92
        1
 93
        1
 72
     4
 94
        3
 73
     0
 74
     0
 95
       17
 96
       13
 40
0.0
 40
0.0
 40
0.0
 40
0.0
 40
1.0
 40
1.0
 40
1.0
 40
2.0
 40
2.0
 40
2.0
 40
3.0
 40
3.0
 40
3.0
 40
4.0
 40
4.0
 40
4.0
 40
4.0
 10
123.7378390532669
 20
-151.9156195366739
 10
123.7378390532669
 20
-152.1281819281138
 10
124.021370411703
 20
-152.1681450357427
 10
124.3662244697765
 20
-152.1681450357427
 10
124.6855848212591
 20
-152.1681450357427
 10
124.9942653767375
 20
-152.1374836859239
 10
124.9942653767375
 20
-151.9156195366739
 10
124.9942653767375
 20
-151.7044351834281
 10
124.7131455851411
 20
-151.663094037605
 10
124.3662244697765
 20
-151.663094037605
 10
124.0465196087453
 20
-151.663094037605
 10
123.7378390532669
 20
-151.6954779351664
 10
123.7378390532669
 20
-151.9156195366739
 97
        0
 97
        1
330
BE
 92
        1
 93
        1
 72
     4
 94
        3
 73
     0
 74
     0
 95
       29
 96
       25
 40
0.0
 40
0.0
 40
0.0
 40
0.0
 40
1.0
 40
1.0
 40
1.0
 40
2.0
 40
2.0
 40
2.0
 40
3.0
 40
3.0
 40
3.0
 40
4.0
 40
4.0
 40
4.0
 40
5.0
 40
5.0
 40
5.0
 40
6.0
 40
6.0
 40
6.0
 40
7.0
 40
7.0
 40
7.0
 40
8.0
 40
8.0
 40
8.0
 40
8.0
 10
124.9605034409821
 20
-151.5766221409253
 10
125.1699652464853
 20
-151.6686061903814
 10
125.1889132716542
 20
-151.8164007866987
 10
125.1889132716542
 20
-151.9156195366739
 10
125.1889132716542
 20
-152.0527343369868
 10
125.1424044826033
 20
-152.1733126789706
 10
124.9605034409821
 20
-152.2546169324224
 10
124.7658555460654
 20
-152.3428113768448
 10
124.5288329766803
 20
-152.3590033256255
 10
124.3662244697765
 20
-152.3590033256255
 10
124.222219478493
 20
-152.3590033256255
 10
123.9703829985213
 20
-152.344878434136
 10
123.7716009890224
 20
-152.2546169324224
 10
123.5686848649411
 20
-152.1626328829663
 10
123.5452582156414
 20
-152.0255180826533
 10
123.5452582156414
 20
-151.9156195366739
 10
123.5452582156414
 20
-151.7802272841036
 10
123.5896999474012
 20
-151.6575818848286
 10
123.7716009890224
 20
-151.5766221409253
 10
123.9641818266478
 20
-151.4918727919881
 10
124.1925916573199
 20
-151.4718912381737
 10
124.3662244697765
 20
-151.4718912381737
 10
124.5374457153934
 20
-151.4718912381737
 10
124.7679226033566
 20
-151.4901502442455
 10
124.9605034409821
 20
-151.5766221409253
 97
        0
 97
        1
330
BF
 75
     2
 76
     1
 98
        1
 10
0.0
 20
0.0
450
        0
451
        0
460
0.0
461
0.0
452
        0
462
0.0
453
        0
470

  0
SPLINE
  5
C1
330
BA
100
AcDbEntity
  8
レイヤー 1
100
AcDbSpline
210
0.0
220
0.0
230
1.0
 70
    11
 71
     3
 72
    17
 73
    13
 74
     0
 42
0.0000000001
 43
0.0000000001
 40
0.0
 40
0.0
 40
0.0
 40
0.0
 40
1.0
 40
1.0
 40
1.0
 40
2.0
 40
2.0
 40
2.0
 40
3.0
 40
3.0
 40
3.0
 40
4.0
 40
4.0
 40
4.0
 40
4.0
 10
125.138270368021
 20
-151.2889566679069
 30
0.0
 10
125.138270368021
 20
-151.2889566679069
 30
0.0
 10
124.8864338880492
 20
-151.2889566679069
 30
0.0
 10
124.8864338880492
 20
-151.2889566679069
 30
0.0
 10
124.8864338880492
 20
-151.2889566679069
 30
0.0
 10
124.8864338880492
 20
-151.0743272191758
 30
0.0
 10
124.8864338880492
 20
-151.0743272191758
 30
0.0
 10
124.8864338880492
 20
-151.0743272191758
 30
0.0
 10
125.138270368021
 20
-151.0743272191758
 30
0.0
 10
125.138270368021
 20
-151.0743272191758
 30
0.0
 10
125.138270368021
 20
-151.0743272191758
 30
0.0
 10
125.138270368021
 20
-151.2889566679069
 30
0.0
 10
125.138270368021
 20
-151.2889566679069
 30
0.0
  0
HATCH
  5
C2
330
BA
100
AcDbEntity
  8
レイヤー 1
 62
   250
420
  2299925
440
 33554687
100
AcDbHatch
 10
0.0
 20
0.0
 30
0.0
210
0.0
220
0.0
230
1.0
  2
SOLID
 70
     1
 71
     1
 91
        1
 92
        1
 93
        1
 72
     4
 94
        3
 73
     0
 74
     0
 95
       17
 96
       13
 40
0.0
 40
0.0
 40
0.0
 40
0.0
 40
1.0
 40
1.0
 40
1.0
 40
2.0
 40
2.0
 40
2.0
 40
3.0
 40
3.0
 40
3.0
 40
4.0
 40
4.0
 40
4.0
 40
4.0
 10
125.138270368021
 20
-151.2889566679069
 10
125.138270368021
 20
-151.2889566679069
 10
124.8864338880492
 20
-151.2889566679069
 10
124.8864338880492
 20
-151.2889566679069
 10
124.8864338880492
 20
-151.2889566679069
 10
124.8864338880492
 20
-151.0743272191758
 10
124.8864338880492
 20
-151.0743272191758
 10
124.8864338880492
 20
-151.0743272191758
 10
125.138270368021
 20
-151.0743272191758
 10
125.138270368021
 20
-151.0743272191758
 10
125.138270368021
 20
-151.0743272191758
 10
125.138270368021
 20
-151.2889566679069
 10
125.138270368021
 20
-151.2889566679069
 97
        0
 97
        1
330
C1
 75
     2
 76
     1
 98
        1
 10
0.0
 20
0.0
450
        0
451
        0
460
0.0
461
0.0
452
        0
462
0.0
453
        0
470

  0
SPLINE
  5
C3
330
BA
100
AcDbEntity
  8
レイヤー 1
100
AcDbSpline
210
0.0
220
0.0
230
1.0
 70
    11
 71
     3
 72
    14
 73
    10
 74
     0
 42
0.0000000001
 43
0.0000000001
 40
0.0
 40
0.0
 40
0.0
 40
0.0
 40
1.0
 40
1.0
 40
1.0
 40
2.0
 40
2.0
 40
2.0
 40
3.0
 40
3.0
 40
3.0
 40
3.0
 10
123.9366210627658
 20
-150.3494791290793
 30
0.0
 10
123.9366210627658
 20
-150.3494791290793
 30
0.0
 10
124.5925672431574
 20
-150.739119428461
 30
0.0
 10
124.5925672431574
 20
-150.739119428461
 30
0.0
 10
124.5925672431574
 20
-150.739119428461
 30
0.0
 10
124.5925672431574
 20
-150.3494791290793
 30
0.0
 10
124.5925672431574
 20
-150.3494791290793
 30
0.0
 10
124.5925672431574
 20
-150.3494791290793
 30
0.0
 10
123.9366210627658
 20
-150.3494791290793
 30
0.0
 10
123.9366210627658
 20
-150.3494791290793
 30
0.0
  0
SPLINE
  5
C4
330
BA
100
AcDbEntity
  8
レイヤー 1
100
AcDbSpline
210
0.0
220
0.0
230
1.0
 70
    11
 71
     3
 72
    38
 73
    34
 74
     0
 42
0.0000000001
 43
0.0000000001
 40
0.0
 40
0.0
 40
0.0
 40
0.0
 40
1.0
 40
1.0
 40
1.0
 40
2.0
 40
2.0
 40
2.0
 40
3.0
 40
3.0
 40
3.0
 40
4.0
 40
4.0
 40
4.0
 40
5.0
 40
5.0
 40
5.0
 40
6.0
 40
6.0
 40
6.0
 40
7.0
 40
7.0
 40
7.0
 40
8.0
 40
8.0
 40
8.0
 40
9.0
 40
9.0
 40
9.0
 40
10.0
 40
10.0
 40
10.0
 40
11.0
 40
11.0
 40
11.0
 40
11.0
 10
124.7913492526563
 20
-150.1637884824243
 30
0.0
 10
124.7913492526563
 20
-150.1637884824243
 30
0.0
 10
125.138270368021
 20
-150.1637884824243
 30
0.0
 10
125.138270368021
 20
-150.1637884824243
 30
0.0
 10
125.138270368021
 20
-150.1637884824243
 30
0.0
 10
125.138270368021
 20
-150.3494791290793
 30
0.0
 10
125.138270368021
 20
-150.3494791290793
 30
0.0
 10
125.138270368021
 20
-150.3494791290793
 30
0.0
 10
124.7913492526563
 20
-150.3494791290793
 30
0.0
 10
124.7913492526563
 20
-150.3494791290793
 30
0.0
 10
124.7913492526563
 20
-150.3494791290793
 30
0.0
 10
124.7913492526563
 20
-150.9086181263353
 30
0.0
 10
124.7913492526563
 20
-150.9086181263353
 30
0.0
 10
124.7913492526563
 20
-150.9086181263353
 30
0.0
 10
124.5670735365665
 20
-150.9086181263353
 30
0.0
 10
124.5670735365665
 20
-150.9086181263353
 30
0.0
 10
124.5670735365665
 20
-150.9086181263353
 30
0.0
 10
123.5938340619835
 20
-150.3298420848134
 30
0.0
 10
123.5938340619835
 20
-150.3298420848134
 30
0.0
 10
123.5938340619835
 20
-150.3298420848134
 30
0.0
 10
123.5938340619835
 20
-150.1637884824243
 30
0.0
 10
123.5938340619835
 20
-150.1637884824243
 30
0.0
 10
123.5938340619835
 20
-150.1637884824243
 30
0.0
 10
124.5925672431574
 20
-150.1637884824243
 30
0.0
 10
124.5925672431574
 20
-150.1637884824243
 30
0.0
 10
124.5925672431574
 20
-150.1637884824243
 30
0.0
 10
124.5925672431574
 20
-149.987055084031
 30
0.0
 10
124.5925672431574
 20
-149.987055084031
 30
0.0
 10
124.5925672431574
 20
-149.987055084031
 30
0.0
 10
124.7913492526563
 20
-149.987055084031
 30
0.0
 10
124.7913492526563
 20
-149.987055084031
 30
0.0
 10
124.7913492526563
 20
-149.987055084031
 30
0.0
 10
124.7913492526563
 20
-150.1637884824243
 30
0.0
 10
124.7913492526563
 20
-150.1637884824243
 30
0.0
  0
HATCH
  5
C5
330
BA
100
AcDbEntity
  8
レイヤー 1
 62
   250
420
  2299925
440
 33554687
100
AcDbHatch
 10
0.0
 20
0.0
 30
0.0
210
0.0
220
0.0
230
1.0
  2
SOLID
 70
     1
 71
     1
 91
        2
 92
        1
 93
        1
 72
     4
 94
        3
 73
     0
 74
     0
 95
       14
 96
       10
 40
0.0
 40
0.0
 40
0.0
 40
0.0
 40
1.0
 40
1.0
 40
1.0
 40
2.0
 40
2.0
 40
2.0
 40
3.0
 40
3.0
 40
3.0
 40
3.0
 10
123.9366210627658
 20
-150.3494791290793
 10
123.9366210627658
 20
-150.3494791290793
 10
124.5925672431574
 20
-150.739119428461
 10
124.5925672431574
 20
-150.739119428461
 10
124.5925672431574
 20
-150.739119428461
 10
124.5925672431574
 20
-150.3494791290793
 10
124.5925672431574
 20
-150.3494791290793
 10
124.5925672431574
 20
-150.3494791290793
 10
123.9366210627658
 20
-150.3494791290793
 10
123.9366210627658
 20
-150.3494791290793
 97
        0
 97
        1
330
C3
 92
        1
 93
        1
 72
     4
 94
        3
 73
     0
 74
     0
 95
       38
 96
       34
 40
0.0
 40
0.0
 40
0.0
 40
0.0
 40
1.0
 40
1.0
 40
1.0
 40
2.0
 40
2.0
 40
2.0
 40
3.0
 40
3.0
 40
3.0
 40
4.0
 40
4.0
 40
4.0
 40
5.0
 40
5.0
 40
5.0
 40
6.0
 40
6.0
 40
6.0
 40
7.0
 40
7.0
 40
7.0
 40
8.0
 40
8.0
 40
8.0
 40
9.0
 40
9.0
 40
9.0
 40
10.0
 40
10.0
 40
10.0
 40
11.0
 40
11.0
 40
11.0
 40
11.0
 10
124.7913492526563
 20
-150.1637884824243
 10
124.7913492526563
 20
-150.1637884824243
 10
125.138270368021
 20
-150.1637884824243
 10
125.138270368021
 20
-150.1637884824243
 10
125.138270368021
 20
-150.1637884824243
 10
125.138270368021
 20
-150.3494791290793
 10
125.138270368021
 20
-150.3494791290793
 10
125.138270368021
 20
-150.3494791290793
 10
124.7913492526563
 20
-150.3494791290793
 10
124.7913492526563
 20
-150.3494791290793
 10
124.7913492526563
 20
-150.3494791290793
 10
124.7913492526563
 20
-150.9086181263353
 10
124.7913492526563
 20
-150.9086181263353
 10
124.7913492526563
 20
-150.9086181263353
 10
124.5670735365665
 20
-150.9086181263353
 10
124.5670735365665
 20
-150.9086181263353
 10
124.5670735365665
 20
-150.9086181263353
 10
123.5938340619835
 20
-150.3298420848134
 10
123.5938340619835
 20
-150.3298420848134
 10
123.5938340619835
 20
-150.3298420848134
 10
123.5938340619835
 20
-150.1637884824243
 10
123.5938340619835
 20
-150.1637884824243
 10
123.5938340619835
 20
-150.1637884824243
 10
124.5925672431574
 20
-150.1637884824243
 10
124.5925672431574
 20
-150.1637884824243
 10
124.5925672431574
 20
-150.1637884824243
 10
124.5925672431574
 20
-149.987055084031
 10
124.5925672431574
 20
-149.987055084031
 10
124.5925672431574
 20
-149.987055084031
 10
124.7913492526563
 20
-149.987055084031
 10
124.7913492526563
 20
-149.987055084031
 10
124.7913492526563
 20
-149.987055084031
 10
124.7913492526563
 20
-150.1637884824243
 10
124.7913492526563
 20
-150.1637884824243
 97
        0
 97
        1
330
C4
 75
     2
 76
     1
 98
        1
 10
0.0
 20
0.0
450
        0
451
        0
460
0.0
461
0.0
452
        0
462
0.0
453
        0
470

  0
ENDBLK
  5
BD
330
BA
100
AcDbEntity
  8
0
100
AcDbBlockEnd
  0
BLOCK
  5
CB
330
C9
100
AcDbEntity
  8
0
100
AcDbBlockBegin
  2
Block_7
 70
     0
 10
0.0
 20
0.0
 30
0.0
  3
Block_7
  1

  0
INSERT
  5
CE
330
C9
100
AcDbEntity
  8
レイヤー 1
100
AcDbBlockReference
  2
Block_8
 10
0.0
 20
0.0
 30
0.0
  0
ENDBLK
  5
CC
330
C9
100
AcDbEntity
  8
0
100
AcDbBlockEnd
  0
BLOCK
  5
CF
330
CD
100
AcDbEntity
  8
0
100
AcDbBlockBegin
  2
Block_8
 70
     0
 10
0.0
 20
0.0
 30
0.0
  3
Block_8
  1

  0
SPLINE
  5
D1
330
CD
100
AcDbEntity
  8
レイヤー 1
100
AcDbSpline
210
0.0
220
0.0
230
1.0
 70
    11
 71
     3
 72
    26
 73
    22
 74
     0
 42
0.0000000001
 43
0.0000000001
 40
0.0
 40
0.0
 40
0.0
 40
0.0
 40
1.0
 40
1.0
 40
1.0
 40
2.0
 40
2.0
 40
2.0
 40
3.0
 40
3.0
 40
3.0
 40
4.0
 40
4.0
 40
4.0
 40
5.0
 40
5.0
 40
5.0
 40
6.0
 40
6.0
 40
6.0
 40
7.0
 40
7.0
 40
7.0
 40
7.0
 10
94.49655759356337
 20
-155.2542615714295
 30
0.0
 10
94.49655759356337
 20
-155.2542615714295
 30
0.0
 10
94.49655759356337
 20
-154.1501084684069
 30
0.0
 10
94.49655759356337
 20
-154.1501084684069
 30
0.0
 10
94.49655759356337
 20
-154.1501084684069
 30
0.0
 10
94.21509329241846
 20
-154.1501084684069
 30
0.0
 10
94.21509329241846
 20
-154.1501084684069
 30
0.0
 10
94.21509329241846
 20
-154.1501084684069
 30
0.0
 10
94.21509329241846
 20
-154.0019693625412
 30
0.0
 10
94.21509329241846
 20
-154.0019693625412
 30
0.0
 10
94.49828014130599
 20
-153.9871554519546
 30
0.0
 10
94.53789873938637
 20
-153.8242024355023
 30
0.0
 10
94.56304793642869
 20
-153.709825265392
 30
0.0
 10
94.56304793642869
 20
-153.709825265392
 30
0.0
 10
94.68776039299473
 20
-153.709825265392
 30
0.0
 10
94.68776039299473
 20
-153.709825265392
 30
0.0
 10
94.68776039299473
 20
-153.709825265392
 30
0.0
 10
94.68776039299473
 20
-155.2542615714295
 30
0.0
 10
94.68776039299473
 20
-155.2542615714295
 30
0.0
 10
94.68776039299473
 20
-155.2542615714295
 30
0.0
 10
94.49655759356337
 20
-155.2542615714295
 30
0.0
 10
94.49655759356337
 20
-155.2542615714295
 30
0.0
  0
HATCH
  5
D2
330
CD
100
AcDbEntity
  8
レイヤー 1
 62
   250
420
  2299925
440
 33554687
100
AcDbHatch
 10
0.0
 20
0.0
 30
0.0
210
0.0
220
0.0
230
1.0
  2
SOLID
 70
     1
 71
     1
 91
        1
 92
        1
 93
        1
 72
     4
 94
        3
 73
     0
 74
     0
 95
       26
 96
       22
 40
0.0
 40
0.0
 40
0.0
 40
0.0
 40
1.0
 40
1.0
 40
1.0
 40
2.0
 40
2.0
 40
2.0
 40
3.0
 40
3.0
 40
3.0
 40
4.0
 40
4.0
 40
4.0
 40
5.0
 40
5.0
 40
5.0
 40
6.0
 40
6.0
 40
6.0
 40
7.0
 40
7.0
 40
7.0
 40
7.0
 10
94.49655759356337
 20
-155.2542615714295
 10
94.49655759356337
 20
-155.2542615714295
 10
94.49655759356337
 20
-154.1501084684069
 10
94.49655759356337
 20
-154.1501084684069
 10
94.49655759356337
 20
-154.1501084684069
 10
94.21509329241846
 20
-154.1501084684069
 10
94.21509329241846
 20
-154.1501084684069
 10
94.21509329241846
 20
-154.1501084684069
 10
94.21509329241846
 20
-154.0019693625412
 10
94.21509329241846
 20
-154.0019693625412
 10
94.49828014130599
 20
-153.9871554519546
 10
94.53789873938637
 20
-153.8242024355023
 10
94.56304793642869
 20
-153.709825265392
 10
94.56304793642869
 20
-153.709825265392
 10
94.68776039299473
 20
-153.709825265392
 10
94.68776039299473
 20
-153.709825265392
 10
94.68776039299473
 20
-153.709825265392
 10
94.68776039299473
 20
-155.2542615714295
 10
94.68776039299473
 20
-155.2542615714295
 10
94.68776039299473
 20
-155.2542615714295
 10
94.49655759356337
 20
-155.2542615714295
 10
94.49655759356337
 20
-155.2542615714295
 97
        0
 97
        1
330
D1
 75
     2
 76
     1
 98
        1
 10
0.0
 20
0.0
450
        0
451
        0
460
0.0
461
0.0
452
        0
462
0.0
453
        0
470

  0
SPLINE
  5
D3
330
CD
100
AcDbEntity
  8
レイヤー 1
100
AcDbSpline
210
0.0
220
0.0
230
1.0
 70
     9
 71
     3
 72
    44
 73
    40
 74
     0
 42
0.0000000001
 43
0.0000000001
 40
0.0
 40
0.0
 40
0.0
 40
0.0
 40
1.0
 40
1.0
 40
1.0
 40
2.0
 40
2.0
 40
2.0
 40
3.0
 40
3.0
 40
3.0
 40
4.0
 40
4.0
 40
4.0
 40
5.0
 40
5.0
 40
5.0
 40
6.0
 40
6.0
 40
6.0
 40
7.0
 40
7.0
 40
7.0
 40
8.0
 40
8.0
 40
8.0
 40
9.0
 40
9.0
 40
9.0
 40
10.0
 40
10.0
 40
10.0
 40
11.0
 40
11.0
 40
11.0
 40
12.0
 40
12.0
 40
12.0
 40
13.0
 40
13.0
 40
13.0
 40
13.0
 10
95.61896970265776
 20
-154.6723849439708
 30
0.0
 10
95.43327905600278
 20
-154.8312038458408
 30
0.0
 10
95.35404185984205
 20
-154.9052733987737
 30
0.0
 10
95.31270071401904
 20
-155.0489338805086
 30
0.0
 10
95.31270071401904
 20
-155.0489338805086
 30
0.0
 10
95.97622610447817
 20
-155.0489338805086
 30
0.0
 10
95.97622610447817
 20
-155.0489338805086
 30
0.0
 10
95.97622610447817
 20
-155.0489338805086
 30
0.0
 10
95.97622610447817
 20
-155.2542615714295
 30
0.0
 10
95.97622610447817
 20
-155.2542615714295
 30
0.0
 10
95.97622610447817
 20
-155.2542615714295
 30
0.0
 10
95.09979381303061
 20
-155.2542615714295
 30
0.0
 10
95.09979381303061
 20
-155.2542615714295
 30
0.0
 10
95.12666555781555
 20
-154.8966606600606
 30
0.0
 10
95.18282061422514
 20
-154.8184569925453
 30
0.0
 10
95.51079370442092
 20
-154.5201117235227
 30
0.0
 10
95.72921275818575
 20
-154.3213297140238
 30
0.0
 10
95.78502330504681
 20
-154.2534613329644
 30
0.0
 10
95.78502330504681
 20
-154.1160020231029
 30
0.0
 10
95.78502330504681
 20
-153.9974907384103
 30
0.0
 10
95.72370060540936
 20
-153.8665771099708
 30
0.0
 10
95.5559244552777
 20
-153.8665771099708
 30
0.0
 10
95.3340603060276
 20
-153.8665771099708
 30
0.0
 10
95.32682560550858
 20
-154.097053997934
 30
0.0
 10
95.32338051002332
 20
-154.2134982253355
 30
0.0
 10
95.32338051002332
 20
-154.2134982253355
 30
0.0
 10
95.13217771059196
 20
-154.2134982253355
 30
0.0
 10
95.13217771059196
 20
-154.2134982253355
 30
0.0
 10
95.13941241111098
 20
-154.0863742019298
 30
0.0
 10
95.14836965937263
 20
-153.9744085986592
 30
0.0
 10
95.21692705952911
 20
-153.8558973139666
 30
0.0
 10
95.31063365672791
 20
-153.6950113548054
 30
0.0
 10
95.46945255859792
 20
-153.6612494190499
 30
0.0
 10
95.56867130857311
 20
-153.6612494190499
 30
0.0
 10
95.80500485886124
 20
-153.6612494190499
 30
0.0
 10
95.98173825725458
 20
-153.8452175179623
 30
0.0
 10
95.98173825725458
 20
-154.1180690803941
 30
0.0
 10
95.98173825725458
 20
-154.3468234206147
 30
0.0
 10
95.88251950727936
 20
-154.4460421705899
 30
0.0
 10
95.61896970265776
 20
-154.6723849439708
 30
0.0
  0
HATCH
  5
D4
330
CD
100
AcDbEntity
  8
レイヤー 1
 62
   250
420
  2299925
440
 33554687
100
AcDbHatch
 10
0.0
 20
0.0
 30
0.0
210
0.0
220
0.0
230
1.0
  2
SOLID
 70
     1
 71
     1
 91
        1
 92
        1
 93
        1
 72
     4
 94
        3
 73
     0
 74
     0
 95
       44
 96
       40
 40
0.0
 40
0.0
 40
0.0
 40
0.0
 40
1.0
 40
1.0
 40
1.0
 40
2.0
 40
2.0
 40
2.0
 40
3.0
 40
3.0
 40
3.0
 40
4.0
 40
4.0
 40
4.0
 40
5.0
 40
5.0
 40
5.0
 40
6.0
 40
6.0
 40
6.0
 40
7.0
 40
7.0
 40
7.0
 40
8.0
 40
8.0
 40
8.0
 40
9.0
 40
9.0
 40
9.0
 40
10.0
 40
10.0
 40
10.0
 40
11.0
 40
11.0
 40
11.0
 40
12.0
 40
12.0
 40
12.0
 40
13.0
 40
13.0
 40
13.0
 40
13.0
 10
95.61896970265776
 20
-154.6723849439708
 10
95.43327905600278
 20
-154.8312038458408
 10
95.35404185984205
 20
-154.9052733987737
 10
95.31270071401904
 20
-155.0489338805086
 10
95.31270071401904
 20
-155.0489338805086
 10
95.97622610447817
 20
-155.0489338805086
 10
95.97622610447817
 20
-155.0489338805086
 10
95.97622610447817
 20
-155.0489338805086
 10
95.97622610447817
 20
-155.2542615714295
 10
95.97622610447817
 20
-155.2542615714295
 10
95.97622610447817
 20
-155.2542615714295
 10
95.09979381303061
 20
-155.2542615714295
 10
95.09979381303061
 20
-155.2542615714295
 10
95.12666555781555
 20
-154.8966606600606
 10
95.18282061422514
 20
-154.8184569925453
 10
95.51079370442092
 20
-154.5201117235227
 10
95.72921275818575
 20
-154.3213297140238
 10
95.78502330504681
 20
-154.2534613329644
 10
95.78502330504681
 20
-154.1160020231029
 10
95.78502330504681
 20
-153.9974907384103
 10
95.72370060540936
 20
-153.8665771099708
 10
95.5559244552777
 20
-153.8665771099708
 10
95.3340603060276
 20
-153.8665771099708
 10
95.32682560550858
 20
-154.097053997934
 10
95.32338051002332
 20
-154.2134982253355
 10
95.32338051002332
 20
-154.2134982253355
 10
95.13217771059196
 20
-154.2134982253355
 10
95.13217771059196
 20
-154.2134982253355
 10
95.13941241111098
 20
-154.0863742019298
 10
95.14836965937263
 20
-153.9744085986592
 10
95.21692705952911
 20
-153.8558973139666
 10
95.31063365672791
 20
-153.6950113548054
 10
95.46945255859792
 20
-153.6612494190499
 10
95.56867130857311
 20
-153.6612494190499
 10
95.80500485886124
 20
-153.6612494190499
 10
95.98173825725458
 20
-153.8452175179623
 10
95.98173825725458
 20
-154.1180690803941
 10
95.98173825725458
 20
-154.3468234206147
 10
95.88251950727936
 20
-154.4460421705899
 10
95.61896970265776
 20
-154.6723849439708
 97
        0
 97
        1
330
D3
 75
     2
 76
     1
 98
        1
 10
0.0
 20
0.0
450
        0
451
        0
460
0.0
461
0.0
452
        0
462
0.0
453
        0
470

  0
ENDBLK
  5
D0
330
CD
100
AcDbEntity
  8
0
100
AcDbBlockEnd
  0
BLOCK
  5
DB
330
D9
100
AcDbEntity
  8
0
100
AcDbBlockBegin
  2
Block_9
 70
     0
 10
0.0
 20
0.0
 30
0.0
  3
Block_9
  1

  0
INSERT
  5
DE
330
D9
100
AcDbEntity
  8
レイヤー 1
100
AcDbBlockReference
  2
Block_10
 10
0.0
 20
0.0
 30
0.0
  0
ENDBLK
  5
DC
330
D9
100
AcDbEntity
  8
0
100
AcDbBlockEnd
  0
BLOCK
  5
DF
330
DD
100
AcDbEntity
  8
0
100
AcDbBlockBegin
  2
Block_10
 70
     0
 10
0.0
 20
0.0
 30
0.0
  3
Block_10
  1

  0
SPLINE
  5
E1
330
DD
100
AcDbEntity
  8
レイヤー 1
100
AcDbSpline
210
0.0
220
0.0
230
1.0
 70
     9
 71
     3
 72
    59
 73
    55
 74
     0
 42
0.0000000001
 43
0.0000000001
 40
0.0
 40
0.0
 40
0.0
 40
0.0
 40
1.0
 40
1.0
 40
1.0
 40
2.0
 40
2.0
 40
2.0
 40
3.0
 40
3.0
 40
3.0
 40
4.0
 40
4.0
 40
4.0
 40
5.0
 40
5.0
 40
5.0
 40
6.0
 40
6.0
 40
6.0
 40
7.0
 40
7.0
 40
7.0
 40
8.0
 40
8.0
 40
8.0
 40
9.0
 40
9.0
 40
9.0
 40
10.0
 40
10.0
 40
10.0
 40
11.0
 40
11.0
 40
11.0
 40
12.0
 40
12.0
 40
12.0
 40
13.0
 40
13.0
 40
13.0
 40
14.0
 40
14.0
 40
14.0
 40
15.0
 40
15.0
 40
15.0
 40
16.0
 40
16.0
 40
16.0
 40
17.0
 40
17.0
 40
17.0
 40
18.0
 40
18.0
 40
18.0
 40
18.0
 10
91.337232778815
 20
-148.3594197220247
 30
0.0
 10
91.19477808049991
 20
-148.8460394593162
 30
0.0
 10
90.98204343428575
 20
-149.3683159348801
 30
0.0
 10
90.47165253814597
 20
-149.6856092290717
 30
0.0
 10
90.47165253814597
 20
-149.6856092290717
 30
0.0
 10
90.31128334330759
 20
-149.5333360086236
 30
0.0
 10
90.31128334330759
 20
-149.5333360086236
 30
0.0
 10
90.44822588884628
 20
-149.4637450798215
 30
0.0
 10
90.65751543957521
 20
-149.3535020242935
 30
0.0
 10
90.87197263353202
 20
-149.0234618768066
 30
0.0
 10
91.07402748374191
 20
-148.7106472067459
 30
0.0
 10
91.12277558485819
 20
-148.4546766121919
 30
0.0
 10
91.14620223415789
 20
-148.3277248435604
 30
0.0
 10
91.14620223415789
 20
-148.3277248435604
 30
0.0
 10
90.59429793742088
 20
-148.3277248435604
 30
0.0
 10
90.59429793742088
 20
-148.3277248435604
 30
0.0
 10
90.50593123822421
 20
-148.4884385479473
 30
0.0
 10
90.40326739276377
 20
-148.6555256789819
 30
0.0
 10
90.23910859289161
 20
-148.8269191793731
 30
0.0
 10
90.23910859289161
 20
-148.8269191793731
 30
0.0
 10
90.09114174180012
 20
-148.7042737800982
 30
0.0
 10
90.09114174180012
 20
-148.7042737800982
 30
0.0
 10
90.14178464543331
 20
-148.6577649910473
 30
0.0
 10
90.26787514019344
 20
-148.5456271330025
 30
0.0
 10
90.40860729076591
 20
-148.2960299650961
 30
0.0
 10
90.47354734066287
 20
-148.1775186804035
 30
0.0
 10
90.56191403985954
 20
-148.0081922373035
 30
0.0
 10
90.58344588664233
 20
-147.8855468380286
 30
0.0
 10
90.58344588664233
 20
-147.8855468380286
 30
0.0
 10
90.7801608388501
 20
-147.9870049000692
 30
0.0
 10
90.7801608388501
 20
-147.9870049000692
 30
0.0
 10
90.79273543737127
 20
-147.9933783267169
 30
0.0
 10
90.80531003589243
 20
-148.0018188106558
 30
0.0
 10
90.80531003589243
 20
-148.0166327212424
 30
0.0
 10
90.80531003589243
 20
-148.0378200584766
 30
0.0
 10
90.78360593433535
 20
-148.0505669117721
 30
0.0
 10
90.77654348859059
 20
-148.0526339690632
 30
0.0
 10
90.75294458451663
 20
-148.0610744530021
 30
0.0
 10
90.74588213877186
 20
-148.0590073957109
 30
0.0
 10
90.7241780372148
 20
-148.0843288475275
 30
0.0
 10
90.70247393565772
 20
-148.1098225541184
 30
0.0
 10
90.70436873817461
 20
-148.1182630380572
 30
0.0
 10
90.67732473861539
 20
-148.1711452537558
 30
0.0
 10
90.67732473861539
 20
-148.1711452537558
 30
0.0
 10
90.96223413524555
 20
-148.1711452537558
 30
0.0
 10
90.96223413524555
 20
-148.1711452537558
 30
0.0
 10
91.18048093423613
 20
-148.1711452537558
 30
0.0
 10
91.20752493379534
 20
-148.1583984004604
 30
0.0
 10
91.25610078013737
 20
-148.1287705792872
 30
0.0
 10
91.25610078013737
 20
-148.1287705792872
 30
0.0
 10
91.3895982301908
 20
-148.2937906530307
 30
0.0
 10
91.3895982301908
 20
-148.2937906530307
 30
0.0
 10
91.3606594281147
 20
-148.3297919008515
 30
0.0
 10
91.35893688037207
 20
-148.3318589581427
 30
0.0
 10
91.337232778815
 20
-148.3594197220247
 30
0.0
  0
HATCH
  5
E2
330
DD
100
AcDbEntity
  8
レイヤー 1
 62
   250
420
  2299925
440
 33554687
100
AcDbHatch
 10
0.0
 20
0.0
 30
0.0
210
0.0
220
0.0
230
1.0
  2
SOLID
 70
     1
 71
     1
 91
        1
 92
        1
 93
        1
 72
     4
 94
        3
 73
     0
 74
     0
 95
       59
 96
       55
 40
0.0
 40
0.0
 40
0.0
 40
0.0
 40
1.0
 40
1.0
 40
1.0
 40
2.0
 40
2.0
 40
2.0
 40
3.0
 40
3.0
 40
3.0
 40
4.0
 40
4.0
 40
4.0
 40
5.0
 40
5.0
 40
5.0
 40
6.0
 40
6.0
 40
6.0
 40
7.0
 40
7.0
 40
7.0
 40
8.0
 40
8.0
 40
8.0
 40
9.0
 40
9.0
 40
9.0
 40
10.0
 40
10.0
 40
10.0
 40
11.0
 40
11.0
 40
11.0
 40
12.0
 40
12.0
 40
12.0
 40
13.0
 40
13.0
 40
13.0
 40
14.0
 40
14.0
 40
14.0
 40
15.0
 40
15.0
 40
15.0
 40
16.0
 40
16.0
 40
16.0
 40
17.0
 40
17.0
 40
17.0
 40
18.0
 40
18.0
 40
18.0
 40
18.0
 10
91.337232778815
 20
-148.3594197220247
 10
91.19477808049991
 20
-148.8460394593162
 10
90.98204343428575
 20
-149.3683159348801
 10
90.47165253814597
 20
-149.6856092290717
 10
90.47165253814597
 20
-149.6856092290717
 10
90.31128334330759
 20
-149.5333360086236
 10
90.31128334330759
 20
-149.5333360086236
 10
90.44822588884628
 20
-149.4637450798215
 10
90.65751543957521
 20
-149.3535020242935
 10
90.87197263353202
 20
-149.0234618768066
 10
91.07402748374191
 20
-148.7106472067459
 10
91.12277558485819
 20
-148.4546766121919
 10
91.14620223415789
 20
-148.3277248435604
 10
91.14620223415789
 20
-148.3277248435604
 10
90.59429793742088
 20
-148.3277248435604
 10
90.59429793742088
 20
-148.3277248435604
 10
90.50593123822421
 20
-148.4884385479473
 10
90.40326739276377
 20
-148.6555256789819
 10
90.23910859289161
 20
-148.8269191793731
 10
90.23910859289161
 20
-148.8269191793731
 10
90.09114174180012
 20
-148.7042737800982
 10
90.09114174180012
 20
-148.7042737800982
 10
90.14178464543331
 20
-148.6577649910473
 10
90.26787514019344
 20
-148.5456271330025
 10
90.40860729076591
 20
-148.2960299650961
 10
90.47354734066287
 20
-148.1775186804035
 10
90.56191403985954
 20
-148.0081922373035
 10
90.58344588664233
 20
-147.8855468380286
 10
90.58344588664233
 20
-147.8855468380286
 10
90.7801608388501
 20
-147.9870049000692
 10
90.7801608388501
 20
-147.9870049000692
 10
90.79273543737127
 20
-147.9933783267169
 10
90.80531003589243
 20
-148.0018188106558
 10
90.80531003589243
 20
-148.0166327212424
 10
90.80531003589243
 20
-148.0378200584766
 10
90.78360593433535
 20
-148.0505669117721
 10
90.77654348859059
 20
-148.0526339690632
 10
90.75294458451663
 20
-148.0610744530021
 10
90.74588213877186
 20
-148.0590073957109
 10
90.7241780372148
 20
-148.0843288475275
 10
90.70247393565772
 20
-148.1098225541184
 10
90.70436873817461
 20
-148.1182630380572
 10
90.67732473861539
 20
-148.1711452537558
 10
90.67732473861539
 20
-148.1711452537558
 10
90.96223413524555
 20
-148.1711452537558
 10
90.96223413524555
 20
-148.1711452537558
 10
91.18048093423613
 20
-148.1711452537558
 10
91.20752493379534
 20
-148.1583984004604
 10
91.25610078013737
 20
-148.1287705792872
 10
91.25610078013737
 20
-148.1287705792872
 10
91.3895982301908
 20
-148.2937906530307
 10
91.3895982301908
 20
-148.2937906530307
 10
91.3606594281147
 20
-148.3297919008515
 10
91.35893688037207
 20
-148.3318589581427
 10
91.337232778815
 20
-148.3594197220247
 97
        0
 97
        1
330
E1
 75
     2
 76
     1
 98
        1
 10
0.0
 20
0.0
450
        0
451
        0
460
0.0
461
0.0
452
        0
462
0.0
453
        0
470

  0
SPLINE
  5
E3
330
DD
100
AcDbEntity
  8
レイヤー 1
100
AcDbSpline
210
0.0
220
0.0
230
1.0
 70
    11
 71
     3
 72
    17
 73
    13
 74
     0
 42
0.0000000001
 43
0.0000000001
 40
0.0
 40
0.0
 40
0.0
 40
0.0
 40
1.0
 40
1.0
 40
1.0
 40
2.0
 40
2.0
 40
2.0
 40
3.0
 40
3.0
 40
3.0
 40
4.0
 40
4.0
 40
4.0
 40
4.0
 10
92.73525252672937
 20
-148.2684692012141
 30
0.0
 10
92.73525252672937
 20
-148.2684692012141
 30
0.0
 10
91.84796818450328
 20
-148.2684692012141
 30
0.0
 10
91.84796818450328
 20
-148.2684692012141
 30
0.0
 10
91.84796818450328
 20
-148.2684692012141
 30
0.0
 10
91.84796818450328
 20
-149.1567870720858
 30
0.0
 10
91.84796818450328
 20
-149.1567870720858
 30
0.0
 10
91.84796818450328
 20
-149.1567870720858
 30
0.0
 10
92.73525252672937
 20
-149.1567870720858
 30
0.0
 10
92.73525252672937
 20
-149.1567870720858
 30
0.0
 10
92.73525252672937
 20
-149.1567870720858
 30
0.0
 10
92.73525252672937
 20
-148.2684692012141
 30
0.0
 10
92.73525252672937
 20
-148.2684692012141
 30
0.0
  0
SPLINE
  5
E4
330
DD
100
AcDbEntity
  8
レイヤー 1
100
AcDbSpline
210
0.0
220
0.0
230
1.0
 70
     9
 71
     3
 72
    53
 73
    49
 74
     0
 42
0.0000000001
 43
0.0000000001
 40
0.0
 40
0.0
 40
0.0
 40
0.0
 40
1.0
 40
1.0
 40
1.0
 40
2.0
 40
2.0
 40
2.0
 40
3.0
 40
3.0
 40
3.0
 40
4.0
 40
4.0
 40
4.0
 40
5.0
 40
5.0
 40
5.0
 40
6.0
 40
6.0
 40
6.0
 40
7.0
 40
7.0
 40
7.0
 40
8.0
 40
8.0
 40
8.0
 40
9.0
 40
9.0
 40
9.0
 40
10.0
 40
10.0
 40
10.0
 40
11.0
 40
11.0
 40
11.0
 40
12.0
 40
12.0
 40
12.0
 40
13.0
 40
13.0
 40
13.0
 40
14.0
 40
14.0
 40
14.0
 40
15.0
 40
15.0
 40
15.0
 40
16.0
 40
16.0
 40
16.0
 40
16.0
 10
92.71544322768919
 20
-149.4720133089861
 30
0.0
 10
92.72267792820823
 20
-149.4275715772264
 30
0.0
 10
92.72267792820823
 20
-149.4193033480618
 30
0.0
 10
92.72801782621035
 20
-149.3452337951289
 30
0.0
 10
92.72801782621035
 20
-149.3452337951289
 30
0.0
 10
91.84986298702018
 20
-149.3452337951289
 30
0.0
 10
91.84986298702018
 20
-149.3452337951289
 30
0.0
 10
91.84986298702018
 20
-149.3769286735933
 30
0.0
 10
91.84986298702018
 20
-149.4320502013573
 30
0.0
 10
91.85348033727969
 20
-149.4678791944038
 30
0.0
 10
91.85348033727969
 20
-149.4678791944038
 30
0.0
 10
91.64780813681026
 20
-149.4678791944038
 30
0.0
 10
91.64780813681026
 20
-149.4678791944038
 30
0.0
 10
91.65332028958667
 20
-149.4127576666398
 30
0.0
 10
91.66227753784832
 20
-149.3218071458293
 30
0.0
 10
91.66227753784832
 20
-149.1929605746809
 30
0.0
 10
91.6641723403652
 20
-148.98763288376
 30
0.0
 10
91.6641723403652
 20
-148.9642062344603
 30
0.0
 10
91.6641723403652
 20
-148.9411240947092
 30
0.0
 10
91.6641723403652
 20
-148.9411240947092
 30
0.0
 10
91.6641723403652
 20
-148.5011854012427
 30
0.0
 10
91.6641723403652
 20
-148.5011854012427
 30
0.0
 10
91.6641723403652
 20
-148.4355563322487
 30
0.0
 10
91.65866018758881
 20
-148.1118896114095
 30
0.0
 10
91.6550428373293
 20
-148.0569403384198
 30
0.0
 10
91.76149628782352
 20
-148.0695149369409
 30
0.0
 10
91.98697778733311
 20
-148.0738213062975
 30
0.0
 10
92.09877113582948
 20
-148.0738213062975
 30
0.0
 10
92.09877113582948
 20
-148.0738213062975
 30
0.0
 10
92.48634437792009
 20
-148.0738213062975
 30
0.0
 10
92.48634437792009
 20
-148.0738213062975
 30
0.0
 10
92.61450192997138
 20
-148.0738213062975
 30
0.0
 10
92.80553247462847
 20
-148.0717542490063
 30
0.0
 10
92.93007267642027
 20
-148.0633137650675
 30
0.0
 10
92.92283797590124
 20
-148.173212311047
 30
0.0
 10
92.91922062564173
 20
-148.4228094789533
 30
0.0
 10
92.91922062564173
 20
-148.5413207636459
 30
0.0
 10
92.91922062564173
 20
-148.5413207636459
 30
0.0
 10
92.91922062564173
 20
-148.960072119878
 30
0.0
 10
92.91922062564173
 20
-148.960072119878
 30
0.0
 10
92.91922062564173
 20
-149.0024467943466
 30
0.0
 10
92.92456052364386
 20
-149.1843478359678
 30
0.0
 10
92.92456052364386
 20
-149.222588395854
 30
0.0
 10
92.92645532616075
 20
-149.372794559011
 30
0.0
 10
92.93369002667978
 20
-149.4234374626441
 30
0.0
 10
92.9409247271988
 20
-149.4720133089861
 30
0.0
 10
92.9409247271988
 20
-149.4720133089861
 30
0.0
 10
92.71544322768919
 20
-149.4720133089861
 30
0.0
 10
92.71544322768919
 20
-149.4720133089861
 30
0.0
  0
HATCH
  5
E5
330
DD
100
AcDbEntity
  8
レイヤー 1
 62
   250
420
  2299925
440
 33554687
100
AcDbHatch
 10
0.0
 20
0.0
 30
0.0
210
0.0
220
0.0
230
1.0
  2
SOLID
 70
     1
 71
     1
 91
        2
 92
        1
 93
        1
 72
     4
 94
        3
 73
     0
 74
     0
 95
       17
 96
       13
 40
0.0
 40
0.0
 40
0.0
 40
0.0
 40
1.0
 40
1.0
 40
1.0
 40
2.0
 40
2.0
 40
2.0
 40
3.0
 40
3.0
 40
3.0
 40
4.0
 40
4.0
 40
4.0
 40
4.0
 10
92.73525252672937
 20
-148.2684692012141
 10
92.73525252672937
 20
-148.2684692012141
 10
91.84796818450328
 20
-148.2684692012141
 10
91.84796818450328
 20
-148.2684692012141
 10
91.84796818450328
 20
-148.2684692012141
 10
91.84796818450328
 20
-149.1567870720858
 10
91.84796818450328
 20
-149.1567870720858
 10
91.84796818450328
 20
-149.1567870720858
 10
92.73525252672937
 20
-149.1567870720858
 10
92.73525252672937
 20
-149.1567870720858
 10
92.73525252672937
 20
-149.1567870720858
 10
92.73525252672937
 20
-148.2684692012141
 10
92.73525252672937
 20
-148.2684692012141
 97
        0
 97
        1
330
E3
 92
        1
 93
        1
 72
     4
 94
        3
 73
     0
 74
     0
 95
       53
 96
       49
 40
0.0
 40
0.0
 40
0.0
 40
0.0
 40
1.0
 40
1.0
 40
1.0
 40
2.0
 40
2.0
 40
2.0
 40
3.0
 40
3.0
 40
3.0
 40
4.0
 40
4.0
 40
4.0
 40
5.0
 40
5.0
 40
5.0
 40
6.0
 40
6.0
 40
6.0
 40
7.0
 40
7.0
 40
7.0
 40
8.0
 40
8.0
 40
8.0
 40
9.0
 40
9.0
 40
9.0
 40
10.0
 40
10.0
 40
10.0
 40
11.0
 40
11.0
 40
11.0
 40
12.0
 40
12.0
 40
12.0
 40
13.0
 40
13.0
 40
13.0
 40
14.0
 40
14.0
 40
14.0
 40
15.0
 40
15.0
 40
15.0
 40
16.0
 40
16.0
 40
16.0
 40
16.0
 10
92.71544322768919
 20
-149.4720133089861
 10
92.72267792820823
 20
-149.4275715772264
 10
92.72267792820823
 20
-149.4193033480618
 10
92.72801782621035
 20
-149.3452337951289
 10
92.72801782621035
 20
-149.3452337951289
 10
91.84986298702018
 20
-149.3452337951289
 10
91.84986298702018
 20
-149.3452337951289
 10
91.84986298702018
 20
-149.3769286735933
 10
91.84986298702018
 20
-149.4320502013573
 10
91.85348033727969
 20
-149.4678791944038
 10
91.85348033727969
 20
-149.4678791944038
 10
91.64780813681026
 20
-149.4678791944038
 10
91.64780813681026
 20
-149.4678791944038
 10
91.65332028958667
 20
-149.4127576666398
 10
91.66227753784832
 20
-149.3218071458293
 10
91.66227753784832
 20
-149.1929605746809
 10
91.6641723403652
 20
-148.98763288376
 10
91.6641723403652
 20
-148.9642062344603
 10
91.6641723403652
 20
-148.9411240947092
 10
91.6641723403652
 20
-148.9411240947092
 10
91.6641723403652
 20
-148.5011854012427
 10
91.6641723403652
 20
-148.5011854012427
 10
91.6641723403652
 20
-148.4355563322487
 10
91.65866018758881
 20
-148.1118896114095
 10
91.6550428373293
 20
-148.0569403384198
 10
91.76149628782352
 20
-148.0695149369409
 10
91.98697778733311
 20
-148.0738213062975
 10
92.09877113582948
 20
-148.0738213062975
 10
92.09877113582948
 20
-148.0738213062975
 10
92.48634437792009
 20
-148.0738213062975
 10
92.48634437792009
 20
-148.0738213062975
 10
92.61450192997138
 20
-148.0738213062975
 10
92.80553247462847
 20
-148.0717542490063
 10
92.93007267642027
 20
-148.0633137650675
 10
92.92283797590124
 20
-148.173212311047
 10
92.91922062564173
 20
-148.4228094789533
 10
92.91922062564173
 20
-148.5413207636459
 10
92.91922062564173
 20
-148.5413207636459
 10
92.91922062564173
 20
-148.960072119878
 10
92.91922062564173
 20
-148.960072119878
 10
92.91922062564173
 20
-149.0024467943466
 10
92.92456052364386
 20
-149.1843478359678
 10
92.92456052364386
 20
-149.222588395854
 10
92.92645532616075
 20
-149.372794559011
 10
92.93369002667978
 20
-149.4234374626441
 10
92.9409247271988
 20
-149.4720133089861
 10
92.9409247271988
 20
-149.4720133089861
 10
92.71544322768919
 20
-149.4720133089861
 10
92.71544322768919
 20
-149.4720133089861
 97
        0
 97
        1
330
E4
 75
     2
 76
     1
 98
        1
 10
0.0
 20
0.0
450
        0
451
        0
460
0.0
461
0.0
452
        0
462
0.0
453
        0
470

  0
SPLINE
  5
E6
330
DD
100
AcDbEntity
  8
レイヤー 1
100
AcDbSpline
210
0.0
220
0.0
230
1.0
 70
     9
 71
     3
 72
    56
 73
    52
 74
     0
 42
0.0000000001
 43
0.0000000001
 40
0.0
 40
0.0
 40
0.0
 40
0.0
 40
1.0
 40
1.0
 40
1.0
 40
2.0
 40
2.0
 40
2.0
 40
3.0
 40
3.0
 40
3.0
 40
4.0
 40
4.0
 40
4.0
 40
5.0
 40
5.0
 40
5.0
 40
6.0
 40
6.0
 40
6.0
 40
7.0
 40
7.0
 40
7.0
 40
8.0
 40
8.0
 40
8.0
 40
9.0
 40
9.0
 40
9.0
 40
10.0
 40
10.0
 40
10.0
 40
11.0
 40
11.0
 40
11.0
 40
12.0
 40
12.0
 40
12.0
 40
13.0
 40
13.0
 40
13.0
 40
14.0
 40
14.0
 40
14.0
 40
15.0
 40
15.0
 40
15.0
 40
16.0
 40
16.0
 40
16.0
 40
17.0
 40
17.0
 40
17.0
 40
17.0
 10
94.42731117430986
 20
-149.5378146327544
 30
0.0
 10
94.26332462921195
 20
-149.2287895677275
 30
0.0
 10
94.04318302770448
 20
-149.0234618768066
 30
0.0
 10
93.96566837928636
 20
-148.9580050625869
 30
0.0
 10
93.71503768273443
 20
-149.2966579487869
 30
0.0
 10
93.46802433644203
 20
-149.448931169235
 30
0.0
 10
93.29852563856773
 20
-149.5419487473367
 30
0.0
 10
93.29852563856773
 20
-149.5419487473367
 30
0.0
 10
93.16330564077167
 20
-149.3535020242935
 30
0.0
 10
93.16330564077167
 20
-149.3535020242935
 30
0.0
 10
93.25167233996834
 20
-149.317673031247
 30
0.0
 10
93.43374563636379
 20
-149.2415364210229
 30
0.0
 10
93.6320108815399
 20
-149.0555012648195
 30
0.0
 10
93.85749238104953
 20
-148.8438001472508
 30
0.0
 10
94.01613902814528
 20
-148.5561346742325
 30
0.0
 10
94.12086993089687
 20
-148.2431477493975
 30
0.0
 10
94.12086993089687
 20
-148.2431477493975
 30
0.0
 10
93.79978703167159
 20
-148.2431477493975
 30
0.0
 10
93.79978703167159
 20
-148.2431477493975
 30
0.0
 10
93.66990693187766
 20
-148.2431477493975
 30
0.0
 10
93.49145098574172
 20
-148.2472818639798
 30
0.0
 10
93.36346568846471
 20
-148.266402143923
 30
0.0
 10
93.36346568846471
 20
-148.266402143923
 30
0.0
 10
93.36346568846471
 20
-148.0548732811286
 30
0.0
 10
93.36346568846471
 20
-148.0548732811286
 30
0.0
 10
93.42117103784262
 20
-148.0610744530021
 30
0.0
 10
93.64286293231845
 20
-148.0717542490063
 30
0.0
 10
93.71693248525131
 20
-148.0717542490063
 30
0.0
 10
93.71693248525131
 20
-148.0717542490063
 30
0.0
 10
93.98186032806703
 20
-148.0717542490063
 30
0.0
 10
93.98186032806703
 20
-148.0717542490063
 30
0.0
 10
94.15859372646036
 20
-148.0717542490063
 30
0.0
 10
94.1785752802748
 20
-148.0653808223586
 30
0.0
 10
94.19838457931499
 20
-148.0610744530021
 30
0.0
 10
94.23628062965274
 20
-148.0548732811286
 30
0.0
 10
94.26866452721409
 20
-148.0293795745378
 30
0.0
 10
94.28675127851164
 20
-148.01249860666
 30
0.0
 10
94.28675127851164
 20
-148.01249860666
 30
0.0
 10
94.42007647379082
 20
-148.1859591643424
 30
0.0
 10
94.42007647379082
 20
-148.1859591643424
 30
0.0
 10
94.38579777371257
 20
-148.2135199282244
 30
0.0
 10
94.37511797770831
 20
-148.2240274694544
 30
0.0
 10
94.33360457711104
 20
-148.2600287172753
 30
0.0
 10
94.22353377635731
 20
-148.5075588278905
 30
0.0
 10
94.15497637620084
 20
-148.6577649910473
 30
0.0
 10
94.06660967700418
 20
-148.8036647848477
 30
0.0
 10
94.33360457711104
 20
-149.0213948195155
 30
0.0
 10
94.52825247202765
 20
-149.3069932352427
 30
0.0
 10
94.57338322288443
 20
-149.3851969027579
 30
0.0
 10
94.57338322288443
 20
-149.3851969027579
 30
0.0
 10
94.42731117430986
 20
-149.5378146327544
 30
0.0
 10
94.42731117430986
 20
-149.5378146327544
 30
0.0
  0
HATCH
  5
E7
330
DD
100
AcDbEntity
  8
レイヤー 1
 62
   250
420
  2299925
440
 33554687
100
AcDbHatch
 10
0.0
 20
0.0
 30
0.0
210
0.0
220
0.0
230
1.0
  2
SOLID
 70
     1
 71
     1
 91
        1
 92
        1
 93
        1
 72
     4
 94
        3
 73
     0
 74
     0
 95
       56
 96
       52
 40
0.0
 40
0.0
 40
0.0
 40
0.0
 40
1.0
 40
1.0
 40
1.0
 40
2.0
 40
2.0
 40
2.0
 40
3.0
 40
3.0
 40
3.0
 40
4.0
 40
4.0
 40
4.0
 40
5.0
 40
5.0
 40
5.0
 40
6.0
 40
6.0
 40
6.0
 40
7.0
 40
7.0
 40
7.0
 40
8.0
 40
8.0
 40
8.0
 40
9.0
 40
9.0
 40
9.0
 40
10.0
 40
10.0
 40
10.0
 40
11.0
 40
11.0
 40
11.0
 40
12.0
 40
12.0
 40
12.0
 40
13.0
 40
13.0
 40
13.0
 40
14.0
 40
14.0
 40
14.0
 40
15.0
 40
15.0
 40
15.0
 40
16.0
 40
16.0
 40
16.0
 40
17.0
 40
17.0
 40
17.0
 40
17.0
 10
94.42731117430986
 20
-149.5378146327544
 10
94.26332462921195
 20
-149.2287895677275
 10
94.04318302770448
 20
-149.0234618768066
 10
93.96566837928636
 20
-148.9580050625869
 10
93.71503768273443
 20
-149.2966579487869
 10
93.46802433644203
 20
-149.448931169235
 10
93.29852563856773
 20
-149.5419487473367
 10
93.29852563856773
 20
-149.5419487473367
 10
93.16330564077167
 20
-149.3535020242935
 10
93.16330564077167
 20
-149.3535020242935
 10
93.25167233996834
 20
-149.317673031247
 10
93.43374563636379
 20
-149.2415364210229
 10
93.6320108815399
 20
-149.0555012648195
 10
93.85749238104953
 20
-148.8438001472508
 10
94.01613902814528
 20
-148.5561346742325
 10
94.12086993089687
 20
-148.2431477493975
 10
94.12086993089687
 20
-148.2431477493975
 10
93.79978703167159
 20
-148.2431477493975
 10
93.79978703167159
 20
-148.2431477493975
 10
93.66990693187766
 20
-148.2431477493975
 10
93.49145098574172
 20
-148.2472818639798
 10
93.36346568846471
 20
-148.266402143923
 10
93.36346568846471
 20
-148.266402143923
 10
93.36346568846471
 20
-148.0548732811286
 10
93.36346568846471
 20
-148.0548732811286
 10
93.42117103784262
 20
-148.0610744530021
 10
93.64286293231845
 20
-148.0717542490063
 10
93.71693248525131
 20
-148.0717542490063
 10
93.71693248525131
 20
-148.0717542490063
 10
93.98186032806703
 20
-148.0717542490063
 10
93.98186032806703
 20
-148.0717542490063
 10
94.15859372646036
 20
-148.0717542490063
 10
94.1785752802748
 20
-148.0653808223586
 10
94.19838457931499
 20
-148.0610744530021
 10
94.23628062965274
 20
-148.0548732811286
 10
94.26866452721409
 20
-148.0293795745378
 10
94.28675127851164
 20
-148.01249860666
 10
94.28675127851164
 20
-148.01249860666
 10
94.42007647379082
 20
-148.1859591643424
 10
94.42007647379082
 20
-148.1859591643424
 10
94.38579777371257
 20
-148.2135199282244
 10
94.37511797770831
 20
-148.2240274694544
 10
94.33360457711104
 20
-148.2600287172753
 10
94.22353377635731
 20
-148.5075588278905
 10
94.15497637620084
 20
-148.6577649910473
 10
94.06660967700418
 20
-148.8036647848477
 10
94.33360457711104
 20
-149.0213948195155
 10
94.52825247202765
 20
-149.3069932352427
 10
94.57338322288443
 20
-149.3851969027579
 10
94.57338322288443
 20
-149.3851969027579
 10
94.42731117430986
 20
-149.5378146327544
 10
94.42731117430986
 20
-149.5378146327544
 97
        0
 97
        1
330
E6
 75
     2
 76
     1
 98
        1
 10
0.0
 20
0.0
450
        0
451
        0
460
0.0
461
0.0
452
        0
462
0.0
453
        0
470

  0
SPLINE
  5
E8
330
DD
100
AcDbEntity
  8
レイヤー 1
100
AcDbSpline
210
0.0
220
0.0
230
1.0
 70
    11
 71
     3
 72
    17
 73
    13
 74
     0
 42
0.0000000001
 43
0.0000000001
 40
0.0
 40
0.0
 40
0.0
 40
0.0
 40
1.0
 40
1.0
 40
1.0
 40
2.0
 40
2.0
 40
2.0
 40
3.0
 40
3.0
 40
3.0
 40
4.0
 40
4.0
 40
4.0
 40
4.0
 10
96.02928057495102
 20
-148.560441043589
 30
0.0
 10
96.02928057495102
 20
-148.560441043589
 30
0.0
 10
95.63791772782662
 20
-148.560441043589
 30
0.0
 10
95.63791772782662
 20
-148.560441043589
 30
0.0
 10
95.63791772782662
 20
-148.560441043589
 30
0.0
 10
95.63791772782662
 20
-148.8692938538417
 30
0.0
 10
95.63791772782662
 20
-148.8692938538417
 30
0.0
 10
95.63791772782662
 20
-148.8692938538417
 30
0.0
 10
96.02928057495102
 20
-148.8692938538417
 30
0.0
 10
96.02928057495102
 20
-148.8692938538417
 30
0.0
 10
96.02928057495102
 20
-148.8692938538417
 30
0.0
 10
96.02928057495102
 20
-148.560441043589
 30
0.0
 10
96.02928057495102
 20
-148.560441043589
 30
0.0
  0
SPLINE
  5
E9
330
DD
100
AcDbEntity
  8
レイヤー 1
100
AcDbSpline
210
0.0
220
0.0
230
1.0
 70
    11
 71
     3
 72
    17
 73
    13
 74
     0
 42
0.0000000001
 43
0.0000000001
 40
0.0
 40
0.0
 40
0.0
 40
0.0
 40
1.0
 40
1.0
 40
1.0
 40
2.0
 40
2.0
 40
2.0
 40
3.0
 40
3.0
 40
3.0
 40
4.0
 40
4.0
 40
4.0
 40
4.0
 10
96.02928057495102
 20
-148.0886352168841
 30
0.0
 10
96.02928057495102
 20
-148.0886352168841
 30
0.0
 10
95.63791772782662
 20
-148.0886352168841
 30
0.0
 10
95.63791772782662
 20
-148.0886352168841
 30
0.0
 10
95.63791772782662
 20
-148.0886352168841
 30
0.0
 10
95.63791772782662
 20
-148.3931816577802
 30
0.0
 10
95.63791772782662
 20
-148.3931816577802
 30
0.0
 10
95.63791772782662
 20
-148.3931816577802
 30
0.0
 10
96.02928057495102
 20
-148.3931816577802
 30
0.0
 10
96.02928057495102
 20
-148.3931816577802
 30
0.0
 10
96.02928057495102
 20
-148.3931816577802
 30
0.0
 10
96.02928057495102
 20
-148.0886352168841
 30
0.0
 10
96.02928057495102
 20
-148.0886352168841
 30
0.0
  0
SPLINE
  5
EA
330
DD
100
AcDbEntity
  8
レイヤー 1
100
AcDbSpline
210
0.0
220
0.0
230
1.0
 70
    11
 71
     3
 72
    17
 73
    13
 74
     0
 42
0.0000000001
 43
0.0000000001
 40
0.0
 40
0.0
 40
0.0
 40
0.0
 40
1.0
 40
1.0
 40
1.0
 40
2.0
 40
2.0
 40
2.0
 40
3.0
 40
3.0
 40
3.0
 40
4.0
 40
4.0
 40
4.0
 40
4.0
 10
95.47565373047136
 20
-148.560441043589
 30
0.0
 10
95.47565373047136
 20
-148.560441043589
 30
0.0
 10
95.10237763464456
 20
-148.560441043589
 30
0.0
 10
95.10237763464456
 20
-148.560441043589
 30
0.0
 10
95.10237763464456
 20
-148.560441043589
 30
0.0
 10
95.10237763464456
 20
-148.8692938538417
 30
0.0
 10
95.10237763464456
 20
-148.8692938538417
 30
0.0
 10
95.10237763464456
 20
-148.8692938538417
 30
0.0
 10
95.47565373047136
 20
-148.8692938538417
 30
0.0
 10
95.47565373047136
 20
-148.8692938538417
 30
0.0
 10
95.47565373047136
 20
-148.8692938538417
 30
0.0
 10
95.47565373047136
 20
-148.560441043589
 30
0.0
 10
95.47565373047136
 20
-148.560441043589
 30
0.0
  0
SPLINE
  5
EB
330
DD
100
AcDbEntity
  8
レイヤー 1
100
AcDbSpline
210
0.0
220
0.0
230
1.0
 70
    11
 71
     3
 72
    17
 73
    13
 74
     0
 42
0.0000000001
 43
0.0000000001
 40
0.0
 40
0.0
 40
0.0
 40
0.0
 40
1.0
 40
1.0
 40
1.0
 40
2.0
 40
2.0
 40
2.0
 40
3.0
 40
3.0
 40
3.0
 40
4.0
 40
4.0
 40
4.0
 40
4.0
 10
95.47565373047136
 20
-148.0886352168841
 30
0.0
 10
95.47565373047136
 20
-148.0886352168841
 30
0.0
 10
95.10237763464456
 20
-148.0886352168841
 30
0.0
 10
95.10237763464456
 20
-148.0886352168841
 30
0.0
 10
95.10237763464456
 20
-148.0886352168841
 30
0.0
 10
95.10237763464456
 20
-148.3931816577802
 30
0.0
 10
95.10237763464456
 20
-148.3931816577802
 30
0.0
 10
95.10237763464456
 20
-148.3931816577802
 30
0.0
 10
95.47565373047136
 20
-148.3931816577802
 30
0.0
 10
95.47565373047136
 20
-148.3931816577802
 30
0.0
 10
95.47565373047136
 20
-148.3931816577802
 30
0.0
 10
95.47565373047136
 20
-148.0886352168841
 30
0.0
 10
95.47565373047136
 20
-148.0886352168841
 30
0.0
  0
SPLINE
  5
EC
330
DD
100
AcDbEntity
  8
レイヤー 1
100
AcDbSpline
210
0.0
220
0.0
230
1.0
 70
     9
 71
     3
 72
    77
 73
    73
 74
     0
 42
0.0000000001
 43
0.0000000001
 40
0.0
 40
0.0
 40
0.0
 40
0.0
 40
1.0
 40
1.0
 40
1.0
 40
2.0
 40
2.0
 40
2.0
 40
3.0
 40
3.0
 40
3.0
 40
4.0
 40
4.0
 40
4.0
 40
5.0
 40
5.0
 40
5.0
 40
6.0
 40
6.0
 40
6.0
 40
7.0
 40
7.0
 40
7.0
 40
8.0
 40
8.0
 40
8.0
 40
9.0
 40
9.0
 40
9.0
 40
10.0
 40
10.0
 40
10.0
 40
11.0
 40
11.0
 40
11.0
 40
12.0
 40
12.0
 40
12.0
 40
13.0
 40
13.0
 40
13.0
 40
14.0
 40
14.0
 40
14.0
 40
15.0
 40
15.0
 40
15.0
 40
16.0
 40
16.0
 40
16.0
 40
17.0
 40
17.0
 40
17.0
 40
18.0
 40
18.0
 40
18.0
 40
19.0
 40
19.0
 40
19.0
 40
20.0
 40
20.0
 40
20.0
 40
21.0
 40
21.0
 40
21.0
 40
22.0
 40
22.0
 40
22.0
 40
23.0
 40
23.0
 40
23.0
 40
24.0
 40
24.0
 40
24.0
 40
24.0
 10
96.14469127370689
 20
-149.6752739426159
 30
0.0
 10
96.10507267562653
 20
-149.7004231396582
 30
0.0
 10
95.99861922513229
 20
-149.7131699929536
 30
0.0
 10
95.93195662749272
 20
-149.7131699929536
 30
0.0
 10
95.92110457671417
 20
-149.7131699929536
 30
0.0
 10
95.89940047515709
 20
-149.7131699929536
 30
0.0
 10
95.87063392785527
 20
-149.7090358783713
 30
0.0
 10
95.87063392785527
 20
-149.7090358783713
 30
0.0
 10
95.78760712666074
 20
-149.4826931049904
 30
0.0
 10
95.78760712666074
 20
-149.4826931049904
 30
0.0
 10
95.81292857847733
 20
-149.4888942768639
 30
0.0
 10
95.86150442481935
 20
-149.497507015577
 30
0.0
 10
95.96072317479455
 20
-149.497507015577
 30
0.0
 10
96.02755802720839
 20
-149.497507015577
 30
0.0
 10
96.02928057495102
 20
-149.4551323411084
 30
0.0
 10
96.02928057495102
 20
-149.3979437560533
 30
0.0
 10
96.02928057495102
 20
-149.3979437560533
 30
0.0
 10
96.02928057495102
 20
-149.0489555833975
 30
0.0
 10
96.02928057495102
 20
-149.0489555833975
 30
0.0
 10
96.02928057495102
 20
-149.0489555833975
 30
0.0
 10
95.63791772782662
 20
-149.0489555833975
 30
0.0
 10
95.63791772782662
 20
-149.0489555833975
 30
0.0
 10
95.63981253034352
 20
-149.1864148932589
 30
0.0
 10
95.64153507808615
 20
-149.3851969027579
 30
0.0
 10
95.64704723086256
 20
-149.518522098037
 30
0.0
 10
95.64876977860517
 20
-149.546082861919
 30
0.0
 10
95.64876977860517
 20
-149.5905245936787
 30
0.0
 10
95.6596218293837
 20
-149.6518472933162
 30
0.0
 10
95.6596218293837
 20
-149.6518472933162
 30
0.0
 10
95.4539496289143
 20
-149.6518472933162
 30
0.0
 10
95.4539496289143
 20
-149.6518472933162
 30
0.0
 10
95.47565373047136
 20
-149.5271348367501
 30
0.0
 10
95.47565373047136
 20
-149.1864148932589
 30
0.0
 10
95.47565373047136
 20
-149.0489555833975
 30
0.0
 10
95.47565373047136
 20
-149.0489555833975
 30
0.0
 10
95.09876028438503
 20
-149.0489555833975
 30
0.0
 10
95.09876028438503
 20
-149.0489555833975
 30
0.0
 10
95.07895098534485
 20
-149.2563503316095
 30
0.0
 10
95.02296818370954
 20
-149.525067779459
 30
0.0
 10
94.85536428835214
 20
-149.7090358783713
 30
0.0
 10
94.85536428835214
 20
-149.7090358783713
 30
0.0
 10
94.69482283873949
 20
-149.5863904790964
 30
0.0
 10
94.69482283873949
 20
-149.5863904790964
 30
0.0
 10
94.91117483521319
 20
-149.366248877589
 30
0.0
 10
94.9382188347724
 20
-149.0341416728109
 30
0.0
 10
94.9382188347724
 20
-148.7022067228071
 30
0.0
 10
94.9382188347724
 20
-148.7022067228071
 30
0.0
 10
94.9382188347724
 20
-148.266402143923
 30
0.0
 10
94.9382188347724
 20
-148.266402143923
 30
0.0
 10
94.9382188347724
 20
-148.2304008961021
 30
0.0
 10
94.93649628702977
 20
-147.9976846960735
 30
0.0
 10
94.92926158651075
 20
-147.8960543792586
 30
0.0
 10
95.04828963552613
 20
-147.9067341752629
 30
0.0
 10
95.25378958122129
 20
-147.9067341752629
 30
0.0
 10
95.37643498049616
 20
-147.9067341752629
 30
0.0
 10
95.37643498049616
 20
-147.9067341752629
 30
0.0
 10
95.76779782762056
 20
-147.9067341752629
 30
0.0
 10
95.76779782762056
 20
-147.9067341752629
 30
0.0
 10
95.7803724261417
 20
-147.9067341752629
 30
0.0
 10
96.0780286760673
 20
-147.9067341752629
 30
0.0
 10
96.21324867386336
 20
-147.8960543792586
 30
0.0
 10
96.21135387134648
 20
-147.9489365949572
 30
0.0
 10
96.20601397334434
 20
-148.1098225541184
 30
0.0
 10
96.20601397334434
 20
-148.1606377125258
 30
0.0
 10
96.20601397334434
 20
-148.1606377125258
 30
0.0
 10
96.20601397334434
 20
-148.7676635370268
 30
0.0
 10
96.20601397334434
 20
-148.7676635370268
 30
0.0
 10
96.20601397334434
 20
-148.7867838169699
 30
0.0
 10
96.21497122160597
 20
-149.3579806484244
 30
0.0
 10
96.21497122160597
 20
-149.469946251695
 30
0.0
 10
96.21497122160597
 20
-149.5271348367501
 30
0.0
 10
96.21497122160597
 20
-149.628765153565
 30
0.0
 10
96.14469127370689
 20
-149.6752739426159
 30
0.0
  0
HATCH
  5
ED
330
DD
100
AcDbEntity
  8
レイヤー 1
 62
   250
420
  2299925
440
 33554687
100
AcDbHatch
 10
0.0
 20
0.0
 30
0.0
210
0.0
220
0.0
230
1.0
  2
SOLID
 70
     1
 71
     1
 91
        5
 92
        1
 93
        1
 72
     4
 94
        3
 73
     0
 74
     0
 95
       17
 96
       13
 40
0.0
 40
0.0
 40
0.0
 40
0.0
 40
1.0
 40
1.0
 40
1.0
 40
2.0
 40
2.0
 40
2.0
 40
3.0
 40
3.0
 40
3.0
 40
4.0
 40
4.0
 40
4.0
 40
4.0
 10
96.02928057495102
 20
-148.560441043589
 10
96.02928057495102
 20
-148.560441043589
 10
95.63791772782662
 20
-148.560441043589
 10
95.63791772782662
 20
-148.560441043589
 10
95.63791772782662
 20
-148.560441043589
 10
95.63791772782662
 20
-148.8692938538417
 10
95.63791772782662
 20
-148.8692938538417
 10
95.63791772782662
 20
-148.8692938538417
 10
96.02928057495102
 20
-148.8692938538417
 10
96.02928057495102
 20
-148.8692938538417
 10
96.02928057495102
 20
-148.8692938538417
 10
96.02928057495102
 20
-148.560441043589
 10
96.02928057495102
 20
-148.560441043589
 97
        0
 97
        1
330
E8
 92
        1
 93
        1
 72
     4
 94
        3
 73
     0
 74
     0
 95
       17
 96
       13
 40
0.0
 40
0.0
 40
0.0
 40
0.0
 40
1.0
 40
1.0
 40
1.0
 40
2.0
 40
2.0
 40
2.0
 40
3.0
 40
3.0
 40
3.0
 40
4.0
 40
4.0
 40
4.0
 40
4.0
 10
96.02928057495102
 20
-148.0886352168841
 10
96.02928057495102
 20
-148.0886352168841
 10
95.63791772782662
 20
-148.0886352168841
 10
95.63791772782662
 20
-148.0886352168841
 10
95.63791772782662
 20
-148.0886352168841
 10
95.63791772782662
 20
-148.3931816577802
 10
95.63791772782662
 20
-148.3931816577802
 10
95.63791772782662
 20
-148.3931816577802
 10
96.02928057495102
 20
-148.3931816577802
 10
96.02928057495102
 20
-148.3931816577802
 10
96.02928057495102
 20
-148.3931816577802
 10
96.02928057495102
 20
-148.0886352168841
 10
96.02928057495102
 20
-148.0886352168841
 97
        0
 97
        1
330
E9
 92
        1
 93
        1
 72
     4
 94
        3
 73
     0
 74
     0
 95
       17
 96
       13
 40
0.0
 40
0.0
 40
0.0
 40
0.0
 40
1.0
 40
1.0
 40
1.0
 40
2.0
 40
2.0
 40
2.0
 40
3.0
 40
3.0
 40
3.0
 40
4.0
 40
4.0
 40
4.0
 40
4.0
 10
95.47565373047136
 20
-148.560441043589
 10
95.47565373047136
 20
-148.560441043589
 10
95.10237763464456
 20
-148.560441043589
 10
95.10237763464456
 20
-148.560441043589
 10
95.10237763464456
 20
-148.560441043589
 10
95.10237763464456
 20
-148.8692938538417
 10
95.10237763464456
 20
-148.8692938538417
 10
95.10237763464456
 20
-148.8692938538417
 10
95.47565373047136
 20
-148.8692938538417
 10
95.47565373047136
 20
-148.8692938538417
 10
95.47565373047136
 20
-148.8692938538417
 10
95.47565373047136
 20
-148.560441043589
 10
95.47565373047136
 20
-148.560441043589
 97
        0
 97
        1
330
EA
 92
        1
 93
        1
 72
     4
 94
        3
 73
     0
 74
     0
 95
       17
 96
       13
 40
0.0
 40
0.0
 40
0.0
 40
0.0
 40
1.0
 40
1.0
 40
1.0
 40
2.0
 40
2.0
 40
2.0
 40
3.0
 40
3.0
 40
3.0
 40
4.0
 40
4.0
 40
4.0
 40
4.0
 10
95.47565373047136
 20
-148.0886352168841
 10
95.47565373047136
 20
-148.0886352168841
 10
95.10237763464456
 20
-148.0886352168841
 10
95.10237763464456
 20
-148.0886352168841
 10
95.10237763464456
 20
-148.0886352168841
 10
95.10237763464456
 20
-148.3931816577802
 10
95.10237763464456
 20
-148.3931816577802
 10
95.10237763464456
 20
-148.3931816577802
 10
95.47565373047136
 20
-148.3931816577802
 10
95.47565373047136
 20
-148.3931816577802
 10
95.47565373047136
 20
-148.3931816577802
 10
95.47565373047136
 20
-148.0886352168841
 10
95.47565373047136
 20
-148.0886352168841
 97
        0
 97
        1
330
EB
 92
        1
 93
        1
 72
     4
 94
        3
 73
     0
 74
     0
 95
       77
 96
       73
 40
0.0
 40
0.0
 40
0.0
 40
0.0
 40
1.0
 40
1.0
 40
1.0
 40
2.0
 40
2.0
 40
2.0
 40
3.0
 40
3.0
 40
3.0
 40
4.0
 40
4.0
 40
4.0
 40
5.0
 40
5.0
 40
5.0
 40
6.0
 40
6.0
 40
6.0
 40
7.0
 40
7.0
 40
7.0
 40
8.0
 40
8.0
 40
8.0
 40
9.0
 40
9.0
 40
9.0
 40
10.0
 40
10.0
 40
10.0
 40
11.0
 40
11.0
 40
11.0
 40
12.0
 40
12.0
 40
12.0
 40
13.0
 40
13.0
 40
13.0
 40
14.0
 40
14.0
 40
14.0
 40
15.0
 40
15.0
 40
15.0
 40
16.0
 40
16.0
 40
16.0
 40
17.0
 40
17.0
 40
17.0
 40
18.0
 40
18.0
 40
18.0
 40
19.0
 40
19.0
 40
19.0
 40
20.0
 40
20.0
 40
20.0
 40
21.0
 40
21.0
 40
21.0
 40
22.0
 40
22.0
 40
22.0
 40
23.0
 40
23.0
 40
23.0
 40
24.0
 40
24.0
 40
24.0
 40
24.0
 10
96.14469127370689
 20
-149.6752739426159
 10
96.10507267562653
 20
-149.7004231396582
 10
95.99861922513229
 20
-149.7131699929536
 10
95.93195662749272
 20
-149.7131699929536
 10
95.92110457671417
 20
-149.7131699929536
 10
95.89940047515709
 20
-149.7131699929536
 10
95.87063392785527
 20
-149.7090358783713
 10
95.87063392785527
 20
-149.7090358783713
 10
95.78760712666074
 20
-149.4826931049904
 10
95.78760712666074
 20
-149.4826931049904
 10
95.81292857847733
 20
-149.4888942768639
 10
95.86150442481935
 20
-149.497507015577
 10
95.96072317479455
 20
-149.497507015577
 10
96.02755802720839
 20
-149.497507015577
 10
96.02928057495102
 20
-149.4551323411084
 10
96.02928057495102
 20
-149.3979437560533
 10
96.02928057495102
 20
-149.3979437560533
 10
96.02928057495102
 20
-149.0489555833975
 10
96.02928057495102
 20
-149.0489555833975
 10
96.02928057495102
 20
-149.0489555833975
 10
95.63791772782662
 20
-149.0489555833975
 10
95.63791772782662
 20
-149.0489555833975
 10
95.63981253034352
 20
-149.1864148932589
 10
95.64153507808615
 20
-149.3851969027579
 10
95.64704723086256
 20
-149.518522098037
 10
95.64876977860517
 20
-149.546082861919
 10
95.64876977860517
 20
-149.5905245936787
 10
95.6596218293837
 20
-149.6518472933162
 10
95.6596218293837
 20
-149.6518472933162
 10
95.4539496289143
 20
-149.6518472933162
 10
95.4539496289143
 20
-149.6518472933162
 10
95.47565373047136
 20
-149.5271348367501
 10
95.47565373047136
 20
-149.1864148932589
 10
95.47565373047136
 20
-149.0489555833975
 10
95.47565373047136
 20
-149.0489555833975
 10
95.09876028438503
 20
-149.0489555833975
 10
95.09876028438503
 20
-149.0489555833975
 10
95.07895098534485
 20
-149.2563503316095
 10
95.02296818370954
 20
-149.525067779459
 10
94.85536428835214
 20
-149.7090358783713
 10
94.85536428835214
 20
-149.7090358783713
 10
94.69482283873949
 20
-149.5863904790964
 10
94.69482283873949
 20
-149.5863904790964
 10
94.91117483521319
 20
-149.366248877589
 10
94.9382188347724
 20
-149.0341416728109
 10
94.9382188347724
 20
-148.7022067228071
 10
94.9382188347724
 20
-148.7022067228071
 10
94.9382188347724
 20
-148.266402143923
 10
94.9382188347724
 20
-148.266402143923
 10
94.9382188347724
 20
-148.2304008961021
 10
94.93649628702977
 20
-147.9976846960735
 10
94.92926158651075
 20
-147.8960543792586
 10
95.04828963552613
 20
-147.9067341752629
 10
95.25378958122129
 20
-147.9067341752629
 10
95.37643498049616
 20
-147.9067341752629
 10
95.37643498049616
 20
-147.9067341752629
 10
95.76779782762056
 20
-147.9067341752629
 10
95.76779782762056
 20
-147.9067341752629
 10
95.7803724261417
 20
-147.9067341752629
 10
96.0780286760673
 20
-147.9067341752629
 10
96.21324867386336
 20
-147.8960543792586
 10
96.21135387134648
 20
-147.9489365949572
 10
96.20601397334434
 20
-148.1098225541184
 10
96.20601397334434
 20
-148.1606377125258
 10
96.20601397334434
 20
-148.1606377125258
 10
96.20601397334434
 20
-148.7676635370268
 10
96.20601397334434
 20
-148.7676635370268
 10
96.20601397334434
 20
-148.7867838169699
 10
96.21497122160597
 20
-149.3579806484244
 10
96.21497122160597
 20
-149.469946251695
 10
96.21497122160597
 20
-149.5271348367501
 10
96.21497122160597
 20
-149.628765153565
 10
96.14469127370689
 20
-149.6752739426159
 97
        0
 97
        1
330
EC
 75
     2
 76
     1
 98
        1
 10
0.0
 20
0.0
450
        0
451
        0
460
0.0
461
0.0
452
        0
462
0.0
453
        0
470

  0
ENDBLK
  5
E0
330
DD
100
AcDbEntity
  8
0
100
AcDbBlockEnd
  0
BLOCK
  5
F0
330
EE
100
AcDbEntity
  8
0
100
AcDbBlockBegin
  2
Block_11
 70
     0
 10
0.0
 20
0.0
 30
0.0
  3
Block_11
  1

  0
INSERT
  5
F3
330
EE
100
AcDbEntity
  8
レイヤー 1
100
AcDbBlockReference
  2
Block_12
 10
0.0
 20
0.0
 30
0.0
  0
ENDBLK
  5
F1
330
EE
100
AcDbEntity
  8
0
100
AcDbBlockEnd
  0
BLOCK
  5
F4
330
F2
100
AcDbEntity
  8
0
100
AcDbBlockBegin
  2
Block_12
 70
     0
 10
0.0
 20
0.0
 30
0.0
  3
Block_12
  1

  0
SPLINE
  5
F6
330
F2
100
AcDbEntity
  8
レイヤー 1
100
AcDbSpline
210
0.0
220
0.0
230
1.0
 70
     9
 71
     3
 72
    17
 73
    13
 74
     0
 42
0.0000000001
 43
0.0000000001
 40
0.0
 40
0.0
 40
0.0
 40
0.0
 40
1.0
 40
1.0
 40
1.0
 40
2.0
 40
2.0
 40
2.0
 40
3.0
 40
3.0
 40
3.0
 40
4.0
 40
4.0
 40
4.0
 40
4.0
 10
91.50121932391289
 20
-150.4459418026663
 30
0.0
 10
91.45436602531349
 20
-150.4459418026663
 30
0.0
 10
91.41646997497575
 20
-150.490383534426
 30
0.0
 10
91.41646997497575
 20
-150.54550506219
 30
0.0
 10
91.41646997497575
 20
-150.6026936472451
 30
0.0
 10
91.45436602531349
 20
-150.6512694935872
 30
0.0
 10
91.5048366741724
 20
-150.6512694935872
 30
0.0
 10
91.55530732303132
 20
-150.6512694935872
 30
0.0
 10
91.58958602310955
 20
-150.600626589954
 30
0.0
 10
91.58958602310955
 20
-150.5475721194811
 30
0.0
 10
91.58958602310955
 20
-150.490383534426
 30
0.0
 10
91.54996742502918
 20
-150.4459418026663
 30
0.0
 10
91.50121932391289
 20
-150.4459418026663
 30
0.0
  0
SPLINE
  5
F7
330
F2
100
AcDbEntity
  8
レイヤー 1
100
AcDbSpline
210
0.0
220
0.0
230
1.0
 70
    11
 71
     3
 72
    17
 73
    13
 74
     0
 42
0.0000000001
 43
0.0000000001
 40
0.0
 40
0.0
 40
0.0
 40
0.0
 40
1.0
 40
1.0
 40
1.0
 40
2.0
 40
2.0
 40
2.0
 40
3.0
 40
3.0
 40
3.0
 40
4.0
 40
4.0
 40
4.0
 40
4.0
 10
91.50311412642977
 20
-150.7759819501532
 30
0.0
 10
91.39493812819294
 20
-150.7759819501532
 30
0.0
 10
91.3082939767389
 20
-150.6746961428869
 30
0.0
 10
91.3082939767389
 20
-150.5475721194811
 30
0.0
 10
91.3082939767389
 20
-150.4207926056239
 30
0.0
 10
91.39493812819294
 20
-150.3170952315179
 30
0.0
 10
91.50311412642977
 20
-150.3170952315179
 30
0.0
 10
91.61129012466663
 20
-150.3170952315179
 30
0.0
 10
91.69965682386328
 20
-150.4207926056239
 30
0.0
 10
91.69965682386328
 20
-150.5475721194811
 30
0.0
 10
91.69965682386328
 20
-150.6746961428869
 30
0.0
 10
91.61129012466663
 20
-150.7759819501532
 30
0.0
 10
91.50311412642977
 20
-150.7759819501532
 30
0.0
  0
SPLINE
  5
F8
330
F2
100
AcDbEntity
  8
レイヤー 1
100
AcDbSpline
210
0.0
220
0.0
230
1.0
 70
     9
 71
     3
 72
    44
 73
    40
 74
     0
 42
0.0000000001
 43
0.0000000001
 40
0.0
 40
0.0
 40
0.0
 40
0.0
 40
1.0
 40
1.0
 40
1.0
 40
2.0
 40
2.0
 40
2.0
 40
3.0
 40
3.0
 40
3.0
 40
4.0
 40
4.0
 40
4.0
 40
5.0
 40
5.0
 40
5.0
 40
6.0
 40
6.0
 40
6.0
 40
7.0
 40
7.0
 40
7.0
 40
8.0
 40
8.0
 40
8.0
 40
9.0
 40
9.0
 40
9.0
 40
10.0
 40
10.0
 40
10.0
 40
11.0
 40
11.0
 40
11.0
 40
12.0
 40
12.0
 40
12.0
 40
13.0
 40
13.0
 40
13.0
 40
13.0
 10
91.32448592551957
 20
-150.9751084692006
 30
0.0
 10
91.22905678057817
 20
-151.3430446670253
 30
0.0
 10
91.18564857746401
 20
-151.5018635688953
 30
0.0
 10
91.0180446821066
 20
-151.7512884820274
 30
0.0
 10
90.86112058275347
 20
-151.9817653699907
 30
0.0
 10
90.65906573254357
 20
-152.1681450357427
 30
0.0
 10
90.42118188928707
 20
-152.2611626138444
 30
0.0
 10
90.42118188928707
 20
-152.2611626138444
 30
0.0
 10
90.25702308941491
 20
-152.0813286295144
 30
0.0
 10
90.25702308941491
 20
-152.0813286295144
 30
0.0
 10
90.80341523337555
 20
-151.9290554090663
 30
0.0
 10
91.08470727974617
 20
-151.3726724881985
 30
0.0
 10
91.1387952788646
 20
-150.9327337947321
 30
0.0
 10
91.1387952788646
 20
-150.9327337947321
 30
0.0
 10
90.48594968440976
 20
-150.9327337947321
 30
0.0
 10
90.48594968440976
 20
-150.9327337947321
 30
0.0
 10
90.40671248824901
 20
-150.9327337947321
 30
0.0
 10
90.24978838889589
 20
-150.9368679093144
 30
0.0
 10
90.11629093884245
 20
-150.9558159344832
 30
0.0
 10
90.11629093884245
 20
-150.9558159344832
 30
0.0
 10
90.11629093884245
 20
-150.7360188425243
 30
0.0
 10
90.11629093884245
 20
-150.7360188425243
 30
0.0
 10
90.19036049177534
 20
-150.7570339249843
 30
0.0
 10
90.40481768573213
 20
-150.7570339249843
 30
0.0
 10
90.48956703466927
 20
-150.7570339249843
 30
0.0
 10
90.48956703466927
 20
-150.7570339249843
 30
0.0
 10
90.85750323249397
 20
-150.7570339249843
 30
0.0
 10
90.85750323249397
 20
-150.7570339249843
 30
0.0
 10
90.89350448031481
 20
-150.7570339249843
 30
0.0
 10
91.09366452800783
 20
-150.7549668676932
 30
0.0
 10
91.12622068034346
 20
-150.7487656958197
 30
0.0
 10
91.16222192816431
 20
-150.7422200143978
 30
0.0
 10
91.16411673068119
 20
-150.7401529571066
 30
0.0
 10
91.21630992728274
 20
-150.6998453399292
 30
0.0
 10
91.21630992728274
 20
-150.6998453399292
 30
0.0
 10
91.37685137689537
 20
-150.8545301272169
 30
0.0
 10
91.37685137689537
 20
-150.8545301272169
 30
0.0
 10
91.3515299250788
 20
-150.8841579483901
 30
0.0
 10
91.33895532655762
 20
-150.9158528268543
 30
0.0
 10
91.32448592551957
 20
-150.9751084692006
 30
0.0
  0
HATCH
  5
F9
330
F2
100
AcDbEntity
  8
レイヤー 1
 62
   250
420
  2299925
440
 33554687
100
AcDbHatch
 10
0.0
 20
0.0
 30
0.0
210
0.0
220
0.0
230
1.0
  2
SOLID
 70
     1
 71
     1
 91
        3
 92
        1
 93
        1
 72
     4
 94
        3
 73
     0
 74
     0
 95
       17
 96
       13
 40
0.0
 40
0.0
 40
0.0
 40
0.0
 40
1.0
 40
1.0
 40
1.0
 40
2.0
 40
2.0
 40
2.0
 40
3.0
 40
3.0
 40
3.0
 40
4.0
 40
4.0
 40
4.0
 40
4.0
 10
91.50121932391289
 20
-150.4459418026663
 10
91.45436602531349
 20
-150.4459418026663
 10
91.41646997497575
 20
-150.490383534426
 10
91.41646997497575
 20
-150.54550506219
 10
91.41646997497575
 20
-150.6026936472451
 10
91.45436602531349
 20
-150.6512694935872
 10
91.5048366741724
 20
-150.6512694935872
 10
91.55530732303132
 20
-150.6512694935872
 10
91.58958602310955
 20
-150.600626589954
 10
91.58958602310955
 20
-150.5475721194811
 10
91.58958602310955
 20
-150.490383534426
 10
91.54996742502918
 20
-150.4459418026663
 10
91.50121932391289
 20
-150.4459418026663
 97
        0
 97
        1
330
F6
 92
        1
 93
        1
 72
     4
 94
        3
 73
     0
 74
     0
 95
       17
 96
       13
 40
0.0
 40
0.0
 40
0.0
 40
0.0
 40
1.0
 40
1.0
 40
1.0
 40
2.0
 40
2.0
 40
2.0
 40
3.0
 40
3.0
 40
3.0
 40
4.0
 40
4.0
 40
4.0
 40
4.0
 10
91.50311412642977
 20
-150.7759819501532
 10
91.39493812819294
 20
-150.7759819501532
 10
91.3082939767389
 20
-150.6746961428869
 10
91.3082939767389
 20
-150.5475721194811
 10
91.3082939767389
 20
-150.4207926056239
 10
91.39493812819294
 20
-150.3170952315179
 10
91.50311412642977
 20
-150.3170952315179
 10
91.61129012466663
 20
-150.3170952315179
 10
91.69965682386328
 20
-150.4207926056239
 10
91.69965682386328
 20
-150.5475721194811
 10
91.69965682386328
 20
-150.6746961428869
 10
91.61129012466663
 20
-150.7759819501532
 10
91.50311412642977
 20
-150.7759819501532
 97
        0
 97
        1
330
F7
 92
        1
 93
        1
 72
     4
 94
        3
 73
     0
 74
     0
 95
       44
 96
       40
 40
0.0
 40
0.0
 40
0.0
 40
0.0
 40
1.0
 40
1.0
 40
1.0
 40
2.0
 40
2.0
 40
2.0
 40
3.0
 40
3.0
 40
3.0
 40
4.0
 40
4.0
 40
4.0
 40
5.0
 40
5.0
 40
5.0
 40
6.0
 40
6.0
 40
6.0
 40
7.0
 40
7.0
 40
7.0
 40
8.0
 40
8.0
 40
8.0
 40
9.0
 40
9.0
 40
9.0
 40
10.0
 40
10.0
 40
10.0
 40
11.0
 40
11.0
 40
11.0
 40
12.0
 40
12.0
 40
12.0
 40
13.0
 40
13.0
 40
13.0
 40
13.0
 10
91.32448592551957
 20
-150.9751084692006
 10
91.22905678057817
 20
-151.3430446670253
 10
91.18564857746401
 20
-151.5018635688953
 10
91.0180446821066
 20
-151.7512884820274
 10
90.86112058275347
 20
-151.9817653699907
 10
90.65906573254357
 20
-152.1681450357427
 10
90.42118188928707
 20
-152.2611626138444
 10
90.42118188928707
 20
-152.2611626138444
 10
90.25702308941491
 20
-152.0813286295144
 10
90.25702308941491
 20
-152.0813286295144
 10
90.80341523337555
 20
-151.9290554090663
 10
91.08470727974617
 20
-151.3726724881985
 10
91.1387952788646
 20
-150.9327337947321
 10
91.1387952788646
 20
-150.9327337947321
 10
90.48594968440976
 20
-150.9327337947321
 10
90.48594968440976
 20
-150.9327337947321
 10
90.40671248824901
 20
-150.9327337947321
 10
90.24978838889589
 20
-150.9368679093144
 10
90.11629093884245
 20
-150.9558159344832
 10
90.11629093884245
 20
-150.9558159344832
 10
90.11629093884245
 20
-150.7360188425243
 10
90.11629093884245
 20
-150.7360188425243
 10
90.19036049177534
 20
-150.7570339249843
 10
90.40481768573213
 20
-150.7570339249843
 10
90.48956703466927
 20
-150.7570339249843
 10
90.48956703466927
 20
-150.7570339249843
 10
90.85750323249397
 20
-150.7570339249843
 10
90.85750323249397
 20
-150.7570339249843
 10
90.89350448031481
 20
-150.7570339249843
 10
91.09366452800783
 20
-150.7549668676932
 10
91.12622068034346
 20
-150.7487656958197
 10
91.16222192816431
 20
-150.7422200143978
 10
91.16411673068119
 20
-150.7401529571066
 10
91.21630992728274
 20
-150.6998453399292
 10
91.21630992728274
 20
-150.6998453399292
 10
91.37685137689537
 20
-150.8545301272169
 10
91.37685137689537
 20
-150.8545301272169
 10
91.3515299250788
 20
-150.8841579483901
 10
91.33895532655762
 20
-150.9158528268543
 10
91.32448592551957
 20
-150.9751084692006
 97
        0
 97
        1
330
F8
 75
     2
 76
     1
 98
        1
 10
0.0
 20
0.0
450
        0
451
        0
460
0.0
461
0.0
452
        0
462
0.0
453
        0
470

  0
SPLINE
  5
FA
330
F2
100
AcDbEntity
  8
レイヤー 1
100
AcDbSpline
210
0.0
220
0.0
230
1.0
 70
     9
 71
     3
 72
    29
 73
    25
 74
     0
 42
0.0000000001
 43
0.0000000001
 40
0.0
 40
0.0
 40
0.0
 40
0.0
 40
1.0
 40
1.0
 40
1.0
 40
2.0
 40
2.0
 40
2.0
 40
3.0
 40
3.0
 40
3.0
 40
4.0
 40
4.0
 40
4.0
 40
5.0
 40
5.0
 40
5.0
 40
6.0
 40
6.0
 40
6.0
 40
7.0
 40
7.0
 40
7.0
 40
8.0
 40
8.0
 40
8.0
 40
8.0
 10
92.6107123249376
 20
-150.6578151750091
 30
0.0
 10
92.6107123249376
 20
-150.6578151750091
 30
0.0
 10
92.32029077553105
 20
-150.6578151750091
 30
0.0
 10
92.32029077553105
 20
-150.6578151750091
 30
0.0
 10
92.22296682807273
 20
-150.6578151750091
 30
0.0
 10
92.12374807809753
 20
-150.6619492895914
 30
0.0
 10
92.02642413063923
 20
-150.676763200178
 30
0.0
 10
92.02642413063923
 20
-150.676763200178
 30
0.0
 10
92.02642413063923
 20
-150.4673013946748
 30
0.0
 10
92.02642413063923
 20
-150.4673013946748
 30
0.0
 10
92.12736542835704
 20
-150.4821153052614
 30
0.0
 10
92.27533227944853
 20
-150.4862494198437
 30
0.0
 10
92.32029077553105
 20
-150.4862494198437
 30
0.0
 10
92.32029077553105
 20
-150.4862494198437
 30
0.0
 10
92.6107123249376
 20
-150.4862494198437
 30
0.0
 10
92.6107123249376
 20
-150.4862494198437
 30
0.0
 10
92.7099310749128
 20
-150.4862494198437
 30
0.0
 10
92.80897757011372
 20
-150.4821153052614
 30
0.0
 10
92.90819632008894
 20
-150.4673013946748
 30
0.0
 10
92.90819632008894
 20
-150.4673013946748
 30
0.0
 10
92.90819632008894
 20
-150.676763200178
 30
0.0
 10
92.90819632008894
 20
-150.676763200178
 30
0.0
 10
92.7802110228119
 20
-150.6578151750091
 30
0.0
 10
92.62328692345876
 20
-150.6578151750091
 30
0.0
 10
92.6107123249376
 20
-150.6578151750091
 30
0.0
  0
SPLINE
  5
FB
330
F2
100
AcDbEntity
  8
レイヤー 1
100
AcDbSpline
210
0.0
220
0.0
230
1.0
 70
     9
 71
     3
 72
    50
 73
    46
 74
     0
 42
0.0000000001
 43
0.0000000001
 40
0.0
 40
0.0
 40
0.0
 40
0.0
 40
1.0
 40
1.0
 40
1.0
 40
2.0
 40
2.0
 40
2.0
 40
3.0
 40
3.0
 40
3.0
 40
4.0
 40
4.0
 40
4.0
 40
5.0
 40
5.0
 40
5.0
 40
6.0
 40
6.0
 40
6.0
 40
7.0
 40
7.0
 40
7.0
 40
8.0
 40
8.0
 40
8.0
 40
9.0
 40
9.0
 40
9.0
 40
10.0
 40
10.0
 40
10.0
 40
11.0
 40
11.0
 40
11.0
 40
12.0
 40
12.0
 40
12.0
 40
13.0
 40
13.0
 40
13.0
 40
14.0
 40
14.0
 40
14.0
 40
15.0
 40
15.0
 40
15.0
 40
15.0
 10
93.03084171936381
 20
-151.283789024679
 30
0.0
 10
92.96417912172424
 20
-151.4615559517179
 30
0.0
 10
92.84876842296837
 20
-151.66895069993
 30
0.0
 10
92.73146292169561
 20
-151.8084770670826
 30
0.0
 10
92.58728567563791
 20
-151.9796983126995
 30
0.0
 10
92.44844832758234
 20
-152.0685817762189
 30
0.0
 10
92.17611352947335
 20
-152.2101752006627
 30
0.0
 10
92.17611352947335
 20
-152.2101752006627
 30
0.0
 10
92.03176402864135
 20
-152.0220729871681
 30
0.0
 10
92.03176402864135
 20
-152.0220729871681
 30
0.0
 10
92.19058293051139
 20
-151.9986463378684
 30
0.0
 10
92.33665497908598
 20
-151.9121744411886
 30
0.0
 10
92.46636282410563
 20
-151.8064100097914
 30
0.0
 10
92.68994952109835
 20
-151.6245089681702
 30
0.0
 10
92.85238577322788
 20
-151.311349788561
 30
0.0
 10
92.89372691905088
 20
-151.1294487469398
 30
0.0
 10
92.89372691905088
 20
-151.1294487469398
 30
0.0
 10
92.32218557804793
 20
-151.1294487469398
 30
0.0
 10
92.32218557804793
 20
-151.1294487469398
 30
0.0
 10
92.18696558025188
 20
-151.1294487469398
 30
0.0
 10
91.93805743144258
 20
-151.1377169761044
 30
0.0
 10
91.80817733164865
 20
-151.1549424535307
 30
0.0
 10
91.80817733164865
 20
-151.1549424535307
 30
0.0
 10
91.80817733164865
 20
-150.9261881133101
 30
0.0
 10
91.80817733164865
 20
-150.9261881133101
 30
0.0
 10
91.83711613372475
 20
-150.9327337947321
 30
0.0
 10
91.85864798050756
 20
-150.9389349666055
 30
0.0
 10
91.90377873136434
 20
-150.9430690811878
 30
0.0
 10
91.99042288281836
 20
-150.9496147626098
 30
0.0
 10
92.15802677817578
 20
-150.951681819901
 30
0.0
 10
92.23020152859175
 20
-150.951681819901
 30
0.0
 10
92.23020152859175
 20
-150.951681819901
 30
0.0
 10
92.66118297379652
 20
-150.951681819901
 30
0.0
 10
92.66118297379652
 20
-150.951681819901
 30
0.0
 10
92.71888832317445
 20
-150.951681819901
 30
0.0
 10
92.84325627019198
 20
-150.9475477053186
 30
0.0
 10
92.89562172156776
 20
-150.9410020238967
 30
0.0
 10
92.9569444212052
 20
-150.9327337947321
 30
0.0
 10
92.98037107050491
 20
-150.9179198841455
 30
0.0
 10
93.00913761780675
 20
-150.8944932348458
 30
0.0
 10
93.00913761780675
 20
-150.8944932348458
 30
0.0
 10
93.1498697683792
 20
-151.0615803658804
 30
0.0
 10
93.1498697683792
 20
-151.0615803658804
 30
0.0
 10
93.09044187125865
 20
-151.1294487469398
 30
0.0
 10
93.05065101840401
 20
-151.2331461210458
 30
0.0
 10
93.03084171936381
 20
-151.283789024679
 30
0.0
  0
HATCH
  5
FC
330
F2
100
AcDbEntity
  8
レイヤー 1
 62
   250
420
  2299925
440
 33554687
100
AcDbHatch
 10
0.0
 20
0.0
 30
0.0
210
0.0
220
0.0
230
1.0
  2
SOLID
 70
     1
 71
     1
 91
        2
 92
        1
 93
        1
 72
     4
 94
        3
 73
     0
 74
     0
 95
       29
 96
       25
 40
0.0
 40
0.0
 40
0.0
 40
0.0
 40
1.0
 40
1.0
 40
1.0
 40
2.0
 40
2.0
 40
2.0
 40
3.0
 40
3.0
 40
3.0
 40
4.0
 40
4.0
 40
4.0
 40
5.0
 40
5.0
 40
5.0
 40
6.0
 40
6.0
 40
6.0
 40
7.0
 40
7.0
 40
7.0
 40
8.0
 40
8.0
 40
8.0
 40
8.0
 10
92.6107123249376
 20
-150.6578151750091
 10
92.6107123249376
 20
-150.6578151750091
 10
92.32029077553105
 20
-150.6578151750091
 10
92.32029077553105
 20
-150.6578151750091
 10
92.22296682807273
 20
-150.6578151750091
 10
92.12374807809753
 20
-150.6619492895914
 10
92.02642413063923
 20
-150.676763200178
 10
92.02642413063923
 20
-150.676763200178
 10
92.02642413063923
 20
-150.4673013946748
 10
92.02642413063923
 20
-150.4673013946748
 10
92.12736542835704
 20
-150.4821153052614
 10
92.27533227944853
 20
-150.4862494198437
 10
92.32029077553105
 20
-150.4862494198437
 10
92.32029077553105
 20
-150.4862494198437
 10
92.6107123249376
 20
-150.4862494198437
 10
92.6107123249376
 20
-150.4862494198437
 10
92.7099310749128
 20
-150.4862494198437
 10
92.80897757011372
 20
-150.4821153052614
 10
92.90819632008894
 20
-150.4673013946748
 10
92.90819632008894
 20
-150.4673013946748
 10
92.90819632008894
 20
-150.676763200178
 10
92.90819632008894
 20
-150.676763200178
 10
92.7802110228119
 20
-150.6578151750091
 10
92.62328692345876
 20
-150.6578151750091
 10
92.6107123249376
 20
-150.6578151750091
 97
        0
 97
        1
330
FA
 92
        1
 93
        1
 72
     4
 94
        3
 73
     0
 74
     0
 95
       50
 96
       46
 40
0.0
 40
0.0
 40
0.0
 40
0.0
 40
1.0
 40
1.0
 40
1.0
 40
2.0
 40
2.0
 40
2.0
 40
3.0
 40
3.0
 40
3.0
 40
4.0
 40
4.0
 40
4.0
 40
5.0
 40
5.0
 40
5.0
 40
6.0
 40
6.0
 40
6.0
 40
7.0
 40
7.0
 40
7.0
 40
8.0
 40
8.0
 40
8.0
 40
9.0
 40
9.0
 40
9.0
 40
10.0
 40
10.0
 40
10.0
 40
11.0
 40
11.0
 40
11.0
 40
12.0
 40
12.0
 40
12.0
 40
13.0
 40
13.0
 40
13.0
 40
14.0
 40
14.0
 40
14.0
 40
15.0
 40
15.0
 40
15.0
 40
15.0
 10
93.03084171936381
 20
-151.283789024679
 10
92.96417912172424
 20
-151.4615559517179
 10
92.84876842296837
 20
-151.66895069993
 10
92.73146292169561
 20
-151.8084770670826
 10
92.58728567563791
 20
-151.9796983126995
 10
92.44844832758234
 20
-152.0685817762189
 10
92.17611352947335
 20
-152.2101752006627
 10
92.17611352947335
 20
-152.2101752006627
 10
92.03176402864135
 20
-152.0220729871681
 10
92.03176402864135
 20
-152.0220729871681
 10
92.19058293051139
 20
-151.9986463378684
 10
92.33665497908598
 20
-151.9121744411886
 10
92.46636282410563
 20
-151.8064100097914
 10
92.68994952109835
 20
-151.6245089681702
 10
92.85238577322788
 20
-151.311349788561
 10
92.89372691905088
 20
-151.1294487469398
 10
92.89372691905088
 20
-151.1294487469398
 10
92.32218557804793
 20
-151.1294487469398
 10
92.32218557804793
 20
-151.1294487469398
 10
92.18696558025188
 20
-151.1294487469398
 10
91.93805743144258
 20
-151.1377169761044
 10
91.80817733164865
 20
-151.1549424535307
 10
91.80817733164865
 20
-151.1549424535307
 10
91.80817733164865
 20
-150.9261881133101
 10
91.80817733164865
 20
-150.9261881133101
 10
91.83711613372475
 20
-150.9327337947321
 10
91.85864798050756
 20
-150.9389349666055
 10
91.90377873136434
 20
-150.9430690811878
 10
91.99042288281836
 20
-150.9496147626098
 10
92.15802677817578
 20
-150.951681819901
 10
92.23020152859175
 20
-150.951681819901
 10
92.23020152859175
 20
-150.951681819901
 10
92.66118297379652
 20
-150.951681819901
 10
92.66118297379652
 20
-150.951681819901
 10
92.71888832317445
 20
-150.951681819901
 10
92.84325627019198
 20
-150.9475477053186
 10
92.89562172156776
 20
-150.9410020238967
 10
92.9569444212052
 20
-150.9327337947321
 10
92.98037107050491
 20
-150.9179198841455
 10
93.00913761780675
 20
-150.8944932348458
 10
93.00913761780675
 20
-150.8944932348458
 10
93.1498697683792
 20
-151.0615803658804
 10
93.1498697683792
 20
-151.0615803658804
 10
93.09044187125865
 20
-151.1294487469398
 10
93.05065101840401
 20
-151.2331461210458
 10
93.03084171936381
 20
-151.283789024679
 97
        0
 97
        1
330
FB
 75
     2
 76
     1
 98
        1
 10
0.0
 20
0.0
450
        0
451
        0
460
0.0
461
0.0
452
        0
462
0.0
453
        0
470

  0
SPLINE
  5
FD
330
F2
100
AcDbEntity
  8
レイヤー 1
100
AcDbSpline
210
0.0
220
0.0
230
1.0
 70
     9
 71
     3
 72
    50
 73
    46
 74
     0
 42
0.0000000001
 43
0.0000000001
 40
0.0
 40
0.0
 40
0.0
 40
0.0
 40
1.0
 40
1.0
 40
1.0
 40
2.0
 40
2.0
 40
2.0
 40
3.0
 40
3.0
 40
3.0
 40
4.0
 40
4.0
 40
4.0
 40
5.0
 40
5.0
 40
5.0
 40
6.0
 40
6.0
 40
6.0
 40
7.0
 40
7.0
 40
7.0
 40
8.0
 40
8.0
 40
8.0
 40
9.0
 40
9.0
 40
9.0
 40
10.0
 40
10.0
 40
10.0
 40
11.0
 40
11.0
 40
11.0
 40
12.0
 40
12.0
 40
12.0
 40
13.0
 40
13.0
 40
13.0
 40
14.0
 40
14.0
 40
14.0
 40
15.0
 40
15.0
 40
15.0
 40
15.0
 10
94.48656681665614
 20
-150.6430012644226
 30
0.0
 10
94.30811087052019
 20
-150.856597184508
 30
0.0
 10
94.24678817088276
 20
-150.9285996801498
 30
0.0
 10
94.12586531935048
 20
-151.0467664552938
 30
0.0
 10
94.12586531935048
 20
-151.0467664552938
 30
0.0
 10
94.12586531935048
 20
-151.613829172166
 30
0.0
 10
94.12586531935048
 20
-151.613829172166
 30
0.0
 10
94.12586531935048
 20
-151.7640353353229
 30
0.0
 10
94.13137747212688
 20
-151.7829833604917
 30
0.0
 10
94.13499482238639
 20
-151.9607502875306
 30
0.0
 10
94.13671737012903
 20
-152.0920084255187
 30
0.0
 10
94.14222952290542
 20
-152.1405842718607
 30
0.0
 10
94.14756942090756
 20
-152.199839914207
 30
0.0
 10
94.14756942090756
 20
-152.199839914207
 30
0.0
 10
93.95464407373356
 20
-152.199839914207
 30
0.0
 10
93.95464407373356
 20
-152.199839914207
 30
0.0
 10
93.95826142399307
 20
-152.1553981824473
 30
0.0
 10
93.9618787742526
 20
-152.1088893933964
 30
0.0
 10
93.9618787742526
 20
-152.1002766546833
 30
0.0
 10
93.9618787742526
 20
-152.0200059298769
 30
0.0
 10
93.9654961245121
 20
-151.66895069993
 30
0.0
 10
93.9654961245121
 20
-151.5969482042883
 30
0.0
 10
93.9654961245121
 20
-151.5969482042883
 30
0.0
 10
93.9654961245121
 20
-151.1907714465773
 30
0.0
 10
93.9654961245121
 20
-151.1907714465773
 30
0.0
 10
93.81029457290159
 20
-151.3154839031433
 30
0.0
 10
93.64441322528682
 20
-151.4257269586713
 30
0.0
 10
93.47129717715302
 20
-151.5121988553511
 30
0.0
 10
93.47129717715302
 20
-151.5121988553511
 30
0.0
 10
93.29818112901921
 20
-151.3492458388988
 30
0.0
 10
93.29818112901921
 20
-151.3492458388988
 30
0.0
 10
93.40291203177081
 20
-151.3134168458522
 30
0.0
 10
93.62098657598712
 20
-151.2393472929193
 30
0.0
 10
93.9150254756532
 20
-150.9833766983653
 30
0.0
 10
94.09882131979127
 20
-150.8249023060438
 30
0.0
 10
94.26298011966343
 20
-150.6364555830006
 30
0.0
 10
94.39286021945735
 20
-150.4163139814931
 30
0.0
 10
94.39286021945735
 20
-150.4163139814931
 30
0.0
 10
94.5570190193295
 20
-150.5603189727766
 30
0.0
 10
94.5570190193295
 20
-150.5603189727766
 30
0.0
 10
94.56769881533377
 20
-150.5709987687808
 30
0.0
 10
94.57493351585281
 20
-150.5858126793674
 30
0.0
 10
94.57493351585281
 20
-150.5985595326628
 30
0.0
 10
94.57493351585281
 20
-150.6385226402917
 30
0.0
 10
94.54254961829144
 20
-150.6385226402917
 30
0.0
 10
94.48656681665614
 20
-150.6430012644226
 30
0.0
  0
HATCH
  5
FE
330
F2
100
AcDbEntity
  8
レイヤー 1
 62
   250
420
  2299925
440
 33554687
100
AcDbHatch
 10
0.0
 20
0.0
 30
0.0
210
0.0
220
0.0
230
1.0
  2
SOLID
 70
     1
 71
     1
 91
        1
 92
        1
 93
        1
 72
     4
 94
        3
 73
     0
 74
     0
 95
       50
 96
       46
 40
0.0
 40
0.0
 40
0.0
 40
0.0
 40
1.0
 40
1.0
 40
1.0
 40
2.0
 40
2.0
 40
2.0
 40
3.0
 40
3.0
 40
3.0
 40
4.0
 40
4.0
 40
4.0
 40
5.0
 40
5.0
 40
5.0
 40
6.0
 40
6.0
 40
6.0
 40
7.0
 40
7.0
 40
7.0
 40
8.0
 40
8.0
 40
8.0
 40
9.0
 40
9.0
 40
9.0
 40
10.0
 40
10.0
 40
10.0
 40
11.0
 40
11.0
 40
11.0
 40
12.0
 40
12.0
 40
12.0
 40
13.0
 40
13.0
 40
13.0
 40
14.0
 40
14.0
 40
14.0
 40
15.0
 40
15.0
 40
15.0
 40
15.0
 10
94.48656681665614
 20
-150.6430012644226
 10
94.30811087052019
 20
-150.856597184508
 10
94.24678817088276
 20
-150.9285996801498
 10
94.12586531935048
 20
-151.0467664552938
 10
94.12586531935048
 20
-151.0467664552938
 10
94.12586531935048
 20
-151.613829172166
 10
94.12586531935048
 20
-151.613829172166
 10
94.12586531935048
 20
-151.7640353353229
 10
94.13137747212688
 20
-151.7829833604917
 10
94.13499482238639
 20
-151.9607502875306
 10
94.13671737012903
 20
-152.0920084255187
 10
94.14222952290542
 20
-152.1405842718607
 10
94.14756942090756
 20
-152.199839914207
 10
94.14756942090756
 20
-152.199839914207
 10
93.95464407373356
 20
-152.199839914207
 10
93.95464407373356
 20
-152.199839914207
 10
93.95826142399307
 20
-152.1553981824473
 10
93.9618787742526
 20
-152.1088893933964
 10
93.9618787742526
 20
-152.1002766546833
 10
93.9618787742526
 20
-152.0200059298769
 10
93.9654961245121
 20
-151.66895069993
 10
93.9654961245121
 20
-151.5969482042883
 10
93.9654961245121
 20
-151.5969482042883
 10
93.9654961245121
 20
-151.1907714465773
 10
93.9654961245121
 20
-151.1907714465773
 10
93.81029457290159
 20
-151.3154839031433
 10
93.64441322528682
 20
-151.4257269586713
 10
93.47129717715302
 20
-151.5121988553511
 10
93.47129717715302
 20
-151.5121988553511
 10
93.29818112901921
 20
-151.3492458388988
 10
93.29818112901921
 20
-151.3492458388988
 10
93.40291203177081
 20
-151.3134168458522
 10
93.62098657598712
 20
-151.2393472929193
 10
93.9150254756532
 20
-150.9833766983653
 10
94.09882131979127
 20
-150.8249023060438
 10
94.26298011966343
 20
-150.6364555830006
 10
94.39286021945735
 20
-150.4163139814931
 10
94.39286021945735
 20
-150.4163139814931
 10
94.5570190193295
 20
-150.5603189727766
 10
94.5570190193295
 20
-150.5603189727766
 10
94.56769881533377
 20
-150.5709987687808
 10
94.57493351585281
 20
-150.5858126793674
 10
94.57493351585281
 20
-150.5985595326628
 10
94.57493351585281
 20
-150.6385226402917
 10
94.54254961829144
 20
-150.6385226402917
 10
94.48656681665614
 20
-150.6430012644226
 97
        0
 97
        1
330
FD
 75
     2
 76
     1
 98
        1
 10
0.0
 20
0.0
450
        0
451
        0
460
0.0
461
0.0
452
        0
462
0.0
453
        0
470

  0
SPLINE
  5
FF
330
F2
100
AcDbEntity
  8
レイヤー 1
100
AcDbSpline
210
0.0
220
0.0
230
1.0
 70
     9
 71
     3
 72
    50
 73
    46
 74
     0
 42
0.0000000001
 43
0.0000000001
 40
0.0
 40
0.0
 40
0.0
 40
0.0
 40
1.0
 40
1.0
 40
1.0
 40
2.0
 40
2.0
 40
2.0
 40
3.0
 40
3.0
 40
3.0
 40
4.0
 40
4.0
 40
4.0
 40
5.0
 40
5.0
 40
5.0
 40
6.0
 40
6.0
 40
6.0
 40
7.0
 40
7.0
 40
7.0
 40
8.0
 40
8.0
 40
8.0
 40
9.0
 40
9.0
 40
9.0
 40
10.0
 40
10.0
 40
10.0
 40
11.0
 40
11.0
 40
11.0
 40
12.0
 40
12.0
 40
12.0
 40
13.0
 40
13.0
 40
13.0
 40
14.0
 40
14.0
 40
14.0
 40
15.0
 40
15.0
 40
15.0
 40
15.0
 10
95.94074162098008
 20
-151.1697563641173
 30
0.0
 10
95.88854842437855
 20
-151.2414143502105
 30
0.0
 10
95.66668427512848
 20
-151.558707644402
 30
0.0
 10
95.61793617401219
 20
-151.6224419108791
 30
0.0
 10
95.69011092442817
 20
-151.7195936035632
 30
0.0
 10
95.73334687276805
 20
-151.7829833604917
 30
0.0
 10
95.78932967440335
 20
-151.8739338813023
 30
0.0
 10
95.78932967440335
 20
-151.8739338813023
 30
0.0
 10
95.63240557505023
 20
-152.0113931911638
 30
0.0
 10
95.63240557505023
 20
-152.0113931911638
 30
0.0
 10
95.51699487629436
 20
-151.7998643283695
 30
0.0
 10
95.37092282771977
 20
-151.5759331218282
 30
0.0
 10
95.12029213116784
 20
-151.3768066027808
 30
0.0
 10
95.12029213116784
 20
-151.3768066027808
 30
0.0
 10
95.24655488070225
 20
-151.2224663250416
 30
0.0
 10
95.24655488070225
 20
-151.2224663250416
 30
0.0
 10
95.34026147790106
 20
-151.3027370498479
 30
0.0
 10
95.42862817709771
 20
-151.3916205133673
 30
0.0
 10
95.51165497829222
 20
-151.4870496583088
 30
0.0
 10
95.56936032767017
 20
-151.4109130480848
 30
0.0
 10
95.74247637580397
 20
-151.1673447972776
 30
0.0
 10
95.85599227204296
 20
-150.9389349666055
 30
0.0
 10
95.85599227204296
 20
-150.9389349666055
 30
0.0
 10
95.2825561285231
 20
-150.9389349666055
 30
0.0
 10
95.2825561285231
 20
-150.9389349666055
 30
0.0
 10
95.1761026780289
 20
-150.9389349666055
 30
0.0
 10
94.96164548407209
 20
-150.9475477053186
 30
0.0
 10
94.78301728316187
 20
-150.9578829917744
 30
0.0
 10
94.78301728316187
 20
-150.9578829917744
 30
0.0
 10
94.78301728316187
 20
-150.7380858998154
 30
0.0
 10
94.78301728316187
 20
-150.7380858998154
 30
0.0
 10
94.93994138251501
 20
-150.7570339249843
 30
0.0
 10
95.1149522331657
 20
-150.7611680395666
 30
0.0
 10
95.27532142800408
 20
-150.7611680395666
 30
0.0
 10
95.27532142800408
 20
-150.7611680395666
 30
0.0
 10
95.70458032546623
 20
-150.7611680395666
 30
0.0
 10
95.70458032546623
 20
-150.7611680395666
 30
0.0
 10
95.9931070723559
 20
-150.7611680395666
 30
0.0
 10
96.03100312269365
 20
-150.74635412898
 30
0.0
 10
96.10128307059275
 20
-150.7063910213512
 30
0.0
 10
96.10128307059275
 20
-150.7063910213512
 30
0.0
 10
96.24373776890783
 20
-150.8648654136726
 30
0.0
 10
96.24373776890783
 20
-150.8648654136726
 30
0.0
 10
96.11385766911389
 20
-150.9368679093144
 30
0.0
 10
95.99121226983902
 20
-151.0998209257667
 30
0.0
 10
95.94074162098008
 20
-151.1697563641173
 30
0.0
  0
HATCH
  5
100
330
F2
100
AcDbEntity
  8
レイヤー 1
 62
   250
420
  2299925
440
 33554687
100
AcDbHatch
 10
0.0
 20
0.0
 30
0.0
210
0.0
220
0.0
230
1.0
  2
SOLID
 70
     1
 71
     1
 91
        1
 92
        1
 93
        1
 72
     4
 94
        3
 73
     0
 74
     0
 95
       50
 96
       46
 40
0.0
 40
0.0
 40
0.0
 40
0.0
 40
1.0
 40
1.0
 40
1.0
 40
2.0
 40
2.0
 40
2.0
 40
3.0
 40
3.0
 40
3.0
 40
4.0
 40
4.0
 40
4.0
 40
5.0
 40
5.0
 40
5.0
 40
6.0
 40
6.0
 40
6.0
 40
7.0
 40
7.0
 40
7.0
 40
8.0
 40
8.0
 40
8.0
 40
9.0
 40
9.0
 40
9.0
 40
10.0
 40
10.0
 40
10.0
 40
11.0
 40
11.0
 40
11.0
 40
12.0
 40
12.0
 40
12.0
 40
13.0
 40
13.0
 40
13.0
 40
14.0
 40
14.0
 40
14.0
 40
15.0
 40
15.0
 40
15.0
 40
15.0
 10
95.94074162098008
 20
-151.1697563641173
 10
95.88854842437855
 20
-151.2414143502105
 10
95.66668427512848
 20
-151.558707644402
 10
95.61793617401219
 20
-151.6224419108791
 10
95.69011092442817
 20
-151.7195936035632
 10
95.73334687276805
 20
-151.7829833604917
 10
95.78932967440335
 20
-151.8739338813023
 10
95.78932967440335
 20
-151.8739338813023
 10
95.63240557505023
 20
-152.0113931911638
 10
95.63240557505023
 20
-152.0113931911638
 10
95.51699487629436
 20
-151.7998643283695
 10
95.37092282771977
 20
-151.5759331218282
 10
95.12029213116784
 20
-151.3768066027808
 10
95.12029213116784
 20
-151.3768066027808
 10
95.24655488070225
 20
-151.2224663250416
 10
95.24655488070225
 20
-151.2224663250416
 10
95.34026147790106
 20
-151.3027370498479
 10
95.42862817709771
 20
-151.3916205133673
 10
95.51165497829222
 20
-151.4870496583088
 10
95.56936032767017
 20
-151.4109130480848
 10
95.74247637580397
 20
-151.1673447972776
 10
95.85599227204296
 20
-150.9389349666055
 10
95.85599227204296
 20
-150.9389349666055
 10
95.2825561285231
 20
-150.9389349666055
 10
95.2825561285231
 20
-150.9389349666055
 10
95.1761026780289
 20
-150.9389349666055
 10
94.96164548407209
 20
-150.9475477053186
 10
94.78301728316187
 20
-150.9578829917744
 10
94.78301728316187
 20
-150.9578829917744
 10
94.78301728316187
 20
-150.7380858998154
 10
94.78301728316187
 20
-150.7380858998154
 10
94.93994138251501
 20
-150.7570339249843
 10
95.1149522331657
 20
-150.7611680395666
 10
95.27532142800408
 20
-150.7611680395666
 10
95.27532142800408
 20
-150.7611680395666
 10
95.70458032546623
 20
-150.7611680395666
 10
95.70458032546623
 20
-150.7611680395666
 10
95.9931070723559
 20
-150.7611680395666
 10
96.03100312269365
 20
-150.74635412898
 10
96.10128307059275
 20
-150.7063910213512
 10
96.10128307059275
 20
-150.7063910213512
 10
96.24373776890783
 20
-150.8648654136726
 10
96.24373776890783
 20
-150.8648654136726
 10
96.11385766911389
 20
-150.9368679093144
 10
95.99121226983902
 20
-151.0998209257667
 10
95.94074162098008
 20
-151.1697563641173
 97
        0
 97
        1
330
FF
 75
     2
 76
     1
 98
        1
 10
0.0
 20
0.0
450
        0
451
        0
460
0.0
461
0.0
452
        0
462
0.0
453
        0
470

  0
SPLINE
  5
101
330
F2
100
AcDbEntity
  8
レイヤー 1
100
AcDbSpline
210
0.0
220
0.0
230
1.0
 70
     9
 71
     3
 72
    29
 73
    25
 74
     0
 42
0.0000000001
 43
0.0000000001
 40
0.0
 40
0.0
 40
0.0
 40
0.0
 40
1.0
 40
1.0
 40
1.0
 40
2.0
 40
2.0
 40
2.0
 40
3.0
 40
3.0
 40
3.0
 40
4.0
 40
4.0
 40
4.0
 40
5.0
 40
5.0
 40
5.0
 40
6.0
 40
6.0
 40
6.0
 40
7.0
 40
7.0
 40
7.0
 40
8.0
 40
8.0
 40
8.0
 40
8.0
 10
97.32256942011382
 20
-151.4129801053759
 30
0.0
 10
97.32256942011382
 20
-151.4129801053759
 30
0.0
 10
96.90967472620663
 20
-151.4129801053759
 30
0.0
 10
96.90967472620663
 20
-151.4129801053759
 30
0.0
 10
96.88607582213265
 20
-151.4129801053759
 30
0.0
 10
96.61563582654054
 20
-151.4129801053759
 30
0.0
 10
96.43528507788772
 20
-151.4381293024182
 30
0.0
 10
96.43528507788772
 20
-151.4381293024182
 30
0.0
 10
96.43528507788772
 20
-151.207652414455
 30
0.0
 10
96.43528507788772
 20
-151.207652414455
 30
0.0
 10
96.57050507568378
 20
-151.2310790637547
 30
0.0
 10
96.73294132781329
 20
-151.2331461210458
 30
0.0
 10
96.90967472620663
 20
-151.2331461210458
 30
0.0
 10
96.90967472620663
 20
-151.2331461210458
 30
0.0
 10
97.32256942011382
 20
-151.2331461210458
 30
0.0
 10
97.32256942011382
 20
-151.2331461210458
 30
0.0
 10
97.48121606720957
 20
-151.2331461210458
 30
0.0
 10
97.63986271430532
 20
-151.2310790637547
 30
0.0
 10
97.79678681365844
 20
-151.207652414455
 30
0.0
 10
97.79678681365844
 20
-151.207652414455
 30
0.0
 10
97.79678681365844
 20
-151.4381293024182
 30
0.0
 10
97.79678681365844
 20
-151.4381293024182
 30
0.0
 10
97.63986271430532
 20
-151.415047162667
 30
0.0
 10
97.42902287060802
 20
-151.4129801053759
 30
0.0
 10
97.32256942011382
 20
-151.4129801053759
 30
0.0
  0
HATCH
  5
102
330
F2
100
AcDbEntity
  8
レイヤー 1
 62
   250
420
  2299925
440
 33554687
100
AcDbHatch
 10
0.0
 20
0.0
 30
0.0
210
0.0
220
0.0
230
1.0
  2
SOLID
 70
     1
 71
     1
 91
        1
 92
        1
 93
        1
 72
     4
 94
        3
 73
     0
 74
     0
 95
       29
 96
       25
 40
0.0
 40
0.0
 40
0.0
 40
0.0
 40
1.0
 40
1.0
 40
1.0
 40
2.0
 40
2.0
 40
2.0
 40
3.0
 40
3.0
 40
3.0
 40
4.0
 40
4.0
 40
4.0
 40
5.0
 40
5.0
 40
5.0
 40
6.0
 40
6.0
 40
6.0
 40
7.0
 40
7.0
 40
7.0
 40
8.0
 40
8.0
 40
8.0
 40
8.0
 10
97.32256942011382
 20
-151.4129801053759
 10
97.32256942011382
 20
-151.4129801053759
 10
96.90967472620663
 20
-151.4129801053759
 10
96.90967472620663
 20
-151.4129801053759
 10
96.88607582213265
 20
-151.4129801053759
 10
96.61563582654054
 20
-151.4129801053759
 10
96.43528507788772
 20
-151.4381293024182
 10
96.43528507788772
 20
-151.4381293024182
 10
96.43528507788772
 20
-151.207652414455
 10
96.43528507788772
 20
-151.207652414455
 10
96.57050507568378
 20
-151.2310790637547
 10
96.73294132781329
 20
-151.2331461210458
 10
96.90967472620663
 20
-151.2331461210458
 10
96.90967472620663
 20
-151.2331461210458
 10
97.32256942011382
 20
-151.2331461210458
 10
97.32256942011382
 20
-151.2331461210458
 10
97.48121606720957
 20
-151.2331461210458
 10
97.63986271430532
 20
-151.2310790637547
 10
97.79678681365844
 20
-151.207652414455
 10
97.79678681365844
 20
-151.207652414455
 10
97.79678681365844
 20
-151.4381293024182
 10
97.79678681365844
 20
-151.4381293024182
 10
97.63986271430532
 20
-151.415047162667
 10
97.42902287060802
 20
-151.4129801053759
 10
97.32256942011382
 20
-151.4129801053759
 97
        0
 97
        1
330
101
 75
     2
 76
     1
 98
        1
 10
0.0
 20
0.0
450
        0
451
        0
460
0.0
461
0.0
452
        0
462
0.0
453
        0
470

  0
SPLINE
  5
103
330
F2
100
AcDbEntity
  8
レイヤー 1
100
AcDbSpline
210
0.0
220
0.0
230
1.0
 70
     9
 71
     3
 72
    20
 73
    16
 74
     0
 42
0.0000000001
 43
0.0000000001
 40
0.0
 40
0.0
 40
0.0
 40
0.0
 40
1.0
 40
1.0
 40
1.0
 40
2.0
 40
2.0
 40
2.0
 40
3.0
 40
3.0
 40
3.0
 40
4.0
 40
4.0
 40
4.0
 40
5.0
 40
5.0
 40
5.0
 40
5.0
 10
98.85391436330735
 20
-151.7640353353229
 30
0.0
 10
98.81429576522698
 20
-151.586268408284
 30
0.0
 10
98.73126896403247
 20
-151.4446749838402
 30
0.0
 10
98.61224091501709
 20
-151.3347764378607
 30
0.0
 10
98.61224091501709
 20
-151.3347764378607
 30
0.0
 10
98.74935571533002
 20
-151.2203992677504
 30
0.0
 10
98.74935571533002
 20
-151.2203992677504
 30
0.0
 10
98.80154891193157
 20
-151.262773942219
 30
0.0
 10
98.8358276120098
 20
-151.2965358779745
 30
0.0
 10
98.90076766190675
 20
-151.4043673666628
 30
0.0
 10
98.96932506206324
 20
-151.5208115940642
 30
0.0
 10
98.98741181336079
 20
-151.5735215549885
 30
0.0
 10
99.00894366014361
 20
-151.6393228787568
 30
0.0
 10
99.00894366014361
 20
-151.6393228787568
 30
0.0
 10
98.85391436330735
 20
-151.7640353353229
 30
0.0
 10
98.85391436330735
 20
-151.7640353353229
 30
0.0
  0
SPLINE
  5
104
330
F2
100
AcDbEntity
  8
レイヤー 1
100
AcDbSpline
210
0.0
220
0.0
230
1.0
 70
     9
 71
     3
 72
    77
 73
    73
 74
     0
 42
0.0000000001
 43
0.0000000001
 40
0.0
 40
0.0
 40
0.0
 40
0.0
 40
1.0
 40
1.0
 40
1.0
 40
2.0
 40
2.0
 40
2.0
 40
3.0
 40
3.0
 40
3.0
 40
4.0
 40
4.0
 40
4.0
 40
5.0
 40
5.0
 40
5.0
 40
6.0
 40
6.0
 40
6.0
 40
7.0
 40
7.0
 40
7.0
 40
8.0
 40
8.0
 40
8.0
 40
9.0
 40
9.0
 40
9.0
 40
10.0
 40
10.0
 40
10.0
 40
11.0
 40
11.0
 40
11.0
 40
12.0
 40
12.0
 40
12.0
 40
13.0
 40
13.0
 40
13.0
 40
14.0
 40
14.0
 40
14.0
 40
15.0
 40
15.0
 40
15.0
 40
16.0
 40
16.0
 40
16.0
 40
17.0
 40
17.0
 40
17.0
 40
18.0
 40
18.0
 40
18.0
 40
19.0
 40
19.0
 40
19.0
 40
20.0
 40
20.0
 40
20.0
 40
21.0
 40
21.0
 40
21.0
 40
22.0
 40
22.0
 40
22.0
 40
23.0
 40
23.0
 40
23.0
 40
24.0
 40
24.0
 40
24.0
 40
24.0
 10
99.51037730802172
 20
-151.0384982261292
 30
0.0
 10
99.4507771561269
 20
-151.0343641115469
 30
0.0
 10
99.39307180674896
 20
-151.0343641115469
 30
0.0
 10
99.33536645737103
 20
-151.0343641115469
 30
0.0
 10
99.33536645737103
 20
-151.0343641115469
 30
0.0
 10
99.33536645737103
 20
-151.8084770670826
 30
0.0
 10
99.33536645737103
 20
-151.8084770670826
 30
0.0
 10
99.33536645737103
 20
-152.0727158908013
 30
0.0
 10
99.33364390962839
 20
-152.1023437119744
 30
0.0
 10
99.328131756852
 20
-152.1319715331476
 30
0.0
 10
99.29936520955017
 20
-152.2652967284267
 30
0.0
 10
99.21272105809613
 20
-152.2739094671399
 30
0.0
 10
99.06303165926203
 20
-152.2739094671399
 30
0.0
 10
99.02875295918379
 20
-152.2739094671399
 30
0.0
 10
99.01445581292001
 20
-152.2739094671399
 30
0.0
 10
98.98017711284177
 20
-152.269430843009
 30
0.0
 10
98.98017711284177
 20
-152.269430843009
 30
0.0
 10
98.87372366234755
 20
-152.0282741590415
 30
0.0
 10
98.87372366234755
 20
-152.0282741590415
 30
0.0
 10
98.97294241232273
 20
-152.0599690375058
 30
0.0
 10
99.04322236022183
 20
-152.0599690375058
 30
0.0
 10
99.06303165926203
 20
-152.0599690375058
 30
0.0
 10
99.12263181115685
 20
-152.0599690375058
 30
0.0
 10
99.15139835845868
 20
-152.0430880696281
 30
0.0
 10
99.15501570871819
 20
-151.9862439941215
 30
0.0
 10
99.15501570871819
 20
-151.9734971408261
 30
0.0
 10
99.15691051123509
 20
-151.8760009385935
 30
0.0
 10
99.15691051123509
 20
-151.8188123535383
 30
0.0
 10
99.15691051123509
 20
-151.8188123535383
 30
0.0
 10
99.15691051123509
 20
-151.0319525447073
 30
0.0
 10
99.15691051123509
 20
-151.0319525447073
 30
0.0
 10
99.15691051123509
 20
-151.0319525447073
 30
0.0
 10
98.90627981468316
 20
-151.0319525447073
 30
0.0
 10
98.90627981468316
 20
-151.0319525447073
 30
0.0
 10
98.78173961289137
 20
-151.0319525447073
 30
0.0
 10
98.65737166587386
 20
-151.0384982261292
 30
0.0
 10
98.53472626659897
 20
-151.0512450794247
 30
0.0
 10
98.53472626659897
 20
-151.0512450794247
 30
0.0
 10
98.53472626659897
 20
-150.8438503312126
 30
0.0
 10
98.53472626659897
 20
-150.8438503312126
 30
0.0
 10
98.66271156387599
 20
-150.856597184508
 30
0.0
 10
98.84857446530523
 20
-150.8607312990904
 30
0.0
 10
98.90627981468316
 20
-150.8607312990904
 30
0.0
 10
98.90627981468316
 20
-150.8607312990904
 30
0.0
 10
99.15691051123509
 20
-150.8607312990904
 30
0.0
 10
99.15691051123509
 20
-150.8607312990904
 30
0.0
 10
99.15501570871819
 20
-150.5920138512409
 30
0.0
 10
99.15501570871819
 20
-150.5158772410169
 30
0.0
 10
99.14778100819917
 20
-150.3677381351511
 30
0.0
 10
99.14778100819917
 20
-150.3677381351511
 30
0.0
 10
99.36792260970664
 20
-150.4059786950374
 30
0.0
 10
99.36792260970664
 20
-150.4059786950374
 30
0.0
 10
99.3804972082278
 20
-150.4080457523285
 30
0.0
 10
99.39307180674896
 20
-150.414246924202
 30
0.0
 10
99.39307180674896
 20
-150.4356065162105
 30
0.0
 10
99.39307180674896
 20
-150.4545545413794
 30
0.0
 10
99.38773190874682
 20
-150.4566215986706
 30
0.0
 10
99.33898380763054
 20
-150.490383534426
 30
0.0
 10
99.33536645737103
 20
-150.5689317114897
 30
0.0
 10
99.33536645737103
 20
-150.5837456220763
 30
0.0
 10
99.33536645737103
 20
-150.8607312990904
 30
0.0
 10
99.48695065872202
 20
-150.856597184508
 30
0.0
 10
99.50314260750269
 20
-150.856597184508
 30
0.0
 10
99.53190915480453
 20
-150.8521185603772
 30
0.0
 10
99.57514510314441
 20
-150.8479844457949
 30
0.0
 10
99.57876245340393
 20
-150.8459173885038
 30
0.0
 10
99.61665850374167
 20
-150.8438503312126
 30
0.0
 10
99.61665850374167
 20
-150.8438503312126
 30
0.0
 10
99.61665850374167
 20
-151.0512450794247
 30
0.0
 10
99.61665850374167
 20
-151.0512450794247
 30
0.0
 10
99.59150930669935
 20
-151.0491780221335
 30
0.0
 10
99.54448375332569
 20
-151.0405652834204
 30
0.0
 10
99.51037730802172
 20
-151.0384982261292
 30
0.0
  0
SPLINE
  5
105
330
F2
100
AcDbEntity
  8
レイヤー 1
100
AcDbSpline
210
0.0
220
0.0
230
1.0
 70
     9
 71
     3
 72
    53
 73
    49
 74
     0
 42
0.0000000001
 43
0.0000000001
 40
0.0
 40
0.0
 40
0.0
 40
0.0
 40
1.0
 40
1.0
 40
1.0
 40
2.0
 40
2.0
 40
2.0
 40
3.0
 40
3.0
 40
3.0
 40
4.0
 40
4.0
 40
4.0
 40
5.0
 40
5.0
 40
5.0
 40
6.0
 40
6.0
 40
6.0
 40
7.0
 40
7.0
 40
7.0
 40
8.0
 40
8.0
 40
8.0
 40
9.0
 40
9.0
 40
9.0
 40
10.0
 40
10.0
 40
10.0
 40
11.0
 40
11.0
 40
11.0
 40
12.0
 40
12.0
 40
12.0
 40
13.0
 40
13.0
 40
13.0
 40
14.0
 40
14.0
 40
14.0
 40
15.0
 40
15.0
 40
15.0
 40
16.0
 40
16.0
 40
16.0
 40
16.0
 10
98.52938636859683
 20
-150.5393038903165
 30
0.0
 10
98.47168101921889
 20
-150.6915771107646
 30
0.0
 10
98.43550751662377
 20
-150.7697807782798
 30
0.0
 10
98.40312361906242
 20
-150.8373046497906
 30
0.0
 10
98.43912486688328
 20
-150.8586642417992
 30
0.0
 10
98.44274221714279
 20
-150.8607312990904
 30
0.0
 10
98.44274221714279
 20
-150.8755452096769
 30
0.0
 10
98.44274221714279
 20
-150.8882920629723
 30
0.0
 10
98.41397566984095
 20
-150.9220539987278
 30
0.0
 10
98.40484616680505
 20
-150.9306667374409
 30
0.0
 10
98.40312361906242
 20
-151.1273816896487
 30
0.0
 10
98.40312361906242
 20
-151.1483967721087
 30
0.0
 10
98.40312361906242
 20
-151.2817219673879
 30
0.0
 10
98.40122881654552
 20
-151.2944688206833
 30
0.0
 10
98.40122881654552
 20
-151.3092827312699
 30
0.0
 10
98.40122881654552
 20
-151.3240966418564
 30
0.0
 10
98.40122881654552
 20
-151.3240966418564
 30
0.0
 10
98.40122881654552
 20
-151.8591199707158
 30
0.0
 10
98.40122881654552
 20
-151.8591199707158
 30
0.0
 10
98.40122881654552
 20
-151.9311224663575
 30
0.0
 10
98.40484616680505
 20
-152.1660779784515
 30
0.0
 10
98.41208086732407
 20
-152.275976524431
 30
0.0
 10
98.41208086732407
 20
-152.275976524431
 30
0.0
 10
98.20468611911202
 20
-152.275976524431
 30
0.0
 10
98.20468611911202
 20
-152.275976524431
 30
0.0
 10
98.22449541815222
 20
-152.117157622561
 30
0.0
 10
98.23000757092863
 20
-151.8760009385935
 30
0.0
 10
98.23000757092863
 20
-151.8549858561335
 30
0.0
 10
98.23000757092863
 20
-151.8549858561335
 30
0.0
 10
98.23000757092863
 20
-151.1377169761044
 30
0.0
 10
98.23000757092863
 20
-151.1377169761044
 30
0.0
 10
98.15249292251049
 20
-151.2520941462147
 30
0.0
 10
98.1001274711347
 20
-151.311349788561
 30
0.0
 10
98.06412622331384
 20
-151.3537244630296
 30
0.0
 10
98.06412622331384
 20
-151.3537244630296
 30
0.0
 10
97.90168997118431
 20
-151.2162651531681
 30
0.0
 10
97.90168997118431
 20
-151.2162651531681
 30
0.0
 10
98.14164087173196
 20
-151.000257666243
 30
0.0
 10
98.30562741682985
 20
-150.6915771107646
 30
0.0
 10
98.40122881654552
 20
-150.3549912818557
 30
0.0
 10
98.40122881654552
 20
-150.3549912818557
 30
0.0
 10
98.58881426571739
 20
-150.469368451966
 30
0.0
 10
98.58881426571739
 20
-150.469368451966
 30
0.0
 10
98.59966631649593
 20
-150.4755696238394
 30
0.0
 10
98.60690101701495
 20
-150.4800482479702
 30
0.0
 10
98.60690101701495
 20
-150.4948621585568
 30
0.0
 10
98.60690101701495
 20
-150.5200113555991
 30
0.0
 10
98.59243161597689
 20
-150.52448997973
 30
0.0
 10
98.52938636859683
 20
-150.5393038903165
 30
0.0
  0
HATCH
  5
106
330
F2
100
AcDbEntity
  8
レイヤー 1
 62
   250
420
  2299925
440
 33554687
100
AcDbHatch
 10
0.0
 20
0.0
 30
0.0
210
0.0
220
0.0
230
1.0
  2
SOLID
 70
     1
 71
     1
 91
        3
 92
        1
 93
        1
 72
     4
 94
        3
 73
     0
 74
     0
 95
       20
 96
       16
 40
0.0
 40
0.0
 40
0.0
 40
0.0
 40
1.0
 40
1.0
 40
1.0
 40
2.0
 40
2.0
 40
2.0
 40
3.0
 40
3.0
 40
3.0
 40
4.0
 40
4.0
 40
4.0
 40
5.0
 40
5.0
 40
5.0
 40
5.0
 10
98.85391436330735
 20
-151.7640353353229
 10
98.81429576522698
 20
-151.586268408284
 10
98.73126896403247
 20
-151.4446749838402
 10
98.61224091501709
 20
-151.3347764378607
 10
98.61224091501709
 20
-151.3347764378607
 10
98.74935571533002
 20
-151.2203992677504
 10
98.74935571533002
 20
-151.2203992677504
 10
98.80154891193157
 20
-151.262773942219
 10
98.8358276120098
 20
-151.2965358779745
 10
98.90076766190675
 20
-151.4043673666628
 10
98.96932506206324
 20
-151.5208115940642
 10
98.98741181336079
 20
-151.5735215549885
 10
99.00894366014361
 20
-151.6393228787568
 10
99.00894366014361
 20
-151.6393228787568
 10
98.85391436330735
 20
-151.7640353353229
 10
98.85391436330735
 20
-151.7640353353229
 97
        0
 97
        1
330
103
 92
        1
 93
        1
 72
     4
 94
        3
 73
     0
 74
     0
 95
       77
 96
       73
 40
0.0
 40
0.0
 40
0.0
 40
0.0
 40
1.0
 40
1.0
 40
1.0
 40
2.0
 40
2.0
 40
2.0
 40
3.0
 40
3.0
 40
3.0
 40
4.0
 40
4.0
 40
4.0
 40
5.0
 40
5.0
 40
5.0
 40
6.0
 40
6.0
 40
6.0
 40
7.0
 40
7.0
 40
7.0
 40
8.0
 40
8.0
 40
8.0
 40
9.0
 40
9.0
 40
9.0
 40
10.0
 40
10.0
 40
10.0
 40
11.0
 40
11.0
 40
11.0
 40
12.0
 40
12.0
 40
12.0
 40
13.0
 40
13.0
 40
13.0
 40
14.0
 40
14.0
 40
14.0
 40
15.0
 40
15.0
 40
15.0
 40
16.0
 40
16.0
 40
16.0
 40
17.0
 40
17.0
 40
17.0
 40
18.0
 40
18.0
 40
18.0
 40
19.0
 40
19.0
 40
19.0
 40
20.0
 40
20.0
 40
20.0
 40
21.0
 40
21.0
 40
21.0
 40
22.0
 40
22.0
 40
22.0
 40
23.0
 40
23.0
 40
23.0
 40
24.0
 40
24.0
 40
24.0
 40
24.0
 10
99.51037730802172
 20
-151.0384982261292
 10
99.4507771561269
 20
-151.0343641115469
 10
99.39307180674896
 20
-151.0343641115469
 10
99.33536645737103
 20
-151.0343641115469
 10
99.33536645737103
 20
-151.0343641115469
 10
99.33536645737103
 20
-151.8084770670826
 10
99.33536645737103
 20
-151.8084770670826
 10
99.33536645737103
 20
-152.0727158908013
 10
99.33364390962839
 20
-152.1023437119744
 10
99.328131756852
 20
-152.1319715331476
 10
99.29936520955017
 20
-152.2652967284267
 10
99.21272105809613
 20
-152.2739094671399
 10
99.06303165926203
 20
-152.2739094671399
 10
99.02875295918379
 20
-152.2739094671399
 10
99.01445581292001
 20
-152.2739094671399
 10
98.98017711284177
 20
-152.269430843009
 10
98.98017711284177
 20
-152.269430843009
 10
98.87372366234755
 20
-152.0282741590415
 10
98.87372366234755
 20
-152.0282741590415
 10
98.97294241232273
 20
-152.0599690375058
 10
99.04322236022183
 20
-152.0599690375058
 10
99.06303165926203
 20
-152.0599690375058
 10
99.12263181115685
 20
-152.0599690375058
 10
99.15139835845868
 20
-152.0430880696281
 10
99.15501570871819
 20
-151.9862439941215
 10
99.15501570871819
 20
-151.9734971408261
 10
99.15691051123509
 20
-151.8760009385935
 10
99.15691051123509
 20
-151.8188123535383
 10
99.15691051123509
 20
-151.8188123535383
 10
99.15691051123509
 20
-151.0319525447073
 10
99.15691051123509
 20
-151.0319525447073
 10
99.15691051123509
 20
-151.0319525447073
 10
98.90627981468316
 20
-151.0319525447073
 10
98.90627981468316
 20
-151.0319525447073
 10
98.78173961289137
 20
-151.0319525447073
 10
98.65737166587386
 20
-151.0384982261292
 10
98.53472626659897
 20
-151.0512450794247
 10
98.53472626659897
 20
-151.0512450794247
 10
98.53472626659897
 20
-150.8438503312126
 10
98.53472626659897
 20
-150.8438503312126
 10
98.66271156387599
 20
-150.856597184508
 10
98.84857446530523
 20
-150.8607312990904
 10
98.90627981468316
 20
-150.8607312990904
 10
98.90627981468316
 20
-150.8607312990904
 10
99.15691051123509
 20
-150.8607312990904
 10
99.15691051123509
 20
-150.8607312990904
 10
99.15501570871819
 20
-150.5920138512409
 10
99.15501570871819
 20
-150.5158772410169
 10
99.14778100819917
 20
-150.3677381351511
 10
99.14778100819917
 20
-150.3677381351511
 10
99.36792260970664
 20
-150.4059786950374
 10
99.36792260970664
 20
-150.4059786950374
 10
99.3804972082278
 20
-150.4080457523285
 10
99.39307180674896
 20
-150.414246924202
 10
99.39307180674896
 20
-150.4356065162105
 10
99.39307180674896
 20
-150.4545545413794
 10
99.38773190874682
 20
-150.4566215986706
 10
99.33898380763054
 20
-150.490383534426
 10
99.33536645737103
 20
-150.5689317114897
 10
99.33536645737103
 20
-150.5837456220763
 10
99.33536645737103
 20
-150.8607312990904
 10
99.48695065872202
 20
-150.856597184508
 10
99.50314260750269
 20
-150.856597184508
 10
99.53190915480453
 20
-150.8521185603772
 10
99.57514510314441
 20
-150.8479844457949
 10
99.57876245340393
 20
-150.8459173885038
 10
99.61665850374167
 20
-150.8438503312126
 10
99.61665850374167
 20
-150.8438503312126
 10
99.61665850374167
 20
-151.0512450794247
 10
99.61665850374167
 20
-151.0512450794247
 10
99.59150930669935
 20
-151.0491780221335
 10
99.54448375332569
 20
-151.0405652834204
 10
99.51037730802172
 20
-151.0384982261292
 97
        0
 97
        1
330
104
 92
        1
 93
        1
 72
     4
 94
        3
 73
     0
 74
     0
 95
       53
 96
       49
 40
0.0
 40
0.0
 40
0.0
 40
0.0
 40
1.0
 40
1.0
 40
1.0
 40
2.0
 40
2.0
 40
2.0
 40
3.0
 40
3.0
 40
3.0
 40
4.0
 40
4.0
 40
4.0
 40
5.0
 40
5.0
 40
5.0
 40
6.0
 40
6.0
 40
6.0
 40
7.0
 40
7.0
 40
7.0
 40
8.0
 40
8.0
 40
8.0
 40
9.0
 40
9.0
 40
9.0
 40
10.0
 40
10.0
 40
10.0
 40
11.0
 40
11.0
 40
11.0
 40
12.0
 40
12.0
 40
12.0
 40
13.0
 40
13.0
 40
13.0
 40
14.0
 40
14.0
 40
14.0
 40
15.0
 40
15.0
 40
15.0
 40
16.0
 40
16.0
 40
16.0
 40
16.0
 10
98.52938636859683
 20
-150.5393038903165
 10
98.47168101921889
 20
-150.6915771107646
 10
98.43550751662377
 20
-150.7697807782798
 10
98.40312361906242
 20
-150.8373046497906
 10
98.43912486688328
 20
-150.8586642417992
 10
98.44274221714279
 20
-150.8607312990904
 10
98.44274221714279
 20
-150.8755452096769
 10
98.44274221714279
 20
-150.8882920629723
 10
98.41397566984095
 20
-150.9220539987278
 10
98.40484616680505
 20
-150.9306667374409
 10
98.40312361906242
 20
-151.1273816896487
 10
98.40312361906242
 20
-151.1483967721087
 10
98.40312361906242
 20
-151.2817219673879
 10
98.40122881654552
 20
-151.2944688206833
 10
98.40122881654552
 20
-151.3092827312699
 10
98.40122881654552
 20
-151.3240966418564
 10
98.40122881654552
 20
-151.3240966418564
 10
98.40122881654552
 20
-151.8591199707158
 10
98.40122881654552
 20
-151.8591199707158
 10
98.40122881654552
 20
-151.9311224663575
 10
98.40484616680505
 20
-152.1660779784515
 10
98.41208086732407
 20
-152.275976524431
 10
98.41208086732407
 20
-152.275976524431
 10
98.20468611911202
 20
-152.275976524431
 10
98.20468611911202
 20
-152.275976524431
 10
98.22449541815222
 20
-152.117157622561
 10
98.23000757092863
 20
-151.8760009385935
 10
98.23000757092863
 20
-151.8549858561335
 10
98.23000757092863
 20
-151.8549858561335
 10
98.23000757092863
 20
-151.1377169761044
 10
98.23000757092863
 20
-151.1377169761044
 10
98.15249292251049
 20
-151.2520941462147
 10
98.1001274711347
 20
-151.311349788561
 10
98.06412622331384
 20
-151.3537244630296
 10
98.06412622331384
 20
-151.3537244630296
 10
97.90168997118431
 20
-151.2162651531681
 10
97.90168997118431
 20
-151.2162651531681
 10
98.14164087173196
 20
-151.000257666243
 10
98.30562741682985
 20
-150.6915771107646
 10
98.40122881654552
 20
-150.3549912818557
 10
98.40122881654552
 20
-150.3549912818557
 10
98.58881426571739
 20
-150.469368451966
 10
98.58881426571739
 20
-150.469368451966
 10
98.59966631649593
 20
-150.4755696238394
 10
98.60690101701495
 20
-150.4800482479702
 10
98.60690101701495
 20
-150.4948621585568
 10
98.60690101701495
 20
-150.5200113555991
 10
98.59243161597689
 20
-150.52448997973
 10
98.52938636859683
 20
-150.5393038903165
 97
        0
 97
        1
330
105
 75
     2
 76
     1
 98
        1
 10
0.0
 20
0.0
450
        0
451
        0
460
0.0
461
0.0
452
        0
462
0.0
453
        0
470

  0
ENDBLK
  5
F5
330
F2
100
AcDbEntity
  8
0
100
AcDbBlockEnd
  0
ENDSEC
  0
SECTION
  2
ENTITIES
  0
LINE
  5
79
330
70
100
AcDbEntity
  8
レイヤー 1
 62
   250
420
  2299925
370
    25
100
AcDbLine
 10
89.29356461334011
 20
-144.7506273808528
 30
0.0
 11
102.3938968322872
 21
-144.7506273808528
 31
0.0
  0
LINE
  5
7A
330
70
100
AcDbEntity
  8
レイヤー 1
 62
   250
420
  2299925
370
    25
100
AcDbLine
 10
101.2935123881175
 20
-145.850303527643
 30
0.0
 11
101.2935123881175
 21
-151.8502799775034
 31
0.0
  0
LINE
  5
7B
330
70
100
AcDbEntity
  8
レイヤー 1
 62
   250
420
  2299925
370
    25
100
AcDbLine
 10
89.29356461334011
 20
-145.850303527643
 30
0.0
 11
101.2935123881175
 21
-145.850303527643
 31
0.0
  0
LINE
  5
7C
330
70
100
AcDbEntity
  8
レイヤー 1
 62
   250
420
  2299925
370
    25
100
AcDbLine
 10
89.29356461334011
 20
-144.7506273808528
 30
0.0
 11
89.29356461334011
 21
-145.850303527643
 31
0.0
  0
LINE
  5
7D
330
70
100
AcDbEntity
  8
レイヤー 1
 62
   250
420
  2299925
370
    25
100
AcDbLine
 10
102.3938968322872
 20
-144.7506273808528
 30
0.0
 11
102.3938968322872
 21
-150.7506011166696
 31
0.0
  0
LINE
  5
7E
330
70
100
AcDbEntity
  8
レイヤー 1
 62
   250
420
  2299925
370
    25
100
AcDbLine
 10
118.2911205689387
 20
-150.7506011166696
 30
0.0
 11
118.2911205689387
 21
-151.1509333286785
 31
0.0
  0
LINE
  5
7F
330
70
100
AcDbEntity
  8
レイヤー 1
 62
   250
420
  2299925
370
    25
100
AcDbLine
 10
102.3938968322872
 20
-150.7506011166696
 30
0.0
 11
118.2911205689387
 21
-150.7506011166696
 31
0.0
  0
LINE
  5
80
330
70
100
AcDbEntity
  8
レイヤー 1
 62
   250
420
  2299925
370
    25
100
AcDbLine
 10
118.2911205689387
 20
-151.1509333286785
 30
0.0
 11
101.2935123881175
 21
-151.8502799775034
 31
0.0
  0
SPLINE
  5
81
330
70
100
AcDbEntity
  8
レイヤー 1
 62
   250
420
  2299925
370
     9
100
AcDbSpline
210
0.0
220
0.0
230
1.0
 70
     9
 71
     3
 72
    17
 73
    13
 74
     0
 42
0.0000000001
 43
0.0000000001
 40
0.0
 40
0.0
 40
0.0
 40
0.0
 40
1.0
 40
1.0
 40
1.0
 40
2.0
 40
2.0
 40
2.0
 40
3.0
 40
3.0
 40
3.0
 40
4.0
 40
4.0
 40
4.0
 40
4.0
 10
122.3907862976809
 20
-144.7506273808528
 30
0.0
 10
122.3907862976809
 20
-144.6954882155929
 30
0.0
 10
122.3459835210461
 20
-144.650720716735
 30
0.0
 10
122.2901740780255
 20
-144.650720716735
 30
0.0
 10
122.2350701905424
 20
-144.650720716735
 30
0.0
 10
122.1902674139077
 20
-144.6954882155929
 30
0.0
 10
122.1902674139077
 20
-144.7506273808528
 30
0.0
 10
122.1902674139077
 20
-144.8057285279037
 30
0.0
 10
122.2350701905424
 20
-144.8505313056704
 30
0.0
 10
122.2901740780255
 20
-144.8505313056704
 30
0.0
 10
122.3459835210461
 20
-144.8505313056704
 30
0.0
 10
122.3907862976809
 20
-144.8057285279037
 30
0.0
 10
122.3907862976809
 20
-144.7506273808528
 30
0.0
  0
SPLINE
  5
82
330
70
100
AcDbEntity
  8
レイヤー 1
 62
   250
420
  2299925
370
     9
100
AcDbSpline
210
0.0
220
0.0
230
1.0
 70
     9
 71
     3
 72
    17
 73
    13
 74
     0
 42
0.0000000001
 43
0.0000000001
 40
0.0
 40
0.0
 40
0.0
 40
0.0
 40
1.0
 40
1.0
 40
1.0
 40
2.0
 40
2.0
 40
2.0
 40
3.0
 40
3.0
 40
3.0
 40
4.0
 40
4.0
 40
4.0
 40
4.0
 10
122.3907862976809
 20
-150.7506011166696
 30
0.0
 10
122.3907862976809
 20
-150.6954972291866
 30
0.0
 10
122.3459835210461
 20
-150.6506944525518
 30
0.0
 10
122.2901740780255
 20
-150.6506944525518
 30
0.0
 10
122.2350701905424
 20
-150.6506944525518
 30
0.0
 10
122.1902674139077
 20
-150.6954972291866
 30
0.0
 10
122.1902674139077
 20
-150.7506011166696
 30
0.0
 10
122.1902674139077
 20
-150.8057402819296
 30
0.0
 10
122.2350701905424
 20
-150.8505077807875
 30
0.0
 10
122.2901740780255
 20
-150.8505077807875
 30
0.0
 10
122.3459835210461
 20
-150.8505077807875
 30
0.0
 10
122.3907862976809
 20
-150.8057402819296
 30
0.0
 10
122.3907862976809
 20
-150.7506011166696
 30
0.0
  0
SPLINE
  5
83
330
70
100
AcDbEntity
  8
レイヤー 1
 62
   250
420
  2299925
370
     9
100
AcDbSpline
210
0.0
220
0.0
230
1.0
 70
     9
 71
     3
 72
    17
 73
    13
 74
     0
 42
0.0000000001
 43
0.0000000001
 40
0.0
 40
0.0
 40
0.0
 40
0.0
 40
1.0
 40
1.0
 40
1.0
 40
2.0
 40
2.0
 40
2.0
 40
3.0
 40
3.0
 40
3.0
 40
4.0
 40
4.0
 40
4.0
 40
4.0
 10
122.3907862976809
 20
-151.1509333286785
 30
0.0
 10
122.3907862976809
 20
-151.0951238856579
 30
0.0
 10
122.3459835210461
 20
-151.0503211090231
 30
0.0
 10
122.2901740780255
 20
-151.0503211090231
 30
0.0
 10
122.2350701905424
 20
-151.0503211090231
 30
0.0
 10
122.1902674139077
 20
-151.0951238856579
 30
0.0
 10
122.1902674139077
 20
-151.1509333286785
 30
0.0
 10
122.1902674139077
 20
-151.2053669384009
 30
0.0
 10
122.2350701905424
 20
-151.2501344372588
 30
0.0
 10
122.2901740780255
 20
-151.2501344372588
 30
0.0
 10
122.3459835210461
 20
-151.2501344372588
 30
0.0
 10
122.3907862976809
 20
-151.2053669384009
 30
0.0
 10
122.3907862976809
 20
-151.1509333286785
 30
0.0
  0
CIRCLE
  5
84
330
70
100
AcDbEntity
  8
レイヤー 1
 62
   250
420
  2299925
370
     9
100
AcDbCircle
 10
118.2911205689389
 20
-155.8500390421277
 30
0.0
 40
0.0999066641179156
  0
CIRCLE
  5
85
330
70
100
AcDbEntity
  8
レイヤー 1
 62
   250
420
  2299925
370
     9
100
AcDbCircle
 10
89.29356461334011
 20
-155.8500390421277
 30
0.0
 40
0.0999066653797365
  0
SPLINE
  5
86
330
70
100
AcDbEntity
  8
レイヤー 1
 62
   250
420
  2299925
370
     9
100
AcDbSpline
210
0.0
220
0.0
230
1.0
 70
     9
 71
     3
 72
    17
 73
    13
 74
     0
 42
0.0000000001
 43
0.0000000001
 40
0.0
 40
0.0
 40
0.0
 40
0.0
 40
1.0
 40
1.0
 40
1.0
 40
2.0
 40
2.0
 40
2.0
 40
3.0
 40
3.0
 40
3.0
 40
4.0
 40
4.0
 40
4.0
 40
4.0
 10
87.16589128053856
 20
-144.7506273808528
 30
0.0
 10
87.16589128053856
 20
-144.6954882155929
 30
0.0
 10
87.12108850277216
 20
-144.650720716735
 30
0.0
 10
87.06598461389724
 20
-144.650720716735
 30
0.0
 10
87.0104926694664
 20
-144.650720716735
 30
0.0
 10
86.96572516947721
 20
-144.6954882155929
 30
0.0
 10
86.96572516947721
 20
-144.7506273808528
 30
0.0
 10
86.96572516947721
 20
-144.8057285279037
 30
0.0
 10
87.0104926694664
 20
-144.8505313056704
 30
0.0
 10
87.06598461389724
 20
-144.8505313056704
 30
0.0
 10
87.12108850277216
 20
-144.8505313056704
 30
0.0
 10
87.16589128053856
 20
-144.8057285279037
 30
0.0
 10
87.16589128053856
 20
-144.7506273808528
 30
0.0
  0
SPLINE
  5
87
330
70
100
AcDbEntity
  8
レイヤー 1
 62
   250
420
  2299925
370
     9
100
AcDbSpline
210
0.0
220
0.0
230
1.0
 70
     9
 71
     3
 72
    17
 73
    13
 74
     0
 42
0.0000000001
 43
0.0000000001
 40
0.0
 40
0.0
 40
0.0
 40
0.0
 40
1.0
 40
1.0
 40
1.0
 40
2.0
 40
2.0
 40
2.0
 40
3.0
 40
3.0
 40
3.0
 40
4.0
 40
4.0
 40
4.0
 40
4.0
 10
87.16589128053856
 20
-145.850303527643
 30
0.0
 10
87.16589128053856
 20
-145.7951670764266
 30
0.0
 10
87.12108850277216
 20
-145.7503995775687
 30
0.0
 10
87.06598461389724
 20
-145.7503995775687
 30
0.0
 10
87.0104926694664
 20
-145.7503995775687
 30
0.0
 10
86.96572516947721
 20
-145.7951670764266
 30
0.0
 10
86.96572516947721
 20
-145.850303527643
 30
0.0
 10
86.96572516947721
 20
-145.9061156847072
 30
0.0
 10
87.0104926694664
 20
-145.9508831835651
 30
0.0
 10
87.06598461389724
 20
-145.9508831835651
 30
0.0
 10
87.12108850277216
 20
-145.9508831835651
 30
0.0
 10
87.16589128053856
 20
-145.9061156847072
 30
0.0
 10
87.16589128053856
 20
-145.850303527643
 30
0.0
  0
SPLINE
  5
88
330
70
100
AcDbEntity
  8
レイヤー 1
 62
   250
420
  2299925
370
     9
100
AcDbSpline
210
0.0
220
0.0
230
1.0
 70
     9
 71
     3
 72
    17
 73
    13
 74
     0
 42
0.0000000001
 43
0.0000000001
 40
0.0
 40
0.0
 40
0.0
 40
0.0
 40
1.0
 40
1.0
 40
1.0
 40
2.0
 40
2.0
 40
2.0
 40
3.0
 40
3.0
 40
3.0
 40
4.0
 40
4.0
 40
4.0
 40
4.0
 10
101.3941246103149
 20
-155.8500390421277
 30
0.0
 10
101.3941246103149
 20
-155.7948998768677
 30
0.0
 10
101.3493571103264
 20
-155.7501323780098
 30
0.0
 10
101.2935123881175
 20
-155.7501323780098
 30
0.0
 10
101.2384084992425
 20
-155.7501323780098
 30
0.0
 10
101.1936057214761
 20
-155.7948998768677
 30
0.0
 10
101.1936057214761
 20
-155.8500390421277
 30
0.0
 10
101.1936057214761
 20
-155.9051429296108
 30
0.0
 10
101.2384084992425
 20
-155.9499457062455
 30
0.0
 10
101.2935123881175
 20
-155.9499457062455
 30
0.0
 10
101.3493571103264
 20
-155.9499457062455
 30
0.0
 10
101.3941246103149
 20
-155.9051429296108
 30
0.0
 10
101.3941246103149
 20
-155.8500390421277
 30
0.0
  0
LINE
  5
89
330
70
100
AcDbEntity
  8
レイヤー 1
 62
   250
420
  2299925
370
     9
100
AcDbLine
 10
101.2935123881175
 20
-155.8500390421277
 30
0.0
 11
118.2911205689387
 21
-155.8500390421277
 31
0.0
  0
LINE
  5
8A
330
70
100
AcDbEntity
  8
レイヤー 1
 62
   250
420
  2299925
370
     9
100
AcDbLine
 10
118.2911205689387
 20
-153.6899454861251
 30
0.0
 11
118.2911205689387
 21
-156.8504815166043
 31
0.0
  0
INSERT
  5
8C
330
70
100
AcDbEntity
  8
レイヤー 1
100
AcDbBlockReference
  2
Block_0
 10
0.0
 20
0.0
 30
0.0
  0
LINE
  5
97
330
70
100
AcDbEntity
  8
レイヤー 1
 62
   250
420
  2299925
370
     9
100
AcDbLine
 10
122.2901740780255
 20
-150.7506011166696
 30
0.0
 11
122.2901740780255
 21
-144.7506273808528
 31
0.0
  0
LINE
  5
98
330
70
100
AcDbEntity
  8
レイヤー 1
 62
   250
420
  2299925
370
     9
100
AcDbLine
 10
104.9336136874949
 20
-144.7506273808528
 30
0.0
 11
123.2904754413946
 21
-144.7506273808528
 31
0.0
  0
INSERT
  5
9A
330
70
100
AcDbEntity
  8
レイヤー 1
100
AcDbBlockReference
  2
Block_2
 10
0.0
 20
0.0
 30
0.0
  0
LINE
  5
A0
330
70
100
AcDbEntity
  8
レイヤー 1
 62
   250
420
  2299925
370
     9
100
AcDbLine
 10
87.06598461389724
 20
-144.7506273808528
 30
0.0
 11
87.06598461389724
 21
-143.7505024063681
 31
0.0
  0
LINE
  5
A1
330
70
100
AcDbEntity
  8
レイヤー 1
 62
   250
420
  2299925
370
     9
100
AcDbLine
 10
87.06598461389724
 20
-144.7506273808528
 30
0.0
 11
87.06598461389724
 21
-146.8507487161631
 31
0.0
  0
LINE
  5
A2
330
70
100
AcDbEntity
  8
レイヤー 1
 62
   250
420
  2299925
370
     9
100
AcDbLine
 10
88.5256732246432
 20
-144.7506273808528
 30
0.0
 11
86.06550683636918
 21
-144.7506273808528
 31
0.0
  0
LINE
  5
A3
330
70
100
AcDbEntity
  8
レイヤー 1
 62
   250
420
  2299925
370
     9
100
AcDbLine
 10
88.5256732246432
 20
-145.850303527643
 30
0.0
 11
86.06550683636918
 21
-145.850303527643
 31
0.0
  0
INSERT
  5
A5
330
70
100
AcDbEntity
  8
レイヤー 1
100
AcDbBlockReference
  2
Block_3
 10
0.0
 20
0.0
 30
0.0
  0
LINE
  5
B2
330
70
100
AcDbEntity
  8
レイヤー 1
 62
   250
420
  2299925
370
     9
100
AcDbLine
 10
122.2901740780255
 20
-151.1509333286785
 30
0.0
 11
122.2901740780255
 21
-152.1499999698569
 31
0.0
  0
LINE
  5
B3
330
70
100
AcDbEntity
  8
レイヤー 1
 62
   250
420
  2299925
370
     9
100
AcDbLine
 10
122.2901740780255
 20
-150.7506011166696
 30
0.0
 11
122.2901740780255
 21
-151.1509333286785
 31
0.0
  0
LINE
  5
B4
330
70
100
AcDbEntity
  8
レイヤー 1
 62
   250
420
  2299925
370
     9
100
AcDbLine
 10
120.8304855041541
 20
-150.7506011166696
 30
0.0
 11
123.2904754413946
 21
-150.7506011166696
 31
0.0
  0
LINE
  5
B5
330
70
100
AcDbEntity
  8
レイヤー 1
 62
   250
420
  2299925
370
     9
100
AcDbLine
 10
120.8304855041541
 20
-151.1509333286785
 30
0.0
 11
123.2904754413946
 21
-151.1509333286785
 31
0.0
  0
INSERT
  5
B7
330
70
100
AcDbEntity
  8
レイヤー 1
100
AcDbBlockReference
  2
Block_5
 10
0.0
 20
0.0
 30
0.0
  0
LINE
  5
C6
330
70
100
AcDbEntity
  8
レイヤー 1
 62
   250
420
  2299925
370
     9
100
AcDbLine
 10
89.29356461334011
 20
-155.8500390421277
 30
0.0
 11
101.2935123881175
 21
-155.8500390421277
 31
0.0
  0
LINE
  5
C7
330
70
100
AcDbEntity
  8
レイヤー 1
 62
   250
420
  2299925
370
     9
100
AcDbLine
 10
89.29356461334011
 20
-148.3907295102083
 30
0.0
 11
89.29356461334011
 21
-156.8504815166043
 31
0.0
  0
LINE
  5
C8
330
70
100
AcDbEntity
  8
レイヤー 1
 62
   250
420
  2299925
370
     9
100
AcDbLine
 10
101.2935123881175
 20
-154.3899951921742
 30
0.0
 11
101.2935123881175
 21
-156.8504815166043
 31
0.0
  0
INSERT
  5
CA
330
70
100
AcDbEntity
  8
レイヤー 1
100
AcDbBlockReference
  2
Block_7
 10
0.0
 20
0.0
 30
0.0
  0
LINE
  5
D5
330
70
100
AcDbEntity
  8
レイヤー 1
  6
AI-Linetype-0
 62
   154
420
    23468
370
    25
100
AcDbLine
 10
89.31924683555587
 20
-146.6271581663119
 30
0.0
 11
100.4386259994425
 21
-146.6271581663119
 31
0.0
  0
LINE
  5
D7
330
70
100
AcDbEntity
  8
レイヤー 1
  6
AI-Linetype-1
 62
   154
420
    23468
370
    25
100
AcDbLine
 10
100.4386259994425
 20
-146.6271581663119
 30
0.0
 11
100.4386259994425
 21
-152.0769749717199
 31
0.0
  0
INSERT
  5
DA
330
70
100
AcDbEntity
  8
レイヤー 1
100
AcDbBlockReference
  2
Block_9
 10
0.0
 20
0.0
 30
0.0
  0
INSERT
  5
EF
330
70
100
AcDbEntity
  8
レイヤー 1
100
AcDbBlockReference
  2
Block_11
 10
0.0
 20
0.0
 30
0.0
  0
ENDSEC
  0
SECTION
  2
OBJECTS
  0
DICTIONARY
  5
C
330
0
100
AcDbDictionary
281
     1
  3
ACAD_COLOR
350
63
  3
ACAD_DETAILVIEWSTYLE
350
6A
  3
ACAD_GROUP
350
D
  3
ACAD_LAYOUT
350
62
  3
ACAD_MATERIAL
350
10
  3
ACAD_MLEADERSTYLE
350
66
  3
ACAD_MLINESTYLE
350
5F
  3
ACAD_PLOTSETTINGS
350
61
  3
ACAD_PLOTSTYLENAME
350
E
  3
ACAD_SCALELIST
350
42
  3
ACAD_SECTIONVIEWSTYLE
350
68
  3
ACAD_TABLESTYLE
350
64
  3
ACAD_VISUALSTYLE
350
29
  3
ACDB_RECOMPOSE_DATA
350
10F
  3
AcDbVariableDictionary
350
107
  0
DICTIONARY
  5
63
102
{ACAD_REACTORS
330
C
102
}
330
C
100
AcDbDictionary
281
     1
  0
DICTIONARY
  5
6A
102
{ACAD_REACTORS
330
C
102
}
330
C
100
AcDbDictionary
281
     1
  3
Imperial24
350
6B
  0
DICTIONARY
  5
D
102
{ACAD_REACTORS
330
C
102
}
330
C
100
AcDbDictionary
281
     1
  0
DICTIONARY
  5
62
102
{ACAD_REACTORS
330
C
102
}
330
C
100
AcDbDictionary
281
     1
  3
Layout1
350
6F
  3
Layout2
350
77
  3
Model
350
73
  0
DICTIONARY
  5
10
102
{ACAD_REACTORS
330
C
102
}
330
C
100
AcDbDictionary
281
     1
  3
ByBlock
350
19
  3
ByLayer
350
11
  3
Global
350
21
  0
DICTIONARY
  5
66
102
{ACAD_REACTORS
330
C
102
}
330
C
100
AcDbDictionary
281
     1
  3
Standard
350
67
  0
DICTIONARY
  5
5F
102
{ACAD_REACTORS
330
C
102
}
330
C
100
AcDbDictionary
281
     1
  3
Standard
350
60
  0
DICTIONARY
  5
61
102
{ACAD_REACTORS
330
C
102
}
330
C
100
AcDbDictionary
281
     1
  0
ACDBDICTIONARYWDFLT
  5
E
102
{ACAD_REACTORS
330
C
102
}
330
C
100
AcDbDictionary
281
     1
  3
Normal
350
F
100
AcDbDictionaryWithDefault
340
F
  0
DICTIONARY
  5
42
102
{ACAD_REACTORS
330
C
102
}
330
C
100
AcDbDictionary
281
     1
  3
A0
350
43
  3
A1
350
44
  3
A2
350
45
  3
A3
350
46
  3
A4
350
47
  3
A5
350
48
  3
A6
350
49
  3
A7
350
4A
  3
A8
350
4B
  3
A9
350
4C
  3
B0
350
4D
  3
B1
350
4E
  3
B2
350
4F
  3
B3
350
50
  3
B4
350
51
  3
B5
350
52
  3
B6
350
53
  0
DICTIONARY
  5
68
102
{ACAD_REACTORS
330
C
102
}
330
C
100
AcDbDictionary
281
     1
  3
Imperial24
350
69
  0
DICTIONARY
  5
64
102
{ACAD_REACTORS
330
C
102
}
330
C
100
AcDbDictionary
281
     1
  3
Standard
350
65
  0
DICTIONARY
  5
29
102
{ACAD_REACTORS
330
C
102
}
330
C
100
AcDbDictionary
281
     1
  3
2dWireframe
350
2F
  3
Basic
350
2E
  3
Brighten
350
35
  3
ColorChange
350
39
  3
Conceptual
350
32
  3
Dim
350
34
  3
EdgeColorOff
350
41
  3
Facepattern
350
38
  3
Flat
350
2A
  3
FlatWithEdges
350
2B
  3
Gouraud
350
2C
  3
GouraudWithEdges
350
2D
  3
Hidden
350
31
  3
JitterOff
350
3F
  3
Linepattern
350
37
  3
OverhangOff
350
40
  3
Realistic
350
33
  3
Shaded
350
3E
  3
Shaded with edges
350
3D
  3
Shades of Gray
350
3A
  3
Sketchy
350
3B
  3
Thicken
350
36
  3
Wireframe
350
30
  3
X-Ray
350
3C
  0
XRECORD
  5
10F
102
{ACAD_REACTORS
330
C
102
}
330
C
100
AcDbXrecord
280
     1
 90
        1
330
65
  0
DICTIONARY
  5
107
102
{ACAD_REACTORS
330
C
102
}
330
C
100
AcDbDictionary
281
     1
  3
CANNOSCALE
350
10C
  3
CMLEADERSTYLE
350
109
  3
CTABLESTYLE
350
108
  3
CVIEWDETAILSTYLE
350
10A
  3
CVIEWSECTIONSTYLE
350
10B
  0
ACDBDETAILVIEWSTYLE
  5
6B
102
{ACAD_XDICTIONARY
360
144
102
}
102
{ACAD_REACTORS
330
6A
102
}
330
6A
100
AcDbModelDocViewStyle
 70
     0
  3
Imperial24
290
     0
100
AcDbDetailViewStyle
 70
     0
 71
     0
 90
        3
 71
     1
340
55
 62
   256
 40
0.24
340
0
 62
   256
 40
0.24
300

 40
0.36
280
     3
 71
     2
340
5D
 90
       25
 62
   256
 71
     3
340
55
 62
   256
 40
0.24
 90
        1
 40
0.75
 90
        1
300
%<\AcVar ViewType \f "%tc1">% %<\AcVar ViewDetailId>%\PSCALE %<\AcVar ViewScale \f "%sn">%
 71
     4
340
5D
 90
       25
 62
   256
340
5D
 90
       25
 62
   256
280
     0
  0
LAYOUT
  5
6F
102
{ACAD_REACTORS
330
62
102
}
330
62
100
AcDbPlotSettings
  1

  2

  4

  6

 40
0.0
 41
0.0
 42
0.0
 43
0.0
 44
0.0
 45
0.0
 46
0.0
 47
0.0
 48
0.0
 49
0.0
140
0.0
141
0.0
142
1.0
143
1.0
 70
   688
 72
     0
 73
     0
 74
     5
  7

 75
    16
147
1.0
 76
     0
 77
     2
 78
   300
148
0.0
149
0.0
100
AcDbLayout
  1
Layout1
 70
     1
 71
     1
 10
0.0
 20
0.0
 11
12.0
 21
9.0
 12
0.0
 22
0.0
 32
0.0
 14
0.0
 24
0.0
 34
0.0
 15
0.0
 25
0.0
 35
0.0
146
0.0
 13
0.0
 23
0.0
 33
0.0
 16
1.0
 26
0.0
 36
0.0
 17
0.0
 27
1.0
 37
0.0
 76
     0
330
6C
  0
LAYOUT
  5
77
102
{ACAD_REACTORS
330
62
102
}
330
62
100
AcDbPlotSettings
  1

  2

  4

  6

 40
0.0
 41
0.0
 42
0.0
 43
0.0
 44
0.0
 45
0.0
 46
0.0
 47
0.0
 48
0.0
 49
0.0
140
0.0
141
0.0
142
1.0
143
1.0
 70
   688
 72
     0
 73
     0
 74
     5
  7

 75
    16
147
1.0
 76
     0
 77
     2
 78
   300
148
0.0
149
0.0
100
AcDbLayout
  1
Layout2
 70
     1
 71
     2
 10
0.0
 20
0.0
 11
12.0
 21
9.0
 12
0.0
 22
0.0
 32
0.0
 14
0.0
 24
0.0
 34
0.0
 15
0.0
 25
0.0
 35
0.0
146
0.0
 13
0.0
 23
0.0
 33
0.0
 16
1.0
 26
0.0
 36
0.0
 17
0.0
 27
1.0
 37
0.0
 76
     0
330
74
  0
LAYOUT
  5
73
102
{ACAD_REACTORS
330
62
102
}
330
62
100
AcDbPlotSettings
  1

  2

  4

  6

 40
0.0
 41
0.0
 42
0.0
 43
0.0
 44
0.0
 45
0.0
 46
0.0
 47
0.0
 48
0.0
 49
0.0
140
0.0
141
0.0
142
1.0
143
1.0
 70
  1712
 72
     0
 73
     0
 74
     0
  7

 75
     0
147
1.0
 76
     0
 77
     2
 78
   300
148
0.0
149
0.0
100
AcDbLayout
  1
Model
 70
     1
 71
     0
 10
0.0
 20
0.0
 11
12.0
 21
9.0
 12
0.0
 22
0.0
 32
0.0
 14
0.0
 24
0.0
 34
0.0
 15
0.0
 25
0.0
 35
0.0
146
0.0
 13
0.0
 23
0.0
 33
0.0
 16
1.0
 26
0.0
 36
0.0
 17
0.0
 27
1.0
 37
0.0
 76
     0
330
70
  0
MATERIAL
  5
19
102
{ACAD_XDICTIONARY
360
1A
102
}
102
{ACAD_REACTORS
330
10
102
}
330
10
100
AcDbMaterial
  1
ByBlock
 72
     0
 43
0.0208333333333333
 43
0.0
 43
0.0
 43
0.0
 43
0.0
 43
0.0208333333333333
 43
0.0
 43
0.0
 43
0.0
 43
0.0
 43
1.0
 43
0.0
 43
0.0
 43
0.0
 43
0.0
 43
1.0
 77
     0
 47
0.0208333333333333
 47
0.0
 47
0.0
 47
0.0
 47
0.0
 47
0.0208333333333333
 47
0.0
 47
0.0
 47
0.0
 47
0.0
 47
1.0
 47
0.0
 47
0.0
 47
0.0
 47
0.0
 47
1.0
171
     0
 49
0.0208333333333333
 49
0.0
 49
0.0
 49
0.0
 49
0.0
 49
0.0208333333333333
 49
0.0
 49
0.0
 49
0.0
 49
0.0
 49
1.0
 49
0.0
 49
0.0
 49
0.0
 49
0.0
 49
1.0
175
     0
142
0.0208333333333333
142
0.0
142
0.0
142
0.0
142
0.0
142
0.0208333333333333
142
0.0
142
0.0
142
0.0
142
0.0
142
1.0
142
0.0
142
0.0
142
0.0
142
0.0
142
1.0
179
     0
144
0.0208333333333333
144
0.0
144
0.0
144
0.0
144
0.0
144
0.0208333333333333
144
0.0
144
0.0
144
0.0
144
0.0
144
1.0
144
0.0
144
0.0
144
0.0
144
0.0
144
1.0
147
0.0208333333333333
147
0.0
147
0.0
147
0.0
147
0.0
147
0.0208333333333333
147
0.0
147
0.0
147
0.0
147
0.0
147
1.0
147
0.0
147
0.0
147
0.0
147
0.0
147
1.0
  0
MATERIAL
  5
11
102
{ACAD_XDICTIONARY
360
12
102
}
102
{ACAD_REACTORS
330
10
102
}
330
10
100
AcDbMaterial
  1
ByLayer
 72
     0
 43
0.0208333333333333
 43
0.0
 43
0.0
 43
0.0
 43
0.0
 43
0.0208333333333333
 43
0.0
 43
0.0
 43
0.0
 43
0.0
 43
1.0
 43
0.0
 43
0.0
 43
0.0
 43
0.0
 43
1.0
 77
     0
 47
0.0208333333333333
 47
0.0
 47
0.0
 47
0.0
 47
0.0
 47
0.0208333333333333
 47
0.0
 47
0.0
 47
0.0
 47
0.0
 47
1.0
 47
0.0
 47
0.0
 47
0.0
 47
0.0
 47
1.0
171
     0
 49
0.0208333333333333
 49
0.0
 49
0.0
 49
0.0
 49
0.0
 49
0.0208333333333333
 49
0.0
 49
0.0
 49
0.0
 49
0.0
 49
1.0
 49
0.0
 49
0.0
 49
0.0
 49
0.0
 49
1.0
175
     0
142
0.0208333333333333
142
0.0
142
0.0
142
0.0
142
0.0
142
0.0208333333333333
142
0.0
142
0.0
142
0.0
142
0.0
142
1.0
142
0.0
142
0.0
142
0.0
142
0.0
142
1.0
179
     0
144
0.0208333333333333
144
0.0
144
0.0
144
0.0
144
0.0
144
0.0208333333333333
144
0.0
144
0.0
144
0.0
144
0.0
144
1.0
144
0.0
144
0.0
144
0.0
144
0.0
144
1.0
147
0.0208333333333333
147
0.0
147
0.0
147
0.0
147
0.0
147
0.0208333333333333
147
0.0
147
0.0
147
0.0
147
0.0
147
1.0
147
0.0
147
0.0
147
0.0
147
0.0
147
1.0
  0
MATERIAL
  5
21
102
{ACAD_XDICTIONARY
360
22
102
}
102
{ACAD_REACTORS
330
10
102
}
330
10
100
AcDbMaterial
  1
Global
 72
     0
 43
0.0208333333333333
 43
0.0
 43
0.0
 43
0.0
 43
0.0
 43
0.0208333333333333
 43
0.0
 43
0.0
 43
0.0
 43
0.0
 43
1.0
 43
0.0
 43
0.0
 43
0.0
 43
0.0
 43
1.0
 77
     0
 47
0.0208333333333333
 47
0.0
 47
0.0
 47
0.0
 47
0.0
 47
0.0208333333333333
 47
0.0
 47
0.0
 47
0.0
 47
0.0
 47
1.0
 47
0.0
 47
0.0
 47
0.0
 47
0.0
 47
1.0
171
     0
 49
0.0208333333333333
 49
0.0
 49
0.0
 49
0.0
 49
0.0
 49
0.0208333333333333
 49
0.0
 49
0.0
 49
0.0
 49
0.0
 49
1.0
 49
0.0
 49
0.0
 49
0.0
 49
0.0
 49
1.0
175
     0
142
0.0208333333333333
142
0.0
142
0.0
142
0.0
142
0.0
142
0.0208333333333333
142
0.0
142
0.0
142
0.0
142
0.0
142
1.0
142
0.0
142
0.0
142
0.0
142
0.0
142
1.0
179
     0
144
0.0208333333333333
144
0.0
144
0.0
144
0.0
144
0.0
144
0.0208333333333333
144
0.0
144
0.0
144
0.0
144
0.0
144
1.0
144
0.0
144
0.0
144
0.0
144
0.0
144
1.0
147
0.0208333333333333
147
0.0
147
0.0
147
0.0
147
0.0
147
0.0208333333333333
147
0.0
147
0.0
147
0.0
147
0.0
147
1.0
147
0.0
147
0.0
147
0.0
147
0.0
147
1.0
  0
MLEADERSTYLE
  5
67
102
{ACAD_XDICTIONARY
360
140
102
}
102
{ACAD_REACTORS
330
66
102
}
330
66
100
AcDbMLeaderStyle
179
     2
170
     2
171
     1
172
     0
 90
        2
 40
0.0
 41
0.0
173
     1
 91
-1056964608
340
5B
 92
       -2
290
     1
 42
0.09
291
     1
 43
0.36
  3
Standard
 44
0.18
300

342
55
174
     1
178
     6
175
     1
176
     0
 93
-1056964608
 45
0.18
292
     0
297
     0
 46
0.18
 94
-1056964608
 47
1.0
 49
1.0
140
1.0
293
     1
141
0.0
294
     1
177
     0
142
1.0
295
     0
296
     0
143
0.125
271
     0
272
     9
273
     9
  0
MLINESTYLE
  5
60
102
{ACAD_REACTORS
330
5F
102
}
330
5F
100
AcDbMlineStyle
  2
STANDARD
 70
     0
  3

 62
   256
 51
90.0
 52
90.0
 71
     2
 49
0.5
 62
   256
  6
BYLAYER
 49
-0.5
 62
   256
  6
BYLAYER
  0
ACDBPLACEHOLDER
  5
F
102
{ACAD_REACTORS
330
E
102
}
330
E
  0
SCALE
  5
43
102
{ACAD_REACTORS
330
42
102
}
330
42
100
AcDbScale
 70
     0
300
1:1
140
1.0
141
1.0
290
     1
  0
SCALE
  5
44
102
{ACAD_REACTORS
330
42
102
}
330
42
100
AcDbScale
 70
     0
300
1/128" = 1'-0"
140
0.0078125
141
12.0
290
     0
  0
SCALE
  5
45
102
{ACAD_REACTORS
330
42
102
}
330
42
100
AcDbScale
 70
     0
300
1/64" = 1'-0"
140
0.015625
141
12.0
290
     0
  0
SCALE
  5
46
102
{ACAD_REACTORS
330
42
102
}
330
42
100
AcDbScale
 70
     0
300
1/32" = 1'-0"
140
0.03125
141
12.0
290
     0
  0
SCALE
  5
47
102
{ACAD_REACTORS
330
42
102
}
330
42
100
AcDbScale
 70
     0
300
1/16" = 1'-0"
140
0.0625
141
12.0
290
     0
  0
SCALE
  5
48
102
{ACAD_REACTORS
330
42
102
}
330
42
100
AcDbScale
 70
     0
300
3/32" = 1'-0"
140
0.09375
141
12.0
290
     0
  0
SCALE
  5
49
102
{ACAD_REACTORS
330
42
102
}
330
42
100
AcDbScale
 70
     0
300
1/8" = 1'-0"
140
0.125
141
12.0
290
     0
  0
SCALE
  5
4A
102
{ACAD_REACTORS
330
42
102
}
330
42
100
AcDbScale
 70
     0
300
3/16" = 1'-0"
140
0.1875
141
12.0
290
     0
  0
SCALE
  5
4B
102
{ACAD_REACTORS
330
42
102
}
330
42
100
AcDbScale
 70
     0
300
1/4" = 1'-0"
140
0.25
141
12.0
290
     0
  0
SCALE
  5
4C
102
{ACAD_REACTORS
330
42
102
}
330
42
100
AcDbScale
 70
     0
300
3/8" = 1'-0"
140
0.375
141
12.0
290
     0
  0
SCALE
  5
4D
102
{ACAD_REACTORS
330
42
102
}
330
42
100
AcDbScale
 70
     0
300
1/2" = 1'-0"
140
0.5
141
12.0
290
     0
  0
SCALE
  5
4E
102
{ACAD_REACTORS
330
42
102
}
330
42
100
AcDbScale
 70
     0
300
3/4" = 1'-0"
140
0.75
141
12.0
290
     0
  0
SCALE
  5
4F
102
{ACAD_REACTORS
330
42
102
}
330
42
100
AcDbScale
 70
     0
300
1" = 1'-0"
140
1.0
141
12.0
290
     0
  0
SCALE
  5
50
102
{ACAD_REACTORS
330
42
102
}
330
42
100
AcDbScale
 70
     0
300
1-1/2" = 1'-0"
140
1.5
141
12.0
290
     0
  0
SCALE
  5
51
102
{ACAD_REACTORS
330
42
102
}
330
42
100
AcDbScale
 70
     0
300
3" = 1'-0"
140
3.0
141
12.0
290
     0
  0
SCALE
  5
52
102
{ACAD_REACTORS
330
42
102
}
330
42
100
AcDbScale
 70
     0
300
6" = 1'-0"
140
6.0
141
12.0
290
     0
  0
SCALE
  5
53
102
{ACAD_REACTORS
330
42
102
}
330
42
100
AcDbScale
 70
     0
300
1'-0" = 1'-0"
140
12.0
141
12.0
290
     0
  0
ACDBSECTIONVIEWSTYLE
  5
69
102
{ACAD_XDICTIONARY
360
142
102
}
102
{ACAD_REACTORS
330
68
102
}
330
68
100
AcDbModelDocViewStyle
 70
     0
  3
Imperial24
290
     0
100
AcDbSectionViewStyle
 70
     0
 71
     0
 90
       78
 71
     1
340
55
 62
   256
 40
0.24
340
0
340
0
 62
   256
 40
0.24
300
I, O, Q, S, X, Z
 40
0.48
 90
        3
 40
0.18
 90
        1
 71
     2
340
5D
 90
       25
 62
   256
340
5D
 90
       50
 62
   256
 40
0.24
 40
0.0
 40
0.24
 71
     3
340
55
 62
   256
 40
0.24
 90
        1
 40
0.75
 90
        1
300
%<\AcVar ViewType \f "%tc1">% %<\AcVar ViewSectionStartId>%-%<\AcVar ViewSectionEndId>%\PSCALE %<\AcVar ViewScale \f "%sn">%
 71
     4
 62
   256
 62
   257
300
ANSI31
 40
1.0
 90
        0
290
     0
290
     0
 90
        6
 40
0.0
 40
1.570796326794896
 40
0.2617993877991494
 40
1.308996938995747
 40
-0.2617993877991494
 40
1.832595714594046
  0
TABLESTYLE
  5
65
102
{ACAD_XDICTIONARY
360
10D
102
}
102
{ACAD_REACTORS
330
64
102
}
330
64
100
AcDbTableStyle
280
     0
  3
Standard
 70
     0
 71
     0
 40
0.06
 41
0.06
280
     0
281
     0
  7
Standard
140
0.18
170
     2
 62
     0
 63
     7
283
     0
 90
      512
 91
        0
  1

274
    -2
284
     1
 64
     0
275
    -2
285
     1
 65
     0
276
    -2
286
     1
 66
     0
277
    -2
287
     1
 67
     0
278
    -2
288
     1
 68
     0
279
    -2
289
     1
 69
     0
  7
Standard
140
0.25
170
     5
 62
     0
 63
     7
283
     0
 90
      512
 91
        0
  1

274
    -2
284
     1
 64
     0
275
    -2
285
     1
 65
     0
276
    -2
286
     1
 66
     0
277
    -2
287
     1
 67
     0
278
    -2
288
     1
 68
     0
279
    -2
289
     1
 69
     0
  7
Standard
140
0.18
170
     5
 62
     0
 63
     7
283
     0
 90
      512
 91
        0
  1

274
    -2
284
     1
 64
     0
275
    -2
285
     1
 65
     0
276
    -2
286
     1
 66
     0
277
    -2
287
     1
 67
     0
278
    -2
288
     1
 68
     0
279
    -2
289
     1
 69
     0
  0
VISUALSTYLE
  5
2F
102
{ACAD_XDICTIONARY
360
11A
102
}
102
{ACAD_REACTORS
330
29
102
}
330
29
100
AcDbVisualStyle
  2
2dWireframe
 70
     4
177
     2
291
     0
 71
     0
176
     1
 72
     2
176
     1
 73
     0
176
     1
 90
        0
176
     1
 40
0.6
176
     1
 41
30.0
176
     1
 63
     7
421
 16777215
176
     1
 74
     1
176
     1
 91
        4
176
     1
 64
     7
176
     1
 65
   257
176
     1
 75
     1
176
     1
175
     1
176
     1
 42
1.0
176
     1
 92
        0
176
     1
 66
   257
176
     1
 43
1.0
176
     1
 76
     1
176
     1
 77
     6
176
     1
 78
     2
176
     1
 67
     7
176
     1
 79
     5
176
     1
170
     0
176
     1
171
     0
176
     1
290
     0
176
     1
 93
        1
176
     1
 44
0.0
176
     1
173
     0
176
     1
1001
ACAD
1000
AcDbSavedByObjectVersion
1070
     0
  0
VISUALSTYLE
  5
2E
102
{ACAD_XDICTIONARY
360
118
102
}
102
{ACAD_REACTORS
330
29
102
}
330
29
100
AcDbVisualStyle
  2
Basic
 70
     7
177
     2
291
     1
 71
     1
176
     1
 72
     0
176
     1
 73
     1
176
     1
 90
        0
176
     1
 40
0.6
176
     1
 41
30.0
176
     1
 63
     7
421
 16777215
176
     1
 74
     0
176
     1
 91
        4
176
     1
 64
     7
176
     1
 65
   257
176
     1
 75
     1
176
     1
175
     1
176
     1
 42
1.0
176
     1
 92
        8
176
     1
 66
     7
176
     1
 43
1.0
176
     1
 76
     1
176
     1
 77
     6
176
     1
 78
     2
176
     1
 67
     7
176
     1
 79
     5
176
     1
170
     0
176
     1
171
     0
176
     1
290
     0
176
     1
 93
        1
176
     1
 44
0.0
176
     1
173
     0
176
     1
1001
ACAD
1000
AcDbSavedByObjectVersion
1070
     0
  0
VISUALSTYLE
  5
35
102
{ACAD_XDICTIONARY
360
126
102
}
102
{ACAD_REACTORS
330
29
102
}
330
29
100
AcDbVisualStyle
  2
Brighten
 70
    12
177
     2
291
     1
 71
     2
176
     1
 72
     2
176
     1
 73
     0
176
     1
 90
        0
176
     1
 40
0.6
176
     1
 41
30.0
176
     1
 63
     7
421
 16777215
176
     1
 74
     1
176
     1
 91
        4
176
     1
 64
     7
176
     1
 65
   257
176
     1
 75
     1
176
     1
175
     1
176
     1
 42
1.0
176
     1
 92
        8
176
     1
 66
     7
176
     1
 43
1.0
176
     1
 76
     1
176
     1
 77
     6
176
     1
 78
     2
176
     1
 67
     7
176
     1
 79
     5
176
     1
170
     0
176
     1
171
     0
176
     1
290
     0
176
     1
 93
        1
176
     1
 44
50.0
176
     1
173
     0
176
     1
1001
ACAD
1000
AcDbSavedByObjectVersion
1070
     0
  0
VISUALSTYLE
  5
39
102
{ACAD_XDICTIONARY
360
12E
102
}
102
{ACAD_REACTORS
330
29
102
}
330
29
100
AcDbVisualStyle
  2
ColorChange
 70
    16
177
     2
291
     1
 71
     2
176
     1
 72
     2
176
     1
 73
     3
176
     1
 90
        0
176
     1
 40
0.6
176
     1
 41
30.0
176
     1
 63
     8
421
  8421504
176
     1
 74
     1
176
     1
 91
        4
176
     1
 64
     7
176
     1
 65
   257
176
     1
 75
     1
176
     1
175
     1
176
     1
 42
1.0
176
     1
 92
        8
176
     1
 66
     8
424
  8421504
176
     1
 43
1.0
176
     1
 76
     1
176
     1
 77
     6
176
     1
 78
     2
176
     1
 67
     7
176
     1
 79
     5
176
     1
170
     0
176
     1
171
     0
176
     1
290
     0
176
     1
 93
        1
176
     1
 44
0.0
176
     1
173
     0
176
     1
1001
ACAD
1000
AcDbSavedByObjectVersion
1070
     0
  0
VISUALSTYLE
  5
32
102
{ACAD_XDICTIONARY
360
120
102
}
102
{ACAD_REACTORS
330
29
102
}
330
29
100
AcDbVisualStyle
  2
Conceptual
 70
     9
177
     2
291
     0
 71
     3
176
     1
 72
     2
176
     1
 73
     0
176
     1
 90
        0
176
     1
 40
0.6
176
     1
 41
30.0
176
     1
 63
     7
421
 16777215
176
     1
 74
     2
176
     1
 91
        2
176
     1
 64
     7
176
     1
 65
   257
176
     1
 75
     1
176
     1
175
     1
176
     1
 42
179.0
176
     1
 92
        8
176
     1
 66
     7
176
     1
 43
1.0
176
     1
 76
     1
176
     1
 77
     6
176
     1
 78
     2
176
     1
 67
     7
176
     1
 79
     3
176
     1
170
     0
176
     1
171
     0
176
     1
290
     0
176
     1
 93
        1
176
     1
 44
0.0
176
     1
173
     0
176
     1
1001
ACAD
1000
AcDbSavedByObjectVersion
1070
     0
  0
VISUALSTYLE
  5
34
102
{ACAD_XDICTIONARY
360
124
102
}
102
{ACAD_REACTORS
330
29
102
}
330
29
100
AcDbVisualStyle
  2
Dim
 70
    11
177
     2
291
     1
 71
     2
176
     1
 72
     2
176
     1
 73
     0
176
     1
 90
        0
176
     1
 40
0.6
176
     1
 41
30.0
176
     1
 63
     7
421
 16777215
176
     1
 74
     1
176
     1
 91
        4
176
     1
 64
     7
176
     1
 65
   257
176
     1
 75
     1
176
     1
175
     1
176
     1
 42
1.0
176
     1
 92
        8
176
     1
 66
     7
176
     1
 43
1.0
176
     1
 76
     1
176
     1
 77
     6
176
     1
 78
     2
176
     1
 67
     7
176
     1
 79
     5
176
     1
170
     0
176
     1
171
     0
176
     1
290
     0
176
     1
 93
        1
176
     1
 44
-50.0
176
     1
173
     0
176
     1
1001
ACAD
1000
AcDbSavedByObjectVersion
1070
     0
  0
VISUALSTYLE
  5
41
102
{ACAD_XDICTIONARY
360
13E
102
}
102
{ACAD_REACTORS
330
29
102
}
330
29
100
AcDbVisualStyle
  2
EdgeColorOff
 70
    22
177
     2
291
     1
 71
     2
176
     0
 72
     2
176
     0
 73
     0
176
     0
 90
        0
176
     0
 40
0.6
176
     0
 41
30.0
176
     0
 63
     7
421
 16777215
176
     0
 74
     1
176
     0
 91
        4
176
     0
 64
     7
176
     0
 65
   257
176
     0
 75
     1
176
     0
175
     1
176
     0
 42
1.0
176
     0
 92
        8
176
     2
 66
     7
176
     0
 43
1.0
176
     0
 76
     1
176
     0
 77
     6
176
     0
 78
     2
176
     0
 67
     7
176
     0
 79
     5
176
     0
170
     0
176
     0
171
     0
176
     0
290
     0
176
     0
 93
        1
176
     0
 44
0.0
176
     0
173
     0
176
     0
1001
ACAD
1000
AcDbSavedByObjectVersion
1070
     0
  0
VISUALSTYLE
  5
38
102
{ACAD_XDICTIONARY
360
12C
102
}
102
{ACAD_REACTORS
330
29
102
}
330
29
100
AcDbVisualStyle
  2
Facepattern
 70
    15
177
     2
291
     1
 71
     2
176
     1
 72
     2
176
     1
 73
     0
176
     1
 90
        0
176
     1
 40
0.6
176
     1
 41
30.0
176
     1
 63
     7
421
 16777215
176
     1
 74
     1
176
     1
 91
        4
176
     1
 64
     7
176
     1
 65
   257
176
     1
 75
     1
176
     1
175
     1
176
     1
 42
1.0
176
     1
 92
        8
176
     1
 66
     7
176
     1
 43
1.0
176
     1
 76
     1
176
     1
 77
     6
176
     1
 78
     2
176
     1
 67
     7
176
     1
 79
     5
176
     1
170
     0
176
     1
171
     0
176
     1
290
     0
176
     1
 93
        1
176
     1
 44
0.0
176
     1
173
     0
176
     1
1001
ACAD
1000
AcDbSavedByObjectVersion
1070
     0
  0
VISUALSTYLE
  5
2A
102
{ACAD_XDICTIONARY
360
110
102
}
102
{ACAD_REACTORS
330
29
102
}
330
29
100
AcDbVisualStyle
  2
Flat
 70
     0
177
     2
291
     1
 71
     2
176
     1
 72
     1
176
     1
 73
     1
176
     1
 90
        2
176
     1
 40
0.6
176
     1
 41
30.0
176
     1
 63
     7
421
 16777215
176
     1
 74
     0
176
     1
 91
        0
176
     1
 64
     7
176
     1
 65
   257
176
     1
 75
     1
176
     1
175
     1
176
     1
 42
1.0
176
     1
 92
        8
176
     1
 66
     7
176
     1
 43
1.0
176
     1
 76
     1
176
     1
 77
     6
176
     1
 78
     2
176
     1
 67
     7
176
     1
 79
     5
176
     1
170
     0
176
     1
171
     0
176
     1
290
     0
176
     1
 93
       13
176
     1
 44
0.0
176
     1
173
     0
176
     1
1001
ACAD
1000
AcDbSavedByObjectVersion
1070
     0
  0
VISUALSTYLE
  5
2B
102
{ACAD_XDICTIONARY
360
112
102
}
102
{ACAD_REACTORS
330
29
102
}
330
29
100
AcDbVisualStyle
  2
FlatWithEdges
 70
     1
177
     2
291
     1
 71
     2
176
     1
 72
     1
176
     1
 73
     1
176
     1
 90
        2
176
     1
 40
0.6
176
     1
 41
30.0
176
     1
 63
     7
421
 16777215
176
     1
 74
     1
176
     1
 91
        0
176
     1
 64
     7
176
     1
 65
   257
176
     1
 75
     1
176
     1
175
     1
176
     1
 42
1.0
176
     1
 92
        0
176
     1
 66
   257
176
     1
 43
1.0
176
     1
 76
     1
176
     1
 77
     6
176
     1
 78
     2
176
     1
 67
     7
176
     1
 79
     5
176
     1
170
     0
176
     1
171
     0
176
     1
290
     0
176
     1
 93
       13
176
     1
 44
0.0
176
     1
173
     0
176
     1
1001
ACAD
1000
AcDbSavedByObjectVersion
1070
     0
  0
VISUALSTYLE
  5
2C
102
{ACAD_XDICTIONARY
360
114
102
}
102
{ACAD_REACTORS
330
29
102
}
330
29
100
AcDbVisualStyle
  2
Gouraud
 70
     2
177
     2
291
     1
 71
     2
176
     1
 72
     2
176
     1
 73
     1
176
     1
 90
        2
176
     1
 40
0.6
176
     1
 41
30.0
176
     1
 63
     7
421
 16777215
176
     1
 74
     0
176
     1
 91
        0
176
     1
 64
     7
176
     1
 65
   257
176
     1
 75
     1
176
     1
175
     1
176
     1
 42
1.0
176
     1
 92
        0
176
     1
 66
     7
176
     1
 43
1.0
176
     1
 76
     1
176
     1
 77
     6
176
     1
 78
     2
176
     1
 67
     7
176
     1
 79
     5
176
     1
170
     0
176
     1
171
     0
176
     1
290
     0
176
     1
 93
       13
176
     1
 44
0.0
176
     1
173
     0
176
     1
1001
ACAD
1000
AcDbSavedByObjectVersion
1070
     0
  0
VISUALSTYLE
  5
2D
102
{ACAD_XDICTIONARY
360
116
102
}
102
{ACAD_REACTORS
330
29
102
}
330
29
100
AcDbVisualStyle
  2
GouraudWithEdges
 70
     3
177
     2
291
     1
 71
     2
176
     1
 72
     2
176
     1
 73
     1
176
     1
 90
        2
176
     1
 40
0.6
176
     1
 41
30.0
176
     1
 63
     7
421
 16777215
176
     1
 74
     1
176
     1
 91
        0
176
     1
 64
     7
176
     1
 65
   257
176
     1
 75
     1
176
     1
175
     1
176
     1
 42
1.0
176
     1
 92
        0
176
     1
 66
   257
176
     1
 43
1.0
176
     1
 76
     1
176
     1
 77
     6
176
     1
 78
     2
176
     1
 67
     7
176
     1
 79
     5
176
     1
170
     0
176
     1
171
     0
176
     1
290
     0
176
     1
 93
       13
176
     1
 44
0.0
176
     1
173
     0
176
     1
1001
ACAD
1000
AcDbSavedByObjectVersion
1070
     0
  0
VISUALSTYLE
  5
31
102
{ACAD_XDICTIONARY
360
11E
102
}
102
{ACAD_REACTORS
330
29
102
}
330
29
100
AcDbVisualStyle
  2
Hidden
 70
     6
177
     2
291
     0
 71
     1
176
     1
 72
     2
176
     1
 73
     2
176
     1
 90
        0
176
     1
 40
0.6
176
     1
 41
30.0
176
     1
 63
     7
421
 16777215
176
     1
 74
     2
176
     1
 91
        2
176
     1
 64
     7
176
     1
 65
   257
176
     1
 75
     2
176
     1
175
     1
176
     1
 42
40.0
176
     1
 92
        0
176
     1
 66
   257
176
     1
 43
1.0
176
     1
 76
     1
176
     1
 77
     6
176
     1
 78
     2
176
     1
 67
     7
176
     1
 79
     3
176
     1
170
     0
176
     1
171
     0
176
     1
290
     0
176
     1
 93
        1
176
     1
 44
0.0
176
     1
173
     0
176
     1
1001
ACAD
1000
AcDbSavedByObjectVersion
1070
     0
  0
VISUALSTYLE
  5
3F
102
{ACAD_XDICTIONARY
360
13A
102
}
102
{ACAD_REACTORS
330
29
102
}
330
29
100
AcDbVisualStyle
  2
JitterOff
 70
    20
177
     2
291
     1
 71
     2
176
     0
 72
     2
176
     0
 73
     0
176
     0
 90
        0
176
     0
 40
0.6
176
     0
 41
30.0
176
     0
 63
     7
421
 16777215
176
     0
 74
     1
176
     0
 91
        4
176
     0
 64
     7
176
     0
 65
   257
176
     0
 75
     1
176
     0
175
     1
176
     0
 42
1.0
176
     0
 92
       10
176
     2
 66
     7
176
     0
 43
1.0
176
     0
 76
     1
176
     0
 77
     6
176
     0
 78
     2
176
     0
 67
     7
176
     0
 79
     5
176
     0
170
     0
176
     0
171
     0
176
     0
290
     0
176
     0
 93
        1
176
     0
 44
0.0
176
     0
173
     0
176
     0
1001
ACAD
1000
AcDbSavedByObjectVersion
1070
     0
  0
VISUALSTYLE
  5
37
102
{ACAD_XDICTIONARY
360
12A
102
}
102
{ACAD_REACTORS
330
29
102
}
330
29
100
AcDbVisualStyle
  2
Linepattern
 70
    14
177
     2
291
     1
 71
     2
176
     1
 72
     2
176
     1
 73
     0
176
     1
 90
        0
176
     1
 40
0.6
176
     1
 41
30.0
176
     1
 63
     7
421
 16777215
176
     1
 74
     1
176
     1
 91
        4
176
     1
 64
     7
176
     1
 65
   257
176
     1
 75
     7
176
     1
175
     7
176
     1
 42
1.0
176
     1
 92
        8
176
     1
 66
     7
176
     1
 43
1.0
176
     1
 76
     1
176
     1
 77
     6
176
     1
 78
     2
176
     1
 67
     7
176
     1
 79
     5
176
     1
170
     0
176
     1
171
     0
176
     1
290
     0
176
     1
 93
        1
176
     1
 44
0.0
176
     1
173
     0
176
     1
1001
ACAD
1000
AcDbSavedByObjectVersion
1070
     0
  0
VISUALSTYLE
  5
40
102
{ACAD_XDICTIONARY
360
13C
102
}
102
{ACAD_REACTORS
330
29
102
}
330
29
100
AcDbVisualStyle
  2
OverhangOff
 70
    21
177
     2
291
     1
 71
     2
176
     0
 72
     2
176
     0
 73
     0
176
     0
 90
        0
176
     0
 40
0.6
176
     0
 41
30.0
176
     0
 63
     7
421
 16777215
176
     0
 74
     1
176
     0
 91
        4
176
     0
 64
     7
176
     0
 65
   257
176
     0
 75
     1
176
     0
175
     1
176
     0
 42
1.0
176
     0
 92
        9
176
     2
 66
     7
176
     0
 43
1.0
176
     0
 76
     1
176
     0
 77
     6
176
     0
 78
     2
176
     0
 67
     7
176
     0
 79
     5
176
     0
170
     0
176
     0
171
     0
176
     0
290
     0
176
     0
 93
        1
176
     0
 44
0.0
176
     0
173
     0
176
     0
1001
ACAD
1000
AcDbSavedByObjectVersion
1070
     0
  0
VISUALSTYLE
  5
33
102
{ACAD_XDICTIONARY
360
122
102
}
102
{ACAD_REACTORS
330
29
102
}
330
29
100
AcDbVisualStyle
  2
Realistic
 70
     8
177
     2
291
     0
 71
     2
176
     1
 72
     3
176
     1
 73
     0
176
     1
 90
        2
176
     1
 40
0.6
176
     1
 41
30.0
176
     1
 63
     7
421
 16777215
176
     1
 74
     0
176
     1
 91
        0
176
     1
 64
     7
176
     1
 65
   257
176
     1
 75
     1
176
     1
175
     1
176
     1
 42
1.0
176
     1
 92
        8
176
     1
 66
   257
176
     1
 43
1.0
176
     1
 76
     1
176
     1
 77
     6
176
     1
 78
     2
176
     1
 67
     7
176
     1
 79
     3
176
     1
170
     0
176
     1
171
     0
176
     1
290
     0
176
     1
 93
       13
176
     1
 44
0.0
176
     1
173
     0
176
     1
1001
ACAD
1000
AcDbSavedByObjectVersion
1070
     0
  0
VISUALSTYLE
  5
3E
102
{ACAD_XDICTIONARY
360
138
102
}
102
{ACAD_REACTORS
330
29
102
}
330
29
100
AcDbVisualStyle
  2
Shaded
 70
    27
177
     2
291
     0
 71
     2
176
     1
 72
     2
176
     1
 73
     1
176
     1
 90
        2
176
     1
 40
0.6
176
     1
 41
30.0
176
     1
 63
     7
421
 16777215
176
     1
 74
     0
176
     1
 91
        4
176
     1
 64
     7
176
     1
 65
   257
176
     1
 75
     1
176
     1
175
     1
176
     1
 42
1.0
176
     1
 92
        8
176
     1
 66
   257
176
     1
 43
1.0
176
     1
 76
     1
176
     1
 77
     6
176
     1
 78
     2
176
     1
 67
     8
425
  7895160
176
     1
 79
     3
176
     1
170
     0
176
     1
171
     0
176
     1
290
     0
176
     1
 93
        5
176
     1
 44
0.0
176
     1
173
     0
176
     1
1001
ACAD
1000
AcDbSavedByObjectVersion
1070
     0
  0
VISUALSTYLE
  5
3D
102
{ACAD_XDICTIONARY
360
136
102
}
102
{ACAD_REACTORS
330
29
102
}
330
29
100
AcDbVisualStyle
  2
Shaded with edges
 70
    26
177
     2
291
     0
 71
     2
176
     1
 72
     2
176
     1
 73
     1
176
     1
 90
        2
176
     1
 40
0.6
176
     1
 41
30.0
176
     1
 63
     7
421
 16777215
176
     1
 74
     1
176
     1
 91
        2
176
     1
 64
     7
176
     1
 65
   257
176
     1
 75
     2
176
     1
175
     1
176
     1
 42
1.0
176
     1
 92
        8
176
     1
 66
   257
176
     1
 43
1.0
176
     1
 76
     1
176
     1
 77
     6
176
     1
 78
     2
176
     1
 67
     7
176
     1
 79
     3
176
     1
170
     0
176
     1
171
     0
176
     1
290
     0
176
     1
 93
        5
176
     1
 44
0.0
176
     1
173
     0
176
     1
1001
ACAD
1000
AcDbSavedByObjectVersion
1070
     0
  0
VISUALSTYLE
  5
3A
102
{ACAD_XDICTIONARY
360
130
102
}
102
{ACAD_REACTORS
330
29
102
}
330
29
100
AcDbVisualStyle
  2
Shades of Gray
 70
    23
177
     2
291
     0
 71
     2
176
     1
 72
     2
176
     1
 73
     3
176
     1
 90
        0
176
     1
 40
0.6
176
     1
 41
30.0
176
     1
 63
     7
421
 16777215
176
     1
 74
     2
176
     1
 91
        2
176
     1
 64
     7
176
     1
 65
     7
176
     1
 75
     1
176
     1
175
     1
176
     1
 42
40.0
176
     1
 92
        8
176
     1
 66
     7
176
     1
 43
1.0
176
     1
 76
     1
176
     1
 77
     6
176
     1
 78
     2
176
     1
 67
     7
176
     1
 79
     3
176
     1
170
     0
176
     1
171
     0
176
     1
290
     0
176
     1
 93
        1
176
     1
 44
0.0
176
     1
173
     0
176
     1
1001
ACAD
1000
AcDbSavedByObjectVersion
1070
     0
  0
VISUALSTYLE
  5
3B
102
{ACAD_XDICTIONARY
360
132
102
}
102
{ACAD_REACTORS
330
29
102
}
330
29
100
AcDbVisualStyle
  2
Sketchy
 70
    24
177
     2
291
     0
 71
     1
176
     1
 72
     2
176
     1
 73
     2
176
     1
 90
        0
176
     1
 40
0.6
176
     1
 41
30.0
176
     1
 63
     7
421
 16777215
176
     1
 74
     2
176
     1
 91
        2
176
     1
 64
     7
176
     1
 65
     7
176
     1
 75
     1
176
     1
175
     1
176
     1
 42
40.0
176
     1
 92
       11
176
     1
 66
     7
176
     1
 43
1.0
176
     1
 76
     1
176
     1
 77
     6
176
     1
 78
     2
176
     1
 67
     7
176
     1
 79
     6
176
     1
170
     0
176
     1
171
     0
176
     1
290
     0
176
     1
 93
        1
176
     1
 44
0.0
176
     1
173
     0
176
     1
1001
ACAD
1000
AcDbSavedByObjectVersion
1070
     0
  0
VISUALSTYLE
  5
36
102
{ACAD_XDICTIONARY
360
128
102
}
102
{ACAD_REACTORS
330
29
102
}
330
29
100
AcDbVisualStyle
  2
Thicken
 70
    13
177
     2
291
     1
 71
     2
176
     1
 72
     2
176
     1
 73
     0
176
     1
 90
        0
176
     1
 40
0.6
176
     1
 41
30.0
176
     1
 63
     7
421
 16777215
176
     1
 74
     1
176
     1
 91
        4
176
     1
 64
     7
176
     1
 65
   257
176
     1
 75
     1
176
     1
175
     1
176
     1
 42
1.0
176
     1
 92
       12
176
     1
 66
     7
176
     1
 43
1.0
176
     1
 76
     1
176
     1
 77
     6
176
     1
 78
     2
176
     1
 67
     7
176
     1
 79
     5
176
     1
170
     0
176
     1
171
     0
176
     1
290
     0
176
     1
 93
        1
176
     1
 44
0.0
176
     1
173
     0
176
     1
1001
ACAD
1000
AcDbSavedByObjectVersion
1070
     0
  0
VISUALSTYLE
  5
30
102
{ACAD_XDICTIONARY
360
11C
102
}
102
{ACAD_REACTORS
330
29
102
}
330
29
100
AcDbVisualStyle
  2
Wireframe
 70
     5
177
     2
291
     0
 71
     0
176
     1
 72
     2
176
     1
 73
     0
176
     1
 90
        0
176
     1
 40
0.6
176
     1
 41
30.0
176
     1
 63
     7
421
 16777215
176
     1
 74
     1
176
     1
 91
        4
176
     1
 64
     7
176
     1
 65
   257
176
     1
 75
     1
176
     1
175
     1
176
     1
 42
1.0
176
     1
 92
        0
176
     1
 66
   257
176
     1
 43
1.0
176
     1
 76
     1
176
     1
 77
     6
176
     1
 78
     2
176
     1
 67
     7
176
     1
 79
     3
176
     1
170
     0
176
     1
171
     0
176
     1
290
     0
176
     1
 93
        1
176
     1
 44
0.0
176
     1
173
     0
176
     1
1001
ACAD
1000
AcDbSavedByObjectVersion
1070
     0
  0
VISUALSTYLE
  5
3C
102
{ACAD_XDICTIONARY
360
134
102
}
102
{ACAD_REACTORS
330
29
102
}
330
29
100
AcDbVisualStyle
  2
X-Ray
 70
    25
177
     2
291
     0
 71
     2
176
     1
 72
     2
176
     1
 73
     1
176
     1
 90
        1
176
     1
 40
0.5
176
     1
 41
30.0
176
     1
 63
     7
421
 16777215
176
     1
 74
     1
176
     1
 91
        0
176
     1
 64
     7
176
     1
 65
   257
176
     1
 75
     1
176
     1
175
     1
176
     1
 42
1.0
176
     1
 92
        8
176
     1
 66
     7
176
     1
 43
1.0
176
     1
 76
     1
176
     1
 77
     6
176
     1
 78
     2
176
     1
 67
     7
176
     1
 79
     3
176
     1
170
     0
176
     1
171
     0
176
     1
290
     0
176
     1
 93
       13
176
     1
 44
0.0
176
     1
173
     0
176
     1
1001
ACAD
1000
AcDbSavedByObjectVersion
1070
     0
  0
DICTIONARYVAR
  5
10C
102
{ACAD_REACTORS
330
107
102
}
330
107
100
DictionaryVariables
280
     0
  1
1:1
  0
DICTIONARYVAR
  5
109
102
{ACAD_REACTORS
330
107
102
}
330
107
100
DictionaryVariables
280
     0
  1
STANDARD
  0
DICTIONARYVAR
  5
108
102
{ACAD_REACTORS
330
107
102
}
330
107
100
DictionaryVariables
280
     0
  1
STANDARD
  0
DICTIONARYVAR
  5
10A
102
{ACAD_REACTORS
330
107
102
}
330
107
100
DictionaryVariables
280
     0
  1
Imperial24
  0
DICTIONARYVAR
  5
10B
102
{ACAD_REACTORS
330
107
102
}
330
107
100
DictionaryVariables
280
     0
  1
Imperial24
  0
DICTIONARY
  5
144
330
6B
100
AcDbDictionary
280
     1
281
     1
  3
ACAD_XREC_ROUNDTRIP
360
145
  0
DICTIONARY
  5
1A
330
19
100
AcDbDictionary
280
     1
281
     1
  3
BUMPTILE
360
1C
  3
DIFFUSETILE
360
1B
  3
OPACITYTILE
360
1F
  3
REFLECTIONTILE
360
1E
  3
REFRACTIONTILE
360
20
  3
SPECULARTILE
360
1D
  0
DICTIONARY
  5
12
330
11
100
AcDbDictionary
280
     1
281
     1
  3
BUMPTILE
360
14
  3
DIFFUSETILE
360
13
  3
OPACITYTILE
360
17
  3
REFLECTIONTILE
360
16
  3
REFRACTIONTILE
360
18
  3
SPECULARTILE
360
15
  0
DICTIONARY
  5
22
330
21
100
AcDbDictionary
280
     1
281
     1
  3
BUMPTILE
360
24
  3
DIFFUSETILE
360
23
  3
OPACITYTILE
360
27
  3
REFLECTIONTILE
360
26
  3
REFRACTIONTILE
360
28
  3
SPECULARTILE
360
25
  0
DICTIONARY
  5
140
330
67
100
AcDbDictionary
280
     1
281
     1
  3
ACAD_XREC_ROUNDTRIP
360
141
  0
DICTIONARY
  5
142
330
69
100
AcDbDictionary
280
     1
281
     1
  3
ACAD_XREC_ROUNDTRIP
360
143
  0
DICTIONARY
  5
10D
330
65
100
AcDbDictionary
280
     1
281
     1
  3
ACAD_ROUNDTRIP_2008_TABLESTYLE_CELLSTYLEMAP
360
10E
  0
DICTIONARY
  5
11A
330
2F
100
AcDbDictionary
280
     1
281
     1
  3
ACAD_XREC_ROUNDTRIP
360
11B
  0
DICTIONARY
  5
118
330
2E
100
AcDbDictionary
280
     1
281
     1
  3
ACAD_XREC_ROUNDTRIP
360
119
  0
DICTIONARY
  5
126
330
35
100
AcDbDictionary
280
     1
281
     1
  3
ACAD_XREC_ROUNDTRIP
360
127
  0
DICTIONARY
  5
12E
330
39
100
AcDbDictionary
280
     1
281
     1
  3
ACAD_XREC_ROUNDTRIP
360
12F
  0
DICTIONARY
  5
120
330
32
100
AcDbDictionary
280
     1
281
     1
  3
ACAD_XREC_ROUNDTRIP
360
121
  0
DICTIONARY
  5
124
330
34
100
AcDbDictionary
280
     1
281
     1
  3
ACAD_XREC_ROUNDTRIP
360
125
  0
DICTIONARY
  5
13E
330
41
100
AcDbDictionary
280
     1
281
     1
  3
ACAD_XREC_ROUNDTRIP
360
13F
  0
DICTIONARY
  5
12C
330
38
100
AcDbDictionary
280
     1
281
     1
  3
ACAD_XREC_ROUNDTRIP
360
12D
  0
DICTIONARY
  5
110
330
2A
100
AcDbDictionary
280
     1
281
     1
  3
ACAD_XREC_ROUNDTRIP
360
111
  0
DICTIONARY
  5
112
330
2B
100
AcDbDictionary
280
     1
281
     1
  3
ACAD_XREC_ROUNDTRIP
360
113
  0
DICTIONARY
  5
114
330
2C
100
AcDbDictionary
280
     1
281
     1
  3
ACAD_XREC_ROUNDTRIP
360
115
  0
DICTIONARY
  5
116
330
2D
100
AcDbDictionary
280
     1
281
     1
  3
ACAD_XREC_ROUNDTRIP
360
117
  0
DICTIONARY
  5
11E
330
31
100
AcDbDictionary
280
     1
281
     1
  3
ACAD_XREC_ROUNDTRIP
360
11F
  0
DICTIONARY
  5
13A
330
3F
100
AcDbDictionary
280
     1
281
     1
  3
ACAD_XREC_ROUNDTRIP
360
13B
  0
DICTIONARY
  5
12A
330
37
100
AcDbDictionary
280
     1
281
     1
  3
ACAD_XREC_ROUNDTRIP
360
12B
  0
DICTIONARY
  5
13C
330
40
100
AcDbDictionary
280
     1
281
     1
  3
ACAD_XREC_ROUNDTRIP
360
13D
  0
DICTIONARY
  5
122
330
33
100
AcDbDictionary
280
     1
281
     1
  3
ACAD_XREC_ROUNDTRIP
360
123
  0
DICTIONARY
  5
138
330
3E
100
AcDbDictionary
280
     1
281
     1
  3
ACAD_XREC_ROUNDTRIP
360
139
  0
DICTIONARY
  5
136
330
3D
100
AcDbDictionary
280
     1
281
     1
  3
ACAD_XREC_ROUNDTRIP
360
137
  0
DICTIONARY
  5
130
330
3A
100
AcDbDictionary
280
     1
281
     1
  3
ACAD_XREC_ROUNDTRIP
360
131
  0
DICTIONARY
  5
132
330
3B
100
AcDbDictionary
280
     1
281
     1
  3
ACAD_XREC_ROUNDTRIP
360
133
  0
DICTIONARY
  5
128
330
36
100
AcDbDictionary
280
     1
281
     1
  3
ACAD_XREC_ROUNDTRIP
360
129
  0
DICTIONARY
  5
11C
330
30
100
AcDbDictionary
280
     1
281
     1
  3
ACAD_XREC_ROUNDTRIP
360
11D
  0
DICTIONARY
  5
134
330
3C
100
AcDbDictionary
280
     1
281
     1
  3
ACAD_XREC_ROUNDTRIP
360
135
  0
XRECORD
  5
145
102
{ACAD_REACTORS
330
144
102
}
330
144
100
AcDbXrecord
280
     1
102
DISPLAYNAME
  1
Imperial24
102
FLAGS
 90
        0
  0
XRECORD
  5
1C
102
{ACAD_REACTORS
330
1A
102
}
330
1A
100
AcDbXrecord
280
     1
270
     1
271
     1
  0
XRECORD
  5
1B
102
{ACAD_REACTORS
330
1A
102
}
330
1A
100
AcDbXrecord
280
     1
270
     1
271
     1
  0
XRECORD
  5
1F
102
{ACAD_REACTORS
330
1A
102
}
330
1A
100
AcDbXrecord
280
     1
270
     1
271
     1
  0
XRECORD
  5
1E
102
{ACAD_REACTORS
330
1A
102
}
330
1A
100
AcDbXrecord
280
     1
270
     1
271
     1
  0
XRECORD
  5
20
102
{ACAD_REACTORS
330
1A
102
}
330
1A
100
AcDbXrecord
280
     1
270
     1
271
     1
  0
XRECORD
  5
1D
102
{ACAD_REACTORS
330
1A
102
}
330
1A
100
AcDbXrecord
280
     1
270
     1
271
     1
  0
XRECORD
  5
14
102
{ACAD_REACTORS
330
12
102
}
330
12
100
AcDbXrecord
280
     1
270
     1
271
     1
  0
XRECORD
  5
13
102
{ACAD_REACTORS
330
12
102
}
330
12
100
AcDbXrecord
280
     1
270
     1
271
     1
  0
XRECORD
  5
17
102
{ACAD_REACTORS
330
12
102
}
330
12
100
AcDbXrecord
280
     1
270
     1
271
     1
  0
XRECORD
  5
16
102
{ACAD_REACTORS
330
12
102
}
330
12
100
AcDbXrecord
280
     1
270
     1
271
     1
  0
XRECORD
  5
18
102
{ACAD_REACTORS
330
12
102
}
330
12
100
AcDbXrecord
280
     1
270
     1
271
     1
  0
XRECORD
  5
15
102
{ACAD_REACTORS
330
12
102
}
330
12
100
AcDbXrecord
280
     1
270
     1
271
     1
  0
XRECORD
  5
24
102
{ACAD_REACTORS
330
22
102
}
330
22
100
AcDbXrecord
280
     1
270
     1
271
     1
  0
XRECORD
  5
23
102
{ACAD_REACTORS
330
22
102
}
330
22
100
AcDbXrecord
280
     1
270
     1
271
     1
  0
XRECORD
  5
27
102
{ACAD_REACTORS
330
22
102
}
330
22
100
AcDbXrecord
280
     1
270
     1
271
     1
  0
XRECORD
  5
26
102
{ACAD_REACTORS
330
22
102
}
330
22
100
AcDbXrecord
280
     1
270
     1
271
     1
  0
XRECORD
  5
28
102
{ACAD_REACTORS
330
22
102
}
330
22
100
AcDbXrecord
280
     1
270
     1
271
     1
  0
XRECORD
  5
25
102
{ACAD_REACTORS
330
22
102
}
330
22
100
AcDbXrecord
280
     1
270
     1
271
     1
  0
XRECORD
  5
141
102
{ACAD_REACTORS
330
140
102
}
330
140
100
AcDbXrecord
280
     1
102
ACAD_ROUNDTRIP_2012_MLEADER_STYLE
298
     1
  0
XRECORD
  5
143
102
{ACAD_REACTORS
330
142
102
}
330
142
100
AcDbXrecord
280
     1
102
DISPLAYNAME
  1
Imperial24
102
FLAGS
 90
        0
  0
CELLSTYLEMAP
  5
10E
102
{ACAD_REACTORS
330
10D
102
}
330
10D
100
AcDbCellStyleMap
 90
        3
300
CELLSTYLE
  1
TABLEFORMAT_BEGIN
 90
        5
170
     1
 91
        0
 92
    32768
 62
   257
 93
        1
300
CONTENTFORMAT
  1
CONTENTFORMAT_BEGIN
 90
        0
 91
        0
 92
      512
 93
        0
300

 40
0.0
140
1.0
 94
        5
 62
     0
340
55
144
0.25
309
CONTENTFORMAT_END
171
     0
 94
        0
309
TABLEFORMAT_END
  1
CELLSTYLE_BEGIN
 90
        1
 91
        1
300
_TITLE
309
CELLSTYLE_END
300
CELLSTYLE
  1
TABLEFORMAT_BEGIN
 90
        5
170
     1
 91
        0
 92
        0
 62
   257
 93
        1
300
CONTENTFORMAT
  1
CONTENTFORMAT_BEGIN
 90
        0
 91
        0
 92
      512
 93
        0
300

 40
0.0
140
1.0
 94
        5
 62
     0
340
55
144
0.18
309
CONTENTFORMAT_END
171
     0
 94
        0
309
TABLEFORMAT_END
  1
CELLSTYLE_BEGIN
 90
        2
 91
        1
300
_HEADER
309
CELLSTYLE_END
300
CELLSTYLE
  1
TABLEFORMAT_BEGIN
 90
        5
170
     1
 91
        0
 92
        0
 62
   257
 93
        1
300
CONTENTFORMAT
  1
CONTENTFORMAT_BEGIN
 90
        0
 91
        0
 92
      512
 93
        0
300

 40
0.0
140
1.0
 94
        2
 62
     0
340
55
144
0.18
309
CONTENTFORMAT_END
171
     0
 94
        0
309
TABLEFORMAT_END
  1
CELLSTYLE_BEGIN
 90
        3
 91
        2
300
_DATA
309
CELLSTYLE_END
  0
XRECORD
  5
11B
102
{ACAD_REACTORS
330
11A
102
}
330
11A
100
AcDbXrecord
280
     1
102
RTVSPost2010Prop28
280
     1
102
RTVSPost2010PropOp28
 70
     1
102
RTVSPost2010Prop29
280
     1
102
RTVSPost2010PropOp29
 70
     1
102
RTVSPost2010Prop30
280
     0
102
RTVSPost2010PropOp30
 70
     1
102
RTVSPost2010Prop31
280
     0
102
RTVSPost2010PropOp31
 70
     1
102
RTVSPost2010Prop32
280
     0
102
RTVSPost2010PropOp32
 70
     1
102
RTVSPost2010Prop33
280
     0
102
RTVSPost2010PropOp33
 70
     1
102
RTVSPost2010Prop34
280
     0
102
RTVSPost2010PropOp34
 70
     1
102
RTVSPost2010Prop35
280
     0
102
RTVSPost2010PropOp35
 70
     1
102
RTVSPost2010Prop36
280
     0
102
RTVSPost2010PropOp36
 70
     1
102
RTVSPost2010Prop37
 90
       50
102
RTVSPost2010PropOp37
 70
     1
102
RTVSPost2010Prop38
140
0.0
102
RTVSPost2010PropOp38
 70
     1
102
RTVSPost2010Prop39
140
1.0
102
RTVSPost2010PropOp39
 70
     1
102
RTVSPost2010Prop40
 90
        0
102
RTVSPost2010PropOp40
 70
     1
102
RTVSPost2010Prop41ColorIndex
 90
       18
102
RTVSPost2010Prop41ColorRGB
 90
        0
102
RTVSPost2010PropOp41
 70
     1
102
RTVSPost2010Prop42
 90
       50
102
RTVSPost2010PropOp42
 70
     1
102
RTVSPost2010Prop43
 90
        3
102
RTVSPost2010PropOp43
 70
     1
102
RTVSPost2010Prop44ColorIndex
 90
        5
102
RTVSPost2010Prop44ColorRGB
 90
      255
102
RTVSPost2010PropOp44
 70
     1
102
RTVSPost2010Prop45
280
     0
102
RTVSPost2010PropOp45
 70
     1
102
RTVSPost2010Prop46
 90
       50
102
RTVSPost2010PropOp46
 70
     1
102
RTVSPost2010Prop47
 90
       50
102
RTVSPost2010PropOp47
 70
     1
102
RTVSPost2010Prop48
 90
       50
102
RTVSPost2010PropOp48
 70
     1
102
RTVSPost2010Prop49
280
     0
102
RTVSPost2010PropOp49
 70
     1
102
RTVSPost2010Prop50
 90
       50
102
RTVSPost2010PropOp50
 70
     1
102
RTVSPost2010Prop51ColorIndex
 90
      256
102
RTVSPost2010Prop51ColorRGB
 90
-16777216
102
RTVSPost2010PropOp51
 70
     0
102
RTVSPost2010Prop52
140
1.0
102
RTVSPost2010PropOp52
 70
     0
102
RTVSPost2010Prop53
 90
        2
102
RTVSPost2010PropOp53
 70
     1
102
RTVSPost2010Prop54
  1
strokes_ogs.tif
102
RTVSPost2010PropOp54
 70
     1
102
RTVSPost2010Prop55
280
     0
102
RTVSPost2010PropOp55
 70
     1
102
RTVSPost2010Prop56
140
1.0
102
RTVSPost2010PropOp56
 70
     1
102
RTVSPost2010Prop57
140
1.0
102
RTVSPost2010PropOp57
 70
     1
  0
XRECORD
  5
119
102
{ACAD_REACTORS
330
118
102
}
330
118
100
AcDbXrecord
280
     1
102
RTVSPost2010Prop28
280
     0
102
RTVSPost2010PropOp28
 70
     1
102
RTVSPost2010Prop29
280
     1
102
RTVSPost2010PropOp29
 70
     1
102
RTVSPost2010Prop30
280
     1
102
RTVSPost2010PropOp30
 70
     1
102
RTVSPost2010Prop31
280
     0
102
RTVSPost2010PropOp31
 70
     1
102
RTVSPost2010Prop32
280
     0
102
RTVSPost2010PropOp32
 70
     1
102
RTVSPost2010Prop33
280
     0
102
RTVSPost2010PropOp33
 70
     1
102
RTVSPost2010Prop34
280
     0
102
RTVSPost2010PropOp34
 70
     1
102
RTVSPost2010Prop35
280
     0
102
RTVSPost2010PropOp35
 70
     1
102
RTVSPost2010Prop36
280
     0
102
RTVSPost2010PropOp36
 70
     1
102
RTVSPost2010Prop37
 90
       50
102
RTVSPost2010PropOp37
 70
     1
102
RTVSPost2010Prop38
140
0.0
102
RTVSPost2010PropOp38
 70
     1
102
RTVSPost2010Prop39
140
1.0
102
RTVSPost2010PropOp39
 70
     1
102
RTVSPost2010Prop40
 90
        0
102
RTVSPost2010PropOp40
 70
     1
102
RTVSPost2010Prop41ColorIndex
 90
       18
102
RTVSPost2010Prop41ColorRGB
 90
        0
102
RTVSPost2010PropOp41
 70
     1
102
RTVSPost2010Prop42
 90
       50
102
RTVSPost2010PropOp42
 70
     1
102
RTVSPost2010Prop43
 90
        3
102
RTVSPost2010PropOp43
 70
     1
102
RTVSPost2010Prop44ColorIndex
 90
        5
102
RTVSPost2010Prop44ColorRGB
 90
      255
102
RTVSPost2010PropOp44
 70
     1
102
RTVSPost2010Prop45
280
     0
102
RTVSPost2010PropOp45
 70
     1
102
RTVSPost2010Prop46
 90
       50
102
RTVSPost2010PropOp46
 70
     1
102
RTVSPost2010Prop47
 90
       50
102
RTVSPost2010PropOp47
 70
     1
102
RTVSPost2010Prop48
 90
       50
102
RTVSPost2010PropOp48
 70
     1
102
RTVSPost2010Prop49
280
     0
102
RTVSPost2010PropOp49
 70
     1
102
RTVSPost2010Prop50
 90
       50
102
RTVSPost2010PropOp50
 70
     1
102
RTVSPost2010Prop51ColorIndex
 90
      256
102
RTVSPost2010Prop51ColorRGB
 90
-16777216
102
RTVSPost2010PropOp51
 70
     0
102
RTVSPost2010Prop52
140
1.0
102
RTVSPost2010PropOp52
 70
     0
102
RTVSPost2010Prop53
 90
        2
102
RTVSPost2010PropOp53
 70
     1
102
RTVSPost2010Prop54
  1
strokes_ogs.tif
102
RTVSPost2010PropOp54
 70
     1
102
RTVSPost2010Prop55
280
     0
102
RTVSPost2010PropOp55
 70
     1
102
RTVSPost2010Prop56
140
1.0
102
RTVSPost2010PropOp56
 70
     1
102
RTVSPost2010Prop57
140
1.0
102
RTVSPost2010PropOp57
 70
     1
  0
XRECORD
  5
127
102
{ACAD_REACTORS
330
126
102
}
330
126
100
AcDbXrecord
280
     1
102
RTVSPost2010Prop28
280
     0
102
RTVSPost2010PropOp28
 70
     1
102
RTVSPost2010Prop29
280
     1
102
RTVSPost2010PropOp29
 70
     1
102
RTVSPost2010Prop30
280
     1
102
RTVSPost2010PropOp30
 70
     1
102
RTVSPost2010Prop31
280
     0
102
RTVSPost2010PropOp31
 70
     1
102
RTVSPost2010Prop32
280
     0
102
RTVSPost2010PropOp32
 70
     1
102
RTVSPost2010Prop33
280
     0
102
RTVSPost2010PropOp33
 70
     1
102
RTVSPost2010Prop34
280
     0
102
RTVSPost2010PropOp34
 70
     1
102
RTVSPost2010Prop35
280
     0
102
RTVSPost2010PropOp35
 70
     1
102
RTVSPost2010Prop36
280
     0
102
RTVSPost2010PropOp36
 70
     1
102
RTVSPost2010Prop37
 90
       50
102
RTVSPost2010PropOp37
 70
     1
102
RTVSPost2010Prop38
140
0.0
102
RTVSPost2010PropOp38
 70
     1
102
RTVSPost2010Prop39
140
1.0
102
RTVSPost2010PropOp39
 70
     1
102
RTVSPost2010Prop40
 90
        0
102
RTVSPost2010PropOp40
 70
     1
102
RTVSPost2010Prop41ColorIndex
 90
       18
102
RTVSPost2010Prop41ColorRGB
 90
        0
102
RTVSPost2010PropOp41
 70
     1
102
RTVSPost2010Prop42
 90
       50
102
RTVSPost2010PropOp42
 70
     1
102
RTVSPost2010Prop43
 90
        3
102
RTVSPost2010PropOp43
 70
     1
102
RTVSPost2010Prop44ColorIndex
 90
        5
102
RTVSPost2010Prop44ColorRGB
 90
      255
102
RTVSPost2010PropOp44
 70
     1
102
RTVSPost2010Prop45
280
     0
102
RTVSPost2010PropOp45
 70
     1
102
RTVSPost2010Prop46
 90
       50
102
RTVSPost2010PropOp46
 70
     1
102
RTVSPost2010Prop47
 90
       50
102
RTVSPost2010PropOp47
 70
     1
102
RTVSPost2010Prop48
 90
       50
102
RTVSPost2010PropOp48
 70
     1
102
RTVSPost2010Prop49
280
     0
102
RTVSPost2010PropOp49
 70
     1
102
RTVSPost2010Prop50
 90
       50
102
RTVSPost2010PropOp50
 70
     1
102
RTVSPost2010Prop51ColorIndex
 90
      256
102
RTVSPost2010Prop51ColorRGB
 90
-16777216
102
RTVSPost2010PropOp51
 70
     0
102
RTVSPost2010Prop52
140
1.0
102
RTVSPost2010PropOp52
 70
     0
102
RTVSPost2010Prop53
 90
        2
102
RTVSPost2010PropOp53
 70
     1
102
RTVSPost2010Prop54
  1
strokes_ogs.tif
102
RTVSPost2010PropOp54
 70
     1
102
RTVSPost2010Prop55
280
     0
102
RTVSPost2010PropOp55
 70
     1
102
RTVSPost2010Prop56
140
1.0
102
RTVSPost2010PropOp56
 70
     1
102
RTVSPost2010Prop57
140
1.0
102
RTVSPost2010PropOp57
 70
     1
  0
XRECORD
  5
12F
102
{ACAD_REACTORS
330
12E
102
}
330
12E
100
AcDbXrecord
280
     1
102
RTVSPost2010Prop28
280
     0
102
RTVSPost2010PropOp28
 70
     1
102
RTVSPost2010Prop29
280
     1
102
RTVSPost2010PropOp29
 70
     1
102
RTVSPost2010Prop30
280
     1
102
RTVSPost2010PropOp30
 70
     1
102
RTVSPost2010Prop31
280
     0
102
RTVSPost2010PropOp31
 70
     1
102
RTVSPost2010Prop32
280
     0
102
RTVSPost2010PropOp32
 70
     1
102
RTVSPost2010Prop33
280
     0
102
RTVSPost2010PropOp33
 70
     1
102
RTVSPost2010Prop34
280
     0
102
RTVSPost2010PropOp34
 70
     1
102
RTVSPost2010Prop35
280
     0
102
RTVSPost2010PropOp35
 70
     1
102
RTVSPost2010Prop36
280
     0
102
RTVSPost2010PropOp36
 70
     1
102
RTVSPost2010Prop37
 90
       50
102
RTVSPost2010PropOp37
 70
     1
102
RTVSPost2010Prop38
140
0.0
102
RTVSPost2010PropOp38
 70
     1
102
RTVSPost2010Prop39
140
1.0
102
RTVSPost2010PropOp39
 70
     1
102
RTVSPost2010Prop40
 90
        0
102
RTVSPost2010PropOp40
 70
     1
102
RTVSPost2010Prop41ColorIndex
 90
       18
102
RTVSPost2010Prop41ColorRGB
 90
        0
102
RTVSPost2010PropOp41
 70
     1
102
RTVSPost2010Prop42
 90
       50
102
RTVSPost2010PropOp42
 70
     1
102
RTVSPost2010Prop43
 90
        3
102
RTVSPost2010PropOp43
 70
     1
102
RTVSPost2010Prop44ColorIndex
 90
        5
102
RTVSPost2010Prop44ColorRGB
 90
      255
102
RTVSPost2010PropOp44
 70
     1
102
RTVSPost2010Prop45
280
     0
102
RTVSPost2010PropOp45
 70
     1
102
RTVSPost2010Prop46
 90
       50
102
RTVSPost2010PropOp46
 70
     1
102
RTVSPost2010Prop47
 90
       50
102
RTVSPost2010PropOp47
 70
     1
102
RTVSPost2010Prop48
 90
       50
102
RTVSPost2010PropOp48
 70
     1
102
RTVSPost2010Prop49
280
     0
102
RTVSPost2010PropOp49
 70
     1
102
RTVSPost2010Prop50
 90
       50
102
RTVSPost2010PropOp50
 70
     1
102
RTVSPost2010Prop51ColorIndex
 90
      256
102
RTVSPost2010Prop51ColorRGB
 90
-16777216
102
RTVSPost2010PropOp51
 70
     0
102
RTVSPost2010Prop52
140
1.0
102
RTVSPost2010PropOp52
 70
     0
102
RTVSPost2010Prop53
 90
        2
102
RTVSPost2010PropOp53
 70
     1
102
RTVSPost2010Prop54
  1
strokes_ogs.tif
102
RTVSPost2010PropOp54
 70
     1
102
RTVSPost2010Prop55
280
     0
102
RTVSPost2010PropOp55
 70
     1
102
RTVSPost2010Prop56
140
1.0
102
RTVSPost2010PropOp56
 70
     1
102
RTVSPost2010Prop57
140
1.0
102
RTVSPost2010PropOp57
 70
     1
  0
XRECORD
  5
121
102
{ACAD_REACTORS
330
120
102
}
330
120
100
AcDbXrecord
280
     1
102
RTVSPost2010Prop28
280
     0
102
RTVSPost2010PropOp28
 70
     1
102
RTVSPost2010Prop29
280
     1
102
RTVSPost2010PropOp29
 70
     1
102
RTVSPost2010Prop30
280
     1
102
RTVSPost2010PropOp30
 70
     1
102
RTVSPost2010Prop31
280
     0
102
RTVSPost2010PropOp31
 70
     1
102
RTVSPost2010Prop32
280
     0
102
RTVSPost2010PropOp32
 70
     1
102
RTVSPost2010Prop33
280
     0
102
RTVSPost2010PropOp33
 70
     1
102
RTVSPost2010Prop34
280
     0
102
RTVSPost2010PropOp34
 70
     1
102
RTVSPost2010Prop35
280
     0
102
RTVSPost2010PropOp35
 70
     1
102
RTVSPost2010Prop36
280
     0
102
RTVSPost2010PropOp36
 70
     1
102
RTVSPost2010Prop37
 90
       50
102
RTVSPost2010PropOp37
 70
     1
102
RTVSPost2010Prop38
140
0.0
102
RTVSPost2010PropOp38
 70
     1
102
RTVSPost2010Prop39
140
1.0
102
RTVSPost2010PropOp39
 70
     1
102
RTVSPost2010Prop40
 90
        0
102
RTVSPost2010PropOp40
 70
     1
102
RTVSPost2010Prop41ColorIndex
 90
       18
102
RTVSPost2010Prop41ColorRGB
 90
        0
102
RTVSPost2010PropOp41
 70
     1
102
RTVSPost2010Prop42
 90
       50
102
RTVSPost2010PropOp42
 70
     1
102
RTVSPost2010Prop43
 90
        3
102
RTVSPost2010PropOp43
 70
     1
102
RTVSPost2010Prop44ColorIndex
 90
        5
102
RTVSPost2010Prop44ColorRGB
 90
      255
102
RTVSPost2010PropOp44
 70
     1
102
RTVSPost2010Prop45
280
     0
102
RTVSPost2010PropOp45
 70
     1
102
RTVSPost2010Prop46
 90
       50
102
RTVSPost2010PropOp46
 70
     1
102
RTVSPost2010Prop47
 90
       50
102
RTVSPost2010PropOp47
 70
     1
102
RTVSPost2010Prop48
 90
       50
102
RTVSPost2010PropOp48
 70
     1
102
RTVSPost2010Prop49
280
     0
102
RTVSPost2010PropOp49
 70
     1
102
RTVSPost2010Prop50
 90
       50
102
RTVSPost2010PropOp50
 70
     1
102
RTVSPost2010Prop51ColorIndex
 90
      256
102
RTVSPost2010Prop51ColorRGB
 90
-16777216
102
RTVSPost2010PropOp51
 70
     0
102
RTVSPost2010Prop52
140
1.0
102
RTVSPost2010PropOp52
 70
     0
102
RTVSPost2010Prop53
 90
        2
102
RTVSPost2010PropOp53
 70
     1
102
RTVSPost2010Prop54
  1
strokes_ogs.tif
102
RTVSPost2010PropOp54
 70
     1
102
RTVSPost2010Prop55
280
     0
102
RTVSPost2010PropOp55
 70
     1
102
RTVSPost2010Prop56
140
1.0
102
RTVSPost2010PropOp56
 70
     1
102
RTVSPost2010Prop57
140
1.0
102
RTVSPost2010PropOp57
 70
     1
  0
XRECORD
  5
125
102
{ACAD_REACTORS
330
124
102
}
330
124
100
AcDbXrecord
280
     1
102
RTVSPost2010Prop28
280
     0
102
RTVSPost2010PropOp28
 70
     1
102
RTVSPost2010Prop29
280
     1
102
RTVSPost2010PropOp29
 70
     1
102
RTVSPost2010Prop30
280
     1
102
RTVSPost2010PropOp30
 70
     1
102
RTVSPost2010Prop31
280
     0
102
RTVSPost2010PropOp31
 70
     1
102
RTVSPost2010Prop32
280
     0
102
RTVSPost2010PropOp32
 70
     1
102
RTVSPost2010Prop33
280
     0
102
RTVSPost2010PropOp33
 70
     1
102
RTVSPost2010Prop34
280
     0
102
RTVSPost2010PropOp34
 70
     1
102
RTVSPost2010Prop35
280
     0
102
RTVSPost2010PropOp35
 70
     1
102
RTVSPost2010Prop36
280
     0
102
RTVSPost2010PropOp36
 70
     1
102
RTVSPost2010Prop37
 90
       50
102
RTVSPost2010PropOp37
 70
     1
102
RTVSPost2010Prop38
140
0.0
102
RTVSPost2010PropOp38
 70
     1
102
RTVSPost2010Prop39
140
1.0
102
RTVSPost2010PropOp39
 70
     1
102
RTVSPost2010Prop40
 90
        0
102
RTVSPost2010PropOp40
 70
     1
102
RTVSPost2010Prop41ColorIndex
 90
       18
102
RTVSPost2010Prop41ColorRGB
 90
        0
102
RTVSPost2010PropOp41
 70
     1
102
RTVSPost2010Prop42
 90
       50
102
RTVSPost2010PropOp42
 70
     1
102
RTVSPost2010Prop43
 90
        3
102
RTVSPost2010PropOp43
 70
     1
102
RTVSPost2010Prop44ColorIndex
 90
        5
102
RTVSPost2010Prop44ColorRGB
 90
      255
102
RTVSPost2010PropOp44
 70
     1
102
RTVSPost2010Prop45
280
     0
102
RTVSPost2010PropOp45
 70
     1
102
RTVSPost2010Prop46
 90
       50
102
RTVSPost2010PropOp46
 70
     1
102
RTVSPost2010Prop47
 90
       50
102
RTVSPost2010PropOp47
 70
     1
102
RTVSPost2010Prop48
 90
       50
102
RTVSPost2010PropOp48
 70
     1
102
RTVSPost2010Prop49
280
     0
102
RTVSPost2010PropOp49
 70
     1
102
RTVSPost2010Prop50
 90
       50
102
RTVSPost2010PropOp50
 70
     1
102
RTVSPost2010Prop51ColorIndex
 90
      256
102
RTVSPost2010Prop51ColorRGB
 90
-16777216
102
RTVSPost2010PropOp51
 70
     0
102
RTVSPost2010Prop52
140
1.0
102
RTVSPost2010PropOp52
 70
     0
102
RTVSPost2010Prop53
 90
        2
102
RTVSPost2010PropOp53
 70
     1
102
RTVSPost2010Prop54
  1
strokes_ogs.tif
102
RTVSPost2010PropOp54
 70
     1
102
RTVSPost2010Prop55
280
     0
102
RTVSPost2010PropOp55
 70
     1
102
RTVSPost2010Prop56
140
1.0
102
RTVSPost2010PropOp56
 70
     1
102
RTVSPost2010Prop57
140
1.0
102
RTVSPost2010PropOp57
 70
     1
  0
XRECORD
  5
13F
102
{ACAD_REACTORS
330
13E
102
}
330
13E
100
AcDbXrecord
280
     1
102
RTVSPost2010Prop28
280
     0
102
RTVSPost2010PropOp28
 70
     0
102
RTVSPost2010Prop29
280
     1
102
RTVSPost2010PropOp29
 70
     0
102
RTVSPost2010Prop30
280
     1
102
RTVSPost2010PropOp30
 70
     0
102
RTVSPost2010Prop31
280
     0
102
RTVSPost2010PropOp31
 70
     0
102
RTVSPost2010Prop32
280
     0
102
RTVSPost2010PropOp32
 70
     0
102
RTVSPost2010Prop33
280
     0
102
RTVSPost2010PropOp33
 70
     0
102
RTVSPost2010Prop34
280
     0
102
RTVSPost2010PropOp34
 70
     0
102
RTVSPost2010Prop35
280
     0
102
RTVSPost2010PropOp35
 70
     0
102
RTVSPost2010Prop36
280
     0
102
RTVSPost2010PropOp36
 70
     0
102
RTVSPost2010Prop37
 90
       50
102
RTVSPost2010PropOp37
 70
     0
102
RTVSPost2010Prop38
140
0.0
102
RTVSPost2010PropOp38
 70
     0
102
RTVSPost2010Prop39
140
1.0
102
RTVSPost2010PropOp39
 70
     0
102
RTVSPost2010Prop40
 90
        0
102
RTVSPost2010PropOp40
 70
     0
102
RTVSPost2010Prop41ColorIndex
 90
       18
102
RTVSPost2010Prop41ColorRGB
 90
        0
102
RTVSPost2010PropOp41
 70
     0
102
RTVSPost2010Prop42
 90
       50
102
RTVSPost2010PropOp42
 70
     0
102
RTVSPost2010Prop43
 90
        3
102
RTVSPost2010PropOp43
 70
     0
102
RTVSPost2010Prop44ColorIndex
 90
        5
102
RTVSPost2010Prop44ColorRGB
 90
      255
102
RTVSPost2010PropOp44
 70
     0
102
RTVSPost2010Prop45
280
     0
102
RTVSPost2010PropOp45
 70
     0
102
RTVSPost2010Prop46
 90
       50
102
RTVSPost2010PropOp46
 70
     0
102
RTVSPost2010Prop47
 90
       50
102
RTVSPost2010PropOp47
 70
     0
102
RTVSPost2010Prop48
 90
       50
102
RTVSPost2010PropOp48
 70
     0
102
RTVSPost2010Prop49
280
     0
102
RTVSPost2010PropOp49
 70
     0
102
RTVSPost2010Prop50
 90
       50
102
RTVSPost2010PropOp50
 70
     0
102
RTVSPost2010Prop51ColorIndex
 90
      256
102
RTVSPost2010Prop51ColorRGB
 90
-16777216
102
RTVSPost2010PropOp51
 70
     0
102
RTVSPost2010Prop52
140
1.0
102
RTVSPost2010PropOp52
 70
     0
102
RTVSPost2010Prop53
 90
        2
102
RTVSPost2010PropOp53
 70
     0
102
RTVSPost2010Prop54
  1
strokes_ogs.tif
102
RTVSPost2010PropOp54
 70
     0
102
RTVSPost2010Prop55
280
     0
102
RTVSPost2010PropOp55
 70
     0
102
RTVSPost2010Prop56
140
1.0
102
RTVSPost2010PropOp56
 70
     0
102
RTVSPost2010Prop57
140
1.0
102
RTVSPost2010PropOp57
 70
     0
  0
XRECORD
  5
12D
102
{ACAD_REACTORS
330
12C
102
}
330
12C
100
AcDbXrecord
280
     1
102
RTVSPost2010Prop28
280
     0
102
RTVSPost2010PropOp28
 70
     1
102
RTVSPost2010Prop29
280
     1
102
RTVSPost2010PropOp29
 70
     1
102
RTVSPost2010Prop30
280
     1
102
RTVSPost2010PropOp30
 70
     1
102
RTVSPost2010Prop31
280
     0
102
RTVSPost2010PropOp31
 70
     1
102
RTVSPost2010Prop32
280
     0
102
RTVSPost2010PropOp32
 70
     1
102
RTVSPost2010Prop33
280
     0
102
RTVSPost2010PropOp33
 70
     1
102
RTVSPost2010Prop34
280
     0
102
RTVSPost2010PropOp34
 70
     1
102
RTVSPost2010Prop35
280
     0
102
RTVSPost2010PropOp35
 70
     1
102
RTVSPost2010Prop36
280
     0
102
RTVSPost2010PropOp36
 70
     1
102
RTVSPost2010Prop37
 90
       50
102
RTVSPost2010PropOp37
 70
     1
102
RTVSPost2010Prop38
140
0.0
102
RTVSPost2010PropOp38
 70
     1
102
RTVSPost2010Prop39
140
1.0
102
RTVSPost2010PropOp39
 70
     1
102
RTVSPost2010Prop40
 90
        0
102
RTVSPost2010PropOp40
 70
     1
102
RTVSPost2010Prop41ColorIndex
 90
       18
102
RTVSPost2010Prop41ColorRGB
 90
        0
102
RTVSPost2010PropOp41
 70
     1
102
RTVSPost2010Prop42
 90
       50
102
RTVSPost2010PropOp42
 70
     1
102
RTVSPost2010Prop43
 90
        3
102
RTVSPost2010PropOp43
 70
     1
102
RTVSPost2010Prop44ColorIndex
 90
        5
102
RTVSPost2010Prop44ColorRGB
 90
      255
102
RTVSPost2010PropOp44
 70
     1
102
RTVSPost2010Prop45
280
     0
102
RTVSPost2010PropOp45
 70
     1
102
RTVSPost2010Prop46
 90
       50
102
RTVSPost2010PropOp46
 70
     1
102
RTVSPost2010Prop47
 90
       50
102
RTVSPost2010PropOp47
 70
     1
102
RTVSPost2010Prop48
 90
       50
102
RTVSPost2010PropOp48
 70
     1
102
RTVSPost2010Prop49
280
     0
102
RTVSPost2010PropOp49
 70
     1
102
RTVSPost2010Prop50
 90
       50
102
RTVSPost2010PropOp50
 70
     1
102
RTVSPost2010Prop51ColorIndex
 90
      256
102
RTVSPost2010Prop51ColorRGB
 90
-16777216
102
RTVSPost2010PropOp51
 70
     0
102
RTVSPost2010Prop52
140
1.0
102
RTVSPost2010PropOp52
 70
     0
102
RTVSPost2010Prop53
 90
        2
102
RTVSPost2010PropOp53
 70
     1
102
RTVSPost2010Prop54
  1
strokes_ogs.tif
102
RTVSPost2010PropOp54
 70
     1
102
RTVSPost2010Prop55
280
     0
102
RTVSPost2010PropOp55
 70
     1
102
RTVSPost2010Prop56
140
1.0
102
RTVSPost2010PropOp56
 70
     1
102
RTVSPost2010Prop57
140
1.0
102
RTVSPost2010PropOp57
 70
     1
  0
XRECORD
  5
111
102
{ACAD_REACTORS
330
110
102
}
330
110
100
AcDbXrecord
280
     1
102
RTVSPost2010Prop28
280
     0
102
RTVSPost2010PropOp28
 70
     1
102
RTVSPost2010Prop29
280
     1
102
RTVSPost2010PropOp29
 70
     1
102
RTVSPost2010Prop30
280
     1
102
RTVSPost2010PropOp30
 70
     1
102
RTVSPost2010Prop31
280
     0
102
RTVSPost2010PropOp31
 70
     1
102
RTVSPost2010Prop32
280
     0
102
RTVSPost2010PropOp32
 70
     1
102
RTVSPost2010Prop33
280
     0
102
RTVSPost2010PropOp33
 70
     1
102
RTVSPost2010Prop34
280
     0
102
RTVSPost2010PropOp34
 70
     1
102
RTVSPost2010Prop35
280
     0
102
RTVSPost2010PropOp35
 70
     1
102
RTVSPost2010Prop36
280
     0
102
RTVSPost2010PropOp36
 70
     1
102
RTVSPost2010Prop37
 90
       50
102
RTVSPost2010PropOp37
 70
     1
102
RTVSPost2010Prop38
140
0.0
102
RTVSPost2010PropOp38
 70
     1
102
RTVSPost2010Prop39
140
1.0
102
RTVSPost2010PropOp39
 70
     1
102
RTVSPost2010Prop40
 90
        0
102
RTVSPost2010PropOp40
 70
     1
102
RTVSPost2010Prop41ColorIndex
 90
       18
102
RTVSPost2010Prop41ColorRGB
 90
        0
102
RTVSPost2010PropOp41
 70
     1
102
RTVSPost2010Prop42
 90
       50
102
RTVSPost2010PropOp42
 70
     1
102
RTVSPost2010Prop43
 90
        3
102
RTVSPost2010PropOp43
 70
     1
102
RTVSPost2010Prop44ColorIndex
 90
        5
102
RTVSPost2010Prop44ColorRGB
 90
      255
102
RTVSPost2010PropOp44
 70
     1
102
RTVSPost2010Prop45
280
     0
102
RTVSPost2010PropOp45
 70
     1
102
RTVSPost2010Prop46
 90
       50
102
RTVSPost2010PropOp46
 70
     1
102
RTVSPost2010Prop47
 90
       50
102
RTVSPost2010PropOp47
 70
     1
102
RTVSPost2010Prop48
 90
       50
102
RTVSPost2010PropOp48
 70
     1
102
RTVSPost2010Prop49
280
     0
102
RTVSPost2010PropOp49
 70
     1
102
RTVSPost2010Prop50
 90
       50
102
RTVSPost2010PropOp50
 70
     1
102
RTVSPost2010Prop51ColorIndex
 90
      256
102
RTVSPost2010Prop51ColorRGB
 90
-16777216
102
RTVSPost2010PropOp51
 70
     0
102
RTVSPost2010Prop52
140
1.0
102
RTVSPost2010PropOp52
 70
     0
102
RTVSPost2010Prop53
 90
        2
102
RTVSPost2010PropOp53
 70
     1
102
RTVSPost2010Prop54
  1
strokes_ogs.tif
102
RTVSPost2010PropOp54
 70
     1
102
RTVSPost2010Prop55
280
     0
102
RTVSPost2010PropOp55
 70
     1
102
RTVSPost2010Prop56
140
1.0
102
RTVSPost2010PropOp56
 70
     1
102
RTVSPost2010Prop57
140
1.0
102
RTVSPost2010PropOp57
 70
     1
  0
XRECORD
  5
113
102
{ACAD_REACTORS
330
112
102
}
330
112
100
AcDbXrecord
280
     1
102
RTVSPost2010Prop28
280
     0
102
RTVSPost2010PropOp28
 70
     1
102
RTVSPost2010Prop29
280
     1
102
RTVSPost2010PropOp29
 70
     1
102
RTVSPost2010Prop30
280
     1
102
RTVSPost2010PropOp30
 70
     1
102
RTVSPost2010Prop31
280
     0
102
RTVSPost2010PropOp31
 70
     1
102
RTVSPost2010Prop32
280
     0
102
RTVSPost2010PropOp32
 70
     1
102
RTVSPost2010Prop33
280
     0
102
RTVSPost2010PropOp33
 70
     1
102
RTVSPost2010Prop34
280
     0
102
RTVSPost2010PropOp34
 70
     1
102
RTVSPost2010Prop35
280
     0
102
RTVSPost2010PropOp35
 70
     1
102
RTVSPost2010Prop36
280
     0
102
RTVSPost2010PropOp36
 70
     1
102
RTVSPost2010Prop37
 90
       50
102
RTVSPost2010PropOp37
 70
     1
102
RTVSPost2010Prop38
140
0.0
102
RTVSPost2010PropOp38
 70
     1
102
RTVSPost2010Prop39
140
1.0
102
RTVSPost2010PropOp39
 70
     1
102
RTVSPost2010Prop40
 90
        0
102
RTVSPost2010PropOp40
 70
     1
102
RTVSPost2010Prop41ColorIndex
 90
       18
102
RTVSPost2010Prop41ColorRGB
 90
        0
102
RTVSPost2010PropOp41
 70
     1
102
RTVSPost2010Prop42
 90
       50
102
RTVSPost2010PropOp42
 70
     1
102
RTVSPost2010Prop43
 90
        3
102
RTVSPost2010PropOp43
 70
     1
102
RTVSPost2010Prop44ColorIndex
 90
        5
102
RTVSPost2010Prop44ColorRGB
 90
      255
102
RTVSPost2010PropOp44
 70
     1
102
RTVSPost2010Prop45
280
     0
102
RTVSPost2010PropOp45
 70
     1
102
RTVSPost2010Prop46
 90
       50
102
RTVSPost2010PropOp46
 70
     1
102
RTVSPost2010Prop47
 90
       50
102
RTVSPost2010PropOp47
 70
     1
102
RTVSPost2010Prop48
 90
       50
102
RTVSPost2010PropOp48
 70
     1
102
RTVSPost2010Prop49
280
     0
102
RTVSPost2010PropOp49
 70
     1
102
RTVSPost2010Prop50
 90
       50
102
RTVSPost2010PropOp50
 70
     1
102
RTVSPost2010Prop51ColorIndex
 90
      256
102
RTVSPost2010Prop51ColorRGB
 90
-16777216
102
RTVSPost2010PropOp51
 70
     0
102
RTVSPost2010Prop52
140
1.0
102
RTVSPost2010PropOp52
 70
     0
102
RTVSPost2010Prop53
 90
        2
102
RTVSPost2010PropOp53
 70
     1
102
RTVSPost2010Prop54
  1
strokes_ogs.tif
102
RTVSPost2010PropOp54
 70
     1
102
RTVSPost2010Prop55
280
     0
102
RTVSPost2010PropOp55
 70
     1
102
RTVSPost2010Prop56
140
1.0
102
RTVSPost2010PropOp56
 70
     1
102
RTVSPost2010Prop57
140
1.0
102
RTVSPost2010PropOp57
 70
     1
  0
XRECORD
  5
115
102
{ACAD_REACTORS
330
114
102
}
330
114
100
AcDbXrecord
280
     1
102
RTVSPost2010Prop28
280
     0
102
RTVSPost2010PropOp28
 70
     1
102
RTVSPost2010Prop29
280
     1
102
RTVSPost2010PropOp29
 70
     1
102
RTVSPost2010Prop30
280
     1
102
RTVSPost2010PropOp30
 70
     1
102
RTVSPost2010Prop31
280
     0
102
RTVSPost2010PropOp31
 70
     1
102
RTVSPost2010Prop32
280
     0
102
RTVSPost2010PropOp32
 70
     1
102
RTVSPost2010Prop33
280
     0
102
RTVSPost2010PropOp33
 70
     1
102
RTVSPost2010Prop34
280
     0
102
RTVSPost2010PropOp34
 70
     1
102
RTVSPost2010Prop35
280
     0
102
RTVSPost2010PropOp35
 70
     1
102
RTVSPost2010Prop36
280
     0
102
RTVSPost2010PropOp36
 70
     1
102
RTVSPost2010Prop37
 90
       50
102
RTVSPost2010PropOp37
 70
     1
102
RTVSPost2010Prop38
140
0.0
102
RTVSPost2010PropOp38
 70
     1
102
RTVSPost2010Prop39
140
1.0
102
RTVSPost2010PropOp39
 70
     1
102
RTVSPost2010Prop40
 90
        0
102
RTVSPost2010PropOp40
 70
     1
102
RTVSPost2010Prop41ColorIndex
 90
       18
102
RTVSPost2010Prop41ColorRGB
 90
        0
102
RTVSPost2010PropOp41
 70
     1
102
RTVSPost2010Prop42
 90
       50
102
RTVSPost2010PropOp42
 70
     1
102
RTVSPost2010Prop43
 90
        3
102
RTVSPost2010PropOp43
 70
     1
102
RTVSPost2010Prop44ColorIndex
 90
        5
102
RTVSPost2010Prop44ColorRGB
 90
      255
102
RTVSPost2010PropOp44
 70
     1
102
RTVSPost2010Prop45
280
     0
102
RTVSPost2010PropOp45
 70
     1
102
RTVSPost2010Prop46
 90
       50
102
RTVSPost2010PropOp46
 70
     1
102
RTVSPost2010Prop47
 90
       50
102
RTVSPost2010PropOp47
 70
     1
102
RTVSPost2010Prop48
 90
       50
102
RTVSPost2010PropOp48
 70
     1
102
RTVSPost2010Prop49
280
     0
102
RTVSPost2010PropOp49
 70
     1
102
RTVSPost2010Prop50
 90
       50
102
RTVSPost2010PropOp50
 70
     1
102
RTVSPost2010Prop51ColorIndex
 90
      256
102
RTVSPost2010Prop51ColorRGB
 90
-16777216
102
RTVSPost2010PropOp51
 70
     0
102
RTVSPost2010Prop52
140
1.0
102
RTVSPost2010PropOp52
 70
     0
102
RTVSPost2010Prop53
 90
        2
102
RTVSPost2010PropOp53
 70
     1
102
RTVSPost2010Prop54
  1
strokes_ogs.tif
102
RTVSPost2010PropOp54
 70
     1
102
RTVSPost2010Prop55
280
     0
102
RTVSPost2010PropOp55
 70
     1
102
RTVSPost2010Prop56
140
1.0
102
RTVSPost2010PropOp56
 70
     1
102
RTVSPost2010Prop57
140
1.0
102
RTVSPost2010PropOp57
 70
     1
  0
XRECORD
  5
117
102
{ACAD_REACTORS
330
116
102
}
330
116
100
AcDbXrecord
280
     1
102
RTVSPost2010Prop28
280
     0
102
RTVSPost2010PropOp28
 70
     1
102
RTVSPost2010Prop29
280
     1
102
RTVSPost2010PropOp29
 70
     1
102
RTVSPost2010Prop30
280
     1
102
RTVSPost2010PropOp30
 70
     1
102
RTVSPost2010Prop31
280
     0
102
RTVSPost2010PropOp31
 70
     1
102
RTVSPost2010Prop32
280
     0
102
RTVSPost2010PropOp32
 70
     1
102
RTVSPost2010Prop33
280
     0
102
RTVSPost2010PropOp33
 70
     1
102
RTVSPost2010Prop34
280
     0
102
RTVSPost2010PropOp34
 70
     1
102
RTVSPost2010Prop35
280
     0
102
RTVSPost2010PropOp35
 70
     1
102
RTVSPost2010Prop36
280
     0
102
RTVSPost2010PropOp36
 70
     1
102
RTVSPost2010Prop37
 90
       50
102
RTVSPost2010PropOp37
 70
     1
102
RTVSPost2010Prop38
140
0.0
102
RTVSPost2010PropOp38
 70
     1
102
RTVSPost2010Prop39
140
1.0
102
RTVSPost2010PropOp39
 70
     1
102
RTVSPost2010Prop40
 90
        0
102
RTVSPost2010PropOp40
 70
     1
102
RTVSPost2010Prop41ColorIndex
 90
       18
102
RTVSPost2010Prop41ColorRGB
 90
        0
102
RTVSPost2010PropOp41
 70
     1
102
RTVSPost2010Prop42
 90
       50
102
RTVSPost2010PropOp42
 70
     1
102
RTVSPost2010Prop43
 90
        3
102
RTVSPost2010PropOp43
 70
     1
102
RTVSPost2010Prop44ColorIndex
 90
        5
102
RTVSPost2010Prop44ColorRGB
 90
      255
102
RTVSPost2010PropOp44
 70
     1
102
RTVSPost2010Prop45
280
     0
102
RTVSPost2010PropOp45
 70
     1
102
RTVSPost2010Prop46
 90
       50
102
RTVSPost2010PropOp46
 70
     1
102
RTVSPost2010Prop47
 90
       50
102
RTVSPost2010PropOp47
 70
     1
102
RTVSPost2010Prop48
 90
       50
102
RTVSPost2010PropOp48
 70
     1
102
RTVSPost2010Prop49
280
     0
102
RTVSPost2010PropOp49
 70
     1
102
RTVSPost2010Prop50
 90
       50
102
RTVSPost2010PropOp50
 70
     1
102
RTVSPost2010Prop51ColorIndex
 90
      256
102
RTVSPost2010Prop51ColorRGB
 90
-16777216
102
RTVSPost2010PropOp51
 70
     0
102
RTVSPost2010Prop52
140
1.0
102
RTVSPost2010PropOp52
 70
     0
102
RTVSPost2010Prop53
 90
        2
102
RTVSPost2010PropOp53
 70
     1
102
RTVSPost2010Prop54
  1
strokes_ogs.tif
102
RTVSPost2010PropOp54
 70
     1
102
RTVSPost2010Prop55
280
     0
102
RTVSPost2010PropOp55
 70
     1
102
RTVSPost2010Prop56
140
1.0
102
RTVSPost2010PropOp56
 70
     1
102
RTVSPost2010Prop57
140
1.0
102
RTVSPost2010PropOp57
 70
     1
  0
XRECORD
  5
11F
102
{ACAD_REACTORS
330
11E
102
}
330
11E
100
AcDbXrecord
280
     1
102
RTVSPost2010Prop28
280
     0
102
RTVSPost2010PropOp28
 70
     1
102
RTVSPost2010Prop29
280
     1
102
RTVSPost2010PropOp29
 70
     1
102
RTVSPost2010Prop30
280
     1
102
RTVSPost2010PropOp30
 70
     1
102
RTVSPost2010Prop31
280
     0
102
RTVSPost2010PropOp31
 70
     1
102
RTVSPost2010Prop32
280
     0
102
RTVSPost2010PropOp32
 70
     1
102
RTVSPost2010Prop33
280
     0
102
RTVSPost2010PropOp33
 70
     1
102
RTVSPost2010Prop34
280
     0
102
RTVSPost2010PropOp34
 70
     1
102
RTVSPost2010Prop35
280
     0
102
RTVSPost2010PropOp35
 70
     1
102
RTVSPost2010Prop36
280
     0
102
RTVSPost2010PropOp36
 70
     1
102
RTVSPost2010Prop37
 90
       50
102
RTVSPost2010PropOp37
 70
     1
102
RTVSPost2010Prop38
140
0.0
102
RTVSPost2010PropOp38
 70
     1
102
RTVSPost2010Prop39
140
1.0
102
RTVSPost2010PropOp39
 70
     1
102
RTVSPost2010Prop40
 90
        0
102
RTVSPost2010PropOp40
 70
     1
102
RTVSPost2010Prop41ColorIndex
 90
       18
102
RTVSPost2010Prop41ColorRGB
 90
        0
102
RTVSPost2010PropOp41
 70
     1
102
RTVSPost2010Prop42
 90
       50
102
RTVSPost2010PropOp42
 70
     1
102
RTVSPost2010Prop43
 90
        3
102
RTVSPost2010PropOp43
 70
     1
102
RTVSPost2010Prop44ColorIndex
 90
        5
102
RTVSPost2010Prop44ColorRGB
 90
      255
102
RTVSPost2010PropOp44
 70
     1
102
RTVSPost2010Prop45
280
     0
102
RTVSPost2010PropOp45
 70
     1
102
RTVSPost2010Prop46
 90
       50
102
RTVSPost2010PropOp46
 70
     1
102
RTVSPost2010Prop47
 90
       50
102
RTVSPost2010PropOp47
 70
     1
102
RTVSPost2010Prop48
 90
       50
102
RTVSPost2010PropOp48
 70
     1
102
RTVSPost2010Prop49
280
     0
102
RTVSPost2010PropOp49
 70
     1
102
RTVSPost2010Prop50
 90
       50
102
RTVSPost2010PropOp50
 70
     1
102
RTVSPost2010Prop51ColorIndex
 90
      256
102
RTVSPost2010Prop51ColorRGB
 90
-16777216
102
RTVSPost2010PropOp51
 70
     0
102
RTVSPost2010Prop52
140
1.0
102
RTVSPost2010PropOp52
 70
     0
102
RTVSPost2010Prop53
 90
        2
102
RTVSPost2010PropOp53
 70
     1
102
RTVSPost2010Prop54
  1
strokes_ogs.tif
102
RTVSPost2010PropOp54
 70
     1
102
RTVSPost2010Prop55
280
     0
102
RTVSPost2010PropOp55
 70
     1
102
RTVSPost2010Prop56
140
1.0
102
RTVSPost2010PropOp56
 70
     1
102
RTVSPost2010Prop57
140
1.0
102
RTVSPost2010PropOp57
 70
     1
  0
XRECORD
  5
13B
102
{ACAD_REACTORS
330
13A
102
}
330
13A
100
AcDbXrecord
280
     1
102
RTVSPost2010Prop28
280
     0
102
RTVSPost2010PropOp28
 70
     0
102
RTVSPost2010Prop29
280
     1
102
RTVSPost2010PropOp29
 70
     0
102
RTVSPost2010Prop30
280
     1
102
RTVSPost2010PropOp30
 70
     0
102
RTVSPost2010Prop31
280
     0
102
RTVSPost2010PropOp31
 70
     0
102
RTVSPost2010Prop32
280
     0
102
RTVSPost2010PropOp32
 70
     0
102
RTVSPost2010Prop33
280
     0
102
RTVSPost2010PropOp33
 70
     0
102
RTVSPost2010Prop34
280
     0
102
RTVSPost2010PropOp34
 70
     0
102
RTVSPost2010Prop35
280
     0
102
RTVSPost2010PropOp35
 70
     0
102
RTVSPost2010Prop36
280
     0
102
RTVSPost2010PropOp36
 70
     0
102
RTVSPost2010Prop37
 90
       50
102
RTVSPost2010PropOp37
 70
     0
102
RTVSPost2010Prop38
140
0.0
102
RTVSPost2010PropOp38
 70
     0
102
RTVSPost2010Prop39
140
1.0
102
RTVSPost2010PropOp39
 70
     0
102
RTVSPost2010Prop40
 90
        0
102
RTVSPost2010PropOp40
 70
     0
102
RTVSPost2010Prop41ColorIndex
 90
       18
102
RTVSPost2010Prop41ColorRGB
 90
        0
102
RTVSPost2010PropOp41
 70
     0
102
RTVSPost2010Prop42
 90
       50
102
RTVSPost2010PropOp42
 70
     0
102
RTVSPost2010Prop43
 90
        3
102
RTVSPost2010PropOp43
 70
     0
102
RTVSPost2010Prop44ColorIndex
 90
        5
102
RTVSPost2010Prop44ColorRGB
 90
      255
102
RTVSPost2010PropOp44
 70
     0
102
RTVSPost2010Prop45
280
     0
102
RTVSPost2010PropOp45
 70
     0
102
RTVSPost2010Prop46
 90
       50
102
RTVSPost2010PropOp46
 70
     0
102
RTVSPost2010Prop47
 90
       50
102
RTVSPost2010PropOp47
 70
     0
102
RTVSPost2010Prop48
 90
       50
102
RTVSPost2010PropOp48
 70
     0
102
RTVSPost2010Prop49
280
     0
102
RTVSPost2010PropOp49
 70
     0
102
RTVSPost2010Prop50
 90
       50
102
RTVSPost2010PropOp50
 70
     0
102
RTVSPost2010Prop51ColorIndex
 90
      256
102
RTVSPost2010Prop51ColorRGB
 90
-16777216
102
RTVSPost2010PropOp51
 70
     0
102
RTVSPost2010Prop52
140
1.0
102
RTVSPost2010PropOp52
 70
     0
102
RTVSPost2010Prop53
 90
        2
102
RTVSPost2010PropOp53
 70
     0
102
RTVSPost2010Prop54
  1
strokes_ogs.tif
102
RTVSPost2010PropOp54
 70
     0
102
RTVSPost2010Prop55
280
     0
102
RTVSPost2010PropOp55
 70
     0
102
RTVSPost2010Prop56
140
1.0
102
RTVSPost2010PropOp56
 70
     0
102
RTVSPost2010Prop57
140
1.0
102
RTVSPost2010PropOp57
 70
     0
  0
XRECORD
  5
12B
102
{ACAD_REACTORS
330
12A
102
}
330
12A
100
AcDbXrecord
280
     1
102
RTVSPost2010Prop28
280
     0
102
RTVSPost2010PropOp28
 70
     1
102
RTVSPost2010Prop29
280
     1
102
RTVSPost2010PropOp29
 70
     1
102
RTVSPost2010Prop30
280
     1
102
RTVSPost2010PropOp30
 70
     1
102
RTVSPost2010Prop31
280
     0
102
RTVSPost2010PropOp31
 70
     1
102
RTVSPost2010Prop32
280
     0
102
RTVSPost2010PropOp32
 70
     1
102
RTVSPost2010Prop33
280
     0
102
RTVSPost2010PropOp33
 70
     1
102
RTVSPost2010Prop34
280
     0
102
RTVSPost2010PropOp34
 70
     1
102
RTVSPost2010Prop35
280
     0
102
RTVSPost2010PropOp35
 70
     1
102
RTVSPost2010Prop36
280
     0
102
RTVSPost2010PropOp36
 70
     1
102
RTVSPost2010Prop37
 90
       50
102
RTVSPost2010PropOp37
 70
     1
102
RTVSPost2010Prop38
140
0.0
102
RTVSPost2010PropOp38
 70
     1
102
RTVSPost2010Prop39
140
1.0
102
RTVSPost2010PropOp39
 70
     1
102
RTVSPost2010Prop40
 90
        0
102
RTVSPost2010PropOp40
 70
     1
102
RTVSPost2010Prop41ColorIndex
 90
       18
102
RTVSPost2010Prop41ColorRGB
 90
        0
102
RTVSPost2010PropOp41
 70
     1
102
RTVSPost2010Prop42
 90
       50
102
RTVSPost2010PropOp42
 70
     1
102
RTVSPost2010Prop43
 90
        3
102
RTVSPost2010PropOp43
 70
     1
102
RTVSPost2010Prop44ColorIndex
 90
        5
102
RTVSPost2010Prop44ColorRGB
 90
      255
102
RTVSPost2010PropOp44
 70
     1
102
RTVSPost2010Prop45
280
     0
102
RTVSPost2010PropOp45
 70
     1
102
RTVSPost2010Prop46
 90
       50
102
RTVSPost2010PropOp46
 70
     1
102
RTVSPost2010Prop47
 90
       50
102
RTVSPost2010PropOp47
 70
     1
102
RTVSPost2010Prop48
 90
       50
102
RTVSPost2010PropOp48
 70
     1
102
RTVSPost2010Prop49
280
     0
102
RTVSPost2010PropOp49
 70
     1
102
RTVSPost2010Prop50
 90
       50
102
RTVSPost2010PropOp50
 70
     1
102
RTVSPost2010Prop51ColorIndex
 90
      256
102
RTVSPost2010Prop51ColorRGB
 90
-16777216
102
RTVSPost2010PropOp51
 70
     0
102
RTVSPost2010Prop52
140
1.0
102
RTVSPost2010PropOp52
 70
     0
102
RTVSPost2010Prop53
 90
        2
102
RTVSPost2010PropOp53
 70
     1
102
RTVSPost2010Prop54
  1
strokes_ogs.tif
102
RTVSPost2010PropOp54
 70
     1
102
RTVSPost2010Prop55
280
     0
102
RTVSPost2010PropOp55
 70
     1
102
RTVSPost2010Prop56
140
1.0
102
RTVSPost2010PropOp56
 70
     1
102
RTVSPost2010Prop57
140
1.0
102
RTVSPost2010PropOp57
 70
     1
  0
XRECORD
  5
13D
102
{ACAD_REACTORS
330
13C
102
}
330
13C
100
AcDbXrecord
280
     1
102
RTVSPost2010Prop28
280
     0
102
RTVSPost2010PropOp28
 70
     0
102
RTVSPost2010Prop29
280
     1
102
RTVSPost2010PropOp29
 70
     0
102
RTVSPost2010Prop30
280
     1
102
RTVSPost2010PropOp30
 70
     0
102
RTVSPost2010Prop31
280
     0
102
RTVSPost2010PropOp31
 70
     0
102
RTVSPost2010Prop32
280
     0
102
RTVSPost2010PropOp32
 70
     0
102
RTVSPost2010Prop33
280
     0
102
RTVSPost2010PropOp33
 70
     0
102
RTVSPost2010Prop34
280
     0
102
RTVSPost2010PropOp34
 70
     0
102
RTVSPost2010Prop35
280
     0
102
RTVSPost2010PropOp35
 70
     0
102
RTVSPost2010Prop36
280
     0
102
RTVSPost2010PropOp36
 70
     0
102
RTVSPost2010Prop37
 90
       50
102
RTVSPost2010PropOp37
 70
     0
102
RTVSPost2010Prop38
140
0.0
102
RTVSPost2010PropOp38
 70
     0
102
RTVSPost2010Prop39
140
1.0
102
RTVSPost2010PropOp39
 70
     0
102
RTVSPost2010Prop40
 90
        0
102
RTVSPost2010PropOp40
 70
     0
102
RTVSPost2010Prop41ColorIndex
 90
       18
102
RTVSPost2010Prop41ColorRGB
 90
        0
102
RTVSPost2010PropOp41
 70
     0
102
RTVSPost2010Prop42
 90
       50
102
RTVSPost2010PropOp42
 70
     0
102
RTVSPost2010Prop43
 90
        3
102
RTVSPost2010PropOp43
 70
     0
102
RTVSPost2010Prop44ColorIndex
 90
        5
102
RTVSPost2010Prop44ColorRGB
 90
      255
102
RTVSPost2010PropOp44
 70
     0
102
RTVSPost2010Prop45
280
     0
102
RTVSPost2010PropOp45
 70
     0
102
RTVSPost2010Prop46
 90
       50
102
RTVSPost2010PropOp46
 70
     0
102
RTVSPost2010Prop47
 90
       50
102
RTVSPost2010PropOp47
 70
     0
102
RTVSPost2010Prop48
 90
       50
102
RTVSPost2010PropOp48
 70
     0
102
RTVSPost2010Prop49
280
     0
102
RTVSPost2010PropOp49
 70
     0
102
RTVSPost2010Prop50
 90
       50
102
RTVSPost2010PropOp50
 70
     0
102
RTVSPost2010Prop51ColorIndex
 90
      256
102
RTVSPost2010Prop51ColorRGB
 90
-16777216
102
RTVSPost2010PropOp51
 70
     0
102
RTVSPost2010Prop52
140
1.0
102
RTVSPost2010PropOp52
 70
     0
102
RTVSPost2010Prop53
 90
        2
102
RTVSPost2010PropOp53
 70
     0
102
RTVSPost2010Prop54
  1
strokes_ogs.tif
102
RTVSPost2010PropOp54
 70
     0
102
RTVSPost2010Prop55
280
     0
102
RTVSPost2010PropOp55
 70
     0
102
RTVSPost2010Prop56
140
1.0
102
RTVSPost2010PropOp56
 70
     0
102
RTVSPost2010Prop57
140
1.0
102
RTVSPost2010PropOp57
 70
     0
  0
XRECORD
  5
123
102
{ACAD_REACTORS
330
122
102
}
330
122
100
AcDbXrecord
280
     1
102
RTVSPost2010Prop28
280
     0
102
RTVSPost2010PropOp28
 70
     1
102
RTVSPost2010Prop29
280
     1
102
RTVSPost2010PropOp29
 70
     1
102
RTVSPost2010Prop30
280
     1
102
RTVSPost2010PropOp30
 70
     1
102
RTVSPost2010Prop31
280
     0
102
RTVSPost2010PropOp31
 70
     1
102
RTVSPost2010Prop32
280
     0
102
RTVSPost2010PropOp32
 70
     1
102
RTVSPost2010Prop33
280
     0
102
RTVSPost2010PropOp33
 70
     1
102
RTVSPost2010Prop34
280
     0
102
RTVSPost2010PropOp34
 70
     1
102
RTVSPost2010Prop35
280
     0
102
RTVSPost2010PropOp35
 70
     1
102
RTVSPost2010Prop36
280
     0
102
RTVSPost2010PropOp36
 70
     1
102
RTVSPost2010Prop37
 90
       50
102
RTVSPost2010PropOp37
 70
     1
102
RTVSPost2010Prop38
140
0.0
102
RTVSPost2010PropOp38
 70
     1
102
RTVSPost2010Prop39
140
1.0
102
RTVSPost2010PropOp39
 70
     1
102
RTVSPost2010Prop40
 90
        0
102
RTVSPost2010PropOp40
 70
     1
102
RTVSPost2010Prop41ColorIndex
 90
       18
102
RTVSPost2010Prop41ColorRGB
 90
        0
102
RTVSPost2010PropOp41
 70
     1
102
RTVSPost2010Prop42
 90
       50
102
RTVSPost2010PropOp42
 70
     1
102
RTVSPost2010Prop43
 90
        3
102
RTVSPost2010PropOp43
 70
     1
102
RTVSPost2010Prop44ColorIndex
 90
        5
102
RTVSPost2010Prop44ColorRGB
 90
      255
102
RTVSPost2010PropOp44
 70
     1
102
RTVSPost2010Prop45
280
     0
102
RTVSPost2010PropOp45
 70
     1
102
RTVSPost2010Prop46
 90
       50
102
RTVSPost2010PropOp46
 70
     1
102
RTVSPost2010Prop47
 90
       50
102
RTVSPost2010PropOp47
 70
     1
102
RTVSPost2010Prop48
 90
       50
102
RTVSPost2010PropOp48
 70
     1
102
RTVSPost2010Prop49
280
     0
102
RTVSPost2010PropOp49
 70
     1
102
RTVSPost2010Prop50
 90
       50
102
RTVSPost2010PropOp50
 70
     1
102
RTVSPost2010Prop51ColorIndex
 90
      256
102
RTVSPost2010Prop51ColorRGB
 90
-16777216
102
RTVSPost2010PropOp51
 70
     0
102
RTVSPost2010Prop52
140
1.0
102
RTVSPost2010PropOp52
 70
     0
102
RTVSPost2010Prop53
 90
        2
102
RTVSPost2010PropOp53
 70
     1
102
RTVSPost2010Prop54
  1
strokes_ogs.tif
102
RTVSPost2010PropOp54
 70
     1
102
RTVSPost2010Prop55
280
     0
102
RTVSPost2010PropOp55
 70
     1
102
RTVSPost2010Prop56
140
1.0
102
RTVSPost2010PropOp56
 70
     1
102
RTVSPost2010Prop57
140
1.0
102
RTVSPost2010PropOp57
 70
     1
  0
XRECORD
  5
139
102
{ACAD_REACTORS
330
138
102
}
330
138
100
AcDbXrecord
280
     1
102
RTVSPost2010Prop28
280
     0
102
RTVSPost2010PropOp28
 70
     1
102
RTVSPost2010Prop29
280
     1
102
RTVSPost2010PropOp29
 70
     1
102
RTVSPost2010Prop30
280
     1
102
RTVSPost2010PropOp30
 70
     1
102
RTVSPost2010Prop31
280
     0
102
RTVSPost2010PropOp31
 70
     1
102
RTVSPost2010Prop32
280
     0
102
RTVSPost2010PropOp32
 70
     1
102
RTVSPost2010Prop33
280
     0
102
RTVSPost2010PropOp33
 70
     1
102
RTVSPost2010Prop34
280
     0
102
RTVSPost2010PropOp34
 70
     1
102
RTVSPost2010Prop35
280
     0
102
RTVSPost2010PropOp35
 70
     1
102
RTVSPost2010Prop36
280
     0
102
RTVSPost2010PropOp36
 70
     1
102
RTVSPost2010Prop37
 90
       50
102
RTVSPost2010PropOp37
 70
     1
102
RTVSPost2010Prop38
140
0.0
102
RTVSPost2010PropOp38
 70
     1
102
RTVSPost2010Prop39
140
1.0
102
RTVSPost2010PropOp39
 70
     1
102
RTVSPost2010Prop40
 90
        0
102
RTVSPost2010PropOp40
 70
     1
102
RTVSPost2010Prop41ColorIndex
 90
       18
102
RTVSPost2010Prop41ColorRGB
 90
        0
102
RTVSPost2010PropOp41
 70
     1
102
RTVSPost2010Prop42
 90
       50
102
RTVSPost2010PropOp42
 70
     1
102
RTVSPost2010Prop43
 90
        3
102
RTVSPost2010PropOp43
 70
     1
102
RTVSPost2010Prop44ColorIndex
 90
        5
102
RTVSPost2010Prop44ColorRGB
 90
      255
102
RTVSPost2010PropOp44
 70
     1
102
RTVSPost2010Prop45
280
     0
102
RTVSPost2010PropOp45
 70
     1
102
RTVSPost2010Prop46
 90
       50
102
RTVSPost2010PropOp46
 70
     1
102
RTVSPost2010Prop47
 90
       50
102
RTVSPost2010PropOp47
 70
     1
102
RTVSPost2010Prop48
 90
       50
102
RTVSPost2010PropOp48
 70
     1
102
RTVSPost2010Prop49
280
     0
102
RTVSPost2010PropOp49
 70
     1
102
RTVSPost2010Prop50
 90
       50
102
RTVSPost2010PropOp50
 70
     1
102
RTVSPost2010Prop51ColorIndex
 90
      256
102
RTVSPost2010Prop51ColorRGB
 90
-16777216
102
RTVSPost2010PropOp51
 70
     0
102
RTVSPost2010Prop52
140
1.0
102
RTVSPost2010PropOp52
 70
     0
102
RTVSPost2010Prop53
 90
        2
102
RTVSPost2010PropOp53
 70
     1
102
RTVSPost2010Prop54
  1
strokes_ogs.tif
102
RTVSPost2010PropOp54
 70
     1
102
RTVSPost2010Prop55
280
     0
102
RTVSPost2010PropOp55
 70
     1
102
RTVSPost2010Prop56
140
1.0
102
RTVSPost2010PropOp56
 70
     1
102
RTVSPost2010Prop57
140
1.0
102
RTVSPost2010PropOp57
 70
     1
  0
XRECORD
  5
137
102
{ACAD_REACTORS
330
136
102
}
330
136
100
AcDbXrecord
280
     1
102
RTVSPost2010Prop28
280
     0
102
RTVSPost2010PropOp28
 70
     1
102
RTVSPost2010Prop29
280
     1
102
RTVSPost2010PropOp29
 70
     1
102
RTVSPost2010Prop30
280
     1
102
RTVSPost2010PropOp30
 70
     1
102
RTVSPost2010Prop31
280
     0
102
RTVSPost2010PropOp31
 70
     1
102
RTVSPost2010Prop32
280
     0
102
RTVSPost2010PropOp32
 70
     1
102
RTVSPost2010Prop33
280
     0
102
RTVSPost2010PropOp33
 70
     1
102
RTVSPost2010Prop34
280
     0
102
RTVSPost2010PropOp34
 70
     1
102
RTVSPost2010Prop35
280
     0
102
RTVSPost2010PropOp35
 70
     1
102
RTVSPost2010Prop36
280
     0
102
RTVSPost2010PropOp36
 70
     1
102
RTVSPost2010Prop37
 90
       50
102
RTVSPost2010PropOp37
 70
     1
102
RTVSPost2010Prop38
140
0.0
102
RTVSPost2010PropOp38
 70
     1
102
RTVSPost2010Prop39
140
1.0
102
RTVSPost2010PropOp39
 70
     1
102
RTVSPost2010Prop40
 90
        0
102
RTVSPost2010PropOp40
 70
     1
102
RTVSPost2010Prop41ColorIndex
 90
       18
102
RTVSPost2010Prop41ColorRGB
 90
        0
102
RTVSPost2010PropOp41
 70
     1
102
RTVSPost2010Prop42
 90
       50
102
RTVSPost2010PropOp42
 70
     1
102
RTVSPost2010Prop43
 90
        3
102
RTVSPost2010PropOp43
 70
     1
102
RTVSPost2010Prop44ColorIndex
 90
        5
102
RTVSPost2010Prop44ColorRGB
 90
      255
102
RTVSPost2010PropOp44
 70
     1
102
RTVSPost2010Prop45
280
     0
102
RTVSPost2010PropOp45
 70
     1
102
RTVSPost2010Prop46
 90
       50
102
RTVSPost2010PropOp46
 70
     1
102
RTVSPost2010Prop47
 90
       50
102
RTVSPost2010PropOp47
 70
     1
102
RTVSPost2010Prop48
 90
       50
102
RTVSPost2010PropOp48
 70
     1
102
RTVSPost2010Prop49
280
     0
102
RTVSPost2010PropOp49
 70
     1
102
RTVSPost2010Prop50
 90
       50
102
RTVSPost2010PropOp50
 70
     1
102
RTVSPost2010Prop51ColorIndex
 90
      256
102
RTVSPost2010Prop51ColorRGB
 90
-16777216
102
RTVSPost2010PropOp51
 70
     0
102
RTVSPost2010Prop52
140
1.0
102
RTVSPost2010PropOp52
 70
     0
102
RTVSPost2010Prop53
 90
        2
102
RTVSPost2010PropOp53
 70
     1
102
RTVSPost2010Prop54
  1
strokes_ogs.tif
102
RTVSPost2010PropOp54
 70
     1
102
RTVSPost2010Prop55
280
     0
102
RTVSPost2010PropOp55
 70
     1
102
RTVSPost2010Prop56
140
1.0
102
RTVSPost2010PropOp56
 70
     1
102
RTVSPost2010Prop57
140
1.0
102
RTVSPost2010PropOp57
 70
     1
  0
XRECORD
  5
131
102
{ACAD_REACTORS
330
130
102
}
330
130
100
AcDbXrecord
280
     1
102
RTVSPost2010Prop28
280
     0
102
RTVSPost2010PropOp28
 70
     1
102
RTVSPost2010Prop29
280
     1
102
RTVSPost2010PropOp29
 70
     1
102
RTVSPost2010Prop30
280
     1
102
RTVSPost2010PropOp30
 70
     1
102
RTVSPost2010Prop31
280
     0
102
RTVSPost2010PropOp31
 70
     1
102
RTVSPost2010Prop32
280
     0
102
RTVSPost2010PropOp32
 70
     1
102
RTVSPost2010Prop33
280
     0
102
RTVSPost2010PropOp33
 70
     1
102
RTVSPost2010Prop34
280
     0
102
RTVSPost2010PropOp34
 70
     1
102
RTVSPost2010Prop35
280
     0
102
RTVSPost2010PropOp35
 70
     1
102
RTVSPost2010Prop36
280
     0
102
RTVSPost2010PropOp36
 70
     1
102
RTVSPost2010Prop37
 90
       50
102
RTVSPost2010PropOp37
 70
     1
102
RTVSPost2010Prop38
140
0.0
102
RTVSPost2010PropOp38
 70
     1
102
RTVSPost2010Prop39
140
1.0
102
RTVSPost2010PropOp39
 70
     1
102
RTVSPost2010Prop40
 90
        0
102
RTVSPost2010PropOp40
 70
     1
102
RTVSPost2010Prop41ColorIndex
 90
       18
102
RTVSPost2010Prop41ColorRGB
 90
        0
102
RTVSPost2010PropOp41
 70
     1
102
RTVSPost2010Prop42
 90
       50
102
RTVSPost2010PropOp42
 70
     1
102
RTVSPost2010Prop43
 90
        3
102
RTVSPost2010PropOp43
 70
     1
102
RTVSPost2010Prop44ColorIndex
 90
        5
102
RTVSPost2010Prop44ColorRGB
 90
      255
102
RTVSPost2010PropOp44
 70
     1
102
RTVSPost2010Prop45
280
     0
102
RTVSPost2010PropOp45
 70
     1
102
RTVSPost2010Prop46
 90
       50
102
RTVSPost2010PropOp46
 70
     1
102
RTVSPost2010Prop47
 90
       50
102
RTVSPost2010PropOp47
 70
     1
102
RTVSPost2010Prop48
 90
       50
102
RTVSPost2010PropOp48
 70
     1
102
RTVSPost2010Prop49
280
     0
102
RTVSPost2010PropOp49
 70
     1
102
RTVSPost2010Prop50
 90
       50
102
RTVSPost2010PropOp50
 70
     1
102
RTVSPost2010Prop51ColorIndex
 90
      256
102
RTVSPost2010Prop51ColorRGB
 90
-16777216
102
RTVSPost2010PropOp51
 70
     0
102
RTVSPost2010Prop52
140
1.0
102
RTVSPost2010PropOp52
 70
     0
102
RTVSPost2010Prop53
 90
        2
102
RTVSPost2010PropOp53
 70
     1
102
RTVSPost2010Prop54
  1
strokes_ogs.tif
102
RTVSPost2010PropOp54
 70
     1
102
RTVSPost2010Prop55
280
     0
102
RTVSPost2010PropOp55
 70
     1
102
RTVSPost2010Prop56
140
1.0
102
RTVSPost2010PropOp56
 70
     1
102
RTVSPost2010Prop57
140
1.0
102
RTVSPost2010PropOp57
 70
     1
  0
XRECORD
  5
133
102
{ACAD_REACTORS
330
132
102
}
330
132
100
AcDbXrecord
280
     1
102
RTVSPost2010Prop28
280
     0
102
RTVSPost2010PropOp28
 70
     1
102
RTVSPost2010Prop29
280
     1
102
RTVSPost2010PropOp29
 70
     1
102
RTVSPost2010Prop30
280
     1
102
RTVSPost2010PropOp30
 70
     1
102
RTVSPost2010Prop31
280
     0
102
RTVSPost2010PropOp31
 70
     1
102
RTVSPost2010Prop32
280
     0
102
RTVSPost2010PropOp32
 70
     1
102
RTVSPost2010Prop33
280
     0
102
RTVSPost2010PropOp33
 70
     1
102
RTVSPost2010Prop34
280
     0
102
RTVSPost2010PropOp34
 70
     1
102
RTVSPost2010Prop35
280
     0
102
RTVSPost2010PropOp35
 70
     1
102
RTVSPost2010Prop36
280
     0
102
RTVSPost2010PropOp36
 70
     1
102
RTVSPost2010Prop37
 90
       50
102
RTVSPost2010PropOp37
 70
     1
102
RTVSPost2010Prop38
140
0.0
102
RTVSPost2010PropOp38
 70
     1
102
RTVSPost2010Prop39
140
1.0
102
RTVSPost2010PropOp39
 70
     1
102
RTVSPost2010Prop40
 90
        0
102
RTVSPost2010PropOp40
 70
     1
102
RTVSPost2010Prop41ColorIndex
 90
       18
102
RTVSPost2010Prop41ColorRGB
 90
        0
102
RTVSPost2010PropOp41
 70
     1
102
RTVSPost2010Prop42
 90
       50
102
RTVSPost2010PropOp42
 70
     1
102
RTVSPost2010Prop43
 90
        3
102
RTVSPost2010PropOp43
 70
     1
102
RTVSPost2010Prop44ColorIndex
 90
        5
102
RTVSPost2010Prop44ColorRGB
 90
      255
102
RTVSPost2010PropOp44
 70
     1
102
RTVSPost2010Prop45
280
     0
102
RTVSPost2010PropOp45
 70
     1
102
RTVSPost2010Prop46
 90
       50
102
RTVSPost2010PropOp46
 70
     1
102
RTVSPost2010Prop47
 90
       50
102
RTVSPost2010PropOp47
 70
     1
102
RTVSPost2010Prop48
 90
       50
102
RTVSPost2010PropOp48
 70
     1
102
RTVSPost2010Prop49
280
     0
102
RTVSPost2010PropOp49
 70
     1
102
RTVSPost2010Prop50
 90
       50
102
RTVSPost2010PropOp50
 70
     1
102
RTVSPost2010Prop51ColorIndex
 90
      256
102
RTVSPost2010Prop51ColorRGB
 90
-16777216
102
RTVSPost2010PropOp51
 70
     0
102
RTVSPost2010Prop52
140
1.0
102
RTVSPost2010PropOp52
 70
     0
102
RTVSPost2010Prop53
 90
        2
102
RTVSPost2010PropOp53
 70
     1
102
RTVSPost2010Prop54
  1
strokes_ogs.tif
102
RTVSPost2010PropOp54
 70
     1
102
RTVSPost2010Prop55
280
     0
102
RTVSPost2010PropOp55
 70
     1
102
RTVSPost2010Prop56
140
1.0
102
RTVSPost2010PropOp56
 70
     1
102
RTVSPost2010Prop57
140
1.0
102
RTVSPost2010PropOp57
 70
     1
  0
XRECORD
  5
129
102
{ACAD_REACTORS
330
128
102
}
330
128
100
AcDbXrecord
280
     1
102
RTVSPost2010Prop28
280
     0
102
RTVSPost2010PropOp28
 70
     1
102
RTVSPost2010Prop29
280
     1
102
RTVSPost2010PropOp29
 70
     1
102
RTVSPost2010Prop30
280
     1
102
RTVSPost2010PropOp30
 70
     1
102
RTVSPost2010Prop31
280
     0
102
RTVSPost2010PropOp31
 70
     1
102
RTVSPost2010Prop32
280
     0
102
RTVSPost2010PropOp32
 70
     1
102
RTVSPost2010Prop33
280
     0
102
RTVSPost2010PropOp33
 70
     1
102
RTVSPost2010Prop34
280
     0
102
RTVSPost2010PropOp34
 70
     1
102
RTVSPost2010Prop35
280
     0
102
RTVSPost2010PropOp35
 70
     1
102
RTVSPost2010Prop36
280
     0
102
RTVSPost2010PropOp36
 70
     1
102
RTVSPost2010Prop37
 90
       50
102
RTVSPost2010PropOp37
 70
     1
102
RTVSPost2010Prop38
140
0.0
102
RTVSPost2010PropOp38
 70
     1
102
RTVSPost2010Prop39
140
1.0
102
RTVSPost2010PropOp39
 70
     1
102
RTVSPost2010Prop40
 90
        0
102
RTVSPost2010PropOp40
 70
     1
102
RTVSPost2010Prop41ColorIndex
 90
       18
102
RTVSPost2010Prop41ColorRGB
 90
        0
102
RTVSPost2010PropOp41
 70
     1
102
RTVSPost2010Prop42
 90
       50
102
RTVSPost2010PropOp42
 70
     1
102
RTVSPost2010Prop43
 90
        3
102
RTVSPost2010PropOp43
 70
     1
102
RTVSPost2010Prop44ColorIndex
 90
        5
102
RTVSPost2010Prop44ColorRGB
 90
      255
102
RTVSPost2010PropOp44
 70
     1
102
RTVSPost2010Prop45
280
     0
102
RTVSPost2010PropOp45
 70
     1
102
RTVSPost2010Prop46
 90
       50
102
RTVSPost2010PropOp46
 70
     1
102
RTVSPost2010Prop47
 90
       50
102
RTVSPost2010PropOp47
 70
     1
102
RTVSPost2010Prop48
 90
       50
102
RTVSPost2010PropOp48
 70
     1
102
RTVSPost2010Prop49
280
     0
102
RTVSPost2010PropOp49
 70
     1
102
RTVSPost2010Prop50
 90
       50
102
RTVSPost2010PropOp50
 70
     1
102
RTVSPost2010Prop51ColorIndex
 90
      256
102
RTVSPost2010Prop51ColorRGB
 90
-16777216
102
RTVSPost2010PropOp51
 70
     0
102
RTVSPost2010Prop52
140
1.0
102
RTVSPost2010PropOp52
 70
     0
102
RTVSPost2010Prop53
 90
        2
102
RTVSPost2010PropOp53
 70
     1
102
RTVSPost2010Prop54
  1
strokes_ogs.tif
102
RTVSPost2010PropOp54
 70
     1
102
RTVSPost2010Prop55
280
     0
102
RTVSPost2010PropOp55
 70
     1
102
RTVSPost2010Prop56
140
1.0
102
RTVSPost2010PropOp56
 70
     1
102
RTVSPost2010Prop57
140
1.0
102
RTVSPost2010PropOp57
 70
     1
  0
XRECORD
  5
11D
102
{ACAD_REACTORS
330
11C
102
}
330
11C
100
AcDbXrecord
280
     1
102
RTVSPost2010Prop28
280
     0
102
RTVSPost2010PropOp28
 70
     1
102
RTVSPost2010Prop29
280
     1
102
RTVSPost2010PropOp29
 70
     1
102
RTVSPost2010Prop30
280
     1
102
RTVSPost2010PropOp30
 70
     1
102
RTVSPost2010Prop31
280
     0
102
RTVSPost2010PropOp31
 70
     1
102
RTVSPost2010Prop32
280
     0
102
RTVSPost2010PropOp32
 70
     1
102
RTVSPost2010Prop33
280
     0
102
RTVSPost2010PropOp33
 70
     1
102
RTVSPost2010Prop34
280
     0
102
RTVSPost2010PropOp34
 70
     1
102
RTVSPost2010Prop35
280
     0
102
RTVSPost2010PropOp35
 70
     1
102
RTVSPost2010Prop36
280
     0
102
RTVSPost2010PropOp36
 70
     1
102
RTVSPost2010Prop37
 90
       50
102
RTVSPost2010PropOp37
 70
     1
102
RTVSPost2010Prop38
140
0.0
102
RTVSPost2010PropOp38
 70
     1
102
RTVSPost2010Prop39
140
1.0
102
RTVSPost2010PropOp39
 70
     1
102
RTVSPost2010Prop40
 90
        0
102
RTVSPost2010PropOp40
 70
     1
102
RTVSPost2010Prop41ColorIndex
 90
       18
102
RTVSPost2010Prop41ColorRGB
 90
        0
102
RTVSPost2010PropOp41
 70
     1
102
RTVSPost2010Prop42
 90
       50
102
RTVSPost2010PropOp42
 70
     1
102
RTVSPost2010Prop43
 90
        3
102
RTVSPost2010PropOp43
 70
     1
102
RTVSPost2010Prop44ColorIndex
 90
        5
102
RTVSPost2010Prop44ColorRGB
 90
      255
102
RTVSPost2010PropOp44
 70
     1
102
RTVSPost2010Prop45
280
     0
102
RTVSPost2010PropOp45
 70
     1
102
RTVSPost2010Prop46
 90
       50
102
RTVSPost2010PropOp46
 70
     1
102
RTVSPost2010Prop47
 90
       50
102
RTVSPost2010PropOp47
 70
     1
102
RTVSPost2010Prop48
 90
       50
102
RTVSPost2010PropOp48
 70
     1
102
RTVSPost2010Prop49
280
     0
102
RTVSPost2010PropOp49
 70
     1
102
RTVSPost2010Prop50
 90
       50
102
RTVSPost2010PropOp50
 70
     1
102
RTVSPost2010Prop51ColorIndex
 90
      256
102
RTVSPost2010Prop51ColorRGB
 90
-16777216
102
RTVSPost2010PropOp51
 70
     0
102
RTVSPost2010Prop52
140
1.0
102
RTVSPost2010PropOp52
 70
     0
102
RTVSPost2010Prop53
 90
        2
102
RTVSPost2010PropOp53
 70
     1
102
RTVSPost2010Prop54
  1
strokes_ogs.tif
102
RTVSPost2010PropOp54
 70
     1
102
RTVSPost2010Prop55
280
     0
102
RTVSPost2010PropOp55
 70
     1
102
RTVSPost2010Prop56
140
1.0
102
RTVSPost2010PropOp56
 70
     1
102
RTVSPost2010Prop57
140
1.0
102
RTVSPost2010PropOp57
 70
     1
  0
XRECORD
  5
135
102
{ACAD_REACTORS
330
134
102
}
330
134
100
AcDbXrecord
280
     1
102
RTVSPost2010Prop28
280
     0
102
RTVSPost2010PropOp28
 70
     1
102
RTVSPost2010Prop29
280
     1
102
RTVSPost2010PropOp29
 70
     1
102
RTVSPost2010Prop30
280
     1
102
RTVSPost2010PropOp30
 70
     1
102
RTVSPost2010Prop31
280
     0
102
RTVSPost2010PropOp31
 70
     1
102
RTVSPost2010Prop32
280
     0
102
RTVSPost2010PropOp32
 70
     1
102
RTVSPost2010Prop33
280
     0
102
RTVSPost2010PropOp33
 70
     1
102
RTVSPost2010Prop34
280
     0
102
RTVSPost2010PropOp34
 70
     1
102
RTVSPost2010Prop35
280
     0
102
RTVSPost2010PropOp35
 70
     1
102
RTVSPost2010Prop36
280
     0
102
RTVSPost2010PropOp36
 70
     1
102
RTVSPost2010Prop37
 90
       50
102
RTVSPost2010PropOp37
 70
     1
102
RTVSPost2010Prop38
140
0.0
102
RTVSPost2010PropOp38
 70
     1
102
RTVSPost2010Prop39
140
1.0
102
RTVSPost2010PropOp39
 70
     1
102
RTVSPost2010Prop40
 90
        0
102
RTVSPost2010PropOp40
 70
     1
102
RTVSPost2010Prop41ColorIndex
 90
       18
102
RTVSPost2010Prop41ColorRGB
 90
        0
102
RTVSPost2010PropOp41
 70
     1
102
RTVSPost2010Prop42
 90
       50
102
RTVSPost2010PropOp42
 70
     1
102
RTVSPost2010Prop43
 90
        3
102
RTVSPost2010PropOp43
 70
     1
102
RTVSPost2010Prop44ColorIndex
 90
        5
102
RTVSPost2010Prop44ColorRGB
 90
      255
102
RTVSPost2010PropOp44
 70
     1
102
RTVSPost2010Prop45
280
     0
102
RTVSPost2010PropOp45
 70
     1
102
RTVSPost2010Prop46
 90
       50
102
RTVSPost2010PropOp46
 70
     1
102
RTVSPost2010Prop47
 90
       50
102
RTVSPost2010PropOp47
 70
     1
102
RTVSPost2010Prop48
 90
       50
102
RTVSPost2010PropOp48
 70
     1
102
RTVSPost2010Prop49
280
     0
102
RTVSPost2010PropOp49
 70
     1
102
RTVSPost2010Prop50
 90
       50
102
RTVSPost2010PropOp50
 70
     1
102
RTVSPost2010Prop51ColorIndex
 90
      256
102
RTVSPost2010Prop51ColorRGB
 90
-16777216
102
RTVSPost2010PropOp51
 70
     0
102
RTVSPost2010Prop52
140
1.0
102
RTVSPost2010PropOp52
 70
     0
102
RTVSPost2010Prop53
 90
        2
102
RTVSPost2010PropOp53
 70
     1
102
RTVSPost2010Prop54
  1
strokes_ogs.tif
102
RTVSPost2010PropOp54
 70
     1
102
RTVSPost2010Prop55
280
     0
102
RTVSPost2010PropOp55
 70
     1
102
RTVSPost2010Prop56
140
1.0
102
RTVSPost2010PropOp56
 70
     1
102
RTVSPost2010Prop57
140
1.0
102
RTVSPost2010PropOp57
 70
     1
  0
ENDSEC
  0
EOF
