  0
SECTION
  2
HEADER
  9
$ACADVER
  1
AC1024
  9
$ACADMAINTVER
 70
   226
  9
$DWGCODEPAGE
  3
ANSI_932
  9
$INSBASE
 10
0.0
 20
0.0
 30
0.0
  9
$EXTMIN
 10
1.000000000000000E+20
 20
1.000000000000000E+20
 30
1.000000000000000E+20
  9
$EXTMAX
 10
-1.000000000000000E+20
 20
-1.000000000000000E+20
 30
-1.000000000000000E+20
  9
$LIMMIN
 10
0.0
 20
0.0
  9
$LIMMAX
 10
12.0
 20
9.0
  9
$ORTHOMODE
 70
     0
  9
$REGENMODE
 70
     1
  9
$FILLMODE
 70
     1
  9
$QTEXTMODE
 70
     0
  9
$MIRRTEXT
 70
     0
  9
$LTSCALE
 40
1.0
  9
$ATTMODE
 70
     1
  9
$TEXTSIZE
 40
0.2
  9
$TRACEWID
 40
0.05
  9
$TEXTSTYLE
  7
Standard
  9
$CLAYER
  8
0
  9
$CELTYPE
  6
ByLayer
  9
$CECOLOR
 62
   256
  9
$CELTSCALE
 40
1.0
  9
$DISPSILH
 70
     0
  9
$DIMSCALE
 40
1.0
  9
$DIMASZ
 40
0.18
  9
$DIMEXO
 40
0.0625
  9
$DIMDLI
 40
0.38
  9
$DIMRND
 40
0.0
  9
$DIMDLE
 40
0.0
  9
$DIMEXE
 40
0.18
  9
$DIMTP
 40
0.0
  9
$DIMTM
 40
0.0
  9
$DIMTXT
 40
0.18
  9
$DIMCEN
 40
0.09
  9
$DIMTSZ
 40
0.0
  9
$DIMTOL
 70
     0
  9
$DIMLIM
 70
     0
  9
$DIMTIH
 70
     1
  9
$DIMTOH
 70
     1
  9
$DIMSE1
 70
     0
  9
$DIMSE2
 70
     0
  9
$DIMTAD
 70
     0
  9
$DIMZIN
 70
     0
  9
$DIMBLK
  1

  9
$DIMASO
 70
     1
  9
$DIMSHO
 70
     1
  9
$DIMPOST
  1

  9
$DIMAPOST
  1

  9
$DIMALT
 70
     0
  9
$DIMALTD
 70
     2
  9
$DIMALTF
 40
25.4
  9
$DIMLFAC
 40
1.0
  9
$DIMTOFL
 70
     0
  9
$DIMTVP
 40
0.0
  9
$DIMTIX
 70
     0
  9
$DIMSOXD
 70
     0
  9
$DIMSAH
 70
     0
  9
$DIMBLK1
  1

  9
$DIMBLK2
  1

  9
$DIMSTYLE
  2
Standard
  9
$DIMCLRD
 70
     0
  9
$DIMCLRE
 70
     0
  9
$DIMCLRT
 70
     0
  9
$DIMTFAC
 40
1.0
  9
$DIMGAP
 40
0.09
  9
$DIMJUST
 70
     0
  9
$DIMSD1
 70
     0
  9
$DIMSD2
 70
     0
  9
$DIMTOLJ
 70
     1
  9
$DIMTZIN
 70
     0
  9
$DIMALTZ
 70
     0
  9
$DIMALTTZ
 70
     0
  9
$DIMUPT
 70
     0
  9
$DIMDEC
 70
     4
  9
$DIMTDEC
 70
     4
  9
$DIMALTU
 70
     2
  9
$DIMALTTD
 70
     2
  9
$DIMTXSTY
  7
Standard
  9
$DIMAUNIT
 70
     0
  9
$DIMADEC
 70
     0
  9
$DIMALTRND
 40
0.0
  9
$DIMAZIN
 70
     0
  9
$DIMDSEP
 70
    46
  9
$DIMATFIT
 70
     3
  9
$DIMFRAC
 70
     0
  9
$DIMLDRBLK
  1

  9
$DIMLUNIT
 70
     2
  9
$DIMLWD
 70
    -2
  9
$DIMLWE
 70
    -2
  9
$DIMTMOVE
 70
     0
  9
$DIMFXL
 40
1.0
  9
$DIMFXLON
 70
     0
  9
$DIMJOGANG
 40
0.7853981633974483
  9
$DIMTFILL
 70
     0
  9
$DIMTFILLCLR
 70
     0
  9
$DIMARCSYM
 70
     0
  9
$DIMLTYPE
  6

  9
$DIMLTEX1
  6

  9
$DIMLTEX2
  6

  9
$DIMTXTDIRECTION
 70
     0
  9
$LUNITS
 70
     2
  9
$LUPREC
 70
     4
  9
$SKETCHINC
 40
0.1
  9
$FILLETRAD
 40
0.0
  9
$AUNITS
 70
     0
  9
$AUPREC
 70
     0
  9
$MENU
  1
.
  9
$ELEVATION
 40
0.0
  9
$PELEVATION
 40
0.0
  9
$THICKNESS
 40
0.0
  9
$LIMCHECK
 70
     0
  9
$CHAMFERA
 40
0.0
  9
$CHAMFERB
 40
0.0
  9
$CHAMFERC
 40
0.0
  9
$CHAMFERD
 40
0.0
  9
$SKPOLY
 70
     0
  9
$TDCREATE
 40
2459569.503518519
  9
$TDUCREATE
 40
2459569.128518519
  9
$TDUPDATE
 40
2459569.503518519
  9
$TDUUPDATE
 40
2459569.128518519
  9
$TDINDWG
 40
0.0000000000
  9
$TDUSRTIMER
 40
0.0000000000
  9
$USRTIMER
 70
     1
  9
$ANGBASE
 50
0.0
  9
$ANGDIR
 70
     0
  9
$PDMODE
 70
     0
  9
$PDSIZE
 40
0.0
  9
$PLINEWID
 40
0.0
  9
$SPLFRAME
 70
     0
  9
$SPLINETYPE
 70
     6
  9
$SPLINESEGS
 70
     8
  9
$HANDSEED
  5
146
  9
$SURFTAB1
 70
     6
  9
$SURFTAB2
 70
     6
  9
$SURFTYPE
 70
     6
  9
$SURFU
 70
     6
  9
$SURFV
 70
     6
  9
$UCSBASE
  2

  9
$UCSNAME
  2

  9
$UCSORG
 10
0.0
 20
0.0
 30
0.0
  9
$UCSXDIR
 10
1.0
 20
0.0
 30
0.0
  9
$UCSYDIR
 10
0.0
 20
1.0
 30
0.0
  9
$UCSORTHOREF
  2

  9
$UCSORTHOVIEW
 70
     0
  9
$UCSORGTOP
 10
0.0
 20
0.0
 30
0.0
  9
$UCSORGBOTTOM
 10
0.0
 20
0.0
 30
0.0
  9
$UCSORGLEFT
 10
0.0
 20
0.0
 30
0.0
  9
$UCSORGRIGHT
 10
0.0
 20
0.0
 30
0.0
  9
$UCSORGFRONT
 10
0.0
 20
0.0
 30
0.0
  9
$UCSORGBACK
 10
0.0
 20
0.0
 30
0.0
  9
$PUCSBASE
  2

  9
$PUCSNAME
  2

  9
$PUCSORG
 10
0.0
 20
0.0
 30
0.0
  9
$PUCSXDIR
 10
1.0
 20
0.0
 30
0.0
  9
$PUCSYDIR
 10
0.0
 20
1.0
 30
0.0
  9
$PUCSORTHOREF
  2

  9
$PUCSORTHOVIEW
 70
     0
  9
$PUCSORGTOP
 10
0.0
 20
0.0
 30
0.0
  9
$PUCSORGBOTTOM
 10
0.0
 20
0.0
 30
0.0
  9
$PUCSORGLEFT
 10
0.0
 20
0.0
 30
0.0
  9
$PUCSORGRIGHT
 10
0.0
 20
0.0
 30
0.0
  9
$PUCSORGFRONT
 10
0.0
 20
0.0
 30
0.0
  9
$PUCSORGBACK
 10
0.0
 20
0.0
 30
0.0
  9
$USERI1
 70
     0
  9
$USERI2
 70
     0
  9
$USERI3
 70
     0
  9
$USERI4
 70
     0
  9
$USERI5
 70
     0
  9
$USERR1
 40
0.0
  9
$USERR2
 40
0.0
  9
$USERR3
 40
0.0
  9
$USERR4
 40
0.0
  9
$USERR5
 40
0.0
  9
$WORLDVIEW
 70
     1
  9
$SHADEDGE
 70
     3
  9
$SHADEDIF
 70
    70
  9
$TILEMODE
 70
     1
  9
$MAXACTVP
 70
    64
  9
$PINSBASE
 10
0.0
 20
0.0
 30
0.0
  9
$PLIMCHECK
 70
     0
  9
$PEXTMIN
 10
1.000000000000000E+20
 20
1.000000000000000E+20
 30
1.000000000000000E+20
  9
$PEXTMAX
 10
-1.000000000000000E+20
 20
-1.000000000000000E+20
 30
-1.000000000000000E+20
  9
$PLIMMIN
 10
0.0
 20
0.0
  9
$PLIMMAX
 10
12.0
 20
9.0
  9
$UNITMODE
 70
     0
  9
$VISRETAIN
 70
     1
  9
$PLINEGEN
 70
     0
  9
$PSLTSCALE
 70
     1
  9
$TREEDEPTH
 70
  3020
  9
$CMLSTYLE
  2
Standard
  9
$CMLJUST
 70
     0
  9
$CMLSCALE
 40
1.0
  9
$PROXYGRAPHICS
 70
     1
  9
$MEASUREMENT
 70
     0
  9
$CELWEIGHT
370
    -1
  9
$ENDCAPS
280
     0
  9
$JOINSTYLE
280
     0
  9
$LWDISPLAY
290
     1
  9
$INSUNITS
 70
     4
  9
$HYPERLINKBASE
  1

  9
$STYLESHEET
  1

  9
$XEDIT
290
     1
  9
$CEPSNTYPE
380
     0
  9
$PSTYLEMODE
290
     1
  9
$FINGERPRINTGUID
  2
{F37A5814-C515-FC42-BD22-A2B2DD202D43}
  9
$VERSIONGUID
  2
{C84CF08B-AE69-234D-91E3-EB7B40DA8920}
  9
$EXTNAMES
290
     1
  9
$PSVPSCALE
 40
0.0
  9
$OLESTARTUP
290
     0
  9
$SORTENTS
280
   127
  9
$INDEXCTL
280
     0
  9
$HIDETEXT
280
     1
  9
$XCLIPFRAME
280
     2
  9
$HALOGAP
280
     0
  9
$OBSCOLOR
 70
   257
  9
$OBSLTYPE
280
     0
  9
$INTERSECTIONDISPLAY
280
     0
  9
$INTERSECTIONCOLOR
 70
   257
  9
$DIMASSOC
280
     2
  9
$PROJECTNAME
  1

  9
$CAMERADISPLAY
290
     0
  9
$LENSLENGTH
 40
50.0
  9
$CAMERAHEIGHT
 40
0.0
  9
$STEPSPERSEC
 40
2.0
  9
$STEPSIZE
 40
6.0
  9
$3DDWFPREC
 40
2.0
  9
$PSOLWIDTH
 40
0.25
  9
$PSOLHEIGHT
 40
4.0
  9
$LOFTANG1
 40
1.570796326794896
  9
$LOFTANG2
 40
1.570796326794896
  9
$LOFTMAG1
 40
0.0
  9
$LOFTMAG2
 40
0.0
  9
$LOFTPARAM
 70
     7
  9
$LOFTNORMALS
280
     1
  9
$LATITUDE
 40
37.795
  9
$LONGITUDE
 40
-122.394
  9
$NORTHDIRECTION
 40
0.0
  9
$TIMEZONE
 70
 -8000
  9
$LIGHTGLYPHDISPLAY
280
     1
  9
$TILEMODELIGHTSYNCH
280
     1
  9
$CMATERIAL
347
11
  9
$SOLIDHIST
280
     0
  9
$SHOWHIST
280
     1
  9
$DWFFRAME
280
     2
  9
$DGNFRAME
280
     0
  9
$REALWORLDSCALE
290
     1
  9
$INTERFERECOLOR
 62
     1
  9
$INTERFEREOBJVS
345
33
  9
$INTERFEREVPVS
346
30
  9
$CSHADOW
280
     0
  9
$SHADOWPLANELOCATION
 40
0.0
  0
ENDSEC
  0
SECTION
  2
CLASSES
  0
CLASS
  1
ACDBDICTIONARYWDFLT
  2
AcDbDictionaryWithDefault
  3
ObjectDBX Classes
 90
        0
 91
        1
280
     0
281
     0
  0
CLASS
  1
MATERIAL
  2
AcDbMaterial
  3
ObjectDBX Classes
 90
     1153
 91
        3
280
     0
281
     0
  0
CLASS
  1
VISUALSTYLE
  2
AcDbVisualStyle
  3
ObjectDBX Classes
 90
     4095
 91
       24
280
     0
281
     0
  0
CLASS
  1
SCALE
  2
AcDbScale
  3
ObjectDBX Classes
 90
     1153
 91
       17
280
     0
281
     0
  0
CLASS
  1
TABLESTYLE
  2
AcDbTableStyle
  3
ObjectDBX Classes
 90
     4095
 91
        1
280
     0
281
     0
  0
CLASS
  1
MLEADERSTYLE
  2
AcDbMLeaderStyle
  3
ACDB_MLEADERSTYLE_CLASS
 90
     4095
 91
        1
280
     0
281
     0
  0
CLASS
  1
ACDBSECTIONVIEWSTYLE
  2
AcDbSectionViewStyle
  3
ObjectDBX Classes
 90
     1025
 91
        1
280
     0
281
     0
  0
CLASS
  1
ACDBDETAILVIEWSTYLE
  2
AcDbDetailViewStyle
  3
ObjectDBX Classes
 90
     1025
 91
        1
280
     0
281
     0
  0
CLASS
  1
DICTIONARYVAR
  2
AcDbDictionaryVar
  3
ObjectDBX Classes
 90
        0
 91
        5
280
     0
281
     0
  0
CLASS
  1
CELLSTYLEMAP
  2
AcDbCellStyleMap
  3
ObjectDBX Classes
 90
     1152
 91
        1
280
     0
281
     0
  0
ENDSEC
  0
SECTION
  2
TABLES
  0
TABLE
  2
VPORT
  5
8
330
0
100
AcDbSymbolTable
 70
     1
  0
VPORT
  5
57
330
8
100
AcDbSymbolTableRecord
100
AcDbViewportTableRecord
  2
*Active
 70
     0
 10
0.0
 20
0.0
 11
1.0
 21
1.0
 12
0.0
 22
0.0
 13
0.0
 23
0.0
 14
1.0
 24
1.0
 15
0.0
 25
0.0
 16
0.0
 26
0.0
 36
1.0
 17
104.9999999737534
 27
-148.4999999628701
 37
0.0
 40
302.939999924255
 41
0.7070707070707534
 42
50.0
 43
0.0
 44
0.0
 50
0.0
 51
0.0
 71
     0
 72
   100
 73
     1
 74
     0
 75
     1
 76
     0
 77
     0
 78
     0
281
     0
 65
     1
110
0.0
120
0.0
130
0.0
111
1.0
121
0.0
131
0.0
112
0.0
122
1.0
132
0.0
 79
     0
146
0.0
 60
     3
 61
     5
292
     1
282
     1
141
0.0
142
0.0
 63
   250
421
  3355443
  0
ENDTAB
  0
TABLE
  2
LTYPE
  5
5
330
0
100
AcDbSymbolTable
 70
     3
  0
LTYPE
  5
5B
330
5
100
AcDbSymbolTableRecord
100
AcDbLinetypeTableRecord
  2
ByBlock
 70
     0
  3

 72
    65
 73
     0
 40
0.0
  0
LTYPE
  5
5C
330
5
100
AcDbSymbolTableRecord
100
AcDbLinetypeTableRecord
  2
ByLayer
 70
     0
  3

 72
    65
 73
     0
 40
0.0
  0
LTYPE
  5
5D
330
5
100
AcDbSymbolTableRecord
100
AcDbLinetypeTableRecord
  2
Continuous
 70
     0
  3
Solid line
 72
    65
 73
     0
 40
0.0
  0
LTYPE
  5
D6
330
5
100
AcDbSymbolTableRecord
100
AcDbLinetypeTableRecord
  2
AI-Linetype-0
 70
     0
  3
Adobe Illustrator Linetype No. 0
 72
    65
 73
     2
 40
1.411111110758333
 49
0.7055555553791667
 74
     0
 49
-0.7055555553791667
 74
     0
  0
LTYPE
  5
D8
330
5
100
AcDbSymbolTableRecord
100
AcDbLinetypeTableRecord
  2
AI-Linetype-1
 70
     0
  3
Adobe Illustrator Linetype No. 1
 72
    65
 73
     2
 40
1.411111110758333
 49
0.7055555553791667
 74
     0
 49
-0.7055555553791667
 74
     0
  0
ENDTAB
  0
TABLE
  2
LAYER
  5
2
330
0
100
AcDbSymbolTable
 70
     2
  0
LAYER
  5
54
330
2
100
AcDbSymbolTableRecord
100
AcDbLayerTableRecord
  2
0
 70
     0
 62
     7
  6
Continuous
370
    -3
390
F
347
21
  0
LAYER
  5
78
330
2
100
AcDbSymbolTableRecord
100
AcDbLayerTableRecord
  2
レイヤー 1
 70
     0
 62
     7
  6
Continuous
370
     0
390
F
347
21
  0
ENDTAB
  0
TABLE
  2
STYLE
  5
3
330
0
100
AcDbSymbolTable
 70
     2
  0
STYLE
  5
55
330
3
100
AcDbSymbolTableRecord
100
AcDbTextStyleTableRecord
  2
Standard
 70
     0
 40
0.0
 41
1.0
 50
0.0
 71
     0
 42
0.2
  3
txt
  4

  0
STYLE
  5
5A
330
3
100
AcDbSymbolTableRecord
100
AcDbTextStyleTableRecord
  2
Annotative
 70
     0
 40
0.0
 41
1.0
 50
0.0
 71
     0
 42
0.2
  3
txt
  4

1001
AcadAnnotative
1000
AnnotativeData
1002
{
1070
     1
1070
     1
1002
}
  0
ENDTAB
  0
TABLE
  2
VIEW
  5
6
330
0
100
AcDbSymbolTable
 70
     0
  0
ENDTAB
  0
TABLE
  2
UCS
  5
7
330
0
100
AcDbSymbolTable
 70
     0
  0
ENDTAB
  0
TABLE
  2
APPID
  5
9
330
0
100
AcDbSymbolTable
 70
     2
  0
APPID
  5
56
330
9
100
AcDbSymbolTableRecord
100
AcDbRegAppTableRecord
  2
ACAD
 70
     0
  0
APPID
  5
5E
330
9
100
AcDbSymbolTableRecord
100
AcDbRegAppTableRecord
  2
AcadAnnotative
 70
     0
  0
ENDTAB
  0
TABLE
  2
DIMSTYLE
  5
A
330
0
100
AcDbSymbolTable
 70
     2
100
AcDbDimStyleTable
 71
     0
  0
DIMSTYLE
105
58
330
A
100
AcDbSymbolTableRecord
100
AcDbDimStyleTableRecord
  2
Standard
 70
     0
340
55
  0
DIMSTYLE
105
59
330
A
100
AcDbSymbolTableRecord
100
AcDbDimStyleTableRecord
  2
Annotative
 70
     0
340
55
1001
AcadAnnotative
1000
AnnotativeData
1002
{
1070
     1
1070
     1
1002
}
  0
ENDTAB
  0
TABLE
  2
BLOCK_RECORD
  5
1
330
0
100
AcDbSymbolTable
 70
    14
  0
BLOCK_RECORD
  5
70
330
1
100
AcDbSymbolTableRecord
100
AcDbBlockTableRecord
  2
*Model_Space
340
73
 70
     0
280
     1
281
     0
  0
BLOCK_RECORD
  5
6C
330
1
100
AcDbSymbolTableRecord
100
AcDbBlockTableRecord
  2
*Paper_Space
340
6F
 70
     0
280
     1
281
     0
  0
BLOCK_RECORD
  5
74
330
1
100
AcDbSymbolTableRecord
100
AcDbBlockTableRecord
  2
*Paper_Space0
340
77
 70
     0
280
     1
281
     0
  0
BLOCK_RECORD
  5
79
330
1
100
AcDbSymbolTableRecord
100
AcDbBlockTableRecord
  2
Block_0
340
0
102
{BLKREFS
331
7A
102
}
 70
     0
280
     1
281
     0
  0
BLOCK_RECORD
  5
8F
330
1
100
AcDbSymbolTableRecord
100
AcDbBlockTableRecord
  2
Block_1
340
0
102
{BLKREFS
331
90
102
}
 70
     0
280
     1
281
     0
  0
BLOCK_RECORD
  5
93
330
1
100
AcDbSymbolTableRecord
100
AcDbBlockTableRecord
  2
Block_2
340
0
102
{BLKREFS
331
94
102
}
 70
     0
280
     1
281
     0
  0
BLOCK_RECORD
  5
9D
330
1
100
AcDbSymbolTableRecord
100
AcDbBlockTableRecord
  2
Block_3
340
0
102
{BLKREFS
331
9E
102
}
 70
     0
280
     1
281
     0
  0
BLOCK_RECORD
  5
A8
330
1
100
AcDbSymbolTableRecord
100
AcDbBlockTableRecord
  2
Block_4
340
0
102
{BLKREFS
331
A9
102
}
 70
     0
280
     1
281
     0
  0
BLOCK_RECORD
  5
AC
330
1
100
AcDbSymbolTableRecord
100
AcDbBlockTableRecord
  2
Block_5
340
0
102
{BLKREFS
331
AD
102
}
 70
     0
280
     1
281
     0
  0
BLOCK_RECORD
  5
B9
330
1
100
AcDbSymbolTableRecord
100
AcDbBlockTableRecord
  2
Block_6
340
0
102
{BLKREFS
331
BA
102
}
 70
     0
280
     1
281
     0
  0
BLOCK_RECORD
  5
C5
330
1
100
AcDbSymbolTableRecord
100
AcDbBlockTableRecord
  2
Block_7
340
0
102
{BLKREFS
331
C6
102
}
 70
     0
280
     1
281
     0
  0
BLOCK_RECORD
  5
C9
330
1
100
AcDbSymbolTableRecord
100
AcDbBlockTableRecord
  2
Block_8
340
0
102
{BLKREFS
331
CA
102
}
 70
     0
280
     1
281
     0
  0
BLOCK_RECORD
  5
D9
330
1
100
AcDbSymbolTableRecord
100
AcDbBlockTableRecord
  2
Block_9
340
0
102
{BLKREFS
331
DA
102
}
 70
     0
280
     1
281
     0
  0
BLOCK_RECORD
  5
DD
330
1
100
AcDbSymbolTableRecord
100
AcDbBlockTableRecord
  2
Block_10
340
0
102
{BLKREFS
331
DE
102
}
 70
     0
280
     1
281
     0
  0
BLOCK_RECORD
  5
EE
330
1
100
AcDbSymbolTableRecord
100
AcDbBlockTableRecord
  2
Block_11
340
0
102
{BLKREFS
331
EF
102
}
 70
     0
280
     1
281
     0
  0
BLOCK_RECORD
  5
F2
330
1
100
AcDbSymbolTableRecord
100
AcDbBlockTableRecord
  2
Block_12
340
0
102
{BLKREFS
331
F3
102
}
 70
     0
280
     1
281
     0
  0
ENDTAB
  0
ENDSEC
  0
SECTION
  2
BLOCKS
  0
BLOCK
  5
71
330
70
100
AcDbEntity
  8
0
100
AcDbBlockBegin
  2
*Model_Space
 70
     0
 10
0.0
 20
0.0
 30
0.0
  3
*Model_Space
  1

  0
ENDBLK
  5
72
330
70
100
AcDbEntity
  8
0
100
AcDbBlockEnd
  0
BLOCK
  5
6D
330
6C
100
AcDbEntity
 67
     1
  8
0
100
AcDbBlockBegin
  2
*Paper_Space
 70
     0
 10
0.0
 20
0.0
 30
0.0
  3
*Paper_Space
  1

  0
ENDBLK
  5
6E
330
6C
100
AcDbEntity
 67
     1
  8
0
100
AcDbBlockEnd
  0
BLOCK
  5
75
330
74
100
AcDbEntity
 67
     1
  8
0
100
AcDbBlockBegin
  2
*Paper_Space0
 70
     0
 10
0.0
 20
0.0
 30
0.0
  3
*Paper_Space0
  1

  0
ENDBLK
  5
76
330
74
100
AcDbEntity
 67
     1
  8
0
100
AcDbBlockEnd
  0
BLOCK
  5
7B
330
79
100
AcDbEntity
  8
0
100
AcDbBlockBegin
  2
Block_0
 70
     0
 10
0.0
 20
0.0
 30
0.0
  3
Block_0
  1

  0
LINE
  5
7D
330
79
100
AcDbEntity
  8
レイヤー 1
 62
    18
420
        0
370
    25
100
AcDbLine
 10
91.15536241677034
 20
-145.5677917181033
 30
0.0
 11
100.2549124144954
 21
-145.5677917181033
 31
0.0
  0
LINE
  5
7E
330
79
100
AcDbEntity
  8
レイヤー 1
 62
    18
420
        0
370
    25
100
AcDbLine
 10
99.15488074810379
 20
-146.6678233567058
 30
0.0
 11
99.15488074810379
 21
-152.6677970925226
 31
0.0
  0
LINE
  5
7F
330
79
100
AcDbEntity
  8
レイヤー 1
 62
    18
420
        0
370
    25
100
AcDbLine
 10
91.15536241677034
 20
-146.6678233567058
 30
0.0
 11
99.15488074810379
 21
-146.6678233567058
 31
0.0
  0
LINE
  5
80
330
79
100
AcDbEntity
  8
レイヤー 1
 62
    18
420
        0
370
    25
100
AcDbLine
 10
91.15536241677034
 20
-145.5677917181033
 30
0.0
 11
91.15536241677034
 21
-146.6678233567058
 31
0.0
  0
LINE
  5
81
330
79
100
AcDbEntity
  8
レイヤー 1
 62
    18
420
        0
370
    25
100
AcDbLine
 10
100.2549124144954
 20
-145.5677917181033
 30
0.0
 11
100.2549124144954
 21
-151.5681182316889
 31
0.0
  0
LINE
  5
82
330
79
100
AcDbEntity
  8
レイヤー 1
 62
    18
420
        0
370
    25
100
AcDbLine
 10
116.1550643107422
 20
-151.5681182316889
 30
0.0
 11
116.1550643107422
 21
-151.968097665929
 31
0.0
  0
LINE
  5
83
330
79
100
AcDbEntity
  8
レイヤー 1
 62
    18
420
        0
370
    25
100
AcDbLine
 10
100.2549124144954
 20
-151.5681182316889
 30
0.0
 11
116.1550643107422
 21
-151.5681182316889
 31
0.0
  0
LINE
  5
84
330
79
100
AcDbEntity
  8
レイヤー 1
 62
    18
420
        0
370
    25
100
AcDbLine
 10
116.1550643107422
 20
-151.968097665929
 30
0.0
 11
99.15488074810379
 21
-152.6677970925226
 31
0.0
  0
ENDBLK
  5
7C
330
79
100
AcDbEntity
  8
0
100
AcDbBlockEnd
  0
BLOCK
  5
91
330
8F
100
AcDbEntity
  8
0
100
AcDbBlockBegin
  2
Block_1
 70
     0
 10
0.0
 20
0.0
 30
0.0
  3
Block_1
  1

  0
INSERT
  5
94
330
8F
100
AcDbEntity
  8
レイヤー 1
100
AcDbBlockReference
  2
Block_2
 10
0.0
 20
0.0
 30
0.0
  0
ENDBLK
  5
92
330
8F
100
AcDbEntity
  8
0
100
AcDbBlockEnd
  0
BLOCK
  5
95
330
93
100
AcDbEntity
  8
0
100
AcDbBlockBegin
  2
Block_2
 70
     0
 10
0.0
 20
0.0
 30
0.0
  3
Block_2
  1

  0
SPLINE
  5
97
330
93
100
AcDbEntity
  8
レイヤー 1
100
AcDbSpline
210
0.0
220
0.0
230
1.0
 70
    11
 71
     3
 72
    26
 73
    22
 74
     0
 42
0.0000000001
 43
0.0000000001
 40
0.0
 40
0.0
 40
0.0
 40
0.0
 40
1.0
 40
1.0
 40
1.0
 40
2.0
 40
2.0
 40
2.0
 40
3.0
 40
3.0
 40
3.0
 40
4.0
 40
4.0
 40
4.0
 40
5.0
 40
5.0
 40
5.0
 40
6.0
 40
6.0
 40
6.0
 40
7.0
 40
7.0
 40
7.0
 40
7.0
 10
107.0170681156068
 20
-156.0218288455431
 30
0.0
 10
107.0170681156068
 20
-156.0218288455431
 30
0.0
 10
107.0170681156068
 20
-154.9176757425206
 30
0.0
 10
107.0170681156068
 20
-154.9176757425206
 30
0.0
 10
107.0170681156068
 20
-154.9176757425206
 30
0.0
 10
106.6870279681199
 20
-154.9176757425206
 30
0.0
 10
106.6870279681199
 20
-154.9176757425206
 30
0.0
 10
106.6870279681199
 20
-154.9176757425206
 30
0.0
 10
106.6870279681199
 20
-154.7695366366548
 30
0.0
 10
106.6870279681199
 20
-154.7695366366548
 30
0.0
 10
107.019135172898
 20
-154.7547227260683
 30
0.0
 10
107.0656439619488
 20
-154.5917697096159
 30
0.0
 10
107.095271783122
 20
-154.4773925395056
 30
0.0
 10
107.095271783122
 20
-154.4773925395056
 30
0.0
 10
107.2413438316966
 20
-154.4773925395056
 30
0.0
 10
107.2413438316966
 20
-154.4773925395056
 30
0.0
 10
107.2413438316966
 20
-154.4773925395056
 30
0.0
 10
107.2413438316966
 20
-156.0218288455431
 30
0.0
 10
107.2413438316966
 20
-156.0218288455431
 30
0.0
 10
107.2413438316966
 20
-156.0218288455431
 30
0.0
 10
107.0170681156068
 20
-156.0218288455431
 30
0.0
 10
107.0170681156068
 20
-156.0218288455431
 30
0.0
  0
HATCH
  5
98
330
93
100
AcDbEntity
  8
レイヤー 1
 62
    18
420
        0
440
 33554687
100
AcDbHatch
 10
0.0
 20
0.0
 30
0.0
210
0.0
220
0.0
230
1.0
  2
SOLID
 70
     1
 71
     1
 91
        1
 92
        1
 93
        1
 72
     4
 94
        3
 73
     0
 74
     0
 95
       26
 96
       22
 40
0.0
 40
0.0
 40
0.0
 40
0.0
 40
1.0
 40
1.0
 40
1.0
 40
2.0
 40
2.0
 40
2.0
 40
3.0
 40
3.0
 40
3.0
 40
4.0
 40
4.0
 40
4.0
 40
5.0
 40
5.0
 40
5.0
 40
6.0
 40
6.0
 40
6.0
 40
7.0
 40
7.0
 40
7.0
 40
7.0
 10
107.0170681156068
 20
-156.0218288455431
 10
107.0170681156068
 20
-156.0218288455431
 10
107.0170681156068
 20
-154.9176757425206
 10
107.0170681156068
 20
-154.9176757425206
 10
107.0170681156068
 20
-154.9176757425206
 10
106.6870279681199
 20
-154.9176757425206
 10
106.6870279681199
 20
-154.9176757425206
 10
106.6870279681199
 20
-154.9176757425206
 10
106.6870279681199
 20
-154.7695366366548
 10
106.6870279681199
 20
-154.7695366366548
 10
107.019135172898
 20
-154.7547227260683
 10
107.0656439619488
 20
-154.5917697096159
 10
107.095271783122
 20
-154.4773925395056
 10
107.095271783122
 20
-154.4773925395056
 10
107.2413438316966
 20
-154.4773925395056
 10
107.2413438316966
 20
-154.4773925395056
 10
107.2413438316966
 20
-154.4773925395056
 10
107.2413438316966
 20
-156.0218288455431
 10
107.2413438316966
 20
-156.0218288455431
 10
107.2413438316966
 20
-156.0218288455431
 10
107.0170681156068
 20
-156.0218288455431
 10
107.0170681156068
 20
-156.0218288455431
 97
        0
 97
        1
330
97
 75
     2
 76
     1
 98
        1
 10
0.0
 20
0.0
450
        0
451
        0
460
0.0
461
0.0
452
        0
462
0.0
453
        0
470

  0
SPLINE
  5
99
330
93
100
AcDbEntity
  8
レイヤー 1
100
AcDbSpline
210
0.0
220
0.0
230
1.0
 70
     9
 71
     3
 72
    26
 73
    22
 74
     0
 42
0.0000000001
 43
0.0000000001
 40
0.0
 40
0.0
 40
0.0
 40
0.0
 40
1.0
 40
1.0
 40
1.0
 40
2.0
 40
2.0
 40
2.0
 40
3.0
 40
3.0
 40
3.0
 40
4.0
 40
4.0
 40
4.0
 40
5.0
 40
5.0
 40
5.0
 40
6.0
 40
6.0
 40
6.0
 40
7.0
 40
7.0
 40
7.0
 40
7.0
 10
108.1536051161908
 20
-156.0218288455431
 30
0.0
 10
108.1536051161908
 20
-156.0218288455431
 30
0.0
 10
107.9165825468056
 20
-156.0218288455431
 30
0.0
 10
107.9165825468056
 20
-156.0218288455431
 30
0.0
 10
107.9420762533964
 20
-155.7128037805162
 30
0.0
 10
108.1346570910219
 20
-155.1946614195346
 30
0.0
 10
108.5408338487328
 20
-154.6889214023
 30
0.0
 10
108.5408338487328
 20
-154.6889214023
 30
0.0
 10
107.7029866267201
 20
-154.6889214023
 30
0.0
 10
107.7029866267201
 20
-154.6889214023
 30
0.0
 10
107.7029866267201
 20
-154.6889214023
 30
0.0
 10
107.7029866267201
 20
-154.4773925395056
 30
0.0
 10
107.7029866267201
 20
-154.4773925395056
 30
0.0
 10
107.7029866267201
 20
-154.4773925395056
 30
0.0
 10
108.777856418118
 20
-154.4773925395056
 30
0.0
 10
108.777856418118
 20
-154.4773925395056
 30
0.0
 10
108.777856418118
 20
-154.4773925395056
 30
0.0
 10
108.777856418118
 20
-154.6889214023
 30
0.0
 10
108.777856418118
 20
-154.6889214023
 30
0.0
 10
108.4540174425045
 20
-154.978998442158
 30
0.0
 10
108.1873670519462
 20
-155.5712103560724
 30
0.0
 10
108.1536051161908
 20
-156.0218288455431
 30
0.0
  0
HATCH
  5
9A
330
93
100
AcDbEntity
  8
レイヤー 1
 62
    18
420
        0
440
 33554687
100
AcDbHatch
 10
0.0
 20
0.0
 30
0.0
210
0.0
220
0.0
230
1.0
  2
SOLID
 70
     1
 71
     1
 91
        1
 92
        1
 93
        1
 72
     4
 94
        3
 73
     0
 74
     0
 95
       26
 96
       22
 40
0.0
 40
0.0
 40
0.0
 40
0.0
 40
1.0
 40
1.0
 40
1.0
 40
2.0
 40
2.0
 40
2.0
 40
3.0
 40
3.0
 40
3.0
 40
4.0
 40
4.0
 40
4.0
 40
5.0
 40
5.0
 40
5.0
 40
6.0
 40
6.0
 40
6.0
 40
7.0
 40
7.0
 40
7.0
 40
7.0
 10
108.1536051161908
 20
-156.0218288455431
 10
108.1536051161908
 20
-156.0218288455431
 10
107.9165825468056
 20
-156.0218288455431
 10
107.9165825468056
 20
-156.0218288455431
 10
107.9420762533964
 20
-155.7128037805162
 10
108.1346570910219
 20
-155.1946614195346
 10
108.5408338487328
 20
-154.6889214023
 10
108.5408338487328
 20
-154.6889214023
 10
107.7029866267201
 20
-154.6889214023
 10
107.7029866267201
 20
-154.6889214023
 10
107.7029866267201
 20
-154.6889214023
 10
107.7029866267201
 20
-154.4773925395056
 10
107.7029866267201
 20
-154.4773925395056
 10
107.7029866267201
 20
-154.4773925395056
 10
108.777856418118
 20
-154.4773925395056
 10
108.777856418118
 20
-154.4773925395056
 10
108.777856418118
 20
-154.4773925395056
 10
108.777856418118
 20
-154.6889214023
 10
108.777856418118
 20
-154.6889214023
 10
108.4540174425045
 20
-154.978998442158
 10
108.1873670519462
 20
-155.5712103560724
 10
108.1536051161908
 20
-156.0218288455431
 97
        0
 97
        1
330
99
 75
     2
 76
     1
 98
        1
 10
0.0
 20
0.0
450
        0
451
        0
460
0.0
461
0.0
452
        0
462
0.0
453
        0
470

  0
ENDBLK
  5
96
330
93
100
AcDbEntity
  8
0
100
AcDbBlockEnd
  0
BLOCK
  5
9F
330
9D
100
AcDbEntity
  8
0
100
AcDbBlockBegin
  2
Block_3
 70
     0
 10
0.0
 20
0.0
 30
0.0
  3
Block_3
  1

  0
SPLINE
  5
A1
330
9D
100
AcDbEntity
  8
レイヤー 1
100
AcDbSpline
210
0.0
220
0.0
230
1.0
 70
     9
 71
     3
 72
    17
 73
    13
 74
     0
 42
0.0000000001
 43
0.0000000001
 40
0.0
 40
0.0
 40
0.0
 40
0.0
 40
1.0
 40
1.0
 40
1.0
 40
2.0
 40
2.0
 40
2.0
 40
3.0
 40
3.0
 40
3.0
 40
4.0
 40
4.0
 40
4.0
 40
4.0
 10
118.7000759251861
 20
-148.5483832093907
 30
0.0
 10
118.7000759251861
 20
-148.8105549758182
 30
0.0
 10
118.9116047879804
 20
-148.8484510261559
 30
0.0
 10
119.0280490153819
 20
-148.8484510261559
 30
0.0
 10
119.2037488851296
 20
-148.8484510261559
 30
0.0
 10
119.3667019015819
 20
-148.753366390763
 30
0.0
 10
119.3667019015819
 20
-148.5693982918507
 30
0.0
 10
119.3667019015819
 20
-148.4488199498669
 30
0.0
 10
119.3074462592356
 20
-148.2731200801192
 30
0.0
 10
119.0218478435084
 20
-148.2731200801192
 30
0.0
 10
118.7975721274186
 20
-148.2731200801192
 30
0.0
 10
118.7000759251861
 20
-148.4126464472718
 30
0.0
 10
118.7000759251861
 20
-148.5483832093907
 30
0.0
  0
SPLINE
  5
A2
330
9D
100
AcDbEntity
  8
レイヤー 1
100
AcDbSpline
210
0.0
220
0.0
230
1.0
 70
     9
 71
     3
 72
    32
 73
    28
 74
     0
 42
0.0000000001
 43
0.0000000001
 40
0.0
 40
0.0
 40
0.0
 40
0.0
 40
1.0
 40
1.0
 40
1.0
 40
2.0
 40
2.0
 40
2.0
 40
3.0
 40
3.0
 40
3.0
 40
4.0
 40
4.0
 40
4.0
 40
5.0
 40
5.0
 40
5.0
 40
6.0
 40
6.0
 40
6.0
 40
7.0
 40
7.0
 40
7.0
 40
8.0
 40
8.0
 40
8.0
 40
9.0
 40
9.0
 40
9.0
 40
9.0
 10
119.5589382296589
 20
-148.5652641772684
 30
0.0
 10
119.5589382296589
 20
-149.0813394809588
 30
0.0
 10
119.0049668756307
 20
-149.089952219672
 30
0.0
 10
118.7910264459967
 20
-149.089952219672
 30
0.0
 10
118.5605495580335
 20
-149.089952219672
 30
0.0
 10
117.913216116355
 20
-149.0706596849545
 30
0.0
 10
117.913216116355
 20
-148.5270236173821
 30
0.0
 10
117.913216116355
 20
-148.3537353144741
 30
0.0
 10
117.9831515547056
 20
-148.1081000063757
 30
0.0
 10
118.3152587594837
 20
-148.070203956038
 30
0.0
 10
118.3152587594837
 20
-148.070203956038
 30
0.0
 10
118.3152587594837
 20
-148.2837998761235
 30
0.0
 10
118.3152587594837
 20
-148.2837998761235
 30
0.0
 10
118.2580701744285
 20
-148.2944796721278
 30
0.0
 10
118.1099310685628
 20
-148.326174550592
 30
0.0
 10
118.1099310685628
 20
-148.5290906746732
 30
0.0
 10
118.1099310685628
 20
-148.8212347718224
 30
0.0
 10
118.4379041587586
 20
-148.8611978794514
 30
0.0
 10
118.6428873401309
 20
-148.8739447327468
 30
0.0
 10
118.5646836726158
 20
-148.780927154645
 30
0.0
 10
118.5054280302695
 20
-148.7130587735856
 30
0.0
 10
118.5054280302695
 20
-148.5311577319644
 30
0.0
 10
118.5054280302695
 20
-148.3513237476344
 30
0.0
 10
118.6136040285063
 20
-148.0488443640294
 30
0.0
 10
119.0197807862173
 20
-148.0488443640294
 30
0.0
 10
119.3391411376999
 20
-148.0488443640294
 30
0.0
 10
119.5589382296589
 20
-148.2479708830769
 30
0.0
 10
119.5589382296589
 20
-148.5652641772684
 30
0.0
  0
HATCH
  5
A3
330
9D
100
AcDbEntity
  8
レイヤー 1
 62
    18
420
        0
440
 33554687
100
AcDbHatch
 10
0.0
 20
0.0
 30
0.0
210
0.0
220
0.0
230
1.0
  2
SOLID
 70
     1
 71
     1
 91
        2
 92
        1
 93
        1
 72
     4
 94
        3
 73
     0
 74
     0
 95
       17
 96
       13
 40
0.0
 40
0.0
 40
0.0
 40
0.0
 40
1.0
 40
1.0
 40
1.0
 40
2.0
 40
2.0
 40
2.0
 40
3.0
 40
3.0
 40
3.0
 40
4.0
 40
4.0
 40
4.0
 40
4.0
 10
118.7000759251861
 20
-148.5483832093907
 10
118.7000759251861
 20
-148.8105549758182
 10
118.9116047879804
 20
-148.8484510261559
 10
119.0280490153819
 20
-148.8484510261559
 10
119.2037488851296
 20
-148.8484510261559
 10
119.3667019015819
 20
-148.753366390763
 10
119.3667019015819
 20
-148.5693982918507
 10
119.3667019015819
 20
-148.4488199498669
 10
119.3074462592356
 20
-148.2731200801192
 10
119.0218478435084
 20
-148.2731200801192
 10
118.7975721274186
 20
-148.2731200801192
 10
118.7000759251861
 20
-148.4126464472718
 10
118.7000759251861
 20
-148.5483832093907
 97
        0
 97
        1
330
A1
 92
        1
 93
        1
 72
     4
 94
        3
 73
     0
 74
     0
 95
       32
 96
       28
 40
0.0
 40
0.0
 40
0.0
 40
0.0
 40
1.0
 40
1.0
 40
1.0
 40
2.0
 40
2.0
 40
2.0
 40
3.0
 40
3.0
 40
3.0
 40
4.0
 40
4.0
 40
4.0
 40
5.0
 40
5.0
 40
5.0
 40
6.0
 40
6.0
 40
6.0
 40
7.0
 40
7.0
 40
7.0
 40
8.0
 40
8.0
 40
8.0
 40
9.0
 40
9.0
 40
9.0
 40
9.0
 10
119.5589382296589
 20
-148.5652641772684
 10
119.5589382296589
 20
-149.0813394809588
 10
119.0049668756307
 20
-149.089952219672
 10
118.7910264459967
 20
-149.089952219672
 10
118.5605495580335
 20
-149.089952219672
 10
117.913216116355
 20
-149.0706596849545
 10
117.913216116355
 20
-148.5270236173821
 10
117.913216116355
 20
-148.3537353144741
 10
117.9831515547056
 20
-148.1081000063757
 10
118.3152587594837
 20
-148.070203956038
 10
118.3152587594837
 20
-148.070203956038
 10
118.3152587594837
 20
-148.2837998761235
 10
118.3152587594837
 20
-148.2837998761235
 10
118.2580701744285
 20
-148.2944796721278
 10
118.1099310685628
 20
-148.326174550592
 10
118.1099310685628
 20
-148.5290906746732
 10
118.1099310685628
 20
-148.8212347718224
 10
118.4379041587586
 20
-148.8611978794514
 10
118.6428873401309
 20
-148.8739447327468
 10
118.5646836726158
 20
-148.780927154645
 10
118.5054280302695
 20
-148.7130587735856
 10
118.5054280302695
 20
-148.5311577319644
 10
118.5054280302695
 20
-148.3513237476344
 10
118.6136040285063
 20
-148.0488443640294
 10
119.0197807862173
 20
-148.0488443640294
 10
119.3391411376999
 20
-148.0488443640294
 10
119.5589382296589
 20
-148.2479708830769
 10
119.5589382296589
 20
-148.5652641772684
 97
        0
 97
        1
330
A2
 75
     2
 76
     1
 98
        1
 10
0.0
 20
0.0
450
        0
451
        0
460
0.0
461
0.0
452
        0
462
0.0
453
        0
470

  0
ENDBLK
  5
A0
330
9D
100
AcDbEntity
  8
0
100
AcDbBlockEnd
  0
BLOCK
  5
AA
330
A8
100
AcDbEntity
  8
0
100
AcDbBlockBegin
  2
Block_4
 70
     0
 10
0.0
 20
0.0
 30
0.0
  3
Block_4
  1

  0
INSERT
  5
AD
330
A8
100
AcDbEntity
  8
レイヤー 1
100
AcDbBlockReference
  2
Block_5
 10
0.0
 20
0.0
 30
0.0
  0
ENDBLK
  5
AB
330
A8
100
AcDbEntity
  8
0
100
AcDbBlockEnd
  0
BLOCK
  5
AE
330
AC
100
AcDbEntity
  8
0
100
AcDbBlockBegin
  2
Block_5
 70
     0
 10
0.0
 20
0.0
 30
0.0
  3
Block_5
  1

  0
SPLINE
  5
B0
330
AC
100
AcDbEntity
  8
レイヤー 1
100
AcDbSpline
210
0.0
220
0.0
230
1.0
 70
    11
 71
     3
 72
    26
 73
    22
 74
     0
 42
0.0000000001
 43
0.0000000001
 40
0.0
 40
0.0
 40
0.0
 40
0.0
 40
1.0
 40
1.0
 40
1.0
 40
2.0
 40
2.0
 40
2.0
 40
3.0
 40
3.0
 40
3.0
 40
4.0
 40
4.0
 40
4.0
 40
5.0
 40
5.0
 40
5.0
 40
6.0
 40
6.0
 40
6.0
 40
7.0
 40
7.0
 40
7.0
 40
7.0
 10
88.27264808991101
 20
-144.4790364222136
 30
0.0
 10
88.27264808991101
 20
-144.4790364222136
 30
0.0
 10
87.16849498688842
 20
-144.4790364222136
 30
0.0
 10
87.16849498688842
 20
-144.4790364222136
 30
0.0
 10
87.16849498688842
 20
-144.4790364222136
 30
0.0
 10
87.16849498688842
 20
-144.8090765697005
 30
0.0
 10
87.16849498688842
 20
-144.8090765697005
 30
0.0
 10
87.16849498688842
 20
-144.8090765697005
 30
0.0
 10
87.02035588102269
 20
-144.8090765697005
 30
0.0
 10
87.02035588102269
 20
-144.8090765697005
 30
0.0
 10
87.00554197043611
 20
-144.4769693649224
 30
0.0
 10
86.84258895398381
 20
-144.4304605758715
 30
0.0
 10
86.7282117838735
 20
-144.4008327546984
 30
0.0
 10
86.7282117838735
 20
-144.4008327546984
 30
0.0
 10
86.7282117838735
 20
-144.2547607061238
 30
0.0
 10
86.7282117838735
 20
-144.2547607061238
 30
0.0
 10
86.7282117838735
 20
-144.2547607061238
 30
0.0
 10
88.27264808991101
 20
-144.2547607061238
 30
0.0
 10
88.27264808991101
 20
-144.2547607061238
 30
0.0
 10
88.27264808991101
 20
-144.2547607061238
 30
0.0
 10
88.27264808991101
 20
-144.4790364222136
 30
0.0
 10
88.27264808991101
 20
-144.4790364222136
 30
0.0
  0
HATCH
  5
B1
330
AC
100
AcDbEntity
  8
レイヤー 1
 62
    18
420
        0
440
 33554687
100
AcDbHatch
 10
0.0
 20
0.0
 30
0.0
210
0.0
220
0.0
230
1.0
  2
SOLID
 70
     1
 71
     1
 91
        1
 92
        1
 93
        1
 72
     4
 94
        3
 73
     0
 74
     0
 95
       26
 96
       22
 40
0.0
 40
0.0
 40
0.0
 40
0.0
 40
1.0
 40
1.0
 40
1.0
 40
2.0
 40
2.0
 40
2.0
 40
3.0
 40
3.0
 40
3.0
 40
4.0
 40
4.0
 40
4.0
 40
5.0
 40
5.0
 40
5.0
 40
6.0
 40
6.0
 40
6.0
 40
7.0
 40
7.0
 40
7.0
 40
7.0
 10
88.27264808991101
 20
-144.4790364222136
 10
88.27264808991101
 20
-144.4790364222136
 10
87.16849498688842
 20
-144.4790364222136
 10
87.16849498688842
 20
-144.4790364222136
 10
87.16849498688842
 20
-144.4790364222136
 10
87.16849498688842
 20
-144.8090765697005
 10
87.16849498688842
 20
-144.8090765697005
 10
87.16849498688842
 20
-144.8090765697005
 10
87.02035588102269
 20
-144.8090765697005
 10
87.02035588102269
 20
-144.8090765697005
 10
87.00554197043611
 20
-144.4769693649224
 10
86.84258895398381
 20
-144.4304605758715
 10
86.7282117838735
 20
-144.4008327546984
 10
86.7282117838735
 20
-144.4008327546984
 10
86.7282117838735
 20
-144.2547607061238
 10
86.7282117838735
 20
-144.2547607061238
 10
86.7282117838735
 20
-144.2547607061238
 10
88.27264808991101
 20
-144.2547607061238
 10
88.27264808991101
 20
-144.2547607061238
 10
88.27264808991101
 20
-144.2547607061238
 10
88.27264808991101
 20
-144.4790364222136
 10
88.27264808991101
 20
-144.4790364222136
 97
        0
 97
        1
330
B0
 75
     2
 76
     1
 98
        1
 10
0.0
 20
0.0
450
        0
451
        0
460
0.0
461
0.0
452
        0
462
0.0
453
        0
470

  0
SPLINE
  5
B2
330
AC
100
AcDbEntity
  8
レイヤー 1
100
AcDbSpline
210
0.0
220
0.0
230
1.0
 70
    11
 71
     3
 72
    17
 73
    13
 74
     0
 42
0.0000000001
 43
0.0000000001
 40
0.0
 40
0.0
 40
0.0
 40
0.0
 40
1.0
 40
1.0
 40
1.0
 40
2.0
 40
2.0
 40
2.0
 40
3.0
 40
3.0
 40
3.0
 40
4.0
 40
4.0
 40
4.0
 40
4.0
 10
88.27264808991101
 20
-143.6935546515766
 30
0.0
 10
88.27264808991101
 20
-143.6935546515766
 30
0.0
 10
88.02081160993925
 20
-143.6935546515766
 30
0.0
 10
88.02081160993925
 20
-143.6935546515766
 30
0.0
 10
88.02081160993925
 20
-143.6935546515766
 30
0.0
 10
88.02081160993925
 20
-143.4417181716048
 30
0.0
 10
88.02081160993925
 20
-143.4417181716048
 30
0.0
 10
88.02081160993925
 20
-143.4417181716048
 30
0.0
 10
88.27264808991101
 20
-143.4417181716048
 30
0.0
 10
88.27264808991101
 20
-143.4417181716048
 30
0.0
 10
88.27264808991101
 20
-143.4417181716048
 30
0.0
 10
88.27264808991101
 20
-143.6935546515766
 30
0.0
 10
88.27264808991101
 20
-143.6935546515766
 30
0.0
  0
HATCH
  5
B3
330
AC
100
AcDbEntity
  8
レイヤー 1
 62
    18
420
        0
440
 33554687
100
AcDbHatch
 10
0.0
 20
0.0
 30
0.0
210
0.0
220
0.0
230
1.0
  2
SOLID
 70
     1
 71
     1
 91
        1
 92
        1
 93
        1
 72
     4
 94
        3
 73
     0
 74
     0
 95
       17
 96
       13
 40
0.0
 40
0.0
 40
0.0
 40
0.0
 40
1.0
 40
1.0
 40
1.0
 40
2.0
 40
2.0
 40
2.0
 40
3.0
 40
3.0
 40
3.0
 40
4.0
 40
4.0
 40
4.0
 40
4.0
 10
88.27264808991101
 20
-143.6935546515766
 10
88.27264808991101
 20
-143.6935546515766
 10
88.02081160993925
 20
-143.6935546515766
 10
88.02081160993925
 20
-143.6935546515766
 10
88.02081160993925
 20
-143.6935546515766
 10
88.02081160993925
 20
-143.4417181716048
 10
88.02081160993925
 20
-143.4417181716048
 10
88.02081160993925
 20
-143.4417181716048
 10
88.27264808991101
 20
-143.4417181716048
 10
88.27264808991101
 20
-143.4417181716048
 10
88.27264808991101
 20
-143.4417181716048
 10
88.27264808991101
 20
-143.6935546515766
 10
88.27264808991101
 20
-143.6935546515766
 97
        0
 97
        1
330
B2
 75
     2
 76
     1
 98
        1
 10
0.0
 20
0.0
450
        0
451
        0
460
0.0
461
0.0
452
        0
462
0.0
453
        0
470

  0
SPLINE
  5
B4
330
AC
100
AcDbEntity
  8
レイヤー 1
100
AcDbSpline
210
0.0
220
0.0
230
1.0
 70
    11
 71
     3
 72
    26
 73
    22
 74
     0
 42
0.0000000001
 43
0.0000000001
 40
0.0
 40
0.0
 40
0.0
 40
0.0
 40
1.0
 40
1.0
 40
1.0
 40
2.0
 40
2.0
 40
2.0
 40
3.0
 40
3.0
 40
3.0
 40
4.0
 40
4.0
 40
4.0
 40
5.0
 40
5.0
 40
5.0
 40
6.0
 40
6.0
 40
6.0
 40
7.0
 40
7.0
 40
7.0
 40
7.0
 10
88.27264808991101
 20
-142.7540771127489
 30
0.0
 10
88.27264808991101
 20
-142.7540771127489
 30
0.0
 10
87.16849498688842
 20
-142.7540771127489
 30
0.0
 10
87.16849498688842
 20
-142.7540771127489
 30
0.0
 10
87.16849498688842
 20
-142.7540771127489
 30
0.0
 10
87.16849498688842
 20
-143.0841172602359
 30
0.0
 10
87.16849498688842
 20
-143.0841172602359
 30
0.0
 10
87.16849498688842
 20
-143.0841172602359
 30
0.0
 10
87.02035588102269
 20
-143.0841172602359
 30
0.0
 10
87.02035588102269
 20
-143.0841172602359
 30
0.0
 10
87.00554197043611
 20
-142.7520100554578
 30
0.0
 10
86.84258895398381
 20
-142.7055012664069
 30
0.0
 10
86.7282117838735
 20
-142.6758734452338
 30
0.0
 10
86.7282117838735
 20
-142.6758734452338
 30
0.0
 10
86.7282117838735
 20
-142.5298013966592
 30
0.0
 10
86.7282117838735
 20
-142.5298013966592
 30
0.0
 10
86.7282117838735
 20
-142.5298013966592
 30
0.0
 10
88.27264808991101
 20
-142.5298013966592
 30
0.0
 10
88.27264808991101
 20
-142.5298013966592
 30
0.0
 10
88.27264808991101
 20
-142.5298013966592
 30
0.0
 10
88.27264808991101
 20
-142.7540771127489
 30
0.0
 10
88.27264808991101
 20
-142.7540771127489
 30
0.0
  0
HATCH
  5
B5
330
AC
100
AcDbEntity
  8
レイヤー 1
 62
    18
420
        0
440
 33554687
100
AcDbHatch
 10
0.0
 20
0.0
 30
0.0
210
0.0
220
0.0
230
1.0
  2
SOLID
 70
     1
 71
     1
 91
        1
 92
        1
 93
        1
 72
     4
 94
        3
 73
     0
 74
     0
 95
       26
 96
       22
 40
0.0
 40
0.0
 40
0.0
 40
0.0
 40
1.0
 40
1.0
 40
1.0
 40
2.0
 40
2.0
 40
2.0
 40
3.0
 40
3.0
 40
3.0
 40
4.0
 40
4.0
 40
4.0
 40
5.0
 40
5.0
 40
5.0
 40
6.0
 40
6.0
 40
6.0
 40
7.0
 40
7.0
 40
7.0
 40
7.0
 10
88.27264808991101
 20
-142.7540771127489
 10
88.27264808991101
 20
-142.7540771127489
 10
87.16849498688842
 20
-142.7540771127489
 10
87.16849498688842
 20
-142.7540771127489
 10
87.16849498688842
 20
-142.7540771127489
 10
87.16849498688842
 20
-143.0841172602359
 10
87.16849498688842
 20
-143.0841172602359
 10
87.16849498688842
 20
-143.0841172602359
 10
87.02035588102269
 20
-143.0841172602359
 10
87.02035588102269
 20
-143.0841172602359
 10
87.00554197043611
 20
-142.7520100554578
 10
86.84258895398381
 20
-142.7055012664069
 10
86.7282117838735
 20
-142.6758734452338
 10
86.7282117838735
 20
-142.6758734452338
 10
86.7282117838735
 20
-142.5298013966592
 10
86.7282117838735
 20
-142.5298013966592
 10
86.7282117838735
 20
-142.5298013966592
 10
88.27264808991101
 20
-142.5298013966592
 10
88.27264808991101
 20
-142.5298013966592
 10
88.27264808991101
 20
-142.5298013966592
 10
88.27264808991101
 20
-142.7540771127489
 10
88.27264808991101
 20
-142.7540771127489
 97
        0
 97
        1
330
B4
 75
     2
 76
     1
 98
        1
 10
0.0
 20
0.0
450
        0
451
        0
460
0.0
461
0.0
452
        0
462
0.0
453
        0
470

  0
ENDBLK
  5
AF
330
AC
100
AcDbEntity
  8
0
100
AcDbBlockEnd
  0
BLOCK
  5
BB
330
B9
100
AcDbEntity
  8
0
100
AcDbBlockBegin
  2
Block_6
 70
     0
 10
0.0
 20
0.0
 30
0.0
  3
Block_6
  1

  0
SPLINE
  5
BD
330
B9
100
AcDbEntity
  8
レイヤー 1
100
AcDbSpline
210
0.0
220
0.0
230
1.0
 70
     9
 71
     3
 72
    17
 73
    13
 74
     0
 42
0.0000000001
 43
0.0000000001
 40
0.0
 40
0.0
 40
0.0
 40
0.0
 40
1.0
 40
1.0
 40
1.0
 40
2.0
 40
2.0
 40
2.0
 40
3.0
 40
3.0
 40
3.0
 40
4.0
 40
4.0
 40
4.0
 40
4.0
 10
95.15474308602035
 20
-154.6213975307891
 30
0.0
 10
94.98972301227688
 20
-154.6213975307891
 30
0.0
 10
94.905145918114
 20
-154.716482166182
 30
0.0
 10
94.905145918114
 20
-154.8518744187523
 30
0.0
 10
94.905145918114
 20
-154.9745198180272
 30
0.0
 10
94.97714841375572
 20
-155.0930311027198
 30
0.0
 10
95.15474308602035
 20
-155.0930311027198
 30
0.0
 10
95.33251001305924
 20
-155.0930311027198
 30
0.0
 10
95.40434025392668
 20
-154.9745198180272
 30
0.0
 10
95.40434025392668
 20
-154.8518744187523
 30
0.0
 10
95.40434025392668
 20
-154.716482166182
 30
0.0
 10
95.31769610247266
 20
-154.6213975307891
 30
0.0
 10
95.15474308602035
 20
-154.6213975307891
 30
0.0
  0
SPLINE
  5
BE
330
B9
100
AcDbEntity
  8
レイヤー 1
100
AcDbSpline
210
0.0
220
0.0
230
1.0
 70
     9
 71
     3
 72
    17
 73
    13
 74
     0
 42
0.0000000001
 43
0.0000000001
 40
0.0
 40
0.0
 40
0.0
 40
0.0
 40
1.0
 40
1.0
 40
1.0
 40
2.0
 40
2.0
 40
2.0
 40
3.0
 40
3.0
 40
3.0
 40
4.0
 40
4.0
 40
4.0
 40
4.0
 10
95.15474308602035
 20
-155.281477825763
 30
0.0
 10
95.01091034951116
 20
-155.281477825763
 30
0.0
 10
94.85863712906313
 20
-155.3682942319912
 30
0.0
 10
94.85863712906313
 20
-155.5712103560724
 30
0.0
 10
94.85863712906313
 20
-155.7765380469934
 30
0.0
 10
94.98558889769459
 20
-155.8778238542597
 30
0.0
 10
95.15474308602035
 20
-155.8778238542597
 30
0.0
 10
95.34095049699811
 20
-155.8778238542597
 30
0.0
 10
95.45102129775184
 20
-155.7551784549848
 30
0.0
 10
95.45102129775184
 20
-155.5774115279459
 30
0.0
 10
95.45102129775184
 20
-155.3555473786958
 30
0.0
 10
95.28806828129951
 20
-155.281477825763
 30
0.0
 10
95.15474308602035
 20
-155.281477825763
 30
0.0
  0
SPLINE
  5
BF
330
B9
100
AcDbEntity
  8
レイヤー 1
100
AcDbSpline
210
0.0
220
0.0
230
1.0
 70
     9
 71
     3
 72
    29
 73
    25
 74
     0
 42
0.0000000001
 43
0.0000000001
 40
0.0
 40
0.0
 40
0.0
 40
0.0
 40
1.0
 40
1.0
 40
1.0
 40
2.0
 40
2.0
 40
2.0
 40
3.0
 40
3.0
 40
3.0
 40
4.0
 40
4.0
 40
4.0
 40
5.0
 40
5.0
 40
5.0
 40
6.0
 40
6.0
 40
6.0
 40
7.0
 40
7.0
 40
7.0
 40
8.0
 40
8.0
 40
8.0
 40
8.0
 10
95.15474308602035
 20
-156.0724717491763
 30
0.0
 10
94.88826495023628
 20
-156.0724717491763
 30
0.0
 10
94.63436141297336
 20
-155.9350124393148
 30
0.0
 10
94.63436141297336
 20
-155.586024266659
 30
0.0
 10
94.63436141297336
 20
-155.330053672105
 30
0.0
 10
94.77612709219139
 20
-155.2349690367121
 30
0.0
 10
94.88189152358856
 20
-155.1736463370746
 30
0.0
 10
94.75700681224825
 20
-155.1143906947283
 30
0.0
 10
94.68087020202423
 20
-155.000013524618
 30
0.0
 10
94.68087020202423
 20
-154.8391275654569
 30
0.0
 10
94.68087020202423
 20
-154.5642089457339
 30
0.0
 10
94.87982446629741
 20
-154.4288166931636
 30
0.0
 10
95.15474308602035
 20
-154.4288166931636
 30
0.0
 10
95.43827444445641
 20
-154.4288166931636
 30
0.0
 10
95.62861597001646
 20
-154.5728216844471
 30
0.0
 10
95.62861597001646
 20
-154.8391275654569
 30
0.0
 10
95.62861597001646
 20
-155.000013524618
 30
0.0
 10
95.55041230250129
 20
-155.1143906947283
 30
0.0
 10
95.42552759116098
 20
-155.1736463370746
 30
0.0
 10
95.51441105468041
 20
-155.2242892407078
 30
0.0
 10
95.67305770177618
 20
-155.3193738761007
 30
0.0
 10
95.67305770177618
 20
-155.5818901520767
 30
0.0
 10
95.67305770177618
 20
-155.9563720313234
 30
0.0
 10
95.39383271269668
 20
-156.0724717491763
 30
0.0
 10
95.15474308602035
 20
-156.0724717491763
 30
0.0
  0
HATCH
  5
C0
330
B9
100
AcDbEntity
  8
レイヤー 1
 62
    18
420
        0
440
 33554687
100
AcDbHatch
 10
0.0
 20
0.0
 30
0.0
210
0.0
220
0.0
230
1.0
  2
SOLID
 70
     1
 71
     1
 91
        3
 92
        1
 93
        1
 72
     4
 94
        3
 73
     0
 74
     0
 95
       17
 96
       13
 40
0.0
 40
0.0
 40
0.0
 40
0.0
 40
1.0
 40
1.0
 40
1.0
 40
2.0
 40
2.0
 40
2.0
 40
3.0
 40
3.0
 40
3.0
 40
4.0
 40
4.0
 40
4.0
 40
4.0
 10
95.15474308602035
 20
-154.6213975307891
 10
94.98972301227688
 20
-154.6213975307891
 10
94.905145918114
 20
-154.716482166182
 10
94.905145918114
 20
-154.8518744187523
 10
94.905145918114
 20
-154.9745198180272
 10
94.97714841375572
 20
-155.0930311027198
 10
95.15474308602035
 20
-155.0930311027198
 10
95.33251001305924
 20
-155.0930311027198
 10
95.40434025392668
 20
-154.9745198180272
 10
95.40434025392668
 20
-154.8518744187523
 10
95.40434025392668
 20
-154.716482166182
 10
95.31769610247266
 20
-154.6213975307891
 10
95.15474308602035
 20
-154.6213975307891
 97
        0
 97
        1
330
BD
 92
        1
 93
        1
 72
     4
 94
        3
 73
     0
 74
     0
 95
       17
 96
       13
 40
0.0
 40
0.0
 40
0.0
 40
0.0
 40
1.0
 40
1.0
 40
1.0
 40
2.0
 40
2.0
 40
2.0
 40
3.0
 40
3.0
 40
3.0
 40
4.0
 40
4.0
 40
4.0
 40
4.0
 10
95.15474308602035
 20
-155.281477825763
 10
95.01091034951116
 20
-155.281477825763
 10
94.85863712906313
 20
-155.3682942319912
 10
94.85863712906313
 20
-155.5712103560724
 10
94.85863712906313
 20
-155.7765380469934
 10
94.98558889769459
 20
-155.8778238542597
 10
95.15474308602035
 20
-155.8778238542597
 10
95.34095049699811
 20
-155.8778238542597
 10
95.45102129775184
 20
-155.7551784549848
 10
95.45102129775184
 20
-155.5774115279459
 10
95.45102129775184
 20
-155.3555473786958
 10
95.28806828129951
 20
-155.281477825763
 10
95.15474308602035
 20
-155.281477825763
 97
        0
 97
        1
330
BE
 92
        1
 93
        1
 72
     4
 94
        3
 73
     0
 74
     0
 95
       29
 96
       25
 40
0.0
 40
0.0
 40
0.0
 40
0.0
 40
1.0
 40
1.0
 40
1.0
 40
2.0
 40
2.0
 40
2.0
 40
3.0
 40
3.0
 40
3.0
 40
4.0
 40
4.0
 40
4.0
 40
5.0
 40
5.0
 40
5.0
 40
6.0
 40
6.0
 40
6.0
 40
7.0
 40
7.0
 40
7.0
 40
8.0
 40
8.0
 40
8.0
 40
8.0
 10
95.15474308602035
 20
-156.0724717491763
 10
94.88826495023628
 20
-156.0724717491763
 10
94.63436141297336
 20
-155.9350124393148
 10
94.63436141297336
 20
-155.586024266659
 10
94.63436141297336
 20
-155.330053672105
 10
94.77612709219139
 20
-155.2349690367121
 10
94.88189152358856
 20
-155.1736463370746
 10
94.75700681224825
 20
-155.1143906947283
 10
94.68087020202423
 20
-155.000013524618
 10
94.68087020202423
 20
-154.8391275654569
 10
94.68087020202423
 20
-154.5642089457339
 10
94.87982446629741
 20
-154.4288166931636
 10
95.15474308602035
 20
-154.4288166931636
 10
95.43827444445641
 20
-154.4288166931636
 10
95.62861597001646
 20
-154.5728216844471
 10
95.62861597001646
 20
-154.8391275654569
 10
95.62861597001646
 20
-155.000013524618
 10
95.55041230250129
 20
-155.1143906947283
 10
95.42552759116098
 20
-155.1736463370746
 10
95.51441105468041
 20
-155.2242892407078
 10
95.67305770177618
 20
-155.3193738761007
 10
95.67305770177618
 20
-155.5818901520767
 10
95.67305770177618
 20
-155.9563720313234
 10
95.39383271269668
 20
-156.0724717491763
 10
95.15474308602035
 20
-156.0724717491763
 97
        0
 97
        1
330
BF
 75
     2
 76
     1
 98
        1
 10
0.0
 20
0.0
450
        0
451
        0
460
0.0
461
0.0
452
        0
462
0.0
453
        0
470

  0
ENDBLK
  5
BC
330
B9
100
AcDbEntity
  8
0
100
AcDbBlockEnd
  0
BLOCK
  5
C7
330
C5
100
AcDbEntity
  8
0
100
AcDbBlockBegin
  2
Block_7
 70
     0
 10
0.0
 20
0.0
 30
0.0
  3
Block_7
  1

  0
INSERT
  5
CA
330
C5
100
AcDbEntity
  8
レイヤー 1
100
AcDbBlockReference
  2
Block_8
 10
0.0
 20
0.0
 30
0.0
  0
ENDBLK
  5
C8
330
C5
100
AcDbEntity
  8
0
100
AcDbBlockEnd
  0
BLOCK
  5
CB
330
C9
100
AcDbEntity
  8
0
100
AcDbBlockBegin
  2
Block_8
 70
     0
 10
0.0
 20
0.0
 30
0.0
  3
Block_8
  1

  0
SPLINE
  5
CD
330
C9
100
AcDbEntity
  8
レイヤー 1
100
AcDbSpline
210
0.0
220
0.0
230
1.0
 70
     9
 71
     3
 72
    17
 73
    13
 74
     0
 42
0.0000000001
 43
0.0000000001
 40
0.0
 40
0.0
 40
0.0
 40
0.0
 40
1.0
 40
1.0
 40
1.0
 40
2.0
 40
2.0
 40
2.0
 40
3.0
 40
3.0
 40
3.0
 40
4.0
 40
4.0
 40
4.0
 40
4.0
 10
121.9301974521563
 20
-152.7737928220496
 30
0.0
 10
121.9301974521563
 20
-153.0235622447302
 30
0.0
 10
122.2137288105924
 20
-153.0700710337811
 30
0.0
 10
122.5585828686659
 20
-153.0700710337811
 30
0.0
 10
122.8779432201485
 20
-153.0700710337811
 30
0.0
 10
123.1866237756269
 20
-153.0338975311859
 30
0.0
 10
123.1866237756269
 20
-152.7737928220496
 30
0.0
 10
123.1866237756269
 20
-152.5260904566601
 30
0.0
 10
122.9055039840305
 20
-152.4775146103181
 30
0.0
 10
122.5585828686659
 20
-152.4775146103181
 30
0.0
 10
122.2388780076347
 20
-152.4775146103181
 30
0.0
 10
121.9301974521563
 20
-152.5157551702044
 30
0.0
 10
121.9301974521563
 20
-152.7737928220496
 30
0.0
  0
SPLINE
  5
CE
330
C9
100
AcDbEntity
  8
レイヤー 1
100
AcDbSpline
210
0.0
220
0.0
230
1.0
 70
     9
 71
     3
 72
    29
 73
    25
 74
     0
 42
0.0000000001
 43
0.0000000001
 40
0.0
 40
0.0
 40
0.0
 40
0.0
 40
1.0
 40
1.0
 40
1.0
 40
2.0
 40
2.0
 40
2.0
 40
3.0
 40
3.0
 40
3.0
 40
4.0
 40
4.0
 40
4.0
 40
5.0
 40
5.0
 40
5.0
 40
6.0
 40
6.0
 40
6.0
 40
7.0
 40
7.0
 40
7.0
 40
8.0
 40
8.0
 40
8.0
 40
8.0
 10
123.1528618398715
 20
-152.3758842935032
 30
0.0
 10
123.3623236453747
 20
-152.4840602917401
 30
0.0
 10
123.3812716705436
 20
-152.6573485946481
 30
0.0
 10
123.3812716705436
 20
-152.7737928220496
 30
0.0
 10
123.3812716705436
 20
-152.9346787812108
 30
0.0
 10
123.3347628814927
 20
-153.0762722056545
 30
0.0
 10
123.1528618398715
 20
-153.1713568410474
 30
0.0
 10
122.9582139449549
 20
-153.2750542151534
 30
0.0
 10
122.7215358851182
 20
-153.2943467498709
 30
0.0
 10
122.5585828686659
 20
-153.2943467498709
 30
0.0
 10
122.4145778773825
 20
-153.2943467498709
 30
0.0
 10
122.1627413974107
 20
-153.2771212724446
 30
0.0
 10
121.9639593879118
 20
-153.1713568410474
 30
0.0
 10
121.7610432638305
 20
-153.0635253523591
 30
0.0
 10
121.7376166145309
 20
-152.9026393931979
 30
0.0
 10
121.7376166145309
 20
-152.7737928220496
 30
0.0
 10
121.7376166145309
 20
-152.6149739201796
 30
0.0
 10
121.7820583462906
 20
-152.4713134384446
 30
0.0
 10
121.9639593879118
 20
-152.3758842935032
 30
0.0
 10
122.1565402255372
 20
-152.276665543528
 30
0.0
 10
122.3849500562093
 20
-152.2532388942283
 30
0.0
 10
122.5585828686659
 20
-152.2532388942283
 30
0.0
 10
122.7298041142828
 20
-152.2532388942283
 30
0.0
 10
122.960281002246
 20
-152.2745984862369
 30
0.0
 10
123.1528618398715
 20
-152.3758842935032
 30
0.0
  0
HATCH
  5
CF
330
C9
100
AcDbEntity
  8
レイヤー 1
 62
    18
420
        0
440
 33554687
100
AcDbHatch
 10
0.0
 20
0.0
 30
0.0
210
0.0
220
0.0
230
1.0
  2
SOLID
 70
     1
 71
     1
 91
        2
 92
        1
 93
        1
 72
     4
 94
        3
 73
     0
 74
     0
 95
       17
 96
       13
 40
0.0
 40
0.0
 40
0.0
 40
0.0
 40
1.0
 40
1.0
 40
1.0
 40
2.0
 40
2.0
 40
2.0
 40
3.0
 40
3.0
 40
3.0
 40
4.0
 40
4.0
 40
4.0
 40
4.0
 10
121.9301974521563
 20
-152.7737928220496
 10
121.9301974521563
 20
-153.0235622447302
 10
122.2137288105924
 20
-153.0700710337811
 10
122.5585828686659
 20
-153.0700710337811
 10
122.8779432201485
 20
-153.0700710337811
 10
123.1866237756269
 20
-153.0338975311859
 10
123.1866237756269
 20
-152.7737928220496
 10
123.1866237756269
 20
-152.5260904566601
 10
122.9055039840305
 20
-152.4775146103181
 10
122.5585828686659
 20
-152.4775146103181
 10
122.2388780076347
 20
-152.4775146103181
 10
121.9301974521563
 20
-152.5157551702044
 10
121.9301974521563
 20
-152.7737928220496
 97
        0
 97
        1
330
CD
 92
        1
 93
        1
 72
     4
 94
        3
 73
     0
 74
     0
 95
       29
 96
       25
 40
0.0
 40
0.0
 40
0.0
 40
0.0
 40
1.0
 40
1.0
 40
1.0
 40
2.0
 40
2.0
 40
2.0
 40
3.0
 40
3.0
 40
3.0
 40
4.0
 40
4.0
 40
4.0
 40
5.0
 40
5.0
 40
5.0
 40
6.0
 40
6.0
 40
6.0
 40
7.0
 40
7.0
 40
7.0
 40
8.0
 40
8.0
 40
8.0
 40
8.0
 10
123.1528618398715
 20
-152.3758842935032
 10
123.3623236453747
 20
-152.4840602917401
 10
123.3812716705436
 20
-152.6573485946481
 10
123.3812716705436
 20
-152.7737928220496
 10
123.3812716705436
 20
-152.9346787812108
 10
123.3347628814927
 20
-153.0762722056545
 10
123.1528618398715
 20
-153.1713568410474
 10
122.9582139449549
 20
-153.2750542151534
 10
122.7215358851182
 20
-153.2943467498709
 10
122.5585828686659
 20
-153.2943467498709
 10
122.4145778773825
 20
-153.2943467498709
 10
122.1627413974107
 20
-153.2771212724446
 10
121.9639593879118
 20
-153.1713568410474
 10
121.7610432638305
 20
-153.0635253523591
 10
121.7376166145309
 20
-152.9026393931979
 10
121.7376166145309
 20
-152.7737928220496
 10
121.7376166145309
 20
-152.6149739201796
 10
121.7820583462906
 20
-152.4713134384446
 10
121.9639593879118
 20
-152.3758842935032
 10
122.1565402255372
 20
-152.276665543528
 10
122.3849500562093
 20
-152.2532388942283
 10
122.5585828686659
 20
-152.2532388942283
 10
122.7298041142828
 20
-152.2532388942283
 10
122.960281002246
 20
-152.2745984862369
 10
123.1528618398715
 20
-152.3758842935032
 97
        0
 97
        1
330
CE
 75
     2
 76
     1
 98
        1
 10
0.0
 20
0.0
450
        0
451
        0
460
0.0
461
0.0
452
        0
462
0.0
453
        0
470

  0
SPLINE
  5
D0
330
C9
100
AcDbEntity
  8
レイヤー 1
100
AcDbSpline
210
0.0
220
0.0
230
1.0
 70
    11
 71
     3
 72
    17
 73
    13
 74
     0
 42
0.0000000001
 43
0.0000000001
 40
0.0
 40
0.0
 40
0.0
 40
0.0
 40
1.0
 40
1.0
 40
1.0
 40
2.0
 40
2.0
 40
2.0
 40
3.0
 40
3.0
 40
3.0
 40
4.0
 40
4.0
 40
4.0
 40
4.0
 10
123.3306287669104
 20
-152.0368868977547
 30
0.0
 10
123.3306287669104
 20
-152.0368868977547
 30
0.0
 10
123.0787922869386
 20
-152.0368868977547
 30
0.0
 10
123.0787922869386
 20
-152.0368868977547
 30
0.0
 10
123.0787922869386
 20
-152.0368868977547
 30
0.0
 10
123.0787922869386
 20
-151.7850504177829
 30
0.0
 10
123.0787922869386
 20
-151.7850504177829
 30
0.0
 10
123.0787922869386
 20
-151.7850504177829
 30
0.0
 10
123.3306287669104
 20
-151.7850504177829
 30
0.0
 10
123.3306287669104
 20
-151.7850504177829
 30
0.0
 10
123.3306287669104
 20
-151.7850504177829
 30
0.0
 10
123.3306287669104
 20
-152.0368868977547
 30
0.0
 10
123.3306287669104
 20
-152.0368868977547
 30
0.0
  0
HATCH
  5
D1
330
C9
100
AcDbEntity
  8
レイヤー 1
 62
    18
420
        0
440
 33554687
100
AcDbHatch
 10
0.0
 20
0.0
 30
0.0
210
0.0
220
0.0
230
1.0
  2
SOLID
 70
     1
 71
     1
 91
        1
 92
        1
 93
        1
 72
     4
 94
        3
 73
     0
 74
     0
 95
       17
 96
       13
 40
0.0
 40
0.0
 40
0.0
 40
0.0
 40
1.0
 40
1.0
 40
1.0
 40
2.0
 40
2.0
 40
2.0
 40
3.0
 40
3.0
 40
3.0
 40
4.0
 40
4.0
 40
4.0
 40
4.0
 10
123.3306287669104
 20
-152.0368868977547
 10
123.3306287669104
 20
-152.0368868977547
 10
123.0787922869386
 20
-152.0368868977547
 10
123.0787922869386
 20
-152.0368868977547
 10
123.0787922869386
 20
-152.0368868977547
 10
123.0787922869386
 20
-151.7850504177829
 10
123.0787922869386
 20
-151.7850504177829
 10
123.0787922869386
 20
-151.7850504177829
 10
123.3306287669104
 20
-151.7850504177829
 10
123.3306287669104
 20
-151.7850504177829
 10
123.3306287669104
 20
-151.7850504177829
 10
123.3306287669104
 20
-152.0368868977547
 10
123.3306287669104
 20
-152.0368868977547
 97
        0
 97
        1
330
D0
 75
     2
 76
     1
 98
        1
 10
0.0
 20
0.0
450
        0
451
        0
460
0.0
461
0.0
452
        0
462
0.0
453
        0
470

  0
SPLINE
  5
D2
330
C9
100
AcDbEntity
  8
レイヤー 1
100
AcDbSpline
210
0.0
220
0.0
230
1.0
 70
    11
 71
     3
 72
    14
 73
    10
 74
     0
 42
0.0000000001
 43
0.0000000001
 40
0.0
 40
0.0
 40
0.0
 40
0.0
 40
1.0
 40
1.0
 40
1.0
 40
2.0
 40
2.0
 40
2.0
 40
3.0
 40
3.0
 40
3.0
 40
3.0
 10
122.1289794616552
 20
-150.9344563424747
 30
0.0
 10
122.1289794616552
 20
-150.9344563424747
 30
0.0
 10
122.7849256420468
 20
-151.3916205133673
 30
0.0
 10
122.7849256420468
 20
-151.3916205133673
 30
0.0
 10
122.7849256420468
 20
-151.3916205133673
 30
0.0
 10
122.7849256420468
 20
-150.9344563424747
 30
0.0
 10
122.7849256420468
 20
-150.9344563424747
 30
0.0
 10
122.7849256420468
 20
-150.9344563424747
 30
0.0
 10
122.1289794616552
 20
-150.9344563424747
 30
0.0
 10
122.1289794616552
 20
-150.9344563424747
 30
0.0
  0
SPLINE
  5
D3
330
C9
100
AcDbEntity
  8
レイヤー 1
100
AcDbSpline
210
0.0
220
0.0
230
1.0
 70
    11
 71
     3
 72
    38
 73
    34
 74
     0
 42
0.0000000001
 43
0.0000000001
 40
0.0
 40
0.0
 40
0.0
 40
0.0
 40
1.0
 40
1.0
 40
1.0
 40
2.0
 40
2.0
 40
2.0
 40
3.0
 40
3.0
 40
3.0
 40
4.0
 40
4.0
 40
4.0
 40
5.0
 40
5.0
 40
5.0
 40
6.0
 40
6.0
 40
6.0
 40
7.0
 40
7.0
 40
7.0
 40
8.0
 40
8.0
 40
8.0
 40
9.0
 40
9.0
 40
9.0
 40
10.0
 40
10.0
 40
10.0
 40
11.0
 40
11.0
 40
11.0
 40
11.0
 10
122.9837076515457
 20
-150.7167263078069
 30
0.0
 10
122.9837076515457
 20
-150.7167263078069
 30
0.0
 10
123.3306287669104
 20
-150.7167263078069
 30
0.0
 10
123.3306287669104
 20
-150.7167263078069
 30
0.0
 10
123.3306287669104
 20
-150.7167263078069
 30
0.0
 10
123.3306287669104
 20
-150.9344563424747
 30
0.0
 10
123.3306287669104
 20
-150.9344563424747
 30
0.0
 10
123.3306287669104
 20
-150.9344563424747
 30
0.0
 10
122.9837076515457
 20
-150.9344563424747
 30
0.0
 10
122.9837076515457
 20
-150.9344563424747
 30
0.0
 10
122.9837076515457
 20
-150.9344563424747
 30
0.0
 10
122.9837076515457
 20
-151.5904025228663
 30
0.0
 10
122.9837076515457
 20
-151.5904025228663
 30
0.0
 10
122.9837076515457
 20
-151.5904025228663
 30
0.0
 10
122.7594319354559
 20
-151.5904025228663
 30
0.0
 10
122.7594319354559
 20
-151.5904025228663
 30
0.0
 10
122.7594319354559
 20
-151.5904025228663
 30
0.0
 10
121.7861924608729
 20
-150.9113742027235
 30
0.0
 10
121.7861924608729
 20
-150.9113742027235
 30
0.0
 10
121.7861924608729
 20
-150.9113742027235
 30
0.0
 10
121.7861924608729
 20
-150.7167263078069
 30
0.0
 10
121.7861924608729
 20
-150.7167263078069
 30
0.0
 10
121.7861924608729
 20
-150.7167263078069
 30
0.0
 10
122.7849256420468
 20
-150.7167263078069
 30
0.0
 10
122.7849256420468
 20
-150.7167263078069
 30
0.0
 10
122.7849256420468
 20
-150.7167263078069
 30
0.0
 10
122.7849256420468
 20
-150.5093315595949
 30
0.0
 10
122.7849256420468
 20
-150.5093315595949
 30
0.0
 10
122.7849256420468
 20
-150.5093315595949
 30
0.0
 10
122.9837076515457
 20
-150.5093315595949
 30
0.0
 10
122.9837076515457
 20
-150.5093315595949
 30
0.0
 10
122.9837076515457
 20
-150.5093315595949
 30
0.0
 10
122.9837076515457
 20
-150.7167263078069
 30
0.0
 10
122.9837076515457
 20
-150.7167263078069
 30
0.0
  0
HATCH
  5
D4
330
C9
100
AcDbEntity
  8
レイヤー 1
 62
    18
420
        0
440
 33554687
100
AcDbHatch
 10
0.0
 20
0.0
 30
0.0
210
0.0
220
0.0
230
1.0
  2
SOLID
 70
     1
 71
     1
 91
        2
 92
        1
 93
        1
 72
     4
 94
        3
 73
     0
 74
     0
 95
       14
 96
       10
 40
0.0
 40
0.0
 40
0.0
 40
0.0
 40
1.0
 40
1.0
 40
1.0
 40
2.0
 40
2.0
 40
2.0
 40
3.0
 40
3.0
 40
3.0
 40
3.0
 10
122.1289794616552
 20
-150.9344563424747
 10
122.1289794616552
 20
-150.9344563424747
 10
122.7849256420468
 20
-151.3916205133673
 10
122.7849256420468
 20
-151.3916205133673
 10
122.7849256420468
 20
-151.3916205133673
 10
122.7849256420468
 20
-150.9344563424747
 10
122.7849256420468
 20
-150.9344563424747
 10
122.7849256420468
 20
-150.9344563424747
 10
122.1289794616552
 20
-150.9344563424747
 10
122.1289794616552
 20
-150.9344563424747
 97
        0
 97
        1
330
D2
 92
        1
 93
        1
 72
     4
 94
        3
 73
     0
 74
     0
 95
       38
 96
       34
 40
0.0
 40
0.0
 40
0.0
 40
0.0
 40
1.0
 40
1.0
 40
1.0
 40
2.0
 40
2.0
 40
2.0
 40
3.0
 40
3.0
 40
3.0
 40
4.0
 40
4.0
 40
4.0
 40
5.0
 40
5.0
 40
5.0
 40
6.0
 40
6.0
 40
6.0
 40
7.0
 40
7.0
 40
7.0
 40
8.0
 40
8.0
 40
8.0
 40
9.0
 40
9.0
 40
9.0
 40
10.0
 40
10.0
 40
10.0
 40
11.0
 40
11.0
 40
11.0
 40
11.0
 10
122.9837076515457
 20
-150.7167263078069
 10
122.9837076515457
 20
-150.7167263078069
 10
123.3306287669104
 20
-150.7167263078069
 10
123.3306287669104
 20
-150.7167263078069
 10
123.3306287669104
 20
-150.7167263078069
 10
123.3306287669104
 20
-150.9344563424747
 10
123.3306287669104
 20
-150.9344563424747
 10
123.3306287669104
 20
-150.9344563424747
 10
122.9837076515457
 20
-150.9344563424747
 10
122.9837076515457
 20
-150.9344563424747
 10
122.9837076515457
 20
-150.9344563424747
 10
122.9837076515457
 20
-151.5904025228663
 10
122.9837076515457
 20
-151.5904025228663
 10
122.9837076515457
 20
-151.5904025228663
 10
122.7594319354559
 20
-151.5904025228663
 10
122.7594319354559
 20
-151.5904025228663
 10
122.7594319354559
 20
-151.5904025228663
 10
121.7861924608729
 20
-150.9113742027235
 10
121.7861924608729
 20
-150.9113742027235
 10
121.7861924608729
 20
-150.9113742027235
 10
121.7861924608729
 20
-150.7167263078069
 10
121.7861924608729
 20
-150.7167263078069
 10
121.7861924608729
 20
-150.7167263078069
 10
122.7849256420468
 20
-150.7167263078069
 10
122.7849256420468
 20
-150.7167263078069
 10
122.7849256420468
 20
-150.7167263078069
 10
122.7849256420468
 20
-150.5093315595949
 10
122.7849256420468
 20
-150.5093315595949
 10
122.7849256420468
 20
-150.5093315595949
 10
122.9837076515457
 20
-150.5093315595949
 10
122.9837076515457
 20
-150.5093315595949
 10
122.9837076515457
 20
-150.5093315595949
 10
122.9837076515457
 20
-150.7167263078069
 10
122.9837076515457
 20
-150.7167263078069
 97
        0
 97
        1
330
D3
 75
     2
 76
     1
 98
        1
 10
0.0
 20
0.0
450
        0
451
        0
460
0.0
461
0.0
452
        0
462
0.0
453
        0
470

  0
ENDBLK
  5
CC
330
C9
100
AcDbEntity
  8
0
100
AcDbBlockEnd
  0
BLOCK
  5
DB
330
D9
100
AcDbEntity
  8
0
100
AcDbBlockBegin
  2
Block_9
 70
     0
 10
0.0
 20
0.0
 30
0.0
  3
Block_9
  1

  0
INSERT
  5
DE
330
D9
100
AcDbEntity
  8
レイヤー 1
100
AcDbBlockReference
  2
Block_10
 10
0.0
 20
0.0
 30
0.0
  0
ENDBLK
  5
DC
330
D9
100
AcDbEntity
  8
0
100
AcDbBlockEnd
  0
BLOCK
  5
DF
330
DD
100
AcDbEntity
  8
0
100
AcDbBlockBegin
  2
Block_10
 70
     0
 10
0.0
 20
0.0
 30
0.0
  3
Block_10
  1

  0
SPLINE
  5
E1
330
DD
100
AcDbEntity
  8
レイヤー 1
100
AcDbSpline
210
0.0
220
0.0
230
1.0
 70
     9
 71
     3
 72
    59
 73
    55
 74
     0
 42
0.0000000001
 43
0.0000000001
 40
0.0
 40
0.0
 40
0.0
 40
0.0
 40
1.0
 40
1.0
 40
1.0
 40
2.0
 40
2.0
 40
2.0
 40
3.0
 40
3.0
 40
3.0
 40
4.0
 40
4.0
 40
4.0
 40
5.0
 40
5.0
 40
5.0
 40
6.0
 40
6.0
 40
6.0
 40
7.0
 40
7.0
 40
7.0
 40
8.0
 40
8.0
 40
8.0
 40
9.0
 40
9.0
 40
9.0
 40
10.0
 40
10.0
 40
10.0
 40
11.0
 40
11.0
 40
11.0
 40
12.0
 40
12.0
 40
12.0
 40
13.0
 40
13.0
 40
13.0
 40
14.0
 40
14.0
 40
14.0
 40
15.0
 40
15.0
 40
15.0
 40
16.0
 40
16.0
 40
16.0
 40
17.0
 40
17.0
 40
17.0
 40
18.0
 40
18.0
 40
18.0
 40
18.0
 10
89.16475556581644
 20
-148.9759195591102
 30
0.0
 10
89.02230086750137
 20
-149.462711551176
 30
0.0
 10
88.80956622128719
 20
-149.9849880267398
 30
0.0
 10
88.29917532514743
 20
-150.3022813209313
 30
0.0
 10
88.29917532514743
 20
-150.3022813209313
 30
0.0
 10
88.13880613030905
 20
-150.1500081004833
 30
0.0
 10
88.13880613030905
 20
-150.1500081004833
 30
0.0
 10
88.27574867584774
 20
-150.0804171716813
 30
0.0
 10
88.48503822657667
 20
-149.9701741161533
 30
0.0
 10
88.69949542053346
 20
-149.6401339686663
 30
0.0
 10
88.90155027074337
 20
-149.3273192986057
 30
0.0
 10
88.95029837185964
 20
-149.0713487040516
 30
0.0
 10
88.97372502115935
 20
-148.9442246806459
 30
0.0
 10
88.97372502115935
 20
-148.9442246806459
 30
0.0
 10
88.42182072442232
 20
-148.9442246806459
 30
0.0
 10
88.42182072442232
 20
-148.9442246806459
 30
0.0
 10
88.33345402522565
 20
-149.105110639807
 30
0.0
 10
88.23079017976523
 20
-149.2721977708416
 30
0.0
 10
88.06663137989307
 20
-149.4434190164586
 30
0.0
 10
88.06663137989307
 20
-149.4434190164586
 30
0.0
 10
87.91866452880158
 20
-149.3207736171837
 30
0.0
 10
87.91866452880158
 20
-149.3207736171837
 30
0.0
 10
87.96930743243477
 20
-149.2742648281328
 30
0.0
 10
88.0953979271949
 20
-149.1622992248622
 30
0.0
 10
88.23613007776735
 20
-148.9125298021816
 30
0.0
 10
88.30107012766431
 20
-148.7941907722633
 30
0.0
 10
88.38943682686098
 20
-148.6248643291632
 30
0.0
 10
88.41096867364379
 20
-148.5022189298883
 30
0.0
 10
88.41096867364379
 20
-148.5022189298883
 30
0.0
 10
88.60768362585154
 20
-148.6036769919289
 30
0.0
 10
88.60768362585154
 20
-148.6036769919289
 30
0.0
 10
88.62025822437272
 20
-148.6100504185766
 30
0.0
 10
88.63283282289387
 20
-148.6184909025155
 30
0.0
 10
88.63283282289387
 20
-148.6333048131021
 30
0.0
 10
88.63283282289387
 20
-148.6544921503364
 30
0.0
 10
88.61112872133681
 20
-148.6672390036318
 30
0.0
 10
88.60406627559205
 20
-148.6693060609229
 30
0.0
 10
88.58063962629234
 20
-148.6777465448618
 30
0.0
 10
88.57340492577332
 20
-148.6756794875707
 30
0.0
 10
88.55170082421624
 20
-148.7010009393872
 30
0.0
 10
88.52999672265918
 20
-148.7264946459781
 30
0.0
 10
88.53189152517606
 20
-148.734935129917
 30
0.0
 10
88.50484752561685
 20
-148.7878173456155
 30
0.0
 10
88.50484752561685
 20
-148.7878173456155
 30
0.0
 10
88.78975692224701
 20
-148.7878173456155
 30
0.0
 10
88.78975692224701
 20
-148.7878173456155
 30
0.0
 10
89.00800372123759
 20
-148.7878173456155
 30
0.0
 10
89.0350477207968
 20
-148.7750704923201
 30
0.0
 10
89.08362356713881
 20
-148.745442671147
 30
0.0
 10
89.08362356713881
 20
-148.745442671147
 30
0.0
 10
89.21712101719226
 20
-148.9104627448904
 30
0.0
 10
89.21712101719226
 20
-148.9104627448904
 30
0.0
 10
89.18818221511616
 20
-148.946291737937
 30
0.0
 10
89.18645966737352
 20
-148.9483587952282
 30
0.0
 10
89.16475556581644
 20
-148.9759195591102
 30
0.0
  0
HATCH
  5
E2
330
DD
100
AcDbEntity
  8
レイヤー 1
 62
   250
420
  2299925
440
 33554687
100
AcDbHatch
 10
0.0
 20
0.0
 30
0.0
210
0.0
220
0.0
230
1.0
  2
SOLID
 70
     1
 71
     1
 91
        1
 92
        1
 93
        1
 72
     4
 94
        3
 73
     0
 74
     0
 95
       59
 96
       55
 40
0.0
 40
0.0
 40
0.0
 40
0.0
 40
1.0
 40
1.0
 40
1.0
 40
2.0
 40
2.0
 40
2.0
 40
3.0
 40
3.0
 40
3.0
 40
4.0
 40
4.0
 40
4.0
 40
5.0
 40
5.0
 40
5.0
 40
6.0
 40
6.0
 40
6.0
 40
7.0
 40
7.0
 40
7.0
 40
8.0
 40
8.0
 40
8.0
 40
9.0
 40
9.0
 40
9.0
 40
10.0
 40
10.0
 40
10.0
 40
11.0
 40
11.0
 40
11.0
 40
12.0
 40
12.0
 40
12.0
 40
13.0
 40
13.0
 40
13.0
 40
14.0
 40
14.0
 40
14.0
 40
15.0
 40
15.0
 40
15.0
 40
16.0
 40
16.0
 40
16.0
 40
17.0
 40
17.0
 40
17.0
 40
18.0
 40
18.0
 40
18.0
 40
18.0
 10
89.16475556581644
 20
-148.9759195591102
 10
89.02230086750137
 20
-149.462711551176
 10
88.80956622128719
 20
-149.9849880267398
 10
88.29917532514743
 20
-150.3022813209313
 10
88.29917532514743
 20
-150.3022813209313
 10
88.13880613030905
 20
-150.1500081004833
 10
88.13880613030905
 20
-150.1500081004833
 10
88.27574867584774
 20
-150.0804171716813
 10
88.48503822657667
 20
-149.9701741161533
 10
88.69949542053346
 20
-149.6401339686663
 10
88.90155027074337
 20
-149.3273192986057
 10
88.95029837185964
 20
-149.0713487040516
 10
88.97372502115935
 20
-148.9442246806459
 10
88.97372502115935
 20
-148.9442246806459
 10
88.42182072442232
 20
-148.9442246806459
 10
88.42182072442232
 20
-148.9442246806459
 10
88.33345402522565
 20
-149.105110639807
 10
88.23079017976523
 20
-149.2721977708416
 10
88.06663137989307
 20
-149.4434190164586
 10
88.06663137989307
 20
-149.4434190164586
 10
87.91866452880158
 20
-149.3207736171837
 10
87.91866452880158
 20
-149.3207736171837
 10
87.96930743243477
 20
-149.2742648281328
 10
88.0953979271949
 20
-149.1622992248622
 10
88.23613007776735
 20
-148.9125298021816
 10
88.30107012766431
 20
-148.7941907722633
 10
88.38943682686098
 20
-148.6248643291632
 10
88.41096867364379
 20
-148.5022189298883
 10
88.41096867364379
 20
-148.5022189298883
 10
88.60768362585154
 20
-148.6036769919289
 10
88.60768362585154
 20
-148.6036769919289
 10
88.62025822437272
 20
-148.6100504185766
 10
88.63283282289387
 20
-148.6184909025155
 10
88.63283282289387
 20
-148.6333048131021
 10
88.63283282289387
 20
-148.6544921503364
 10
88.61112872133681
 20
-148.6672390036318
 10
88.60406627559205
 20
-148.6693060609229
 10
88.58063962629234
 20
-148.6777465448618
 10
88.57340492577332
 20
-148.6756794875707
 10
88.55170082421624
 20
-148.7010009393872
 10
88.52999672265918
 20
-148.7264946459781
 10
88.53189152517606
 20
-148.734935129917
 10
88.50484752561685
 20
-148.7878173456155
 10
88.50484752561685
 20
-148.7878173456155
 10
88.78975692224701
 20
-148.7878173456155
 10
88.78975692224701
 20
-148.7878173456155
 10
89.00800372123759
 20
-148.7878173456155
 10
89.0350477207968
 20
-148.7750704923201
 10
89.08362356713881
 20
-148.745442671147
 10
89.08362356713881
 20
-148.745442671147
 10
89.21712101719226
 20
-148.9104627448904
 10
89.21712101719226
 20
-148.9104627448904
 10
89.18818221511616
 20
-148.946291737937
 10
89.18645966737352
 20
-148.9483587952282
 10
89.16475556581644
 20
-148.9759195591102
 97
        0
 97
        1
330
E1
 75
     2
 76
     1
 98
        1
 10
0.0
 20
0.0
450
        0
451
        0
460
0.0
461
0.0
452
        0
462
0.0
453
        0
470

  0
SPLINE
  5
E3
330
DD
100
AcDbEntity
  8
レイヤー 1
100
AcDbSpline
210
0.0
220
0.0
230
1.0
 70
    11
 71
     3
 72
    17
 73
    13
 74
     0
 42
0.0000000001
 43
0.0000000001
 40
0.0
 40
0.0
 40
0.0
 40
0.0
 40
1.0
 40
1.0
 40
1.0
 40
2.0
 40
2.0
 40
2.0
 40
3.0
 40
3.0
 40
3.0
 40
4.0
 40
4.0
 40
4.0
 40
4.0
 10
90.56277531373083
 20
-148.8849690382996
 30
0.0
 10
90.56277531373083
 20
-148.8849690382996
 30
0.0
 10
89.67549097150474
 20
-148.8849690382996
 30
0.0
 10
89.67549097150474
 20
-148.8849690382996
 30
0.0
 10
89.67549097150474
 20
-148.8849690382996
 30
0.0
 10
89.67549097150474
 20
-149.7734591639455
 30
0.0
 10
89.67549097150474
 20
-149.7734591639455
 30
0.0
 10
89.67549097150474
 20
-149.7734591639455
 30
0.0
 10
90.56277531373083
 20
-149.7734591639455
 30
0.0
 10
90.56277531373083
 20
-149.7734591639455
 30
0.0
 10
90.56277531373083
 20
-149.7734591639455
 30
0.0
 10
90.56277531373083
 20
-148.8849690382996
 30
0.0
 10
90.56277531373083
 20
-148.8849690382996
 30
0.0
  0
SPLINE
  5
E4
330
DD
100
AcDbEntity
  8
レイヤー 1
100
AcDbSpline
210
0.0
220
0.0
230
1.0
 70
     9
 71
     3
 72
    53
 73
    49
 74
     0
 42
0.0000000001
 43
0.0000000001
 40
0.0
 40
0.0
 40
0.0
 40
0.0
 40
1.0
 40
1.0
 40
1.0
 40
2.0
 40
2.0
 40
2.0
 40
3.0
 40
3.0
 40
3.0
 40
4.0
 40
4.0
 40
4.0
 40
5.0
 40
5.0
 40
5.0
 40
6.0
 40
6.0
 40
6.0
 40
7.0
 40
7.0
 40
7.0
 40
8.0
 40
8.0
 40
8.0
 40
9.0
 40
9.0
 40
9.0
 40
10.0
 40
10.0
 40
10.0
 40
11.0
 40
11.0
 40
11.0
 40
12.0
 40
12.0
 40
12.0
 40
13.0
 40
13.0
 40
13.0
 40
14.0
 40
14.0
 40
14.0
 40
15.0
 40
15.0
 40
15.0
 40
16.0
 40
16.0
 40
16.0
 40
16.0
 10
90.54296601469065
 20
-150.0886854008459
 30
0.0
 10
90.55020071520967
 20
-150.0442436690861
 30
0.0
 10
90.55020071520967
 20
-150.0359754399215
 30
0.0
 10
90.55554061321181
 20
-149.9619058869887
 30
0.0
 10
90.55554061321181
 20
-149.9619058869887
 30
0.0
 10
89.67738577402164
 20
-149.9619058869887
 30
0.0
 10
89.67738577402164
 20
-149.9619058869887
 30
0.0
 10
89.67738577402164
 20
-149.993600765453
 30
0.0
 10
89.67738577402164
 20
-150.048722293217
 30
0.0
 10
89.68100312428115
 20
-150.0845512862636
 30
0.0
 10
89.68100312428115
 20
-150.0845512862636
 30
0.0
 10
89.47533092381172
 20
-150.0845512862636
 30
0.0
 10
89.47533092381172
 20
-150.0845512862636
 30
0.0
 10
89.48084307658813
 20
-150.0294297584996
 30
0.0
 10
89.48980032484978
 20
-149.938479237689
 30
0.0
 10
89.48980032484978
 20
-149.8096326665406
 30
0.0
 10
89.49169512736666
 20
-149.6043049756197
 30
0.0
 10
89.49169512736666
 20
-149.58087832632
 30
0.0
 10
89.49169512736666
 20
-149.5577961865689
 30
0.0
 10
89.49169512736666
 20
-149.5577961865689
 30
0.0
 10
89.49169512736666
 20
-149.1178574931025
 30
0.0
 10
89.49169512736666
 20
-149.1178574931025
 30
0.0
 10
89.49169512736666
 20
-149.0520561693342
 30
0.0
 10
89.48618297459026
 20
-148.7285617032692
 30
0.0
 10
89.48256562433074
 20
-148.6736124302795
 30
0.0
 10
89.58901907482497
 20
-148.6861870288007
 30
0.0
 10
89.81450057433457
 20
-148.6904933981572
 30
0.0
 10
89.92629392283093
 20
-148.6904933981572
 30
0.0
 10
89.92629392283093
 20
-148.6904933981572
 30
0.0
 10
90.31386716492153
 20
-148.6904933981572
 30
0.0
 10
90.31386716492153
 20
-148.6904933981572
 30
0.0
 10
90.44202471697282
 20
-148.6904933981572
 30
0.0
 10
90.63305526162993
 20
-148.6884263408661
 30
0.0
 10
90.75759546342172
 20
-148.6799858569272
 30
0.0
 10
90.75036076290269
 20
-148.7898844029067
 30
0.0
 10
90.74674341264318
 20
-149.0393093160388
 30
0.0
 10
90.74674341264318
 20
-149.1578206007314
 30
0.0
 10
90.74674341264318
 20
-149.1578206007314
 30
0.0
 10
90.74674341264318
 20
-149.5767442117378
 30
0.0
 10
90.74674341264318
 20
-149.5767442117378
 30
0.0
 10
90.74674341264318
 20
-149.6191188862063
 30
0.0
 10
90.75208331064532
 20
-149.8010199278275
 30
0.0
 10
90.75208331064532
 20
-149.8392604877138
 30
0.0
 10
90.7539781131622
 20
-149.9894666508707
 30
0.0
 10
90.76121281368122
 20
-150.0401095545038
 30
0.0
 10
90.76844751420024
 20
-150.0886854008459
 30
0.0
 10
90.76844751420024
 20
-150.0886854008459
 30
0.0
 10
90.54296601469065
 20
-150.0886854008459
 30
0.0
 10
90.54296601469065
 20
-150.0886854008459
 30
0.0
  0
HATCH
  5
E5
330
DD
100
AcDbEntity
  8
レイヤー 1
 62
   250
420
  2299925
440
 33554687
100
AcDbHatch
 10
0.0
 20
0.0
 30
0.0
210
0.0
220
0.0
230
1.0
  2
SOLID
 70
     1
 71
     1
 91
        2
 92
        1
 93
        1
 72
     4
 94
        3
 73
     0
 74
     0
 95
       17
 96
       13
 40
0.0
 40
0.0
 40
0.0
 40
0.0
 40
1.0
 40
1.0
 40
1.0
 40
2.0
 40
2.0
 40
2.0
 40
3.0
 40
3.0
 40
3.0
 40
4.0
 40
4.0
 40
4.0
 40
4.0
 10
90.56277531373083
 20
-148.8849690382996
 10
90.56277531373083
 20
-148.8849690382996
 10
89.67549097150474
 20
-148.8849690382996
 10
89.67549097150474
 20
-148.8849690382996
 10
89.67549097150474
 20
-148.8849690382996
 10
89.67549097150474
 20
-149.7734591639455
 10
89.67549097150474
 20
-149.7734591639455
 10
89.67549097150474
 20
-149.7734591639455
 10
90.56277531373083
 20
-149.7734591639455
 10
90.56277531373083
 20
-149.7734591639455
 10
90.56277531373083
 20
-149.7734591639455
 10
90.56277531373083
 20
-148.8849690382996
 10
90.56277531373083
 20
-148.8849690382996
 97
        0
 97
        1
330
E3
 92
        1
 93
        1
 72
     4
 94
        3
 73
     0
 74
     0
 95
       53
 96
       49
 40
0.0
 40
0.0
 40
0.0
 40
0.0
 40
1.0
 40
1.0
 40
1.0
 40
2.0
 40
2.0
 40
2.0
 40
3.0
 40
3.0
 40
3.0
 40
4.0
 40
4.0
 40
4.0
 40
5.0
 40
5.0
 40
5.0
 40
6.0
 40
6.0
 40
6.0
 40
7.0
 40
7.0
 40
7.0
 40
8.0
 40
8.0
 40
8.0
 40
9.0
 40
9.0
 40
9.0
 40
10.0
 40
10.0
 40
10.0
 40
11.0
 40
11.0
 40
11.0
 40
12.0
 40
12.0
 40
12.0
 40
13.0
 40
13.0
 40
13.0
 40
14.0
 40
14.0
 40
14.0
 40
15.0
 40
15.0
 40
15.0
 40
16.0
 40
16.0
 40
16.0
 40
16.0
 10
90.54296601469065
 20
-150.0886854008459
 10
90.55020071520967
 20
-150.0442436690861
 10
90.55020071520967
 20
-150.0359754399215
 10
90.55554061321181
 20
-149.9619058869887
 10
90.55554061321181
 20
-149.9619058869887
 10
89.67738577402164
 20
-149.9619058869887
 10
89.67738577402164
 20
-149.9619058869887
 10
89.67738577402164
 20
-149.993600765453
 10
89.67738577402164
 20
-150.048722293217
 10
89.68100312428115
 20
-150.0845512862636
 10
89.68100312428115
 20
-150.0845512862636
 10
89.47533092381172
 20
-150.0845512862636
 10
89.47533092381172
 20
-150.0845512862636
 10
89.48084307658813
 20
-150.0294297584996
 10
89.48980032484978
 20
-149.938479237689
 10
89.48980032484978
 20
-149.8096326665406
 10
89.49169512736666
 20
-149.6043049756197
 10
89.49169512736666
 20
-149.58087832632
 10
89.49169512736666
 20
-149.5577961865689
 10
89.49169512736666
 20
-149.5577961865689
 10
89.49169512736666
 20
-149.1178574931025
 10
89.49169512736666
 20
-149.1178574931025
 10
89.49169512736666
 20
-149.0520561693342
 10
89.48618297459026
 20
-148.7285617032692
 10
89.48256562433074
 20
-148.6736124302795
 10
89.58901907482497
 20
-148.6861870288007
 10
89.81450057433457
 20
-148.6904933981572
 10
89.92629392283093
 20
-148.6904933981572
 10
89.92629392283093
 20
-148.6904933981572
 10
90.31386716492153
 20
-148.6904933981572
 10
90.31386716492153
 20
-148.6904933981572
 10
90.44202471697282
 20
-148.6904933981572
 10
90.63305526162993
 20
-148.6884263408661
 10
90.75759546342172
 20
-148.6799858569272
 10
90.75036076290269
 20
-148.7898844029067
 10
90.74674341264318
 20
-149.0393093160388
 10
90.74674341264318
 20
-149.1578206007314
 10
90.74674341264318
 20
-149.1578206007314
 10
90.74674341264318
 20
-149.5767442117378
 10
90.74674341264318
 20
-149.5767442117378
 10
90.74674341264318
 20
-149.6191188862063
 10
90.75208331064532
 20
-149.8010199278275
 10
90.75208331064532
 20
-149.8392604877138
 10
90.7539781131622
 20
-149.9894666508707
 10
90.76121281368122
 20
-150.0401095545038
 10
90.76844751420024
 20
-150.0886854008459
 10
90.76844751420024
 20
-150.0886854008459
 10
90.54296601469065
 20
-150.0886854008459
 10
90.54296601469065
 20
-150.0886854008459
 97
        0
 97
        1
330
E4
 75
     2
 76
     1
 98
        1
 10
0.0
 20
0.0
450
        0
451
        0
460
0.0
461
0.0
452
        0
462
0.0
453
        0
470

  0
SPLINE
  5
E6
330
DD
100
AcDbEntity
  8
レイヤー 1
100
AcDbSpline
210
0.0
220
0.0
230
1.0
 70
     9
 71
     3
 72
    56
 73
    52
 74
     0
 42
0.0000000001
 43
0.0000000001
 40
0.0
 40
0.0
 40
0.0
 40
0.0
 40
1.0
 40
1.0
 40
1.0
 40
2.0
 40
2.0
 40
2.0
 40
3.0
 40
3.0
 40
3.0
 40
4.0
 40
4.0
 40
4.0
 40
5.0
 40
5.0
 40
5.0
 40
6.0
 40
6.0
 40
6.0
 40
7.0
 40
7.0
 40
7.0
 40
8.0
 40
8.0
 40
8.0
 40
9.0
 40
9.0
 40
9.0
 40
10.0
 40
10.0
 40
10.0
 40
11.0
 40
11.0
 40
11.0
 40
12.0
 40
12.0
 40
12.0
 40
13.0
 40
13.0
 40
13.0
 40
14.0
 40
14.0
 40
14.0
 40
15.0
 40
15.0
 40
15.0
 40
16.0
 40
16.0
 40
16.0
 40
17.0
 40
17.0
 40
17.0
 40
17.0
 10
92.2548339613113
 20
-150.1544867246142
 30
0.0
 10
92.09084741621341
 20
-149.8454616595872
 30
0.0
 10
91.87070581470594
 20
-149.6401339686663
 30
0.0
 10
91.7931911662878
 20
-149.5746771544466
 30
0.0
 10
91.54256046973589
 20
-149.9133300406467
 30
0.0
 10
91.29554712344349
 20
-150.0656032610947
 30
0.0
 10
91.12604842556917
 20
-150.1586208391964
 30
0.0
 10
91.12604842556917
 20
-150.1586208391964
 30
0.0
 10
90.99082842777312
 20
-149.9701741161533
 30
0.0
 10
90.99082842777312
 20
-149.9701741161533
 30
0.0
 10
91.07919512696978
 20
-149.9343451231067
 30
0.0
 10
91.26126842336523
 20
-149.8582085128826
 30
0.0
 10
91.45970592331563
 20
-149.6721733566792
 30
0.0
 10
91.68501516805097
 20
-149.4602999843363
 30
0.0
 10
91.84366181514674
 20
-149.1726345113179
 30
0.0
 10
91.94839271789833
 20
-148.8598198412572
 30
0.0
 10
91.94839271789833
 20
-148.8598198412572
 30
0.0
 10
91.62730981867303
 20
-148.8598198412572
 30
0.0
 10
91.62730981867303
 20
-148.8598198412572
 30
0.0
 10
91.49742971887912
 20
-148.8598198412572
 30
0.0
 10
91.31897377274318
 20
-148.8639539558396
 30
0.0
 10
91.19098847546615
 20
-148.8829019810084
 30
0.0
 10
91.19098847546615
 20
-148.8829019810084
 30
0.0
 10
91.19098847546615
 20
-148.6715453729883
 30
0.0
 10
91.19098847546615
 20
-148.6715453729883
 30
0.0
 10
91.24869382484408
 20
-148.6777465448618
 30
0.0
 10
91.47038571931991
 20
-148.6884263408661
 30
0.0
 10
91.54445527225277
 20
-148.6884263408661
 30
0.0
 10
91.54445527225277
 20
-148.6884263408661
 30
0.0
 10
91.80938311506848
 20
-148.6884263408661
 30
0.0
 10
91.80938311506848
 20
-148.6884263408661
 30
0.0
 10
91.98611651346181
 20
-148.6884263408661
 30
0.0
 10
92.00609806727625
 20
-148.6820529142184
 30
0.0
 10
92.02590736631645
 20
-148.6777465448618
 30
0.0
 10
92.0638034166542
 20
-148.6715453729883
 30
0.0
 10
92.09618731421555
 20
-148.6460516663975
 30
0.0
 10
92.1142740655131
 20
-148.6291706985198
 30
0.0
 10
92.1142740655131
 20
-148.6291706985198
 30
0.0
 10
92.24759926079228
 20
-148.8026312562021
 30
0.0
 10
92.24759926079228
 20
-148.8026312562021
 30
0.0
 10
92.21332056071403
 20
-148.8301920200841
 30
0.0
 10
92.20264076470975
 20
-148.8406995613141
 30
0.0
 10
92.1611273641125
 20
-148.876700809135
 30
0.0
 10
92.05105656335877
 20
-149.1240586649759
 30
0.0
 10
91.98249916320229
 20
-149.2742648281328
 30
0.0
 10
91.89413246400564
 20
-149.4203368767074
 30
0.0
 10
92.1611273641125
 20
-149.6380669113752
 30
0.0
 10
92.35577525902911
 20
-149.9236653271024
 30
0.0
 10
92.40090600988589
 20
-150.0018689946176
 30
0.0
 10
92.40090600988589
 20
-150.0018689946176
 30
0.0
 10
92.2548339613113
 20
-150.1544867246142
 30
0.0
 10
92.2548339613113
 20
-150.1544867246142
 30
0.0
  0
HATCH
  5
E7
330
DD
100
AcDbEntity
  8
レイヤー 1
 62
   250
420
  2299925
440
 33554687
100
AcDbHatch
 10
0.0
 20
0.0
 30
0.0
210
0.0
220
0.0
230
1.0
  2
SOLID
 70
     1
 71
     1
 91
        1
 92
        1
 93
        1
 72
     4
 94
        3
 73
     0
 74
     0
 95
       56
 96
       52
 40
0.0
 40
0.0
 40
0.0
 40
0.0
 40
1.0
 40
1.0
 40
1.0
 40
2.0
 40
2.0
 40
2.0
 40
3.0
 40
3.0
 40
3.0
 40
4.0
 40
4.0
 40
4.0
 40
5.0
 40
5.0
 40
5.0
 40
6.0
 40
6.0
 40
6.0
 40
7.0
 40
7.0
 40
7.0
 40
8.0
 40
8.0
 40
8.0
 40
9.0
 40
9.0
 40
9.0
 40
10.0
 40
10.0
 40
10.0
 40
11.0
 40
11.0
 40
11.0
 40
12.0
 40
12.0
 40
12.0
 40
13.0
 40
13.0
 40
13.0
 40
14.0
 40
14.0
 40
14.0
 40
15.0
 40
15.0
 40
15.0
 40
16.0
 40
16.0
 40
16.0
 40
17.0
 40
17.0
 40
17.0
 40
17.0
 10
92.2548339613113
 20
-150.1544867246142
 10
92.09084741621341
 20
-149.8454616595872
 10
91.87070581470594
 20
-149.6401339686663
 10
91.7931911662878
 20
-149.5746771544466
 10
91.54256046973589
 20
-149.9133300406467
 10
91.29554712344349
 20
-150.0656032610947
 10
91.12604842556917
 20
-150.1586208391964
 10
91.12604842556917
 20
-150.1586208391964
 10
90.99082842777312
 20
-149.9701741161533
 10
90.99082842777312
 20
-149.9701741161533
 10
91.07919512696978
 20
-149.9343451231067
 10
91.26126842336523
 20
-149.8582085128826
 10
91.45970592331563
 20
-149.6721733566792
 10
91.68501516805097
 20
-149.4602999843363
 10
91.84366181514674
 20
-149.1726345113179
 10
91.94839271789833
 20
-148.8598198412572
 10
91.94839271789833
 20
-148.8598198412572
 10
91.62730981867303
 20
-148.8598198412572
 10
91.62730981867303
 20
-148.8598198412572
 10
91.49742971887912
 20
-148.8598198412572
 10
91.31897377274318
 20
-148.8639539558396
 10
91.19098847546615
 20
-148.8829019810084
 10
91.19098847546615
 20
-148.8829019810084
 10
91.19098847546615
 20
-148.6715453729883
 10
91.19098847546615
 20
-148.6715453729883
 10
91.24869382484408
 20
-148.6777465448618
 10
91.47038571931991
 20
-148.6884263408661
 10
91.54445527225277
 20
-148.6884263408661
 10
91.54445527225277
 20
-148.6884263408661
 10
91.80938311506848
 20
-148.6884263408661
 10
91.80938311506848
 20
-148.6884263408661
 10
91.98611651346181
 20
-148.6884263408661
 10
92.00609806727625
 20
-148.6820529142184
 10
92.02590736631645
 20
-148.6777465448618
 10
92.0638034166542
 20
-148.6715453729883
 10
92.09618731421555
 20
-148.6460516663975
 10
92.1142740655131
 20
-148.6291706985198
 10
92.1142740655131
 20
-148.6291706985198
 10
92.24759926079228
 20
-148.8026312562021
 10
92.24759926079228
 20
-148.8026312562021
 10
92.21332056071403
 20
-148.8301920200841
 10
92.20264076470975
 20
-148.8406995613141
 10
92.1611273641125
 20
-148.876700809135
 10
92.05105656335877
 20
-149.1240586649759
 10
91.98249916320229
 20
-149.2742648281328
 10
91.89413246400564
 20
-149.4203368767074
 10
92.1611273641125
 20
-149.6380669113752
 10
92.35577525902911
 20
-149.9236653271024
 10
92.40090600988589
 20
-150.0018689946176
 10
92.40090600988589
 20
-150.0018689946176
 10
92.2548339613113
 20
-150.1544867246142
 10
92.2548339613113
 20
-150.1544867246142
 97
        0
 97
        1
330
E6
 75
     2
 76
     1
 98
        1
 10
0.0
 20
0.0
450
        0
451
        0
460
0.0
461
0.0
452
        0
462
0.0
453
        0
470

  0
SPLINE
  5
E8
330
DD
100
AcDbEntity
  8
レイヤー 1
100
AcDbSpline
210
0.0
220
0.0
230
1.0
 70
    11
 71
     3
 72
    17
 73
    13
 74
     0
 42
0.0000000001
 43
0.0000000001
 40
0.0
 40
0.0
 40
0.0
 40
0.0
 40
1.0
 40
1.0
 40
1.0
 40
2.0
 40
2.0
 40
2.0
 40
3.0
 40
3.0
 40
3.0
 40
4.0
 40
4.0
 40
4.0
 40
4.0
 10
93.85680336195248
 20
-149.1771131354488
 30
0.0
 10
93.85680336195248
 20
-149.1771131354488
 30
0.0
 10
93.46544051482808
 20
-149.1771131354488
 30
0.0
 10
93.46544051482808
 20
-149.1771131354488
 30
0.0
 10
93.46544051482808
 20
-149.1771131354488
 30
0.0
 10
93.46544051482808
 20
-149.4857936909272
 30
0.0
 10
93.46544051482808
 20
-149.4857936909272
 30
0.0
 10
93.46544051482808
 20
-149.4857936909272
 30
0.0
 10
93.85680336195248
 20
-149.4857936909272
 30
0.0
 10
93.85680336195248
 20
-149.4857936909272
 30
0.0
 10
93.85680336195248
 20
-149.4857936909272
 30
0.0
 10
93.85680336195248
 20
-149.1771131354488
 30
0.0
 10
93.85680336195248
 20
-149.1771131354488
 30
0.0
  0
SPLINE
  5
E9
330
DD
100
AcDbEntity
  8
レイヤー 1
100
AcDbSpline
210
0.0
220
0.0
230
1.0
 70
    11
 71
     3
 72
    17
 73
    13
 74
     0
 42
0.0000000001
 43
0.0000000001
 40
0.0
 40
0.0
 40
0.0
 40
0.0
 40
1.0
 40
1.0
 40
1.0
 40
2.0
 40
2.0
 40
2.0
 40
3.0
 40
3.0
 40
3.0
 40
4.0
 40
4.0
 40
4.0
 40
4.0
 10
93.85680336195248
 20
-148.7053073087438
 30
0.0
 10
93.85680336195248
 20
-148.7053073087438
 30
0.0
 10
93.46544051482808
 20
-148.7053073087438
 30
0.0
 10
93.46544051482808
 20
-148.7053073087438
 30
0.0
 10
93.46544051482808
 20
-148.7053073087438
 30
0.0
 10
93.46544051482808
 20
-149.0096814948656
 30
0.0
 10
93.46544051482808
 20
-149.0096814948656
 30
0.0
 10
93.46544051482808
 20
-149.0096814948656
 30
0.0
 10
93.85680336195248
 20
-149.0096814948656
 30
0.0
 10
93.85680336195248
 20
-149.0096814948656
 30
0.0
 10
93.85680336195248
 20
-149.0096814948656
 30
0.0
 10
93.85680336195248
 20
-148.7053073087438
 30
0.0
 10
93.85680336195248
 20
-148.7053073087438
 30
0.0
  0
SPLINE
  5
EA
330
DD
100
AcDbEntity
  8
レイヤー 1
100
AcDbSpline
210
0.0
220
0.0
230
1.0
 70
    11
 71
     3
 72
    17
 73
    13
 74
     0
 42
0.0000000001
 43
0.0000000001
 40
0.0
 40
0.0
 40
0.0
 40
0.0
 40
1.0
 40
1.0
 40
1.0
 40
2.0
 40
2.0
 40
2.0
 40
3.0
 40
3.0
 40
3.0
 40
4.0
 40
4.0
 40
4.0
 40
4.0
 10
93.30317651747282
 20
-149.1771131354488
 30
0.0
 10
93.30317651747282
 20
-149.1771131354488
 30
0.0
 10
92.929900421646
 20
-149.1771131354488
 30
0.0
 10
92.929900421646
 20
-149.1771131354488
 30
0.0
 10
92.929900421646
 20
-149.1771131354488
 30
0.0
 10
92.929900421646
 20
-149.4857936909272
 30
0.0
 10
92.929900421646
 20
-149.4857936909272
 30
0.0
 10
92.929900421646
 20
-149.4857936909272
 30
0.0
 10
93.30317651747282
 20
-149.4857936909272
 30
0.0
 10
93.30317651747282
 20
-149.4857936909272
 30
0.0
 10
93.30317651747282
 20
-149.4857936909272
 30
0.0
 10
93.30317651747282
 20
-149.1771131354488
 30
0.0
 10
93.30317651747282
 20
-149.1771131354488
 30
0.0
  0
SPLINE
  5
EB
330
DD
100
AcDbEntity
  8
レイヤー 1
100
AcDbSpline
210
0.0
220
0.0
230
1.0
 70
    11
 71
     3
 72
    17
 73
    13
 74
     0
 42
0.0000000001
 43
0.0000000001
 40
0.0
 40
0.0
 40
0.0
 40
0.0
 40
1.0
 40
1.0
 40
1.0
 40
2.0
 40
2.0
 40
2.0
 40
3.0
 40
3.0
 40
3.0
 40
4.0
 40
4.0
 40
4.0
 40
4.0
 10
93.30317651747282
 20
-148.7053073087438
 30
0.0
 10
93.30317651747282
 20
-148.7053073087438
 30
0.0
 10
92.929900421646
 20
-148.7053073087438
 30
0.0
 10
92.929900421646
 20
-148.7053073087438
 30
0.0
 10
92.929900421646
 20
-148.7053073087438
 30
0.0
 10
92.929900421646
 20
-149.0096814948656
 30
0.0
 10
92.929900421646
 20
-149.0096814948656
 30
0.0
 10
92.929900421646
 20
-149.0096814948656
 30
0.0
 10
93.30317651747282
 20
-149.0096814948656
 30
0.0
 10
93.30317651747282
 20
-149.0096814948656
 30
0.0
 10
93.30317651747282
 20
-149.0096814948656
 30
0.0
 10
93.30317651747282
 20
-148.7053073087438
 30
0.0
 10
93.30317651747282
 20
-148.7053073087438
 30
0.0
  0
SPLINE
  5
EC
330
DD
100
AcDbEntity
  8
レイヤー 1
100
AcDbSpline
210
0.0
220
0.0
230
1.0
 70
     9
 71
     3
 72
    77
 73
    73
 74
     0
 42
0.0000000001
 43
0.0000000001
 40
0.0
 40
0.0
 40
0.0
 40
0.0
 40
1.0
 40
1.0
 40
1.0
 40
2.0
 40
2.0
 40
2.0
 40
3.0
 40
3.0
 40
3.0
 40
4.0
 40
4.0
 40
4.0
 40
5.0
 40
5.0
 40
5.0
 40
6.0
 40
6.0
 40
6.0
 40
7.0
 40
7.0
 40
7.0
 40
8.0
 40
8.0
 40
8.0
 40
9.0
 40
9.0
 40
9.0
 40
10.0
 40
10.0
 40
10.0
 40
11.0
 40
11.0
 40
11.0
 40
12.0
 40
12.0
 40
12.0
 40
13.0
 40
13.0
 40
13.0
 40
14.0
 40
14.0
 40
14.0
 40
15.0
 40
15.0
 40
15.0
 40
16.0
 40
16.0
 40
16.0
 40
17.0
 40
17.0
 40
17.0
 40
18.0
 40
18.0
 40
18.0
 40
19.0
 40
19.0
 40
19.0
 40
20.0
 40
20.0
 40
20.0
 40
21.0
 40
21.0
 40
21.0
 40
22.0
 40
22.0
 40
22.0
 40
23.0
 40
23.0
 40
23.0
 40
24.0
 40
24.0
 40
24.0
 40
24.0
 10
93.97221406070833
 20
-150.2919460344756
 30
0.0
 10
93.93259546262797
 20
-150.3170952315179
 30
0.0
 10
93.82614201213375
 20
-150.3298420848134
 30
0.0
 10
93.75947941449416
 20
-150.3298420848134
 30
0.0
 10
93.74862736371563
 20
-150.3298420848134
 30
0.0
 10
93.72692326215855
 20
-150.3298420848134
 30
0.0
 10
93.69815671485671
 20
-150.3257079702311
 30
0.0
 10
93.69815671485671
 20
-150.3257079702311
 30
0.0
 10
93.61512991366218
 20
-150.0993651968501
 30
0.0
 10
93.61512991366218
 20
-150.0993651968501
 30
0.0
 10
93.64045136547877
 20
-150.1055663687236
 30
0.0
 10
93.68902721182079
 20
-150.1141791074367
 30
0.0
 10
93.78824596179599
 20
-150.1141791074367
 30
0.0
 10
93.85508081420985
 20
-150.1141791074367
 30
0.0
 10
93.85680336195248
 20
-150.0718044329682
 30
0.0
 10
93.85680336195248
 20
-150.014615847913
 30
0.0
 10
93.85680336195248
 20
-150.014615847913
 30
0.0
 10
93.85680336195248
 20
-149.6656276752572
 30
0.0
 10
93.85680336195248
 20
-149.6656276752572
 30
0.0
 10
93.85680336195248
 20
-149.6656276752572
 30
0.0
 10
93.46544051482808
 20
-149.6656276752572
 30
0.0
 10
93.46544051482808
 20
-149.6656276752572
 30
0.0
 10
93.46733531734498
 20
-149.8030869851187
 30
0.0
 10
93.46905786508761
 20
-150.0018689946176
 30
0.0
 10
93.474570017864
 20
-150.1351941898967
 30
0.0
 10
93.47629256560663
 20
-150.1627549537787
 30
0.0
 10
93.47629256560663
 20
-150.2071966855385
 30
0.0
 10
93.48714461638516
 20
-150.2685193851759
 30
0.0
 10
93.48714461638516
 20
-150.2685193851759
 30
0.0
 10
93.28147241591574
 20
-150.2685193851759
 30
0.0
 10
93.28147241591574
 20
-150.2685193851759
 30
0.0
 10
93.30317651747282
 20
-150.1438069286099
 30
0.0
 10
93.30317651747282
 20
-149.8030869851187
 30
0.0
 10
93.30317651747282
 20
-149.6656276752572
 30
0.0
 10
93.30317651747282
 20
-149.6656276752572
 30
0.0
 10
92.92628307138649
 20
-149.6656276752572
 30
0.0
 10
92.92628307138649
 20
-149.6656276752572
 30
0.0
 10
92.9064737723463
 20
-149.8730224234692
 30
0.0
 10
92.850490970711
 20
-150.1417398713187
 30
0.0
 10
92.6828870753536
 20
-150.3257079702311
 30
0.0
 10
92.6828870753536
 20
-150.3257079702311
 30
0.0
 10
92.52234562574093
 20
-150.2030625709562
 30
0.0
 10
92.52234562574093
 20
-150.2030625709562
 30
0.0
 10
92.73869762221464
 20
-149.9829209694487
 30
0.0
 10
92.76574162177384
 20
-149.6508137646706
 30
0.0
 10
92.76574162177384
 20
-149.3187065598925
 30
0.0
 10
92.76574162177384
 20
-149.3187065598925
 30
0.0
 10
92.76574162177384
 20
-148.8829019810084
 30
0.0
 10
92.76574162177384
 20
-148.8829019810084
 30
0.0
 10
92.76574162177384
 20
-148.8470729879618
 30
0.0
 10
92.76401907403123
 20
-148.6143567879332
 30
0.0
 10
92.75678437351221
 20
-148.5127264711183
 30
0.0
 10
92.87581242252757
 20
-148.5234062671226
 30
0.0
 10
93.08131236822273
 20
-148.5234062671226
 30
0.0
 10
93.20395776749762
 20
-148.5234062671226
 30
0.0
 10
93.20395776749762
 20
-148.5234062671226
 30
0.0
 10
93.59532061462202
 20
-148.5234062671226
 30
0.0
 10
93.59532061462202
 20
-148.5234062671226
 30
0.0
 10
93.60789521314316
 20
-148.5234062671226
 30
0.0
 10
93.90555146306876
 20
-148.5234062671226
 30
0.0
 10
94.04077146086482
 20
-148.5127264711183
 30
0.0
 10
94.03887665834792
 20
-148.5656086868169
 30
0.0
 10
94.03353676034578
 20
-148.7264946459781
 30
0.0
 10
94.03353676034578
 20
-148.7773098043855
 30
0.0
 10
94.03353676034578
 20
-148.7773098043855
 30
0.0
 10
94.03353676034578
 20
-149.3841633741123
 30
0.0
 10
94.03353676034578
 20
-149.3841633741123
 30
0.0
 10
94.03353676034578
 20
-149.4034559088297
 30
0.0
 10
94.04249400860743
 20
-149.9746527402841
 30
0.0
 10
94.04249400860743
 20
-150.0866183435547
 30
0.0
 10
94.04249400860743
 20
-150.1438069286099
 30
0.0
 10
94.04249400860743
 20
-150.2454372454247
 30
0.0
 10
93.97221406070833
 20
-150.2919460344756
 30
0.0
  0
HATCH
  5
ED
330
DD
100
AcDbEntity
  8
レイヤー 1
 62
   250
420
  2299925
440
 33554687
100
AcDbHatch
 10
0.0
 20
0.0
 30
0.0
210
0.0
220
0.0
230
1.0
  2
SOLID
 70
     1
 71
     1
 91
        5
 92
        1
 93
        1
 72
     4
 94
        3
 73
     0
 74
     0
 95
       17
 96
       13
 40
0.0
 40
0.0
 40
0.0
 40
0.0
 40
1.0
 40
1.0
 40
1.0
 40
2.0
 40
2.0
 40
2.0
 40
3.0
 40
3.0
 40
3.0
 40
4.0
 40
4.0
 40
4.0
 40
4.0
 10
93.85680336195248
 20
-149.1771131354488
 10
93.85680336195248
 20
-149.1771131354488
 10
93.46544051482808
 20
-149.1771131354488
 10
93.46544051482808
 20
-149.1771131354488
 10
93.46544051482808
 20
-149.1771131354488
 10
93.46544051482808
 20
-149.4857936909272
 10
93.46544051482808
 20
-149.4857936909272
 10
93.46544051482808
 20
-149.4857936909272
 10
93.85680336195248
 20
-149.4857936909272
 10
93.85680336195248
 20
-149.4857936909272
 10
93.85680336195248
 20
-149.4857936909272
 10
93.85680336195248
 20
-149.1771131354488
 10
93.85680336195248
 20
-149.1771131354488
 97
        0
 97
        1
330
E8
 92
        1
 93
        1
 72
     4
 94
        3
 73
     0
 74
     0
 95
       17
 96
       13
 40
0.0
 40
0.0
 40
0.0
 40
0.0
 40
1.0
 40
1.0
 40
1.0
 40
2.0
 40
2.0
 40
2.0
 40
3.0
 40
3.0
 40
3.0
 40
4.0
 40
4.0
 40
4.0
 40
4.0
 10
93.85680336195248
 20
-148.7053073087438
 10
93.85680336195248
 20
-148.7053073087438
 10
93.46544051482808
 20
-148.7053073087438
 10
93.46544051482808
 20
-148.7053073087438
 10
93.46544051482808
 20
-148.7053073087438
 10
93.46544051482808
 20
-149.0096814948656
 10
93.46544051482808
 20
-149.0096814948656
 10
93.46544051482808
 20
-149.0096814948656
 10
93.85680336195248
 20
-149.0096814948656
 10
93.85680336195248
 20
-149.0096814948656
 10
93.85680336195248
 20
-149.0096814948656
 10
93.85680336195248
 20
-148.7053073087438
 10
93.85680336195248
 20
-148.7053073087438
 97
        0
 97
        1
330
E9
 92
        1
 93
        1
 72
     4
 94
        3
 73
     0
 74
     0
 95
       17
 96
       13
 40
0.0
 40
0.0
 40
0.0
 40
0.0
 40
1.0
 40
1.0
 40
1.0
 40
2.0
 40
2.0
 40
2.0
 40
3.0
 40
3.0
 40
3.0
 40
4.0
 40
4.0
 40
4.0
 40
4.0
 10
93.30317651747282
 20
-149.1771131354488
 10
93.30317651747282
 20
-149.1771131354488
 10
92.929900421646
 20
-149.1771131354488
 10
92.929900421646
 20
-149.1771131354488
 10
92.929900421646
 20
-149.1771131354488
 10
92.929900421646
 20
-149.4857936909272
 10
92.929900421646
 20
-149.4857936909272
 10
92.929900421646
 20
-149.4857936909272
 10
93.30317651747282
 20
-149.4857936909272
 10
93.30317651747282
 20
-149.4857936909272
 10
93.30317651747282
 20
-149.4857936909272
 10
93.30317651747282
 20
-149.1771131354488
 10
93.30317651747282
 20
-149.1771131354488
 97
        0
 97
        1
330
EA
 92
        1
 93
        1
 72
     4
 94
        3
 73
     0
 74
     0
 95
       17
 96
       13
 40
0.0
 40
0.0
 40
0.0
 40
0.0
 40
1.0
 40
1.0
 40
1.0
 40
2.0
 40
2.0
 40
2.0
 40
3.0
 40
3.0
 40
3.0
 40
4.0
 40
4.0
 40
4.0
 40
4.0
 10
93.30317651747282
 20
-148.7053073087438
 10
93.30317651747282
 20
-148.7053073087438
 10
92.929900421646
 20
-148.7053073087438
 10
92.929900421646
 20
-148.7053073087438
 10
92.929900421646
 20
-148.7053073087438
 10
92.929900421646
 20
-149.0096814948656
 10
92.929900421646
 20
-149.0096814948656
 10
92.929900421646
 20
-149.0096814948656
 10
93.30317651747282
 20
-149.0096814948656
 10
93.30317651747282
 20
-149.0096814948656
 10
93.30317651747282
 20
-149.0096814948656
 10
93.30317651747282
 20
-148.7053073087438
 10
93.30317651747282
 20
-148.7053073087438
 97
        0
 97
        1
330
EB
 92
        1
 93
        1
 72
     4
 94
        3
 73
     0
 74
     0
 95
       77
 96
       73
 40
0.0
 40
0.0
 40
0.0
 40
0.0
 40
1.0
 40
1.0
 40
1.0
 40
2.0
 40
2.0
 40
2.0
 40
3.0
 40
3.0
 40
3.0
 40
4.0
 40
4.0
 40
4.0
 40
5.0
 40
5.0
 40
5.0
 40
6.0
 40
6.0
 40
6.0
 40
7.0
 40
7.0
 40
7.0
 40
8.0
 40
8.0
 40
8.0
 40
9.0
 40
9.0
 40
9.0
 40
10.0
 40
10.0
 40
10.0
 40
11.0
 40
11.0
 40
11.0
 40
12.0
 40
12.0
 40
12.0
 40
13.0
 40
13.0
 40
13.0
 40
14.0
 40
14.0
 40
14.0
 40
15.0
 40
15.0
 40
15.0
 40
16.0
 40
16.0
 40
16.0
 40
17.0
 40
17.0
 40
17.0
 40
18.0
 40
18.0
 40
18.0
 40
19.0
 40
19.0
 40
19.0
 40
20.0
 40
20.0
 40
20.0
 40
21.0
 40
21.0
 40
21.0
 40
22.0
 40
22.0
 40
22.0
 40
23.0
 40
23.0
 40
23.0
 40
24.0
 40
24.0
 40
24.0
 40
24.0
 10
93.97221406070833
 20
-150.2919460344756
 10
93.93259546262797
 20
-150.3170952315179
 10
93.82614201213375
 20
-150.3298420848134
 10
93.75947941449416
 20
-150.3298420848134
 10
93.74862736371563
 20
-150.3298420848134
 10
93.72692326215855
 20
-150.3298420848134
 10
93.69815671485671
 20
-150.3257079702311
 10
93.69815671485671
 20
-150.3257079702311
 10
93.61512991366218
 20
-150.0993651968501
 10
93.61512991366218
 20
-150.0993651968501
 10
93.64045136547877
 20
-150.1055663687236
 10
93.68902721182079
 20
-150.1141791074367
 10
93.78824596179599
 20
-150.1141791074367
 10
93.85508081420985
 20
-150.1141791074367
 10
93.85680336195248
 20
-150.0718044329682
 10
93.85680336195248
 20
-150.014615847913
 10
93.85680336195248
 20
-150.014615847913
 10
93.85680336195248
 20
-149.6656276752572
 10
93.85680336195248
 20
-149.6656276752572
 10
93.85680336195248
 20
-149.6656276752572
 10
93.46544051482808
 20
-149.6656276752572
 10
93.46544051482808
 20
-149.6656276752572
 10
93.46733531734498
 20
-149.8030869851187
 10
93.46905786508761
 20
-150.0018689946176
 10
93.474570017864
 20
-150.1351941898967
 10
93.47629256560663
 20
-150.1627549537787
 10
93.47629256560663
 20
-150.2071966855385
 10
93.48714461638516
 20
-150.2685193851759
 10
93.48714461638516
 20
-150.2685193851759
 10
93.28147241591574
 20
-150.2685193851759
 10
93.28147241591574
 20
-150.2685193851759
 10
93.30317651747282
 20
-150.1438069286099
 10
93.30317651747282
 20
-149.8030869851187
 10
93.30317651747282
 20
-149.6656276752572
 10
93.30317651747282
 20
-149.6656276752572
 10
92.92628307138649
 20
-149.6656276752572
 10
92.92628307138649
 20
-149.6656276752572
 10
92.9064737723463
 20
-149.8730224234692
 10
92.850490970711
 20
-150.1417398713187
 10
92.6828870753536
 20
-150.3257079702311
 10
92.6828870753536
 20
-150.3257079702311
 10
92.52234562574093
 20
-150.2030625709562
 10
92.52234562574093
 20
-150.2030625709562
 10
92.73869762221464
 20
-149.9829209694487
 10
92.76574162177384
 20
-149.6508137646706
 10
92.76574162177384
 20
-149.3187065598925
 10
92.76574162177384
 20
-149.3187065598925
 10
92.76574162177384
 20
-148.8829019810084
 10
92.76574162177384
 20
-148.8829019810084
 10
92.76574162177384
 20
-148.8470729879618
 10
92.76401907403123
 20
-148.6143567879332
 10
92.75678437351221
 20
-148.5127264711183
 10
92.87581242252757
 20
-148.5234062671226
 10
93.08131236822273
 20
-148.5234062671226
 10
93.20395776749762
 20
-148.5234062671226
 10
93.20395776749762
 20
-148.5234062671226
 10
93.59532061462202
 20
-148.5234062671226
 10
93.59532061462202
 20
-148.5234062671226
 10
93.60789521314316
 20
-148.5234062671226
 10
93.90555146306876
 20
-148.5234062671226
 10
94.04077146086482
 20
-148.5127264711183
 10
94.03887665834792
 20
-148.5656086868169
 10
94.03353676034578
 20
-148.7264946459781
 10
94.03353676034578
 20
-148.7773098043855
 10
94.03353676034578
 20
-148.7773098043855
 10
94.03353676034578
 20
-149.3841633741123
 10
94.03353676034578
 20
-149.3841633741123
 10
94.03353676034578
 20
-149.4034559088297
 10
94.04249400860743
 20
-149.9746527402841
 10
94.04249400860743
 20
-150.0866183435547
 10
94.04249400860743
 20
-150.1438069286099
 10
94.04249400860743
 20
-150.2454372454247
 10
93.97221406070833
 20
-150.2919460344756
 97
        0
 97
        1
330
EC
 75
     2
 76
     1
 98
        1
 10
0.0
 20
0.0
450
        0
451
        0
460
0.0
461
0.0
452
        0
462
0.0
453
        0
470

  0
ENDBLK
  5
E0
330
DD
100
AcDbEntity
  8
0
100
AcDbBlockEnd
  0
BLOCK
  5
F0
330
EE
100
AcDbEntity
  8
0
100
AcDbBlockBegin
  2
Block_11
 70
     0
 10
0.0
 20
0.0
 30
0.0
  3
Block_11
  1

  0
INSERT
  5
F3
330
EE
100
AcDbEntity
  8
レイヤー 1
100
AcDbBlockReference
  2
Block_12
 10
0.0
 20
0.0
 30
0.0
  0
ENDBLK
  5
F1
330
EE
100
AcDbEntity
  8
0
100
AcDbBlockEnd
  0
BLOCK
  5
F4
330
F2
100
AcDbEntity
  8
0
100
AcDbBlockBegin
  2
Block_12
 70
     0
 10
0.0
 20
0.0
 30
0.0
  3
Block_12
  1

  0
SPLINE
  5
F6
330
F2
100
AcDbEntity
  8
レイヤー 1
100
AcDbSpline
210
0.0
220
0.0
230
1.0
 70
     9
 71
     3
 72
    17
 73
    13
 74
     0
 42
0.0000000001
 43
0.0000000001
 40
0.0
 40
0.0
 40
0.0
 40
0.0
 40
1.0
 40
1.0
 40
1.0
 40
2.0
 40
2.0
 40
2.0
 40
3.0
 40
3.0
 40
3.0
 40
4.0
 40
4.0
 40
4.0
 40
4.0
 10
89.32874211091435
 20
-151.0622693849775
 30
0.0
 10
89.28188881231495
 20
-151.0622693849775
 30
0.0
 10
89.24399276197719
 20
-151.1067111167372
 30
0.0
 10
89.24399276197719
 20
-151.1618326445012
 30
0.0
 10
89.24399276197719
 20
-151.2190212295563
 30
0.0
 10
89.28188881231495
 20
-151.2675970758984
 30
0.0
 10
89.33235946117386
 20
-151.2675970758984
 30
0.0
 10
89.38283011003276
 20
-151.2675970758984
 30
0.0
 10
89.41710881011101
 20
-151.2169541722652
 30
0.0
 10
89.41710881011101
 20
-151.1638997017923
 30
0.0
 10
89.41710881011101
 20
-151.1067111167372
 30
0.0
 10
89.37749021203064
 20
-151.0622693849775
 30
0.0
 10
89.32874211091435
 20
-151.0622693849775
 30
0.0
  0
SPLINE
  5
F7
330
F2
100
AcDbEntity
  8
レイヤー 1
100
AcDbSpline
210
0.0
220
0.0
230
1.0
 70
    11
 71
     3
 72
    17
 73
    13
 74
     0
 42
0.0000000001
 43
0.0000000001
 40
0.0
 40
0.0
 40
0.0
 40
0.0
 40
1.0
 40
1.0
 40
1.0
 40
2.0
 40
2.0
 40
2.0
 40
3.0
 40
3.0
 40
3.0
 40
4.0
 40
4.0
 40
4.0
 40
4.0
 10
89.33063691343123
 20
-151.3923095324644
 30
0.0
 10
89.22246091519438
 20
-151.3923095324644
 30
0.0
 10
89.13581676374034
 20
-151.291023725198
 30
0.0
 10
89.13581676374034
 20
-151.1638997017923
 30
0.0
 10
89.13581676374034
 20
-151.0371201879351
 30
0.0
 10
89.22246091519438
 20
-150.9334228138291
 30
0.0
 10
89.33063691343123
 20
-150.9334228138291
 30
0.0
 10
89.43881291166809
 20
-150.9334228138291
 30
0.0
 10
89.52717961086474
 20
-151.0371201879351
 30
0.0
 10
89.52717961086474
 20
-151.1638997017923
 30
0.0
 10
89.52717961086474
 20
-151.291023725198
 30
0.0
 10
89.43881291166809
 20
-151.3923095324644
 30
0.0
 10
89.33063691343123
 20
-151.3923095324644
 30
0.0
  0
SPLINE
  5
F8
330
F2
100
AcDbEntity
  8
レイヤー 1
100
AcDbSpline
210
0.0
220
0.0
230
1.0
 70
     9
 71
     3
 72
    44
 73
    40
 74
     0
 42
0.0000000001
 43
0.0000000001
 40
0.0
 40
0.0
 40
0.0
 40
0.0
 40
1.0
 40
1.0
 40
1.0
 40
2.0
 40
2.0
 40
2.0
 40
3.0
 40
3.0
 40
3.0
 40
4.0
 40
4.0
 40
4.0
 40
5.0
 40
5.0
 40
5.0
 40
6.0
 40
6.0
 40
6.0
 40
7.0
 40
7.0
 40
7.0
 40
8.0
 40
8.0
 40
8.0
 40
9.0
 40
9.0
 40
9.0
 40
10.0
 40
10.0
 40
10.0
 40
11.0
 40
11.0
 40
11.0
 40
12.0
 40
12.0
 40
12.0
 40
13.0
 40
13.0
 40
13.0
 40
13.0
 10
89.15200871252102
 20
-151.5914360515118
 30
0.0
 10
89.05657956757961
 20
-151.9593722493365
 30
0.0
 10
89.01317136446547
 20
-152.1181911512065
 30
0.0
 10
88.84556746910806
 20
-152.3676160643386
 30
0.0
 10
88.68864336975493
 20
-152.5980929523018
 30
0.0
 10
88.48658851954501
 20
-152.7844726180538
 30
0.0
 10
88.24870467628853
 20
-152.8774901961556
 30
0.0
 10
88.24870467628853
 20
-152.8774901961556
 30
0.0
 10
88.08454587641637
 20
-152.6976562118256
 30
0.0
 10
88.08454587641637
 20
-152.6976562118256
 30
0.0
 10
88.63093802037699
 20
-152.5453829913775
 30
0.0
 10
88.91223006674763
 20
-151.9890000705097
 30
0.0
 10
88.96631806586606
 20
-151.5490613770433
 30
0.0
 10
88.96631806586606
 20
-151.5490613770433
 30
0.0
 10
88.31347247141122
 20
-151.5490613770433
 30
0.0
 10
88.31347247141122
 20
-151.5490613770433
 30
0.0
 10
88.23423527525047
 20
-151.5490613770433
 30
0.0
 10
88.07731117589735
 20
-151.5531954916256
 30
0.0
 10
87.94381372584391
 20
-151.5721435167945
 30
0.0
 10
87.94381372584391
 20
-151.5721435167945
 30
0.0
 10
87.94381372584391
 20
-151.3523464248355
 30
0.0
 10
87.94381372584391
 20
-151.3523464248355
 30
0.0
 10
88.01788327877678
 20
-151.3733615072955
 30
0.0
 10
88.23234047273357
 20
-151.3733615072955
 30
0.0
 10
88.31708982167073
 20
-151.3733615072955
 30
0.0
 10
88.31708982167073
 20
-151.3733615072955
 30
0.0
 10
88.68502601949542
 20
-151.3733615072955
 30
0.0
 10
88.68502601949542
 20
-151.3733615072955
 30
0.0
 10
88.72102726731627
 20
-151.3733615072955
 30
0.0
 10
88.92118731500929
 20
-151.3712944500044
 30
0.0
 10
88.9537434673449
 20
-151.3650932781309
 30
0.0
 10
88.98974471516575
 20
-151.3585475967089
 30
0.0
 10
88.99163951768263
 20
-151.3564805394178
 30
0.0
 10
89.04383271428418
 20
-151.3161729222404
 30
0.0
 10
89.04383271428418
 20
-151.3161729222404
 30
0.0
 10
89.20437416389683
 20
-151.4708577095281
 30
0.0
 10
89.20437416389683
 20
-151.4708577095281
 30
0.0
 10
89.17905271208024
 20
-151.5004855307013
 30
0.0
 10
89.16647811355908
 20
-151.5321804091655
 30
0.0
 10
89.15200871252102
 20
-151.5914360515118
 30
0.0
  0
HATCH
  5
F9
330
F2
100
AcDbEntity
  8
レイヤー 1
 62
   250
420
  2299925
440
 33554687
100
AcDbHatch
 10
0.0
 20
0.0
 30
0.0
210
0.0
220
0.0
230
1.0
  2
SOLID
 70
     1
 71
     1
 91
        3
 92
        1
 93
        1
 72
     4
 94
        3
 73
     0
 74
     0
 95
       17
 96
       13
 40
0.0
 40
0.0
 40
0.0
 40
0.0
 40
1.0
 40
1.0
 40
1.0
 40
2.0
 40
2.0
 40
2.0
 40
3.0
 40
3.0
 40
3.0
 40
4.0
 40
4.0
 40
4.0
 40
4.0
 10
89.32874211091435
 20
-151.0622693849775
 10
89.28188881231495
 20
-151.0622693849775
 10
89.24399276197719
 20
-151.1067111167372
 10
89.24399276197719
 20
-151.1618326445012
 10
89.24399276197719
 20
-151.2190212295563
 10
89.28188881231495
 20
-151.2675970758984
 10
89.33235946117386
 20
-151.2675970758984
 10
89.38283011003276
 20
-151.2675970758984
 10
89.41710881011101
 20
-151.2169541722652
 10
89.41710881011101
 20
-151.1638997017923
 10
89.41710881011101
 20
-151.1067111167372
 10
89.37749021203064
 20
-151.0622693849775
 10
89.32874211091435
 20
-151.0622693849775
 97
        0
 97
        1
330
F6
 92
        1
 93
        1
 72
     4
 94
        3
 73
     0
 74
     0
 95
       17
 96
       13
 40
0.0
 40
0.0
 40
0.0
 40
0.0
 40
1.0
 40
1.0
 40
1.0
 40
2.0
 40
2.0
 40
2.0
 40
3.0
 40
3.0
 40
3.0
 40
4.0
 40
4.0
 40
4.0
 40
4.0
 10
89.33063691343123
 20
-151.3923095324644
 10
89.22246091519438
 20
-151.3923095324644
 10
89.13581676374034
 20
-151.291023725198
 10
89.13581676374034
 20
-151.1638997017923
 10
89.13581676374034
 20
-151.0371201879351
 10
89.22246091519438
 20
-150.9334228138291
 10
89.33063691343123
 20
-150.9334228138291
 10
89.43881291166809
 20
-150.9334228138291
 10
89.52717961086474
 20
-151.0371201879351
 10
89.52717961086474
 20
-151.1638997017923
 10
89.52717961086474
 20
-151.291023725198
 10
89.43881291166809
 20
-151.3923095324644
 10
89.33063691343123
 20
-151.3923095324644
 97
        0
 97
        1
330
F7
 92
        1
 93
        1
 72
     4
 94
        3
 73
     0
 74
     0
 95
       44
 96
       40
 40
0.0
 40
0.0
 40
0.0
 40
0.0
 40
1.0
 40
1.0
 40
1.0
 40
2.0
 40
2.0
 40
2.0
 40
3.0
 40
3.0
 40
3.0
 40
4.0
 40
4.0
 40
4.0
 40
5.0
 40
5.0
 40
5.0
 40
6.0
 40
6.0
 40
6.0
 40
7.0
 40
7.0
 40
7.0
 40
8.0
 40
8.0
 40
8.0
 40
9.0
 40
9.0
 40
9.0
 40
10.0
 40
10.0
 40
10.0
 40
11.0
 40
11.0
 40
11.0
 40
12.0
 40
12.0
 40
12.0
 40
13.0
 40
13.0
 40
13.0
 40
13.0
 10
89.15200871252102
 20
-151.5914360515118
 10
89.05657956757961
 20
-151.9593722493365
 10
89.01317136446547
 20
-152.1181911512065
 10
88.84556746910806
 20
-152.3676160643386
 10
88.68864336975493
 20
-152.5980929523018
 10
88.48658851954501
 20
-152.7844726180538
 10
88.24870467628853
 20
-152.8774901961556
 10
88.24870467628853
 20
-152.8774901961556
 10
88.08454587641637
 20
-152.6976562118256
 10
88.08454587641637
 20
-152.6976562118256
 10
88.63093802037699
 20
-152.5453829913775
 10
88.91223006674763
 20
-151.9890000705097
 10
88.96631806586606
 20
-151.5490613770433
 10
88.96631806586606
 20
-151.5490613770433
 10
88.31347247141122
 20
-151.5490613770433
 10
88.31347247141122
 20
-151.5490613770433
 10
88.23423527525047
 20
-151.5490613770433
 10
88.07731117589735
 20
-151.5531954916256
 10
87.94381372584391
 20
-151.5721435167945
 10
87.94381372584391
 20
-151.5721435167945
 10
87.94381372584391
 20
-151.3523464248355
 10
87.94381372584391
 20
-151.3523464248355
 10
88.01788327877678
 20
-151.3733615072955
 10
88.23234047273357
 20
-151.3733615072955
 10
88.31708982167073
 20
-151.3733615072955
 10
88.31708982167073
 20
-151.3733615072955
 10
88.68502601949542
 20
-151.3733615072955
 10
88.68502601949542
 20
-151.3733615072955
 10
88.72102726731627
 20
-151.3733615072955
 10
88.92118731500929
 20
-151.3712944500044
 10
88.9537434673449
 20
-151.3650932781309
 10
88.98974471516575
 20
-151.3585475967089
 10
88.99163951768263
 20
-151.3564805394178
 10
89.04383271428418
 20
-151.3161729222404
 10
89.04383271428418
 20
-151.3161729222404
 10
89.20437416389683
 20
-151.4708577095281
 10
89.20437416389683
 20
-151.4708577095281
 10
89.17905271208024
 20
-151.5004855307013
 10
89.16647811355908
 20
-151.5321804091655
 10
89.15200871252102
 20
-151.5914360515118
 97
        0
 97
        1
330
F8
 75
     2
 76
     1
 98
        1
 10
0.0
 20
0.0
450
        0
451
        0
460
0.0
461
0.0
452
        0
462
0.0
453
        0
470

  0
SPLINE
  5
FA
330
F2
100
AcDbEntity
  8
レイヤー 1
100
AcDbSpline
210
0.0
220
0.0
230
1.0
 70
     9
 71
     3
 72
    29
 73
    25
 74
     0
 42
0.0000000001
 43
0.0000000001
 40
0.0
 40
0.0
 40
0.0
 40
0.0
 40
1.0
 40
1.0
 40
1.0
 40
2.0
 40
2.0
 40
2.0
 40
3.0
 40
3.0
 40
3.0
 40
4.0
 40
4.0
 40
4.0
 40
5.0
 40
5.0
 40
5.0
 40
6.0
 40
6.0
 40
6.0
 40
7.0
 40
7.0
 40
7.0
 40
8.0
 40
8.0
 40
8.0
 40
8.0
 10
90.43823511193904
 20
-151.2741427573203
 30
0.0
 10
90.43823511193904
 20
-151.2741427573203
 30
0.0
 10
90.1478135625325
 20
-151.2741427573203
 30
0.0
 10
90.1478135625325
 20
-151.2741427573203
 30
0.0
 10
90.05048961507418
 20
-151.2741427573203
 30
0.0
 10
89.95127086509899
 20
-151.2782768719026
 30
0.0
 10
89.85394691764069
 20
-151.2930907824892
 30
0.0
 10
89.85394691764069
 20
-151.2930907824892
 30
0.0
 10
89.85394691764069
 20
-151.083628976986
 30
0.0
 10
89.85394691764069
 20
-151.083628976986
 30
0.0
 10
89.9548882153585
 20
-151.0984428875726
 30
0.0
 10
90.10285506644999
 20
-151.1025770021549
 30
0.0
 10
90.1478135625325
 20
-151.1025770021549
 30
0.0
 10
90.1478135625325
 20
-151.1025770021549
 30
0.0
 10
90.43823511193904
 20
-151.1025770021549
 30
0.0
 10
90.43823511193904
 20
-151.1025770021549
 30
0.0
 10
90.53745386191426
 20
-151.1025770021549
 30
0.0
 10
90.63650035711518
 20
-151.0984428875726
 30
0.0
 10
90.73571910709038
 20
-151.083628976986
 30
0.0
 10
90.73571910709038
 20
-151.083628976986
 30
0.0
 10
90.73571910709038
 20
-151.2930907824892
 30
0.0
 10
90.73571910709038
 20
-151.2930907824892
 30
0.0
 10
90.60773380981336
 20
-151.2741427573203
 30
0.0
 10
90.45080971046022
 20
-151.2741427573203
 30
0.0
 10
90.43823511193904
 20
-151.2741427573203
 30
0.0
  0
SPLINE
  5
FB
330
F2
100
AcDbEntity
  8
レイヤー 1
100
AcDbSpline
210
0.0
220
0.0
230
1.0
 70
     9
 71
     3
 72
    50
 73
    46
 74
     0
 42
0.0000000001
 43
0.0000000001
 40
0.0
 40
0.0
 40
0.0
 40
0.0
 40
1.0
 40
1.0
 40
1.0
 40
2.0
 40
2.0
 40
2.0
 40
3.0
 40
3.0
 40
3.0
 40
4.0
 40
4.0
 40
4.0
 40
5.0
 40
5.0
 40
5.0
 40
6.0
 40
6.0
 40
6.0
 40
7.0
 40
7.0
 40
7.0
 40
8.0
 40
8.0
 40
8.0
 40
9.0
 40
9.0
 40
9.0
 40
10.0
 40
10.0
 40
10.0
 40
11.0
 40
11.0
 40
11.0
 40
12.0
 40
12.0
 40
12.0
 40
13.0
 40
13.0
 40
13.0
 40
14.0
 40
14.0
 40
14.0
 40
15.0
 40
15.0
 40
15.0
 40
15.0
 10
90.85836450636527
 20
-151.9001166069902
 30
0.0
 10
90.79170190872568
 20
-152.0778835340291
 30
0.0
 10
90.67629120996981
 20
-152.2852782822412
 30
0.0
 10
90.55898570869706
 20
-152.4248046493938
 30
0.0
 10
90.41480846263935
 20
-152.5960258950107
 30
0.0
 10
90.27597111458378
 20
-152.6849093585302
 30
0.0
 10
90.00363631647479
 20
-152.8265027829739
 30
0.0
 10
90.00363631647479
 20
-152.8265027829739
 30
0.0
 10
89.85928681564281
 20
-152.6384005694793
 30
0.0
 10
89.85928681564281
 20
-152.6384005694793
 30
0.0
 10
90.01810571751283
 20
-152.6149739201796
 30
0.0
 10
90.16417776608744
 20
-152.5285020234998
 30
0.0
 10
90.29388561110708
 20
-152.4227375921026
 30
0.0
 10
90.51747230809979
 20
-152.2408365504815
 30
0.0
 10
90.67990856022934
 20
-151.9276773708722
 30
0.0
 10
90.72124970605234
 20
-151.7457763292511
 30
0.0
 10
90.72124970605234
 20
-151.7457763292511
 30
0.0
 10
90.14970836504938
 20
-151.7457763292511
 30
0.0
 10
90.14970836504938
 20
-151.7457763292511
 30
0.0
 10
90.01448836725332
 20
-151.7457763292511
 30
0.0
 10
89.76558021844402
 20
-151.7540445584157
 30
0.0
 10
89.63570011865011
 20
-151.7712700358419
 30
0.0
 10
89.63570011865011
 20
-151.7712700358419
 30
0.0
 10
89.63570011865011
 20
-151.5425156956213
 30
0.0
 10
89.63570011865011
 20
-151.5425156956213
 30
0.0
 10
89.66463892072621
 20
-151.5490613770433
 30
0.0
 10
89.686170767509
 20
-151.5552625489167
 30
0.0
 10
89.7313015183658
 20
-151.559396663499
 30
0.0
 10
89.81794566981982
 20
-151.565942344921
 30
0.0
 10
89.98554956517722
 20
-151.5680094022122
 30
0.0
 10
90.0577243155932
 20
-151.5680094022122
 30
0.0
 10
90.0577243155932
 20
-151.5680094022122
 30
0.0
 10
90.48870576079798
 20
-151.5680094022122
 30
0.0
 10
90.48870576079798
 20
-151.5680094022122
 30
0.0
 10
90.54641111017589
 20
-151.5680094022122
 30
0.0
 10
90.67077905719342
 20
-151.5638752876299
 30
0.0
 10
90.72314450856922
 20
-151.5573296062079
 30
0.0
 10
90.78446720820666
 20
-151.5490613770433
 30
0.0
 10
90.80789385750636
 20
-151.5342474664567
 30
0.0
 10
90.83666040480819
 20
-151.510820817157
 30
0.0
 10
90.83666040480819
 20
-151.510820817157
 30
0.0
 10
90.97739255538066
 20
-151.6779079481916
 30
0.0
 10
90.97739255538066
 20
-151.6779079481916
 30
0.0
 10
90.91779240348584
 20
-151.7457763292511
 30
0.0
 10
90.87817380540547
 20
-151.8494737033571
 30
0.0
 10
90.85836450636527
 20
-151.9001166069902
 30
0.0
  0
HATCH
  5
FC
330
F2
100
AcDbEntity
  8
レイヤー 1
 62
   250
420
  2299925
440
 33554687
100
AcDbHatch
 10
0.0
 20
0.0
 30
0.0
210
0.0
220
0.0
230
1.0
  2
SOLID
 70
     1
 71
     1
 91
        2
 92
        1
 93
        1
 72
     4
 94
        3
 73
     0
 74
     0
 95
       29
 96
       25
 40
0.0
 40
0.0
 40
0.0
 40
0.0
 40
1.0
 40
1.0
 40
1.0
 40
2.0
 40
2.0
 40
2.0
 40
3.0
 40
3.0
 40
3.0
 40
4.0
 40
4.0
 40
4.0
 40
5.0
 40
5.0
 40
5.0
 40
6.0
 40
6.0
 40
6.0
 40
7.0
 40
7.0
 40
7.0
 40
8.0
 40
8.0
 40
8.0
 40
8.0
 10
90.43823511193904
 20
-151.2741427573203
 10
90.43823511193904
 20
-151.2741427573203
 10
90.1478135625325
 20
-151.2741427573203
 10
90.1478135625325
 20
-151.2741427573203
 10
90.05048961507418
 20
-151.2741427573203
 10
89.95127086509899
 20
-151.2782768719026
 10
89.85394691764069
 20
-151.2930907824892
 10
89.85394691764069
 20
-151.2930907824892
 10
89.85394691764069
 20
-151.083628976986
 10
89.85394691764069
 20
-151.083628976986
 10
89.9548882153585
 20
-151.0984428875726
 10
90.10285506644999
 20
-151.1025770021549
 10
90.1478135625325
 20
-151.1025770021549
 10
90.1478135625325
 20
-151.1025770021549
 10
90.43823511193904
 20
-151.1025770021549
 10
90.43823511193904
 20
-151.1025770021549
 10
90.53745386191426
 20
-151.1025770021549
 10
90.63650035711518
 20
-151.0984428875726
 10
90.73571910709038
 20
-151.083628976986
 10
90.73571910709038
 20
-151.083628976986
 10
90.73571910709038
 20
-151.2930907824892
 10
90.73571910709038
 20
-151.2930907824892
 10
90.60773380981336
 20
-151.2741427573203
 10
90.45080971046022
 20
-151.2741427573203
 10
90.43823511193904
 20
-151.2741427573203
 97
        0
 97
        1
330
FA
 92
        1
 93
        1
 72
     4
 94
        3
 73
     0
 74
     0
 95
       50
 96
       46
 40
0.0
 40
0.0
 40
0.0
 40
0.0
 40
1.0
 40
1.0
 40
1.0
 40
2.0
 40
2.0
 40
2.0
 40
3.0
 40
3.0
 40
3.0
 40
4.0
 40
4.0
 40
4.0
 40
5.0
 40
5.0
 40
5.0
 40
6.0
 40
6.0
 40
6.0
 40
7.0
 40
7.0
 40
7.0
 40
8.0
 40
8.0
 40
8.0
 40
9.0
 40
9.0
 40
9.0
 40
10.0
 40
10.0
 40
10.0
 40
11.0
 40
11.0
 40
11.0
 40
12.0
 40
12.0
 40
12.0
 40
13.0
 40
13.0
 40
13.0
 40
14.0
 40
14.0
 40
14.0
 40
15.0
 40
15.0
 40
15.0
 40
15.0
 10
90.85836450636527
 20
-151.9001166069902
 10
90.79170190872568
 20
-152.0778835340291
 10
90.67629120996981
 20
-152.2852782822412
 10
90.55898570869706
 20
-152.4248046493938
 10
90.41480846263935
 20
-152.5960258950107
 10
90.27597111458378
 20
-152.6849093585302
 10
90.00363631647479
 20
-152.8265027829739
 10
90.00363631647479
 20
-152.8265027829739
 10
89.85928681564281
 20
-152.6384005694793
 10
89.85928681564281
 20
-152.6384005694793
 10
90.01810571751283
 20
-152.6149739201796
 10
90.16417776608744
 20
-152.5285020234998
 10
90.29388561110708
 20
-152.4227375921026
 10
90.51747230809979
 20
-152.2408365504815
 10
90.67990856022934
 20
-151.9276773708722
 10
90.72124970605234
 20
-151.7457763292511
 10
90.72124970605234
 20
-151.7457763292511
 10
90.14970836504938
 20
-151.7457763292511
 10
90.14970836504938
 20
-151.7457763292511
 10
90.01448836725332
 20
-151.7457763292511
 10
89.76558021844402
 20
-151.7540445584157
 10
89.63570011865011
 20
-151.7712700358419
 10
89.63570011865011
 20
-151.7712700358419
 10
89.63570011865011
 20
-151.5425156956213
 10
89.63570011865011
 20
-151.5425156956213
 10
89.66463892072621
 20
-151.5490613770433
 10
89.686170767509
 20
-151.5552625489167
 10
89.7313015183658
 20
-151.559396663499
 10
89.81794566981982
 20
-151.565942344921
 10
89.98554956517722
 20
-151.5680094022122
 10
90.0577243155932
 20
-151.5680094022122
 10
90.0577243155932
 20
-151.5680094022122
 10
90.48870576079798
 20
-151.5680094022122
 10
90.48870576079798
 20
-151.5680094022122
 10
90.54641111017589
 20
-151.5680094022122
 10
90.67077905719342
 20
-151.5638752876299
 10
90.72314450856922
 20
-151.5573296062079
 10
90.78446720820666
 20
-151.5490613770433
 10
90.80789385750636
 20
-151.5342474664567
 10
90.83666040480819
 20
-151.510820817157
 10
90.83666040480819
 20
-151.510820817157
 10
90.97739255538066
 20
-151.6779079481916
 10
90.97739255538066
 20
-151.6779079481916
 10
90.91779240348584
 20
-151.7457763292511
 10
90.87817380540547
 20
-151.8494737033571
 10
90.85836450636527
 20
-151.9001166069902
 97
        0
 97
        1
330
FB
 75
     2
 76
     1
 98
        1
 10
0.0
 20
0.0
450
        0
451
        0
460
0.0
461
0.0
452
        0
462
0.0
453
        0
470

  0
SPLINE
  5
FD
330
F2
100
AcDbEntity
  8
レイヤー 1
100
AcDbSpline
210
0.0
220
0.0
230
1.0
 70
     9
 71
     3
 72
    50
 73
    46
 74
     0
 42
0.0000000001
 43
0.0000000001
 40
0.0
 40
0.0
 40
0.0
 40
0.0
 40
1.0
 40
1.0
 40
1.0
 40
2.0
 40
2.0
 40
2.0
 40
3.0
 40
3.0
 40
3.0
 40
4.0
 40
4.0
 40
4.0
 40
5.0
 40
5.0
 40
5.0
 40
6.0
 40
6.0
 40
6.0
 40
7.0
 40
7.0
 40
7.0
 40
8.0
 40
8.0
 40
8.0
 40
9.0
 40
9.0
 40
9.0
 40
10.0
 40
10.0
 40
10.0
 40
11.0
 40
11.0
 40
11.0
 40
12.0
 40
12.0
 40
12.0
 40
13.0
 40
13.0
 40
13.0
 40
14.0
 40
14.0
 40
14.0
 40
15.0
 40
15.0
 40
15.0
 40
15.0
 10
92.3140896036576
 20
-151.2593288467338
 30
0.0
 10
92.13563365752165
 20
-151.4729247668193
 30
0.0
 10
92.0743109578842
 20
-151.544927262461
 30
0.0
 10
91.95338810635194
 20
-151.663094037605
 30
0.0
 10
91.95338810635194
 20
-151.663094037605
 30
0.0
 10
91.95338810635194
 20
-152.2301567544771
 30
0.0
 10
91.95338810635194
 20
-152.2301567544771
 30
0.0
 10
91.95338810635194
 20
-152.3803629176341
 30
0.0
 10
91.95890025912834
 20
-152.3993109428029
 30
0.0
 10
91.96251760938784
 20
-152.5770778698418
 30
0.0
 10
91.96424015713047
 20
-152.7083360078298
 30
0.0
 10
91.96975230990686
 20
-152.7569118541719
 30
0.0
 10
91.97509220790902
 20
-152.8161674965182
 30
0.0
 10
91.97509220790902
 20
-152.8161674965182
 30
0.0
 10
91.78216686073502
 20
-152.8161674965182
 30
0.0
 10
91.78216686073502
 20
-152.8161674965182
 30
0.0
 10
91.78578421099453
 20
-152.7717257647584
 30
0.0
 10
91.78940156125404
 20
-152.7252169757075
 30
0.0
 10
91.78940156125404
 20
-152.7166042369944
 30
0.0
 10
91.78940156125404
 20
-152.6363335121881
 30
0.0
 10
91.79301891151355
 20
-152.2852782822412
 30
0.0
 10
91.79301891151355
 20
-152.2132757865994
 30
0.0
 10
91.79301891151355
 20
-152.2132757865994
 30
0.0
 10
91.79301891151355
 20
-151.8070990288885
 30
0.0
 10
91.79301891151355
 20
-151.8070990288885
 30
0.0
 10
91.63781735990305
 20
-151.9318114854545
 30
0.0
 10
91.47193601228826
 20
-152.0420545409825
 30
0.0
 10
91.29881996415447
 20
-152.1285264376623
 30
0.0
 10
91.29881996415447
 20
-152.1285264376623
 30
0.0
 10
91.12570391602066
 20
-151.96557342121
 30
0.0
 10
91.12570391602066
 20
-151.96557342121
 30
0.0
 10
91.230262563998
 20
-151.9297444281634
 30
0.0
 10
91.44850936298857
 20
-151.8556748752305
 30
0.0
 10
91.74254826265466
 20
-151.5997042806764
 30
0.0
 10
91.92634410679273
 20
-151.441229888355
 30
0.0
 10
92.09050290666487
 20
-151.2527831653118
 30
0.0
 10
92.22038300645881
 20
-151.0326415638043
 30
0.0
 10
92.22038300645881
 20
-151.0326415638043
 30
0.0
 10
92.38436955155668
 20
-151.1766465550878
 30
0.0
 10
92.38436955155668
 20
-151.1766465550878
 30
0.0
 10
92.39522160233523
 20
-151.187326351092
 30
0.0
 10
92.40245630285425
 20
-151.2021402616786
 30
0.0
 10
92.40245630285425
 20
-151.214887114974
 30
0.0
 10
92.40245630285425
 20
-151.2548502226029
 30
0.0
 10
92.3700724052929
 20
-151.2548502226029
 30
0.0
 10
92.3140896036576
 20
-151.2593288467338
 30
0.0
  0
HATCH
  5
FE
330
F2
100
AcDbEntity
  8
レイヤー 1
 62
   250
420
  2299925
440
 33554687
100
AcDbHatch
 10
0.0
 20
0.0
 30
0.0
210
0.0
220
0.0
230
1.0
  2
SOLID
 70
     1
 71
     1
 91
        1
 92
        1
 93
        1
 72
     4
 94
        3
 73
     0
 74
     0
 95
       50
 96
       46
 40
0.0
 40
0.0
 40
0.0
 40
0.0
 40
1.0
 40
1.0
 40
1.0
 40
2.0
 40
2.0
 40
2.0
 40
3.0
 40
3.0
 40
3.0
 40
4.0
 40
4.0
 40
4.0
 40
5.0
 40
5.0
 40
5.0
 40
6.0
 40
6.0
 40
6.0
 40
7.0
 40
7.0
 40
7.0
 40
8.0
 40
8.0
 40
8.0
 40
9.0
 40
9.0
 40
9.0
 40
10.0
 40
10.0
 40
10.0
 40
11.0
 40
11.0
 40
11.0
 40
12.0
 40
12.0
 40
12.0
 40
13.0
 40
13.0
 40
13.0
 40
14.0
 40
14.0
 40
14.0
 40
15.0
 40
15.0
 40
15.0
 40
15.0
 10
92.3140896036576
 20
-151.2593288467338
 10
92.13563365752165
 20
-151.4729247668193
 10
92.0743109578842
 20
-151.544927262461
 10
91.95338810635194
 20
-151.663094037605
 10
91.95338810635194
 20
-151.663094037605
 10
91.95338810635194
 20
-152.2301567544771
 10
91.95338810635194
 20
-152.2301567544771
 10
91.95338810635194
 20
-152.3803629176341
 10
91.95890025912834
 20
-152.3993109428029
 10
91.96251760938784
 20
-152.5770778698418
 10
91.96424015713047
 20
-152.7083360078298
 10
91.96975230990686
 20
-152.7569118541719
 10
91.97509220790902
 20
-152.8161674965182
 10
91.97509220790902
 20
-152.8161674965182
 10
91.78216686073502
 20
-152.8161674965182
 10
91.78216686073502
 20
-152.8161674965182
 10
91.78578421099453
 20
-152.7717257647584
 10
91.78940156125404
 20
-152.7252169757075
 10
91.78940156125404
 20
-152.7166042369944
 10
91.78940156125404
 20
-152.6363335121881
 10
91.79301891151355
 20
-152.2852782822412
 10
91.79301891151355
 20
-152.2132757865994
 10
91.79301891151355
 20
-152.2132757865994
 10
91.79301891151355
 20
-151.8070990288885
 10
91.79301891151355
 20
-151.8070990288885
 10
91.63781735990305
 20
-151.9318114854545
 10
91.47193601228826
 20
-152.0420545409825
 10
91.29881996415447
 20
-152.1285264376623
 10
91.29881996415447
 20
-152.1285264376623
 10
91.12570391602066
 20
-151.96557342121
 10
91.12570391602066
 20
-151.96557342121
 10
91.230262563998
 20
-151.9297444281634
 10
91.44850936298857
 20
-151.8556748752305
 10
91.74254826265466
 20
-151.5997042806764
 10
91.92634410679273
 20
-151.441229888355
 10
92.09050290666487
 20
-151.2527831653118
 10
92.22038300645881
 20
-151.0326415638043
 10
92.22038300645881
 20
-151.0326415638043
 10
92.38436955155668
 20
-151.1766465550878
 10
92.38436955155668
 20
-151.1766465550878
 10
92.39522160233523
 20
-151.187326351092
 10
92.40245630285425
 20
-151.2021402616786
 10
92.40245630285425
 20
-151.214887114974
 10
92.40245630285425
 20
-151.2548502226029
 10
92.3700724052929
 20
-151.2548502226029
 10
92.3140896036576
 20
-151.2593288467338
 97
        0
 97
        1
330
FD
 75
     2
 76
     1
 98
        1
 10
0.0
 20
0.0
450
        0
451
        0
460
0.0
461
0.0
452
        0
462
0.0
453
        0
470

  0
SPLINE
  5
FF
330
F2
100
AcDbEntity
  8
レイヤー 1
100
AcDbSpline
210
0.0
220
0.0
230
1.0
 70
     9
 71
     3
 72
    50
 73
    46
 74
     0
 42
0.0000000001
 43
0.0000000001
 40
0.0
 40
0.0
 40
0.0
 40
0.0
 40
1.0
 40
1.0
 40
1.0
 40
2.0
 40
2.0
 40
2.0
 40
3.0
 40
3.0
 40
3.0
 40
4.0
 40
4.0
 40
4.0
 40
5.0
 40
5.0
 40
5.0
 40
6.0
 40
6.0
 40
6.0
 40
7.0
 40
7.0
 40
7.0
 40
8.0
 40
8.0
 40
8.0
 40
9.0
 40
9.0
 40
9.0
 40
10.0
 40
10.0
 40
10.0
 40
11.0
 40
11.0
 40
11.0
 40
12.0
 40
12.0
 40
12.0
 40
13.0
 40
13.0
 40
13.0
 40
14.0
 40
14.0
 40
14.0
 40
15.0
 40
15.0
 40
15.0
 40
15.0
 10
93.76826440798154
 20
-151.7860839464284
 30
0.0
 10
93.71607121138001
 20
-151.8577419325217
 30
0.0
 10
93.49420706212994
 20
-152.1750352267132
 30
0.0
 10
93.44545896101363
 20
-152.2387694931903
 30
0.0
 10
93.51763371142963
 20
-152.3359211858743
 30
0.0
 10
93.56086965976951
 20
-152.3993109428029
 30
0.0
 10
93.61685246140481
 20
-152.4902614636135
 30
0.0
 10
93.61685246140481
 20
-152.4902614636135
 30
0.0
 10
93.45992836205168
 20
-152.627720773475
 30
0.0
 10
93.45992836205168
 20
-152.627720773475
 30
0.0
 10
93.34451766329582
 20
-152.4161919106806
 30
0.0
 10
93.19844561472121
 20
-152.1922607041394
 30
0.0
 10
92.9478149181693
 20
-151.993134185092
 30
0.0
 10
92.9478149181693
 20
-151.993134185092
 30
0.0
 10
93.07407766770371
 20
-151.8387939073528
 30
0.0
 10
93.07407766770371
 20
-151.8387939073528
 30
0.0
 10
93.1677842649025
 20
-151.9190646321591
 30
0.0
 10
93.25615096409917
 20
-152.0079480956786
 30
0.0
 10
93.33917776529368
 20
-152.10337724062
 30
0.0
 10
93.39688311467162
 20
-152.0272406303959
 30
0.0
 10
93.56999916280541
 20
-151.7836723795888
 30
0.0
 10
93.6835150590444
 20
-151.5552625489167
 30
0.0
 10
93.6835150590444
 20
-151.5552625489167
 30
0.0
 10
93.11007891552456
 20
-151.5552625489167
 30
0.0
 10
93.11007891552456
 20
-151.5552625489167
 30
0.0
 10
93.00362546503036
 20
-151.5552625489167
 30
0.0
 10
92.78916827107355
 20
-151.5638752876299
 30
0.0
 10
92.61054007016333
 20
-151.5742105740856
 30
0.0
 10
92.61054007016333
 20
-151.5742105740856
 30
0.0
 10
92.61054007016333
 20
-151.3544134821267
 30
0.0
 10
92.61054007016333
 20
-151.3544134821267
 30
0.0
 10
92.76746416951647
 20
-151.3733615072955
 30
0.0
 10
92.94247502016716
 20
-151.3774956218778
 30
0.0
 10
93.10284421500554
 20
-151.3774956218778
 30
0.0
 10
93.10284421500554
 20
-151.3774956218778
 30
0.0
 10
93.53210311246767
 20
-151.3774956218778
 30
0.0
 10
93.53210311246767
 20
-151.3774956218778
 30
0.0
 10
93.82062985935736
 20
-151.3774956218778
 30
0.0
 10
93.85852590969509
 20
-151.3626817112912
 30
0.0
 10
93.92880585759419
 20
-151.3227186036624
 30
0.0
 10
93.92880585759419
 20
-151.3227186036624
 30
0.0
 10
94.07126055590927
 20
-151.4811929959838
 30
0.0
 10
94.07126055590927
 20
-151.4811929959838
 30
0.0
 10
93.94138045611535
 20
-151.5531954916256
 30
0.0
 10
93.81873505684046
 20
-151.7161485080779
 30
0.0
 10
93.76826440798154
 20
-151.7860839464284
 30
0.0
  0
HATCH
  5
100
330
F2
100
AcDbEntity
  8
レイヤー 1
 62
   250
420
  2299925
440
 33554687
100
AcDbHatch
 10
0.0
 20
0.0
 30
0.0
210
0.0
220
0.0
230
1.0
  2
SOLID
 70
     1
 71
     1
 91
        1
 92
        1
 93
        1
 72
     4
 94
        3
 73
     0
 74
     0
 95
       50
 96
       46
 40
0.0
 40
0.0
 40
0.0
 40
0.0
 40
1.0
 40
1.0
 40
1.0
 40
2.0
 40
2.0
 40
2.0
 40
3.0
 40
3.0
 40
3.0
 40
4.0
 40
4.0
 40
4.0
 40
5.0
 40
5.0
 40
5.0
 40
6.0
 40
6.0
 40
6.0
 40
7.0
 40
7.0
 40
7.0
 40
8.0
 40
8.0
 40
8.0
 40
9.0
 40
9.0
 40
9.0
 40
10.0
 40
10.0
 40
10.0
 40
11.0
 40
11.0
 40
11.0
 40
12.0
 40
12.0
 40
12.0
 40
13.0
 40
13.0
 40
13.0
 40
14.0
 40
14.0
 40
14.0
 40
15.0
 40
15.0
 40
15.0
 40
15.0
 10
93.76826440798154
 20
-151.7860839464284
 10
93.71607121138001
 20
-151.8577419325217
 10
93.49420706212994
 20
-152.1750352267132
 10
93.44545896101363
 20
-152.2387694931903
 10
93.51763371142963
 20
-152.3359211858743
 10
93.56086965976951
 20
-152.3993109428029
 10
93.61685246140481
 20
-152.4902614636135
 10
93.61685246140481
 20
-152.4902614636135
 10
93.45992836205168
 20
-152.627720773475
 10
93.45992836205168
 20
-152.627720773475
 10
93.34451766329582
 20
-152.4161919106806
 10
93.19844561472121
 20
-152.1922607041394
 10
92.9478149181693
 20
-151.993134185092
 10
92.9478149181693
 20
-151.993134185092
 10
93.07407766770371
 20
-151.8387939073528
 10
93.07407766770371
 20
-151.8387939073528
 10
93.1677842649025
 20
-151.9190646321591
 10
93.25615096409917
 20
-152.0079480956786
 10
93.33917776529368
 20
-152.10337724062
 10
93.39688311467162
 20
-152.0272406303959
 10
93.56999916280541
 20
-151.7836723795888
 10
93.6835150590444
 20
-151.5552625489167
 10
93.6835150590444
 20
-151.5552625489167
 10
93.11007891552456
 20
-151.5552625489167
 10
93.11007891552456
 20
-151.5552625489167
 10
93.00362546503036
 20
-151.5552625489167
 10
92.78916827107355
 20
-151.5638752876299
 10
92.61054007016333
 20
-151.5742105740856
 10
92.61054007016333
 20
-151.5742105740856
 10
92.61054007016333
 20
-151.3544134821267
 10
92.61054007016333
 20
-151.3544134821267
 10
92.76746416951647
 20
-151.3733615072955
 10
92.94247502016716
 20
-151.3774956218778
 10
93.10284421500554
 20
-151.3774956218778
 10
93.10284421500554
 20
-151.3774956218778
 10
93.53210311246767
 20
-151.3774956218778
 10
93.53210311246767
 20
-151.3774956218778
 10
93.82062985935736
 20
-151.3774956218778
 10
93.85852590969509
 20
-151.3626817112912
 10
93.92880585759419
 20
-151.3227186036624
 10
93.92880585759419
 20
-151.3227186036624
 10
94.07126055590927
 20
-151.4811929959838
 10
94.07126055590927
 20
-151.4811929959838
 10
93.94138045611535
 20
-151.5531954916256
 10
93.81873505684046
 20
-151.7161485080779
 10
93.76826440798154
 20
-151.7860839464284
 97
        0
 97
        1
330
FF
 75
     2
 76
     1
 98
        1
 10
0.0
 20
0.0
450
        0
451
        0
460
0.0
461
0.0
452
        0
462
0.0
453
        0
470

  0
SPLINE
  5
101
330
F2
100
AcDbEntity
  8
レイヤー 1
100
AcDbSpline
210
0.0
220
0.0
230
1.0
 70
     9
 71
     3
 72
    29
 73
    25
 74
     0
 42
0.0000000001
 43
0.0000000001
 40
0.0
 40
0.0
 40
0.0
 40
0.0
 40
1.0
 40
1.0
 40
1.0
 40
2.0
 40
2.0
 40
2.0
 40
3.0
 40
3.0
 40
3.0
 40
4.0
 40
4.0
 40
4.0
 40
5.0
 40
5.0
 40
5.0
 40
6.0
 40
6.0
 40
6.0
 40
7.0
 40
7.0
 40
7.0
 40
8.0
 40
8.0
 40
8.0
 40
8.0
 10
95.15009220711526
 20
-152.0293076876871
 30
0.0
 10
95.15009220711526
 20
-152.0293076876871
 30
0.0
 10
94.73719751320805
 20
-152.0293076876871
 30
0.0
 10
94.73719751320805
 20
-152.0293076876871
 30
0.0
 10
94.71359860913411
 20
-152.0293076876871
 30
0.0
 10
94.44315861354199
 20
-152.0293076876871
 30
0.0
 10
94.26280786488916
 20
-152.0544568847294
 30
0.0
 10
94.26280786488916
 20
-152.0544568847294
 30
0.0
 10
94.26280786488916
 20
-151.8239799967662
 30
0.0
 10
94.26280786488916
 20
-151.8239799967662
 30
0.0
 10
94.39802786268522
 20
-151.8474066460659
 30
0.0
 10
94.56046411481475
 20
-151.8494737033571
 30
0.0
 10
94.73719751320805
 20
-151.8494737033571
 30
0.0
 10
94.73719751320805
 20
-151.8494737033571
 30
0.0
 10
95.15009220711526
 20
-151.8494737033571
 30
0.0
 10
95.15009220711526
 20
-151.8494737033571
 30
0.0
 10
95.30873885421101
 20
-151.8494737033571
 30
0.0
 10
95.46738550130676
 20
-151.8474066460659
 30
0.0
 10
95.6243096006599
 20
-151.8239799967662
 30
0.0
 10
95.6243096006599
 20
-151.8239799967662
 30
0.0
 10
95.6243096006599
 20
-152.0544568847294
 30
0.0
 10
95.6243096006599
 20
-152.0544568847294
 30
0.0
 10
95.46738550130676
 20
-152.0313747449782
 30
0.0
 10
95.25654565760948
 20
-152.0293076876871
 30
0.0
 10
95.15009220711526
 20
-152.0293076876871
 30
0.0
  0
HATCH
  5
102
330
F2
100
AcDbEntity
  8
レイヤー 1
 62
   250
420
  2299925
440
 33554687
100
AcDbHatch
 10
0.0
 20
0.0
 30
0.0
210
0.0
220
0.0
230
1.0
  2
SOLID
 70
     1
 71
     1
 91
        1
 92
        1
 93
        1
 72
     4
 94
        3
 73
     0
 74
     0
 95
       29
 96
       25
 40
0.0
 40
0.0
 40
0.0
 40
0.0
 40
1.0
 40
1.0
 40
1.0
 40
2.0
 40
2.0
 40
2.0
 40
3.0
 40
3.0
 40
3.0
 40
4.0
 40
4.0
 40
4.0
 40
5.0
 40
5.0
 40
5.0
 40
6.0
 40
6.0
 40
6.0
 40
7.0
 40
7.0
 40
7.0
 40
8.0
 40
8.0
 40
8.0
 40
8.0
 10
95.15009220711526
 20
-152.0293076876871
 10
95.15009220711526
 20
-152.0293076876871
 10
94.73719751320805
 20
-152.0293076876871
 10
94.73719751320805
 20
-152.0293076876871
 10
94.71359860913411
 20
-152.0293076876871
 10
94.44315861354199
 20
-152.0293076876871
 10
94.26280786488916
 20
-152.0544568847294
 10
94.26280786488916
 20
-152.0544568847294
 10
94.26280786488916
 20
-151.8239799967662
 10
94.26280786488916
 20
-151.8239799967662
 10
94.39802786268522
 20
-151.8474066460659
 10
94.56046411481475
 20
-151.8494737033571
 10
94.73719751320805
 20
-151.8494737033571
 10
94.73719751320805
 20
-151.8494737033571
 10
95.15009220711526
 20
-151.8494737033571
 10
95.15009220711526
 20
-151.8494737033571
 10
95.30873885421101
 20
-151.8494737033571
 10
95.46738550130676
 20
-151.8474066460659
 10
95.6243096006599
 20
-151.8239799967662
 10
95.6243096006599
 20
-151.8239799967662
 10
95.6243096006599
 20
-152.0544568847294
 10
95.6243096006599
 20
-152.0544568847294
 10
95.46738550130676
 20
-152.0313747449782
 10
95.25654565760948
 20
-152.0293076876871
 10
95.15009220711526
 20
-152.0293076876871
 97
        0
 97
        1
330
101
 75
     2
 76
     1
 98
        1
 10
0.0
 20
0.0
450
        0
451
        0
460
0.0
461
0.0
452
        0
462
0.0
453
        0
470

  0
SPLINE
  5
103
330
F2
100
AcDbEntity
  8
レイヤー 1
100
AcDbSpline
210
0.0
220
0.0
230
1.0
 70
     9
 71
     3
 72
    20
 73
    16
 74
     0
 42
0.0000000001
 43
0.0000000001
 40
0.0
 40
0.0
 40
0.0
 40
0.0
 40
1.0
 40
1.0
 40
1.0
 40
2.0
 40
2.0
 40
2.0
 40
3.0
 40
3.0
 40
3.0
 40
4.0
 40
4.0
 40
4.0
 40
5.0
 40
5.0
 40
5.0
 40
5.0
 10
96.68143715030881
 20
-152.3803629176341
 30
0.0
 10
96.64181855222844
 20
-152.2025959905952
 30
0.0
 10
96.55879175103393
 20
-152.0610025661514
 30
0.0
 10
96.43976370201855
 20
-151.9511040201719
 30
0.0
 10
96.43976370201855
 20
-151.9511040201719
 30
0.0
 10
96.57687850233148
 20
-151.8367268500616
 30
0.0
 10
96.57687850233148
 20
-151.8367268500616
 30
0.0
 10
96.62907169893301
 20
-151.8791015245302
 30
0.0
 10
96.66335039901126
 20
-151.9128634602856
 30
0.0
 10
96.72829044890821
 20
-152.020694948974
 30
0.0
 10
96.79684784906468
 20
-152.1371391763754
 30
0.0
 10
96.81493460036225
 20
-152.1898491372998
 30
0.0
 10
96.83646644714507
 20
-152.255650461068
 30
0.0
 10
96.83646644714507
 20
-152.255650461068
 30
0.0
 10
96.68143715030881
 20
-152.3803629176341
 30
0.0
 10
96.68143715030881
 20
-152.3803629176341
 30
0.0
  0
SPLINE
  5
104
330
F2
100
AcDbEntity
  8
レイヤー 1
100
AcDbSpline
210
0.0
220
0.0
230
1.0
 70
     9
 71
     3
 72
    77
 73
    73
 74
     0
 42
0.0000000001
 43
0.0000000001
 40
0.0
 40
0.0
 40
0.0
 40
0.0
 40
1.0
 40
1.0
 40
1.0
 40
2.0
 40
2.0
 40
2.0
 40
3.0
 40
3.0
 40
3.0
 40
4.0
 40
4.0
 40
4.0
 40
5.0
 40
5.0
 40
5.0
 40
6.0
 40
6.0
 40
6.0
 40
7.0
 40
7.0
 40
7.0
 40
8.0
 40
8.0
 40
8.0
 40
9.0
 40
9.0
 40
9.0
 40
10.0
 40
10.0
 40
10.0
 40
11.0
 40
11.0
 40
11.0
 40
12.0
 40
12.0
 40
12.0
 40
13.0
 40
13.0
 40
13.0
 40
14.0
 40
14.0
 40
14.0
 40
15.0
 40
15.0
 40
15.0
 40
16.0
 40
16.0
 40
16.0
 40
17.0
 40
17.0
 40
17.0
 40
18.0
 40
18.0
 40
18.0
 40
19.0
 40
19.0
 40
19.0
 40
20.0
 40
20.0
 40
20.0
 40
21.0
 40
21.0
 40
21.0
 40
22.0
 40
22.0
 40
22.0
 40
23.0
 40
23.0
 40
23.0
 40
24.0
 40
24.0
 40
24.0
 40
24.0
 10
97.33790009502317
 20
-151.6548258084404
 30
0.0
 10
97.27829994312834
 20
-151.6506916938581
 30
0.0
 10
97.2205945937504
 20
-151.6506916938581
 30
0.0
 10
97.16288924437249
 20
-151.6506916938581
 30
0.0
 10
97.16288924437249
 20
-151.6506916938581
 30
0.0
 10
97.16288924437249
 20
-152.4248046493938
 30
0.0
 10
97.16288924437249
 20
-152.4248046493938
 30
0.0
 10
97.16288924437249
 20
-152.6890434731124
 30
0.0
 10
97.16116669662985
 20
-152.7186712942856
 30
0.0
 10
97.15565454385346
 20
-152.7482991154587
 30
0.0
 10
97.12688799655161
 20
-152.8816243107379
 30
0.0
 10
97.04024384509757
 20
-152.890237049451
 30
0.0
 10
96.89055444626347
 20
-152.890237049451
 30
0.0
 10
96.85627574618525
 20
-152.890237049451
 30
0.0
 10
96.84197859992146
 20
-152.890237049451
 30
0.0
 10
96.80769989984321
 20
-152.8857584253202
 30
0.0
 10
96.80769989984321
 20
-152.8857584253202
 30
0.0
 10
96.70124644934901
 20
-152.6446017413527
 30
0.0
 10
96.70124644934901
 20
-152.6446017413527
 30
0.0
 10
96.80046519932419
 20
-152.676296619817
 30
0.0
 10
96.87074514722329
 20
-152.676296619817
 30
0.0
 10
96.89055444626347
 20
-152.676296619817
 30
0.0
 10
96.95015459815829
 20
-152.676296619817
 30
0.0
 10
96.97892114546014
 20
-152.6594156519393
 30
0.0
 10
96.98253849571965
 20
-152.6025715764327
 30
0.0
 10
96.98253849571965
 20
-152.5898247231372
 30
0.0
 10
96.98443329823653
 20
-152.4923285209047
 30
0.0
 10
96.98443329823653
 20
-152.4351399358495
 30
0.0
 10
96.98443329823653
 20
-152.4351399358495
 30
0.0
 10
96.98443329823653
 20
-151.6482801270185
 30
0.0
 10
96.98443329823653
 20
-151.6482801270185
 30
0.0
 10
96.98443329823653
 20
-151.6482801270185
 30
0.0
 10
96.73380260168462
 20
-151.6482801270185
 30
0.0
 10
96.73380260168462
 20
-151.6482801270185
 30
0.0
 10
96.60926239989283
 20
-151.6482801270185
 30
0.0
 10
96.4848944528753
 20
-151.6548258084404
 30
0.0
 10
96.36224905360041
 20
-151.6675726617359
 30
0.0
 10
96.36224905360041
 20
-151.6675726617359
 30
0.0
 10
96.36224905360041
 20
-151.4601779135238
 30
0.0
 10
96.36224905360041
 20
-151.4601779135238
 30
0.0
 10
96.49023435087745
 20
-151.4729247668193
 30
0.0
 10
96.67609725230668
 20
-151.4770588814015
 30
0.0
 10
96.73380260168462
 20
-151.4770588814015
 30
0.0
 10
96.73380260168462
 20
-151.4770588814015
 30
0.0
 10
96.98443329823653
 20
-151.4770588814015
 30
0.0
 10
96.98443329823653
 20
-151.4770588814015
 30
0.0
 10
96.98253849571965
 20
-151.2083414335521
 30
0.0
 10
96.98253849571965
 20
-151.1322048233281
 30
0.0
 10
96.97530379520062
 20
-150.9840657174623
 30
0.0
 10
96.97530379520062
 20
-150.9840657174623
 30
0.0
 10
97.19544539670808
 20
-151.0223062773486
 30
0.0
 10
97.19544539670808
 20
-151.0223062773486
 30
0.0
 10
97.20801999522926
 20
-151.0243733346397
 30
0.0
 10
97.2205945937504
 20
-151.0305745065132
 30
0.0
 10
97.2205945937504
 20
-151.0519340985217
 30
0.0
 10
97.2205945937504
 20
-151.0708821236906
 30
0.0
 10
97.21525469574828
 20
-151.0729491809818
 30
0.0
 10
97.16650659463198
 20
-151.1067111167372
 30
0.0
 10
97.16288924437249
 20
-151.1852592938009
 30
0.0
 10
97.16288924437249
 20
-151.2000732043875
 30
0.0
 10
97.16288924437249
 20
-151.4770588814015
 30
0.0
 10
97.31430119094921
 20
-151.4729247668193
 30
0.0
 10
97.33066539450414
 20
-151.4729247668193
 30
0.0
 10
97.35943194180599
 20
-151.4684461426884
 30
0.0
 10
97.40266789014587
 20
-151.4643120281061
 30
0.0
 10
97.40628524040538
 20
-151.462244970815
 30
0.0
 10
97.44418129074313
 20
-151.4601779135238
 30
0.0
 10
97.44418129074313
 20
-151.4601779135238
 30
0.0
 10
97.44418129074313
 20
-151.6675726617359
 30
0.0
 10
97.44418129074313
 20
-151.6675726617359
 30
0.0
 10
97.41903209370081
 20
-151.6655056044447
 30
0.0
 10
97.3721787951014
 20
-151.6568928657316
 30
0.0
 10
97.33790009502317
 20
-151.6548258084404
 30
0.0
  0
SPLINE
  5
105
330
F2
100
AcDbEntity
  8
レイヤー 1
100
AcDbSpline
210
0.0
220
0.0
230
1.0
 70
     9
 71
     3
 72
    53
 73
    49
 74
     0
 42
0.0000000001
 43
0.0000000001
 40
0.0
 40
0.0
 40
0.0
 40
0.0
 40
1.0
 40
1.0
 40
1.0
 40
2.0
 40
2.0
 40
2.0
 40
3.0
 40
3.0
 40
3.0
 40
4.0
 40
4.0
 40
4.0
 40
5.0
 40
5.0
 40
5.0
 40
6.0
 40
6.0
 40
6.0
 40
7.0
 40
7.0
 40
7.0
 40
8.0
 40
8.0
 40
8.0
 40
9.0
 40
9.0
 40
9.0
 40
10.0
 40
10.0
 40
10.0
 40
11.0
 40
11.0
 40
11.0
 40
12.0
 40
12.0
 40
12.0
 40
13.0
 40
13.0
 40
13.0
 40
14.0
 40
14.0
 40
14.0
 40
15.0
 40
15.0
 40
15.0
 40
16.0
 40
16.0
 40
16.0
 40
16.0
 10
96.35690915559827
 20
-151.1556314726277
 30
0.0
 10
96.29920380622035
 20
-151.3079046930758
 30
0.0
 10
96.26303030362521
 20
-151.386108360591
 30
0.0
 10
96.23064640606386
 20
-151.4536322321019
 30
0.0
 10
96.26664765388474
 20
-151.4749918241104
 30
0.0
 10
96.27026500414425
 20
-151.4770588814015
 30
0.0
 10
96.27026500414425
 20
-151.4918727919881
 30
0.0
 10
96.27026500414425
 20
-151.5046196452836
 30
0.0
 10
96.24149845684241
 20
-151.538381581039
 30
0.0
 10
96.23236895380649
 20
-151.5469943197521
 30
0.0
 10
96.23064640606386
 20
-151.7437092719599
 30
0.0
 10
96.23064640606386
 20
-151.7647243544199
 30
0.0
 10
96.23064640606386
 20
-151.8980495496991
 30
0.0
 10
96.22875160354698
 20
-151.9107964029945
 30
0.0
 10
96.22875160354698
 20
-151.9256103135811
 30
0.0
 10
96.22875160354698
 20
-151.9404242241677
 30
0.0
 10
96.22875160354698
 20
-151.9404242241677
 30
0.0
 10
96.22875160354698
 20
-152.4754475530269
 30
0.0
 10
96.22875160354698
 20
-152.4754475530269
 30
0.0
 10
96.22875160354698
 20
-152.5474500486687
 30
0.0
 10
96.23236895380649
 20
-152.7824055607627
 30
0.0
 10
96.23960365432552
 20
-152.8923041067422
 30
0.0
 10
96.23960365432552
 20
-152.8923041067422
 30
0.0
 10
96.03220890611348
 20
-152.8923041067422
 30
0.0
 10
96.03220890611348
 20
-152.8923041067422
 30
0.0
 10
96.05201820515368
 20
-152.7334852048721
 30
0.0
 10
96.05753035793007
 20
-152.4923285209047
 30
0.0
 10
96.05753035793007
 20
-152.4713134384446
 30
0.0
 10
96.05753035793007
 20
-152.4713134384446
 30
0.0
 10
96.05753035793007
 20
-151.7540445584157
 30
0.0
 10
96.05753035793007
 20
-151.7540445584157
 30
0.0
 10
95.98001570951195
 20
-151.8684217285259
 30
0.0
 10
95.92765025813616
 20
-151.9276773708722
 30
0.0
 10
95.89164901031528
 20
-151.9700520453408
 30
0.0
 10
95.89164901031528
 20
-151.9700520453408
 30
0.0
 10
95.72921275818575
 20
-151.8325927354793
 30
0.0
 10
95.72921275818575
 20
-151.8325927354793
 30
0.0
 10
95.9691636587334
 20
-151.6165852485542
 30
0.0
 10
96.13315020383131
 20
-151.3079046930758
 30
0.0
 10
96.22875160354698
 20
-150.9713188641669
 30
0.0
 10
96.22875160354698
 20
-150.9713188641669
 30
0.0
 10
96.41633705271884
 20
-151.0856960342772
 30
0.0
 10
96.41633705271884
 20
-151.0856960342772
 30
0.0
 10
96.42718910349737
 20
-151.0918972061506
 30
0.0
 10
96.43442380401641
 20
-151.0963758302814
 30
0.0
 10
96.43442380401641
 20
-151.111189740868
 30
0.0
 10
96.43442380401641
 20
-151.1363389379104
 30
0.0
 10
96.41995440297835
 20
-151.1408175620412
 30
0.0
 10
96.35690915559827
 20
-151.1556314726277
 30
0.0
  0
HATCH
  5
106
330
F2
100
AcDbEntity
  8
レイヤー 1
 62
   250
420
  2299925
440
 33554687
100
AcDbHatch
 10
0.0
 20
0.0
 30
0.0
210
0.0
220
0.0
230
1.0
  2
SOLID
 70
     1
 71
     1
 91
        3
 92
        1
 93
        1
 72
     4
 94
        3
 73
     0
 74
     0
 95
       20
 96
       16
 40
0.0
 40
0.0
 40
0.0
 40
0.0
 40
1.0
 40
1.0
 40
1.0
 40
2.0
 40
2.0
 40
2.0
 40
3.0
 40
3.0
 40
3.0
 40
4.0
 40
4.0
 40
4.0
 40
5.0
 40
5.0
 40
5.0
 40
5.0
 10
96.68143715030881
 20
-152.3803629176341
 10
96.64181855222844
 20
-152.2025959905952
 10
96.55879175103393
 20
-152.0610025661514
 10
96.43976370201855
 20
-151.9511040201719
 10
96.43976370201855
 20
-151.9511040201719
 10
96.57687850233148
 20
-151.8367268500616
 10
96.57687850233148
 20
-151.8367268500616
 10
96.62907169893301
 20
-151.8791015245302
 10
96.66335039901126
 20
-151.9128634602856
 10
96.72829044890821
 20
-152.020694948974
 10
96.79684784906468
 20
-152.1371391763754
 10
96.81493460036225
 20
-152.1898491372998
 10
96.83646644714507
 20
-152.255650461068
 10
96.83646644714507
 20
-152.255650461068
 10
96.68143715030881
 20
-152.3803629176341
 10
96.68143715030881
 20
-152.3803629176341
 97
        0
 97
        1
330
103
 92
        1
 93
        1
 72
     4
 94
        3
 73
     0
 74
     0
 95
       77
 96
       73
 40
0.0
 40
0.0
 40
0.0
 40
0.0
 40
1.0
 40
1.0
 40
1.0
 40
2.0
 40
2.0
 40
2.0
 40
3.0
 40
3.0
 40
3.0
 40
4.0
 40
4.0
 40
4.0
 40
5.0
 40
5.0
 40
5.0
 40
6.0
 40
6.0
 40
6.0
 40
7.0
 40
7.0
 40
7.0
 40
8.0
 40
8.0
 40
8.0
 40
9.0
 40
9.0
 40
9.0
 40
10.0
 40
10.0
 40
10.0
 40
11.0
 40
11.0
 40
11.0
 40
12.0
 40
12.0
 40
12.0
 40
13.0
 40
13.0
 40
13.0
 40
14.0
 40
14.0
 40
14.0
 40
15.0
 40
15.0
 40
15.0
 40
16.0
 40
16.0
 40
16.0
 40
17.0
 40
17.0
 40
17.0
 40
18.0
 40
18.0
 40
18.0
 40
19.0
 40
19.0
 40
19.0
 40
20.0
 40
20.0
 40
20.0
 40
21.0
 40
21.0
 40
21.0
 40
22.0
 40
22.0
 40
22.0
 40
23.0
 40
23.0
 40
23.0
 40
24.0
 40
24.0
 40
24.0
 40
24.0
 10
97.33790009502317
 20
-151.6548258084404
 10
97.27829994312834
 20
-151.6506916938581
 10
97.2205945937504
 20
-151.6506916938581
 10
97.16288924437249
 20
-151.6506916938581
 10
97.16288924437249
 20
-151.6506916938581
 10
97.16288924437249
 20
-152.4248046493938
 10
97.16288924437249
 20
-152.4248046493938
 10
97.16288924437249
 20
-152.6890434731124
 10
97.16116669662985
 20
-152.7186712942856
 10
97.15565454385346
 20
-152.7482991154587
 10
97.12688799655161
 20
-152.8816243107379
 10
97.04024384509757
 20
-152.890237049451
 10
96.89055444626347
 20
-152.890237049451
 10
96.85627574618525
 20
-152.890237049451
 10
96.84197859992146
 20
-152.890237049451
 10
96.80769989984321
 20
-152.8857584253202
 10
96.80769989984321
 20
-152.8857584253202
 10
96.70124644934901
 20
-152.6446017413527
 10
96.70124644934901
 20
-152.6446017413527
 10
96.80046519932419
 20
-152.676296619817
 10
96.87074514722329
 20
-152.676296619817
 10
96.89055444626347
 20
-152.676296619817
 10
96.95015459815829
 20
-152.676296619817
 10
96.97892114546014
 20
-152.6594156519393
 10
96.98253849571965
 20
-152.6025715764327
 10
96.98253849571965
 20
-152.5898247231372
 10
96.98443329823653
 20
-152.4923285209047
 10
96.98443329823653
 20
-152.4351399358495
 10
96.98443329823653
 20
-152.4351399358495
 10
96.98443329823653
 20
-151.6482801270185
 10
96.98443329823653
 20
-151.6482801270185
 10
96.98443329823653
 20
-151.6482801270185
 10
96.73380260168462
 20
-151.6482801270185
 10
96.73380260168462
 20
-151.6482801270185
 10
96.60926239989283
 20
-151.6482801270185
 10
96.4848944528753
 20
-151.6548258084404
 10
96.36224905360041
 20
-151.6675726617359
 10
96.36224905360041
 20
-151.6675726617359
 10
96.36224905360041
 20
-151.4601779135238
 10
96.36224905360041
 20
-151.4601779135238
 10
96.49023435087745
 20
-151.4729247668193
 10
96.67609725230668
 20
-151.4770588814015
 10
96.73380260168462
 20
-151.4770588814015
 10
96.73380260168462
 20
-151.4770588814015
 10
96.98443329823653
 20
-151.4770588814015
 10
96.98443329823653
 20
-151.4770588814015
 10
96.98253849571965
 20
-151.2083414335521
 10
96.98253849571965
 20
-151.1322048233281
 10
96.97530379520062
 20
-150.9840657174623
 10
96.97530379520062
 20
-150.9840657174623
 10
97.19544539670808
 20
-151.0223062773486
 10
97.19544539670808
 20
-151.0223062773486
 10
97.20801999522926
 20
-151.0243733346397
 10
97.2205945937504
 20
-151.0305745065132
 10
97.2205945937504
 20
-151.0519340985217
 10
97.2205945937504
 20
-151.0708821236906
 10
97.21525469574828
 20
-151.0729491809818
 10
97.16650659463198
 20
-151.1067111167372
 10
97.16288924437249
 20
-151.1852592938009
 10
97.16288924437249
 20
-151.2000732043875
 10
97.16288924437249
 20
-151.4770588814015
 10
97.31430119094921
 20
-151.4729247668193
 10
97.33066539450414
 20
-151.4729247668193
 10
97.35943194180599
 20
-151.4684461426884
 10
97.40266789014587
 20
-151.4643120281061
 10
97.40628524040538
 20
-151.462244970815
 10
97.44418129074313
 20
-151.4601779135238
 10
97.44418129074313
 20
-151.4601779135238
 10
97.44418129074313
 20
-151.6675726617359
 10
97.44418129074313
 20
-151.6675726617359
 10
97.41903209370081
 20
-151.6655056044447
 10
97.3721787951014
 20
-151.6568928657316
 10
97.33790009502317
 20
-151.6548258084404
 97
        0
 97
        1
330
104
 92
        1
 93
        1
 72
     4
 94
        3
 73
     0
 74
     0
 95
       53
 96
       49
 40
0.0
 40
0.0
 40
0.0
 40
0.0
 40
1.0
 40
1.0
 40
1.0
 40
2.0
 40
2.0
 40
2.0
 40
3.0
 40
3.0
 40
3.0
 40
4.0
 40
4.0
 40
4.0
 40
5.0
 40
5.0
 40
5.0
 40
6.0
 40
6.0
 40
6.0
 40
7.0
 40
7.0
 40
7.0
 40
8.0
 40
8.0
 40
8.0
 40
9.0
 40
9.0
 40
9.0
 40
10.0
 40
10.0
 40
10.0
 40
11.0
 40
11.0
 40
11.0
 40
12.0
 40
12.0
 40
12.0
 40
13.0
 40
13.0
 40
13.0
 40
14.0
 40
14.0
 40
14.0
 40
15.0
 40
15.0
 40
15.0
 40
16.0
 40
16.0
 40
16.0
 40
16.0
 10
96.35690915559827
 20
-151.1556314726277
 10
96.29920380622035
 20
-151.3079046930758
 10
96.26303030362521
 20
-151.386108360591
 10
96.23064640606386
 20
-151.4536322321019
 10
96.26664765388474
 20
-151.4749918241104
 10
96.27026500414425
 20
-151.4770588814015
 10
96.27026500414425
 20
-151.4918727919881
 10
96.27026500414425
 20
-151.5046196452836
 10
96.24149845684241
 20
-151.538381581039
 10
96.23236895380649
 20
-151.5469943197521
 10
96.23064640606386
 20
-151.7437092719599
 10
96.23064640606386
 20
-151.7647243544199
 10
96.23064640606386
 20
-151.8980495496991
 10
96.22875160354698
 20
-151.9107964029945
 10
96.22875160354698
 20
-151.9256103135811
 10
96.22875160354698
 20
-151.9404242241677
 10
96.22875160354698
 20
-151.9404242241677
 10
96.22875160354698
 20
-152.4754475530269
 10
96.22875160354698
 20
-152.4754475530269
 10
96.22875160354698
 20
-152.5474500486687
 10
96.23236895380649
 20
-152.7824055607627
 10
96.23960365432552
 20
-152.8923041067422
 10
96.23960365432552
 20
-152.8923041067422
 10
96.03220890611348
 20
-152.8923041067422
 10
96.03220890611348
 20
-152.8923041067422
 10
96.05201820515368
 20
-152.7334852048721
 10
96.05753035793007
 20
-152.4923285209047
 10
96.05753035793007
 20
-152.4713134384446
 10
96.05753035793007
 20
-152.4713134384446
 10
96.05753035793007
 20
-151.7540445584157
 10
96.05753035793007
 20
-151.7540445584157
 10
95.98001570951195
 20
-151.8684217285259
 10
95.92765025813616
 20
-151.9276773708722
 10
95.89164901031528
 20
-151.9700520453408
 10
95.89164901031528
 20
-151.9700520453408
 10
95.72921275818575
 20
-151.8325927354793
 10
95.72921275818575
 20
-151.8325927354793
 10
95.9691636587334
 20
-151.6165852485542
 10
96.13315020383131
 20
-151.3079046930758
 10
96.22875160354698
 20
-150.9713188641669
 10
96.22875160354698
 20
-150.9713188641669
 10
96.41633705271884
 20
-151.0856960342772
 10
96.41633705271884
 20
-151.0856960342772
 10
96.42718910349737
 20
-151.0918972061506
 10
96.43442380401641
 20
-151.0963758302814
 10
96.43442380401641
 20
-151.111189740868
 10
96.43442380401641
 20
-151.1363389379104
 10
96.41995440297835
 20
-151.1408175620412
 10
96.35690915559827
 20
-151.1556314726277
 97
        0
 97
        1
330
105
 75
     2
 76
     1
 98
        1
 10
0.0
 20
0.0
450
        0
451
        0
460
0.0
461
0.0
452
        0
462
0.0
453
        0
470

  0
ENDBLK
  5
F5
330
F2
100
AcDbEntity
  8
0
100
AcDbBlockEnd
  0
ENDSEC
  0
SECTION
  2
ENTITIES
  0
INSERT
  5
7A
330
70
100
AcDbEntity
  8
レイヤー 1
100
AcDbBlockReference
  2
Block_0
 10
0.0
 20
0.0
 30
0.0
  0
SPLINE
  5
85
330
70
100
AcDbEntity
  8
レイヤー 1
 62
    18
420
        0
370
     9
100
AcDbSpline
210
0.0
220
0.0
230
1.0
 70
     9
 71
     3
 72
    17
 73
    13
 74
     0
 42
0.0000000001
 43
0.0000000001
 40
0.0
 40
0.0
 40
0.0
 40
0.0
 40
1.0
 40
1.0
 40
1.0
 40
2.0
 40
2.0
 40
2.0
 40
3.0
 40
3.0
 40
3.0
 40
4.0
 40
4.0
 40
4.0
 40
4.0
 10
120.2550475394763
 20
-145.5677917181033
 30
0.0
 10
120.2550475394763
 20
-145.5126878306202
 30
0.0
 10
120.2102800406184
 20
-145.4678850539854
 30
0.0
 10
120.1548233753665
 20
-145.4678850539854
 30
0.0
 10
120.0996842101066
 20
-145.4678850539854
 30
0.0
 10
120.0548814334718
 20
-145.5126878306202
 30
0.0
 10
120.0548814334718
 20
-145.5677917181033
 30
0.0
 10
120.0548814334718
 20
-145.6232483833551
 30
0.0
 10
120.0996842101066
 20
-145.6680511599899
 30
0.0
 10
120.1548233753665
 20
-145.6680511599899
 30
0.0
 10
120.2102800406184
 20
-145.6680511599899
 30
0.0
 10
120.2550475394763
 20
-145.6232483833551
 30
0.0
 10
120.2550475394763
 20
-145.5677917181033
 30
0.0
  0
SPLINE
  5
86
330
70
100
AcDbEntity
  8
レイヤー 1
 62
    18
420
        0
370
     9
100
AcDbSpline
210
0.0
220
0.0
230
1.0
 70
     9
 71
     3
 72
    17
 73
    13
 74
     0
 42
0.0000000001
 43
0.0000000001
 40
0.0
 40
0.0
 40
0.0
 40
0.0
 40
1.0
 40
1.0
 40
1.0
 40
2.0
 40
2.0
 40
2.0
 40
3.0
 40
3.0
 40
3.0
 40
4.0
 40
4.0
 40
4.0
 40
4.0
 10
120.2550475394763
 20
-151.5681182316889
 30
0.0
 10
120.2550475394763
 20
-151.512661566437
 30
0.0
 10
120.2102800406184
 20
-151.4678587898023
 30
0.0
 10
120.1548233753665
 20
-151.4678587898023
 30
0.0
 10
120.0996842101066
 20
-151.4678587898023
 30
0.0
 10
120.0548814334718
 20
-151.512661566437
 30
0.0
 10
120.0548814334718
 20
-151.5681182316889
 30
0.0
 10
120.0548814334718
 20
-151.6232573969488
 30
0.0
 10
120.0996842101066
 20
-151.6680248958067
 30
0.0
 10
120.1548233753665
 20
-151.6680248958067
 30
0.0
 10
120.2102800406184
 20
-151.6680248958067
 30
0.0
 10
120.2550475394763
 20
-151.6232573969488
 30
0.0
 10
120.2550475394763
 20
-151.5681182316889
 30
0.0
  0
SPLINE
  5
87
330
70
100
AcDbEntity
  8
レイヤー 1
 62
    18
420
        0
370
     9
100
AcDbSpline
210
0.0
220
0.0
230
1.0
 70
     9
 71
     3
 72
    17
 73
    13
 74
     0
 42
0.0000000001
 43
0.0000000001
 40
0.0
 40
0.0
 40
0.0
 40
0.0
 40
1.0
 40
1.0
 40
1.0
 40
2.0
 40
2.0
 40
2.0
 40
3.0
 40
3.0
 40
3.0
 40
4.0
 40
4.0
 40
4.0
 40
4.0
 10
120.2550475394763
 20
-151.968097665929
 30
0.0
 10
120.2550475394763
 20
-151.9126410006771
 30
0.0
 10
120.2102800406184
 20
-151.8678382240423
 30
0.0
 10
120.1548233753665
 20
-151.8678382240423
 30
0.0
 10
120.0996842101066
 20
-151.8678382240423
 30
0.0
 10
120.0548814334718
 20
-151.9126410006771
 30
0.0
 10
120.0548814334718
 20
-151.968097665929
 30
0.0
 10
120.0548814334718
 20
-152.0232368311889
 30
0.0
 10
120.0996842101066
 20
-152.0680043300468
 30
0.0
 10
120.1548233753665
 20
-152.0680043300468
 30
0.0
 10
120.2102800406184
 20
-152.0680043300468
 30
0.0
 10
120.2550475394763
 20
-152.0232368311889
 30
0.0
 10
120.2550475394763
 20
-151.968097665929
 30
0.0
  0
SPLINE
  5
88
330
70
100
AcDbEntity
  8
レイヤー 1
 62
    18
420
        0
370
     9
100
AcDbSpline
210
0.0
220
0.0
230
1.0
 70
     9
 71
     3
 72
    17
 73
    13
 74
     0
 42
0.0000000001
 43
0.0000000001
 40
0.0
 40
0.0
 40
0.0
 40
0.0
 40
1.0
 40
1.0
 40
1.0
 40
2.0
 40
2.0
 40
2.0
 40
3.0
 40
3.0
 40
3.0
 40
4.0
 40
4.0
 40
4.0
 40
4.0
 10
116.25497097486
 20
-156.6679089349157
 30
0.0
 10
116.25497097486
 20
-156.6127697696557
 30
0.0
 10
116.2101681982253
 20
-156.5680022707979
 30
0.0
 10
116.1550643107422
 20
-156.5680022707979
 30
0.0
 10
116.0995723677135
 20
-156.5680022707979
 30
0.0
 10
116.0548060216564
 20
-156.6127697696557
 30
0.0
 10
116.0548060216564
 20
-156.6679089349157
 30
0.0
 10
116.0548060216564
 20
-156.7230128223988
 30
0.0
 10
116.0995723677135
 20
-156.7678155990335
 30
0.0
 10
116.1550643107422
 20
-156.7678155990335
 30
0.0
 10
116.2101681982253
 20
-156.7678155990335
 30
0.0
 10
116.25497097486
 20
-156.7230128223988
 30
0.0
 10
116.25497097486
 20
-156.6679089349157
 30
0.0
  0
SPLINE
  5
89
330
70
100
AcDbEntity
  8
レイヤー 1
 62
    18
420
        0
370
     9
100
AcDbSpline
210
0.0
220
0.0
230
1.0
 70
     9
 71
     3
 72
    17
 73
    13
 74
     0
 42
0.0000000001
 43
0.0000000001
 40
0.0
 40
0.0
 40
0.0
 40
0.0
 40
1.0
 40
1.0
 40
1.0
 40
2.0
 40
2.0
 40
2.0
 40
3.0
 40
3.0
 40
3.0
 40
4.0
 40
4.0
 40
4.0
 40
4.0
 10
91.25526908341198
 20
-156.6679089349157
 30
0.0
 10
91.25526908341198
 20
-156.6127697696557
 30
0.0
 10
91.2105015834231
 20
-156.5680022707979
 30
0.0
 10
91.15536241677034
 20
-156.5680022707979
 30
0.0
 10
91.09990575011734
 20
-156.5680022707979
 30
0.0
 10
91.05510297235094
 20
-156.6127697696557
 30
0.0
 10
91.05510297235094
 20
-156.6679089349157
 30
0.0
 10
91.05510297235094
 20
-156.7230128223988
 30
0.0
 10
91.09990575011734
 20
-156.7678155990335
 30
0.0
 10
91.15536241677034
 20
-156.7678155990335
 30
0.0
 10
91.2105015834231
 20
-156.7678155990335
 30
0.0
 10
91.25526908341198
 20
-156.7230128223988
 30
0.0
 10
91.25526908341198
 20
-156.6679089349157
 30
0.0
  0
SPLINE
  5
8A
330
70
100
AcDbEntity
  8
レイヤー 1
 62
    18
420
        0
370
     9
100
AcDbSpline
210
0.0
220
0.0
230
1.0
 70
     9
 71
     3
 72
    17
 73
    13
 74
     0
 42
0.0000000001
 43
0.0000000001
 40
0.0
 40
0.0
 40
0.0
 40
0.0
 40
1.0
 40
1.0
 40
1.0
 40
2.0
 40
2.0
 40
2.0
 40
3.0
 40
3.0
 40
3.0
 40
4.0
 40
4.0
 40
4.0
 40
4.0
 10
89.01908130619341
 20
-145.5677917181033
 30
0.0
 10
89.01908130619341
 20
-145.5126878306202
 30
0.0
 10
88.97427852842669
 20
-145.4678850539854
 30
0.0
 10
88.91882186177401
 20
-145.4678850539854
 30
0.0
 10
88.86368269512061
 20
-145.4678850539854
 30
0.0
 10
88.81891519513205
 20
-145.5126878306202
 30
0.0
 10
88.81891519513205
 20
-145.5677917181033
 30
0.0
 10
88.81891519513205
 20
-145.6232483833551
 30
0.0
 10
88.86368269512061
 20
-145.6680511599899
 30
0.0
 10
88.91882186177401
 20
-145.6680511599899
 30
0.0
 10
88.97427852842669
 20
-145.6680511599899
 30
0.0
 10
89.01908130619341
 20
-145.6232483833551
 30
0.0
 10
89.01908130619341
 20
-145.5677917181033
 30
0.0
  0
SPLINE
  5
8B
330
70
100
AcDbEntity
  8
レイヤー 1
 62
    18
420
        0
370
     9
100
AcDbSpline
210
0.0
220
0.0
230
1.0
 70
     9
 71
     3
 72
    17
 73
    13
 74
     0
 42
0.0000000001
 43
0.0000000001
 40
0.0
 40
0.0
 40
0.0
 40
0.0
 40
1.0
 40
1.0
 40
1.0
 40
2.0
 40
2.0
 40
2.0
 40
3.0
 40
3.0
 40
3.0
 40
4.0
 40
4.0
 40
4.0
 40
4.0
 10
89.01908130619341
 20
-146.6678233567058
 30
0.0
 10
89.01908130619341
 20
-146.6126841914459
 30
0.0
 10
88.97427852842669
 20
-146.5679166925879
 30
0.0
 10
88.91882186177401
 20
-146.5679166925879
 30
0.0
 10
88.86368269512061
 20
-146.5679166925879
 30
0.0
 10
88.81891519513205
 20
-146.6126841914459
 30
0.0
 10
88.81891519513205
 20
-146.6678233567058
 30
0.0
 10
88.81891519513205
 20
-146.7232800219576
 30
0.0
 10
88.86368269512061
 20
-146.7680827985927
 30
0.0
 10
88.91882186177401
 20
-146.7680827985927
 30
0.0
 10
88.97427852842669
 20
-146.7680827985927
 30
0.0
 10
89.01908130619341
 20
-146.7232800219576
 30
0.0
 10
89.01908130619341
 20
-146.6678233567058
 30
0.0
  0
SPLINE
  5
8C
330
70
100
AcDbEntity
  8
レイヤー 1
 62
    18
420
        0
370
     9
100
AcDbSpline
210
0.0
220
0.0
230
1.0
 70
     9
 71
     3
 72
    17
 73
    13
 74
     0
 42
0.0000000001
 43
0.0000000001
 40
0.0
 40
0.0
 40
0.0
 40
0.0
 40
1.0
 40
1.0
 40
1.0
 40
2.0
 40
2.0
 40
2.0
 40
3.0
 40
3.0
 40
3.0
 40
4.0
 40
4.0
 40
4.0
 40
4.0
 10
99.25514019252318
 20
-156.6679089349157
 30
0.0
 10
99.25514019252318
 20
-156.6127697696557
 30
0.0
 10
99.21033741475646
 20
-156.5680022707979
 30
0.0
 10
99.15488074810379
 20
-156.5680022707979
 30
0.0
 10
99.09977685922855
 20
-156.5680022707979
 30
0.0
 10
99.05497408146215
 20
-156.6127697696557
 30
0.0
 10
99.05497408146215
 20
-156.6679089349157
 30
0.0
 10
99.05497408146215
 20
-156.7230128223988
 30
0.0
 10
99.09977685922855
 20
-156.7678155990335
 30
0.0
 10
99.15488074810379
 20
-156.7678155990335
 30
0.0
 10
99.21033741475646
 20
-156.7678155990335
 30
0.0
 10
99.25514019252318
 20
-156.7230128223988
 30
0.0
 10
99.25514019252318
 20
-156.6679089349157
 30
0.0
  0
LINE
  5
8D
330
70
100
AcDbEntity
  8
レイヤー 1
 62
    18
420
        0
370
     9
100
AcDbLine
 10
99.15488074810379
 20
-156.6679089349157
 30
0.0
 11
116.1550643107422
 21
-156.6679089349157
 31
0.0
  0
LINE
  5
8E
330
70
100
AcDbEntity
  8
レイヤー 1
 62
    18
420
        0
370
     9
100
AcDbLine
 10
116.1550643107422
 20
-154.5078153789132
 30
0.0
 11
116.1550643107422
 21
-157.6679986316235
 31
0.0
  0
INSERT
  5
90
330
70
100
AcDbEntity
  8
レイヤー 1
100
AcDbBlockReference
  2
Block_1
 10
0.0
 20
0.0
 30
0.0
  0
LINE
  5
9B
330
70
100
AcDbEntity
  8
レイヤー 1
 62
    18
420
        0
370
     9
100
AcDbLine
 10
120.1548233753665
 20
-151.5681182316889
 30
0.0
 11
120.1548233753665
 21
-145.5677917181033
 31
0.0
  0
LINE
  5
9C
330
70
100
AcDbEntity
  8
レイヤー 1
 62
    18
420
        0
370
     9
100
AcDbLine
 10
102.794982969416
 20
-145.5677917181033
 30
0.0
 11
121.1549143537148
 21
-145.5677917181033
 31
0.0
  0
INSERT
  5
9E
330
70
100
AcDbEntity
  8
レイヤー 1
100
AcDbBlockReference
  2
Block_3
 10
0.0
 20
0.0
 30
0.0
  0
LINE
  5
A4
330
70
100
AcDbEntity
  8
レイヤー 1
 62
    18
420
        0
370
     9
100
AcDbLine
 10
88.91882186177401
 20
-145.5677917181033
 30
0.0
 11
88.91882186177401
 21
-144.5680195213873
 31
0.0
  0
LINE
  5
A5
330
70
100
AcDbEntity
  8
レイヤー 1
 62
    18
420
        0
370
     9
100
AcDbLine
 10
88.91882186177401
 20
-145.5677917181033
 30
0.0
 11
88.91882186177401
 21
-147.6679130534136
 31
0.0
  0
LINE
  5
A6
330
70
100
AcDbEntity
  8
レイヤー 1
 62
    18
420
        0
370
     9
100
AcDbLine
 10
90.37886325029772
 20
-145.5677917181033
 30
0.0
 11
87.91904963980147
 21
-145.5677917181033
 31
0.0
  0
LINE
  5
A7
330
70
100
AcDbEntity
  8
レイヤー 1
 62
    18
420
        0
370
     9
100
AcDbLine
 10
90.37886325029772
 20
-146.6678233567058
 30
0.0
 11
87.91904963980147
 21
-146.6678233567058
 31
0.0
  0
INSERT
  5
A9
330
70
100
AcDbEntity
  8
レイヤー 1
100
AcDbBlockReference
  2
Block_4
 10
0.0
 20
0.0
 30
0.0
  0
LINE
  5
B6
330
70
100
AcDbEntity
  8
レイヤー 1
 62
    18
420
        0
370
     9
100
AcDbLine
 10
91.15536241677034
 20
-156.6679089349157
 30
0.0
 11
99.15488074810379
 21
-156.6679089349157
 31
0.0
  0
LINE
  5
B7
330
70
100
AcDbEntity
  8
レイヤー 1
 62
    18
420
        0
370
     9
100
AcDbLine
 10
91.15536241677034
 20
-153.4381226284255
 30
0.0
 11
91.15536241677034
 21
-157.6679986316235
 31
0.0
  0
LINE
  5
B8
330
70
100
AcDbEntity
  8
レイヤー 1
 62
    18
420
        0
370
     9
100
AcDbLine
 10
99.15488074810379
 20
-155.2078675832756
 30
0.0
 11
99.15488074810379
 21
-157.6679986316235
 31
0.0
  0
INSERT
  5
BA
330
70
100
AcDbEntity
  8
レイヤー 1
100
AcDbBlockReference
  2
Block_6
 10
0.0
 20
0.0
 30
0.0
  0
LINE
  5
C1
330
70
100
AcDbEntity
  8
レイヤー 1
 62
    18
420
        0
370
     9
100
AcDbLine
 10
120.1548233753665
 20
-151.968097665929
 30
0.0
 11
120.1548233753665
 21
-152.9678698626449
 31
0.0
  0
LINE
  5
C2
330
70
100
AcDbEntity
  8
レイヤー 1
 62
    18
420
        0
370
     9
100
AcDbLine
 10
120.1548233753665
 20
-151.5681182316889
 30
0.0
 11
120.1548233753665
 21
-151.968097665929
 31
0.0
  0
LINE
  5
C3
330
70
100
AcDbEntity
  8
レイヤー 1
 62
    18
420
        0
370
     9
100
AcDbLine
 10
118.6947820237264
 20
-151.5681182316889
 30
0.0
 11
121.1549143537148
 21
-151.5681182316889
 31
0.0
  0
LINE
  5
C4
330
70
100
AcDbEntity
  8
レイヤー 1
 62
    18
420
        0
370
     9
100
AcDbLine
 10
118.6947820237264
 20
-151.968097665929
 30
0.0
 11
121.1549143537148
 21
-151.968097665929
 31
0.0
  0
INSERT
  5
C6
330
70
100
AcDbEntity
  8
レイヤー 1
100
AcDbBlockReference
  2
Block_7
 10
0.0
 20
0.0
 30
0.0
  0
LINE
  5
D5
330
70
100
AcDbEntity
  8
レイヤー 1
  6
AI-Linetype-0
 62
   154
420
    23468
370
    25
100
AcDbLine
 10
91.25544547230086
 20
-147.3151352846359
 30
0.0
 11
98.43450852606153
 21
-147.3151352846359
 31
0.0
  0
LINE
  5
D7
330
70
100
AcDbEntity
  8
レイヤー 1
  6
AI-Linetype-1
 62
   154
420
    23468
370
    25
100
AcDbLine
 10
98.43450852606153
 20
-147.3151352846359
 30
0.0
 11
98.43450852606153
 21
-152.7677037566404
 31
0.0
  0
INSERT
  5
DA
330
70
100
AcDbEntity
  8
レイヤー 1
100
AcDbBlockReference
  2
Block_9
 10
0.0
 20
0.0
 30
0.0
  0
INSERT
  5
EF
330
70
100
AcDbEntity
  8
レイヤー 1
100
AcDbBlockReference
  2
Block_11
 10
0.0
 20
0.0
 30
0.0
  0
ENDSEC
  0
SECTION
  2
OBJECTS
  0
DICTIONARY
  5
C
330
0
100
AcDbDictionary
281
     1
  3
ACAD_COLOR
350
63
  3
ACAD_DETAILVIEWSTYLE
350
6A
  3
ACAD_GROUP
350
D
  3
ACAD_LAYOUT
350
62
  3
ACAD_MATERIAL
350
10
  3
ACAD_MLEADERSTYLE
350
66
  3
ACAD_MLINESTYLE
350
5F
  3
ACAD_PLOTSETTINGS
350
61
  3
ACAD_PLOTSTYLENAME
350
E
  3
ACAD_SCALELIST
350
42
  3
ACAD_SECTIONVIEWSTYLE
350
68
  3
ACAD_TABLESTYLE
350
64
  3
ACAD_VISUALSTYLE
350
29
  3
ACDB_RECOMPOSE_DATA
350
10F
  3
AcDbVariableDictionary
350
107
  0
DICTIONARY
  5
63
102
{ACAD_REACTORS
330
C
102
}
330
C
100
AcDbDictionary
281
     1
  0
DICTIONARY
  5
6A
102
{ACAD_REACTORS
330
C
102
}
330
C
100
AcDbDictionary
281
     1
  3
Imperial24
350
6B
  0
DICTIONARY
  5
D
102
{ACAD_REACTORS
330
C
102
}
330
C
100
AcDbDictionary
281
     1
  0
DICTIONARY
  5
62
102
{ACAD_REACTORS
330
C
102
}
330
C
100
AcDbDictionary
281
     1
  3
Layout1
350
6F
  3
Layout2
350
77
  3
Model
350
73
  0
DICTIONARY
  5
10
102
{ACAD_REACTORS
330
C
102
}
330
C
100
AcDbDictionary
281
     1
  3
ByBlock
350
19
  3
ByLayer
350
11
  3
Global
350
21
  0
DICTIONARY
  5
66
102
{ACAD_REACTORS
330
C
102
}
330
C
100
AcDbDictionary
281
     1
  3
Standard
350
67
  0
DICTIONARY
  5
5F
102
{ACAD_REACTORS
330
C
102
}
330
C
100
AcDbDictionary
281
     1
  3
Standard
350
60
  0
DICTIONARY
  5
61
102
{ACAD_REACTORS
330
C
102
}
330
C
100
AcDbDictionary
281
     1
  0
ACDBDICTIONARYWDFLT
  5
E
102
{ACAD_REACTORS
330
C
102
}
330
C
100
AcDbDictionary
281
     1
  3
Normal
350
F
100
AcDbDictionaryWithDefault
340
F
  0
DICTIONARY
  5
42
102
{ACAD_REACTORS
330
C
102
}
330
C
100
AcDbDictionary
281
     1
  3
A0
350
43
  3
A1
350
44
  3
A2
350
45
  3
A3
350
46
  3
A4
350
47
  3
A5
350
48
  3
A6
350
49
  3
A7
350
4A
  3
A8
350
4B
  3
A9
350
4C
  3
B0
350
4D
  3
B1
350
4E
  3
B2
350
4F
  3
B3
350
50
  3
B4
350
51
  3
B5
350
52
  3
B6
350
53
  0
DICTIONARY
  5
68
102
{ACAD_REACTORS
330
C
102
}
330
C
100
AcDbDictionary
281
     1
  3
Imperial24
350
69
  0
DICTIONARY
  5
64
102
{ACAD_REACTORS
330
C
102
}
330
C
100
AcDbDictionary
281
     1
  3
Standard
350
65
  0
DICTIONARY
  5
29
102
{ACAD_REACTORS
330
C
102
}
330
C
100
AcDbDictionary
281
     1
  3
2dWireframe
350
2F
  3
Basic
350
2E
  3
Brighten
350
35
  3
ColorChange
350
39
  3
Conceptual
350
32
  3
Dim
350
34
  3
EdgeColorOff
350
41
  3
Facepattern
350
38
  3
Flat
350
2A
  3
FlatWithEdges
350
2B
  3
Gouraud
350
2C
  3
GouraudWithEdges
350
2D
  3
Hidden
350
31
  3
JitterOff
350
3F
  3
Linepattern
350
37
  3
OverhangOff
350
40
  3
Realistic
350
33
  3
Shaded
350
3E
  3
Shaded with edges
350
3D
  3
Shades of Gray
350
3A
  3
Sketchy
350
3B
  3
Thicken
350
36
  3
Wireframe
350
30
  3
X-Ray
350
3C
  0
XRECORD
  5
10F
102
{ACAD_REACTORS
330
C
102
}
330
C
100
AcDbXrecord
280
     1
 90
        1
330
65
  0
DICTIONARY
  5
107
102
{ACAD_REACTORS
330
C
102
}
330
C
100
AcDbDictionary
281
     1
  3
CANNOSCALE
350
10C
  3
CMLEADERSTYLE
350
109
  3
CTABLESTYLE
350
108
  3
CVIEWDETAILSTYLE
350
10A
  3
CVIEWSECTIONSTYLE
350
10B
  0
ACDBDETAILVIEWSTYLE
  5
6B
102
{ACAD_XDICTIONARY
360
144
102
}
102
{ACAD_REACTORS
330
6A
102
}
330
6A
100
AcDbModelDocViewStyle
 70
     0
  3
Imperial24
290
     0
100
AcDbDetailViewStyle
 70
     0
 71
     0
 90
        3
 71
     1
340
55
 62
   256
 40
0.24
340
0
 62
   256
 40
0.24
300

 40
0.36
280
     3
 71
     2
340
5D
 90
       25
 62
   256
 71
     3
340
55
 62
   256
 40
0.24
 90
        1
 40
0.75
 90
        1
300
%<\AcVar ViewType \f "%tc1">% %<\AcVar ViewDetailId>%\PSCALE %<\AcVar ViewScale \f "%sn">%
 71
     4
340
5D
 90
       25
 62
   256
340
5D
 90
       25
 62
   256
280
     0
  0
LAYOUT
  5
6F
102
{ACAD_REACTORS
330
62
102
}
330
62
100
AcDbPlotSettings
  1

  2

  4

  6

 40
0.0
 41
0.0
 42
0.0
 43
0.0
 44
0.0
 45
0.0
 46
0.0
 47
0.0
 48
0.0
 49
0.0
140
0.0
141
0.0
142
1.0
143
1.0
 70
   688
 72
     0
 73
     0
 74
     5
  7

 75
    16
147
1.0
 76
     0
 77
     2
 78
   300
148
0.0
149
0.0
100
AcDbLayout
  1
Layout1
 70
     1
 71
     1
 10
0.0
 20
0.0
 11
12.0
 21
9.0
 12
0.0
 22
0.0
 32
0.0
 14
0.0
 24
0.0
 34
0.0
 15
0.0
 25
0.0
 35
0.0
146
0.0
 13
0.0
 23
0.0
 33
0.0
 16
1.0
 26
0.0
 36
0.0
 17
0.0
 27
1.0
 37
0.0
 76
     0
330
6C
  0
LAYOUT
  5
77
102
{ACAD_REACTORS
330
62
102
}
330
62
100
AcDbPlotSettings
  1

  2

  4

  6

 40
0.0
 41
0.0
 42
0.0
 43
0.0
 44
0.0
 45
0.0
 46
0.0
 47
0.0
 48
0.0
 49
0.0
140
0.0
141
0.0
142
1.0
143
1.0
 70
   688
 72
     0
 73
     0
 74
     5
  7

 75
    16
147
1.0
 76
     0
 77
     2
 78
   300
148
0.0
149
0.0
100
AcDbLayout
  1
Layout2
 70
     1
 71
     2
 10
0.0
 20
0.0
 11
12.0
 21
9.0
 12
0.0
 22
0.0
 32
0.0
 14
0.0
 24
0.0
 34
0.0
 15
0.0
 25
0.0
 35
0.0
146
0.0
 13
0.0
 23
0.0
 33
0.0
 16
1.0
 26
0.0
 36
0.0
 17
0.0
 27
1.0
 37
0.0
 76
     0
330
74
  0
LAYOUT
  5
73
102
{ACAD_REACTORS
330
62
102
}
330
62
100
AcDbPlotSettings
  1

  2

  4

  6

 40
0.0
 41
0.0
 42
0.0
 43
0.0
 44
0.0
 45
0.0
 46
0.0
 47
0.0
 48
0.0
 49
0.0
140
0.0
141
0.0
142
1.0
143
1.0
 70
  1712
 72
     0
 73
     0
 74
     0
  7

 75
     0
147
1.0
 76
     0
 77
     2
 78
   300
148
0.0
149
0.0
100
AcDbLayout
  1
Model
 70
     1
 71
     0
 10
0.0
 20
0.0
 11
12.0
 21
9.0
 12
0.0
 22
0.0
 32
0.0
 14
0.0
 24
0.0
 34
0.0
 15
0.0
 25
0.0
 35
0.0
146
0.0
 13
0.0
 23
0.0
 33
0.0
 16
1.0
 26
0.0
 36
0.0
 17
0.0
 27
1.0
 37
0.0
 76
     0
330
70
  0
MATERIAL
  5
19
102
{ACAD_XDICTIONARY
360
1A
102
}
102
{ACAD_REACTORS
330
10
102
}
330
10
100
AcDbMaterial
  1
ByBlock
 72
     0
 43
0.0208333333333333
 43
0.0
 43
0.0
 43
0.0
 43
0.0
 43
0.0208333333333333
 43
0.0
 43
0.0
 43
0.0
 43
0.0
 43
1.0
 43
0.0
 43
0.0
 43
0.0
 43
0.0
 43
1.0
 77
     0
 47
0.0208333333333333
 47
0.0
 47
0.0
 47
0.0
 47
0.0
 47
0.0208333333333333
 47
0.0
 47
0.0
 47
0.0
 47
0.0
 47
1.0
 47
0.0
 47
0.0
 47
0.0
 47
0.0
 47
1.0
171
     0
 49
0.0208333333333333
 49
0.0
 49
0.0
 49
0.0
 49
0.0
 49
0.0208333333333333
 49
0.0
 49
0.0
 49
0.0
 49
0.0
 49
1.0
 49
0.0
 49
0.0
 49
0.0
 49
0.0
 49
1.0
175
     0
142
0.0208333333333333
142
0.0
142
0.0
142
0.0
142
0.0
142
0.0208333333333333
142
0.0
142
0.0
142
0.0
142
0.0
142
1.0
142
0.0
142
0.0
142
0.0
142
0.0
142
1.0
179
     0
144
0.0208333333333333
144
0.0
144
0.0
144
0.0
144
0.0
144
0.0208333333333333
144
0.0
144
0.0
144
0.0
144
0.0
144
1.0
144
0.0
144
0.0
144
0.0
144
0.0
144
1.0
147
0.0208333333333333
147
0.0
147
0.0
147
0.0
147
0.0
147
0.0208333333333333
147
0.0
147
0.0
147
0.0
147
0.0
147
1.0
147
0.0
147
0.0
147
0.0
147
0.0
147
1.0
  0
MATERIAL
  5
11
102
{ACAD_XDICTIONARY
360
12
102
}
102
{ACAD_REACTORS
330
10
102
}
330
10
100
AcDbMaterial
  1
ByLayer
 72
     0
 43
0.0208333333333333
 43
0.0
 43
0.0
 43
0.0
 43
0.0
 43
0.0208333333333333
 43
0.0
 43
0.0
 43
0.0
 43
0.0
 43
1.0
 43
0.0
 43
0.0
 43
0.0
 43
0.0
 43
1.0
 77
     0
 47
0.0208333333333333
 47
0.0
 47
0.0
 47
0.0
 47
0.0
 47
0.0208333333333333
 47
0.0
 47
0.0
 47
0.0
 47
0.0
 47
1.0
 47
0.0
 47
0.0
 47
0.0
 47
0.0
 47
1.0
171
     0
 49
0.0208333333333333
 49
0.0
 49
0.0
 49
0.0
 49
0.0
 49
0.0208333333333333
 49
0.0
 49
0.0
 49
0.0
 49
0.0
 49
1.0
 49
0.0
 49
0.0
 49
0.0
 49
0.0
 49
1.0
175
     0
142
0.0208333333333333
142
0.0
142
0.0
142
0.0
142
0.0
142
0.0208333333333333
142
0.0
142
0.0
142
0.0
142
0.0
142
1.0
142
0.0
142
0.0
142
0.0
142
0.0
142
1.0
179
     0
144
0.0208333333333333
144
0.0
144
0.0
144
0.0
144
0.0
144
0.0208333333333333
144
0.0
144
0.0
144
0.0
144
0.0
144
1.0
144
0.0
144
0.0
144
0.0
144
0.0
144
1.0
147
0.0208333333333333
147
0.0
147
0.0
147
0.0
147
0.0
147
0.0208333333333333
147
0.0
147
0.0
147
0.0
147
0.0
147
1.0
147
0.0
147
0.0
147
0.0
147
0.0
147
1.0
  0
MATERIAL
  5
21
102
{ACAD_XDICTIONARY
360
22
102
}
102
{ACAD_REACTORS
330
10
102
}
330
10
100
AcDbMaterial
  1
Global
 72
     0
 43
0.0208333333333333
 43
0.0
 43
0.0
 43
0.0
 43
0.0
 43
0.0208333333333333
 43
0.0
 43
0.0
 43
0.0
 43
0.0
 43
1.0
 43
0.0
 43
0.0
 43
0.0
 43
0.0
 43
1.0
 77
     0
 47
0.0208333333333333
 47
0.0
 47
0.0
 47
0.0
 47
0.0
 47
0.0208333333333333
 47
0.0
 47
0.0
 47
0.0
 47
0.0
 47
1.0
 47
0.0
 47
0.0
 47
0.0
 47
0.0
 47
1.0
171
     0
 49
0.0208333333333333
 49
0.0
 49
0.0
 49
0.0
 49
0.0
 49
0.0208333333333333
 49
0.0
 49
0.0
 49
0.0
 49
0.0
 49
1.0
 49
0.0
 49
0.0
 49
0.0
 49
0.0
 49
1.0
175
     0
142
0.0208333333333333
142
0.0
142
0.0
142
0.0
142
0.0
142
0.0208333333333333
142
0.0
142
0.0
142
0.0
142
0.0
142
1.0
142
0.0
142
0.0
142
0.0
142
0.0
142
1.0
179
     0
144
0.0208333333333333
144
0.0
144
0.0
144
0.0
144
0.0
144
0.0208333333333333
144
0.0
144
0.0
144
0.0
144
0.0
144
1.0
144
0.0
144
0.0
144
0.0
144
0.0
144
1.0
147
0.0208333333333333
147
0.0
147
0.0
147
0.0
147
0.0
147
0.0208333333333333
147
0.0
147
0.0
147
0.0
147
0.0
147
1.0
147
0.0
147
0.0
147
0.0
147
0.0
147
1.0
  0
MLEADERSTYLE
  5
67
102
{ACAD_XDICTIONARY
360
140
102
}
102
{ACAD_REACTORS
330
66
102
}
330
66
100
AcDbMLeaderStyle
179
     2
170
     2
171
     1
172
     0
 90
        2
 40
0.0
 41
0.0
173
     1
 91
-1056964608
340
5B
 92
       -2
290
     1
 42
0.09
291
     1
 43
0.36
  3
Standard
 44
0.18
300

342
55
174
     1
178
     6
175
     1
176
     0
 93
-1056964608
 45
0.18
292
     0
297
     0
 46
0.18
 94
-1056964608
 47
1.0
 49
1.0
140
1.0
293
     1
141
0.0
294
     1
177
     0
142
1.0
295
     0
296
     0
143
0.125
271
     0
272
     9
273
     9
  0
MLINESTYLE
  5
60
102
{ACAD_REACTORS
330
5F
102
}
330
5F
100
AcDbMlineStyle
  2
STANDARD
 70
     0
  3

 62
   256
 51
90.0
 52
90.0
 71
     2
 49
0.5
 62
   256
  6
BYLAYER
 49
-0.5
 62
   256
  6
BYLAYER
  0
ACDBPLACEHOLDER
  5
F
102
{ACAD_REACTORS
330
E
102
}
330
E
  0
SCALE
  5
43
102
{ACAD_REACTORS
330
42
102
}
330
42
100
AcDbScale
 70
     0
300
1:1
140
1.0
141
1.0
290
     1
  0
SCALE
  5
44
102
{ACAD_REACTORS
330
42
102
}
330
42
100
AcDbScale
 70
     0
300
1/128" = 1'-0"
140
0.0078125
141
12.0
290
     0
  0
SCALE
  5
45
102
{ACAD_REACTORS
330
42
102
}
330
42
100
AcDbScale
 70
     0
300
1/64" = 1'-0"
140
0.015625
141
12.0
290
     0
  0
SCALE
  5
46
102
{ACAD_REACTORS
330
42
102
}
330
42
100
AcDbScale
 70
     0
300
1/32" = 1'-0"
140
0.03125
141
12.0
290
     0
  0
SCALE
  5
47
102
{ACAD_REACTORS
330
42
102
}
330
42
100
AcDbScale
 70
     0
300
1/16" = 1'-0"
140
0.0625
141
12.0
290
     0
  0
SCALE
  5
48
102
{ACAD_REACTORS
330
42
102
}
330
42
100
AcDbScale
 70
     0
300
3/32" = 1'-0"
140
0.09375
141
12.0
290
     0
  0
SCALE
  5
49
102
{ACAD_REACTORS
330
42
102
}
330
42
100
AcDbScale
 70
     0
300
1/8" = 1'-0"
140
0.125
141
12.0
290
     0
  0
SCALE
  5
4A
102
{ACAD_REACTORS
330
42
102
}
330
42
100
AcDbScale
 70
     0
300
3/16" = 1'-0"
140
0.1875
141
12.0
290
     0
  0
SCALE
  5
4B
102
{ACAD_REACTORS
330
42
102
}
330
42
100
AcDbScale
 70
     0
300
1/4" = 1'-0"
140
0.25
141
12.0
290
     0
  0
SCALE
  5
4C
102
{ACAD_REACTORS
330
42
102
}
330
42
100
AcDbScale
 70
     0
300
3/8" = 1'-0"
140
0.375
141
12.0
290
     0
  0
SCALE
  5
4D
102
{ACAD_REACTORS
330
42
102
}
330
42
100
AcDbScale
 70
     0
300
1/2" = 1'-0"
140
0.5
141
12.0
290
     0
  0
SCALE
  5
4E
102
{ACAD_REACTORS
330
42
102
}
330
42
100
AcDbScale
 70
     0
300
3/4" = 1'-0"
140
0.75
141
12.0
290
     0
  0
SCALE
  5
4F
102
{ACAD_REACTORS
330
42
102
}
330
42
100
AcDbScale
 70
     0
300
1" = 1'-0"
140
1.0
141
12.0
290
     0
  0
SCALE
  5
50
102
{ACAD_REACTORS
330
42
102
}
330
42
100
AcDbScale
 70
     0
300
1-1/2" = 1'-0"
140
1.5
141
12.0
290
     0
  0
SCALE
  5
51
102
{ACAD_REACTORS
330
42
102
}
330
42
100
AcDbScale
 70
     0
300
3" = 1'-0"
140
3.0
141
12.0
290
     0
  0
SCALE
  5
52
102
{ACAD_REACTORS
330
42
102
}
330
42
100
AcDbScale
 70
     0
300
6" = 1'-0"
140
6.0
141
12.0
290
     0
  0
SCALE
  5
53
102
{ACAD_REACTORS
330
42
102
}
330
42
100
AcDbScale
 70
     0
300
1'-0" = 1'-0"
140
12.0
141
12.0
290
     0
  0
ACDBSECTIONVIEWSTYLE
  5
69
102
{ACAD_XDICTIONARY
360
142
102
}
102
{ACAD_REACTORS
330
68
102
}
330
68
100
AcDbModelDocViewStyle
 70
     0
  3
Imperial24
290
     0
100
AcDbSectionViewStyle
 70
     0
 71
     0
 90
       78
 71
     1
340
55
 62
   256
 40
0.24
340
0
340
0
 62
   256
 40
0.24
300
I, O, Q, S, X, Z
 40
0.48
 90
        3
 40
0.18
 90
        1
 71
     2
340
5D
 90
       25
 62
   256
340
5D
 90
       50
 62
   256
 40
0.24
 40
0.0
 40
0.24
 71
     3
340
55
 62
   256
 40
0.24
 90
        1
 40
0.75
 90
        1
300
%<\AcVar ViewType \f "%tc1">% %<\AcVar ViewSectionStartId>%-%<\AcVar ViewSectionEndId>%\PSCALE %<\AcVar ViewScale \f "%sn">%
 71
     4
 62
   256
 62
   257
300
ANSI31
 40
1.0
 90
        0
290
     0
290
     0
 90
        6
 40
0.0
 40
1.570796326794896
 40
0.2617993877991494
 40
1.308996938995747
 40
-0.2617993877991494
 40
1.832595714594046
  0
TABLESTYLE
  5
65
102
{ACAD_XDICTIONARY
360
10D
102
}
102
{ACAD_REACTORS
330
64
102
}
330
64
100
AcDbTableStyle
280
     0
  3
Standard
 70
     0
 71
     0
 40
0.06
 41
0.06
280
     0
281
     0
  7
Standard
140
0.18
170
     2
 62
     0
 63
     7
283
     0
 90
      512
 91
        0
  1

274
    -2
284
     1
 64
     0
275
    -2
285
     1
 65
     0
276
    -2
286
     1
 66
     0
277
    -2
287
     1
 67
     0
278
    -2
288
     1
 68
     0
279
    -2
289
     1
 69
     0
  7
Standard
140
0.25
170
     5
 62
     0
 63
     7
283
     0
 90
      512
 91
        0
  1

274
    -2
284
     1
 64
     0
275
    -2
285
     1
 65
     0
276
    -2
286
     1
 66
     0
277
    -2
287
     1
 67
     0
278
    -2
288
     1
 68
     0
279
    -2
289
     1
 69
     0
  7
Standard
140
0.18
170
     5
 62
     0
 63
     7
283
     0
 90
      512
 91
        0
  1

274
    -2
284
     1
 64
     0
275
    -2
285
     1
 65
     0
276
    -2
286
     1
 66
     0
277
    -2
287
     1
 67
     0
278
    -2
288
     1
 68
     0
279
    -2
289
     1
 69
     0
  0
VISUALSTYLE
  5
2F
102
{ACAD_XDICTIONARY
360
11A
102
}
102
{ACAD_REACTORS
330
29
102
}
330
29
100
AcDbVisualStyle
  2
2dWireframe
 70
     4
177
     2
291
     0
 71
     0
176
     1
 72
     2
176
     1
 73
     0
176
     1
 90
        0
176
     1
 40
0.6
176
     1
 41
30.0
176
     1
 63
     7
421
 16777215
176
     1
 74
     1
176
     1
 91
        4
176
     1
 64
     7
176
     1
 65
   257
176
     1
 75
     1
176
     1
175
     1
176
     1
 42
1.0
176
     1
 92
        0
176
     1
 66
   257
176
     1
 43
1.0
176
     1
 76
     1
176
     1
 77
     6
176
     1
 78
     2
176
     1
 67
     7
176
     1
 79
     5
176
     1
170
     0
176
     1
171
     0
176
     1
290
     0
176
     1
 93
        1
176
     1
 44
0.0
176
     1
173
     0
176
     1
1001
ACAD
1000
AcDbSavedByObjectVersion
1070
     0
  0
VISUALSTYLE
  5
2E
102
{ACAD_XDICTIONARY
360
118
102
}
102
{ACAD_REACTORS
330
29
102
}
330
29
100
AcDbVisualStyle
  2
Basic
 70
     7
177
     2
291
     1
 71
     1
176
     1
 72
     0
176
     1
 73
     1
176
     1
 90
        0
176
     1
 40
0.6
176
     1
 41
30.0
176
     1
 63
     7
421
 16777215
176
     1
 74
     0
176
     1
 91
        4
176
     1
 64
     7
176
     1
 65
   257
176
     1
 75
     1
176
     1
175
     1
176
     1
 42
1.0
176
     1
 92
        8
176
     1
 66
     7
176
     1
 43
1.0
176
     1
 76
     1
176
     1
 77
     6
176
     1
 78
     2
176
     1
 67
     7
176
     1
 79
     5
176
     1
170
     0
176
     1
171
     0
176
     1
290
     0
176
     1
 93
        1
176
     1
 44
0.0
176
     1
173
     0
176
     1
1001
ACAD
1000
AcDbSavedByObjectVersion
1070
     0
  0
VISUALSTYLE
  5
35
102
{ACAD_XDICTIONARY
360
126
102
}
102
{ACAD_REACTORS
330
29
102
}
330
29
100
AcDbVisualStyle
  2
Brighten
 70
    12
177
     2
291
     1
 71
     2
176
     1
 72
     2
176
     1
 73
     0
176
     1
 90
        0
176
     1
 40
0.6
176
     1
 41
30.0
176
     1
 63
     7
421
 16777215
176
     1
 74
     1
176
     1
 91
        4
176
     1
 64
     7
176
     1
 65
   257
176
     1
 75
     1
176
     1
175
     1
176
     1
 42
1.0
176
     1
 92
        8
176
     1
 66
     7
176
     1
 43
1.0
176
     1
 76
     1
176
     1
 77
     6
176
     1
 78
     2
176
     1
 67
     7
176
     1
 79
     5
176
     1
170
     0
176
     1
171
     0
176
     1
290
     0
176
     1
 93
        1
176
     1
 44
50.0
176
     1
173
     0
176
     1
1001
ACAD
1000
AcDbSavedByObjectVersion
1070
     0
  0
VISUALSTYLE
  5
39
102
{ACAD_XDICTIONARY
360
12E
102
}
102
{ACAD_REACTORS
330
29
102
}
330
29
100
AcDbVisualStyle
  2
ColorChange
 70
    16
177
     2
291
     1
 71
     2
176
     1
 72
     2
176
     1
 73
     3
176
     1
 90
        0
176
     1
 40
0.6
176
     1
 41
30.0
176
     1
 63
     8
421
  8421504
176
     1
 74
     1
176
     1
 91
        4
176
     1
 64
     7
176
     1
 65
   257
176
     1
 75
     1
176
     1
175
     1
176
     1
 42
1.0
176
     1
 92
        8
176
     1
 66
     8
424
  8421504
176
     1
 43
1.0
176
     1
 76
     1
176
     1
 77
     6
176
     1
 78
     2
176
     1
 67
     7
176
     1
 79
     5
176
     1
170
     0
176
     1
171
     0
176
     1
290
     0
176
     1
 93
        1
176
     1
 44
0.0
176
     1
173
     0
176
     1
1001
ACAD
1000
AcDbSavedByObjectVersion
1070
     0
  0
VISUALSTYLE
  5
32
102
{ACAD_XDICTIONARY
360
120
102
}
102
{ACAD_REACTORS
330
29
102
}
330
29
100
AcDbVisualStyle
  2
Conceptual
 70
     9
177
     2
291
     0
 71
     3
176
     1
 72
     2
176
     1
 73
     0
176
     1
 90
        0
176
     1
 40
0.6
176
     1
 41
30.0
176
     1
 63
     7
421
 16777215
176
     1
 74
     2
176
     1
 91
        2
176
     1
 64
     7
176
     1
 65
   257
176
     1
 75
     1
176
     1
175
     1
176
     1
 42
179.0
176
     1
 92
        8
176
     1
 66
     7
176
     1
 43
1.0
176
     1
 76
     1
176
     1
 77
     6
176
     1
 78
     2
176
     1
 67
     7
176
     1
 79
     3
176
     1
170
     0
176
     1
171
     0
176
     1
290
     0
176
     1
 93
        1
176
     1
 44
0.0
176
     1
173
     0
176
     1
1001
ACAD
1000
AcDbSavedByObjectVersion
1070
     0
  0
VISUALSTYLE
  5
34
102
{ACAD_XDICTIONARY
360
124
102
}
102
{ACAD_REACTORS
330
29
102
}
330
29
100
AcDbVisualStyle
  2
Dim
 70
    11
177
     2
291
     1
 71
     2
176
     1
 72
     2
176
     1
 73
     0
176
     1
 90
        0
176
     1
 40
0.6
176
     1
 41
30.0
176
     1
 63
     7
421
 16777215
176
     1
 74
     1
176
     1
 91
        4
176
     1
 64
     7
176
     1
 65
   257
176
     1
 75
     1
176
     1
175
     1
176
     1
 42
1.0
176
     1
 92
        8
176
     1
 66
     7
176
     1
 43
1.0
176
     1
 76
     1
176
     1
 77
     6
176
     1
 78
     2
176
     1
 67
     7
176
     1
 79
     5
176
     1
170
     0
176
     1
171
     0
176
     1
290
     0
176
     1
 93
        1
176
     1
 44
-50.0
176
     1
173
     0
176
     1
1001
ACAD
1000
AcDbSavedByObjectVersion
1070
     0
  0
VISUALSTYLE
  5
41
102
{ACAD_XDICTIONARY
360
13E
102
}
102
{ACAD_REACTORS
330
29
102
}
330
29
100
AcDbVisualStyle
  2
EdgeColorOff
 70
    22
177
     2
291
     1
 71
     2
176
     0
 72
     2
176
     0
 73
     0
176
     0
 90
        0
176
     0
 40
0.6
176
     0
 41
30.0
176
     0
 63
     7
421
 16777215
176
     0
 74
     1
176
     0
 91
        4
176
     0
 64
     7
176
     0
 65
   257
176
     0
 75
     1
176
     0
175
     1
176
     0
 42
1.0
176
     0
 92
        8
176
     2
 66
     7
176
     0
 43
1.0
176
     0
 76
     1
176
     0
 77
     6
176
     0
 78
     2
176
     0
 67
     7
176
     0
 79
     5
176
     0
170
     0
176
     0
171
     0
176
     0
290
     0
176
     0
 93
        1
176
     0
 44
0.0
176
     0
173
     0
176
     0
1001
ACAD
1000
AcDbSavedByObjectVersion
1070
     0
  0
VISUALSTYLE
  5
38
102
{ACAD_XDICTIONARY
360
12C
102
}
102
{ACAD_REACTORS
330
29
102
}
330
29
100
AcDbVisualStyle
  2
Facepattern
 70
    15
177
     2
291
     1
 71
     2
176
     1
 72
     2
176
     1
 73
     0
176
     1
 90
        0
176
     1
 40
0.6
176
     1
 41
30.0
176
     1
 63
     7
421
 16777215
176
     1
 74
     1
176
     1
 91
        4
176
     1
 64
     7
176
     1
 65
   257
176
     1
 75
     1
176
     1
175
     1
176
     1
 42
1.0
176
     1
 92
        8
176
     1
 66
     7
176
     1
 43
1.0
176
     1
 76
     1
176
     1
 77
     6
176
     1
 78
     2
176
     1
 67
     7
176
     1
 79
     5
176
     1
170
     0
176
     1
171
     0
176
     1
290
     0
176
     1
 93
        1
176
     1
 44
0.0
176
     1
173
     0
176
     1
1001
ACAD
1000
AcDbSavedByObjectVersion
1070
     0
  0
VISUALSTYLE
  5
2A
102
{ACAD_XDICTIONARY
360
110
102
}
102
{ACAD_REACTORS
330
29
102
}
330
29
100
AcDbVisualStyle
  2
Flat
 70
     0
177
     2
291
     1
 71
     2
176
     1
 72
     1
176
     1
 73
     1
176
     1
 90
        2
176
     1
 40
0.6
176
     1
 41
30.0
176
     1
 63
     7
421
 16777215
176
     1
 74
     0
176
     1
 91
        0
176
     1
 64
     7
176
     1
 65
   257
176
     1
 75
     1
176
     1
175
     1
176
     1
 42
1.0
176
     1
 92
        8
176
     1
 66
     7
176
     1
 43
1.0
176
     1
 76
     1
176
     1
 77
     6
176
     1
 78
     2
176
     1
 67
     7
176
     1
 79
     5
176
     1
170
     0
176
     1
171
     0
176
     1
290
     0
176
     1
 93
       13
176
     1
 44
0.0
176
     1
173
     0
176
     1
1001
ACAD
1000
AcDbSavedByObjectVersion
1070
     0
  0
VISUALSTYLE
  5
2B
102
{ACAD_XDICTIONARY
360
112
102
}
102
{ACAD_REACTORS
330
29
102
}
330
29
100
AcDbVisualStyle
  2
FlatWithEdges
 70
     1
177
     2
291
     1
 71
     2
176
     1
 72
     1
176
     1
 73
     1
176
     1
 90
        2
176
     1
 40
0.6
176
     1
 41
30.0
176
     1
 63
     7
421
 16777215
176
     1
 74
     1
176
     1
 91
        0
176
     1
 64
     7
176
     1
 65
   257
176
     1
 75
     1
176
     1
175
     1
176
     1
 42
1.0
176
     1
 92
        0
176
     1
 66
   257
176
     1
 43
1.0
176
     1
 76
     1
176
     1
 77
     6
176
     1
 78
     2
176
     1
 67
     7
176
     1
 79
     5
176
     1
170
     0
176
     1
171
     0
176
     1
290
     0
176
     1
 93
       13
176
     1
 44
0.0
176
     1
173
     0
176
     1
1001
ACAD
1000
AcDbSavedByObjectVersion
1070
     0
  0
VISUALSTYLE
  5
2C
102
{ACAD_XDICTIONARY
360
114
102
}
102
{ACAD_REACTORS
330
29
102
}
330
29
100
AcDbVisualStyle
  2
Gouraud
 70
     2
177
     2
291
     1
 71
     2
176
     1
 72
     2
176
     1
 73
     1
176
     1
 90
        2
176
     1
 40
0.6
176
     1
 41
30.0
176
     1
 63
     7
421
 16777215
176
     1
 74
     0
176
     1
 91
        0
176
     1
 64
     7
176
     1
 65
   257
176
     1
 75
     1
176
     1
175
     1
176
     1
 42
1.0
176
     1
 92
        0
176
     1
 66
     7
176
     1
 43
1.0
176
     1
 76
     1
176
     1
 77
     6
176
     1
 78
     2
176
     1
 67
     7
176
     1
 79
     5
176
     1
170
     0
176
     1
171
     0
176
     1
290
     0
176
     1
 93
       13
176
     1
 44
0.0
176
     1
173
     0
176
     1
1001
ACAD
1000
AcDbSavedByObjectVersion
1070
     0
  0
VISUALSTYLE
  5
2D
102
{ACAD_XDICTIONARY
360
116
102
}
102
{ACAD_REACTORS
330
29
102
}
330
29
100
AcDbVisualStyle
  2
GouraudWithEdges
 70
     3
177
     2
291
     1
 71
     2
176
     1
 72
     2
176
     1
 73
     1
176
     1
 90
        2
176
     1
 40
0.6
176
     1
 41
30.0
176
     1
 63
     7
421
 16777215
176
     1
 74
     1
176
     1
 91
        0
176
     1
 64
     7
176
     1
 65
   257
176
     1
 75
     1
176
     1
175
     1
176
     1
 42
1.0
176
     1
 92
        0
176
     1
 66
   257
176
     1
 43
1.0
176
     1
 76
     1
176
     1
 77
     6
176
     1
 78
     2
176
     1
 67
     7
176
     1
 79
     5
176
     1
170
     0
176
     1
171
     0
176
     1
290
     0
176
     1
 93
       13
176
     1
 44
0.0
176
     1
173
     0
176
     1
1001
ACAD
1000
AcDbSavedByObjectVersion
1070
     0
  0
VISUALSTYLE
  5
31
102
{ACAD_XDICTIONARY
360
11E
102
}
102
{ACAD_REACTORS
330
29
102
}
330
29
100
AcDbVisualStyle
  2
Hidden
 70
     6
177
     2
291
     0
 71
     1
176
     1
 72
     2
176
     1
 73
     2
176
     1
 90
        0
176
     1
 40
0.6
176
     1
 41
30.0
176
     1
 63
     7
421
 16777215
176
     1
 74
     2
176
     1
 91
        2
176
     1
 64
     7
176
     1
 65
   257
176
     1
 75
     2
176
     1
175
     1
176
     1
 42
40.0
176
     1
 92
        0
176
     1
 66
   257
176
     1
 43
1.0
176
     1
 76
     1
176
     1
 77
     6
176
     1
 78
     2
176
     1
 67
     7
176
     1
 79
     3
176
     1
170
     0
176
     1
171
     0
176
     1
290
     0
176
     1
 93
        1
176
     1
 44
0.0
176
     1
173
     0
176
     1
1001
ACAD
1000
AcDbSavedByObjectVersion
1070
     0
  0
VISUALSTYLE
  5
3F
102
{ACAD_XDICTIONARY
360
13A
102
}
102
{ACAD_REACTORS
330
29
102
}
330
29
100
AcDbVisualStyle
  2
JitterOff
 70
    20
177
     2
291
     1
 71
     2
176
     0
 72
     2
176
     0
 73
     0
176
     0
 90
        0
176
     0
 40
0.6
176
     0
 41
30.0
176
     0
 63
     7
421
 16777215
176
     0
 74
     1
176
     0
 91
        4
176
     0
 64
     7
176
     0
 65
   257
176
     0
 75
     1
176
     0
175
     1
176
     0
 42
1.0
176
     0
 92
       10
176
     2
 66
     7
176
     0
 43
1.0
176
     0
 76
     1
176
     0
 77
     6
176
     0
 78
     2
176
     0
 67
     7
176
     0
 79
     5
176
     0
170
     0
176
     0
171
     0
176
     0
290
     0
176
     0
 93
        1
176
     0
 44
0.0
176
     0
173
     0
176
     0
1001
ACAD
1000
AcDbSavedByObjectVersion
1070
     0
  0
VISUALSTYLE
  5
37
102
{ACAD_XDICTIONARY
360
12A
102
}
102
{ACAD_REACTORS
330
29
102
}
330
29
100
AcDbVisualStyle
  2
Linepattern
 70
    14
177
     2
291
     1
 71
     2
176
     1
 72
     2
176
     1
 73
     0
176
     1
 90
        0
176
     1
 40
0.6
176
     1
 41
30.0
176
     1
 63
     7
421
 16777215
176
     1
 74
     1
176
     1
 91
        4
176
     1
 64
     7
176
     1
 65
   257
176
     1
 75
     7
176
     1
175
     7
176
     1
 42
1.0
176
     1
 92
        8
176
     1
 66
     7
176
     1
 43
1.0
176
     1
 76
     1
176
     1
 77
     6
176
     1
 78
     2
176
     1
 67
     7
176
     1
 79
     5
176
     1
170
     0
176
     1
171
     0
176
     1
290
     0
176
     1
 93
        1
176
     1
 44
0.0
176
     1
173
     0
176
     1
1001
ACAD
1000
AcDbSavedByObjectVersion
1070
     0
  0
VISUALSTYLE
  5
40
102
{ACAD_XDICTIONARY
360
13C
102
}
102
{ACAD_REACTORS
330
29
102
}
330
29
100
AcDbVisualStyle
  2
OverhangOff
 70
    21
177
     2
291
     1
 71
     2
176
     0
 72
     2
176
     0
 73
     0
176
     0
 90
        0
176
     0
 40
0.6
176
     0
 41
30.0
176
     0
 63
     7
421
 16777215
176
     0
 74
     1
176
     0
 91
        4
176
     0
 64
     7
176
     0
 65
   257
176
     0
 75
     1
176
     0
175
     1
176
     0
 42
1.0
176
     0
 92
        9
176
     2
 66
     7
176
     0
 43
1.0
176
     0
 76
     1
176
     0
 77
     6
176
     0
 78
     2
176
     0
 67
     7
176
     0
 79
     5
176
     0
170
     0
176
     0
171
     0
176
     0
290
     0
176
     0
 93
        1
176
     0
 44
0.0
176
     0
173
     0
176
     0
1001
ACAD
1000
AcDbSavedByObjectVersion
1070
     0
  0
VISUALSTYLE
  5
33
102
{ACAD_XDICTIONARY
360
122
102
}
102
{ACAD_REACTORS
330
29
102
}
330
29
100
AcDbVisualStyle
  2
Realistic
 70
     8
177
     2
291
     0
 71
     2
176
     1
 72
     3
176
     1
 73
     0
176
     1
 90
        2
176
     1
 40
0.6
176
     1
 41
30.0
176
     1
 63
     7
421
 16777215
176
     1
 74
     0
176
     1
 91
        0
176
     1
 64
     7
176
     1
 65
   257
176
     1
 75
     1
176
     1
175
     1
176
     1
 42
1.0
176
     1
 92
        8
176
     1
 66
   257
176
     1
 43
1.0
176
     1
 76
     1
176
     1
 77
     6
176
     1
 78
     2
176
     1
 67
     7
176
     1
 79
     3
176
     1
170
     0
176
     1
171
     0
176
     1
290
     0
176
     1
 93
       13
176
     1
 44
0.0
176
     1
173
     0
176
     1
1001
ACAD
1000
AcDbSavedByObjectVersion
1070
     0
  0
VISUALSTYLE
  5
3E
102
{ACAD_XDICTIONARY
360
138
102
}
102
{ACAD_REACTORS
330
29
102
}
330
29
100
AcDbVisualStyle
  2
Shaded
 70
    27
177
     2
291
     0
 71
     2
176
     1
 72
     2
176
     1
 73
     1
176
     1
 90
        2
176
     1
 40
0.6
176
     1
 41
30.0
176
     1
 63
     7
421
 16777215
176
     1
 74
     0
176
     1
 91
        4
176
     1
 64
     7
176
     1
 65
   257
176
     1
 75
     1
176
     1
175
     1
176
     1
 42
1.0
176
     1
 92
        8
176
     1
 66
   257
176
     1
 43
1.0
176
     1
 76
     1
176
     1
 77
     6
176
     1
 78
     2
176
     1
 67
     8
425
  7895160
176
     1
 79
     3
176
     1
170
     0
176
     1
171
     0
176
     1
290
     0
176
     1
 93
        5
176
     1
 44
0.0
176
     1
173
     0
176
     1
1001
ACAD
1000
AcDbSavedByObjectVersion
1070
     0
  0
VISUALSTYLE
  5
3D
102
{ACAD_XDICTIONARY
360
136
102
}
102
{ACAD_REACTORS
330
29
102
}
330
29
100
AcDbVisualStyle
  2
Shaded with edges
 70
    26
177
     2
291
     0
 71
     2
176
     1
 72
     2
176
     1
 73
     1
176
     1
 90
        2
176
     1
 40
0.6
176
     1
 41
30.0
176
     1
 63
     7
421
 16777215
176
     1
 74
     1
176
     1
 91
        2
176
     1
 64
     7
176
     1
 65
   257
176
     1
 75
     2
176
     1
175
     1
176
     1
 42
1.0
176
     1
 92
        8
176
     1
 66
   257
176
     1
 43
1.0
176
     1
 76
     1
176
     1
 77
     6
176
     1
 78
     2
176
     1
 67
     7
176
     1
 79
     3
176
     1
170
     0
176
     1
171
     0
176
     1
290
     0
176
     1
 93
        5
176
     1
 44
0.0
176
     1
173
     0
176
     1
1001
ACAD
1000
AcDbSavedByObjectVersion
1070
     0
  0
VISUALSTYLE
  5
3A
102
{ACAD_XDICTIONARY
360
130
102
}
102
{ACAD_REACTORS
330
29
102
}
330
29
100
AcDbVisualStyle
  2
Shades of Gray
 70
    23
177
     2
291
     0
 71
     2
176
     1
 72
     2
176
     1
 73
     3
176
     1
 90
        0
176
     1
 40
0.6
176
     1
 41
30.0
176
     1
 63
     7
421
 16777215
176
     1
 74
     2
176
     1
 91
        2
176
     1
 64
     7
176
     1
 65
     7
176
     1
 75
     1
176
     1
175
     1
176
     1
 42
40.0
176
     1
 92
        8
176
     1
 66
     7
176
     1
 43
1.0
176
     1
 76
     1
176
     1
 77
     6
176
     1
 78
     2
176
     1
 67
     7
176
     1
 79
     3
176
     1
170
     0
176
     1
171
     0
176
     1
290
     0
176
     1
 93
        1
176
     1
 44
0.0
176
     1
173
     0
176
     1
1001
ACAD
1000
AcDbSavedByObjectVersion
1070
     0
  0
VISUALSTYLE
  5
3B
102
{ACAD_XDICTIONARY
360
132
102
}
102
{ACAD_REACTORS
330
29
102
}
330
29
100
AcDbVisualStyle
  2
Sketchy
 70
    24
177
     2
291
     0
 71
     1
176
     1
 72
     2
176
     1
 73
     2
176
     1
 90
        0
176
     1
 40
0.6
176
     1
 41
30.0
176
     1
 63
     7
421
 16777215
176
     1
 74
     2
176
     1
 91
        2
176
     1
 64
     7
176
     1
 65
     7
176
     1
 75
     1
176
     1
175
     1
176
     1
 42
40.0
176
     1
 92
       11
176
     1
 66
     7
176
     1
 43
1.0
176
     1
 76
     1
176
     1
 77
     6
176
     1
 78
     2
176
     1
 67
     7
176
     1
 79
     6
176
     1
170
     0
176
     1
171
     0
176
     1
290
     0
176
     1
 93
        1
176
     1
 44
0.0
176
     1
173
     0
176
     1
1001
ACAD
1000
AcDbSavedByObjectVersion
1070
     0
  0
VISUALSTYLE
  5
36
102
{ACAD_XDICTIONARY
360
128
102
}
102
{ACAD_REACTORS
330
29
102
}
330
29
100
AcDbVisualStyle
  2
Thicken
 70
    13
177
     2
291
     1
 71
     2
176
     1
 72
     2
176
     1
 73
     0
176
     1
 90
        0
176
     1
 40
0.6
176
     1
 41
30.0
176
     1
 63
     7
421
 16777215
176
     1
 74
     1
176
     1
 91
        4
176
     1
 64
     7
176
     1
 65
   257
176
     1
 75
     1
176
     1
175
     1
176
     1
 42
1.0
176
     1
 92
       12
176
     1
 66
     7
176
     1
 43
1.0
176
     1
 76
     1
176
     1
 77
     6
176
     1
 78
     2
176
     1
 67
     7
176
     1
 79
     5
176
     1
170
     0
176
     1
171
     0
176
     1
290
     0
176
     1
 93
        1
176
     1
 44
0.0
176
     1
173
     0
176
     1
1001
ACAD
1000
AcDbSavedByObjectVersion
1070
     0
  0
VISUALSTYLE
  5
30
102
{ACAD_XDICTIONARY
360
11C
102
}
102
{ACAD_REACTORS
330
29
102
}
330
29
100
AcDbVisualStyle
  2
Wireframe
 70
     5
177
     2
291
     0
 71
     0
176
     1
 72
     2
176
     1
 73
     0
176
     1
 90
        0
176
     1
 40
0.6
176
     1
 41
30.0
176
     1
 63
     7
421
 16777215
176
     1
 74
     1
176
     1
 91
        4
176
     1
 64
     7
176
     1
 65
   257
176
     1
 75
     1
176
     1
175
     1
176
     1
 42
1.0
176
     1
 92
        0
176
     1
 66
   257
176
     1
 43
1.0
176
     1
 76
     1
176
     1
 77
     6
176
     1
 78
     2
176
     1
 67
     7
176
     1
 79
     3
176
     1
170
     0
176
     1
171
     0
176
     1
290
     0
176
     1
 93
        1
176
     1
 44
0.0
176
     1
173
     0
176
     1
1001
ACAD
1000
AcDbSavedByObjectVersion
1070
     0
  0
VISUALSTYLE
  5
3C
102
{ACAD_XDICTIONARY
360
134
102
}
102
{ACAD_REACTORS
330
29
102
}
330
29
100
AcDbVisualStyle
  2
X-Ray
 70
    25
177
     2
291
     0
 71
     2
176
     1
 72
     2
176
     1
 73
     1
176
     1
 90
        1
176
     1
 40
0.5
176
     1
 41
30.0
176
     1
 63
     7
421
 16777215
176
     1
 74
     1
176
     1
 91
        0
176
     1
 64
     7
176
     1
 65
   257
176
     1
 75
     1
176
     1
175
     1
176
     1
 42
1.0
176
     1
 92
        8
176
     1
 66
     7
176
     1
 43
1.0
176
     1
 76
     1
176
     1
 77
     6
176
     1
 78
     2
176
     1
 67
     7
176
     1
 79
     3
176
     1
170
     0
176
     1
171
     0
176
     1
290
     0
176
     1
 93
       13
176
     1
 44
0.0
176
     1
173
     0
176
     1
1001
ACAD
1000
AcDbSavedByObjectVersion
1070
     0
  0
DICTIONARYVAR
  5
10C
102
{ACAD_REACTORS
330
107
102
}
330
107
100
DictionaryVariables
280
     0
  1
1:1
  0
DICTIONARYVAR
  5
109
102
{ACAD_REACTORS
330
107
102
}
330
107
100
DictionaryVariables
280
     0
  1
STANDARD
  0
DICTIONARYVAR
  5
108
102
{ACAD_REACTORS
330
107
102
}
330
107
100
DictionaryVariables
280
     0
  1
STANDARD
  0
DICTIONARYVAR
  5
10A
102
{ACAD_REACTORS
330
107
102
}
330
107
100
DictionaryVariables
280
     0
  1
Imperial24
  0
DICTIONARYVAR
  5
10B
102
{ACAD_REACTORS
330
107
102
}
330
107
100
DictionaryVariables
280
     0
  1
Imperial24
  0
DICTIONARY
  5
144
330
6B
100
AcDbDictionary
280
     1
281
     1
  3
ACAD_XREC_ROUNDTRIP
360
145
  0
DICTIONARY
  5
1A
330
19
100
AcDbDictionary
280
     1
281
     1
  3
BUMPTILE
360
1C
  3
DIFFUSETILE
360
1B
  3
OPACITYTILE
360
1F
  3
REFLECTIONTILE
360
1E
  3
REFRACTIONTILE
360
20
  3
SPECULARTILE
360
1D
  0
DICTIONARY
  5
12
330
11
100
AcDbDictionary
280
     1
281
     1
  3
BUMPTILE
360
14
  3
DIFFUSETILE
360
13
  3
OPACITYTILE
360
17
  3
REFLECTIONTILE
360
16
  3
REFRACTIONTILE
360
18
  3
SPECULARTILE
360
15
  0
DICTIONARY
  5
22
330
21
100
AcDbDictionary
280
     1
281
     1
  3
BUMPTILE
360
24
  3
DIFFUSETILE
360
23
  3
OPACITYTILE
360
27
  3
REFLECTIONTILE
360
26
  3
REFRACTIONTILE
360
28
  3
SPECULARTILE
360
25
  0
DICTIONARY
  5
140
330
67
100
AcDbDictionary
280
     1
281
     1
  3
ACAD_XREC_ROUNDTRIP
360
141
  0
DICTIONARY
  5
142
330
69
100
AcDbDictionary
280
     1
281
     1
  3
ACAD_XREC_ROUNDTRIP
360
143
  0
DICTIONARY
  5
10D
330
65
100
AcDbDictionary
280
     1
281
     1
  3
ACAD_ROUNDTRIP_2008_TABLESTYLE_CELLSTYLEMAP
360
10E
  0
DICTIONARY
  5
11A
330
2F
100
AcDbDictionary
280
     1
281
     1
  3
ACAD_XREC_ROUNDTRIP
360
11B
  0
DICTIONARY
  5
118
330
2E
100
AcDbDictionary
280
     1
281
     1
  3
ACAD_XREC_ROUNDTRIP
360
119
  0
DICTIONARY
  5
126
330
35
100
AcDbDictionary
280
     1
281
     1
  3
ACAD_XREC_ROUNDTRIP
360
127
  0
DICTIONARY
  5
12E
330
39
100
AcDbDictionary
280
     1
281
     1
  3
ACAD_XREC_ROUNDTRIP
360
12F
  0
DICTIONARY
  5
120
330
32
100
AcDbDictionary
280
     1
281
     1
  3
ACAD_XREC_ROUNDTRIP
360
121
  0
DICTIONARY
  5
124
330
34
100
AcDbDictionary
280
     1
281
     1
  3
ACAD_XREC_ROUNDTRIP
360
125
  0
DICTIONARY
  5
13E
330
41
100
AcDbDictionary
280
     1
281
     1
  3
ACAD_XREC_ROUNDTRIP
360
13F
  0
DICTIONARY
  5
12C
330
38
100
AcDbDictionary
280
     1
281
     1
  3
ACAD_XREC_ROUNDTRIP
360
12D
  0
DICTIONARY
  5
110
330
2A
100
AcDbDictionary
280
     1
281
     1
  3
ACAD_XREC_ROUNDTRIP
360
111
  0
DICTIONARY
  5
112
330
2B
100
AcDbDictionary
280
     1
281
     1
  3
ACAD_XREC_ROUNDTRIP
360
113
  0
DICTIONARY
  5
114
330
2C
100
AcDbDictionary
280
     1
281
     1
  3
ACAD_XREC_ROUNDTRIP
360
115
  0
DICTIONARY
  5
116
330
2D
100
AcDbDictionary
280
     1
281
     1
  3
ACAD_XREC_ROUNDTRIP
360
117
  0
DICTIONARY
  5
11E
330
31
100
AcDbDictionary
280
     1
281
     1
  3
ACAD_XREC_ROUNDTRIP
360
11F
  0
DICTIONARY
  5
13A
330
3F
100
AcDbDictionary
280
     1
281
     1
  3
ACAD_XREC_ROUNDTRIP
360
13B
  0
DICTIONARY
  5
12A
330
37
100
AcDbDictionary
280
     1
281
     1
  3
ACAD_XREC_ROUNDTRIP
360
12B
  0
DICTIONARY
  5
13C
330
40
100
AcDbDictionary
280
     1
281
     1
  3
ACAD_XREC_ROUNDTRIP
360
13D
  0
DICTIONARY
  5
122
330
33
100
AcDbDictionary
280
     1
281
     1
  3
ACAD_XREC_ROUNDTRIP
360
123
  0
DICTIONARY
  5
138
330
3E
100
AcDbDictionary
280
     1
281
     1
  3
ACAD_XREC_ROUNDTRIP
360
139
  0
DICTIONARY
  5
136
330
3D
100
AcDbDictionary
280
     1
281
     1
  3
ACAD_XREC_ROUNDTRIP
360
137
  0
DICTIONARY
  5
130
330
3A
100
AcDbDictionary
280
     1
281
     1
  3
ACAD_XREC_ROUNDTRIP
360
131
  0
DICTIONARY
  5
132
330
3B
100
AcDbDictionary
280
     1
281
     1
  3
ACAD_XREC_ROUNDTRIP
360
133
  0
DICTIONARY
  5
128
330
36
100
AcDbDictionary
280
     1
281
     1
  3
ACAD_XREC_ROUNDTRIP
360
129
  0
DICTIONARY
  5
11C
330
30
100
AcDbDictionary
280
     1
281
     1
  3
ACAD_XREC_ROUNDTRIP
360
11D
  0
DICTIONARY
  5
134
330
3C
100
AcDbDictionary
280
     1
281
     1
  3
ACAD_XREC_ROUNDTRIP
360
135
  0
XRECORD
  5
145
102
{ACAD_REACTORS
330
144
102
}
330
144
100
AcDbXrecord
280
     1
102
DISPLAYNAME
  1
Imperial24
102
FLAGS
 90
        0
  0
XRECORD
  5
1C
102
{ACAD_REACTORS
330
1A
102
}
330
1A
100
AcDbXrecord
280
     1
270
     1
271
     1
  0
XRECORD
  5
1B
102
{ACAD_REACTORS
330
1A
102
}
330
1A
100
AcDbXrecord
280
     1
270
     1
271
     1
  0
XRECORD
  5
1F
102
{ACAD_REACTORS
330
1A
102
}
330
1A
100
AcDbXrecord
280
     1
270
     1
271
     1
  0
XRECORD
  5
1E
102
{ACAD_REACTORS
330
1A
102
}
330
1A
100
AcDbXrecord
280
     1
270
     1
271
     1
  0
XRECORD
  5
20
102
{ACAD_REACTORS
330
1A
102
}
330
1A
100
AcDbXrecord
280
     1
270
     1
271
     1
  0
XRECORD
  5
1D
102
{ACAD_REACTORS
330
1A
102
}
330
1A
100
AcDbXrecord
280
     1
270
     1
271
     1
  0
XRECORD
  5
14
102
{ACAD_REACTORS
330
12
102
}
330
12
100
AcDbXrecord
280
     1
270
     1
271
     1
  0
XRECORD
  5
13
102
{ACAD_REACTORS
330
12
102
}
330
12
100
AcDbXrecord
280
     1
270
     1
271
     1
  0
XRECORD
  5
17
102
{ACAD_REACTORS
330
12
102
}
330
12
100
AcDbXrecord
280
     1
270
     1
271
     1
  0
XRECORD
  5
16
102
{ACAD_REACTORS
330
12
102
}
330
12
100
AcDbXrecord
280
     1
270
     1
271
     1
  0
XRECORD
  5
18
102
{ACAD_REACTORS
330
12
102
}
330
12
100
AcDbXrecord
280
     1
270
     1
271
     1
  0
XRECORD
  5
15
102
{ACAD_REACTORS
330
12
102
}
330
12
100
AcDbXrecord
280
     1
270
     1
271
     1
  0
XRECORD
  5
24
102
{ACAD_REACTORS
330
22
102
}
330
22
100
AcDbXrecord
280
     1
270
     1
271
     1
  0
XRECORD
  5
23
102
{ACAD_REACTORS
330
22
102
}
330
22
100
AcDbXrecord
280
     1
270
     1
271
     1
  0
XRECORD
  5
27
102
{ACAD_REACTORS
330
22
102
}
330
22
100
AcDbXrecord
280
     1
270
     1
271
     1
  0
XRECORD
  5
26
102
{ACAD_REACTORS
330
22
102
}
330
22
100
AcDbXrecord
280
     1
270
     1
271
     1
  0
XRECORD
  5
28
102
{ACAD_REACTORS
330
22
102
}
330
22
100
AcDbXrecord
280
     1
270
     1
271
     1
  0
XRECORD
  5
25
102
{ACAD_REACTORS
330
22
102
}
330
22
100
AcDbXrecord
280
     1
270
     1
271
     1
  0
XRECORD
  5
141
102
{ACAD_REACTORS
330
140
102
}
330
140
100
AcDbXrecord
280
     1
102
ACAD_ROUNDTRIP_2012_MLEADER_STYLE
298
     1
  0
XRECORD
  5
143
102
{ACAD_REACTORS
330
142
102
}
330
142
100
AcDbXrecord
280
     1
102
DISPLAYNAME
  1
Imperial24
102
FLAGS
 90
        0
  0
CELLSTYLEMAP
  5
10E
102
{ACAD_REACTORS
330
10D
102
}
330
10D
100
AcDbCellStyleMap
 90
        3
300
CELLSTYLE
  1
TABLEFORMAT_BEGIN
 90
        5
170
     1
 91
        0
 92
    32768
 62
   257
 93
        1
300
CONTENTFORMAT
  1
CONTENTFORMAT_BEGIN
 90
        0
 91
        0
 92
      512
 93
        0
300

 40
0.0
140
1.0
 94
        5
 62
     0
340
55
144
0.25
309
CONTENTFORMAT_END
171
     0
 94
        0
309
TABLEFORMAT_END
  1
CELLSTYLE_BEGIN
 90
        1
 91
        1
300
_TITLE
309
CELLSTYLE_END
300
CELLSTYLE
  1
TABLEFORMAT_BEGIN
 90
        5
170
     1
 91
        0
 92
        0
 62
   257
 93
        1
300
CONTENTFORMAT
  1
CONTENTFORMAT_BEGIN
 90
        0
 91
        0
 92
      512
 93
        0
300

 40
0.0
140
1.0
 94
        5
 62
     0
340
55
144
0.18
309
CONTENTFORMAT_END
171
     0
 94
        0
309
TABLEFORMAT_END
  1
CELLSTYLE_BEGIN
 90
        2
 91
        1
300
_HEADER
309
CELLSTYLE_END
300
CELLSTYLE
  1
TABLEFORMAT_BEGIN
 90
        5
170
     1
 91
        0
 92
        0
 62
   257
 93
        1
300
CONTENTFORMAT
  1
CONTENTFORMAT_BEGIN
 90
        0
 91
        0
 92
      512
 93
        0
300

 40
0.0
140
1.0
 94
        2
 62
     0
340
55
144
0.18
309
CONTENTFORMAT_END
171
     0
 94
        0
309
TABLEFORMAT_END
  1
CELLSTYLE_BEGIN
 90
        3
 91
        2
300
_DATA
309
CELLSTYLE_END
  0
XRECORD
  5
11B
102
{ACAD_REACTORS
330
11A
102
}
330
11A
100
AcDbXrecord
280
     1
102
RTVSPost2010Prop28
280
     1
102
RTVSPost2010PropOp28
 70
     1
102
RTVSPost2010Prop29
280
     1
102
RTVSPost2010PropOp29
 70
     1
102
RTVSPost2010Prop30
280
     0
102
RTVSPost2010PropOp30
 70
     1
102
RTVSPost2010Prop31
280
     0
102
RTVSPost2010PropOp31
 70
     1
102
RTVSPost2010Prop32
280
     0
102
RTVSPost2010PropOp32
 70
     1
102
RTVSPost2010Prop33
280
     0
102
RTVSPost2010PropOp33
 70
     1
102
RTVSPost2010Prop34
280
     0
102
RTVSPost2010PropOp34
 70
     1
102
RTVSPost2010Prop35
280
     0
102
RTVSPost2010PropOp35
 70
     1
102
RTVSPost2010Prop36
280
     0
102
RTVSPost2010PropOp36
 70
     1
102
RTVSPost2010Prop37
 90
       50
102
RTVSPost2010PropOp37
 70
     1
102
RTVSPost2010Prop38
140
0.0
102
RTVSPost2010PropOp38
 70
     1
102
RTVSPost2010Prop39
140
1.0
102
RTVSPost2010PropOp39
 70
     1
102
RTVSPost2010Prop40
 90
        0
102
RTVSPost2010PropOp40
 70
     1
102
RTVSPost2010Prop41ColorIndex
 90
       18
102
RTVSPost2010Prop41ColorRGB
 90
        0
102
RTVSPost2010PropOp41
 70
     1
102
RTVSPost2010Prop42
 90
       50
102
RTVSPost2010PropOp42
 70
     1
102
RTVSPost2010Prop43
 90
        3
102
RTVSPost2010PropOp43
 70
     1
102
RTVSPost2010Prop44ColorIndex
 90
        5
102
RTVSPost2010Prop44ColorRGB
 90
      255
102
RTVSPost2010PropOp44
 70
     1
102
RTVSPost2010Prop45
280
     0
102
RTVSPost2010PropOp45
 70
     1
102
RTVSPost2010Prop46
 90
       50
102
RTVSPost2010PropOp46
 70
     1
102
RTVSPost2010Prop47
 90
       50
102
RTVSPost2010PropOp47
 70
     1
102
RTVSPost2010Prop48
 90
       50
102
RTVSPost2010PropOp48
 70
     1
102
RTVSPost2010Prop49
280
     0
102
RTVSPost2010PropOp49
 70
     1
102
RTVSPost2010Prop50
 90
       50
102
RTVSPost2010PropOp50
 70
     1
102
RTVSPost2010Prop51ColorIndex
 90
      256
102
RTVSPost2010Prop51ColorRGB
 90
-16777216
102
RTVSPost2010PropOp51
 70
     0
102
RTVSPost2010Prop52
140
1.0
102
RTVSPost2010PropOp52
 70
     0
102
RTVSPost2010Prop53
 90
        2
102
RTVSPost2010PropOp53
 70
     1
102
RTVSPost2010Prop54
  1
strokes_ogs.tif
102
RTVSPost2010PropOp54
 70
     1
102
RTVSPost2010Prop55
280
     0
102
RTVSPost2010PropOp55
 70
     1
102
RTVSPost2010Prop56
140
1.0
102
RTVSPost2010PropOp56
 70
     1
102
RTVSPost2010Prop57
140
1.0
102
RTVSPost2010PropOp57
 70
     1
  0
XRECORD
  5
119
102
{ACAD_REACTORS
330
118
102
}
330
118
100
AcDbXrecord
280
     1
102
RTVSPost2010Prop28
280
     0
102
RTVSPost2010PropOp28
 70
     1
102
RTVSPost2010Prop29
280
     1
102
RTVSPost2010PropOp29
 70
     1
102
RTVSPost2010Prop30
280
     1
102
RTVSPost2010PropOp30
 70
     1
102
RTVSPost2010Prop31
280
     0
102
RTVSPost2010PropOp31
 70
     1
102
RTVSPost2010Prop32
280
     0
102
RTVSPost2010PropOp32
 70
     1
102
RTVSPost2010Prop33
280
     0
102
RTVSPost2010PropOp33
 70
     1
102
RTVSPost2010Prop34
280
     0
102
RTVSPost2010PropOp34
 70
     1
102
RTVSPost2010Prop35
280
     0
102
RTVSPost2010PropOp35
 70
     1
102
RTVSPost2010Prop36
280
     0
102
RTVSPost2010PropOp36
 70
     1
102
RTVSPost2010Prop37
 90
       50
102
RTVSPost2010PropOp37
 70
     1
102
RTVSPost2010Prop38
140
0.0
102
RTVSPost2010PropOp38
 70
     1
102
RTVSPost2010Prop39
140
1.0
102
RTVSPost2010PropOp39
 70
     1
102
RTVSPost2010Prop40
 90
        0
102
RTVSPost2010PropOp40
 70
     1
102
RTVSPost2010Prop41ColorIndex
 90
       18
102
RTVSPost2010Prop41ColorRGB
 90
        0
102
RTVSPost2010PropOp41
 70
     1
102
RTVSPost2010Prop42
 90
       50
102
RTVSPost2010PropOp42
 70
     1
102
RTVSPost2010Prop43
 90
        3
102
RTVSPost2010PropOp43
 70
     1
102
RTVSPost2010Prop44ColorIndex
 90
        5
102
RTVSPost2010Prop44ColorRGB
 90
      255
102
RTVSPost2010PropOp44
 70
     1
102
RTVSPost2010Prop45
280
     0
102
RTVSPost2010PropOp45
 70
     1
102
RTVSPost2010Prop46
 90
       50
102
RTVSPost2010PropOp46
 70
     1
102
RTVSPost2010Prop47
 90
       50
102
RTVSPost2010PropOp47
 70
     1
102
RTVSPost2010Prop48
 90
       50
102
RTVSPost2010PropOp48
 70
     1
102
RTVSPost2010Prop49
280
     0
102
RTVSPost2010PropOp49
 70
     1
102
RTVSPost2010Prop50
 90
       50
102
RTVSPost2010PropOp50
 70
     1
102
RTVSPost2010Prop51ColorIndex
 90
      256
102
RTVSPost2010Prop51ColorRGB
 90
-16777216
102
RTVSPost2010PropOp51
 70
     0
102
RTVSPost2010Prop52
140
1.0
102
RTVSPost2010PropOp52
 70
     0
102
RTVSPost2010Prop53
 90
        2
102
RTVSPost2010PropOp53
 70
     1
102
RTVSPost2010Prop54
  1
strokes_ogs.tif
102
RTVSPost2010PropOp54
 70
     1
102
RTVSPost2010Prop55
280
     0
102
RTVSPost2010PropOp55
 70
     1
102
RTVSPost2010Prop56
140
1.0
102
RTVSPost2010PropOp56
 70
     1
102
RTVSPost2010Prop57
140
1.0
102
RTVSPost2010PropOp57
 70
     1
  0
XRECORD
  5
127
102
{ACAD_REACTORS
330
126
102
}
330
126
100
AcDbXrecord
280
     1
102
RTVSPost2010Prop28
280
     0
102
RTVSPost2010PropOp28
 70
     1
102
RTVSPost2010Prop29
280
     1
102
RTVSPost2010PropOp29
 70
     1
102
RTVSPost2010Prop30
280
     1
102
RTVSPost2010PropOp30
 70
     1
102
RTVSPost2010Prop31
280
     0
102
RTVSPost2010PropOp31
 70
     1
102
RTVSPost2010Prop32
280
     0
102
RTVSPost2010PropOp32
 70
     1
102
RTVSPost2010Prop33
280
     0
102
RTVSPost2010PropOp33
 70
     1
102
RTVSPost2010Prop34
280
     0
102
RTVSPost2010PropOp34
 70
     1
102
RTVSPost2010Prop35
280
     0
102
RTVSPost2010PropOp35
 70
     1
102
RTVSPost2010Prop36
280
     0
102
RTVSPost2010PropOp36
 70
     1
102
RTVSPost2010Prop37
 90
       50
102
RTVSPost2010PropOp37
 70
     1
102
RTVSPost2010Prop38
140
0.0
102
RTVSPost2010PropOp38
 70
     1
102
RTVSPost2010Prop39
140
1.0
102
RTVSPost2010PropOp39
 70
     1
102
RTVSPost2010Prop40
 90
        0
102
RTVSPost2010PropOp40
 70
     1
102
RTVSPost2010Prop41ColorIndex
 90
       18
102
RTVSPost2010Prop41ColorRGB
 90
        0
102
RTVSPost2010PropOp41
 70
     1
102
RTVSPost2010Prop42
 90
       50
102
RTVSPost2010PropOp42
 70
     1
102
RTVSPost2010Prop43
 90
        3
102
RTVSPost2010PropOp43
 70
     1
102
RTVSPost2010Prop44ColorIndex
 90
        5
102
RTVSPost2010Prop44ColorRGB
 90
      255
102
RTVSPost2010PropOp44
 70
     1
102
RTVSPost2010Prop45
280
     0
102
RTVSPost2010PropOp45
 70
     1
102
RTVSPost2010Prop46
 90
       50
102
RTVSPost2010PropOp46
 70
     1
102
RTVSPost2010Prop47
 90
       50
102
RTVSPost2010PropOp47
 70
     1
102
RTVSPost2010Prop48
 90
       50
102
RTVSPost2010PropOp48
 70
     1
102
RTVSPost2010Prop49
280
     0
102
RTVSPost2010PropOp49
 70
     1
102
RTVSPost2010Prop50
 90
       50
102
RTVSPost2010PropOp50
 70
     1
102
RTVSPost2010Prop51ColorIndex
 90
      256
102
RTVSPost2010Prop51ColorRGB
 90
-16777216
102
RTVSPost2010PropOp51
 70
     0
102
RTVSPost2010Prop52
140
1.0
102
RTVSPost2010PropOp52
 70
     0
102
RTVSPost2010Prop53
 90
        2
102
RTVSPost2010PropOp53
 70
     1
102
RTVSPost2010Prop54
  1
strokes_ogs.tif
102
RTVSPost2010PropOp54
 70
     1
102
RTVSPost2010Prop55
280
     0
102
RTVSPost2010PropOp55
 70
     1
102
RTVSPost2010Prop56
140
1.0
102
RTVSPost2010PropOp56
 70
     1
102
RTVSPost2010Prop57
140
1.0
102
RTVSPost2010PropOp57
 70
     1
  0
XRECORD
  5
12F
102
{ACAD_REACTORS
330
12E
102
}
330
12E
100
AcDbXrecord
280
     1
102
RTVSPost2010Prop28
280
     0
102
RTVSPost2010PropOp28
 70
     1
102
RTVSPost2010Prop29
280
     1
102
RTVSPost2010PropOp29
 70
     1
102
RTVSPost2010Prop30
280
     1
102
RTVSPost2010PropOp30
 70
     1
102
RTVSPost2010Prop31
280
     0
102
RTVSPost2010PropOp31
 70
     1
102
RTVSPost2010Prop32
280
     0
102
RTVSPost2010PropOp32
 70
     1
102
RTVSPost2010Prop33
280
     0
102
RTVSPost2010PropOp33
 70
     1
102
RTVSPost2010Prop34
280
     0
102
RTVSPost2010PropOp34
 70
     1
102
RTVSPost2010Prop35
280
     0
102
RTVSPost2010PropOp35
 70
     1
102
RTVSPost2010Prop36
280
     0
102
RTVSPost2010PropOp36
 70
     1
102
RTVSPost2010Prop37
 90
       50
102
RTVSPost2010PropOp37
 70
     1
102
RTVSPost2010Prop38
140
0.0
102
RTVSPost2010PropOp38
 70
     1
102
RTVSPost2010Prop39
140
1.0
102
RTVSPost2010PropOp39
 70
     1
102
RTVSPost2010Prop40
 90
        0
102
RTVSPost2010PropOp40
 70
     1
102
RTVSPost2010Prop41ColorIndex
 90
       18
102
RTVSPost2010Prop41ColorRGB
 90
        0
102
RTVSPost2010PropOp41
 70
     1
102
RTVSPost2010Prop42
 90
       50
102
RTVSPost2010PropOp42
 70
     1
102
RTVSPost2010Prop43
 90
        3
102
RTVSPost2010PropOp43
 70
     1
102
RTVSPost2010Prop44ColorIndex
 90
        5
102
RTVSPost2010Prop44ColorRGB
 90
      255
102
RTVSPost2010PropOp44
 70
     1
102
RTVSPost2010Prop45
280
     0
102
RTVSPost2010PropOp45
 70
     1
102
RTVSPost2010Prop46
 90
       50
102
RTVSPost2010PropOp46
 70
     1
102
RTVSPost2010Prop47
 90
       50
102
RTVSPost2010PropOp47
 70
     1
102
RTVSPost2010Prop48
 90
       50
102
RTVSPost2010PropOp48
 70
     1
102
RTVSPost2010Prop49
280
     0
102
RTVSPost2010PropOp49
 70
     1
102
RTVSPost2010Prop50
 90
       50
102
RTVSPost2010PropOp50
 70
     1
102
RTVSPost2010Prop51ColorIndex
 90
      256
102
RTVSPost2010Prop51ColorRGB
 90
-16777216
102
RTVSPost2010PropOp51
 70
     0
102
RTVSPost2010Prop52
140
1.0
102
RTVSPost2010PropOp52
 70
     0
102
RTVSPost2010Prop53
 90
        2
102
RTVSPost2010PropOp53
 70
     1
102
RTVSPost2010Prop54
  1
strokes_ogs.tif
102
RTVSPost2010PropOp54
 70
     1
102
RTVSPost2010Prop55
280
     0
102
RTVSPost2010PropOp55
 70
     1
102
RTVSPost2010Prop56
140
1.0
102
RTVSPost2010PropOp56
 70
     1
102
RTVSPost2010Prop57
140
1.0
102
RTVSPost2010PropOp57
 70
     1
  0
XRECORD
  5
121
102
{ACAD_REACTORS
330
120
102
}
330
120
100
AcDbXrecord
280
     1
102
RTVSPost2010Prop28
280
     0
102
RTVSPost2010PropOp28
 70
     1
102
RTVSPost2010Prop29
280
     1
102
RTVSPost2010PropOp29
 70
     1
102
RTVSPost2010Prop30
280
     1
102
RTVSPost2010PropOp30
 70
     1
102
RTVSPost2010Prop31
280
     0
102
RTVSPost2010PropOp31
 70
     1
102
RTVSPost2010Prop32
280
     0
102
RTVSPost2010PropOp32
 70
     1
102
RTVSPost2010Prop33
280
     0
102
RTVSPost2010PropOp33
 70
     1
102
RTVSPost2010Prop34
280
     0
102
RTVSPost2010PropOp34
 70
     1
102
RTVSPost2010Prop35
280
     0
102
RTVSPost2010PropOp35
 70
     1
102
RTVSPost2010Prop36
280
     0
102
RTVSPost2010PropOp36
 70
     1
102
RTVSPost2010Prop37
 90
       50
102
RTVSPost2010PropOp37
 70
     1
102
RTVSPost2010Prop38
140
0.0
102
RTVSPost2010PropOp38
 70
     1
102
RTVSPost2010Prop39
140
1.0
102
RTVSPost2010PropOp39
 70
     1
102
RTVSPost2010Prop40
 90
        0
102
RTVSPost2010PropOp40
 70
     1
102
RTVSPost2010Prop41ColorIndex
 90
       18
102
RTVSPost2010Prop41ColorRGB
 90
        0
102
RTVSPost2010PropOp41
 70
     1
102
RTVSPost2010Prop42
 90
       50
102
RTVSPost2010PropOp42
 70
     1
102
RTVSPost2010Prop43
 90
        3
102
RTVSPost2010PropOp43
 70
     1
102
RTVSPost2010Prop44ColorIndex
 90
        5
102
RTVSPost2010Prop44ColorRGB
 90
      255
102
RTVSPost2010PropOp44
 70
     1
102
RTVSPost2010Prop45
280
     0
102
RTVSPost2010PropOp45
 70
     1
102
RTVSPost2010Prop46
 90
       50
102
RTVSPost2010PropOp46
 70
     1
102
RTVSPost2010Prop47
 90
       50
102
RTVSPost2010PropOp47
 70
     1
102
RTVSPost2010Prop48
 90
       50
102
RTVSPost2010PropOp48
 70
     1
102
RTVSPost2010Prop49
280
     0
102
RTVSPost2010PropOp49
 70
     1
102
RTVSPost2010Prop50
 90
       50
102
RTVSPost2010PropOp50
 70
     1
102
RTVSPost2010Prop51ColorIndex
 90
      256
102
RTVSPost2010Prop51ColorRGB
 90
-16777216
102
RTVSPost2010PropOp51
 70
     0
102
RTVSPost2010Prop52
140
1.0
102
RTVSPost2010PropOp52
 70
     0
102
RTVSPost2010Prop53
 90
        2
102
RTVSPost2010PropOp53
 70
     1
102
RTVSPost2010Prop54
  1
strokes_ogs.tif
102
RTVSPost2010PropOp54
 70
     1
102
RTVSPost2010Prop55
280
     0
102
RTVSPost2010PropOp55
 70
     1
102
RTVSPost2010Prop56
140
1.0
102
RTVSPost2010PropOp56
 70
     1
102
RTVSPost2010Prop57
140
1.0
102
RTVSPost2010PropOp57
 70
     1
  0
XRECORD
  5
125
102
{ACAD_REACTORS
330
124
102
}
330
124
100
AcDbXrecord
280
     1
102
RTVSPost2010Prop28
280
     0
102
RTVSPost2010PropOp28
 70
     1
102
RTVSPost2010Prop29
280
     1
102
RTVSPost2010PropOp29
 70
     1
102
RTVSPost2010Prop30
280
     1
102
RTVSPost2010PropOp30
 70
     1
102
RTVSPost2010Prop31
280
     0
102
RTVSPost2010PropOp31
 70
     1
102
RTVSPost2010Prop32
280
     0
102
RTVSPost2010PropOp32
 70
     1
102
RTVSPost2010Prop33
280
     0
102
RTVSPost2010PropOp33
 70
     1
102
RTVSPost2010Prop34
280
     0
102
RTVSPost2010PropOp34
 70
     1
102
RTVSPost2010Prop35
280
     0
102
RTVSPost2010PropOp35
 70
     1
102
RTVSPost2010Prop36
280
     0
102
RTVSPost2010PropOp36
 70
     1
102
RTVSPost2010Prop37
 90
       50
102
RTVSPost2010PropOp37
 70
     1
102
RTVSPost2010Prop38
140
0.0
102
RTVSPost2010PropOp38
 70
     1
102
RTVSPost2010Prop39
140
1.0
102
RTVSPost2010PropOp39
 70
     1
102
RTVSPost2010Prop40
 90
        0
102
RTVSPost2010PropOp40
 70
     1
102
RTVSPost2010Prop41ColorIndex
 90
       18
102
RTVSPost2010Prop41ColorRGB
 90
        0
102
RTVSPost2010PropOp41
 70
     1
102
RTVSPost2010Prop42
 90
       50
102
RTVSPost2010PropOp42
 70
     1
102
RTVSPost2010Prop43
 90
        3
102
RTVSPost2010PropOp43
 70
     1
102
RTVSPost2010Prop44ColorIndex
 90
        5
102
RTVSPost2010Prop44ColorRGB
 90
      255
102
RTVSPost2010PropOp44
 70
     1
102
RTVSPost2010Prop45
280
     0
102
RTVSPost2010PropOp45
 70
     1
102
RTVSPost2010Prop46
 90
       50
102
RTVSPost2010PropOp46
 70
     1
102
RTVSPost2010Prop47
 90
       50
102
RTVSPost2010PropOp47
 70
     1
102
RTVSPost2010Prop48
 90
       50
102
RTVSPost2010PropOp48
 70
     1
102
RTVSPost2010Prop49
280
     0
102
RTVSPost2010PropOp49
 70
     1
102
RTVSPost2010Prop50
 90
       50
102
RTVSPost2010PropOp50
 70
     1
102
RTVSPost2010Prop51ColorIndex
 90
      256
102
RTVSPost2010Prop51ColorRGB
 90
-16777216
102
RTVSPost2010PropOp51
 70
     0
102
RTVSPost2010Prop52
140
1.0
102
RTVSPost2010PropOp52
 70
     0
102
RTVSPost2010Prop53
 90
        2
102
RTVSPost2010PropOp53
 70
     1
102
RTVSPost2010Prop54
  1
strokes_ogs.tif
102
RTVSPost2010PropOp54
 70
     1
102
RTVSPost2010Prop55
280
     0
102
RTVSPost2010PropOp55
 70
     1
102
RTVSPost2010Prop56
140
1.0
102
RTVSPost2010PropOp56
 70
     1
102
RTVSPost2010Prop57
140
1.0
102
RTVSPost2010PropOp57
 70
     1
  0
XRECORD
  5
13F
102
{ACAD_REACTORS
330
13E
102
}
330
13E
100
AcDbXrecord
280
     1
102
RTVSPost2010Prop28
280
     0
102
RTVSPost2010PropOp28
 70
     0
102
RTVSPost2010Prop29
280
     1
102
RTVSPost2010PropOp29
 70
     0
102
RTVSPost2010Prop30
280
     1
102
RTVSPost2010PropOp30
 70
     0
102
RTVSPost2010Prop31
280
     0
102
RTVSPost2010PropOp31
 70
     0
102
RTVSPost2010Prop32
280
     0
102
RTVSPost2010PropOp32
 70
     0
102
RTVSPost2010Prop33
280
     0
102
RTVSPost2010PropOp33
 70
     0
102
RTVSPost2010Prop34
280
     0
102
RTVSPost2010PropOp34
 70
     0
102
RTVSPost2010Prop35
280
     0
102
RTVSPost2010PropOp35
 70
     0
102
RTVSPost2010Prop36
280
     0
102
RTVSPost2010PropOp36
 70
     0
102
RTVSPost2010Prop37
 90
       50
102
RTVSPost2010PropOp37
 70
     0
102
RTVSPost2010Prop38
140
0.0
102
RTVSPost2010PropOp38
 70
     0
102
RTVSPost2010Prop39
140
1.0
102
RTVSPost2010PropOp39
 70
     0
102
RTVSPost2010Prop40
 90
        0
102
RTVSPost2010PropOp40
 70
     0
102
RTVSPost2010Prop41ColorIndex
 90
       18
102
RTVSPost2010Prop41ColorRGB
 90
        0
102
RTVSPost2010PropOp41
 70
     0
102
RTVSPost2010Prop42
 90
       50
102
RTVSPost2010PropOp42
 70
     0
102
RTVSPost2010Prop43
 90
        3
102
RTVSPost2010PropOp43
 70
     0
102
RTVSPost2010Prop44ColorIndex
 90
        5
102
RTVSPost2010Prop44ColorRGB
 90
      255
102
RTVSPost2010PropOp44
 70
     0
102
RTVSPost2010Prop45
280
     0
102
RTVSPost2010PropOp45
 70
     0
102
RTVSPost2010Prop46
 90
       50
102
RTVSPost2010PropOp46
 70
     0
102
RTVSPost2010Prop47
 90
       50
102
RTVSPost2010PropOp47
 70
     0
102
RTVSPost2010Prop48
 90
       50
102
RTVSPost2010PropOp48
 70
     0
102
RTVSPost2010Prop49
280
     0
102
RTVSPost2010PropOp49
 70
     0
102
RTVSPost2010Prop50
 90
       50
102
RTVSPost2010PropOp50
 70
     0
102
RTVSPost2010Prop51ColorIndex
 90
      256
102
RTVSPost2010Prop51ColorRGB
 90
-16777216
102
RTVSPost2010PropOp51
 70
     0
102
RTVSPost2010Prop52
140
1.0
102
RTVSPost2010PropOp52
 70
     0
102
RTVSPost2010Prop53
 90
        2
102
RTVSPost2010PropOp53
 70
     0
102
RTVSPost2010Prop54
  1
strokes_ogs.tif
102
RTVSPost2010PropOp54
 70
     0
102
RTVSPost2010Prop55
280
     0
102
RTVSPost2010PropOp55
 70
     0
102
RTVSPost2010Prop56
140
1.0
102
RTVSPost2010PropOp56
 70
     0
102
RTVSPost2010Prop57
140
1.0
102
RTVSPost2010PropOp57
 70
     0
  0
XRECORD
  5
12D
102
{ACAD_REACTORS
330
12C
102
}
330
12C
100
AcDbXrecord
280
     1
102
RTVSPost2010Prop28
280
     0
102
RTVSPost2010PropOp28
 70
     1
102
RTVSPost2010Prop29
280
     1
102
RTVSPost2010PropOp29
 70
     1
102
RTVSPost2010Prop30
280
     1
102
RTVSPost2010PropOp30
 70
     1
102
RTVSPost2010Prop31
280
     0
102
RTVSPost2010PropOp31
 70
     1
102
RTVSPost2010Prop32
280
     0
102
RTVSPost2010PropOp32
 70
     1
102
RTVSPost2010Prop33
280
     0
102
RTVSPost2010PropOp33
 70
     1
102
RTVSPost2010Prop34
280
     0
102
RTVSPost2010PropOp34
 70
     1
102
RTVSPost2010Prop35
280
     0
102
RTVSPost2010PropOp35
 70
     1
102
RTVSPost2010Prop36
280
     0
102
RTVSPost2010PropOp36
 70
     1
102
RTVSPost2010Prop37
 90
       50
102
RTVSPost2010PropOp37
 70
     1
102
RTVSPost2010Prop38
140
0.0
102
RTVSPost2010PropOp38
 70
     1
102
RTVSPost2010Prop39
140
1.0
102
RTVSPost2010PropOp39
 70
     1
102
RTVSPost2010Prop40
 90
        0
102
RTVSPost2010PropOp40
 70
     1
102
RTVSPost2010Prop41ColorIndex
 90
       18
102
RTVSPost2010Prop41ColorRGB
 90
        0
102
RTVSPost2010PropOp41
 70
     1
102
RTVSPost2010Prop42
 90
       50
102
RTVSPost2010PropOp42
 70
     1
102
RTVSPost2010Prop43
 90
        3
102
RTVSPost2010PropOp43
 70
     1
102
RTVSPost2010Prop44ColorIndex
 90
        5
102
RTVSPost2010Prop44ColorRGB
 90
      255
102
RTVSPost2010PropOp44
 70
     1
102
RTVSPost2010Prop45
280
     0
102
RTVSPost2010PropOp45
 70
     1
102
RTVSPost2010Prop46
 90
       50
102
RTVSPost2010PropOp46
 70
     1
102
RTVSPost2010Prop47
 90
       50
102
RTVSPost2010PropOp47
 70
     1
102
RTVSPost2010Prop48
 90
       50
102
RTVSPost2010PropOp48
 70
     1
102
RTVSPost2010Prop49
280
     0
102
RTVSPost2010PropOp49
 70
     1
102
RTVSPost2010Prop50
 90
       50
102
RTVSPost2010PropOp50
 70
     1
102
RTVSPost2010Prop51ColorIndex
 90
      256
102
RTVSPost2010Prop51ColorRGB
 90
-16777216
102
RTVSPost2010PropOp51
 70
     0
102
RTVSPost2010Prop52
140
1.0
102
RTVSPost2010PropOp52
 70
     0
102
RTVSPost2010Prop53
 90
        2
102
RTVSPost2010PropOp53
 70
     1
102
RTVSPost2010Prop54
  1
strokes_ogs.tif
102
RTVSPost2010PropOp54
 70
     1
102
RTVSPost2010Prop55
280
     0
102
RTVSPost2010PropOp55
 70
     1
102
RTVSPost2010Prop56
140
1.0
102
RTVSPost2010PropOp56
 70
     1
102
RTVSPost2010Prop57
140
1.0
102
RTVSPost2010PropOp57
 70
     1
  0
XRECORD
  5
111
102
{ACAD_REACTORS
330
110
102
}
330
110
100
AcDbXrecord
280
     1
102
RTVSPost2010Prop28
280
     0
102
RTVSPost2010PropOp28
 70
     1
102
RTVSPost2010Prop29
280
     1
102
RTVSPost2010PropOp29
 70
     1
102
RTVSPost2010Prop30
280
     1
102
RTVSPost2010PropOp30
 70
     1
102
RTVSPost2010Prop31
280
     0
102
RTVSPost2010PropOp31
 70
     1
102
RTVSPost2010Prop32
280
     0
102
RTVSPost2010PropOp32
 70
     1
102
RTVSPost2010Prop33
280
     0
102
RTVSPost2010PropOp33
 70
     1
102
RTVSPost2010Prop34
280
     0
102
RTVSPost2010PropOp34
 70
     1
102
RTVSPost2010Prop35
280
     0
102
RTVSPost2010PropOp35
 70
     1
102
RTVSPost2010Prop36
280
     0
102
RTVSPost2010PropOp36
 70
     1
102
RTVSPost2010Prop37
 90
       50
102
RTVSPost2010PropOp37
 70
     1
102
RTVSPost2010Prop38
140
0.0
102
RTVSPost2010PropOp38
 70
     1
102
RTVSPost2010Prop39
140
1.0
102
RTVSPost2010PropOp39
 70
     1
102
RTVSPost2010Prop40
 90
        0
102
RTVSPost2010PropOp40
 70
     1
102
RTVSPost2010Prop41ColorIndex
 90
       18
102
RTVSPost2010Prop41ColorRGB
 90
        0
102
RTVSPost2010PropOp41
 70
     1
102
RTVSPost2010Prop42
 90
       50
102
RTVSPost2010PropOp42
 70
     1
102
RTVSPost2010Prop43
 90
        3
102
RTVSPost2010PropOp43
 70
     1
102
RTVSPost2010Prop44ColorIndex
 90
        5
102
RTVSPost2010Prop44ColorRGB
 90
      255
102
RTVSPost2010PropOp44
 70
     1
102
RTVSPost2010Prop45
280
     0
102
RTVSPost2010PropOp45
 70
     1
102
RTVSPost2010Prop46
 90
       50
102
RTVSPost2010PropOp46
 70
     1
102
RTVSPost2010Prop47
 90
       50
102
RTVSPost2010PropOp47
 70
     1
102
RTVSPost2010Prop48
 90
       50
102
RTVSPost2010PropOp48
 70
     1
102
RTVSPost2010Prop49
280
     0
102
RTVSPost2010PropOp49
 70
     1
102
RTVSPost2010Prop50
 90
       50
102
RTVSPost2010PropOp50
 70
     1
102
RTVSPost2010Prop51ColorIndex
 90
      256
102
RTVSPost2010Prop51ColorRGB
 90
-16777216
102
RTVSPost2010PropOp51
 70
     0
102
RTVSPost2010Prop52
140
1.0
102
RTVSPost2010PropOp52
 70
     0
102
RTVSPost2010Prop53
 90
        2
102
RTVSPost2010PropOp53
 70
     1
102
RTVSPost2010Prop54
  1
strokes_ogs.tif
102
RTVSPost2010PropOp54
 70
     1
102
RTVSPost2010Prop55
280
     0
102
RTVSPost2010PropOp55
 70
     1
102
RTVSPost2010Prop56
140
1.0
102
RTVSPost2010PropOp56
 70
     1
102
RTVSPost2010Prop57
140
1.0
102
RTVSPost2010PropOp57
 70
     1
  0
XRECORD
  5
113
102
{ACAD_REACTORS
330
112
102
}
330
112
100
AcDbXrecord
280
     1
102
RTVSPost2010Prop28
280
     0
102
RTVSPost2010PropOp28
 70
     1
102
RTVSPost2010Prop29
280
     1
102
RTVSPost2010PropOp29
 70
     1
102
RTVSPost2010Prop30
280
     1
102
RTVSPost2010PropOp30
 70
     1
102
RTVSPost2010Prop31
280
     0
102
RTVSPost2010PropOp31
 70
     1
102
RTVSPost2010Prop32
280
     0
102
RTVSPost2010PropOp32
 70
     1
102
RTVSPost2010Prop33
280
     0
102
RTVSPost2010PropOp33
 70
     1
102
RTVSPost2010Prop34
280
     0
102
RTVSPost2010PropOp34
 70
     1
102
RTVSPost2010Prop35
280
     0
102
RTVSPost2010PropOp35
 70
     1
102
RTVSPost2010Prop36
280
     0
102
RTVSPost2010PropOp36
 70
     1
102
RTVSPost2010Prop37
 90
       50
102
RTVSPost2010PropOp37
 70
     1
102
RTVSPost2010Prop38
140
0.0
102
RTVSPost2010PropOp38
 70
     1
102
RTVSPost2010Prop39
140
1.0
102
RTVSPost2010PropOp39
 70
     1
102
RTVSPost2010Prop40
 90
        0
102
RTVSPost2010PropOp40
 70
     1
102
RTVSPost2010Prop41ColorIndex
 90
       18
102
RTVSPost2010Prop41ColorRGB
 90
        0
102
RTVSPost2010PropOp41
 70
     1
102
RTVSPost2010Prop42
 90
       50
102
RTVSPost2010PropOp42
 70
     1
102
RTVSPost2010Prop43
 90
        3
102
RTVSPost2010PropOp43
 70
     1
102
RTVSPost2010Prop44ColorIndex
 90
        5
102
RTVSPost2010Prop44ColorRGB
 90
      255
102
RTVSPost2010PropOp44
 70
     1
102
RTVSPost2010Prop45
280
     0
102
RTVSPost2010PropOp45
 70
     1
102
RTVSPost2010Prop46
 90
       50
102
RTVSPost2010PropOp46
 70
     1
102
RTVSPost2010Prop47
 90
       50
102
RTVSPost2010PropOp47
 70
     1
102
RTVSPost2010Prop48
 90
       50
102
RTVSPost2010PropOp48
 70
     1
102
RTVSPost2010Prop49
280
     0
102
RTVSPost2010PropOp49
 70
     1
102
RTVSPost2010Prop50
 90
       50
102
RTVSPost2010PropOp50
 70
     1
102
RTVSPost2010Prop51ColorIndex
 90
      256
102
RTVSPost2010Prop51ColorRGB
 90
-16777216
102
RTVSPost2010PropOp51
 70
     0
102
RTVSPost2010Prop52
140
1.0
102
RTVSPost2010PropOp52
 70
     0
102
RTVSPost2010Prop53
 90
        2
102
RTVSPost2010PropOp53
 70
     1
102
RTVSPost2010Prop54
  1
strokes_ogs.tif
102
RTVSPost2010PropOp54
 70
     1
102
RTVSPost2010Prop55
280
     0
102
RTVSPost2010PropOp55
 70
     1
102
RTVSPost2010Prop56
140
1.0
102
RTVSPost2010PropOp56
 70
     1
102
RTVSPost2010Prop57
140
1.0
102
RTVSPost2010PropOp57
 70
     1
  0
XRECORD
  5
115
102
{ACAD_REACTORS
330
114
102
}
330
114
100
AcDbXrecord
280
     1
102
RTVSPost2010Prop28
280
     0
102
RTVSPost2010PropOp28
 70
     1
102
RTVSPost2010Prop29
280
     1
102
RTVSPost2010PropOp29
 70
     1
102
RTVSPost2010Prop30
280
     1
102
RTVSPost2010PropOp30
 70
     1
102
RTVSPost2010Prop31
280
     0
102
RTVSPost2010PropOp31
 70
     1
102
RTVSPost2010Prop32
280
     0
102
RTVSPost2010PropOp32
 70
     1
102
RTVSPost2010Prop33
280
     0
102
RTVSPost2010PropOp33
 70
     1
102
RTVSPost2010Prop34
280
     0
102
RTVSPost2010PropOp34
 70
     1
102
RTVSPost2010Prop35
280
     0
102
RTVSPost2010PropOp35
 70
     1
102
RTVSPost2010Prop36
280
     0
102
RTVSPost2010PropOp36
 70
     1
102
RTVSPost2010Prop37
 90
       50
102
RTVSPost2010PropOp37
 70
     1
102
RTVSPost2010Prop38
140
0.0
102
RTVSPost2010PropOp38
 70
     1
102
RTVSPost2010Prop39
140
1.0
102
RTVSPost2010PropOp39
 70
     1
102
RTVSPost2010Prop40
 90
        0
102
RTVSPost2010PropOp40
 70
     1
102
RTVSPost2010Prop41ColorIndex
 90
       18
102
RTVSPost2010Prop41ColorRGB
 90
        0
102
RTVSPost2010PropOp41
 70
     1
102
RTVSPost2010Prop42
 90
       50
102
RTVSPost2010PropOp42
 70
     1
102
RTVSPost2010Prop43
 90
        3
102
RTVSPost2010PropOp43
 70
     1
102
RTVSPost2010Prop44ColorIndex
 90
        5
102
RTVSPost2010Prop44ColorRGB
 90
      255
102
RTVSPost2010PropOp44
 70
     1
102
RTVSPost2010Prop45
280
     0
102
RTVSPost2010PropOp45
 70
     1
102
RTVSPost2010Prop46
 90
       50
102
RTVSPost2010PropOp46
 70
     1
102
RTVSPost2010Prop47
 90
       50
102
RTVSPost2010PropOp47
 70
     1
102
RTVSPost2010Prop48
 90
       50
102
RTVSPost2010PropOp48
 70
     1
102
RTVSPost2010Prop49
280
     0
102
RTVSPost2010PropOp49
 70
     1
102
RTVSPost2010Prop50
 90
       50
102
RTVSPost2010PropOp50
 70
     1
102
RTVSPost2010Prop51ColorIndex
 90
      256
102
RTVSPost2010Prop51ColorRGB
 90
-16777216
102
RTVSPost2010PropOp51
 70
     0
102
RTVSPost2010Prop52
140
1.0
102
RTVSPost2010PropOp52
 70
     0
102
RTVSPost2010Prop53
 90
        2
102
RTVSPost2010PropOp53
 70
     1
102
RTVSPost2010Prop54
  1
strokes_ogs.tif
102
RTVSPost2010PropOp54
 70
     1
102
RTVSPost2010Prop55
280
     0
102
RTVSPost2010PropOp55
 70
     1
102
RTVSPost2010Prop56
140
1.0
102
RTVSPost2010PropOp56
 70
     1
102
RTVSPost2010Prop57
140
1.0
102
RTVSPost2010PropOp57
 70
     1
  0
XRECORD
  5
117
102
{ACAD_REACTORS
330
116
102
}
330
116
100
AcDbXrecord
280
     1
102
RTVSPost2010Prop28
280
     0
102
RTVSPost2010PropOp28
 70
     1
102
RTVSPost2010Prop29
280
     1
102
RTVSPost2010PropOp29
 70
     1
102
RTVSPost2010Prop30
280
     1
102
RTVSPost2010PropOp30
 70
     1
102
RTVSPost2010Prop31
280
     0
102
RTVSPost2010PropOp31
 70
     1
102
RTVSPost2010Prop32
280
     0
102
RTVSPost2010PropOp32
 70
     1
102
RTVSPost2010Prop33
280
     0
102
RTVSPost2010PropOp33
 70
     1
102
RTVSPost2010Prop34
280
     0
102
RTVSPost2010PropOp34
 70
     1
102
RTVSPost2010Prop35
280
     0
102
RTVSPost2010PropOp35
 70
     1
102
RTVSPost2010Prop36
280
     0
102
RTVSPost2010PropOp36
 70
     1
102
RTVSPost2010Prop37
 90
       50
102
RTVSPost2010PropOp37
 70
     1
102
RTVSPost2010Prop38
140
0.0
102
RTVSPost2010PropOp38
 70
     1
102
RTVSPost2010Prop39
140
1.0
102
RTVSPost2010PropOp39
 70
     1
102
RTVSPost2010Prop40
 90
        0
102
RTVSPost2010PropOp40
 70
     1
102
RTVSPost2010Prop41ColorIndex
 90
       18
102
RTVSPost2010Prop41ColorRGB
 90
        0
102
RTVSPost2010PropOp41
 70
     1
102
RTVSPost2010Prop42
 90
       50
102
RTVSPost2010PropOp42
 70
     1
102
RTVSPost2010Prop43
 90
        3
102
RTVSPost2010PropOp43
 70
     1
102
RTVSPost2010Prop44ColorIndex
 90
        5
102
RTVSPost2010Prop44ColorRGB
 90
      255
102
RTVSPost2010PropOp44
 70
     1
102
RTVSPost2010Prop45
280
     0
102
RTVSPost2010PropOp45
 70
     1
102
RTVSPost2010Prop46
 90
       50
102
RTVSPost2010PropOp46
 70
     1
102
RTVSPost2010Prop47
 90
       50
102
RTVSPost2010PropOp47
 70
     1
102
RTVSPost2010Prop48
 90
       50
102
RTVSPost2010PropOp48
 70
     1
102
RTVSPost2010Prop49
280
     0
102
RTVSPost2010PropOp49
 70
     1
102
RTVSPost2010Prop50
 90
       50
102
RTVSPost2010PropOp50
 70
     1
102
RTVSPost2010Prop51ColorIndex
 90
      256
102
RTVSPost2010Prop51ColorRGB
 90
-16777216
102
RTVSPost2010PropOp51
 70
     0
102
RTVSPost2010Prop52
140
1.0
102
RTVSPost2010PropOp52
 70
     0
102
RTVSPost2010Prop53
 90
        2
102
RTVSPost2010PropOp53
 70
     1
102
RTVSPost2010Prop54
  1
strokes_ogs.tif
102
RTVSPost2010PropOp54
 70
     1
102
RTVSPost2010Prop55
280
     0
102
RTVSPost2010PropOp55
 70
     1
102
RTVSPost2010Prop56
140
1.0
102
RTVSPost2010PropOp56
 70
     1
102
RTVSPost2010Prop57
140
1.0
102
RTVSPost2010PropOp57
 70
     1
  0
XRECORD
  5
11F
102
{ACAD_REACTORS
330
11E
102
}
330
11E
100
AcDbXrecord
280
     1
102
RTVSPost2010Prop28
280
     0
102
RTVSPost2010PropOp28
 70
     1
102
RTVSPost2010Prop29
280
     1
102
RTVSPost2010PropOp29
 70
     1
102
RTVSPost2010Prop30
280
     1
102
RTVSPost2010PropOp30
 70
     1
102
RTVSPost2010Prop31
280
     0
102
RTVSPost2010PropOp31
 70
     1
102
RTVSPost2010Prop32
280
     0
102
RTVSPost2010PropOp32
 70
     1
102
RTVSPost2010Prop33
280
     0
102
RTVSPost2010PropOp33
 70
     1
102
RTVSPost2010Prop34
280
     0
102
RTVSPost2010PropOp34
 70
     1
102
RTVSPost2010Prop35
280
     0
102
RTVSPost2010PropOp35
 70
     1
102
RTVSPost2010Prop36
280
     0
102
RTVSPost2010PropOp36
 70
     1
102
RTVSPost2010Prop37
 90
       50
102
RTVSPost2010PropOp37
 70
     1
102
RTVSPost2010Prop38
140
0.0
102
RTVSPost2010PropOp38
 70
     1
102
RTVSPost2010Prop39
140
1.0
102
RTVSPost2010PropOp39
 70
     1
102
RTVSPost2010Prop40
 90
        0
102
RTVSPost2010PropOp40
 70
     1
102
RTVSPost2010Prop41ColorIndex
 90
       18
102
RTVSPost2010Prop41ColorRGB
 90
        0
102
RTVSPost2010PropOp41
 70
     1
102
RTVSPost2010Prop42
 90
       50
102
RTVSPost2010PropOp42
 70
     1
102
RTVSPost2010Prop43
 90
        3
102
RTVSPost2010PropOp43
 70
     1
102
RTVSPost2010Prop44ColorIndex
 90
        5
102
RTVSPost2010Prop44ColorRGB
 90
      255
102
RTVSPost2010PropOp44
 70
     1
102
RTVSPost2010Prop45
280
     0
102
RTVSPost2010PropOp45
 70
     1
102
RTVSPost2010Prop46
 90
       50
102
RTVSPost2010PropOp46
 70
     1
102
RTVSPost2010Prop47
 90
       50
102
RTVSPost2010PropOp47
 70
     1
102
RTVSPost2010Prop48
 90
       50
102
RTVSPost2010PropOp48
 70
     1
102
RTVSPost2010Prop49
280
     0
102
RTVSPost2010PropOp49
 70
     1
102
RTVSPost2010Prop50
 90
       50
102
RTVSPost2010PropOp50
 70
     1
102
RTVSPost2010Prop51ColorIndex
 90
      256
102
RTVSPost2010Prop51ColorRGB
 90
-16777216
102
RTVSPost2010PropOp51
 70
     0
102
RTVSPost2010Prop52
140
1.0
102
RTVSPost2010PropOp52
 70
     0
102
RTVSPost2010Prop53
 90
        2
102
RTVSPost2010PropOp53
 70
     1
102
RTVSPost2010Prop54
  1
strokes_ogs.tif
102
RTVSPost2010PropOp54
 70
     1
102
RTVSPost2010Prop55
280
     0
102
RTVSPost2010PropOp55
 70
     1
102
RTVSPost2010Prop56
140
1.0
102
RTVSPost2010PropOp56
 70
     1
102
RTVSPost2010Prop57
140
1.0
102
RTVSPost2010PropOp57
 70
     1
  0
XRECORD
  5
13B
102
{ACAD_REACTORS
330
13A
102
}
330
13A
100
AcDbXrecord
280
     1
102
RTVSPost2010Prop28
280
     0
102
RTVSPost2010PropOp28
 70
     0
102
RTVSPost2010Prop29
280
     1
102
RTVSPost2010PropOp29
 70
     0
102
RTVSPost2010Prop30
280
     1
102
RTVSPost2010PropOp30
 70
     0
102
RTVSPost2010Prop31
280
     0
102
RTVSPost2010PropOp31
 70
     0
102
RTVSPost2010Prop32
280
     0
102
RTVSPost2010PropOp32
 70
     0
102
RTVSPost2010Prop33
280
     0
102
RTVSPost2010PropOp33
 70
     0
102
RTVSPost2010Prop34
280
     0
102
RTVSPost2010PropOp34
 70
     0
102
RTVSPost2010Prop35
280
     0
102
RTVSPost2010PropOp35
 70
     0
102
RTVSPost2010Prop36
280
     0
102
RTVSPost2010PropOp36
 70
     0
102
RTVSPost2010Prop37
 90
       50
102
RTVSPost2010PropOp37
 70
     0
102
RTVSPost2010Prop38
140
0.0
102
RTVSPost2010PropOp38
 70
     0
102
RTVSPost2010Prop39
140
1.0
102
RTVSPost2010PropOp39
 70
     0
102
RTVSPost2010Prop40
 90
        0
102
RTVSPost2010PropOp40
 70
     0
102
RTVSPost2010Prop41ColorIndex
 90
       18
102
RTVSPost2010Prop41ColorRGB
 90
        0
102
RTVSPost2010PropOp41
 70
     0
102
RTVSPost2010Prop42
 90
       50
102
RTVSPost2010PropOp42
 70
     0
102
RTVSPost2010Prop43
 90
        3
102
RTVSPost2010PropOp43
 70
     0
102
RTVSPost2010Prop44ColorIndex
 90
        5
102
RTVSPost2010Prop44ColorRGB
 90
      255
102
RTVSPost2010PropOp44
 70
     0
102
RTVSPost2010Prop45
280
     0
102
RTVSPost2010PropOp45
 70
     0
102
RTVSPost2010Prop46
 90
       50
102
RTVSPost2010PropOp46
 70
     0
102
RTVSPost2010Prop47
 90
       50
102
RTVSPost2010PropOp47
 70
     0
102
RTVSPost2010Prop48
 90
       50
102
RTVSPost2010PropOp48
 70
     0
102
RTVSPost2010Prop49
280
     0
102
RTVSPost2010PropOp49
 70
     0
102
RTVSPost2010Prop50
 90
       50
102
RTVSPost2010PropOp50
 70
     0
102
RTVSPost2010Prop51ColorIndex
 90
      256
102
RTVSPost2010Prop51ColorRGB
 90
-16777216
102
RTVSPost2010PropOp51
 70
     0
102
RTVSPost2010Prop52
140
1.0
102
RTVSPost2010PropOp52
 70
     0
102
RTVSPost2010Prop53
 90
        2
102
RTVSPost2010PropOp53
 70
     0
102
RTVSPost2010Prop54
  1
strokes_ogs.tif
102
RTVSPost2010PropOp54
 70
     0
102
RTVSPost2010Prop55
280
     0
102
RTVSPost2010PropOp55
 70
     0
102
RTVSPost2010Prop56
140
1.0
102
RTVSPost2010PropOp56
 70
     0
102
RTVSPost2010Prop57
140
1.0
102
RTVSPost2010PropOp57
 70
     0
  0
XRECORD
  5
12B
102
{ACAD_REACTORS
330
12A
102
}
330
12A
100
AcDbXrecord
280
     1
102
RTVSPost2010Prop28
280
     0
102
RTVSPost2010PropOp28
 70
     1
102
RTVSPost2010Prop29
280
     1
102
RTVSPost2010PropOp29
 70
     1
102
RTVSPost2010Prop30
280
     1
102
RTVSPost2010PropOp30
 70
     1
102
RTVSPost2010Prop31
280
     0
102
RTVSPost2010PropOp31
 70
     1
102
RTVSPost2010Prop32
280
     0
102
RTVSPost2010PropOp32
 70
     1
102
RTVSPost2010Prop33
280
     0
102
RTVSPost2010PropOp33
 70
     1
102
RTVSPost2010Prop34
280
     0
102
RTVSPost2010PropOp34
 70
     1
102
RTVSPost2010Prop35
280
     0
102
RTVSPost2010PropOp35
 70
     1
102
RTVSPost2010Prop36
280
     0
102
RTVSPost2010PropOp36
 70
     1
102
RTVSPost2010Prop37
 90
       50
102
RTVSPost2010PropOp37
 70
     1
102
RTVSPost2010Prop38
140
0.0
102
RTVSPost2010PropOp38
 70
     1
102
RTVSPost2010Prop39
140
1.0
102
RTVSPost2010PropOp39
 70
     1
102
RTVSPost2010Prop40
 90
        0
102
RTVSPost2010PropOp40
 70
     1
102
RTVSPost2010Prop41ColorIndex
 90
       18
102
RTVSPost2010Prop41ColorRGB
 90
        0
102
RTVSPost2010PropOp41
 70
     1
102
RTVSPost2010Prop42
 90
       50
102
RTVSPost2010PropOp42
 70
     1
102
RTVSPost2010Prop43
 90
        3
102
RTVSPost2010PropOp43
 70
     1
102
RTVSPost2010Prop44ColorIndex
 90
        5
102
RTVSPost2010Prop44ColorRGB
 90
      255
102
RTVSPost2010PropOp44
 70
     1
102
RTVSPost2010Prop45
280
     0
102
RTVSPost2010PropOp45
 70
     1
102
RTVSPost2010Prop46
 90
       50
102
RTVSPost2010PropOp46
 70
     1
102
RTVSPost2010Prop47
 90
       50
102
RTVSPost2010PropOp47
 70
     1
102
RTVSPost2010Prop48
 90
       50
102
RTVSPost2010PropOp48
 70
     1
102
RTVSPost2010Prop49
280
     0
102
RTVSPost2010PropOp49
 70
     1
102
RTVSPost2010Prop50
 90
       50
102
RTVSPost2010PropOp50
 70
     1
102
RTVSPost2010Prop51ColorIndex
 90
      256
102
RTVSPost2010Prop51ColorRGB
 90
-16777216
102
RTVSPost2010PropOp51
 70
     0
102
RTVSPost2010Prop52
140
1.0
102
RTVSPost2010PropOp52
 70
     0
102
RTVSPost2010Prop53
 90
        2
102
RTVSPost2010PropOp53
 70
     1
102
RTVSPost2010Prop54
  1
strokes_ogs.tif
102
RTVSPost2010PropOp54
 70
     1
102
RTVSPost2010Prop55
280
     0
102
RTVSPost2010PropOp55
 70
     1
102
RTVSPost2010Prop56
140
1.0
102
RTVSPost2010PropOp56
 70
     1
102
RTVSPost2010Prop57
140
1.0
102
RTVSPost2010PropOp57
 70
     1
  0
XRECORD
  5
13D
102
{ACAD_REACTORS
330
13C
102
}
330
13C
100
AcDbXrecord
280
     1
102
RTVSPost2010Prop28
280
     0
102
RTVSPost2010PropOp28
 70
     0
102
RTVSPost2010Prop29
280
     1
102
RTVSPost2010PropOp29
 70
     0
102
RTVSPost2010Prop30
280
     1
102
RTVSPost2010PropOp30
 70
     0
102
RTVSPost2010Prop31
280
     0
102
RTVSPost2010PropOp31
 70
     0
102
RTVSPost2010Prop32
280
     0
102
RTVSPost2010PropOp32
 70
     0
102
RTVSPost2010Prop33
280
     0
102
RTVSPost2010PropOp33
 70
     0
102
RTVSPost2010Prop34
280
     0
102
RTVSPost2010PropOp34
 70
     0
102
RTVSPost2010Prop35
280
     0
102
RTVSPost2010PropOp35
 70
     0
102
RTVSPost2010Prop36
280
     0
102
RTVSPost2010PropOp36
 70
     0
102
RTVSPost2010Prop37
 90
       50
102
RTVSPost2010PropOp37
 70
     0
102
RTVSPost2010Prop38
140
0.0
102
RTVSPost2010PropOp38
 70
     0
102
RTVSPost2010Prop39
140
1.0
102
RTVSPost2010PropOp39
 70
     0
102
RTVSPost2010Prop40
 90
        0
102
RTVSPost2010PropOp40
 70
     0
102
RTVSPost2010Prop41ColorIndex
 90
       18
102
RTVSPost2010Prop41ColorRGB
 90
        0
102
RTVSPost2010PropOp41
 70
     0
102
RTVSPost2010Prop42
 90
       50
102
RTVSPost2010PropOp42
 70
     0
102
RTVSPost2010Prop43
 90
        3
102
RTVSPost2010PropOp43
 70
     0
102
RTVSPost2010Prop44ColorIndex
 90
        5
102
RTVSPost2010Prop44ColorRGB
 90
      255
102
RTVSPost2010PropOp44
 70
     0
102
RTVSPost2010Prop45
280
     0
102
RTVSPost2010PropOp45
 70
     0
102
RTVSPost2010Prop46
 90
       50
102
RTVSPost2010PropOp46
 70
     0
102
RTVSPost2010Prop47
 90
       50
102
RTVSPost2010PropOp47
 70
     0
102
RTVSPost2010Prop48
 90
       50
102
RTVSPost2010PropOp48
 70
     0
102
RTVSPost2010Prop49
280
     0
102
RTVSPost2010PropOp49
 70
     0
102
RTVSPost2010Prop50
 90
       50
102
RTVSPost2010PropOp50
 70
     0
102
RTVSPost2010Prop51ColorIndex
 90
      256
102
RTVSPost2010Prop51ColorRGB
 90
-16777216
102
RTVSPost2010PropOp51
 70
     0
102
RTVSPost2010Prop52
140
1.0
102
RTVSPost2010PropOp52
 70
     0
102
RTVSPost2010Prop53
 90
        2
102
RTVSPost2010PropOp53
 70
     0
102
RTVSPost2010Prop54
  1
strokes_ogs.tif
102
RTVSPost2010PropOp54
 70
     0
102
RTVSPost2010Prop55
280
     0
102
RTVSPost2010PropOp55
 70
     0
102
RTVSPost2010Prop56
140
1.0
102
RTVSPost2010PropOp56
 70
     0
102
RTVSPost2010Prop57
140
1.0
102
RTVSPost2010PropOp57
 70
     0
  0
XRECORD
  5
123
102
{ACAD_REACTORS
330
122
102
}
330
122
100
AcDbXrecord
280
     1
102
RTVSPost2010Prop28
280
     0
102
RTVSPost2010PropOp28
 70
     1
102
RTVSPost2010Prop29
280
     1
102
RTVSPost2010PropOp29
 70
     1
102
RTVSPost2010Prop30
280
     1
102
RTVSPost2010PropOp30
 70
     1
102
RTVSPost2010Prop31
280
     0
102
RTVSPost2010PropOp31
 70
     1
102
RTVSPost2010Prop32
280
     0
102
RTVSPost2010PropOp32
 70
     1
102
RTVSPost2010Prop33
280
     0
102
RTVSPost2010PropOp33
 70
     1
102
RTVSPost2010Prop34
280
     0
102
RTVSPost2010PropOp34
 70
     1
102
RTVSPost2010Prop35
280
     0
102
RTVSPost2010PropOp35
 70
     1
102
RTVSPost2010Prop36
280
     0
102
RTVSPost2010PropOp36
 70
     1
102
RTVSPost2010Prop37
 90
       50
102
RTVSPost2010PropOp37
 70
     1
102
RTVSPost2010Prop38
140
0.0
102
RTVSPost2010PropOp38
 70
     1
102
RTVSPost2010Prop39
140
1.0
102
RTVSPost2010PropOp39
 70
     1
102
RTVSPost2010Prop40
 90
        0
102
RTVSPost2010PropOp40
 70
     1
102
RTVSPost2010Prop41ColorIndex
 90
       18
102
RTVSPost2010Prop41ColorRGB
 90
        0
102
RTVSPost2010PropOp41
 70
     1
102
RTVSPost2010Prop42
 90
       50
102
RTVSPost2010PropOp42
 70
     1
102
RTVSPost2010Prop43
 90
        3
102
RTVSPost2010PropOp43
 70
     1
102
RTVSPost2010Prop44ColorIndex
 90
        5
102
RTVSPost2010Prop44ColorRGB
 90
      255
102
RTVSPost2010PropOp44
 70
     1
102
RTVSPost2010Prop45
280
     0
102
RTVSPost2010PropOp45
 70
     1
102
RTVSPost2010Prop46
 90
       50
102
RTVSPost2010PropOp46
 70
     1
102
RTVSPost2010Prop47
 90
       50
102
RTVSPost2010PropOp47
 70
     1
102
RTVSPost2010Prop48
 90
       50
102
RTVSPost2010PropOp48
 70
     1
102
RTVSPost2010Prop49
280
     0
102
RTVSPost2010PropOp49
 70
     1
102
RTVSPost2010Prop50
 90
       50
102
RTVSPost2010PropOp50
 70
     1
102
RTVSPost2010Prop51ColorIndex
 90
      256
102
RTVSPost2010Prop51ColorRGB
 90
-16777216
102
RTVSPost2010PropOp51
 70
     0
102
RTVSPost2010Prop52
140
1.0
102
RTVSPost2010PropOp52
 70
     0
102
RTVSPost2010Prop53
 90
        2
102
RTVSPost2010PropOp53
 70
     1
102
RTVSPost2010Prop54
  1
strokes_ogs.tif
102
RTVSPost2010PropOp54
 70
     1
102
RTVSPost2010Prop55
280
     0
102
RTVSPost2010PropOp55
 70
     1
102
RTVSPost2010Prop56
140
1.0
102
RTVSPost2010PropOp56
 70
     1
102
RTVSPost2010Prop57
140
1.0
102
RTVSPost2010PropOp57
 70
     1
  0
XRECORD
  5
139
102
{ACAD_REACTORS
330
138
102
}
330
138
100
AcDbXrecord
280
     1
102
RTVSPost2010Prop28
280
     0
102
RTVSPost2010PropOp28
 70
     1
102
RTVSPost2010Prop29
280
     1
102
RTVSPost2010PropOp29
 70
     1
102
RTVSPost2010Prop30
280
     1
102
RTVSPost2010PropOp30
 70
     1
102
RTVSPost2010Prop31
280
     0
102
RTVSPost2010PropOp31
 70
     1
102
RTVSPost2010Prop32
280
     0
102
RTVSPost2010PropOp32
 70
     1
102
RTVSPost2010Prop33
280
     0
102
RTVSPost2010PropOp33
 70
     1
102
RTVSPost2010Prop34
280
     0
102
RTVSPost2010PropOp34
 70
     1
102
RTVSPost2010Prop35
280
     0
102
RTVSPost2010PropOp35
 70
     1
102
RTVSPost2010Prop36
280
     0
102
RTVSPost2010PropOp36
 70
     1
102
RTVSPost2010Prop37
 90
       50
102
RTVSPost2010PropOp37
 70
     1
102
RTVSPost2010Prop38
140
0.0
102
RTVSPost2010PropOp38
 70
     1
102
RTVSPost2010Prop39
140
1.0
102
RTVSPost2010PropOp39
 70
     1
102
RTVSPost2010Prop40
 90
        0
102
RTVSPost2010PropOp40
 70
     1
102
RTVSPost2010Prop41ColorIndex
 90
       18
102
RTVSPost2010Prop41ColorRGB
 90
        0
102
RTVSPost2010PropOp41
 70
     1
102
RTVSPost2010Prop42
 90
       50
102
RTVSPost2010PropOp42
 70
     1
102
RTVSPost2010Prop43
 90
        3
102
RTVSPost2010PropOp43
 70
     1
102
RTVSPost2010Prop44ColorIndex
 90
        5
102
RTVSPost2010Prop44ColorRGB
 90
      255
102
RTVSPost2010PropOp44
 70
     1
102
RTVSPost2010Prop45
280
     0
102
RTVSPost2010PropOp45
 70
     1
102
RTVSPost2010Prop46
 90
       50
102
RTVSPost2010PropOp46
 70
     1
102
RTVSPost2010Prop47
 90
       50
102
RTVSPost2010PropOp47
 70
     1
102
RTVSPost2010Prop48
 90
       50
102
RTVSPost2010PropOp48
 70
     1
102
RTVSPost2010Prop49
280
     0
102
RTVSPost2010PropOp49
 70
     1
102
RTVSPost2010Prop50
 90
       50
102
RTVSPost2010PropOp50
 70
     1
102
RTVSPost2010Prop51ColorIndex
 90
      256
102
RTVSPost2010Prop51ColorRGB
 90
-16777216
102
RTVSPost2010PropOp51
 70
     0
102
RTVSPost2010Prop52
140
1.0
102
RTVSPost2010PropOp52
 70
     0
102
RTVSPost2010Prop53
 90
        2
102
RTVSPost2010PropOp53
 70
     1
102
RTVSPost2010Prop54
  1
strokes_ogs.tif
102
RTVSPost2010PropOp54
 70
     1
102
RTVSPost2010Prop55
280
     0
102
RTVSPost2010PropOp55
 70
     1
102
RTVSPost2010Prop56
140
1.0
102
RTVSPost2010PropOp56
 70
     1
102
RTVSPost2010Prop57
140
1.0
102
RTVSPost2010PropOp57
 70
     1
  0
XRECORD
  5
137
102
{ACAD_REACTORS
330
136
102
}
330
136
100
AcDbXrecord
280
     1
102
RTVSPost2010Prop28
280
     0
102
RTVSPost2010PropOp28
 70
     1
102
RTVSPost2010Prop29
280
     1
102
RTVSPost2010PropOp29
 70
     1
102
RTVSPost2010Prop30
280
     1
102
RTVSPost2010PropOp30
 70
     1
102
RTVSPost2010Prop31
280
     0
102
RTVSPost2010PropOp31
 70
     1
102
RTVSPost2010Prop32
280
     0
102
RTVSPost2010PropOp32
 70
     1
102
RTVSPost2010Prop33
280
     0
102
RTVSPost2010PropOp33
 70
     1
102
RTVSPost2010Prop34
280
     0
102
RTVSPost2010PropOp34
 70
     1
102
RTVSPost2010Prop35
280
     0
102
RTVSPost2010PropOp35
 70
     1
102
RTVSPost2010Prop36
280
     0
102
RTVSPost2010PropOp36
 70
     1
102
RTVSPost2010Prop37
 90
       50
102
RTVSPost2010PropOp37
 70
     1
102
RTVSPost2010Prop38
140
0.0
102
RTVSPost2010PropOp38
 70
     1
102
RTVSPost2010Prop39
140
1.0
102
RTVSPost2010PropOp39
 70
     1
102
RTVSPost2010Prop40
 90
        0
102
RTVSPost2010PropOp40
 70
     1
102
RTVSPost2010Prop41ColorIndex
 90
       18
102
RTVSPost2010Prop41ColorRGB
 90
        0
102
RTVSPost2010PropOp41
 70
     1
102
RTVSPost2010Prop42
 90
       50
102
RTVSPost2010PropOp42
 70
     1
102
RTVSPost2010Prop43
 90
        3
102
RTVSPost2010PropOp43
 70
     1
102
RTVSPost2010Prop44ColorIndex
 90
        5
102
RTVSPost2010Prop44ColorRGB
 90
      255
102
RTVSPost2010PropOp44
 70
     1
102
RTVSPost2010Prop45
280
     0
102
RTVSPost2010PropOp45
 70
     1
102
RTVSPost2010Prop46
 90
       50
102
RTVSPost2010PropOp46
 70
     1
102
RTVSPost2010Prop47
 90
       50
102
RTVSPost2010PropOp47
 70
     1
102
RTVSPost2010Prop48
 90
       50
102
RTVSPost2010PropOp48
 70
     1
102
RTVSPost2010Prop49
280
     0
102
RTVSPost2010PropOp49
 70
     1
102
RTVSPost2010Prop50
 90
       50
102
RTVSPost2010PropOp50
 70
     1
102
RTVSPost2010Prop51ColorIndex
 90
      256
102
RTVSPost2010Prop51ColorRGB
 90
-16777216
102
RTVSPost2010PropOp51
 70
     0
102
RTVSPost2010Prop52
140
1.0
102
RTVSPost2010PropOp52
 70
     0
102
RTVSPost2010Prop53
 90
        2
102
RTVSPost2010PropOp53
 70
     1
102
RTVSPost2010Prop54
  1
strokes_ogs.tif
102
RTVSPost2010PropOp54
 70
     1
102
RTVSPost2010Prop55
280
     0
102
RTVSPost2010PropOp55
 70
     1
102
RTVSPost2010Prop56
140
1.0
102
RTVSPost2010PropOp56
 70
     1
102
RTVSPost2010Prop57
140
1.0
102
RTVSPost2010PropOp57
 70
     1
  0
XRECORD
  5
131
102
{ACAD_REACTORS
330
130
102
}
330
130
100
AcDbXrecord
280
     1
102
RTVSPost2010Prop28
280
     0
102
RTVSPost2010PropOp28
 70
     1
102
RTVSPost2010Prop29
280
     1
102
RTVSPost2010PropOp29
 70
     1
102
RTVSPost2010Prop30
280
     1
102
RTVSPost2010PropOp30
 70
     1
102
RTVSPost2010Prop31
280
     0
102
RTVSPost2010PropOp31
 70
     1
102
RTVSPost2010Prop32
280
     0
102
RTVSPost2010PropOp32
 70
     1
102
RTVSPost2010Prop33
280
     0
102
RTVSPost2010PropOp33
 70
     1
102
RTVSPost2010Prop34
280
     0
102
RTVSPost2010PropOp34
 70
     1
102
RTVSPost2010Prop35
280
     0
102
RTVSPost2010PropOp35
 70
     1
102
RTVSPost2010Prop36
280
     0
102
RTVSPost2010PropOp36
 70
     1
102
RTVSPost2010Prop37
 90
       50
102
RTVSPost2010PropOp37
 70
     1
102
RTVSPost2010Prop38
140
0.0
102
RTVSPost2010PropOp38
 70
     1
102
RTVSPost2010Prop39
140
1.0
102
RTVSPost2010PropOp39
 70
     1
102
RTVSPost2010Prop40
 90
        0
102
RTVSPost2010PropOp40
 70
     1
102
RTVSPost2010Prop41ColorIndex
 90
       18
102
RTVSPost2010Prop41ColorRGB
 90
        0
102
RTVSPost2010PropOp41
 70
     1
102
RTVSPost2010Prop42
 90
       50
102
RTVSPost2010PropOp42
 70
     1
102
RTVSPost2010Prop43
 90
        3
102
RTVSPost2010PropOp43
 70
     1
102
RTVSPost2010Prop44ColorIndex
 90
        5
102
RTVSPost2010Prop44ColorRGB
 90
      255
102
RTVSPost2010PropOp44
 70
     1
102
RTVSPost2010Prop45
280
     0
102
RTVSPost2010PropOp45
 70
     1
102
RTVSPost2010Prop46
 90
       50
102
RTVSPost2010PropOp46
 70
     1
102
RTVSPost2010Prop47
 90
       50
102
RTVSPost2010PropOp47
 70
     1
102
RTVSPost2010Prop48
 90
       50
102
RTVSPost2010PropOp48
 70
     1
102
RTVSPost2010Prop49
280
     0
102
RTVSPost2010PropOp49
 70
     1
102
RTVSPost2010Prop50
 90
       50
102
RTVSPost2010PropOp50
 70
     1
102
RTVSPost2010Prop51ColorIndex
 90
      256
102
RTVSPost2010Prop51ColorRGB
 90
-16777216
102
RTVSPost2010PropOp51
 70
     0
102
RTVSPost2010Prop52
140
1.0
102
RTVSPost2010PropOp52
 70
     0
102
RTVSPost2010Prop53
 90
        2
102
RTVSPost2010PropOp53
 70
     1
102
RTVSPost2010Prop54
  1
strokes_ogs.tif
102
RTVSPost2010PropOp54
 70
     1
102
RTVSPost2010Prop55
280
     0
102
RTVSPost2010PropOp55
 70
     1
102
RTVSPost2010Prop56
140
1.0
102
RTVSPost2010PropOp56
 70
     1
102
RTVSPost2010Prop57
140
1.0
102
RTVSPost2010PropOp57
 70
     1
  0
XRECORD
  5
133
102
{ACAD_REACTORS
330
132
102
}
330
132
100
AcDbXrecord
280
     1
102
RTVSPost2010Prop28
280
     0
102
RTVSPost2010PropOp28
 70
     1
102
RTVSPost2010Prop29
280
     1
102
RTVSPost2010PropOp29
 70
     1
102
RTVSPost2010Prop30
280
     1
102
RTVSPost2010PropOp30
 70
     1
102
RTVSPost2010Prop31
280
     0
102
RTVSPost2010PropOp31
 70
     1
102
RTVSPost2010Prop32
280
     0
102
RTVSPost2010PropOp32
 70
     1
102
RTVSPost2010Prop33
280
     0
102
RTVSPost2010PropOp33
 70
     1
102
RTVSPost2010Prop34
280
     0
102
RTVSPost2010PropOp34
 70
     1
102
RTVSPost2010Prop35
280
     0
102
RTVSPost2010PropOp35
 70
     1
102
RTVSPost2010Prop36
280
     0
102
RTVSPost2010PropOp36
 70
     1
102
RTVSPost2010Prop37
 90
       50
102
RTVSPost2010PropOp37
 70
     1
102
RTVSPost2010Prop38
140
0.0
102
RTVSPost2010PropOp38
 70
     1
102
RTVSPost2010Prop39
140
1.0
102
RTVSPost2010PropOp39
 70
     1
102
RTVSPost2010Prop40
 90
        0
102
RTVSPost2010PropOp40
 70
     1
102
RTVSPost2010Prop41ColorIndex
 90
       18
102
RTVSPost2010Prop41ColorRGB
 90
        0
102
RTVSPost2010PropOp41
 70
     1
102
RTVSPost2010Prop42
 90
       50
102
RTVSPost2010PropOp42
 70
     1
102
RTVSPost2010Prop43
 90
        3
102
RTVSPost2010PropOp43
 70
     1
102
RTVSPost2010Prop44ColorIndex
 90
        5
102
RTVSPost2010Prop44ColorRGB
 90
      255
102
RTVSPost2010PropOp44
 70
     1
102
RTVSPost2010Prop45
280
     0
102
RTVSPost2010PropOp45
 70
     1
102
RTVSPost2010Prop46
 90
       50
102
RTVSPost2010PropOp46
 70
     1
102
RTVSPost2010Prop47
 90
       50
102
RTVSPost2010PropOp47
 70
     1
102
RTVSPost2010Prop48
 90
       50
102
RTVSPost2010PropOp48
 70
     1
102
RTVSPost2010Prop49
280
     0
102
RTVSPost2010PropOp49
 70
     1
102
RTVSPost2010Prop50
 90
       50
102
RTVSPost2010PropOp50
 70
     1
102
RTVSPost2010Prop51ColorIndex
 90
      256
102
RTVSPost2010Prop51ColorRGB
 90
-16777216
102
RTVSPost2010PropOp51
 70
     0
102
RTVSPost2010Prop52
140
1.0
102
RTVSPost2010PropOp52
 70
     0
102
RTVSPost2010Prop53
 90
        2
102
RTVSPost2010PropOp53
 70
     1
102
RTVSPost2010Prop54
  1
strokes_ogs.tif
102
RTVSPost2010PropOp54
 70
     1
102
RTVSPost2010Prop55
280
     0
102
RTVSPost2010PropOp55
 70
     1
102
RTVSPost2010Prop56
140
1.0
102
RTVSPost2010PropOp56
 70
     1
102
RTVSPost2010Prop57
140
1.0
102
RTVSPost2010PropOp57
 70
     1
  0
XRECORD
  5
129
102
{ACAD_REACTORS
330
128
102
}
330
128
100
AcDbXrecord
280
     1
102
RTVSPost2010Prop28
280
     0
102
RTVSPost2010PropOp28
 70
     1
102
RTVSPost2010Prop29
280
     1
102
RTVSPost2010PropOp29
 70
     1
102
RTVSPost2010Prop30
280
     1
102
RTVSPost2010PropOp30
 70
     1
102
RTVSPost2010Prop31
280
     0
102
RTVSPost2010PropOp31
 70
     1
102
RTVSPost2010Prop32
280
     0
102
RTVSPost2010PropOp32
 70
     1
102
RTVSPost2010Prop33
280
     0
102
RTVSPost2010PropOp33
 70
     1
102
RTVSPost2010Prop34
280
     0
102
RTVSPost2010PropOp34
 70
     1
102
RTVSPost2010Prop35
280
     0
102
RTVSPost2010PropOp35
 70
     1
102
RTVSPost2010Prop36
280
     0
102
RTVSPost2010PropOp36
 70
     1
102
RTVSPost2010Prop37
 90
       50
102
RTVSPost2010PropOp37
 70
     1
102
RTVSPost2010Prop38
140
0.0
102
RTVSPost2010PropOp38
 70
     1
102
RTVSPost2010Prop39
140
1.0
102
RTVSPost2010PropOp39
 70
     1
102
RTVSPost2010Prop40
 90
        0
102
RTVSPost2010PropOp40
 70
     1
102
RTVSPost2010Prop41ColorIndex
 90
       18
102
RTVSPost2010Prop41ColorRGB
 90
        0
102
RTVSPost2010PropOp41
 70
     1
102
RTVSPost2010Prop42
 90
       50
102
RTVSPost2010PropOp42
 70
     1
102
RTVSPost2010Prop43
 90
        3
102
RTVSPost2010PropOp43
 70
     1
102
RTVSPost2010Prop44ColorIndex
 90
        5
102
RTVSPost2010Prop44ColorRGB
 90
      255
102
RTVSPost2010PropOp44
 70
     1
102
RTVSPost2010Prop45
280
     0
102
RTVSPost2010PropOp45
 70
     1
102
RTVSPost2010Prop46
 90
       50
102
RTVSPost2010PropOp46
 70
     1
102
RTVSPost2010Prop47
 90
       50
102
RTVSPost2010PropOp47
 70
     1
102
RTVSPost2010Prop48
 90
       50
102
RTVSPost2010PropOp48
 70
     1
102
RTVSPost2010Prop49
280
     0
102
RTVSPost2010PropOp49
 70
     1
102
RTVSPost2010Prop50
 90
       50
102
RTVSPost2010PropOp50
 70
     1
102
RTVSPost2010Prop51ColorIndex
 90
      256
102
RTVSPost2010Prop51ColorRGB
 90
-16777216
102
RTVSPost2010PropOp51
 70
     0
102
RTVSPost2010Prop52
140
1.0
102
RTVSPost2010PropOp52
 70
     0
102
RTVSPost2010Prop53
 90
        2
102
RTVSPost2010PropOp53
 70
     1
102
RTVSPost2010Prop54
  1
strokes_ogs.tif
102
RTVSPost2010PropOp54
 70
     1
102
RTVSPost2010Prop55
280
     0
102
RTVSPost2010PropOp55
 70
     1
102
RTVSPost2010Prop56
140
1.0
102
RTVSPost2010PropOp56
 70
     1
102
RTVSPost2010Prop57
140
1.0
102
RTVSPost2010PropOp57
 70
     1
  0
XRECORD
  5
11D
102
{ACAD_REACTORS
330
11C
102
}
330
11C
100
AcDbXrecord
280
     1
102
RTVSPost2010Prop28
280
     0
102
RTVSPost2010PropOp28
 70
     1
102
RTVSPost2010Prop29
280
     1
102
RTVSPost2010PropOp29
 70
     1
102
RTVSPost2010Prop30
280
     1
102
RTVSPost2010PropOp30
 70
     1
102
RTVSPost2010Prop31
280
     0
102
RTVSPost2010PropOp31
 70
     1
102
RTVSPost2010Prop32
280
     0
102
RTVSPost2010PropOp32
 70
     1
102
RTVSPost2010Prop33
280
     0
102
RTVSPost2010PropOp33
 70
     1
102
RTVSPost2010Prop34
280
     0
102
RTVSPost2010PropOp34
 70
     1
102
RTVSPost2010Prop35
280
     0
102
RTVSPost2010PropOp35
 70
     1
102
RTVSPost2010Prop36
280
     0
102
RTVSPost2010PropOp36
 70
     1
102
RTVSPost2010Prop37
 90
       50
102
RTVSPost2010PropOp37
 70
     1
102
RTVSPost2010Prop38
140
0.0
102
RTVSPost2010PropOp38
 70
     1
102
RTVSPost2010Prop39
140
1.0
102
RTVSPost2010PropOp39
 70
     1
102
RTVSPost2010Prop40
 90
        0
102
RTVSPost2010PropOp40
 70
     1
102
RTVSPost2010Prop41ColorIndex
 90
       18
102
RTVSPost2010Prop41ColorRGB
 90
        0
102
RTVSPost2010PropOp41
 70
     1
102
RTVSPost2010Prop42
 90
       50
102
RTVSPost2010PropOp42
 70
     1
102
RTVSPost2010Prop43
 90
        3
102
RTVSPost2010PropOp43
 70
     1
102
RTVSPost2010Prop44ColorIndex
 90
        5
102
RTVSPost2010Prop44ColorRGB
 90
      255
102
RTVSPost2010PropOp44
 70
     1
102
RTVSPost2010Prop45
280
     0
102
RTVSPost2010PropOp45
 70
     1
102
RTVSPost2010Prop46
 90
       50
102
RTVSPost2010PropOp46
 70
     1
102
RTVSPost2010Prop47
 90
       50
102
RTVSPost2010PropOp47
 70
     1
102
RTVSPost2010Prop48
 90
       50
102
RTVSPost2010PropOp48
 70
     1
102
RTVSPost2010Prop49
280
     0
102
RTVSPost2010PropOp49
 70
     1
102
RTVSPost2010Prop50
 90
       50
102
RTVSPost2010PropOp50
 70
     1
102
RTVSPost2010Prop51ColorIndex
 90
      256
102
RTVSPost2010Prop51ColorRGB
 90
-16777216
102
RTVSPost2010PropOp51
 70
     0
102
RTVSPost2010Prop52
140
1.0
102
RTVSPost2010PropOp52
 70
     0
102
RTVSPost2010Prop53
 90
        2
102
RTVSPost2010PropOp53
 70
     1
102
RTVSPost2010Prop54
  1
strokes_ogs.tif
102
RTVSPost2010PropOp54
 70
     1
102
RTVSPost2010Prop55
280
     0
102
RTVSPost2010PropOp55
 70
     1
102
RTVSPost2010Prop56
140
1.0
102
RTVSPost2010PropOp56
 70
     1
102
RTVSPost2010Prop57
140
1.0
102
RTVSPost2010PropOp57
 70
     1
  0
XRECORD
  5
135
102
{ACAD_REACTORS
330
134
102
}
330
134
100
AcDbXrecord
280
     1
102
RTVSPost2010Prop28
280
     0
102
RTVSPost2010PropOp28
 70
     1
102
RTVSPost2010Prop29
280
     1
102
RTVSPost2010PropOp29
 70
     1
102
RTVSPost2010Prop30
280
     1
102
RTVSPost2010PropOp30
 70
     1
102
RTVSPost2010Prop31
280
     0
102
RTVSPost2010PropOp31
 70
     1
102
RTVSPost2010Prop32
280
     0
102
RTVSPost2010PropOp32
 70
     1
102
RTVSPost2010Prop33
280
     0
102
RTVSPost2010PropOp33
 70
     1
102
RTVSPost2010Prop34
280
     0
102
RTVSPost2010PropOp34
 70
     1
102
RTVSPost2010Prop35
280
     0
102
RTVSPost2010PropOp35
 70
     1
102
RTVSPost2010Prop36
280
     0
102
RTVSPost2010PropOp36
 70
     1
102
RTVSPost2010Prop37
 90
       50
102
RTVSPost2010PropOp37
 70
     1
102
RTVSPost2010Prop38
140
0.0
102
RTVSPost2010PropOp38
 70
     1
102
RTVSPost2010Prop39
140
1.0
102
RTVSPost2010PropOp39
 70
     1
102
RTVSPost2010Prop40
 90
        0
102
RTVSPost2010PropOp40
 70
     1
102
RTVSPost2010Prop41ColorIndex
 90
       18
102
RTVSPost2010Prop41ColorRGB
 90
        0
102
RTVSPost2010PropOp41
 70
     1
102
RTVSPost2010Prop42
 90
       50
102
RTVSPost2010PropOp42
 70
     1
102
RTVSPost2010Prop43
 90
        3
102
RTVSPost2010PropOp43
 70
     1
102
RTVSPost2010Prop44ColorIndex
 90
        5
102
RTVSPost2010Prop44ColorRGB
 90
      255
102
RTVSPost2010PropOp44
 70
     1
102
RTVSPost2010Prop45
280
     0
102
RTVSPost2010PropOp45
 70
     1
102
RTVSPost2010Prop46
 90
       50
102
RTVSPost2010PropOp46
 70
     1
102
RTVSPost2010Prop47
 90
       50
102
RTVSPost2010PropOp47
 70
     1
102
RTVSPost2010Prop48
 90
       50
102
RTVSPost2010PropOp48
 70
     1
102
RTVSPost2010Prop49
280
     0
102
RTVSPost2010PropOp49
 70
     1
102
RTVSPost2010Prop50
 90
       50
102
RTVSPost2010PropOp50
 70
     1
102
RTVSPost2010Prop51ColorIndex
 90
      256
102
RTVSPost2010Prop51ColorRGB
 90
-16777216
102
RTVSPost2010PropOp51
 70
     0
102
RTVSPost2010Prop52
140
1.0
102
RTVSPost2010PropOp52
 70
     0
102
RTVSPost2010Prop53
 90
        2
102
RTVSPost2010PropOp53
 70
     1
102
RTVSPost2010Prop54
  1
strokes_ogs.tif
102
RTVSPost2010PropOp54
 70
     1
102
RTVSPost2010Prop55
280
     0
102
RTVSPost2010PropOp55
 70
     1
102
RTVSPost2010Prop56
140
1.0
102
RTVSPost2010PropOp56
 70
     1
102
RTVSPost2010Prop57
140
1.0
102
RTVSPost2010PropOp57
 70
     1
  0
ENDSEC
  0
EOF
