  0
SECTION
  2
HEADER
  9
$ACADVER
  1
AC1024
  9
$ACADMAINTVER
 70
   226
  9
$DWGCODEPAGE
  3
ANSI_932
  9
$INSBASE
 10
0.0
 20
0.0
 30
0.0
  9
$EXTMIN
 10
1.000000000000000E+20
 20
1.000000000000000E+20
 30
1.000000000000000E+20
  9
$EXTMAX
 10
-1.000000000000000E+20
 20
-1.000000000000000E+20
 30
-1.000000000000000E+20
  9
$LIMMIN
 10
0.0
 20
0.0
  9
$LIMMAX
 10
12.0
 20
9.0
  9
$ORTHOMODE
 70
     0
  9
$REGENMODE
 70
     1
  9
$FILLMODE
 70
     1
  9
$QTEXTMODE
 70
     0
  9
$MIRRTEXT
 70
     0
  9
$LTSCALE
 40
1.0
  9
$ATTMODE
 70
     1
  9
$TEXTSIZE
 40
0.2
  9
$TRACEWID
 40
0.05
  9
$TEXTSTYLE
  7
Standard
  9
$CLAYER
  8
0
  9
$CELTYPE
  6
ByLayer
  9
$CECOLOR
 62
   256
  9
$CELTSCALE
 40
1.0
  9
$DISPSILH
 70
     0
  9
$DIMSCALE
 40
1.0
  9
$DIMASZ
 40
0.18
  9
$DIMEXO
 40
0.0625
  9
$DIMDLI
 40
0.38
  9
$DIMRND
 40
0.0
  9
$DIMDLE
 40
0.0
  9
$DIMEXE
 40
0.18
  9
$DIMTP
 40
0.0
  9
$DIMTM
 40
0.0
  9
$DIMTXT
 40
0.18
  9
$DIMCEN
 40
0.09
  9
$DIMTSZ
 40
0.0
  9
$DIMTOL
 70
     0
  9
$DIMLIM
 70
     0
  9
$DIMTIH
 70
     1
  9
$DIMTOH
 70
     1
  9
$DIMSE1
 70
     0
  9
$DIMSE2
 70
     0
  9
$DIMTAD
 70
     0
  9
$DIMZIN
 70
     0
  9
$DIMBLK
  1

  9
$DIMASO
 70
     1
  9
$DIMSHO
 70
     1
  9
$DIMPOST
  1

  9
$DIMAPOST
  1

  9
$DIMALT
 70
     0
  9
$DIMALTD
 70
     2
  9
$DIMALTF
 40
25.4
  9
$DIMLFAC
 40
1.0
  9
$DIMTOFL
 70
     0
  9
$DIMTVP
 40
0.0
  9
$DIMTIX
 70
     0
  9
$DIMSOXD
 70
     0
  9
$DIMSAH
 70
     0
  9
$DIMBLK1
  1

  9
$DIMBLK2
  1

  9
$DIMSTYLE
  2
Standard
  9
$DIMCLRD
 70
     0
  9
$DIMCLRE
 70
     0
  9
$DIMCLRT
 70
     0
  9
$DIMTFAC
 40
1.0
  9
$DIMGAP
 40
0.09
  9
$DIMJUST
 70
     0
  9
$DIMSD1
 70
     0
  9
$DIMSD2
 70
     0
  9
$DIMTOLJ
 70
     1
  9
$DIMTZIN
 70
     0
  9
$DIMALTZ
 70
     0
  9
$DIMALTTZ
 70
     0
  9
$DIMUPT
 70
     0
  9
$DIMDEC
 70
     4
  9
$DIMTDEC
 70
     4
  9
$DIMALTU
 70
     2
  9
$DIMALTTD
 70
     2
  9
$DIMTXSTY
  7
Standard
  9
$DIMAUNIT
 70
     0
  9
$DIMADEC
 70
     0
  9
$DIMALTRND
 40
0.0
  9
$DIMAZIN
 70
     0
  9
$DIMDSEP
 70
    46
  9
$DIMATFIT
 70
     3
  9
$DIMFRAC
 70
     0
  9
$DIMLDRBLK
  1

  9
$DIMLUNIT
 70
     2
  9
$DIMLWD
 70
    -2
  9
$DIMLWE
 70
    -2
  9
$DIMTMOVE
 70
     0
  9
$DIMFXL
 40
1.0
  9
$DIMFXLON
 70
     0
  9
$DIMJOGANG
 40
0.7853981633974483
  9
$DIMTFILL
 70
     0
  9
$DIMTFILLCLR
 70
     0
  9
$DIMARCSYM
 70
     0
  9
$DIMLTYPE
  6

  9
$DIMLTEX1
  6

  9
$DIMLTEX2
  6

  9
$DIMTXTDIRECTION
 70
     0
  9
$LUNITS
 70
     2
  9
$LUPREC
 70
     4
  9
$SKETCHINC
 40
0.1
  9
$FILLETRAD
 40
0.0
  9
$AUNITS
 70
     0
  9
$AUPREC
 70
     0
  9
$MENU
  1
.
  9
$ELEVATION
 40
0.0
  9
$PELEVATION
 40
0.0
  9
$THICKNESS
 40
0.0
  9
$LIMCHECK
 70
     0
  9
$CHAMFERA
 40
0.0
  9
$CHAMFERB
 40
0.0
  9
$CHAMFERC
 40
0.0
  9
$CHAMFERD
 40
0.0
  9
$SKPOLY
 70
     0
  9
$TDCREATE
 40
2459569.503506945
  9
$TDUCREATE
 40
2459569.128506945
  9
$TDUPDATE
 40
2459569.503506945
  9
$TDUUPDATE
 40
2459569.128506945
  9
$TDINDWG
 40
0.0000000000
  9
$TDUSRTIMER
 40
0.0000000000
  9
$USRTIMER
 70
     1
  9
$ANGBASE
 50
0.0
  9
$ANGDIR
 70
     0
  9
$PDMODE
 70
     0
  9
$PDSIZE
 40
0.0
  9
$PLINEWID
 40
0.0
  9
$SPLFRAME
 70
     0
  9
$SPLINETYPE
 70
     6
  9
$SPLINESEGS
 70
     8
  9
$HANDSEED
  5
139
  9
$SURFTAB1
 70
     6
  9
$SURFTAB2
 70
     6
  9
$SURFTYPE
 70
     6
  9
$SURFU
 70
     6
  9
$SURFV
 70
     6
  9
$UCSBASE
  2

  9
$UCSNAME
  2

  9
$UCSORG
 10
0.0
 20
0.0
 30
0.0
  9
$UCSXDIR
 10
1.0
 20
0.0
 30
0.0
  9
$UCSYDIR
 10
0.0
 20
1.0
 30
0.0
  9
$UCSORTHOREF
  2

  9
$UCSORTHOVIEW
 70
     0
  9
$UCSORGTOP
 10
0.0
 20
0.0
 30
0.0
  9
$UCSORGBOTTOM
 10
0.0
 20
0.0
 30
0.0
  9
$UCSORGLEFT
 10
0.0
 20
0.0
 30
0.0
  9
$UCSORGRIGHT
 10
0.0
 20
0.0
 30
0.0
  9
$UCSORGFRONT
 10
0.0
 20
0.0
 30
0.0
  9
$UCSORGBACK
 10
0.0
 20
0.0
 30
0.0
  9
$PUCSBASE
  2

  9
$PUCSNAME
  2

  9
$PUCSORG
 10
0.0
 20
0.0
 30
0.0
  9
$PUCSXDIR
 10
1.0
 20
0.0
 30
0.0
  9
$PUCSYDIR
 10
0.0
 20
1.0
 30
0.0
  9
$PUCSORTHOREF
  2

  9
$PUCSORTHOVIEW
 70
     0
  9
$PUCSORGTOP
 10
0.0
 20
0.0
 30
0.0
  9
$PUCSORGBOTTOM
 10
0.0
 20
0.0
 30
0.0
  9
$PUCSORGLEFT
 10
0.0
 20
0.0
 30
0.0
  9
$PUCSORGRIGHT
 10
0.0
 20
0.0
 30
0.0
  9
$PUCSORGFRONT
 10
0.0
 20
0.0
 30
0.0
  9
$PUCSORGBACK
 10
0.0
 20
0.0
 30
0.0
  9
$USERI1
 70
     0
  9
$USERI2
 70
     0
  9
$USERI3
 70
     0
  9
$USERI4
 70
     0
  9
$USERI5
 70
     0
  9
$USERR1
 40
0.0
  9
$USERR2
 40
0.0
  9
$USERR3
 40
0.0
  9
$USERR4
 40
0.0
  9
$USERR5
 40
0.0
  9
$WORLDVIEW
 70
     1
  9
$SHADEDGE
 70
     3
  9
$SHADEDIF
 70
    70
  9
$TILEMODE
 70
     1
  9
$MAXACTVP
 70
    64
  9
$PINSBASE
 10
0.0
 20
0.0
 30
0.0
  9
$PLIMCHECK
 70
     0
  9
$PEXTMIN
 10
1.000000000000000E+20
 20
1.000000000000000E+20
 30
1.000000000000000E+20
  9
$PEXTMAX
 10
-1.000000000000000E+20
 20
-1.000000000000000E+20
 30
-1.000000000000000E+20
  9
$PLIMMIN
 10
0.0
 20
0.0
  9
$PLIMMAX
 10
12.0
 20
9.0
  9
$UNITMODE
 70
     0
  9
$VISRETAIN
 70
     1
  9
$PLINEGEN
 70
     0
  9
$PSLTSCALE
 70
     1
  9
$TREEDEPTH
 70
  3020
  9
$CMLSTYLE
  2
Standard
  9
$CMLJUST
 70
     0
  9
$CMLSCALE
 40
1.0
  9
$PROXYGRAPHICS
 70
     1
  9
$MEASUREMENT
 70
     0
  9
$CELWEIGHT
370
    -1
  9
$ENDCAPS
280
     0
  9
$JOINSTYLE
280
     0
  9
$LWDISPLAY
290
     1
  9
$INSUNITS
 70
     4
  9
$HYPERLINKBASE
  1

  9
$STYLESHEET
  1

  9
$XEDIT
290
     1
  9
$CEPSNTYPE
380
     0
  9
$PSTYLEMODE
290
     1
  9
$FINGERPRINTGUID
  2
{4EC0C658-67AB-544C-9C88-4E00881F758A}
  9
$VERSIONGUID
  2
{C6C51620-A2D1-194F-A9AC-066E487368AA}
  9
$EXTNAMES
290
     1
  9
$PSVPSCALE
 40
0.0
  9
$OLESTARTUP
290
     0
  9
$SORTENTS
280
   127
  9
$INDEXCTL
280
     0
  9
$HIDETEXT
280
     1
  9
$XCLIPFRAME
280
     2
  9
$HALOGAP
280
     0
  9
$OBSCOLOR
 70
   257
  9
$OBSLTYPE
280
     0
  9
$INTERSECTIONDISPLAY
280
     0
  9
$INTERSECTIONCOLOR
 70
   257
  9
$DIMASSOC
280
     2
  9
$PROJECTNAME
  1

  9
$CAMERADISPLAY
290
     0
  9
$LENSLENGTH
 40
50.0
  9
$CAMERAHEIGHT
 40
0.0
  9
$STEPSPERSEC
 40
2.0
  9
$STEPSIZE
 40
6.0
  9
$3DDWFPREC
 40
2.0
  9
$PSOLWIDTH
 40
0.25
  9
$PSOLHEIGHT
 40
4.0
  9
$LOFTANG1
 40
1.570796326794896
  9
$LOFTANG2
 40
1.570796326794896
  9
$LOFTMAG1
 40
0.0
  9
$LOFTMAG2
 40
0.0
  9
$LOFTPARAM
 70
     7
  9
$LOFTNORMALS
280
     1
  9
$LATITUDE
 40
37.795
  9
$LONGITUDE
 40
-122.394
  9
$NORTHDIRECTION
 40
0.0
  9
$TIMEZONE
 70
 -8000
  9
$LIGHTGLYPHDISPLAY
280
     1
  9
$TILEMODELIGHTSYNCH
280
     1
  9
$CMATERIAL
347
11
  9
$SOLIDHIST
280
     0
  9
$SHOWHIST
280
     1
  9
$DWFFRAME
280
     2
  9
$DGNFRAME
280
     0
  9
$REALWORLDSCALE
290
     1
  9
$INTERFERECOLOR
 62
     1
  9
$INTERFEREOBJVS
345
33
  9
$INTERFEREVPVS
346
30
  9
$CSHADOW
280
     0
  9
$SHADOWPLANELOCATION
 40
0.0
  0
ENDSEC
  0
SECTION
  2
CLASSES
  0
CLASS
  1
ACDBDICTIONARYWDFLT
  2
AcDbDictionaryWithDefault
  3
ObjectDBX Classes
 90
        0
 91
        1
280
     0
281
     0
  0
CLASS
  1
MATERIAL
  2
AcDbMaterial
  3
ObjectDBX Classes
 90
     1153
 91
        3
280
     0
281
     0
  0
CLASS
  1
VISUALSTYLE
  2
AcDbVisualStyle
  3
ObjectDBX Classes
 90
     4095
 91
       24
280
     0
281
     0
  0
CLASS
  1
SCALE
  2
AcDbScale
  3
ObjectDBX Classes
 90
     1153
 91
       17
280
     0
281
     0
  0
CLASS
  1
TABLESTYLE
  2
AcDbTableStyle
  3
ObjectDBX Classes
 90
     4095
 91
        1
280
     0
281
     0
  0
CLASS
  1
MLEADERSTYLE
  2
AcDbMLeaderStyle
  3
ACDB_MLEADERSTYLE_CLASS
 90
     4095
 91
        1
280
     0
281
     0
  0
CLASS
  1
ACDBSECTIONVIEWSTYLE
  2
AcDbSectionViewStyle
  3
ObjectDBX Classes
 90
     1025
 91
        1
280
     0
281
     0
  0
CLASS
  1
ACDBDETAILVIEWSTYLE
  2
AcDbDetailViewStyle
  3
ObjectDBX Classes
 90
     1025
 91
        1
280
     0
281
     0
  0
CLASS
  1
DICTIONARYVAR
  2
AcDbDictionaryVar
  3
ObjectDBX Classes
 90
        0
 91
        5
280
     0
281
     0
  0
CLASS
  1
CELLSTYLEMAP
  2
AcDbCellStyleMap
  3
ObjectDBX Classes
 90
     1152
 91
        1
280
     0
281
     0
  0
ENDSEC
  0
SECTION
  2
TABLES
  0
TABLE
  2
VPORT
  5
8
330
0
100
AcDbSymbolTable
 70
     1
  0
VPORT
  5
57
330
8
100
AcDbSymbolTableRecord
100
AcDbViewportTableRecord
  2
*Active
 70
     0
 10
0.0
 20
0.0
 11
1.0
 21
1.0
 12
0.0
 22
0.0
 13
0.0
 23
0.0
 14
1.0
 24
1.0
 15
0.0
 25
0.0
 16
0.0
 26
0.0
 36
1.0
 17
104.9999999737534
 27
-148.4999999628701
 37
0.0
 40
302.939999924255
 41
0.7070707070707534
 42
50.0
 43
0.0
 44
0.0
 50
0.0
 51
0.0
 71
     0
 72
   100
 73
     1
 74
     0
 75
     1
 76
     0
 77
     0
 78
     0
281
     0
 65
     1
110
0.0
120
0.0
130
0.0
111
1.0
121
0.0
131
0.0
112
0.0
122
1.0
132
0.0
 79
     0
146
0.0
 60
     3
 61
     5
292
     1
282
     1
141
0.0
142
0.0
 63
   250
421
  3355443
  0
ENDTAB
  0
TABLE
  2
LTYPE
  5
5
330
0
100
AcDbSymbolTable
 70
     2
  0
LTYPE
  5
5B
330
5
100
AcDbSymbolTableRecord
100
AcDbLinetypeTableRecord
  2
ByBlock
 70
     0
  3

 72
    65
 73
     0
 40
0.0
  0
LTYPE
  5
5C
330
5
100
AcDbSymbolTableRecord
100
AcDbLinetypeTableRecord
  2
ByLayer
 70
     0
  3

 72
    65
 73
     0
 40
0.0
  0
LTYPE
  5
5D
330
5
100
AcDbSymbolTableRecord
100
AcDbLinetypeTableRecord
  2
Continuous
 70
     0
  3
Solid line
 72
    65
 73
     0
 40
0.0
  0
LTYPE
  5
D3
330
5
100
AcDbSymbolTableRecord
100
AcDbLinetypeTableRecord
  2
AI-Linetype-0
 70
     0
  3
Adobe Illustrator Linetype No. 0
 72
    65
 73
     2
 40
1.411111110758333
 49
0.7055555553791667
 74
     0
 49
-0.7055555553791667
 74
     0
  0
ENDTAB
  0
TABLE
  2
LAYER
  5
2
330
0
100
AcDbSymbolTable
 70
     2
  0
LAYER
  5
54
330
2
100
AcDbSymbolTableRecord
100
AcDbLayerTableRecord
  2
0
 70
     0
 62
     7
  6
Continuous
370
    -3
390
F
347
21
  0
LAYER
  5
78
330
2
100
AcDbSymbolTableRecord
100
AcDbLayerTableRecord
  2
レイヤー 1
 70
     0
 62
     7
  6
Continuous
370
     0
390
F
347
21
  0
ENDTAB
  0
TABLE
  2
STYLE
  5
3
330
0
100
AcDbSymbolTable
 70
     2
  0
STYLE
  5
55
330
3
100
AcDbSymbolTableRecord
100
AcDbTextStyleTableRecord
  2
Standard
 70
     0
 40
0.0
 41
1.0
 50
0.0
 71
     0
 42
0.2
  3
txt
  4

  0
STYLE
  5
5A
330
3
100
AcDbSymbolTableRecord
100
AcDbTextStyleTableRecord
  2
Annotative
 70
     0
 40
0.0
 41
1.0
 50
0.0
 71
     0
 42
0.2
  3
txt
  4

1001
AcadAnnotative
1000
AnnotativeData
1002
{
1070
     1
1070
     1
1002
}
  0
ENDTAB
  0
TABLE
  2
VIEW
  5
6
330
0
100
AcDbSymbolTable
 70
     0
  0
ENDTAB
  0
TABLE
  2
UCS
  5
7
330
0
100
AcDbSymbolTable
 70
     0
  0
ENDTAB
  0
TABLE
  2
APPID
  5
9
330
0
100
AcDbSymbolTable
 70
     2
  0
APPID
  5
56
330
9
100
AcDbSymbolTableRecord
100
AcDbRegAppTableRecord
  2
ACAD
 70
     0
  0
APPID
  5
5E
330
9
100
AcDbSymbolTableRecord
100
AcDbRegAppTableRecord
  2
AcadAnnotative
 70
     0
  0
ENDTAB
  0
TABLE
  2
DIMSTYLE
  5
A
330
0
100
AcDbSymbolTable
 70
     2
100
AcDbDimStyleTable
 71
     0
  0
DIMSTYLE
105
58
330
A
100
AcDbSymbolTableRecord
100
AcDbDimStyleTableRecord
  2
Standard
 70
     0
340
55
  0
DIMSTYLE
105
59
330
A
100
AcDbSymbolTableRecord
100
AcDbDimStyleTableRecord
  2
Annotative
 70
     0
340
55
1001
AcadAnnotative
1000
AnnotativeData
1002
{
1070
     1
1070
     1
1002
}
  0
ENDTAB
  0
TABLE
  2
BLOCK_RECORD
  5
1
330
0
100
AcDbSymbolTable
 70
    11
  0
BLOCK_RECORD
  5
70
330
1
100
AcDbSymbolTableRecord
100
AcDbBlockTableRecord
  2
*Model_Space
340
73
 70
     0
280
     1
281
     0
  0
BLOCK_RECORD
  5
6C
330
1
100
AcDbSymbolTableRecord
100
AcDbBlockTableRecord
  2
*Paper_Space
340
6F
 70
     0
280
     1
281
     0
  0
BLOCK_RECORD
  5
74
330
1
100
AcDbSymbolTableRecord
100
AcDbBlockTableRecord
  2
*Paper_Space0
340
77
 70
     0
280
     1
281
     0
  0
BLOCK_RECORD
  5
8D
330
1
100
AcDbSymbolTableRecord
100
AcDbBlockTableRecord
  2
Block_0
340
0
102
{BLKREFS
331
8E
102
}
 70
     0
280
     1
281
     0
  0
BLOCK_RECORD
  5
96
330
1
100
AcDbSymbolTableRecord
100
AcDbBlockTableRecord
  2
Block_1
340
0
102
{BLKREFS
331
97
102
}
 70
     0
280
     1
281
     0
  0
BLOCK_RECORD
  5
9A
330
1
100
AcDbSymbolTableRecord
100
AcDbBlockTableRecord
  2
Block_2
340
0
102
{BLKREFS
331
9B
102
}
 70
     0
280
     1
281
     0
  0
BLOCK_RECORD
  5
A4
330
1
100
AcDbSymbolTableRecord
100
AcDbBlockTableRecord
  2
Block_3
340
0
102
{BLKREFS
331
A5
102
}
 70
     0
280
     1
281
     0
  0
BLOCK_RECORD
  5
AF
330
1
100
AcDbSymbolTableRecord
100
AcDbBlockTableRecord
  2
Block_4
340
0
102
{BLKREFS
331
B0
102
}
 70
     0
280
     1
281
     0
  0
BLOCK_RECORD
  5
B3
330
1
100
AcDbSymbolTableRecord
100
AcDbBlockTableRecord
  2
Block_5
340
0
102
{BLKREFS
331
B4
102
}
 70
     0
280
     1
281
     0
  0
BLOCK_RECORD
  5
C3
330
1
100
AcDbSymbolTableRecord
100
AcDbBlockTableRecord
  2
Block_6
340
0
102
{BLKREFS
331
C4
102
}
 70
     0
280
     1
281
     0
  0
BLOCK_RECORD
  5
C7
330
1
100
AcDbSymbolTableRecord
100
AcDbBlockTableRecord
  2
Block_7
340
0
102
{BLKREFS
331
C8
102
}
 70
     0
280
     1
281
     0
  0
BLOCK_RECORD
  5
D4
330
1
100
AcDbSymbolTableRecord
100
AcDbBlockTableRecord
  2
Block_8
340
0
102
{BLKREFS
331
D5
102
}
 70
     0
280
     1
281
     0
  0
BLOCK_RECORD
  5
D8
330
1
100
AcDbSymbolTableRecord
100
AcDbBlockTableRecord
  2
Block_9
340
0
102
{BLKREFS
331
D9
102
}
 70
     0
280
     1
281
     0
  0
ENDTAB
  0
ENDSEC
  0
SECTION
  2
BLOCKS
  0
BLOCK
  5
71
330
70
100
AcDbEntity
  8
0
100
AcDbBlockBegin
  2
*Model_Space
 70
     0
 10
0.0
 20
0.0
 30
0.0
  3
*Model_Space
  1

  0
ENDBLK
  5
72
330
70
100
AcDbEntity
  8
0
100
AcDbBlockEnd
  0
BLOCK
  5
6D
330
6C
100
AcDbEntity
 67
     1
  8
0
100
AcDbBlockBegin
  2
*Paper_Space
 70
     0
 10
0.0
 20
0.0
 30
0.0
  3
*Paper_Space
  1

  0
ENDBLK
  5
6E
330
6C
100
AcDbEntity
 67
     1
  8
0
100
AcDbBlockEnd
  0
BLOCK
  5
75
330
74
100
AcDbEntity
 67
     1
  8
0
100
AcDbBlockBegin
  2
*Paper_Space0
 70
     0
 10
0.0
 20
0.0
 30
0.0
  3
*Paper_Space0
  1

  0
ENDBLK
  5
76
330
74
100
AcDbEntity
 67
     1
  8
0
100
AcDbBlockEnd
  0
BLOCK
  5
8F
330
8D
100
AcDbEntity
  8
0
100
AcDbBlockBegin
  2
Block_0
 70
     0
 10
0.0
 20
0.0
 30
0.0
  3
Block_0
  1

  0
SPLINE
  5
91
330
8D
100
AcDbEntity
  8
レイヤー 1
100
AcDbSpline
210
0.0
220
0.0
230
1.0
 70
     9
 71
     3
 72
    17
 73
    13
 74
     0
 42
0.0000000001
 43
0.0000000001
 40
0.0
 40
0.0
 40
0.0
 40
0.0
 40
1.0
 40
1.0
 40
1.0
 40
2.0
 40
2.0
 40
2.0
 40
3.0
 40
3.0
 40
3.0
 40
4.0
 40
4.0
 40
4.0
 40
4.0
 10
95.31442326176167
 20
-154.8053656297014
 30
0.0
 10
95.09083656476896
 20
-154.8053656297014
 30
0.0
 10
95.05828041243335
 20
-155.0168944924958
 30
0.0
 10
95.05828041243335
 20
-155.1333387198972
 30
0.0
 10
95.05828041243335
 20
-155.3090385896449
 30
0.0
 10
95.13958466588524
 20
-155.4719916060973
 30
0.0
 10
95.29633651046411
 20
-155.4719916060973
 30
0.0
 10
95.39917261069883
 20
-155.4719916060973
 30
0.0
 10
95.54886200953292
 20
-155.412735963751
 30
0.0
 10
95.54886200953292
 20
-155.1271375480237
 30
0.0
 10
95.54886200953292
 20
-154.902861831934
 30
0.0
 10
95.42983396051754
 20
-154.8053656297014
 30
0.0
 10
95.31442326176167
 20
-154.8053656297014
 30
0.0
  0
SPLINE
  5
92
330
8D
100
AcDbEntity
  8
レイヤー 1
100
AcDbSpline
210
0.0
220
0.0
230
1.0
 70
     9
 71
     3
 72
    32
 73
    28
 74
     0
 42
0.0000000001
 43
0.0000000001
 40
0.0
 40
0.0
 40
0.0
 40
0.0
 40
1.0
 40
1.0
 40
1.0
 40
2.0
 40
2.0
 40
2.0
 40
3.0
 40
3.0
 40
3.0
 40
4.0
 40
4.0
 40
4.0
 40
5.0
 40
5.0
 40
5.0
 40
6.0
 40
6.0
 40
6.0
 40
7.0
 40
7.0
 40
7.0
 40
8.0
 40
8.0
 40
8.0
 40
9.0
 40
9.0
 40
9.0
 40
9.0
 10
95.29995386072362
 20
-155.6642279341742
 30
0.0
 10
94.86001516725721
 20
-155.6642279341742
 30
0.0
 10
94.85278046673819
 20
-155.110256580146
 30
0.0
 10
94.85278046673819
 20
-154.896316150512
 30
0.0
 10
94.85278046673819
 20
-154.6658392625488
 30
0.0
 10
94.86897241551886
 20
-154.0185058208704
 30
0.0
 10
95.33251001305924
 20
-154.0185058208704
 30
0.0
 10
95.48030460937646
 20
-154.0185058208704
 30
0.0
 10
95.68959416010539
 20
-154.0884412592209
 30
0.0
 10
95.72197805766673
 20
-154.420548463999
 30
0.0
 10
95.72197805766673
 20
-154.420548463999
 30
0.0
 10
95.53990476127127
 20
-154.420548463999
 30
0.0
 10
95.53990476127127
 20
-154.420548463999
 30
0.0
 10
95.53077525823537
 20
-154.3633598789439
 30
0.0
 10
95.50373125867615
 20
-154.2152207730781
 30
0.0
 10
95.33061521054234
 20
-154.2152207730781
 30
0.0
 10
95.08187931650731
 20
-154.2152207730781
 30
0.0
 10
95.04760061642908
 20
-154.5431938632739
 30
0.0
 10
95.03674856565053
 20
-154.7481770446463
 30
0.0
 10
95.11598576181128
 20
-154.6699733771311
 30
0.0
 10
95.17369111118922
 20
-154.6107177347848
 30
0.0
 10
95.32889266279973
 20
-154.6107177347848
 30
0.0
 10
95.48219941189335
 20
-154.6107177347848
 30
0.0
 10
95.74006480896429
 20
-154.7188937330217
 30
0.0
 10
95.74006480896429
 20
-155.1250704907326
 30
0.0
 10
95.74006480896429
 20
-155.4444308422153
 30
0.0
 10
95.57056611109
 20
-155.6642279341742
 30
0.0
 10
95.29995386072362
 20
-155.6642279341742
 30
0.0
  0
HATCH
  5
93
330
8D
100
AcDbEntity
  8
レイヤー 1
 62
   250
420
  2299925
440
 33554687
100
AcDbHatch
 10
0.0
 20
0.0
 30
0.0
210
0.0
220
0.0
230
1.0
  2
SOLID
 70
     1
 71
     1
 91
        2
 92
        1
 93
        1
 72
     4
 94
        3
 73
     0
 74
     0
 95
       17
 96
       13
 40
0.0
 40
0.0
 40
0.0
 40
0.0
 40
1.0
 40
1.0
 40
1.0
 40
2.0
 40
2.0
 40
2.0
 40
3.0
 40
3.0
 40
3.0
 40
4.0
 40
4.0
 40
4.0
 40
4.0
 10
95.31442326176167
 20
-154.8053656297014
 10
95.09083656476896
 20
-154.8053656297014
 10
95.05828041243335
 20
-155.0168944924958
 10
95.05828041243335
 20
-155.1333387198972
 10
95.05828041243335
 20
-155.3090385896449
 10
95.13958466588524
 20
-155.4719916060973
 10
95.29633651046411
 20
-155.4719916060973
 10
95.39917261069883
 20
-155.4719916060973
 10
95.54886200953292
 20
-155.412735963751
 10
95.54886200953292
 20
-155.1271375480237
 10
95.54886200953292
 20
-154.902861831934
 10
95.42983396051754
 20
-154.8053656297014
 10
95.31442326176167
 20
-154.8053656297014
 97
        0
 97
        1
330
91
 92
        1
 93
        1
 72
     4
 94
        3
 73
     0
 74
     0
 95
       32
 96
       28
 40
0.0
 40
0.0
 40
0.0
 40
0.0
 40
1.0
 40
1.0
 40
1.0
 40
2.0
 40
2.0
 40
2.0
 40
3.0
 40
3.0
 40
3.0
 40
4.0
 40
4.0
 40
4.0
 40
5.0
 40
5.0
 40
5.0
 40
6.0
 40
6.0
 40
6.0
 40
7.0
 40
7.0
 40
7.0
 40
8.0
 40
8.0
 40
8.0
 40
9.0
 40
9.0
 40
9.0
 40
9.0
 10
95.29995386072362
 20
-155.6642279341742
 10
94.86001516725721
 20
-155.6642279341742
 10
94.85278046673819
 20
-155.110256580146
 10
94.85278046673819
 20
-154.896316150512
 10
94.85278046673819
 20
-154.6658392625488
 10
94.86897241551886
 20
-154.0185058208704
 10
95.33251001305924
 20
-154.0185058208704
 10
95.48030460937646
 20
-154.0185058208704
 10
95.68959416010539
 20
-154.0884412592209
 10
95.72197805766673
 20
-154.420548463999
 10
95.72197805766673
 20
-154.420548463999
 10
95.53990476127127
 20
-154.420548463999
 10
95.53990476127127
 20
-154.420548463999
 10
95.53077525823537
 20
-154.3633598789439
 10
95.50373125867615
 20
-154.2152207730781
 10
95.33061521054234
 20
-154.2152207730781
 10
95.08187931650731
 20
-154.2152207730781
 10
95.04760061642908
 20
-154.5431938632739
 10
95.03674856565053
 20
-154.7481770446463
 10
95.11598576181128
 20
-154.6699733771311
 10
95.17369111118922
 20
-154.6107177347848
 10
95.32889266279973
 20
-154.6107177347848
 10
95.48219941189335
 20
-154.6107177347848
 10
95.74006480896429
 20
-154.7188937330217
 10
95.74006480896429
 20
-155.1250704907326
 10
95.74006480896429
 20
-155.4444308422153
 10
95.57056611109
 20
-155.6642279341742
 10
95.29995386072362
 20
-155.6642279341742
 97
        0
 97
        1
330
92
 75
     2
 76
     1
 98
        1
 10
0.0
 20
0.0
450
        0
451
        0
460
0.0
461
0.0
452
        0
462
0.0
453
        0
470

  0
ENDBLK
  5
90
330
8D
100
AcDbEntity
  8
0
100
AcDbBlockEnd
  0
BLOCK
  5
98
330
96
100
AcDbEntity
  8
0
100
AcDbBlockBegin
  2
Block_1
 70
     0
 10
0.0
 20
0.0
 30
0.0
  3
Block_1
  1

  0
INSERT
  5
9B
330
96
100
AcDbEntity
  8
レイヤー 1
100
AcDbBlockReference
  2
Block_2
 10
0.0
 20
0.0
 30
0.0
  0
ENDBLK
  5
99
330
96
100
AcDbEntity
  8
0
100
AcDbBlockEnd
  0
BLOCK
  5
9C
330
9A
100
AcDbEntity
  8
0
100
AcDbBlockBegin
  2
Block_2
 70
     0
 10
0.0
 20
0.0
 30
0.0
  3
Block_2
  1

  0
SPLINE
  5
9E
330
9A
100
AcDbEntity
  8
レイヤー 1
100
AcDbSpline
210
0.0
220
0.0
230
1.0
 70
    11
 71
     3
 72
    26
 73
    22
 74
     0
 42
0.0000000001
 43
0.0000000001
 40
0.0
 40
0.0
 40
0.0
 40
0.0
 40
1.0
 40
1.0
 40
1.0
 40
2.0
 40
2.0
 40
2.0
 40
3.0
 40
3.0
 40
3.0
 40
4.0
 40
4.0
 40
4.0
 40
5.0
 40
5.0
 40
5.0
 40
6.0
 40
6.0
 40
6.0
 40
7.0
 40
7.0
 40
7.0
 40
7.0
 10
106.253979465624
 20
-155.613585030541
 30
0.0
 10
106.253979465624
 20
-155.613585030541
 30
0.0
 10
106.253979465624
 20
-154.5094319275184
 30
0.0
 10
106.253979465624
 20
-154.5094319275184
 30
0.0
 10
106.253979465624
 20
-154.5094319275184
 30
0.0
 10
105.9725151644791
 20
-154.5094319275184
 30
0.0
 10
105.9725151644791
 20
-154.5094319275184
 30
0.0
 10
105.9725151644791
 20
-154.5094319275184
 30
0.0
 10
105.9725151644791
 20
-154.3612928216527
 30
0.0
 10
105.9725151644791
 20
-154.3612928216527
 30
0.0
 10
106.2557020133666
 20
-154.3464789110661
 30
0.0
 10
106.295320611447
 20
-154.1835258946138
 30
0.0
 10
106.3204698084893
 20
-154.0691487245035
 30
0.0
 10
106.3204698084893
 20
-154.0691487245035
 30
0.0
 10
106.4451822650553
 20
-154.0691487245035
 30
0.0
 10
106.4451822650553
 20
-154.0691487245035
 30
0.0
 10
106.4451822650553
 20
-154.0691487245035
 30
0.0
 10
106.4451822650553
 20
-155.613585030541
 30
0.0
 10
106.4451822650553
 20
-155.613585030541
 30
0.0
 10
106.4451822650553
 20
-155.613585030541
 30
0.0
 10
106.253979465624
 20
-155.613585030541
 30
0.0
 10
106.253979465624
 20
-155.613585030541
 30
0.0
  0
HATCH
  5
9F
330
9A
100
AcDbEntity
  8
レイヤー 1
 62
   250
420
  2299925
440
 33554687
100
AcDbHatch
 10
0.0
 20
0.0
 30
0.0
210
0.0
220
0.0
230
1.0
  2
SOLID
 70
     1
 71
     1
 91
        1
 92
        1
 93
        1
 72
     4
 94
        3
 73
     0
 74
     0
 95
       26
 96
       22
 40
0.0
 40
0.0
 40
0.0
 40
0.0
 40
1.0
 40
1.0
 40
1.0
 40
2.0
 40
2.0
 40
2.0
 40
3.0
 40
3.0
 40
3.0
 40
4.0
 40
4.0
 40
4.0
 40
5.0
 40
5.0
 40
5.0
 40
6.0
 40
6.0
 40
6.0
 40
7.0
 40
7.0
 40
7.0
 40
7.0
 10
106.253979465624
 20
-155.613585030541
 10
106.253979465624
 20
-155.613585030541
 10
106.253979465624
 20
-154.5094319275184
 10
106.253979465624
 20
-154.5094319275184
 10
106.253979465624
 20
-154.5094319275184
 10
105.9725151644791
 20
-154.5094319275184
 10
105.9725151644791
 20
-154.5094319275184
 10
105.9725151644791
 20
-154.5094319275184
 10
105.9725151644791
 20
-154.3612928216527
 10
105.9725151644791
 20
-154.3612928216527
 10
106.2557020133666
 20
-154.3464789110661
 10
106.295320611447
 20
-154.1835258946138
 10
106.3204698084893
 20
-154.0691487245035
 10
106.3204698084893
 20
-154.0691487245035
 10
106.4451822650553
 20
-154.0691487245035
 10
106.4451822650553
 20
-154.0691487245035
 10
106.4451822650553
 20
-154.0691487245035
 10
106.4451822650553
 20
-155.613585030541
 10
106.4451822650553
 20
-155.613585030541
 10
106.4451822650553
 20
-155.613585030541
 10
106.253979465624
 20
-155.613585030541
 10
106.253979465624
 20
-155.613585030541
 97
        0
 97
        1
330
9E
 75
     2
 76
     1
 98
        1
 10
0.0
 20
0.0
450
        0
451
        0
460
0.0
461
0.0
452
        0
462
0.0
453
        0
470

  0
SPLINE
  5
A0
330
9A
100
AcDbEntity
  8
レイヤー 1
100
AcDbSpline
210
0.0
220
0.0
230
1.0
 70
     9
 71
     3
 72
    26
 73
    22
 74
     0
 42
0.0000000001
 43
0.0000000001
 40
0.0
 40
0.0
 40
0.0
 40
0.0
 40
1.0
 40
1.0
 40
1.0
 40
2.0
 40
2.0
 40
2.0
 40
3.0
 40
3.0
 40
3.0
 40
4.0
 40
4.0
 40
4.0
 40
5.0
 40
5.0
 40
5.0
 40
6.0
 40
6.0
 40
6.0
 40
7.0
 40
7.0
 40
7.0
 40
7.0
 10
107.2213622778821
 20
-155.613585030541
 30
0.0
 10
107.2213622778821
 20
-155.613585030541
 30
0.0
 10
107.0194796824465
 20
-155.613585030541
 30
0.0
 10
107.0194796824465
 20
-155.613585030541
 30
0.0
 10
107.0411837840036
 20
-155.3045599655141
 30
0.0
 10
107.2051703291015
 20
-154.7864176045326
 30
0.0
 10
107.5514024253691
 20
-154.2806775872979
 30
0.0
 10
107.5514024253691
 20
-154.2806775872979
 30
0.0
 10
106.8372341312768
 20
-154.2806775872979
 30
0.0
 10
106.8372341312768
 20
-154.2806775872979
 30
0.0
 10
106.8372341312768
 20
-154.2806775872979
 30
0.0
 10
106.8372341312768
 20
-154.0691487245035
 30
0.0
 10
106.8372341312768
 20
-154.0691487245035
 30
0.0
 10
106.8372341312768
 20
-154.0691487245035
 30
0.0
 10
107.7532850208047
 20
-154.0691487245035
 30
0.0
 10
107.7532850208047
 20
-154.0691487245035
 30
0.0
 10
107.7532850208047
 20
-154.0691487245035
 30
0.0
 10
107.7532850208047
 20
-154.2806775872979
 30
0.0
 10
107.7532850208047
 20
-154.2806775872979
 30
0.0
 10
107.4776773819847
 20
-154.5707546271559
 30
0.0
 10
107.2503010799582
 20
-155.1629665410704
 30
0.0
 10
107.2213622778821
 20
-155.613585030541
 30
0.0
  0
HATCH
  5
A1
330
9A
100
AcDbEntity
  8
レイヤー 1
 62
   250
420
  2299925
440
 33554687
100
AcDbHatch
 10
0.0
 20
0.0
 30
0.0
210
0.0
220
0.0
230
1.0
  2
SOLID
 70
     1
 71
     1
 91
        1
 92
        1
 93
        1
 72
     4
 94
        3
 73
     0
 74
     0
 95
       26
 96
       22
 40
0.0
 40
0.0
 40
0.0
 40
0.0
 40
1.0
 40
1.0
 40
1.0
 40
2.0
 40
2.0
 40
2.0
 40
3.0
 40
3.0
 40
3.0
 40
4.0
 40
4.0
 40
4.0
 40
5.0
 40
5.0
 40
5.0
 40
6.0
 40
6.0
 40
6.0
 40
7.0
 40
7.0
 40
7.0
 40
7.0
 10
107.2213622778821
 20
-155.613585030541
 10
107.2213622778821
 20
-155.613585030541
 10
107.0194796824465
 20
-155.613585030541
 10
107.0194796824465
 20
-155.613585030541
 10
107.0411837840036
 20
-155.3045599655141
 10
107.2051703291015
 20
-154.7864176045326
 10
107.5514024253691
 20
-154.2806775872979
 10
107.5514024253691
 20
-154.2806775872979
 10
106.8372341312768
 20
-154.2806775872979
 10
106.8372341312768
 20
-154.2806775872979
 10
106.8372341312768
 20
-154.2806775872979
 10
106.8372341312768
 20
-154.0691487245035
 10
106.8372341312768
 20
-154.0691487245035
 10
106.8372341312768
 20
-154.0691487245035
 10
107.7532850208047
 20
-154.0691487245035
 10
107.7532850208047
 20
-154.0691487245035
 10
107.7532850208047
 20
-154.0691487245035
 10
107.7532850208047
 20
-154.2806775872979
 10
107.7532850208047
 20
-154.2806775872979
 10
107.4776773819847
 20
-154.5707546271559
 10
107.2503010799582
 20
-155.1629665410704
 10
107.2213622778821
 20
-155.613585030541
 97
        0
 97
        1
330
A0
 75
     2
 76
     1
 98
        1
 10
0.0
 20
0.0
450
        0
451
        0
460
0.0
461
0.0
452
        0
462
0.0
453
        0
470

  0
ENDBLK
  5
9D
330
9A
100
AcDbEntity
  8
0
100
AcDbBlockEnd
  0
BLOCK
  5
A6
330
A4
100
AcDbEntity
  8
0
100
AcDbBlockBegin
  2
Block_3
 70
     0
 10
0.0
 20
0.0
 30
0.0
  3
Block_3
  1

  0
SPLINE
  5
A8
330
A4
100
AcDbEntity
  8
レイヤー 1
100
AcDbSpline
210
0.0
220
0.0
230
1.0
 70
     9
 71
     3
 72
    17
 73
    13
 74
     0
 42
0.0000000001
 43
0.0000000001
 40
0.0
 40
0.0
 40
0.0
 40
0.0
 40
1.0
 40
1.0
 40
1.0
 40
2.0
 40
2.0
 40
2.0
 40
3.0
 40
3.0
 40
3.0
 40
4.0
 40
4.0
 40
4.0
 40
4.0
 10
117.8415581302618
 20
-148.1404839039371
 30
0.0
 10
117.8415581302618
 20
-148.3640706009298
 30
0.0
 10
118.0530869930562
 20
-148.3964544984912
 30
0.0
 10
118.1695312204576
 20
-148.3964544984912
 30
0.0
 10
118.3452310902053
 20
-148.3964544984912
 30
0.0
 10
118.5081841066577
 20
-148.3151502450392
 30
0.0
 10
118.5081841066577
 20
-148.1583984004604
 30
0.0
 10
118.5081841066577
 20
-148.0553900454514
 30
0.0
 10
118.4489284643114
 20
-147.9058729013916
 30
0.0
 10
118.1633300485841
 20
-147.9058729013916
 30
0.0
 10
117.9390543324944
 20
-147.9058729013916
 30
0.0
 10
117.8415581302618
 20
-148.0247286956327
 30
0.0
 10
117.8415581302618
 20
-148.1404839039371
 30
0.0
  0
SPLINE
  5
A9
330
A4
100
AcDbEntity
  8
レイヤー 1
100
AcDbSpline
210
0.0
220
0.0
230
1.0
 70
     9
 71
     3
 72
    32
 73
    28
 74
     0
 42
0.0000000001
 43
0.0000000001
 40
0.0
 40
0.0
 40
0.0
 40
0.0
 40
1.0
 40
1.0
 40
1.0
 40
2.0
 40
2.0
 40
2.0
 40
3.0
 40
3.0
 40
3.0
 40
4.0
 40
4.0
 40
4.0
 40
5.0
 40
5.0
 40
5.0
 40
6.0
 40
6.0
 40
6.0
 40
7.0
 40
7.0
 40
7.0
 40
8.0
 40
8.0
 40
8.0
 40
9.0
 40
9.0
 40
9.0
 40
9.0
 10
118.7004204347346
 20
-148.1546087954266
 30
0.0
 10
118.7004204347346
 20
-148.5948919984416
 30
0.0
 10
118.1464490807064
 20
-148.6021266989606
 30
0.0
 10
117.9325086510724
 20
-148.6021266989606
 30
0.0
 10
117.7020317631092
 20
-148.6021266989606
 30
0.0
 10
117.0546983214308
 20
-148.5855902406314
 30
0.0
 10
117.0546983214308
 20
-148.1222248978653
 30
0.0
 10
117.0546983214308
 20
-147.974430301548
 30
0.0
 10
117.1246337597813
 20
-147.7653130055934
 30
0.0
 10
117.4567409645594
 20
-147.732929108032
 30
0.0
 10
117.4567409645594
 20
-147.732929108032
 30
0.0
 10
117.4567409645594
 20
-147.9148301496532
 30
0.0
 10
117.4567409645594
 20
-147.9148301496532
 30
0.0
 10
117.3995523795043
 20
-147.9237873979149
 30
0.0
 10
117.2514132736385
 20
-147.9510036522484
 30
0.0
 10
117.2514132736385
 20
-148.1239474456079
 30
0.0
 10
117.2514132736385
 20
-148.3730278491914
 30
0.0
 10
117.5793863638343
 20
-148.4071342944954
 30
0.0
 10
117.7843695452067
 20
-148.4181586000482
 30
0.0
 10
117.7061658776915
 20
-148.338576894339
 30
0.0
 10
117.6469102353452
 20
-148.2810437997353
 30
0.0
 10
117.6469102353452
 20
-148.126014502899
 30
0.0
 10
117.6469102353452
 20
-147.9727077538054
 30
0.0
 10
117.755086233582
 20
-147.7146701019602
 30
0.0
 10
118.161262991293
 20
-147.7146701019602
 30
0.0
 10
118.4806233427757
 20
-147.7146701019602
 30
0.0
 10
118.7004204347346
 20
-147.8841687998345
 30
0.0
 10
118.7004204347346
 20
-148.1546087954266
 30
0.0
  0
HATCH
  5
AA
330
A4
100
AcDbEntity
  8
レイヤー 1
 62
   250
420
  2299925
440
 33554687
100
AcDbHatch
 10
0.0
 20
0.0
 30
0.0
210
0.0
220
0.0
230
1.0
  2
SOLID
 70
     1
 71
     1
 91
        2
 92
        1
 93
        1
 72
     4
 94
        3
 73
     0
 74
     0
 95
       17
 96
       13
 40
0.0
 40
0.0
 40
0.0
 40
0.0
 40
1.0
 40
1.0
 40
1.0
 40
2.0
 40
2.0
 40
2.0
 40
3.0
 40
3.0
 40
3.0
 40
4.0
 40
4.0
 40
4.0
 40
4.0
 10
117.8415581302618
 20
-148.1404839039371
 10
117.8415581302618
 20
-148.3640706009298
 10
118.0530869930562
 20
-148.3964544984912
 10
118.1695312204576
 20
-148.3964544984912
 10
118.3452310902053
 20
-148.3964544984912
 10
118.5081841066577
 20
-148.3151502450392
 10
118.5081841066577
 20
-148.1583984004604
 10
118.5081841066577
 20
-148.0553900454514
 10
118.4489284643114
 20
-147.9058729013916
 10
118.1633300485841
 20
-147.9058729013916
 10
117.9390543324944
 20
-147.9058729013916
 10
117.8415581302618
 20
-148.0247286956327
 10
117.8415581302618
 20
-148.1404839039371
 97
        0
 97
        1
330
A8
 92
        1
 93
        1
 72
     4
 94
        3
 73
     0
 74
     0
 95
       32
 96
       28
 40
0.0
 40
0.0
 40
0.0
 40
0.0
 40
1.0
 40
1.0
 40
1.0
 40
2.0
 40
2.0
 40
2.0
 40
3.0
 40
3.0
 40
3.0
 40
4.0
 40
4.0
 40
4.0
 40
5.0
 40
5.0
 40
5.0
 40
6.0
 40
6.0
 40
6.0
 40
7.0
 40
7.0
 40
7.0
 40
8.0
 40
8.0
 40
8.0
 40
9.0
 40
9.0
 40
9.0
 40
9.0
 10
118.7004204347346
 20
-148.1546087954266
 10
118.7004204347346
 20
-148.5948919984416
 10
118.1464490807064
 20
-148.6021266989606
 10
117.9325086510724
 20
-148.6021266989606
 10
117.7020317631092
 20
-148.6021266989606
 10
117.0546983214308
 20
-148.5855902406314
 10
117.0546983214308
 20
-148.1222248978653
 10
117.0546983214308
 20
-147.974430301548
 10
117.1246337597813
 20
-147.7653130055934
 10
117.4567409645594
 20
-147.732929108032
 10
117.4567409645594
 20
-147.732929108032
 10
117.4567409645594
 20
-147.9148301496532
 10
117.4567409645594
 20
-147.9148301496532
 10
117.3995523795043
 20
-147.9237873979149
 10
117.2514132736385
 20
-147.9510036522484
 10
117.2514132736385
 20
-148.1239474456079
 10
117.2514132736385
 20
-148.3730278491914
 10
117.5793863638343
 20
-148.4071342944954
 10
117.7843695452067
 20
-148.4181586000482
 10
117.7061658776915
 20
-148.338576894339
 10
117.6469102353452
 20
-148.2810437997353
 10
117.6469102353452
 20
-148.126014502899
 10
117.6469102353452
 20
-147.9727077538054
 10
117.755086233582
 20
-147.7146701019602
 10
118.161262991293
 20
-147.7146701019602
 10
118.4806233427757
 20
-147.7146701019602
 10
118.7004204347346
 20
-147.8841687998345
 10
118.7004204347346
 20
-148.1546087954266
 97
        0
 97
        1
330
A9
 75
     2
 76
     1
 98
        1
 10
0.0
 20
0.0
450
        0
451
        0
460
0.0
461
0.0
452
        0
462
0.0
453
        0
470

  0
ENDBLK
  5
A7
330
A4
100
AcDbEntity
  8
0
100
AcDbBlockEnd
  0
BLOCK
  5
B1
330
AF
100
AcDbEntity
  8
0
100
AcDbBlockBegin
  2
Block_4
 70
     0
 10
0.0
 20
0.0
 30
0.0
  3
Block_4
  1

  0
INSERT
  5
B4
330
AF
100
AcDbEntity
  8
レイヤー 1
100
AcDbBlockReference
  2
Block_5
 10
0.0
 20
0.0
 30
0.0
  0
ENDBLK
  5
B2
330
AF
100
AcDbEntity
  8
0
100
AcDbBlockEnd
  0
BLOCK
  5
B5
330
B3
100
AcDbEntity
  8
0
100
AcDbBlockBegin
  2
Block_5
 70
     0
 10
0.0
 20
0.0
 30
0.0
  3
Block_5
  1

  0
SPLINE
  5
B7
330
B3
100
AcDbEntity
  8
レイヤー 1
100
AcDbSpline
210
0.0
220
0.0
230
1.0
 70
     9
 71
     3
 72
    17
 73
    13
 74
     0
 42
0.0000000001
 43
0.0000000001
 40
0.0
 40
0.0
 40
0.0
 40
0.0
 40
1.0
 40
1.0
 40
1.0
 40
2.0
 40
2.0
 40
2.0
 40
3.0
 40
3.0
 40
3.0
 40
4.0
 40
4.0
 40
4.0
 40
4.0
 10
120.7774685027917
 20
-152.117846641658
 30
0.0
 10
120.7774685027917
 20
-152.3304090330979
 30
0.0
 10
121.0609998612278
 20
-152.3703721407268
 30
0.0
 10
121.4058539193013
 20
-152.3703721407268
 30
0.0
 10
121.7252142707839
 20
-152.3703721407268
 30
0.0
 10
122.0338948262623
 20
-152.3397107909081
 30
0.0
 10
122.0338948262623
 20
-152.117846641658
 30
0.0
 10
122.0338948262623
 20
-151.9066622884122
 30
0.0
 10
121.7527750346659
 20
-151.8653211425892
 30
0.0
 10
121.4058539193013
 20
-151.8653211425892
 30
0.0
 10
121.0861490582701
 20
-151.8653211425892
 30
0.0
 10
120.7774685027917
 20
-151.8977050401506
 30
0.0
 10
120.7774685027917
 20
-152.117846641658
 30
0.0
  0
SPLINE
  5
B8
330
B3
100
AcDbEntity
  8
レイヤー 1
100
AcDbSpline
210
0.0
220
0.0
230
1.0
 70
     9
 71
     3
 72
    29
 73
    25
 74
     0
 42
0.0000000001
 43
0.0000000001
 40
0.0
 40
0.0
 40
0.0
 40
0.0
 40
1.0
 40
1.0
 40
1.0
 40
2.0
 40
2.0
 40
2.0
 40
3.0
 40
3.0
 40
3.0
 40
4.0
 40
4.0
 40
4.0
 40
5.0
 40
5.0
 40
5.0
 40
6.0
 40
6.0
 40
6.0
 40
7.0
 40
7.0
 40
7.0
 40
8.0
 40
8.0
 40
8.0
 40
8.0
 10
122.0001328905069
 20
-151.7788492459095
 30
0.0
 10
122.2095946960101
 20
-151.8708332953656
 30
0.0
 10
122.228542721179
 20
-152.0186278916828
 30
0.0
 10
122.228542721179
 20
-152.117846641658
 30
0.0
 10
122.228542721179
 20
-152.2549614419709
 30
0.0
 10
122.1820339321281
 20
-152.3755397839547
 30
0.0
 10
122.0001328905069
 20
-152.4568440374066
 30
0.0
 10
121.8054849955903
 20
-152.545038481829
 30
0.0
 10
121.5688069357536
 20
-152.5612304306097
 30
0.0
 10
121.4058539193013
 20
-152.5612304306097
 30
0.0
 10
121.2618489280179
 20
-152.5612304306097
 30
0.0
 10
121.0100124480461
 20
-152.5471055391201
 30
0.0
 10
120.8112304385472
 20
-152.4568440374066
 30
0.0
 10
120.608314314466
 20
-152.3648599879504
 30
0.0
 10
120.5848876651663
 20
-152.2277451876375
 30
0.0
 10
120.5848876651663
 20
-152.117846641658
 30
0.0
 10
120.5848876651663
 20
-151.9824543890877
 30
0.0
 10
120.629329396926
 20
-151.8598089898128
 30
0.0
 10
120.8112304385472
 20
-151.7788492459095
 30
0.0
 10
121.0038112761727
 20
-151.6940998969723
 30
0.0
 10
121.2322211068447
 20
-151.6741183431578
 30
0.0
 10
121.4058539193013
 20
-151.6741183431578
 30
0.0
 10
121.5770751649182
 20
-151.6741183431578
 30
0.0
 10
121.8075520528814
 20
-151.6923773492297
 30
0.0
 10
122.0001328905069
 20
-151.7788492459095
 30
0.0
  0
HATCH
  5
B9
330
B3
100
AcDbEntity
  8
レイヤー 1
 62
   250
420
  2299925
440
 33554687
100
AcDbHatch
 10
0.0
 20
0.0
 30
0.0
210
0.0
220
0.0
230
1.0
  2
SOLID
 70
     1
 71
     1
 91
        2
 92
        1
 93
        1
 72
     4
 94
        3
 73
     0
 74
     0
 95
       17
 96
       13
 40
0.0
 40
0.0
 40
0.0
 40
0.0
 40
1.0
 40
1.0
 40
1.0
 40
2.0
 40
2.0
 40
2.0
 40
3.0
 40
3.0
 40
3.0
 40
4.0
 40
4.0
 40
4.0
 40
4.0
 10
120.7774685027917
 20
-152.117846641658
 10
120.7774685027917
 20
-152.3304090330979
 10
121.0609998612278
 20
-152.3703721407268
 10
121.4058539193013
 20
-152.3703721407268
 10
121.7252142707839
 20
-152.3703721407268
 10
122.0338948262623
 20
-152.3397107909081
 10
122.0338948262623
 20
-152.117846641658
 10
122.0338948262623
 20
-151.9066622884122
 10
121.7527750346659
 20
-151.8653211425892
 10
121.4058539193013
 20
-151.8653211425892
 10
121.0861490582701
 20
-151.8653211425892
 10
120.7774685027917
 20
-151.8977050401506
 10
120.7774685027917
 20
-152.117846641658
 97
        0
 97
        1
330
B7
 92
        1
 93
        1
 72
     4
 94
        3
 73
     0
 74
     0
 95
       29
 96
       25
 40
0.0
 40
0.0
 40
0.0
 40
0.0
 40
1.0
 40
1.0
 40
1.0
 40
2.0
 40
2.0
 40
2.0
 40
3.0
 40
3.0
 40
3.0
 40
4.0
 40
4.0
 40
4.0
 40
5.0
 40
5.0
 40
5.0
 40
6.0
 40
6.0
 40
6.0
 40
7.0
 40
7.0
 40
7.0
 40
8.0
 40
8.0
 40
8.0
 40
8.0
 10
122.0001328905069
 20
-151.7788492459095
 10
122.2095946960101
 20
-151.8708332953656
 10
122.228542721179
 20
-152.0186278916828
 10
122.228542721179
 20
-152.117846641658
 10
122.228542721179
 20
-152.2549614419709
 10
122.1820339321281
 20
-152.3755397839547
 10
122.0001328905069
 20
-152.4568440374066
 10
121.8054849955903
 20
-152.545038481829
 10
121.5688069357536
 20
-152.5612304306097
 10
121.4058539193013
 20
-152.5612304306097
 10
121.2618489280179
 20
-152.5612304306097
 10
121.0100124480461
 20
-152.5471055391201
 10
120.8112304385472
 20
-152.4568440374066
 10
120.608314314466
 20
-152.3648599879504
 10
120.5848876651663
 20
-152.2277451876375
 10
120.5848876651663
 20
-152.117846641658
 10
120.5848876651663
 20
-151.9824543890877
 10
120.629329396926
 20
-151.8598089898128
 10
120.8112304385472
 20
-151.7788492459095
 10
121.0038112761727
 20
-151.6940998969723
 10
121.2322211068447
 20
-151.6741183431578
 10
121.4058539193013
 20
-151.6741183431578
 10
121.5770751649182
 20
-151.6741183431578
 10
121.8075520528814
 20
-151.6923773492297
 10
122.0001328905069
 20
-151.7788492459095
 97
        0
 97
        1
330
B8
 75
     2
 76
     1
 98
        1
 10
0.0
 20
0.0
450
        0
451
        0
460
0.0
461
0.0
452
        0
462
0.0
453
        0
470

  0
SPLINE
  5
BA
330
B3
100
AcDbEntity
  8
レイヤー 1
100
AcDbSpline
210
0.0
220
0.0
230
1.0
 70
    11
 71
     3
 72
    17
 73
    13
 74
     0
 42
0.0000000001
 43
0.0000000001
 40
0.0
 40
0.0
 40
0.0
 40
0.0
 40
1.0
 40
1.0
 40
1.0
 40
2.0
 40
2.0
 40
2.0
 40
3.0
 40
3.0
 40
3.0
 40
4.0
 40
4.0
 40
4.0
 40
4.0
 10
122.1778998175458
 20
-151.4911837728911
 30
0.0
 10
122.1778998175458
 20
-151.4911837728911
 30
0.0
 10
121.926063337574
 20
-151.4911837728911
 30
0.0
 10
121.926063337574
 20
-151.4911837728911
 30
0.0
 10
121.926063337574
 20
-151.4911837728911
 30
0.0
 10
121.926063337574
 20
-151.27655432416
 30
0.0
 10
121.926063337574
 20
-151.27655432416
 30
0.0
 10
121.926063337574
 20
-151.27655432416
 30
0.0
 10
122.1778998175458
 20
-151.27655432416
 30
0.0
 10
122.1778998175458
 20
-151.27655432416
 30
0.0
 10
122.1778998175458
 20
-151.27655432416
 30
0.0
 10
122.1778998175458
 20
-151.4911837728911
 30
0.0
 10
122.1778998175458
 20
-151.4911837728911
 30
0.0
  0
HATCH
  5
BB
330
B3
100
AcDbEntity
  8
レイヤー 1
 62
   250
420
  2299925
440
 33554687
100
AcDbHatch
 10
0.0
 20
0.0
 30
0.0
210
0.0
220
0.0
230
1.0
  2
SOLID
 70
     1
 71
     1
 91
        1
 92
        1
 93
        1
 72
     4
 94
        3
 73
     0
 74
     0
 95
       17
 96
       13
 40
0.0
 40
0.0
 40
0.0
 40
0.0
 40
1.0
 40
1.0
 40
1.0
 40
2.0
 40
2.0
 40
2.0
 40
3.0
 40
3.0
 40
3.0
 40
4.0
 40
4.0
 40
4.0
 40
4.0
 10
122.1778998175458
 20
-151.4911837728911
 10
122.1778998175458
 20
-151.4911837728911
 10
121.926063337574
 20
-151.4911837728911
 10
121.926063337574
 20
-151.4911837728911
 10
121.926063337574
 20
-151.4911837728911
 10
121.926063337574
 20
-151.27655432416
 10
121.926063337574
 20
-151.27655432416
 10
121.926063337574
 20
-151.27655432416
 10
122.1778998175458
 20
-151.27655432416
 10
122.1778998175458
 20
-151.27655432416
 10
122.1778998175458
 20
-151.27655432416
 10
122.1778998175458
 20
-151.4911837728911
 10
122.1778998175458
 20
-151.4911837728911
 97
        0
 97
        1
330
BA
 75
     2
 76
     1
 98
        1
 10
0.0
 20
0.0
450
        0
451
        0
460
0.0
461
0.0
452
        0
462
0.0
453
        0
470

  0
SPLINE
  5
BC
330
B3
100
AcDbEntity
  8
レイヤー 1
100
AcDbSpline
210
0.0
220
0.0
230
1.0
 70
    11
 71
     3
 72
    14
 73
    10
 74
     0
 42
0.0000000001
 43
0.0000000001
 40
0.0
 40
0.0
 40
0.0
 40
0.0
 40
1.0
 40
1.0
 40
1.0
 40
2.0
 40
2.0
 40
2.0
 40
3.0
 40
3.0
 40
3.0
 40
3.0
 10
120.9762505122906
 20
-150.5517062340634
 30
0.0
 10
120.9762505122906
 20
-150.5517062340634
 30
0.0
 10
121.6321966926822
 20
-150.9413465334452
 30
0.0
 10
121.6321966926822
 20
-150.9413465334452
 30
0.0
 10
121.6321966926822
 20
-150.9413465334452
 30
0.0
 10
121.6321966926822
 20
-150.5517062340634
 30
0.0
 10
121.6321966926822
 20
-150.5517062340634
 30
0.0
 10
121.6321966926822
 20
-150.5517062340634
 30
0.0
 10
120.9762505122906
 20
-150.5517062340634
 30
0.0
 10
120.9762505122906
 20
-150.5517062340634
 30
0.0
  0
SPLINE
  5
BD
330
B3
100
AcDbEntity
  8
レイヤー 1
100
AcDbSpline
210
0.0
220
0.0
230
1.0
 70
    11
 71
     3
 72
    38
 73
    34
 74
     0
 42
0.0000000001
 43
0.0000000001
 40
0.0
 40
0.0
 40
0.0
 40
0.0
 40
1.0
 40
1.0
 40
1.0
 40
2.0
 40
2.0
 40
2.0
 40
3.0
 40
3.0
 40
3.0
 40
4.0
 40
4.0
 40
4.0
 40
5.0
 40
5.0
 40
5.0
 40
6.0
 40
6.0
 40
6.0
 40
7.0
 40
7.0
 40
7.0
 40
8.0
 40
8.0
 40
8.0
 40
9.0
 40
9.0
 40
9.0
 40
10.0
 40
10.0
 40
10.0
 40
11.0
 40
11.0
 40
11.0
 40
11.0
 10
121.8309787021811
 20
-150.3660155874085
 30
0.0
 10
121.8309787021811
 20
-150.3660155874085
 30
0.0
 10
122.1778998175458
 20
-150.3660155874085
 30
0.0
 10
122.1778998175458
 20
-150.3660155874085
 30
0.0
 10
122.1778998175458
 20
-150.3660155874085
 30
0.0
 10
122.1778998175458
 20
-150.5517062340634
 30
0.0
 10
122.1778998175458
 20
-150.5517062340634
 30
0.0
 10
122.1778998175458
 20
-150.5517062340634
 30
0.0
 10
121.8309787021811
 20
-150.5517062340634
 30
0.0
 10
121.8309787021811
 20
-150.5517062340634
 30
0.0
 10
121.8309787021811
 20
-150.5517062340634
 30
0.0
 10
121.8309787021811
 20
-151.1108452313195
 30
0.0
 10
121.8309787021811
 20
-151.1108452313195
 30
0.0
 10
121.8309787021811
 20
-151.1108452313195
 30
0.0
 10
121.6067029860914
 20
-151.1108452313195
 30
0.0
 10
121.6067029860914
 20
-151.1108452313195
 30
0.0
 10
121.6067029860914
 20
-151.1108452313195
 30
0.0
 10
120.6334635115083
 20
-150.5320691897975
 30
0.0
 10
120.6334635115083
 20
-150.5320691897975
 30
0.0
 10
120.6334635115083
 20
-150.5320691897975
 30
0.0
 10
120.6334635115083
 20
-150.3660155874085
 30
0.0
 10
120.6334635115083
 20
-150.3660155874085
 30
0.0
 10
120.6334635115083
 20
-150.3660155874085
 30
0.0
 10
121.6321966926822
 20
-150.3660155874085
 30
0.0
 10
121.6321966926822
 20
-150.3660155874085
 30
0.0
 10
121.6321966926822
 20
-150.3660155874085
 30
0.0
 10
121.6321966926822
 20
-150.1892821890152
 30
0.0
 10
121.6321966926822
 20
-150.1892821890152
 30
0.0
 10
121.6321966926822
 20
-150.1892821890152
 30
0.0
 10
121.8309787021811
 20
-150.1892821890152
 30
0.0
 10
121.8309787021811
 20
-150.1892821890152
 30
0.0
 10
121.8309787021811
 20
-150.1892821890152
 30
0.0
 10
121.8309787021811
 20
-150.3660155874085
 30
0.0
 10
121.8309787021811
 20
-150.3660155874085
 30
0.0
  0
HATCH
  5
BE
330
B3
100
AcDbEntity
  8
レイヤー 1
 62
   250
420
  2299925
440
 33554687
100
AcDbHatch
 10
0.0
 20
0.0
 30
0.0
210
0.0
220
0.0
230
1.0
  2
SOLID
 70
     1
 71
     1
 91
        2
 92
        1
 93
        1
 72
     4
 94
        3
 73
     0
 74
     0
 95
       14
 96
       10
 40
0.0
 40
0.0
 40
0.0
 40
0.0
 40
1.0
 40
1.0
 40
1.0
 40
2.0
 40
2.0
 40
2.0
 40
3.0
 40
3.0
 40
3.0
 40
3.0
 10
120.9762505122906
 20
-150.5517062340634
 10
120.9762505122906
 20
-150.5517062340634
 10
121.6321966926822
 20
-150.9413465334452
 10
121.6321966926822
 20
-150.9413465334452
 10
121.6321966926822
 20
-150.9413465334452
 10
121.6321966926822
 20
-150.5517062340634
 10
121.6321966926822
 20
-150.5517062340634
 10
121.6321966926822
 20
-150.5517062340634
 10
120.9762505122906
 20
-150.5517062340634
 10
120.9762505122906
 20
-150.5517062340634
 97
        0
 97
        1
330
BC
 92
        1
 93
        1
 72
     4
 94
        3
 73
     0
 74
     0
 95
       38
 96
       34
 40
0.0
 40
0.0
 40
0.0
 40
0.0
 40
1.0
 40
1.0
 40
1.0
 40
2.0
 40
2.0
 40
2.0
 40
3.0
 40
3.0
 40
3.0
 40
4.0
 40
4.0
 40
4.0
 40
5.0
 40
5.0
 40
5.0
 40
6.0
 40
6.0
 40
6.0
 40
7.0
 40
7.0
 40
7.0
 40
8.0
 40
8.0
 40
8.0
 40
9.0
 40
9.0
 40
9.0
 40
10.0
 40
10.0
 40
10.0
 40
11.0
 40
11.0
 40
11.0
 40
11.0
 10
121.8309787021811
 20
-150.3660155874085
 10
121.8309787021811
 20
-150.3660155874085
 10
122.1778998175458
 20
-150.3660155874085
 10
122.1778998175458
 20
-150.3660155874085
 10
122.1778998175458
 20
-150.3660155874085
 10
122.1778998175458
 20
-150.5517062340634
 10
122.1778998175458
 20
-150.5517062340634
 10
122.1778998175458
 20
-150.5517062340634
 10
121.8309787021811
 20
-150.5517062340634
 10
121.8309787021811
 20
-150.5517062340634
 10
121.8309787021811
 20
-150.5517062340634
 10
121.8309787021811
 20
-151.1108452313195
 10
121.8309787021811
 20
-151.1108452313195
 10
121.8309787021811
 20
-151.1108452313195
 10
121.6067029860914
 20
-151.1108452313195
 10
121.6067029860914
 20
-151.1108452313195
 10
121.6067029860914
 20
-151.1108452313195
 10
120.6334635115083
 20
-150.5320691897975
 10
120.6334635115083
 20
-150.5320691897975
 10
120.6334635115083
 20
-150.5320691897975
 10
120.6334635115083
 20
-150.3660155874085
 10
120.6334635115083
 20
-150.3660155874085
 10
120.6334635115083
 20
-150.3660155874085
 10
121.6321966926822
 20
-150.3660155874085
 10
121.6321966926822
 20
-150.3660155874085
 10
121.6321966926822
 20
-150.3660155874085
 10
121.6321966926822
 20
-150.1892821890152
 10
121.6321966926822
 20
-150.1892821890152
 10
121.6321966926822
 20
-150.1892821890152
 10
121.8309787021811
 20
-150.1892821890152
 10
121.8309787021811
 20
-150.1892821890152
 10
121.8309787021811
 20
-150.1892821890152
 10
121.8309787021811
 20
-150.3660155874085
 10
121.8309787021811
 20
-150.3660155874085
 97
        0
 97
        1
330
BD
 75
     2
 76
     1
 98
        1
 10
0.0
 20
0.0
450
        0
451
        0
460
0.0
461
0.0
452
        0
462
0.0
453
        0
470

  0
ENDBLK
  5
B6
330
B3
100
AcDbEntity
  8
0
100
AcDbBlockEnd
  0
BLOCK
  5
C5
330
C3
100
AcDbEntity
  8
0
100
AcDbBlockBegin
  2
Block_6
 70
     0
 10
0.0
 20
0.0
 30
0.0
  3
Block_6
  1

  0
INSERT
  5
C8
330
C3
100
AcDbEntity
  8
レイヤー 1
100
AcDbBlockReference
  2
Block_7
 10
0.0
 20
0.0
 30
0.0
  0
ENDBLK
  5
C6
330
C3
100
AcDbEntity
  8
0
100
AcDbBlockEnd
  0
BLOCK
  5
C9
330
C7
100
AcDbEntity
  8
0
100
AcDbBlockBegin
  2
Block_7
 70
     0
 10
0.0
 20
0.0
 30
0.0
  3
Block_7
  1

  0
SPLINE
  5
CB
330
C7
100
AcDbEntity
  8
レイヤー 1
100
AcDbSpline
210
0.0
220
0.0
230
1.0
 70
    11
 71
     3
 72
    26
 73
    22
 74
     0
 42
0.0000000001
 43
0.0000000001
 40
0.0
 40
0.0
 40
0.0
 40
0.0
 40
1.0
 40
1.0
 40
1.0
 40
2.0
 40
2.0
 40
2.0
 40
3.0
 40
3.0
 40
3.0
 40
4.0
 40
4.0
 40
4.0
 40
5.0
 40
5.0
 40
5.0
 40
6.0
 40
6.0
 40
6.0
 40
7.0
 40
7.0
 40
7.0
 40
7.0
 10
89.42572154882412
 20
-144.3584580802298
 30
0.0
 10
89.42572154882412
 20
-144.3584580802298
 30
0.0
 10
88.32156844580156
 20
-144.3584580802298
 30
0.0
 10
88.32156844580156
 20
-144.3584580802298
 30
0.0
 10
88.32156844580156
 20
-144.3584580802298
 30
0.0
 10
88.32156844580156
 20
-144.6399223813747
 30
0.0
 10
88.32156844580156
 20
-144.6399223813747
 30
0.0
 10
88.32156844580156
 20
-144.6399223813747
 30
0.0
 10
88.17342933993581
 20
-144.6399223813747
 30
0.0
 10
88.17342933993581
 20
-144.6399223813747
 30
0.0
 10
88.15861542934923
 20
-144.3567355324872
 30
0.0
 10
87.99566241289692
 20
-144.3171169344068
 30
0.0
 10
87.88128524278663
 20
-144.2919677373645
 30
0.0
 10
87.88128524278663
 20
-144.2919677373645
 30
0.0
 10
87.88128524278663
 20
-144.1672552807984
 30
0.0
 10
87.88128524278663
 20
-144.1672552807984
 30
0.0
 10
87.88128524278663
 20
-144.1672552807984
 30
0.0
 10
89.42572154882412
 20
-144.1672552807984
 30
0.0
 10
89.42572154882412
 20
-144.1672552807984
 30
0.0
 10
89.42572154882412
 20
-144.1672552807984
 30
0.0
 10
89.42572154882412
 20
-144.3584580802298
 30
0.0
 10
89.42572154882412
 20
-144.3584580802298
 30
0.0
  0
HATCH
  5
CC
330
C7
100
AcDbEntity
  8
レイヤー 1
 62
   250
420
  2299925
440
 33554687
100
AcDbHatch
 10
0.0
 20
0.0
 30
0.0
210
0.0
220
0.0
230
1.0
  2
SOLID
 70
     1
 71
     1
 91
        1
 92
        1
 93
        1
 72
     4
 94
        3
 73
     0
 74
     0
 95
       26
 96
       22
 40
0.0
 40
0.0
 40
0.0
 40
0.0
 40
1.0
 40
1.0
 40
1.0
 40
2.0
 40
2.0
 40
2.0
 40
3.0
 40
3.0
 40
3.0
 40
4.0
 40
4.0
 40
4.0
 40
5.0
 40
5.0
 40
5.0
 40
6.0
 40
6.0
 40
6.0
 40
7.0
 40
7.0
 40
7.0
 40
7.0
 10
89.42572154882412
 20
-144.3584580802298
 10
89.42572154882412
 20
-144.3584580802298
 10
88.32156844580156
 20
-144.3584580802298
 10
88.32156844580156
 20
-144.3584580802298
 10
88.32156844580156
 20
-144.3584580802298
 10
88.32156844580156
 20
-144.6399223813747
 10
88.32156844580156
 20
-144.6399223813747
 10
88.32156844580156
 20
-144.6399223813747
 10
88.17342933993581
 20
-144.6399223813747
 10
88.17342933993581
 20
-144.6399223813747
 10
88.15861542934923
 20
-144.3567355324872
 10
87.99566241289692
 20
-144.3171169344068
 10
87.88128524278663
 20
-144.2919677373645
 10
87.88128524278663
 20
-144.2919677373645
 10
87.88128524278663
 20
-144.1672552807984
 10
87.88128524278663
 20
-144.1672552807984
 10
87.88128524278663
 20
-144.1672552807984
 10
89.42572154882412
 20
-144.1672552807984
 10
89.42572154882412
 20
-144.1672552807984
 10
89.42572154882412
 20
-144.1672552807984
 10
89.42572154882412
 20
-144.3584580802298
 10
89.42572154882412
 20
-144.3584580802298
 97
        0
 97
        1
330
CB
 75
     2
 76
     1
 98
        1
 10
0.0
 20
0.0
450
        0
451
        0
460
0.0
461
0.0
452
        0
462
0.0
453
        0
470

  0
SPLINE
  5
CD
330
C7
100
AcDbEntity
  8
レイヤー 1
100
AcDbSpline
210
0.0
220
0.0
230
1.0
 70
    11
 71
     3
 72
    17
 73
    13
 74
     0
 42
0.0000000001
 43
0.0000000001
 40
0.0
 40
0.0
 40
0.0
 40
0.0
 40
1.0
 40
1.0
 40
1.0
 40
2.0
 40
2.0
 40
2.0
 40
3.0
 40
3.0
 40
3.0
 40
4.0
 40
4.0
 40
4.0
 40
4.0
 10
89.42572154882412
 20
-143.6904540656399
 30
0.0
 10
89.42572154882412
 20
-143.6904540656399
 30
0.0
 10
89.17388506885236
 20
-143.6904540656399
 30
0.0
 10
89.17388506885236
 20
-143.6904540656399
 30
0.0
 10
89.17388506885236
 20
-143.6904540656399
 30
0.0
 10
89.17388506885236
 20
-143.4758246169088
 30
0.0
 10
89.17388506885236
 20
-143.4758246169088
 30
0.0
 10
89.17388506885236
 20
-143.4758246169088
 30
0.0
 10
89.42572154882412
 20
-143.4758246169088
 30
0.0
 10
89.42572154882412
 20
-143.4758246169088
 30
0.0
 10
89.42572154882412
 20
-143.4758246169088
 30
0.0
 10
89.42572154882412
 20
-143.6904540656399
 30
0.0
 10
89.42572154882412
 20
-143.6904540656399
 30
0.0
  0
HATCH
  5
CE
330
C7
100
AcDbEntity
  8
レイヤー 1
 62
   250
420
  2299925
440
 33554687
100
AcDbHatch
 10
0.0
 20
0.0
 30
0.0
210
0.0
220
0.0
230
1.0
  2
SOLID
 70
     1
 71
     1
 91
        1
 92
        1
 93
        1
 72
     4
 94
        3
 73
     0
 74
     0
 95
       17
 96
       13
 40
0.0
 40
0.0
 40
0.0
 40
0.0
 40
1.0
 40
1.0
 40
1.0
 40
2.0
 40
2.0
 40
2.0
 40
3.0
 40
3.0
 40
3.0
 40
4.0
 40
4.0
 40
4.0
 40
4.0
 10
89.42572154882412
 20
-143.6904540656399
 10
89.42572154882412
 20
-143.6904540656399
 10
89.17388506885236
 20
-143.6904540656399
 10
89.17388506885236
 20
-143.6904540656399
 10
89.17388506885236
 20
-143.6904540656399
 10
89.17388506885236
 20
-143.4758246169088
 10
89.17388506885236
 20
-143.4758246169088
 10
89.17388506885236
 20
-143.4758246169088
 10
89.42572154882412
 20
-143.4758246169088
 10
89.42572154882412
 20
-143.4758246169088
 10
89.42572154882412
 20
-143.4758246169088
 10
89.42572154882412
 20
-143.6904540656399
 10
89.42572154882412
 20
-143.6904540656399
 97
        0
 97
        1
330
CD
 75
     2
 76
     1
 98
        1
 10
0.0
 20
0.0
450
        0
451
        0
460
0.0
461
0.0
452
        0
462
0.0
453
        0
470

  0
SPLINE
  5
CF
330
C7
100
AcDbEntity
  8
レイヤー 1
100
AcDbSpline
210
0.0
220
0.0
230
1.0
 70
     9
 71
     3
 72
    17
 73
    13
 74
     0
 42
0.0000000001
 43
0.0000000001
 40
0.0
 40
0.0
 40
0.0
 40
0.0
 40
1.0
 40
1.0
 40
1.0
 40
2.0
 40
2.0
 40
2.0
 40
3.0
 40
3.0
 40
3.0
 40
4.0
 40
4.0
 40
4.0
 40
4.0
 10
88.02529023407007
 20
-142.8484727290448
 30
0.0
 10
88.02529023407007
 20
-143.0610351204847
 30
0.0
 10
88.30882159250613
 20
-143.1009982281136
 30
0.0
 10
88.65367565057963
 20
-143.1009982281136
 30
0.0
 10
88.9730360020623
 20
-143.1009982281136
 30
0.0
 10
89.28171655754068
 20
-143.0703368782949
 30
0.0
 10
89.28171655754068
 20
-142.8484727290448
 30
0.0
 10
89.28171655754068
 20
-142.637288375799
 30
0.0
 10
89.00059676594429
 20
-142.595947229976
 30
0.0
 10
88.65367565057963
 20
-142.595947229976
 30
0.0
 10
88.33397078954845
 20
-142.595947229976
 30
0.0
 10
88.02529023407007
 20
-142.6283311275373
 30
0.0
 10
88.02529023407007
 20
-142.8484727290448
 30
0.0
  0
SPLINE
  5
D0
330
C7
100
AcDbEntity
  8
レイヤー 1
100
AcDbSpline
210
0.0
220
0.0
230
1.0
 70
     9
 71
     3
 72
    29
 73
    25
 74
     0
 42
0.0000000001
 43
0.0000000001
 40
0.0
 40
0.0
 40
0.0
 40
0.0
 40
1.0
 40
1.0
 40
1.0
 40
2.0
 40
2.0
 40
2.0
 40
3.0
 40
3.0
 40
3.0
 40
4.0
 40
4.0
 40
4.0
 40
5.0
 40
5.0
 40
5.0
 40
6.0
 40
6.0
 40
6.0
 40
7.0
 40
7.0
 40
7.0
 40
8.0
 40
8.0
 40
8.0
 40
8.0
 10
89.24795462178524
 20
-142.5094753332962
 30
0.0
 10
89.45741642728842
 20
-142.6014593827524
 30
0.0
 10
89.47636445245731
 20
-142.7492539790696
 30
0.0
 10
89.47636445245731
 20
-142.8484727290448
 30
0.0
 10
89.47636445245731
 20
-142.9855875293578
 30
0.0
 10
89.42985566340643
 20
-143.1061658713415
 30
0.0
 10
89.24795462178524
 20
-143.1874701247934
 30
0.0
 10
89.05330672686863
 20
-143.2756645692158
 30
0.0
 10
88.81628415748343
 20
-143.2918565179964
 30
0.0
 10
88.65367565057963
 20
-143.2918565179964
 30
0.0
 10
88.50967065929619
 20
-143.2918565179964
 30
0.0
 10
88.25783417932443
 20
-143.2777316265069
 30
0.0
 10
88.05905216982552
 20
-143.1874701247934
 30
0.0
 10
87.85613604574431
 20
-143.0954860753372
 30
0.0
 10
87.83270939644459
 20
-142.9583712750243
 30
0.0
 10
87.83270939644459
 20
-142.8484727290448
 30
0.0
 10
87.83270939644459
 20
-142.7130804764745
 30
0.0
 10
87.87715112820434
 20
-142.5904350771996
 30
0.0
 10
88.05905216982552
 20
-142.5094753332962
 30
0.0
 10
88.25163300745099
 20
-142.4247259843591
 30
0.0
 10
88.48004283812306
 20
-142.4047444305446
 30
0.0
 10
88.65367565057963
 20
-142.4047444305446
 30
0.0
 10
88.82489689619657
 20
-142.4047444305446
 30
0.0
 10
89.05537378415976
 20
-142.4230034366165
 30
0.0
 10
89.24795462178524
 20
-142.5094753332962
 30
0.0
  0
HATCH
  5
D1
330
C7
100
AcDbEntity
  8
レイヤー 1
 62
   250
420
  2299925
440
 33554687
100
AcDbHatch
 10
0.0
 20
0.0
 30
0.0
210
0.0
220
0.0
230
1.0
  2
SOLID
 70
     1
 71
     1
 91
        2
 92
        1
 93
        1
 72
     4
 94
        3
 73
     0
 74
     0
 95
       17
 96
       13
 40
0.0
 40
0.0
 40
0.0
 40
0.0
 40
1.0
 40
1.0
 40
1.0
 40
2.0
 40
2.0
 40
2.0
 40
3.0
 40
3.0
 40
3.0
 40
4.0
 40
4.0
 40
4.0
 40
4.0
 10
88.02529023407007
 20
-142.8484727290448
 10
88.02529023407007
 20
-143.0610351204847
 10
88.30882159250613
 20
-143.1009982281136
 10
88.65367565057963
 20
-143.1009982281136
 10
88.9730360020623
 20
-143.1009982281136
 10
89.28171655754068
 20
-143.0703368782949
 10
89.28171655754068
 20
-142.8484727290448
 10
89.28171655754068
 20
-142.637288375799
 10
89.00059676594429
 20
-142.595947229976
 10
88.65367565057963
 20
-142.595947229976
 10
88.33397078954845
 20
-142.595947229976
 10
88.02529023407007
 20
-142.6283311275373
 10
88.02529023407007
 20
-142.8484727290448
 97
        0
 97
        1
330
CF
 92
        1
 93
        1
 72
     4
 94
        3
 73
     0
 74
     0
 95
       29
 96
       25
 40
0.0
 40
0.0
 40
0.0
 40
0.0
 40
1.0
 40
1.0
 40
1.0
 40
2.0
 40
2.0
 40
2.0
 40
3.0
 40
3.0
 40
3.0
 40
4.0
 40
4.0
 40
4.0
 40
5.0
 40
5.0
 40
5.0
 40
6.0
 40
6.0
 40
6.0
 40
7.0
 40
7.0
 40
7.0
 40
8.0
 40
8.0
 40
8.0
 40
8.0
 10
89.24795462178524
 20
-142.5094753332962
 10
89.45741642728842
 20
-142.6014593827524
 10
89.47636445245731
 20
-142.7492539790696
 10
89.47636445245731
 20
-142.8484727290448
 10
89.47636445245731
 20
-142.9855875293578
 10
89.42985566340643
 20
-143.1061658713415
 10
89.24795462178524
 20
-143.1874701247934
 10
89.05330672686863
 20
-143.2756645692158
 10
88.81628415748343
 20
-143.2918565179964
 10
88.65367565057963
 20
-143.2918565179964
 10
88.50967065929619
 20
-143.2918565179964
 10
88.25783417932443
 20
-143.2777316265069
 10
88.05905216982552
 20
-143.1874701247934
 10
87.85613604574431
 20
-143.0954860753372
 10
87.83270939644459
 20
-142.9583712750243
 10
87.83270939644459
 20
-142.8484727290448
 10
87.83270939644459
 20
-142.7130804764745
 10
87.87715112820434
 20
-142.5904350771996
 10
88.05905216982552
 20
-142.5094753332962
 10
88.25163300745099
 20
-142.4247259843591
 10
88.48004283812306
 20
-142.4047444305446
 10
88.65367565057963
 20
-142.4047444305446
 10
88.82489689619657
 20
-142.4047444305446
 10
89.05537378415976
 20
-142.4230034366165
 10
89.24795462178524
 20
-142.5094753332962
 97
        0
 97
        1
330
D0
 75
     2
 76
     1
 98
        1
 10
0.0
 20
0.0
450
        0
451
        0
460
0.0
461
0.0
452
        0
462
0.0
453
        0
470

  0
ENDBLK
  5
CA
330
C7
100
AcDbEntity
  8
0
100
AcDbBlockEnd
  0
BLOCK
  5
D6
330
D4
100
AcDbEntity
  8
0
100
AcDbBlockBegin
  2
Block_8
 70
     0
 10
0.0
 20
0.0
 30
0.0
  3
Block_8
  1

  0
INSERT
  5
D9
330
D4
100
AcDbEntity
  8
レイヤー 1
100
AcDbBlockReference
  2
Block_9
 10
0.0
 20
0.0
 30
0.0
  0
ENDBLK
  5
D7
330
D4
100
AcDbEntity
  8
0
100
AcDbBlockEnd
  0
BLOCK
  5
DA
330
D8
100
AcDbEntity
  8
0
100
AcDbBlockBegin
  2
Block_9
 70
     0
 10
0.0
 20
0.0
 30
0.0
  3
Block_9
  1

  0
SPLINE
  5
DC
330
D8
100
AcDbEntity
  8
レイヤー 1
100
AcDbSpline
210
0.0
220
0.0
230
1.0
 70
     9
 71
     3
 72
    59
 73
    55
 74
     0
 42
0.0000000001
 43
0.0000000001
 40
0.0
 40
0.0
 40
0.0
 40
0.0
 40
1.0
 40
1.0
 40
1.0
 40
2.0
 40
2.0
 40
2.0
 40
3.0
 40
3.0
 40
3.0
 40
4.0
 40
4.0
 40
4.0
 40
5.0
 40
5.0
 40
5.0
 40
6.0
 40
6.0
 40
6.0
 40
7.0
 40
7.0
 40
7.0
 40
8.0
 40
8.0
 40
8.0
 40
9.0
 40
9.0
 40
9.0
 40
10.0
 40
10.0
 40
10.0
 40
11.0
 40
11.0
 40
11.0
 40
12.0
 40
12.0
 40
12.0
 40
13.0
 40
13.0
 40
13.0
 40
14.0
 40
14.0
 40
14.0
 40
15.0
 40
15.0
 40
15.0
 40
16.0
 40
16.0
 40
16.0
 40
17.0
 40
17.0
 40
17.0
 40
18.0
 40
18.0
 40
18.0
 40
18.0
 10
87.90402287298928
 20
-148.3466728687293
 30
0.0
 10
87.76139591989993
 20
-148.8332926060208
 30
0.0
 10
87.54883352846002
 20
-149.3559135911332
 30
0.0
 10
87.03827037754599
 20
-149.6732068853247
 30
0.0
 10
87.03827037754599
 20
-149.6732068853247
 30
0.0
 10
86.87807343748188
 20
-149.5209336648767
 30
0.0
 10
86.87807343748188
 20
-149.5209336648767
 30
0.0
 10
87.01484372824628
 20
-149.4509982265261
 30
0.0
 10
87.22430553374948
 20
-149.3410996805466
 30
0.0
 10
87.43859047293202
 20
-149.0110595330597
 30
0.0
 10
87.6408175779162
 20
-148.6979003534505
 30
0.0
 10
87.68939342425822
 20
-148.4419297588964
 30
0.0
 10
87.71282007355791
 20
-148.314977990265
 30
0.0
 10
87.71282007355791
 20
-148.314977990265
 30
0.0
 10
87.16091577682089
 20
-148.314977990265
 30
0.0
 10
87.16091577682089
 20
-148.314977990265
 30
0.0
 10
87.07272133239849
 20
-148.4756916946519
 30
0.0
 10
86.97005748693804
 20
-148.6427788256865
 30
0.0
 10
86.80572643229162
 20
-148.8141723260777
 30
0.0
 10
86.80572643229162
 20
-148.8141723260777
 30
0.0
 10
86.65793183597441
 20
-148.6915269268028
 30
0.0
 10
86.65793183597441
 20
-148.6915269268028
 30
0.0
 10
86.70857473960758
 20
-148.6450181377519
 30
0.0
 10
86.83466523436774
 20
-148.532880279707
 30
0.0
 10
86.97522513016592
 20
-148.2832831118007
 30
0.0
 10
87.04033743483714
 20
-148.1647718271081
 30
0.0
 10
87.12853187925954
 20
-147.9954453840081
 30
0.0
 10
87.15023598081662
 20
-147.8727999847332
 30
0.0
 10
87.15023598081662
 20
-147.8727999847332
 30
0.0
 10
87.34695093302438
 20
-147.9742580467738
 30
0.0
 10
87.34695093302438
 20
-147.9742580467738
 30
0.0
 10
87.35935327677127
 20
-147.9806314734215
 30
0.0
 10
87.3721001300667
 20
-147.9890719573603
 30
0.0
 10
87.3721001300667
 20
-148.0038858679469
 30
0.0
 10
87.3721001300667
 20
-148.0250732051812
 30
0.0
 10
87.35039602850962
 20
-148.0378200584766
 30
0.0
 10
87.3431613279906
 20
-148.0398871157678
 30
0.0
 10
87.31973467869091
 20
-148.0483275997066
 30
0.0
 10
87.31249997817188
 20
-148.0462605424155
 30
0.0
 10
87.2907958766148
 20
-148.0715819942321
 30
0.0
 10
87.26909177505772
 20
-148.0970757008229
 30
0.0
 10
87.27115883234887
 20
-148.1055161847618
 30
0.0
 10
87.2439425780154
 20
-148.1583984004604
 30
0.0
 10
87.2439425780154
 20
-148.1583984004604
 30
0.0
 10
87.52885197464555
 20
-148.1583984004604
 30
0.0
 10
87.52885197464555
 20
-148.1583984004604
 30
0.0
 10
87.7472710284104
 20
-148.1583984004604
 30
0.0
 10
87.77414277319534
 20
-148.145651547165
 30
0.0
 10
87.82271861953738
 20
-148.1160237259918
 30
0.0
 10
87.82271861953738
 20
-148.1160237259918
 30
0.0
 10
87.95638832436507
 20
-148.2810437997353
 30
0.0
 10
87.95638832436507
 20
-148.2810437997353
 30
0.0
 10
87.92744952228899
 20
-148.3170450475561
 30
0.0
 10
87.92572697454636
 20
-148.3191121048473
 30
0.0
 10
87.90402287298928
 20
-148.3466728687293
 30
0.0
  0
HATCH
  5
DD
330
D8
100
AcDbEntity
  8
レイヤー 1
 62
   250
420
  2299925
440
 33554687
100
AcDbHatch
 10
0.0
 20
0.0
 30
0.0
210
0.0
220
0.0
230
1.0
  2
SOLID
 70
     1
 71
     1
 91
        1
 92
        1
 93
        1
 72
     4
 94
        3
 73
     0
 74
     0
 95
       59
 96
       55
 40
0.0
 40
0.0
 40
0.0
 40
0.0
 40
1.0
 40
1.0
 40
1.0
 40
2.0
 40
2.0
 40
2.0
 40
3.0
 40
3.0
 40
3.0
 40
4.0
 40
4.0
 40
4.0
 40
5.0
 40
5.0
 40
5.0
 40
6.0
 40
6.0
 40
6.0
 40
7.0
 40
7.0
 40
7.0
 40
8.0
 40
8.0
 40
8.0
 40
9.0
 40
9.0
 40
9.0
 40
10.0
 40
10.0
 40
10.0
 40
11.0
 40
11.0
 40
11.0
 40
12.0
 40
12.0
 40
12.0
 40
13.0
 40
13.0
 40
13.0
 40
14.0
 40
14.0
 40
14.0
 40
15.0
 40
15.0
 40
15.0
 40
16.0
 40
16.0
 40
16.0
 40
17.0
 40
17.0
 40
17.0
 40
18.0
 40
18.0
 40
18.0
 40
18.0
 10
87.90402287298928
 20
-148.3466728687293
 10
87.76139591989993
 20
-148.8332926060208
 10
87.54883352846002
 20
-149.3559135911332
 10
87.03827037754599
 20
-149.6732068853247
 10
87.03827037754599
 20
-149.6732068853247
 10
86.87807343748188
 20
-149.5209336648767
 10
86.87807343748188
 20
-149.5209336648767
 10
87.01484372824628
 20
-149.4509982265261
 10
87.22430553374948
 20
-149.3410996805466
 10
87.43859047293202
 20
-149.0110595330597
 10
87.6408175779162
 20
-148.6979003534505
 10
87.68939342425822
 20
-148.4419297588964
 10
87.71282007355791
 20
-148.314977990265
 10
87.71282007355791
 20
-148.314977990265
 10
87.16091577682089
 20
-148.314977990265
 10
87.16091577682089
 20
-148.314977990265
 10
87.07272133239849
 20
-148.4756916946519
 10
86.97005748693804
 20
-148.6427788256865
 10
86.80572643229162
 20
-148.8141723260777
 10
86.80572643229162
 20
-148.8141723260777
 10
86.65793183597441
 20
-148.6915269268028
 10
86.65793183597441
 20
-148.6915269268028
 10
86.70857473960758
 20
-148.6450181377519
 10
86.83466523436774
 20
-148.532880279707
 10
86.97522513016592
 20
-148.2832831118007
 10
87.04033743483714
 20
-148.1647718271081
 10
87.12853187925954
 20
-147.9954453840081
 10
87.15023598081662
 20
-147.8727999847332
 10
87.15023598081662
 20
-147.8727999847332
 10
87.34695093302438
 20
-147.9742580467738
 10
87.34695093302438
 20
-147.9742580467738
 10
87.35935327677127
 20
-147.9806314734215
 10
87.3721001300667
 20
-147.9890719573603
 10
87.3721001300667
 20
-148.0038858679469
 10
87.3721001300667
 20
-148.0250732051812
 10
87.35039602850962
 20
-148.0378200584766
 10
87.3431613279906
 20
-148.0398871157678
 10
87.31973467869091
 20
-148.0483275997066
 10
87.31249997817188
 20
-148.0462605424155
 10
87.2907958766148
 20
-148.0715819942321
 10
87.26909177505772
 20
-148.0970757008229
 10
87.27115883234887
 20
-148.1055161847618
 10
87.2439425780154
 20
-148.1583984004604
 10
87.2439425780154
 20
-148.1583984004604
 10
87.52885197464555
 20
-148.1583984004604
 10
87.52885197464555
 20
-148.1583984004604
 10
87.7472710284104
 20
-148.1583984004604
 10
87.77414277319534
 20
-148.145651547165
 10
87.82271861953738
 20
-148.1160237259918
 10
87.82271861953738
 20
-148.1160237259918
 10
87.95638832436507
 20
-148.2810437997353
 10
87.95638832436507
 20
-148.2810437997353
 10
87.92744952228899
 20
-148.3170450475561
 10
87.92572697454636
 20
-148.3191121048473
 10
87.90402287298928
 20
-148.3466728687293
 97
        0
 97
        1
330
DC
 75
     2
 76
     1
 98
        1
 10
0.0
 20
0.0
450
        0
451
        0
460
0.0
461
0.0
452
        0
462
0.0
453
        0
470

  0
SPLINE
  5
DE
330
D8
100
AcDbEntity
  8
レイヤー 1
100
AcDbSpline
210
0.0
220
0.0
230
1.0
 70
    11
 71
     3
 72
    17
 73
    13
 74
     0
 42
0.0000000001
 43
0.0000000001
 40
0.0
 40
0.0
 40
0.0
 40
0.0
 40
1.0
 40
1.0
 40
1.0
 40
2.0
 40
2.0
 40
2.0
 40
3.0
 40
3.0
 40
3.0
 40
4.0
 40
4.0
 40
4.0
 40
4.0
 10
89.30204262090366
 20
-148.2557223479187
 30
0.0
 10
89.30204262090366
 20
-148.2557223479187
 30
0.0
 10
88.41493053345182
 20
-148.2557223479187
 30
0.0
 10
88.41493053345182
 20
-148.2557223479187
 30
0.0
 10
88.41493053345182
 20
-148.2557223479187
 30
0.0
 10
88.41493053345182
 20
-149.1443847283389
 30
0.0
 10
88.41493053345182
 20
-149.1443847283389
 30
0.0
 10
88.41493053345182
 20
-149.1443847283389
 30
0.0
 10
89.30204262090366
 20
-149.1443847283389
 30
0.0
 10
89.30204262090366
 20
-149.1443847283389
 30
0.0
 10
89.30204262090366
 20
-149.1443847283389
 30
0.0
 10
89.30204262090366
 20
-148.2557223479187
 30
0.0
 10
89.30204262090366
 20
-148.2557223479187
 30
0.0
  0
SPLINE
  5
DF
330
D8
100
AcDbEntity
  8
レイヤー 1
100
AcDbSpline
210
0.0
220
0.0
230
1.0
 70
     9
 71
     3
 72
    53
 73
    49
 74
     0
 42
0.0000000001
 43
0.0000000001
 40
0.0
 40
0.0
 40
0.0
 40
0.0
 40
1.0
 40
1.0
 40
1.0
 40
2.0
 40
2.0
 40
2.0
 40
3.0
 40
3.0
 40
3.0
 40
4.0
 40
4.0
 40
4.0
 40
5.0
 40
5.0
 40
5.0
 40
6.0
 40
6.0
 40
6.0
 40
7.0
 40
7.0
 40
7.0
 40
8.0
 40
8.0
 40
8.0
 40
9.0
 40
9.0
 40
9.0
 40
10.0
 40
10.0
 40
10.0
 40
11.0
 40
11.0
 40
11.0
 40
12.0
 40
12.0
 40
12.0
 40
13.0
 40
13.0
 40
13.0
 40
14.0
 40
14.0
 40
14.0
 40
15.0
 40
15.0
 40
15.0
 40
16.0
 40
16.0
 40
16.0
 40
16.0
 10
89.28240557663775
 20
-149.4596109652392
 30
0.0
 10
89.28964027715677
 20
-149.4151692334795
 30
0.0
 10
89.28964027715677
 20
-149.4065564947664
 30
0.0
 10
89.29480792038464
 20
-149.3324869418335
 30
0.0
 10
89.29480792038464
 20
-149.3324869418335
 30
0.0
 10
88.41665308119445
 20
-149.3324869418335
 30
0.0
 10
88.41665308119445
 20
-149.3324869418335
 30
0.0
 10
88.41665308119445
 20
-149.3641818202978
 30
0.0
 10
88.41665308119445
 20
-149.4193033480618
 30
0.0
 10
88.42044268622823
 20
-149.4551323411084
 30
0.0
 10
88.42044268622823
 20
-149.4551323411084
 30
0.0
 10
88.2147704857588
 20
-149.4551323411084
 30
0.0
 10
88.2147704857588
 20
-149.4551323411084
 30
0.0
 10
88.22028263853521
 20
-149.4003553228929
 30
0.0
 10
88.22923988679686
 20
-149.3094048020824
 30
0.0
 10
88.22923988679686
 20
-149.1802137213855
 30
0.0
 10
88.23096243453949
 20
-148.9752305400131
 30
0.0
 10
88.23096243453949
 20
-148.9518038907134
 30
0.0
 10
88.23096243453949
 20
-148.9283772414137
 30
0.0
 10
88.23096243453949
 20
-148.9283772414137
 30
0.0
 10
88.23096243453949
 20
-148.4884385479473
 30
0.0
 10
88.23096243453949
 20
-148.4884385479473
 30
0.0
 10
88.23096243453949
 20
-148.4228094789533
 30
0.0
 10
88.22545028176309
 20
-148.0991427581141
 30
0.0
 10
88.22200518627784
 20
-148.0441934851243
 30
0.0
 10
88.32845863677205
 20
-148.0567680836455
 30
0.0
 10
88.5537678815074
 20
-148.0610744530021
 30
0.0
 10
88.66573348477801
 20
-148.0610744530021
 30
0.0
 10
88.66573348477801
 20
-148.0610744530021
 30
0.0
 10
89.05330672686863
 20
-148.0610744530021
 30
0.0
 10
89.05330672686863
 20
-148.0610744530021
 30
0.0
 10
89.18146427891992
 20
-148.0610744530021
 30
0.0
 10
89.37232256880276
 20
-148.0590073957109
 30
0.0
 10
89.4970350253688
 20
-148.0505669117721
 30
0.0
 10
89.48980032484978
 20
-148.1604654577515
 30
0.0
 10
89.48601071981601
 20
-148.4100626256579
 30
0.0
 10
89.48601071981601
 20
-148.5285739103505
 30
0.0
 10
89.48601071981601
 20
-148.5285739103505
 30
0.0
 10
89.48601071981601
 20
-148.9476697761311
 30
0.0
 10
89.48601071981601
 20
-148.9476697761311
 30
0.0
 10
89.48601071981601
 20
-148.9900444505997
 30
0.0
 10
89.4915228725924
 20
-149.1719454922209
 30
0.0
 10
89.4915228725924
 20
-149.2098415425586
 30
0.0
 10
89.49324542033503
 20
-149.3600477057155
 30
0.0
 10
89.50048012085405
 20
-149.4106906093487
 30
0.0
 10
89.50771482137307
 20
-149.4596109652392
 30
0.0
 10
89.50771482137307
 20
-149.4596109652392
 30
0.0
 10
89.28240557663775
 20
-149.4596109652392
 30
0.0
 10
89.28240557663775
 20
-149.4596109652392
 30
0.0
  0
HATCH
  5
E0
330
D8
100
AcDbEntity
  8
レイヤー 1
 62
   250
420
  2299925
440
 33554687
100
AcDbHatch
 10
0.0
 20
0.0
 30
0.0
210
0.0
220
0.0
230
1.0
  2
SOLID
 70
     1
 71
     1
 91
        2
 92
        1
 93
        1
 72
     4
 94
        3
 73
     0
 74
     0
 95
       17
 96
       13
 40
0.0
 40
0.0
 40
0.0
 40
0.0
 40
1.0
 40
1.0
 40
1.0
 40
2.0
 40
2.0
 40
2.0
 40
3.0
 40
3.0
 40
3.0
 40
4.0
 40
4.0
 40
4.0
 40
4.0
 10
89.30204262090366
 20
-148.2557223479187
 10
89.30204262090366
 20
-148.2557223479187
 10
88.41493053345182
 20
-148.2557223479187
 10
88.41493053345182
 20
-148.2557223479187
 10
88.41493053345182
 20
-148.2557223479187
 10
88.41493053345182
 20
-149.1443847283389
 10
88.41493053345182
 20
-149.1443847283389
 10
88.41493053345182
 20
-149.1443847283389
 10
89.30204262090366
 20
-149.1443847283389
 10
89.30204262090366
 20
-149.1443847283389
 10
89.30204262090366
 20
-149.1443847283389
 10
89.30204262090366
 20
-148.2557223479187
 10
89.30204262090366
 20
-148.2557223479187
 97
        0
 97
        1
330
DE
 92
        1
 93
        1
 72
     4
 94
        3
 73
     0
 74
     0
 95
       53
 96
       49
 40
0.0
 40
0.0
 40
0.0
 40
0.0
 40
1.0
 40
1.0
 40
1.0
 40
2.0
 40
2.0
 40
2.0
 40
3.0
 40
3.0
 40
3.0
 40
4.0
 40
4.0
 40
4.0
 40
5.0
 40
5.0
 40
5.0
 40
6.0
 40
6.0
 40
6.0
 40
7.0
 40
7.0
 40
7.0
 40
8.0
 40
8.0
 40
8.0
 40
9.0
 40
9.0
 40
9.0
 40
10.0
 40
10.0
 40
10.0
 40
11.0
 40
11.0
 40
11.0
 40
12.0
 40
12.0
 40
12.0
 40
13.0
 40
13.0
 40
13.0
 40
14.0
 40
14.0
 40
14.0
 40
15.0
 40
15.0
 40
15.0
 40
16.0
 40
16.0
 40
16.0
 40
16.0
 10
89.28240557663775
 20
-149.4596109652392
 10
89.28964027715677
 20
-149.4151692334795
 10
89.28964027715677
 20
-149.4065564947664
 10
89.29480792038464
 20
-149.3324869418335
 10
89.29480792038464
 20
-149.3324869418335
 10
88.41665308119445
 20
-149.3324869418335
 10
88.41665308119445
 20
-149.3324869418335
 10
88.41665308119445
 20
-149.3641818202978
 10
88.41665308119445
 20
-149.4193033480618
 10
88.42044268622823
 20
-149.4551323411084
 10
88.42044268622823
 20
-149.4551323411084
 10
88.2147704857588
 20
-149.4551323411084
 10
88.2147704857588
 20
-149.4551323411084
 10
88.22028263853521
 20
-149.4003553228929
 10
88.22923988679686
 20
-149.3094048020824
 10
88.22923988679686
 20
-149.1802137213855
 10
88.23096243453949
 20
-148.9752305400131
 10
88.23096243453949
 20
-148.9518038907134
 10
88.23096243453949
 20
-148.9283772414137
 10
88.23096243453949
 20
-148.9283772414137
 10
88.23096243453949
 20
-148.4884385479473
 10
88.23096243453949
 20
-148.4884385479473
 10
88.23096243453949
 20
-148.4228094789533
 10
88.22545028176309
 20
-148.0991427581141
 10
88.22200518627784
 20
-148.0441934851243
 10
88.32845863677205
 20
-148.0567680836455
 10
88.5537678815074
 20
-148.0610744530021
 10
88.66573348477801
 20
-148.0610744530021
 10
88.66573348477801
 20
-148.0610744530021
 10
89.05330672686863
 20
-148.0610744530021
 10
89.05330672686863
 20
-148.0610744530021
 10
89.18146427891992
 20
-148.0610744530021
 10
89.37232256880276
 20
-148.0590073957109
 10
89.4970350253688
 20
-148.0505669117721
 10
89.48980032484978
 20
-148.1604654577515
 10
89.48601071981601
 20
-148.4100626256579
 10
89.48601071981601
 20
-148.5285739103505
 10
89.48601071981601
 20
-148.5285739103505
 10
89.48601071981601
 20
-148.9476697761311
 10
89.48601071981601
 20
-148.9476697761311
 10
89.48601071981601
 20
-148.9900444505997
 10
89.4915228725924
 20
-149.1719454922209
 10
89.4915228725924
 20
-149.2098415425586
 10
89.49324542033503
 20
-149.3600477057155
 10
89.50048012085405
 20
-149.4106906093487
 10
89.50771482137307
 20
-149.4596109652392
 10
89.50771482137307
 20
-149.4596109652392
 10
89.28240557663775
 20
-149.4596109652392
 10
89.28240557663775
 20
-149.4596109652392
 97
        0
 97
        1
330
DF
 75
     2
 76
     1
 98
        1
 10
0.0
 20
0.0
450
        0
451
        0
460
0.0
461
0.0
452
        0
462
0.0
453
        0
470

  0
SPLINE
  5
E1
330
D8
100
AcDbEntity
  8
レイヤー 1
100
AcDbSpline
210
0.0
220
0.0
230
1.0
 70
     9
 71
     3
 72
    56
 73
    52
 74
     0
 42
0.0000000001
 43
0.0000000001
 40
0.0
 40
0.0
 40
0.0
 40
0.0
 40
1.0
 40
1.0
 40
1.0
 40
2.0
 40
2.0
 40
2.0
 40
3.0
 40
3.0
 40
3.0
 40
4.0
 40
4.0
 40
4.0
 40
5.0
 40
5.0
 40
5.0
 40
6.0
 40
6.0
 40
6.0
 40
7.0
 40
7.0
 40
7.0
 40
8.0
 40
8.0
 40
8.0
 40
9.0
 40
9.0
 40
9.0
 40
10.0
 40
10.0
 40
10.0
 40
11.0
 40
11.0
 40
11.0
 40
12.0
 40
12.0
 40
12.0
 40
13.0
 40
13.0
 40
13.0
 40
14.0
 40
14.0
 40
14.0
 40
15.0
 40
15.0
 40
15.0
 40
16.0
 40
16.0
 40
16.0
 40
17.0
 40
17.0
 40
17.0
 40
17.0
 10
90.99427352325838
 20
-149.525067779459
 30
0.0
 10
90.83028697816049
 20
-149.2163872239806
 30
0.0
 10
90.61014537665302
 20
-149.0110595330597
 30
0.0
 10
90.5326307282349
 20
-148.94560271884
 30
0.0
 10
90.2818277769087
 20
-149.2839110954915
 30
0.0
 10
90.03481443061629
 20
-149.4361843159396
 30
0.0
 10
89.865315732742
 20
-149.5292018940413
 30
0.0
 10
89.865315732742
 20
-149.5292018940413
 30
0.0
 10
89.73026798972021
 20
-149.3410996805466
 30
0.0
 10
89.73026798972021
 20
-149.3410996805466
 30
0.0
 10
89.81846243414262
 20
-149.3049261779515
 30
0.0
 10
90.00070798531233
 20
-149.2287895677275
 30
0.0
 10
90.19880097571419
 20
-149.042754411524
 30
0.0
 10
90.42445472999807
 20
-148.8310532939554
 30
0.0
 10
90.58292912231955
 20
-148.5433878209371
 30
0.0
 10
90.68766002507114
 20
-148.2304008961021
 30
0.0
 10
90.68766002507114
 20
-148.2304008961021
 30
0.0
 10
90.36657712584586
 20
-148.2304008961021
 30
0.0
 10
90.36657712584586
 20
-148.2304008961021
 30
0.0
 10
90.23669702605195
 20
-148.2304008961021
 30
0.0
 10
90.058241079916
 20
-148.2345350106844
 30
0.0
 10
89.93042803741323
 20
-148.2536552906275
 30
0.0
 10
89.93042803741323
 20
-148.2536552906275
 30
0.0
 10
89.93042803741323
 20
-148.0421264278332
 30
0.0
 10
89.93042803741323
 20
-148.0421264278332
 30
0.0
 10
89.9879611320169
 20
-148.0483275997066
 30
0.0
 10
90.20982528126699
 20
-148.0590073957109
 30
0.0
 10
90.28389483419987
 20
-148.0590073957109
 30
0.0
 10
90.28389483419987
 20
-148.0590073957109
 30
0.0
 10
90.54882267701557
 20
-148.0590073957109
 30
0.0
 10
90.54882267701557
 20
-148.0590073957109
 30
0.0
 10
90.72555607540889
 20
-148.0590073957109
 30
0.0
 10
90.74553762922333
 20
-148.0526339690632
 30
0.0
 10
90.76517467348926
 20
-148.0483275997066
 30
0.0
 10
90.80307072382701
 20
-148.0421264278332
 30
0.0
 10
90.83545462138836
 20
-148.0166327212424
 30
0.0
 10
90.85371362746018
 20
-147.9997517533646
 30
0.0
 10
90.85371362746018
 20
-147.9997517533646
 30
0.0
 10
90.98703882273936
 20
-148.173212311047
 30
0.0
 10
90.98703882273936
 20
-148.173212311047
 30
0.0
 10
90.95258786788686
 20
-148.2007730749289
 30
0.0
 10
90.94190807188258
 20
-148.211280616159
 30
0.0
 10
90.90056692605958
 20
-148.2472818639798
 30
0.0
 10
90.79032387053159
 20
-148.494811974595
 30
0.0
 10
90.72176647037512
 20
-148.6450181377519
 30
0.0
 10
90.63357202595271
 20
-148.7909179315523
 30
0.0
 10
90.90056692605958
 20
-149.0089924757686
 30
0.0
 10
91.09521482097619
 20
-149.2945908914958
 30
0.0
 10
91.14034557183297
 20
-149.372794559011
 30
0.0
 10
91.14034557183297
 20
-149.372794559011
 30
0.0
 10
90.99427352325838
 20
-149.525067779459
 30
0.0
 10
90.99427352325838
 20
-149.525067779459
 30
0.0
  0
HATCH
  5
E2
330
D8
100
AcDbEntity
  8
レイヤー 1
 62
   250
420
  2299925
440
 33554687
100
AcDbHatch
 10
0.0
 20
0.0
 30
0.0
210
0.0
220
0.0
230
1.0
  2
SOLID
 70
     1
 71
     1
 91
        1
 92
        1
 93
        1
 72
     4
 94
        3
 73
     0
 74
     0
 95
       56
 96
       52
 40
0.0
 40
0.0
 40
0.0
 40
0.0
 40
1.0
 40
1.0
 40
1.0
 40
2.0
 40
2.0
 40
2.0
 40
3.0
 40
3.0
 40
3.0
 40
4.0
 40
4.0
 40
4.0
 40
5.0
 40
5.0
 40
5.0
 40
6.0
 40
6.0
 40
6.0
 40
7.0
 40
7.0
 40
7.0
 40
8.0
 40
8.0
 40
8.0
 40
9.0
 40
9.0
 40
9.0
 40
10.0
 40
10.0
 40
10.0
 40
11.0
 40
11.0
 40
11.0
 40
12.0
 40
12.0
 40
12.0
 40
13.0
 40
13.0
 40
13.0
 40
14.0
 40
14.0
 40
14.0
 40
15.0
 40
15.0
 40
15.0
 40
16.0
 40
16.0
 40
16.0
 40
17.0
 40
17.0
 40
17.0
 40
17.0
 10
90.99427352325838
 20
-149.525067779459
 10
90.83028697816049
 20
-149.2163872239806
 10
90.61014537665302
 20
-149.0110595330597
 10
90.5326307282349
 20
-148.94560271884
 10
90.2818277769087
 20
-149.2839110954915
 10
90.03481443061629
 20
-149.4361843159396
 10
89.865315732742
 20
-149.5292018940413
 10
89.865315732742
 20
-149.5292018940413
 10
89.73026798972021
 20
-149.3410996805466
 10
89.73026798972021
 20
-149.3410996805466
 10
89.81846243414262
 20
-149.3049261779515
 10
90.00070798531233
 20
-149.2287895677275
 10
90.19880097571419
 20
-149.042754411524
 10
90.42445472999807
 20
-148.8310532939554
 10
90.58292912231955
 20
-148.5433878209371
 10
90.68766002507114
 20
-148.2304008961021
 10
90.68766002507114
 20
-148.2304008961021
 10
90.36657712584586
 20
-148.2304008961021
 10
90.36657712584586
 20
-148.2304008961021
 10
90.23669702605195
 20
-148.2304008961021
 10
90.058241079916
 20
-148.2345350106844
 10
89.93042803741323
 20
-148.2536552906275
 10
89.93042803741323
 20
-148.2536552906275
 10
89.93042803741323
 20
-148.0421264278332
 10
89.93042803741323
 20
-148.0421264278332
 10
89.9879611320169
 20
-148.0483275997066
 10
90.20982528126699
 20
-148.0590073957109
 10
90.28389483419987
 20
-148.0590073957109
 10
90.28389483419987
 20
-148.0590073957109
 10
90.54882267701557
 20
-148.0590073957109
 10
90.54882267701557
 20
-148.0590073957109
 10
90.72555607540889
 20
-148.0590073957109
 10
90.74553762922333
 20
-148.0526339690632
 10
90.76517467348926
 20
-148.0483275997066
 10
90.80307072382701
 20
-148.0421264278332
 10
90.83545462138836
 20
-148.0166327212424
 10
90.85371362746018
 20
-147.9997517533646
 10
90.85371362746018
 20
-147.9997517533646
 10
90.98703882273936
 20
-148.173212311047
 10
90.98703882273936
 20
-148.173212311047
 10
90.95258786788686
 20
-148.2007730749289
 10
90.94190807188258
 20
-148.211280616159
 10
90.90056692605958
 20
-148.2472818639798
 10
90.79032387053159
 20
-148.494811974595
 10
90.72176647037512
 20
-148.6450181377519
 10
90.63357202595271
 20
-148.7909179315523
 10
90.90056692605958
 20
-149.0089924757686
 10
91.09521482097619
 20
-149.2945908914958
 10
91.14034557183297
 20
-149.372794559011
 10
91.14034557183297
 20
-149.372794559011
 10
90.99427352325838
 20
-149.525067779459
 10
90.99427352325838
 20
-149.525067779459
 97
        0
 97
        1
330
E1
 75
     2
 76
     1
 98
        1
 10
0.0
 20
0.0
450
        0
451
        0
460
0.0
461
0.0
452
        0
462
0.0
453
        0
470

  0
SPLINE
  5
E3
330
D8
100
AcDbEntity
  8
レイヤー 1
100
AcDbSpline
210
0.0
220
0.0
230
1.0
 70
    11
 71
     3
 72
    17
 73
    13
 74
     0
 42
0.0000000001
 43
0.0000000001
 40
0.0
 40
0.0
 40
0.0
 40
0.0
 40
1.0
 40
1.0
 40
1.0
 40
2.0
 40
2.0
 40
2.0
 40
3.0
 40
3.0
 40
3.0
 40
4.0
 40
4.0
 40
4.0
 40
4.0
 10
92.59589841435102
 20
-148.5476941902936
 30
0.0
 10
92.59589841435102
 20
-148.5476941902936
 30
0.0
 10
92.20453556722665
 20
-148.5476941902936
 30
0.0
 10
92.20453556722665
 20
-148.5476941902936
 30
0.0
 10
92.20453556722665
 20
-148.5476941902936
 30
0.0
 10
92.20453556722665
 20
-148.8565470005463
 30
0.0
 10
92.20453556722665
 20
-148.8565470005463
 30
0.0
 10
92.20453556722665
 20
-148.8565470005463
 30
0.0
 10
92.59589841435102
 20
-148.8565470005463
 30
0.0
 10
92.59589841435102
 20
-148.8565470005463
 30
0.0
 10
92.59589841435102
 20
-148.8565470005463
 30
0.0
 10
92.59589841435102
 20
-148.5476941902936
 30
0.0
 10
92.59589841435102
 20
-148.5476941902936
 30
0.0
  0
SPLINE
  5
E4
330
D8
100
AcDbEntity
  8
レイヤー 1
100
AcDbSpline
210
0.0
220
0.0
230
1.0
 70
    11
 71
     3
 72
    17
 73
    13
 74
     0
 42
0.0000000001
 43
0.0000000001
 40
0.0
 40
0.0
 40
0.0
 40
0.0
 40
1.0
 40
1.0
 40
1.0
 40
2.0
 40
2.0
 40
2.0
 40
3.0
 40
3.0
 40
3.0
 40
4.0
 40
4.0
 40
4.0
 40
4.0
 10
92.59589841435102
 20
-148.0758883635886
 30
0.0
 10
92.59589841435102
 20
-148.0758883635886
 30
0.0
 10
92.20453556722665
 20
-148.0758883635886
 30
0.0
 10
92.20453556722665
 20
-148.0758883635886
 30
0.0
 10
92.20453556722665
 20
-148.0758883635886
 30
0.0
 10
92.20453556722665
 20
-148.3804348044847
 30
0.0
 10
92.20453556722665
 20
-148.3804348044847
 30
0.0
 10
92.20453556722665
 20
-148.3804348044847
 30
0.0
 10
92.59589841435102
 20
-148.3804348044847
 30
0.0
 10
92.59589841435102
 20
-148.3804348044847
 30
0.0
 10
92.59589841435102
 20
-148.3804348044847
 30
0.0
 10
92.59589841435102
 20
-148.0758883635886
 30
0.0
 10
92.59589841435102
 20
-148.0758883635886
 30
0.0
  0
SPLINE
  5
E5
330
D8
100
AcDbEntity
  8
レイヤー 1
100
AcDbSpline
210
0.0
220
0.0
230
1.0
 70
    11
 71
     3
 72
    17
 73
    13
 74
     0
 42
0.0000000001
 43
0.0000000001
 40
0.0
 40
0.0
 40
0.0
 40
0.0
 40
1.0
 40
1.0
 40
1.0
 40
2.0
 40
2.0
 40
2.0
 40
3.0
 40
3.0
 40
3.0
 40
4.0
 40
4.0
 40
4.0
 40
4.0
 10
92.04227156987137
 20
-148.5476941902936
 30
0.0
 10
92.04227156987137
 20
-148.5476941902936
 30
0.0
 10
91.66916772881881
 20
-148.5476941902936
 30
0.0
 10
91.66916772881881
 20
-148.5476941902936
 30
0.0
 10
91.66916772881881
 20
-148.5476941902936
 30
0.0
 10
91.66916772881881
 20
-148.8565470005463
 30
0.0
 10
91.66916772881881
 20
-148.8565470005463
 30
0.0
 10
91.66916772881881
 20
-148.8565470005463
 30
0.0
 10
92.04227156987137
 20
-148.8565470005463
 30
0.0
 10
92.04227156987137
 20
-148.8565470005463
 30
0.0
 10
92.04227156987137
 20
-148.8565470005463
 30
0.0
 10
92.04227156987137
 20
-148.5476941902936
 30
0.0
 10
92.04227156987137
 20
-148.5476941902936
 30
0.0
  0
SPLINE
  5
E6
330
D8
100
AcDbEntity
  8
レイヤー 1
100
AcDbSpline
210
0.0
220
0.0
230
1.0
 70
    11
 71
     3
 72
    17
 73
    13
 74
     0
 42
0.0000000001
 43
0.0000000001
 40
0.0
 40
0.0
 40
0.0
 40
0.0
 40
1.0
 40
1.0
 40
1.0
 40
2.0
 40
2.0
 40
2.0
 40
3.0
 40
3.0
 40
3.0
 40
4.0
 40
4.0
 40
4.0
 40
4.0
 10
92.04227156987137
 20
-148.0758883635886
 30
0.0
 10
92.04227156987137
 20
-148.0758883635886
 30
0.0
 10
91.66916772881881
 20
-148.0758883635886
 30
0.0
 10
91.66916772881881
 20
-148.0758883635886
 30
0.0
 10
91.66916772881881
 20
-148.0758883635886
 30
0.0
 10
91.66916772881881
 20
-148.3804348044847
 30
0.0
 10
91.66916772881881
 20
-148.3804348044847
 30
0.0
 10
91.66916772881881
 20
-148.3804348044847
 30
0.0
 10
92.04227156987137
 20
-148.3804348044847
 30
0.0
 10
92.04227156987137
 20
-148.3804348044847
 30
0.0
 10
92.04227156987137
 20
-148.3804348044847
 30
0.0
 10
92.04227156987137
 20
-148.0758883635886
 30
0.0
 10
92.04227156987137
 20
-148.0758883635886
 30
0.0
  0
SPLINE
  5
E7
330
D8
100
AcDbEntity
  8
レイヤー 1
100
AcDbSpline
210
0.0
220
0.0
230
1.0
 70
     9
 71
     3
 72
    77
 73
    73
 74
     0
 42
0.0000000001
 43
0.0000000001
 40
0.0
 40
0.0
 40
0.0
 40
0.0
 40
1.0
 40
1.0
 40
1.0
 40
2.0
 40
2.0
 40
2.0
 40
3.0
 40
3.0
 40
3.0
 40
4.0
 40
4.0
 40
4.0
 40
5.0
 40
5.0
 40
5.0
 40
6.0
 40
6.0
 40
6.0
 40
7.0
 40
7.0
 40
7.0
 40
8.0
 40
8.0
 40
8.0
 40
9.0
 40
9.0
 40
9.0
 40
10.0
 40
10.0
 40
10.0
 40
11.0
 40
11.0
 40
11.0
 40
12.0
 40
12.0
 40
12.0
 40
13.0
 40
13.0
 40
13.0
 40
14.0
 40
14.0
 40
14.0
 40
15.0
 40
15.0
 40
15.0
 40
16.0
 40
16.0
 40
16.0
 40
17.0
 40
17.0
 40
17.0
 40
18.0
 40
18.0
 40
18.0
 40
19.0
 40
19.0
 40
19.0
 40
20.0
 40
20.0
 40
20.0
 40
21.0
 40
21.0
 40
21.0
 40
22.0
 40
22.0
 40
22.0
 40
23.0
 40
23.0
 40
23.0
 40
24.0
 40
24.0
 40
24.0
 40
24.0
 10
92.7113091131069
 20
-149.6625270893205
 30
0.0
 10
92.67169051502653
 20
-149.6880207959113
 30
0.0
 10
92.56523706453231
 20
-149.7007676492067
 30
0.0
 10
92.49874672166699
 20
-149.7007676492067
 30
0.0
 10
92.48772241611417
 20
-149.7007676492067
 30
0.0
 10
92.46601831455711
 20
-149.7007676492067
 30
0.0
 10
92.43742402202952
 20
-149.6962890250759
 30
0.0
 10
92.43742402202952
 20
-149.6962890250759
 30
0.0
 10
92.35439722083501
 20
-149.469946251695
 30
0.0
 10
92.35439722083501
 20
-149.469946251695
 30
0.0
 10
92.37954641787734
 20
-149.476491933117
 30
0.0
 10
92.42812226421937
 20
-149.4847601622816
 30
0.0
 10
92.52734101419456
 20
-149.4847601622816
 30
0.0
 10
92.59417586660841
 20
-149.4847601622816
 30
0.0
 10
92.59589841435102
 20
-149.4427299973615
 30
0.0
 10
92.59589841435102
 20
-149.3855414123064
 30
0.0
 10
92.59589841435102
 20
-149.3855414123064
 30
0.0
 10
92.59589841435102
 20
-149.0365532396506
 30
0.0
 10
92.59589841435102
 20
-149.0365532396506
 30
0.0
 10
92.59589841435102
 20
-149.0365532396506
 30
0.0
 10
92.20453556722665
 20
-149.0365532396506
 30
0.0
 10
92.20453556722665
 20
-149.0365532396506
 30
0.0
 10
92.20660262451779
 20
-149.1740125495121
 30
0.0
 10
92.20832517226041
 20
-149.372794559011
 30
0.0
 10
92.21383732503682
 20
-149.5061197542901
 30
0.0
 10
92.21555987277945
 20
-149.5336805181721
 30
0.0
 10
92.21555987277945
 20
-149.5781222499318
 30
0.0
 10
92.22623966878371
 20
-149.6394449495693
 30
0.0
 10
92.22623966878371
 20
-149.6394449495693
 30
0.0
 10
92.02056746831431
 20
-149.6394449495693
 30
0.0
 10
92.02056746831431
 20
-149.6394449495693
 30
0.0
 10
92.04227156987137
 20
-149.5143879834547
 30
0.0
 10
92.04227156987137
 20
-149.1740125495121
 30
0.0
 10
92.04227156987137
 20
-149.0365532396506
 30
0.0
 10
92.04227156987137
 20
-149.0365532396506
 30
0.0
 10
91.66537812378505
 20
-149.0365532396506
 30
0.0
 10
91.66537812378505
 20
-149.0365532396506
 30
0.0
 10
91.64574107951912
 20
-149.2436034783141
 30
0.0
 10
91.58958602310955
 20
-149.5123209261636
 30
0.0
 10
91.42215438252641
 20
-149.6962890250759
 30
0.0
 10
91.42215438252641
 20
-149.6962890250759
 30
0.0
 10
91.26161293291376
 20
-149.573643625801
 30
0.0
 10
91.26161293291376
 20
-149.573643625801
 30
0.0
 10
91.47796492938745
 20
-149.3538465338421
 30
0.0
 10
91.5048366741724
 20
-149.021739329064
 30
0.0
 10
91.5048366741724
 20
-148.6894598695116
 30
0.0
 10
91.5048366741724
 20
-148.6894598695116
 30
0.0
 10
91.5048366741724
 20
-148.2536552906275
 30
0.0
 10
91.5048366741724
 20
-148.2536552906275
 30
0.0
 10
91.5048366741724
 20
-148.2176540428067
 30
0.0
 10
91.50311412642977
 20
-147.984937842778
 30
0.0
 10
91.49587942591075
 20
-147.8833075259632
 30
0.0
 10
91.6150797297004
 20
-147.8939873219674
 30
0.0
 10
91.82040742062129
 20
-147.8939873219674
 30
0.0
 10
91.94305281989619
 20
-147.8939873219674
 30
0.0
 10
91.94305281989619
 20
-147.8939873219674
 30
0.0
 10
92.33441566702056
 20
-147.8939873219674
 30
0.0
 10
92.33441566702056
 20
-147.8939873219674
 30
0.0
 10
92.34716252031599
 20
-147.8939873219674
 30
0.0
 10
92.64481877024158
 20
-147.8939873219674
 30
0.0
 10
92.77986651326337
 20
-147.8833075259632
 30
0.0
 10
92.77814396552074
 20
-147.9361897416618
 30
0.0
 10
92.77263181274435
 20
-148.0970757008229
 30
0.0
 10
92.77263181274435
 20
-148.1478908592304
 30
0.0
 10
92.77263181274435
 20
-148.1478908592304
 30
0.0
 10
92.77263181274435
 20
-148.7549166837314
 30
0.0
 10
92.77263181274435
 20
-148.7549166837314
 30
0.0
 10
92.77263181274435
 20
-148.7740369636745
 30
0.0
 10
92.781589061006
 20
-149.3452337951289
 30
0.0
 10
92.781589061006
 20
-149.4575439079481
 30
0.0
 10
92.781589061006
 20
-149.5143879834547
 30
0.0
 10
92.781589061006
 20
-149.6160183002696
 30
0.0
 10
92.7113091131069
 20
-149.6625270893205
 30
0.0
  0
HATCH
  5
E8
330
D8
100
AcDbEntity
  8
レイヤー 1
 62
   250
420
  2299925
440
 33554687
100
AcDbHatch
 10
0.0
 20
0.0
 30
0.0
210
0.0
220
0.0
230
1.0
  2
SOLID
 70
     1
 71
     1
 91
        5
 92
        1
 93
        1
 72
     4
 94
        3
 73
     0
 74
     0
 95
       17
 96
       13
 40
0.0
 40
0.0
 40
0.0
 40
0.0
 40
1.0
 40
1.0
 40
1.0
 40
2.0
 40
2.0
 40
2.0
 40
3.0
 40
3.0
 40
3.0
 40
4.0
 40
4.0
 40
4.0
 40
4.0
 10
92.59589841435102
 20
-148.5476941902936
 10
92.59589841435102
 20
-148.5476941902936
 10
92.20453556722665
 20
-148.5476941902936
 10
92.20453556722665
 20
-148.5476941902936
 10
92.20453556722665
 20
-148.5476941902936
 10
92.20453556722665
 20
-148.8565470005463
 10
92.20453556722665
 20
-148.8565470005463
 10
92.20453556722665
 20
-148.8565470005463
 10
92.59589841435102
 20
-148.8565470005463
 10
92.59589841435102
 20
-148.8565470005463
 10
92.59589841435102
 20
-148.8565470005463
 10
92.59589841435102
 20
-148.5476941902936
 10
92.59589841435102
 20
-148.5476941902936
 97
        0
 97
        1
330
E3
 92
        1
 93
        1
 72
     4
 94
        3
 73
     0
 74
     0
 95
       17
 96
       13
 40
0.0
 40
0.0
 40
0.0
 40
0.0
 40
1.0
 40
1.0
 40
1.0
 40
2.0
 40
2.0
 40
2.0
 40
3.0
 40
3.0
 40
3.0
 40
4.0
 40
4.0
 40
4.0
 40
4.0
 10
92.59589841435102
 20
-148.0758883635886
 10
92.59589841435102
 20
-148.0758883635886
 10
92.20453556722665
 20
-148.0758883635886
 10
92.20453556722665
 20
-148.0758883635886
 10
92.20453556722665
 20
-148.0758883635886
 10
92.20453556722665
 20
-148.3804348044847
 10
92.20453556722665
 20
-148.3804348044847
 10
92.20453556722665
 20
-148.3804348044847
 10
92.59589841435102
 20
-148.3804348044847
 10
92.59589841435102
 20
-148.3804348044847
 10
92.59589841435102
 20
-148.3804348044847
 10
92.59589841435102
 20
-148.0758883635886
 10
92.59589841435102
 20
-148.0758883635886
 97
        0
 97
        1
330
E4
 92
        1
 93
        1
 72
     4
 94
        3
 73
     0
 74
     0
 95
       17
 96
       13
 40
0.0
 40
0.0
 40
0.0
 40
0.0
 40
1.0
 40
1.0
 40
1.0
 40
2.0
 40
2.0
 40
2.0
 40
3.0
 40
3.0
 40
3.0
 40
4.0
 40
4.0
 40
4.0
 40
4.0
 10
92.04227156987137
 20
-148.5476941902936
 10
92.04227156987137
 20
-148.5476941902936
 10
91.66916772881881
 20
-148.5476941902936
 10
91.66916772881881
 20
-148.5476941902936
 10
91.66916772881881
 20
-148.5476941902936
 10
91.66916772881881
 20
-148.8565470005463
 10
91.66916772881881
 20
-148.8565470005463
 10
91.66916772881881
 20
-148.8565470005463
 10
92.04227156987137
 20
-148.8565470005463
 10
92.04227156987137
 20
-148.8565470005463
 10
92.04227156987137
 20
-148.8565470005463
 10
92.04227156987137
 20
-148.5476941902936
 10
92.04227156987137
 20
-148.5476941902936
 97
        0
 97
        1
330
E5
 92
        1
 93
        1
 72
     4
 94
        3
 73
     0
 74
     0
 95
       17
 96
       13
 40
0.0
 40
0.0
 40
0.0
 40
0.0
 40
1.0
 40
1.0
 40
1.0
 40
2.0
 40
2.0
 40
2.0
 40
3.0
 40
3.0
 40
3.0
 40
4.0
 40
4.0
 40
4.0
 40
4.0
 10
92.04227156987137
 20
-148.0758883635886
 10
92.04227156987137
 20
-148.0758883635886
 10
91.66916772881881
 20
-148.0758883635886
 10
91.66916772881881
 20
-148.0758883635886
 10
91.66916772881881
 20
-148.0758883635886
 10
91.66916772881881
 20
-148.3804348044847
 10
91.66916772881881
 20
-148.3804348044847
 10
91.66916772881881
 20
-148.3804348044847
 10
92.04227156987137
 20
-148.3804348044847
 10
92.04227156987137
 20
-148.3804348044847
 10
92.04227156987137
 20
-148.3804348044847
 10
92.04227156987137
 20
-148.0758883635886
 10
92.04227156987137
 20
-148.0758883635886
 97
        0
 97
        1
330
E6
 92
        1
 93
        1
 72
     4
 94
        3
 73
     0
 74
     0
 95
       77
 96
       73
 40
0.0
 40
0.0
 40
0.0
 40
0.0
 40
1.0
 40
1.0
 40
1.0
 40
2.0
 40
2.0
 40
2.0
 40
3.0
 40
3.0
 40
3.0
 40
4.0
 40
4.0
 40
4.0
 40
5.0
 40
5.0
 40
5.0
 40
6.0
 40
6.0
 40
6.0
 40
7.0
 40
7.0
 40
7.0
 40
8.0
 40
8.0
 40
8.0
 40
9.0
 40
9.0
 40
9.0
 40
10.0
 40
10.0
 40
10.0
 40
11.0
 40
11.0
 40
11.0
 40
12.0
 40
12.0
 40
12.0
 40
13.0
 40
13.0
 40
13.0
 40
14.0
 40
14.0
 40
14.0
 40
15.0
 40
15.0
 40
15.0
 40
16.0
 40
16.0
 40
16.0
 40
17.0
 40
17.0
 40
17.0
 40
18.0
 40
18.0
 40
18.0
 40
19.0
 40
19.0
 40
19.0
 40
20.0
 40
20.0
 40
20.0
 40
21.0
 40
21.0
 40
21.0
 40
22.0
 40
22.0
 40
22.0
 40
23.0
 40
23.0
 40
23.0
 40
24.0
 40
24.0
 40
24.0
 40
24.0
 10
92.7113091131069
 20
-149.6625270893205
 10
92.67169051502653
 20
-149.6880207959113
 10
92.56523706453231
 20
-149.7007676492067
 10
92.49874672166699
 20
-149.7007676492067
 10
92.48772241611417
 20
-149.7007676492067
 10
92.46601831455711
 20
-149.7007676492067
 10
92.43742402202952
 20
-149.6962890250759
 10
92.43742402202952
 20
-149.6962890250759
 10
92.35439722083501
 20
-149.469946251695
 10
92.35439722083501
 20
-149.469946251695
 10
92.37954641787734
 20
-149.476491933117
 10
92.42812226421937
 20
-149.4847601622816
 10
92.52734101419456
 20
-149.4847601622816
 10
92.59417586660841
 20
-149.4847601622816
 10
92.59589841435102
 20
-149.4427299973615
 10
92.59589841435102
 20
-149.3855414123064
 10
92.59589841435102
 20
-149.3855414123064
 10
92.59589841435102
 20
-149.0365532396506
 10
92.59589841435102
 20
-149.0365532396506
 10
92.59589841435102
 20
-149.0365532396506
 10
92.20453556722665
 20
-149.0365532396506
 10
92.20453556722665
 20
-149.0365532396506
 10
92.20660262451779
 20
-149.1740125495121
 10
92.20832517226041
 20
-149.372794559011
 10
92.21383732503682
 20
-149.5061197542901
 10
92.21555987277945
 20
-149.5336805181721
 10
92.21555987277945
 20
-149.5781222499318
 10
92.22623966878371
 20
-149.6394449495693
 10
92.22623966878371
 20
-149.6394449495693
 10
92.02056746831431
 20
-149.6394449495693
 10
92.02056746831431
 20
-149.6394449495693
 10
92.04227156987137
 20
-149.5143879834547
 10
92.04227156987137
 20
-149.1740125495121
 10
92.04227156987137
 20
-149.0365532396506
 10
92.04227156987137
 20
-149.0365532396506
 10
91.66537812378505
 20
-149.0365532396506
 10
91.66537812378505
 20
-149.0365532396506
 10
91.64574107951912
 20
-149.2436034783141
 10
91.58958602310955
 20
-149.5123209261636
 10
91.42215438252641
 20
-149.6962890250759
 10
91.42215438252641
 20
-149.6962890250759
 10
91.26161293291376
 20
-149.573643625801
 10
91.26161293291376
 20
-149.573643625801
 10
91.47796492938745
 20
-149.3538465338421
 10
91.5048366741724
 20
-149.021739329064
 10
91.5048366741724
 20
-148.6894598695116
 10
91.5048366741724
 20
-148.6894598695116
 10
91.5048366741724
 20
-148.2536552906275
 10
91.5048366741724
 20
-148.2536552906275
 10
91.5048366741724
 20
-148.2176540428067
 10
91.50311412642977
 20
-147.984937842778
 10
91.49587942591075
 20
-147.8833075259632
 10
91.6150797297004
 20
-147.8939873219674
 10
91.82040742062129
 20
-147.8939873219674
 10
91.94305281989619
 20
-147.8939873219674
 10
91.94305281989619
 20
-147.8939873219674
 10
92.33441566702056
 20
-147.8939873219674
 10
92.33441566702056
 20
-147.8939873219674
 10
92.34716252031599
 20
-147.8939873219674
 10
92.64481877024158
 20
-147.8939873219674
 10
92.77986651326337
 20
-147.8833075259632
 10
92.77814396552074
 20
-147.9361897416618
 10
92.77263181274435
 20
-148.0970757008229
 10
92.77263181274435
 20
-148.1478908592304
 10
92.77263181274435
 20
-148.1478908592304
 10
92.77263181274435
 20
-148.7549166837314
 10
92.77263181274435
 20
-148.7549166837314
 10
92.77263181274435
 20
-148.7740369636745
 10
92.781589061006
 20
-149.3452337951289
 10
92.781589061006
 20
-149.4575439079481
 10
92.781589061006
 20
-149.5143879834547
 10
92.781589061006
 20
-149.6160183002696
 10
92.7113091131069
 20
-149.6625270893205
 97
        0
 97
        1
330
E7
 75
     2
 76
     1
 98
        1
 10
0.0
 20
0.0
450
        0
451
        0
460
0.0
461
0.0
452
        0
462
0.0
453
        0
470

  0
SPLINE
  5
E9
330
D8
100
AcDbEntity
  8
レイヤー 1
100
AcDbSpline
210
0.0
220
0.0
230
1.0
 70
     9
 71
     3
 72
    17
 73
    13
 74
     0
 42
0.0000000001
 43
0.0000000001
 40
0.0
 40
0.0
 40
0.0
 40
0.0
 40
1.0
 40
1.0
 40
1.0
 40
2.0
 40
2.0
 40
2.0
 40
3.0
 40
3.0
 40
3.0
 40
4.0
 40
4.0
 40
4.0
 40
4.0
 10
88.06800941808717
 20
-150.6440347930681
 30
0.0
 10
88.02115611948776
 20
-150.6440347930681
 30
0.0
 10
87.98326006915003
 20
-150.6884765248279
 30
0.0
 10
87.98326006915003
 20
-150.7435980525919
 30
0.0
 10
87.98326006915003
 20
-150.800786637647
 30
0.0
 10
88.02115611948776
 20
-150.8493624839891
 30
0.0
 10
88.07145451357241
 20
-150.8493624839891
 30
0.0
 10
88.12209741720559
 20
-150.8493624839891
 30
0.0
 10
88.15620386250957
 20
-150.7987195803559
 30
0.0
 10
88.15620386250957
 20
-150.745665109883
 30
0.0
 10
88.15620386250957
 20
-150.6884765248279
 30
0.0
 10
88.11658526442919
 20
-150.6440347930681
 30
0.0
 10
88.06800941808717
 20
-150.6440347930681
 30
0.0
  0
SPLINE
  5
EA
330
D8
100
AcDbEntity
  8
レイヤー 1
100
AcDbSpline
210
0.0
220
0.0
230
1.0
 70
    11
 71
     3
 72
    17
 73
    13
 74
     0
 42
0.0000000001
 43
0.0000000001
 40
0.0
 40
0.0
 40
0.0
 40
0.0
 40
1.0
 40
1.0
 40
1.0
 40
2.0
 40
2.0
 40
2.0
 40
3.0
 40
3.0
 40
3.0
 40
4.0
 40
4.0
 40
4.0
 40
4.0
 10
88.06973196582978
 20
-150.9740749405551
 30
0.0
 10
87.96155596759295
 20
-150.9740749405551
 30
0.0
 10
87.87508407091317
 20
-150.8727891332887
 30
0.0
 10
87.87508407091317
 20
-150.745665109883
 30
0.0
 10
87.87508407091317
 20
-150.6188855960258
 30
0.0
 10
87.96155596759295
 20
-150.5151882219198
 30
0.0
 10
88.06973196582978
 20
-150.5151882219198
 30
0.0
 10
88.17790796406663
 20
-150.5151882219198
 30
0.0
 10
88.26644691803755
 20
-150.6188855960258
 30
0.0
 10
88.26644691803755
 20
-150.745665109883
 30
0.0
 10
88.26644691803755
 20
-150.8727891332887
 30
0.0
 10
88.17790796406663
 20
-150.9740749405551
 30
0.0
 10
88.06973196582978
 20
-150.9740749405551
 30
0.0
  0
SPLINE
  5
EB
330
D8
100
AcDbEntity
  8
レイヤー 1
100
AcDbSpline
210
0.0
220
0.0
230
1.0
 70
     9
 71
     3
 72
    44
 73
    40
 74
     0
 42
0.0000000001
 43
0.0000000001
 40
0.0
 40
0.0
 40
0.0
 40
0.0
 40
1.0
 40
1.0
 40
1.0
 40
2.0
 40
2.0
 40
2.0
 40
3.0
 40
3.0
 40
3.0
 40
4.0
 40
4.0
 40
4.0
 40
5.0
 40
5.0
 40
5.0
 40
6.0
 40
6.0
 40
6.0
 40
7.0
 40
7.0
 40
7.0
 40
8.0
 40
8.0
 40
8.0
 40
9.0
 40
9.0
 40
9.0
 40
10.0
 40
10.0
 40
10.0
 40
11.0
 40
11.0
 40
11.0
 40
12.0
 40
12.0
 40
12.0
 40
13.0
 40
13.0
 40
13.0
 40
13.0
 10
87.89127601969385
 20
-151.1732014596025
 30
0.0
 10
87.79584687475242
 20
-151.5411376574272
 30
0.0
 10
87.75243867163828
 20
-151.6999565592972
 30
0.0
 10
87.58466252150661
 20
-151.9493814724293
 30
0.0
 10
87.42791067692776
 20
-152.180202869941
 30
0.0
 10
87.22568357194358
 20
-152.3662380261446
 30
0.0
 10
86.98797198346134
 20
-152.4592556042463
 30
0.0
 10
86.98797198346134
 20
-152.4592556042463
 30
0.0
 10
86.82364092881492
 20
-152.2794216199162
 30
0.0
 10
86.82364092881492
 20
-152.2794216199162
 30
0.0
 10
87.37003307277555
 20
-152.1271483994682
 30
0.0
 10
87.65149737392047
 20
-151.5707654786003
 30
0.0
 10
87.70558537303889
 20
-151.1308267851339
 30
0.0
 10
87.70558537303889
 20
-151.1308267851339
 30
0.0
 10
87.05273977858404
 20
-151.1308267851339
 30
0.0
 10
87.05273977858404
 20
-151.1308267851339
 30
0.0
 10
86.97350258242328
 20
-151.1308267851339
 30
0.0
 10
86.8164062282959
 20
-151.1349608997162
 30
0.0
 10
86.68308103301674
 20
-151.1539089248851
 30
0.0
 10
86.68308103301674
 20
-151.1539089248851
 30
0.0
 10
86.68308103301674
 20
-150.9341118329262
 30
0.0
 10
86.68308103301674
 20
-150.9341118329262
 30
0.0
 10
86.7571505859496
 20
-150.9551269153862
 30
0.0
 10
86.97143552513216
 20
-150.9551269153862
 30
0.0
 10
87.05618487406928
 20
-150.9551269153862
 30
0.0
 10
87.05618487406928
 20
-150.9551269153862
 30
0.0
 10
87.42412107189398
 20
-150.9551269153862
 30
0.0
 10
87.42412107189398
 20
-150.9551269153862
 30
0.0
 10
87.4602945744891
 20
-150.9551269153862
 30
0.0
 10
87.66045462218212
 20
-150.9530598580951
 30
0.0
 10
87.69283851974346
 20
-150.9468586862216
 30
0.0
 10
87.72901202233859
 20
-150.9403130047996
 30
0.0
 10
87.73073457008122
 20
-150.9382459475085
 30
0.0
 10
87.78310002145699
 20
-150.897938330331
 30
0.0
 10
87.78310002145699
 20
-150.897938330331
 30
0.0
 10
87.94364147106966
 20
-151.0526231176188
 30
0.0
 10
87.94364147106966
 20
-151.0526231176188
 30
0.0
 10
87.9181477644788
 20
-151.0822509387919
 30
0.0
 10
87.90574542073191
 20
-151.1139458172562
 30
0.0
 10
87.89127601969385
 20
-151.1732014596025
 30
0.0
  0
HATCH
  5
EC
330
D8
100
AcDbEntity
  8
レイヤー 1
 62
   250
420
  2299925
440
 33554687
100
AcDbHatch
 10
0.0
 20
0.0
 30
0.0
210
0.0
220
0.0
230
1.0
  2
SOLID
 70
     1
 71
     1
 91
        3
 92
        1
 93
        1
 72
     4
 94
        3
 73
     0
 74
     0
 95
       17
 96
       13
 40
0.0
 40
0.0
 40
0.0
 40
0.0
 40
1.0
 40
1.0
 40
1.0
 40
2.0
 40
2.0
 40
2.0
 40
3.0
 40
3.0
 40
3.0
 40
4.0
 40
4.0
 40
4.0
 40
4.0
 10
88.06800941808717
 20
-150.6440347930681
 10
88.02115611948776
 20
-150.6440347930681
 10
87.98326006915003
 20
-150.6884765248279
 10
87.98326006915003
 20
-150.7435980525919
 10
87.98326006915003
 20
-150.800786637647
 10
88.02115611948776
 20
-150.8493624839891
 10
88.07145451357241
 20
-150.8493624839891
 10
88.12209741720559
 20
-150.8493624839891
 10
88.15620386250957
 20
-150.7987195803559
 10
88.15620386250957
 20
-150.745665109883
 10
88.15620386250957
 20
-150.6884765248279
 10
88.11658526442919
 20
-150.6440347930681
 10
88.06800941808717
 20
-150.6440347930681
 97
        0
 97
        1
330
E9
 92
        1
 93
        1
 72
     4
 94
        3
 73
     0
 74
     0
 95
       17
 96
       13
 40
0.0
 40
0.0
 40
0.0
 40
0.0
 40
1.0
 40
1.0
 40
1.0
 40
2.0
 40
2.0
 40
2.0
 40
3.0
 40
3.0
 40
3.0
 40
4.0
 40
4.0
 40
4.0
 40
4.0
 10
88.06973196582978
 20
-150.9740749405551
 10
87.96155596759295
 20
-150.9740749405551
 10
87.87508407091317
 20
-150.8727891332887
 10
87.87508407091317
 20
-150.745665109883
 10
87.87508407091317
 20
-150.6188855960258
 10
87.96155596759295
 20
-150.5151882219198
 10
88.06973196582978
 20
-150.5151882219198
 10
88.17790796406663
 20
-150.5151882219198
 10
88.26644691803755
 20
-150.6188855960258
 10
88.26644691803755
 20
-150.745665109883
 10
88.26644691803755
 20
-150.8727891332887
 10
88.17790796406663
 20
-150.9740749405551
 10
88.06973196582978
 20
-150.9740749405551
 97
        0
 97
        1
330
EA
 92
        1
 93
        1
 72
     4
 94
        3
 73
     0
 74
     0
 95
       44
 96
       40
 40
0.0
 40
0.0
 40
0.0
 40
0.0
 40
1.0
 40
1.0
 40
1.0
 40
2.0
 40
2.0
 40
2.0
 40
3.0
 40
3.0
 40
3.0
 40
4.0
 40
4.0
 40
4.0
 40
5.0
 40
5.0
 40
5.0
 40
6.0
 40
6.0
 40
6.0
 40
7.0
 40
7.0
 40
7.0
 40
8.0
 40
8.0
 40
8.0
 40
9.0
 40
9.0
 40
9.0
 40
10.0
 40
10.0
 40
10.0
 40
11.0
 40
11.0
 40
11.0
 40
12.0
 40
12.0
 40
12.0
 40
13.0
 40
13.0
 40
13.0
 40
13.0
 10
87.89127601969385
 20
-151.1732014596025
 10
87.79584687475242
 20
-151.5411376574272
 10
87.75243867163828
 20
-151.6999565592972
 10
87.58466252150661
 20
-151.9493814724293
 10
87.42791067692776
 20
-152.180202869941
 10
87.22568357194358
 20
-152.3662380261446
 10
86.98797198346134
 20
-152.4592556042463
 10
86.98797198346134
 20
-152.4592556042463
 10
86.82364092881492
 20
-152.2794216199162
 10
86.82364092881492
 20
-152.2794216199162
 10
87.37003307277555
 20
-152.1271483994682
 10
87.65149737392047
 20
-151.5707654786003
 10
87.70558537303889
 20
-151.1308267851339
 10
87.70558537303889
 20
-151.1308267851339
 10
87.05273977858404
 20
-151.1308267851339
 10
87.05273977858404
 20
-151.1308267851339
 10
86.97350258242328
 20
-151.1308267851339
 10
86.8164062282959
 20
-151.1349608997162
 10
86.68308103301674
 20
-151.1539089248851
 10
86.68308103301674
 20
-151.1539089248851
 10
86.68308103301674
 20
-150.9341118329262
 10
86.68308103301674
 20
-150.9341118329262
 10
86.7571505859496
 20
-150.9551269153862
 10
86.97143552513216
 20
-150.9551269153862
 10
87.05618487406928
 20
-150.9551269153862
 10
87.05618487406928
 20
-150.9551269153862
 10
87.42412107189398
 20
-150.9551269153862
 10
87.42412107189398
 20
-150.9551269153862
 10
87.4602945744891
 20
-150.9551269153862
 10
87.66045462218212
 20
-150.9530598580951
 10
87.69283851974346
 20
-150.9468586862216
 10
87.72901202233859
 20
-150.9403130047996
 10
87.73073457008122
 20
-150.9382459475085
 10
87.78310002145699
 20
-150.897938330331
 10
87.78310002145699
 20
-150.897938330331
 10
87.94364147106966
 20
-151.0526231176188
 10
87.94364147106966
 20
-151.0526231176188
 10
87.9181477644788
 20
-151.0822509387919
 10
87.90574542073191
 20
-151.1139458172562
 10
87.89127601969385
 20
-151.1732014596025
 97
        0
 97
        1
330
EB
 75
     2
 76
     1
 98
        1
 10
0.0
 20
0.0
450
        0
451
        0
460
0.0
461
0.0
452
        0
462
0.0
453
        0
470

  0
SPLINE
  5
ED
330
D8
100
AcDbEntity
  8
レイヤー 1
100
AcDbSpline
210
0.0
220
0.0
230
1.0
 70
     9
 71
     3
 72
    29
 73
    25
 74
     0
 42
0.0000000001
 43
0.0000000001
 40
0.0
 40
0.0
 40
0.0
 40
0.0
 40
1.0
 40
1.0
 40
1.0
 40
2.0
 40
2.0
 40
2.0
 40
3.0
 40
3.0
 40
3.0
 40
4.0
 40
4.0
 40
4.0
 40
5.0
 40
5.0
 40
5.0
 40
6.0
 40
6.0
 40
6.0
 40
7.0
 40
7.0
 40
7.0
 40
8.0
 40
8.0
 40
8.0
 40
8.0
 10
89.17767467388614
 20
-150.855908165411
 30
0.0
 10
89.17767467388614
 20
-150.855908165411
 30
0.0
 10
88.88725312447958
 20
-150.855908165411
 30
0.0
 10
88.88725312447958
 20
-150.855908165411
 30
0.0
 10
88.78975692224701
 20
-150.855908165411
 30
0.0
 10
88.69053817227181
 20
-150.8600422799933
 30
0.0
 10
88.59338647958777
 20
-150.8748561905799
 30
0.0
 10
88.59338647958777
 20
-150.8748561905799
 30
0.0
 10
88.59338647958777
 20
-150.6653943850767
 30
0.0
 10
88.59338647958777
 20
-150.6653943850767
 30
0.0
 10
88.69432777730558
 20
-150.6802082956633
 30
0.0
 10
88.8421223736228
 20
-150.6843424102456
 30
0.0
 10
88.88725312447958
 20
-150.6843424102456
 30
0.0
 10
88.88725312447958
 20
-150.6843424102456
 30
0.0
 10
89.17767467388614
 20
-150.6843424102456
 30
0.0
 10
89.17767467388614
 20
-150.6843424102456
 30
0.0
 10
89.27689342386134
 20
-150.6843424102456
 30
0.0
 10
89.37576766428801
 20
-150.6802082956633
 30
0.0
 10
89.47498641426319
 20
-150.6653943850767
 30
0.0
 10
89.47498641426319
 20
-150.6653943850767
 30
0.0
 10
89.47498641426319
 20
-150.8748561905799
 30
0.0
 10
89.47498641426319
 20
-150.8748561905799
 30
0.0
 10
89.34717337176044
 20
-150.855908165411
 30
0.0
 10
89.19007701763304
 20
-150.855908165411
 30
0.0
 10
89.17767467388614
 20
-150.855908165411
 30
0.0
  0
SPLINE
  5
EE
330
D8
100
AcDbEntity
  8
レイヤー 1
100
AcDbSpline
210
0.0
220
0.0
230
1.0
 70
     9
 71
     3
 72
    50
 73
    46
 74
     0
 42
0.0000000001
 43
0.0000000001
 40
0.0
 40
0.0
 40
0.0
 40
0.0
 40
1.0
 40
1.0
 40
1.0
 40
2.0
 40
2.0
 40
2.0
 40
3.0
 40
3.0
 40
3.0
 40
4.0
 40
4.0
 40
4.0
 40
5.0
 40
5.0
 40
5.0
 40
6.0
 40
6.0
 40
6.0
 40
7.0
 40
7.0
 40
7.0
 40
8.0
 40
8.0
 40
8.0
 40
9.0
 40
9.0
 40
9.0
 40
10.0
 40
10.0
 40
10.0
 40
11.0
 40
11.0
 40
11.0
 40
12.0
 40
12.0
 40
12.0
 40
13.0
 40
13.0
 40
13.0
 40
14.0
 40
14.0
 40
14.0
 40
15.0
 40
15.0
 40
15.0
 40
15.0
 10
89.5976318135381
 20
-151.4818820150809
 30
0.0
 10
89.53114147067278
 20
-151.6596489421198
 30
0.0
 10
89.41573077191689
 20
-151.8670436903318
 30
0.0
 10
89.29825301586989
 20
-152.0065700574845
 30
0.0
 10
89.15424802458643
 20
-152.1777913031014
 30
0.0
 10
89.01541067653088
 20
-152.2666747666208
 30
0.0
 10
88.7429036236476
 20
-152.4086127006131
 30
0.0
 10
88.7429036236476
 20
-152.4086127006131
 30
0.0
 10
88.59855412281564
 20
-152.2201659775699
 30
0.0
 10
88.59855412281564
 20
-152.2201659775699
 30
0.0
 10
88.75737302468566
 20
-152.1970838378187
 30
0.0
 10
88.90344507326025
 20
-152.1102674315905
 30
0.0
 10
89.03332517305416
 20
-152.0045030001933
 30
0.0
 10
89.25691187004689
 20
-151.8226019585721
 30
0.0
 10
89.41917586740215
 20
-151.5094427789629
 30
0.0
 10
89.46051701322515
 20
-151.3275417373417
 30
0.0
 10
89.46051701322515
 20
-151.3275417373417
 30
0.0
 10
88.88897567222221
 20
-151.3275417373417
 30
0.0
 10
88.88897567222221
 20
-151.3275417373417
 30
0.0
 10
88.75392792920042
 20
-151.3275417373417
 30
0.0
 10
88.50484752561685
 20
-151.3358099665063
 30
0.0
 10
88.37496742582294
 20
-151.3530354439326
 30
0.0
 10
88.37496742582294
 20
-151.3530354439326
 30
0.0
 10
88.37496742582294
 20
-151.124281103712
 30
0.0
 10
88.37496742582294
 20
-151.124281103712
 30
0.0
 10
88.40390622789902
 20
-151.1308267851339
 30
0.0
 10
88.4256103294561
 20
-151.1370279570074
 30
0.0
 10
88.47074108031288
 20
-151.1415065811382
 30
0.0
 10
88.55721297699265
 20
-151.1477077530117
 30
0.0
 10
88.72498912712432
 20
-151.1497748103028
 30
0.0
 10
88.79699162276603
 20
-151.1497748103028
 30
0.0
 10
88.79699162276603
 20
-151.1497748103028
 30
0.0
 10
89.22797306797079
 20
-151.1497748103028
 30
0.0
 10
89.22797306797079
 20
-151.1497748103028
 30
0.0
 10
89.28585067212299
 20
-151.1497748103028
 30
0.0
 10
89.4102186191405
 20
-151.1456406957205
 30
0.0
 10
89.4625840705163
 20
-151.1390950142985
 30
0.0
 10
89.52390677015374
 20
-151.1308267851339
 30
0.0
 10
89.54733341945345
 20
-151.1160128745474
 30
0.0
 10
89.57592771198102
 20
-151.0925862252477
 30
0.0
 10
89.57592771198102
 20
-151.0925862252477
 30
0.0
 10
89.71683211732774
 20
-151.2596733562823
 30
0.0
 10
89.71683211732774
 20
-151.2596733562823
 30
0.0
 10
89.65723196543292
 20
-151.3275417373417
 30
0.0
 10
89.61761336735255
 20
-151.4312391114477
 30
0.0
 10
89.5976318135381
 20
-151.4818820150809
 30
0.0
  0
HATCH
  5
EF
330
D8
100
AcDbEntity
  8
レイヤー 1
 62
   250
420
  2299925
440
 33554687
100
AcDbHatch
 10
0.0
 20
0.0
 30
0.0
210
0.0
220
0.0
230
1.0
  2
SOLID
 70
     1
 71
     1
 91
        2
 92
        1
 93
        1
 72
     4
 94
        3
 73
     0
 74
     0
 95
       29
 96
       25
 40
0.0
 40
0.0
 40
0.0
 40
0.0
 40
1.0
 40
1.0
 40
1.0
 40
2.0
 40
2.0
 40
2.0
 40
3.0
 40
3.0
 40
3.0
 40
4.0
 40
4.0
 40
4.0
 40
5.0
 40
5.0
 40
5.0
 40
6.0
 40
6.0
 40
6.0
 40
7.0
 40
7.0
 40
7.0
 40
8.0
 40
8.0
 40
8.0
 40
8.0
 10
89.17767467388614
 20
-150.855908165411
 10
89.17767467388614
 20
-150.855908165411
 10
88.88725312447958
 20
-150.855908165411
 10
88.88725312447958
 20
-150.855908165411
 10
88.78975692224701
 20
-150.855908165411
 10
88.69053817227181
 20
-150.8600422799933
 10
88.59338647958777
 20
-150.8748561905799
 10
88.59338647958777
 20
-150.8748561905799
 10
88.59338647958777
 20
-150.6653943850767
 10
88.59338647958777
 20
-150.6653943850767
 10
88.69432777730558
 20
-150.6802082956633
 10
88.8421223736228
 20
-150.6843424102456
 10
88.88725312447958
 20
-150.6843424102456
 10
88.88725312447958
 20
-150.6843424102456
 10
89.17767467388614
 20
-150.6843424102456
 10
89.17767467388614
 20
-150.6843424102456
 10
89.27689342386134
 20
-150.6843424102456
 10
89.37576766428801
 20
-150.6802082956633
 10
89.47498641426319
 20
-150.6653943850767
 10
89.47498641426319
 20
-150.6653943850767
 10
89.47498641426319
 20
-150.8748561905799
 10
89.47498641426319
 20
-150.8748561905799
 10
89.34717337176044
 20
-150.855908165411
 10
89.19007701763304
 20
-150.855908165411
 10
89.17767467388614
 20
-150.855908165411
 97
        0
 97
        1
330
ED
 92
        1
 93
        1
 72
     4
 94
        3
 73
     0
 74
     0
 95
       50
 96
       46
 40
0.0
 40
0.0
 40
0.0
 40
0.0
 40
1.0
 40
1.0
 40
1.0
 40
2.0
 40
2.0
 40
2.0
 40
3.0
 40
3.0
 40
3.0
 40
4.0
 40
4.0
 40
4.0
 40
5.0
 40
5.0
 40
5.0
 40
6.0
 40
6.0
 40
6.0
 40
7.0
 40
7.0
 40
7.0
 40
8.0
 40
8.0
 40
8.0
 40
9.0
 40
9.0
 40
9.0
 40
10.0
 40
10.0
 40
10.0
 40
11.0
 40
11.0
 40
11.0
 40
12.0
 40
12.0
 40
12.0
 40
13.0
 40
13.0
 40
13.0
 40
14.0
 40
14.0
 40
14.0
 40
15.0
 40
15.0
 40
15.0
 40
15.0
 10
89.5976318135381
 20
-151.4818820150809
 10
89.53114147067278
 20
-151.6596489421198
 10
89.41573077191689
 20
-151.8670436903318
 10
89.29825301586989
 20
-152.0065700574845
 10
89.15424802458643
 20
-152.1777913031014
 10
89.01541067653088
 20
-152.2666747666208
 10
88.7429036236476
 20
-152.4086127006131
 10
88.7429036236476
 20
-152.4086127006131
 10
88.59855412281564
 20
-152.2201659775699
 10
88.59855412281564
 20
-152.2201659775699
 10
88.75737302468566
 20
-152.1970838378187
 10
88.90344507326025
 20
-152.1102674315905
 10
89.03332517305416
 20
-152.0045030001933
 10
89.25691187004689
 20
-151.8226019585721
 10
89.41917586740215
 20
-151.5094427789629
 10
89.46051701322515
 20
-151.3275417373417
 10
89.46051701322515
 20
-151.3275417373417
 10
88.88897567222221
 20
-151.3275417373417
 10
88.88897567222221
 20
-151.3275417373417
 10
88.75392792920042
 20
-151.3275417373417
 10
88.50484752561685
 20
-151.3358099665063
 10
88.37496742582294
 20
-151.3530354439326
 10
88.37496742582294
 20
-151.3530354439326
 10
88.37496742582294
 20
-151.124281103712
 10
88.37496742582294
 20
-151.124281103712
 10
88.40390622789902
 20
-151.1308267851339
 10
88.4256103294561
 20
-151.1370279570074
 10
88.47074108031288
 20
-151.1415065811382
 10
88.55721297699265
 20
-151.1477077530117
 10
88.72498912712432
 20
-151.1497748103028
 10
88.79699162276603
 20
-151.1497748103028
 10
88.79699162276603
 20
-151.1497748103028
 10
89.22797306797079
 20
-151.1497748103028
 10
89.22797306797079
 20
-151.1497748103028
 10
89.28585067212299
 20
-151.1497748103028
 10
89.4102186191405
 20
-151.1456406957205
 10
89.4625840705163
 20
-151.1390950142985
 10
89.52390677015374
 20
-151.1308267851339
 10
89.54733341945345
 20
-151.1160128745474
 10
89.57592771198102
 20
-151.0925862252477
 10
89.57592771198102
 20
-151.0925862252477
 10
89.71683211732774
 20
-151.2596733562823
 10
89.71683211732774
 20
-151.2596733562823
 10
89.65723196543292
 20
-151.3275417373417
 10
89.61761336735255
 20
-151.4312391114477
 10
89.5976318135381
 20
-151.4818820150809
 97
        0
 97
        1
330
EE
 75
     2
 76
     1
 98
        1
 10
0.0
 20
0.0
450
        0
451
        0
460
0.0
461
0.0
452
        0
462
0.0
453
        0
470

  0
SPLINE
  5
F0
330
D8
100
AcDbEntity
  8
レイヤー 1
100
AcDbSpline
210
0.0
220
0.0
230
1.0
 70
     9
 71
     3
 72
    50
 73
    46
 74
     0
 42
0.0000000001
 43
0.0000000001
 40
0.0
 40
0.0
 40
0.0
 40
0.0
 40
1.0
 40
1.0
 40
1.0
 40
2.0
 40
2.0
 40
2.0
 40
3.0
 40
3.0
 40
3.0
 40
4.0
 40
4.0
 40
4.0
 40
5.0
 40
5.0
 40
5.0
 40
6.0
 40
6.0
 40
6.0
 40
7.0
 40
7.0
 40
7.0
 40
8.0
 40
8.0
 40
8.0
 40
9.0
 40
9.0
 40
9.0
 40
10.0
 40
10.0
 40
10.0
 40
11.0
 40
11.0
 40
11.0
 40
12.0
 40
12.0
 40
12.0
 40
13.0
 40
13.0
 40
13.0
 40
14.0
 40
14.0
 40
14.0
 40
15.0
 40
15.0
 40
15.0
 40
15.0
 10
91.05352916560468
 20
-150.8410942548245
 30
0.0
 10
90.87507321946873
 20
-151.0546901749099
 30
0.0
 10
90.81375051983128
 20
-151.1266926705516
 30
0.0
 10
90.69282766829902
 20
-151.2448594456957
 30
0.0
 10
90.69282766829902
 20
-151.2448594456957
 30
0.0
 10
90.69282766829902
 20
-151.8119221625678
 30
0.0
 10
90.69282766829902
 20
-151.8119221625678
 30
0.0
 10
90.69282766829902
 20
-151.9621283257247
 30
0.0
 10
90.69833982107542
 20
-151.9810763508936
 30
0.0
 10
90.7021294261092
 20
-152.1588432779325
 30
0.0
 10
90.70385197385181
 20
-152.2901014159205
 30
0.0
 10
90.70936412662822
 20
-152.3386772622625
 30
0.0
 10
90.7145317698561
 20
-152.3979329046088
 30
0.0
 10
90.7145317698561
 20
-152.3979329046088
 30
0.0
 10
90.5216064226821
 20
-152.3979329046088
 30
0.0
 10
90.5216064226821
 20
-152.3979329046088
 30
0.0
 10
90.52539602771586
 20
-152.3534911728491
 30
0.0
 10
90.52884112320112
 20
-152.3069823837982
 30
0.0
 10
90.52884112320112
 20
-152.2983696450851
 30
0.0
 10
90.52884112320112
 20
-152.2180989202788
 30
0.0
 10
90.5326307282349
 20
-151.8670436903318
 30
0.0
 10
90.5326307282349
 20
-151.7950411946901
 30
0.0
 10
90.5326307282349
 20
-151.7950411946901
 30
0.0
 10
90.5326307282349
 20
-151.3888644369792
 30
0.0
 10
90.5326307282349
 20
-151.3888644369792
 30
0.0
 10
90.37725692185013
 20
-151.5135768935452
 30
0.0
 10
90.21154782900962
 20
-151.6238199490732
 30
0.0
 10
90.03825952610155
 20
-151.7102918457529
 30
0.0
 10
90.03825952610155
 20
-151.7102918457529
 30
0.0
 10
89.865315732742
 20
-151.5476833388492
 30
0.0
 10
89.865315732742
 20
-151.5476833388492
 30
0.0
 10
89.96970212594508
 20
-151.511509836254
 30
0.0
 10
90.18812117970993
 20
-151.4374402833212
 30
0.0
 10
90.48198782460174
 20
-151.1814696887671
 30
0.0
 10
90.66595592351408
 20
-151.0229952964456
 30
0.0
 10
90.82994246861195
 20
-150.8345485734025
 30
0.0
 10
90.95982256840589
 20
-150.614406971895
 30
0.0
 10
90.95982256840589
 20
-150.614406971895
 30
0.0
 10
91.12380911350376
 20
-150.7584119631784
 30
0.0
 10
91.12380911350376
 20
-150.7584119631784
 30
0.0
 10
91.13483341905658
 20
-150.7690917591827
 30
0.0
 10
91.1420681195756
 20
-150.7839056697693
 30
0.0
 10
91.1420681195756
 20
-150.7966525230647
 30
0.0
 10
91.1420681195756
 20
-150.8366156306936
 30
0.0
 10
91.10968422201425
 20
-150.8366156306936
 30
0.0
 10
91.05352916560468
 20
-150.8410942548245
 30
0.0
  0
HATCH
  5
F1
330
D8
100
AcDbEntity
  8
レイヤー 1
 62
   250
420
  2299925
440
 33554687
100
AcDbHatch
 10
0.0
 20
0.0
 30
0.0
210
0.0
220
0.0
230
1.0
  2
SOLID
 70
     1
 71
     1
 91
        1
 92
        1
 93
        1
 72
     4
 94
        3
 73
     0
 74
     0
 95
       50
 96
       46
 40
0.0
 40
0.0
 40
0.0
 40
0.0
 40
1.0
 40
1.0
 40
1.0
 40
2.0
 40
2.0
 40
2.0
 40
3.0
 40
3.0
 40
3.0
 40
4.0
 40
4.0
 40
4.0
 40
5.0
 40
5.0
 40
5.0
 40
6.0
 40
6.0
 40
6.0
 40
7.0
 40
7.0
 40
7.0
 40
8.0
 40
8.0
 40
8.0
 40
9.0
 40
9.0
 40
9.0
 40
10.0
 40
10.0
 40
10.0
 40
11.0
 40
11.0
 40
11.0
 40
12.0
 40
12.0
 40
12.0
 40
13.0
 40
13.0
 40
13.0
 40
14.0
 40
14.0
 40
14.0
 40
15.0
 40
15.0
 40
15.0
 40
15.0
 10
91.05352916560468
 20
-150.8410942548245
 10
90.87507321946873
 20
-151.0546901749099
 10
90.81375051983128
 20
-151.1266926705516
 10
90.69282766829902
 20
-151.2448594456957
 10
90.69282766829902
 20
-151.2448594456957
 10
90.69282766829902
 20
-151.8119221625678
 10
90.69282766829902
 20
-151.8119221625678
 10
90.69282766829902
 20
-151.9621283257247
 10
90.69833982107542
 20
-151.9810763508936
 10
90.7021294261092
 20
-152.1588432779325
 10
90.70385197385181
 20
-152.2901014159205
 10
90.70936412662822
 20
-152.3386772622625
 10
90.7145317698561
 20
-152.3979329046088
 10
90.7145317698561
 20
-152.3979329046088
 10
90.5216064226821
 20
-152.3979329046088
 10
90.5216064226821
 20
-152.3979329046088
 10
90.52539602771586
 20
-152.3534911728491
 10
90.52884112320112
 20
-152.3069823837982
 10
90.52884112320112
 20
-152.2983696450851
 10
90.52884112320112
 20
-152.2180989202788
 10
90.5326307282349
 20
-151.8670436903318
 10
90.5326307282349
 20
-151.7950411946901
 10
90.5326307282349
 20
-151.7950411946901
 10
90.5326307282349
 20
-151.3888644369792
 10
90.5326307282349
 20
-151.3888644369792
 10
90.37725692185013
 20
-151.5135768935452
 10
90.21154782900962
 20
-151.6238199490732
 10
90.03825952610155
 20
-151.7102918457529
 10
90.03825952610155
 20
-151.7102918457529
 10
89.865315732742
 20
-151.5476833388492
 10
89.865315732742
 20
-151.5476833388492
 10
89.96970212594508
 20
-151.511509836254
 10
90.18812117970993
 20
-151.4374402833212
 10
90.48198782460174
 20
-151.1814696887671
 10
90.66595592351408
 20
-151.0229952964456
 10
90.82994246861195
 20
-150.8345485734025
 10
90.95982256840589
 20
-150.614406971895
 10
90.95982256840589
 20
-150.614406971895
 10
91.12380911350376
 20
-150.7584119631784
 10
91.12380911350376
 20
-150.7584119631784
 10
91.13483341905658
 20
-150.7690917591827
 10
91.1420681195756
 20
-150.7839056697693
 10
91.1420681195756
 20
-150.7966525230647
 10
91.1420681195756
 20
-150.8366156306936
 10
91.10968422201425
 20
-150.8366156306936
 10
91.05352916560468
 20
-150.8410942548245
 97
        0
 97
        1
330
F0
 75
     2
 76
     1
 98
        1
 10
0.0
 20
0.0
450
        0
451
        0
460
0.0
461
0.0
452
        0
462
0.0
453
        0
470

  0
SPLINE
  5
F2
330
D8
100
AcDbEntity
  8
レイヤー 1
100
AcDbSpline
210
0.0
220
0.0
230
1.0
 70
     9
 71
     3
 72
    50
 73
    46
 74
     0
 42
0.0000000001
 43
0.0000000001
 40
0.0
 40
0.0
 40
0.0
 40
0.0
 40
1.0
 40
1.0
 40
1.0
 40
2.0
 40
2.0
 40
2.0
 40
3.0
 40
3.0
 40
3.0
 40
4.0
 40
4.0
 40
4.0
 40
5.0
 40
5.0
 40
5.0
 40
6.0
 40
6.0
 40
6.0
 40
7.0
 40
7.0
 40
7.0
 40
8.0
 40
8.0
 40
8.0
 40
9.0
 40
9.0
 40
9.0
 40
10.0
 40
10.0
 40
10.0
 40
11.0
 40
11.0
 40
11.0
 40
12.0
 40
12.0
 40
12.0
 40
13.0
 40
13.0
 40
13.0
 40
14.0
 40
14.0
 40
14.0
 40
15.0
 40
15.0
 40
15.0
 40
15.0
 10
92.50770396992862
 20
-151.3678493545191
 30
0.0
 10
92.45533851855283
 20
-151.4395073406123
 30
0.0
 10
92.23347436930273
 20
-151.7568006348038
 30
0.0
 10
92.18489852296071
 20
-151.8205349012809
 30
0.0
 10
92.25690101860244
 20
-151.917686593965
 30
0.0
 10
92.30030922171659
 20
-151.9810763508936
 30
0.0
 10
92.35611976857764
 20
-152.0720268717042
 30
0.0
 10
92.35611976857764
 20
-152.0720268717042
 30
0.0
 10
92.19936792399877
 20
-152.2098306911142
 30
0.0
 10
92.19936792399877
 20
-152.2098306911142
 30
0.0
 10
92.0839572252429
 20
-151.9979573187713
 30
0.0
 10
91.93788517666831
 20
-151.7740261122301
 30
0.0
 10
91.68708222534212
 20
-151.5748995931826
 30
0.0
 10
91.68708222534212
 20
-151.5748995931826
 30
0.0
 10
91.81351722965079
 20
-151.4205593154435
 30
0.0
 10
91.81351722965079
 20
-151.4205593154435
 30
0.0
 10
91.90722382684958
 20
-151.5008300402498
 30
0.0
 10
91.99541827127198
 20
-151.5897135037692
 30
0.0
 10
92.07844507246651
 20
-151.6851426487106
 30
0.0
 10
92.1363226766187
 20
-151.6090060384866
 30
0.0
 10
92.30926646997824
 20
-151.3654377876795
 30
0.0
 10
92.42295462099148
 20
-151.1370279570074
 30
0.0
 10
92.42295462099148
 20
-151.1370279570074
 30
0.0
 10
91.84934622269739
 20
-151.1370279570074
 30
0.0
 10
91.84934622269739
 20
-151.1370279570074
 30
0.0
 10
91.74289277220315
 20
-151.1370279570074
 30
0.0
 10
91.52860783302063
 20
-151.1456406957205
 30
0.0
 10
91.34980737733616
 20
-151.1559759821763
 30
0.0
 10
91.34980737733616
 20
-151.1559759821763
 30
0.0
 10
91.34980737733616
 20
-150.9361788902173
 30
0.0
 10
91.34980737733616
 20
-150.9361788902173
 30
0.0
 10
91.50690373146355
 20
-150.9551269153862
 30
0.0
 10
91.68191458211424
 20
-150.9592610299685
 30
0.0
 10
91.84211152217837
 20
-150.9592610299685
 30
0.0
 10
91.84211152217837
 20
-150.9592610299685
 30
0.0
 10
92.27137041964049
 20
-150.9592610299685
 30
0.0
 10
92.27137041964049
 20
-150.9592610299685
 30
0.0
 10
92.56006942130444
 20
-150.9592610299685
 30
0.0
 10
92.59796547164219
 20
-150.9444471193819
 30
0.0
 10
92.66824541954127
 20
-150.904484011753
 30
0.0
 10
92.66824541954127
 20
-150.904484011753
 30
0.0
 10
92.8105278630821
 20
-151.0629584040745
 30
0.0
 10
92.8105278630821
 20
-151.0629584040745
 30
0.0
 10
92.68064776328818
 20
-151.1349608997162
 30
0.0
 10
92.55800236401327
 20
-151.2979139161686
 30
0.0
 10
92.50770396992862
 20
-151.3678493545191
 30
0.0
  0
HATCH
  5
F3
330
D8
100
AcDbEntity
  8
レイヤー 1
 62
   250
420
  2299925
440
 33554687
100
AcDbHatch
 10
0.0
 20
0.0
 30
0.0
210
0.0
220
0.0
230
1.0
  2
SOLID
 70
     1
 71
     1
 91
        1
 92
        1
 93
        1
 72
     4
 94
        3
 73
     0
 74
     0
 95
       50
 96
       46
 40
0.0
 40
0.0
 40
0.0
 40
0.0
 40
1.0
 40
1.0
 40
1.0
 40
2.0
 40
2.0
 40
2.0
 40
3.0
 40
3.0
 40
3.0
 40
4.0
 40
4.0
 40
4.0
 40
5.0
 40
5.0
 40
5.0
 40
6.0
 40
6.0
 40
6.0
 40
7.0
 40
7.0
 40
7.0
 40
8.0
 40
8.0
 40
8.0
 40
9.0
 40
9.0
 40
9.0
 40
10.0
 40
10.0
 40
10.0
 40
11.0
 40
11.0
 40
11.0
 40
12.0
 40
12.0
 40
12.0
 40
13.0
 40
13.0
 40
13.0
 40
14.0
 40
14.0
 40
14.0
 40
15.0
 40
15.0
 40
15.0
 40
15.0
 10
92.50770396992862
 20
-151.3678493545191
 10
92.45533851855283
 20
-151.4395073406123
 10
92.23347436930273
 20
-151.7568006348038
 10
92.18489852296071
 20
-151.8205349012809
 10
92.25690101860244
 20
-151.917686593965
 10
92.30030922171659
 20
-151.9810763508936
 10
92.35611976857764
 20
-152.0720268717042
 10
92.35611976857764
 20
-152.0720268717042
 10
92.19936792399877
 20
-152.2098306911142
 10
92.19936792399877
 20
-152.2098306911142
 10
92.0839572252429
 20
-151.9979573187713
 10
91.93788517666831
 20
-151.7740261122301
 10
91.68708222534212
 20
-151.5748995931826
 10
91.68708222534212
 20
-151.5748995931826
 10
91.81351722965079
 20
-151.4205593154435
 10
91.81351722965079
 20
-151.4205593154435
 10
91.90722382684958
 20
-151.5008300402498
 10
91.99541827127198
 20
-151.5897135037692
 10
92.07844507246651
 20
-151.6851426487106
 10
92.1363226766187
 20
-151.6090060384866
 10
92.30926646997824
 20
-151.3654377876795
 10
92.42295462099148
 20
-151.1370279570074
 10
92.42295462099148
 20
-151.1370279570074
 10
91.84934622269739
 20
-151.1370279570074
 10
91.84934622269739
 20
-151.1370279570074
 10
91.74289277220315
 20
-151.1370279570074
 10
91.52860783302063
 20
-151.1456406957205
 10
91.34980737733616
 20
-151.1559759821763
 10
91.34980737733616
 20
-151.1559759821763
 10
91.34980737733616
 20
-150.9361788902173
 10
91.34980737733616
 20
-150.9361788902173
 10
91.50690373146355
 20
-150.9551269153862
 10
91.68191458211424
 20
-150.9592610299685
 10
91.84211152217837
 20
-150.9592610299685
 10
91.84211152217837
 20
-150.9592610299685
 10
92.27137041964049
 20
-150.9592610299685
 10
92.27137041964049
 20
-150.9592610299685
 10
92.56006942130444
 20
-150.9592610299685
 10
92.59796547164219
 20
-150.9444471193819
 10
92.66824541954127
 20
-150.904484011753
 10
92.66824541954127
 20
-150.904484011753
 10
92.8105278630821
 20
-151.0629584040745
 10
92.8105278630821
 20
-151.0629584040745
 10
92.68064776328818
 20
-151.1349608997162
 10
92.55800236401327
 20
-151.2979139161686
 10
92.50770396992862
 20
-151.3678493545191
 97
        0
 97
        1
330
F2
 75
     2
 76
     1
 98
        1
 10
0.0
 20
0.0
450
        0
451
        0
460
0.0
461
0.0
452
        0
462
0.0
453
        0
470

  0
SPLINE
  5
F4
330
D8
100
AcDbEntity
  8
レイヤー 1
100
AcDbSpline
210
0.0
220
0.0
230
1.0
 70
     9
 71
     3
 72
    29
 73
    25
 74
     0
 42
0.0000000001
 43
0.0000000001
 40
0.0
 40
0.0
 40
0.0
 40
0.0
 40
1.0
 40
1.0
 40
1.0
 40
2.0
 40
2.0
 40
2.0
 40
3.0
 40
3.0
 40
3.0
 40
4.0
 40
4.0
 40
4.0
 40
5.0
 40
5.0
 40
5.0
 40
6.0
 40
6.0
 40
6.0
 40
7.0
 40
7.0
 40
7.0
 40
8.0
 40
8.0
 40
8.0
 40
8.0
 10
93.88953176906234
 20
-151.6110730957778
 30
0.0
 10
93.88953176906234
 20
-151.6110730957778
 30
0.0
 10
93.47680932992942
 20
-151.6110730957778
 30
0.0
 10
93.47680932992942
 20
-151.6110730957778
 30
0.0
 10
93.45303817108119
 20
-151.6110730957778
 30
0.0
 10
93.18259817548907
 20
-151.6110730957778
 30
0.0
 10
93.00241968161051
 20
-151.6362222928201
 30
0.0
 10
93.00241968161051
 20
-151.6362222928201
 30
0.0
 10
93.00241968161051
 20
-151.4057454048569
 30
0.0
 10
93.00241968161051
 20
-151.4057454048569
 30
0.0
 10
93.1374674246323
 20
-151.4291720541566
 30
0.0
 10
93.30007593153609
 20
-151.4312391114477
 30
0.0
 10
93.47680932992942
 20
-151.4312391114477
 30
0.0
 10
93.47680932992942
 20
-151.4312391114477
 30
0.0
 10
93.88953176906234
 20
-151.4312391114477
 30
0.0
 10
93.88953176906234
 20
-151.4312391114477
 30
0.0
 10
94.04835067093236
 20
-151.4312391114477
 30
0.0
 10
94.20682506325386
 20
-151.4291720541566
 30
0.0
 10
94.36392141738124
 20
-151.4057454048569
 30
0.0
 10
94.36392141738124
 20
-151.4057454048569
 30
0.0
 10
94.36392141738124
 20
-151.6362222928201
 30
0.0
 10
94.36392141738124
 20
-151.6362222928201
 30
0.0
 10
94.20682506325386
 20
-151.6131401530689
 30
0.0
 10
93.99598521955656
 20
-151.6110730957778
 30
0.0
 10
93.88953176906234
 20
-151.6110730957778
 30
0.0
  0
HATCH
  5
F5
330
D8
100
AcDbEntity
  8
レイヤー 1
 62
   250
420
  2299925
440
 33554687
100
AcDbHatch
 10
0.0
 20
0.0
 30
0.0
210
0.0
220
0.0
230
1.0
  2
SOLID
 70
     1
 71
     1
 91
        1
 92
        1
 93
        1
 72
     4
 94
        3
 73
     0
 74
     0
 95
       29
 96
       25
 40
0.0
 40
0.0
 40
0.0
 40
0.0
 40
1.0
 40
1.0
 40
1.0
 40
2.0
 40
2.0
 40
2.0
 40
3.0
 40
3.0
 40
3.0
 40
4.0
 40
4.0
 40
4.0
 40
5.0
 40
5.0
 40
5.0
 40
6.0
 40
6.0
 40
6.0
 40
7.0
 40
7.0
 40
7.0
 40
8.0
 40
8.0
 40
8.0
 40
8.0
 10
93.88953176906234
 20
-151.6110730957778
 10
93.88953176906234
 20
-151.6110730957778
 10
93.47680932992942
 20
-151.6110730957778
 10
93.47680932992942
 20
-151.6110730957778
 10
93.45303817108119
 20
-151.6110730957778
 10
93.18259817548907
 20
-151.6110730957778
 10
93.00241968161051
 20
-151.6362222928201
 10
93.00241968161051
 20
-151.6362222928201
 10
93.00241968161051
 20
-151.4057454048569
 10
93.00241968161051
 20
-151.4057454048569
 10
93.1374674246323
 20
-151.4291720541566
 10
93.30007593153609
 20
-151.4312391114477
 10
93.47680932992942
 20
-151.4312391114477
 10
93.47680932992942
 20
-151.4312391114477
 10
93.88953176906234
 20
-151.4312391114477
 10
93.88953176906234
 20
-151.4312391114477
 10
94.04835067093236
 20
-151.4312391114477
 10
94.20682506325386
 20
-151.4291720541566
 10
94.36392141738124
 20
-151.4057454048569
 10
94.36392141738124
 20
-151.4057454048569
 10
94.36392141738124
 20
-151.6362222928201
 10
94.36392141738124
 20
-151.6362222928201
 10
94.20682506325386
 20
-151.6131401530689
 10
93.99598521955656
 20
-151.6110730957778
 10
93.88953176906234
 20
-151.6110730957778
 97
        0
 97
        1
330
F4
 75
     2
 76
     1
 98
        1
 10
0.0
 20
0.0
450
        0
451
        0
460
0.0
461
0.0
452
        0
462
0.0
453
        0
470

  0
SPLINE
  5
F6
330
D8
100
AcDbEntity
  8
レイヤー 1
100
AcDbSpline
210
0.0
220
0.0
230
1.0
 70
     9
 71
     3
 72
    20
 73
    16
 74
     0
 42
0.0000000001
 43
0.0000000001
 40
0.0
 40
0.0
 40
0.0
 40
0.0
 40
1.0
 40
1.0
 40
1.0
 40
2.0
 40
2.0
 40
2.0
 40
3.0
 40
3.0
 40
3.0
 40
4.0
 40
4.0
 40
4.0
 40
5.0
 40
5.0
 40
5.0
 40
5.0
 10
95.42087671225589
 20
-151.9621283257247
 30
0.0
 10
95.38125811417552
 20
-151.7843613986858
 30
0.0
 10
95.29823131298099
 20
-151.6427679742421
 30
0.0
 10
95.17937551873989
 20
-151.5328694282626
 30
0.0
 10
95.17937551873989
 20
-151.5328694282626
 30
0.0
 10
95.31649031905283
 20
-151.4184922581523
 30
0.0
 10
95.31649031905283
 20
-151.4184922581523
 30
0.0
 10
95.36851126088009
 20
-151.4608669326209
 30
0.0
 10
95.4029622157326
 20
-151.4946288683763
 30
0.0
 10
95.46773001085529
 20
-151.6024603570647
 30
0.0
 10
95.53628741101176
 20
-151.7189045844661
 30
0.0
 10
95.55454641708358
 20
-151.7716145453904
 30
0.0
 10
95.57590600909213
 20
-151.8374158691587
 30
0.0
 10
95.57590600909213
 20
-151.8374158691587
 30
0.0
 10
95.42087671225589
 20
-151.9621283257247
 30
0.0
 10
95.42087671225589
 20
-151.9621283257247
 30
0.0
  0
SPLINE
  5
F7
330
D8
100
AcDbEntity
  8
レイヤー 1
100
AcDbSpline
210
0.0
220
0.0
230
1.0
 70
     9
 71
     3
 72
    77
 73
    73
 74
     0
 42
0.0000000001
 43
0.0000000001
 40
0.0
 40
0.0
 40
0.0
 40
0.0
 40
1.0
 40
1.0
 40
1.0
 40
2.0
 40
2.0
 40
2.0
 40
3.0
 40
3.0
 40
3.0
 40
4.0
 40
4.0
 40
4.0
 40
5.0
 40
5.0
 40
5.0
 40
6.0
 40
6.0
 40
6.0
 40
7.0
 40
7.0
 40
7.0
 40
8.0
 40
8.0
 40
8.0
 40
9.0
 40
9.0
 40
9.0
 40
10.0
 40
10.0
 40
10.0
 40
11.0
 40
11.0
 40
11.0
 40
12.0
 40
12.0
 40
12.0
 40
13.0
 40
13.0
 40
13.0
 40
14.0
 40
14.0
 40
14.0
 40
15.0
 40
15.0
 40
15.0
 40
16.0
 40
16.0
 40
16.0
 40
17.0
 40
17.0
 40
17.0
 40
18.0
 40
18.0
 40
18.0
 40
19.0
 40
19.0
 40
19.0
 40
20.0
 40
20.0
 40
20.0
 40
21.0
 40
21.0
 40
21.0
 40
22.0
 40
22.0
 40
22.0
 40
23.0
 40
23.0
 40
23.0
 40
24.0
 40
24.0
 40
24.0
 40
24.0
 10
96.0775119117445
 20
-151.2365912165311
 30
0.0
 10
96.01791175984971
 20
-151.2324571019488
 30
0.0
 10
95.9600341556975
 20
-151.2324571019488
 30
0.0
 10
95.90250106109383
 20
-151.2324571019488
 30
0.0
 10
95.90250106109383
 20
-151.2324571019488
 30
0.0
 10
95.90250106109383
 20
-152.0065700574845
 30
0.0
 10
95.90250106109383
 20
-152.0065700574845
 30
0.0
 10
95.90250106109383
 20
-152.2711533907516
 30
0.0
 10
95.9007785133512
 20
-152.3007812119248
 30
0.0
 10
95.89526636057479
 20
-152.3304090330979
 30
0.0
 10
95.86632755849869
 20
-152.4633897188286
 30
0.0
 10
95.77985566181892
 20
-152.4720024575417
 30
0.0
 10
95.62999400821055
 20
-152.4720024575417
 30
0.0
 10
95.59588756290658
 20
-152.4720024575417
 30
0.0
 10
95.58141816186854
 20
-152.4720024575417
 30
0.0
 10
95.54731171656456
 20
-152.4678683429594
 30
0.0
 10
95.54731171656456
 20
-152.4678683429594
 30
0.0
 10
95.44085826607036
 20
-152.2267116589919
 30
0.0
 10
95.44085826607036
 20
-152.2267116589919
 30
0.0
 10
95.54007701604554
 20
-152.2584065374562
 30
0.0
 10
95.61035696394464
 20
-152.2584065374562
 30
0.0
 10
95.62999400821055
 20
-152.2584065374562
 30
0.0
 10
95.68959416010539
 20
-152.2584065374562
 30
0.0
 10
95.71853296218149
 20
-152.2415255695785
 30
0.0
 10
95.72197805766673
 20
-152.1843369845233
 30
0.0
 10
95.72197805766673
 20
-152.1715901312279
 30
0.0
 10
95.72404511495788
 20
-152.0744384385439
 30
0.0
 10
95.72404511495788
 20
-152.0172498534887
 30
0.0
 10
95.72404511495788
 20
-152.0172498534887
 30
0.0
 10
95.72404511495788
 20
-151.2300455351091
 30
0.0
 10
95.72404511495788
 20
-151.2300455351091
 30
0.0
 10
95.72404511495788
 20
-151.2300455351091
 30
0.0
 10
95.4732421636317
 20
-151.2300455351091
 30
0.0
 10
95.4732421636317
 20
-151.2300455351091
 30
0.0
 10
95.34887421661418
 20
-151.2300455351091
 30
0.0
 10
95.22450626959665
 20
-151.2365912165311
 30
0.0
 10
95.10186087032176
 20
-151.2493380698265
 30
0.0
 10
95.10186087032176
 20
-151.2493380698265
 30
0.0
 10
95.10186087032176
 20
-151.0419433216145
 30
0.0
 10
95.10186087032176
 20
-151.0419433216145
 30
0.0
 10
95.22967391282453
 20
-151.0546901749099
 30
0.0
 10
95.41570906902803
 20
-151.0588242894922
 30
0.0
 10
95.4732421636317
 20
-151.0588242894922
 30
0.0
 10
95.4732421636317
 20
-151.0588242894922
 30
0.0
 10
95.72404511495788
 20
-151.0588242894922
 30
0.0
 10
95.72404511495788
 20
-151.0588242894922
 30
0.0
 10
95.72197805766673
 20
-150.7901068416428
 30
0.0
 10
95.72197805766673
 20
-150.7139702314187
 30
0.0
 10
95.71474335714771
 20
-150.565831125553
 30
0.0
 10
95.71474335714771
 20
-150.565831125553
 30
0.0
 10
95.93488495865518
 20
-150.6040716854393
 30
0.0
 10
95.93488495865518
 20
-150.6040716854393
 30
0.0
 10
95.94763181195061
 20
-150.6061387427304
 30
0.0
 10
95.9600341556975
 20
-150.6123399146038
 30
0.0
 10
95.9600341556975
 20
-150.6336995066124
 30
0.0
 10
95.9600341556975
 20
-150.6526475317813
 30
0.0
 10
95.95486651246963
 20
-150.6547145890724
 30
0.0
 10
95.90594615657908
 20
-150.6884765248279
 30
0.0
 10
95.90250106109383
 20
-150.7670247018916
 30
0.0
 10
95.90250106109383
 20
-150.7818386124782
 30
0.0
 10
95.90250106109383
 20
-151.0588242894922
 30
0.0
 10
96.05374075289629
 20
-151.0546901749099
 30
0.0
 10
96.07027721122548
 20
-151.0546901749099
 30
0.0
 10
96.09887150375307
 20
-151.0502115507791
 30
0.0
 10
96.14227970686721
 20
-151.0460774361968
 30
0.0
 10
96.14572480235246
 20
-151.0440103789057
 30
0.0
 10
96.18362085269021
 20
-151.0419433216145
 30
0.0
 10
96.18362085269021
 20
-151.0419433216145
 30
0.0
 10
96.18362085269021
 20
-151.2493380698265
 30
0.0
 10
96.18362085269021
 20
-151.2493380698265
 30
0.0
 10
96.15847165564789
 20
-151.2472710125354
 30
0.0
 10
96.11161835704848
 20
-151.2386582738223
 30
0.0
 10
96.0775119117445
 20
-151.2365912165311
 30
0.0
  0
SPLINE
  5
F8
330
D8
100
AcDbEntity
  8
レイヤー 1
100
AcDbSpline
210
0.0
220
0.0
230
1.0
 70
     9
 71
     3
 72
    53
 73
    49
 74
     0
 42
0.0000000001
 43
0.0000000001
 40
0.0
 40
0.0
 40
0.0
 40
0.0
 40
1.0
 40
1.0
 40
1.0
 40
2.0
 40
2.0
 40
2.0
 40
3.0
 40
3.0
 40
3.0
 40
4.0
 40
4.0
 40
4.0
 40
5.0
 40
5.0
 40
5.0
 40
6.0
 40
6.0
 40
6.0
 40
7.0
 40
7.0
 40
7.0
 40
8.0
 40
8.0
 40
8.0
 40
9.0
 40
9.0
 40
9.0
 40
10.0
 40
10.0
 40
10.0
 40
11.0
 40
11.0
 40
11.0
 40
12.0
 40
12.0
 40
12.0
 40
13.0
 40
13.0
 40
13.0
 40
14.0
 40
14.0
 40
14.0
 40
15.0
 40
15.0
 40
15.0
 40
16.0
 40
16.0
 40
16.0
 40
16.0
 10
95.09634871754537
 20
-150.7373968807184
 30
0.0
 10
95.03881562294168
 20
-150.8896701011664
 30
0.0
 10
95.00264212034656
 20
-150.9678737686816
 30
0.0
 10
94.97025822278521
 20
-151.0353976401925
 30
0.0
 10
95.00608721583182
 20
-151.0567572322011
 30
0.0
 10
95.00987682086558
 20
-151.0588242894922
 30
0.0
 10
95.00987682086558
 20
-151.0736382000788
 30
0.0
 10
95.00987682086558
 20
-151.0863850533742
 30
0.0
 10
94.98093801878949
 20
-151.1201469891297
 30
0.0
 10
94.97198077052784
 20
-151.1287597278428
 30
0.0
 10
94.97025822278521
 20
-151.3254746800505
 30
0.0
 10
94.97025822278521
 20
-151.3464897625106
 30
0.0
 10
94.97025822278521
 20
-151.4798149577898
 30
0.0
 10
94.96819116549406
 20
-151.4925618110852
 30
0.0
 10
94.96819116549406
 20
-151.5073757216717
 30
0.0
 10
94.96819116549406
 20
-151.5221896322583
 30
0.0
 10
94.96819116549406
 20
-151.5221896322583
 30
0.0
 10
94.96819116549406
 20
-152.0572129611176
 30
0.0
 10
94.96819116549406
 20
-152.0572129611176
 30
0.0
 10
94.96819116549406
 20
-152.1292154567593
 30
0.0
 10
94.97198077052784
 20
-152.3641709688534
 30
0.0
 10
94.97921547104686
 20
-152.4740695148329
 30
0.0
 10
94.97921547104686
 20
-152.4740695148329
 30
0.0
 10
94.77182072283483
 20
-152.4740695148329
 30
0.0
 10
94.77182072283483
 20
-152.4740695148329
 30
0.0
 10
94.79145776710074
 20
-152.3155951225114
 30
0.0
 10
94.79696991987715
 20
-152.0744384385439
 30
0.0
 10
94.79696991987715
 20
-152.0530788465353
 30
0.0
 10
94.79696991987715
 20
-152.0530788465353
 30
0.0
 10
94.79696991987715
 20
-151.3358099665063
 30
0.0
 10
94.79696991987715
 20
-151.3358099665063
 30
0.0
 10
94.71945527145903
 20
-151.4501871366166
 30
0.0
 10
94.66708982008324
 20
-151.5094427789629
 30
0.0
 10
94.63126082703663
 20
-151.5518174534315
 30
0.0
 10
94.63126082703663
 20
-151.5518174534315
 30
0.0
 10
94.46865232013285
 20
-151.41435814357
 30
0.0
 10
94.46865232013285
 20
-151.41435814357
 30
0.0
 10
94.70877547545475
 20
-151.1983506566448
 30
0.0
 10
94.87276202055264
 20
-150.8896701011664
 30
0.0
 10
94.96819116549406
 20
-150.5530842722575
 30
0.0
 10
94.96819116549406
 20
-150.5530842722575
 30
0.0
 10
95.15594886944018
 20
-150.6674614423678
 30
0.0
 10
95.15594886944018
 20
-150.6674614423678
 30
0.0
 10
95.16662866544447
 20
-150.6736626142413
 30
0.0
 10
95.17386336596349
 20
-150.6781412383721
 30
0.0
 10
95.17386336596349
 20
-150.6929551489587
 30
0.0
 10
95.17386336596349
 20
-150.718104346001
 30
0.0
 10
95.15939396492543
 20
-150.7225829701319
 30
0.0
 10
95.09634871754537
 20
-150.7373968807184
 30
0.0
  0
HATCH
  5
F9
330
D8
100
AcDbEntity
  8
レイヤー 1
 62
   250
420
  2299925
440
 33554687
100
AcDbHatch
 10
0.0
 20
0.0
 30
0.0
210
0.0
220
0.0
230
1.0
  2
SOLID
 70
     1
 71
     1
 91
        3
 92
        1
 93
        1
 72
     4
 94
        3
 73
     0
 74
     0
 95
       20
 96
       16
 40
0.0
 40
0.0
 40
0.0
 40
0.0
 40
1.0
 40
1.0
 40
1.0
 40
2.0
 40
2.0
 40
2.0
 40
3.0
 40
3.0
 40
3.0
 40
4.0
 40
4.0
 40
4.0
 40
5.0
 40
5.0
 40
5.0
 40
5.0
 10
95.42087671225589
 20
-151.9621283257247
 10
95.38125811417552
 20
-151.7843613986858
 10
95.29823131298099
 20
-151.6427679742421
 10
95.17937551873989
 20
-151.5328694282626
 10
95.17937551873989
 20
-151.5328694282626
 10
95.31649031905283
 20
-151.4184922581523
 10
95.31649031905283
 20
-151.4184922581523
 10
95.36851126088009
 20
-151.4608669326209
 10
95.4029622157326
 20
-151.4946288683763
 10
95.46773001085529
 20
-151.6024603570647
 10
95.53628741101176
 20
-151.7189045844661
 10
95.55454641708358
 20
-151.7716145453904
 10
95.57590600909213
 20
-151.8374158691587
 10
95.57590600909213
 20
-151.8374158691587
 10
95.42087671225589
 20
-151.9621283257247
 10
95.42087671225589
 20
-151.9621283257247
 97
        0
 97
        1
330
F6
 92
        1
 93
        1
 72
     4
 94
        3
 73
     0
 74
     0
 95
       77
 96
       73
 40
0.0
 40
0.0
 40
0.0
 40
0.0
 40
1.0
 40
1.0
 40
1.0
 40
2.0
 40
2.0
 40
2.0
 40
3.0
 40
3.0
 40
3.0
 40
4.0
 40
4.0
 40
4.0
 40
5.0
 40
5.0
 40
5.0
 40
6.0
 40
6.0
 40
6.0
 40
7.0
 40
7.0
 40
7.0
 40
8.0
 40
8.0
 40
8.0
 40
9.0
 40
9.0
 40
9.0
 40
10.0
 40
10.0
 40
10.0
 40
11.0
 40
11.0
 40
11.0
 40
12.0
 40
12.0
 40
12.0
 40
13.0
 40
13.0
 40
13.0
 40
14.0
 40
14.0
 40
14.0
 40
15.0
 40
15.0
 40
15.0
 40
16.0
 40
16.0
 40
16.0
 40
17.0
 40
17.0
 40
17.0
 40
18.0
 40
18.0
 40
18.0
 40
19.0
 40
19.0
 40
19.0
 40
20.0
 40
20.0
 40
20.0
 40
21.0
 40
21.0
 40
21.0
 40
22.0
 40
22.0
 40
22.0
 40
23.0
 40
23.0
 40
23.0
 40
24.0
 40
24.0
 40
24.0
 40
24.0
 10
96.0775119117445
 20
-151.2365912165311
 10
96.01791175984971
 20
-151.2324571019488
 10
95.9600341556975
 20
-151.2324571019488
 10
95.90250106109383
 20
-151.2324571019488
 10
95.90250106109383
 20
-151.2324571019488
 10
95.90250106109383
 20
-152.0065700574845
 10
95.90250106109383
 20
-152.0065700574845
 10
95.90250106109383
 20
-152.2711533907516
 10
95.9007785133512
 20
-152.3007812119248
 10
95.89526636057479
 20
-152.3304090330979
 10
95.86632755849869
 20
-152.4633897188286
 10
95.77985566181892
 20
-152.4720024575417
 10
95.62999400821055
 20
-152.4720024575417
 10
95.59588756290658
 20
-152.4720024575417
 10
95.58141816186854
 20
-152.4720024575417
 10
95.54731171656456
 20
-152.4678683429594
 10
95.54731171656456
 20
-152.4678683429594
 10
95.44085826607036
 20
-152.2267116589919
 10
95.44085826607036
 20
-152.2267116589919
 10
95.54007701604554
 20
-152.2584065374562
 10
95.61035696394464
 20
-152.2584065374562
 10
95.62999400821055
 20
-152.2584065374562
 10
95.68959416010539
 20
-152.2584065374562
 10
95.71853296218149
 20
-152.2415255695785
 10
95.72197805766673
 20
-152.1843369845233
 10
95.72197805766673
 20
-152.1715901312279
 10
95.72404511495788
 20
-152.0744384385439
 10
95.72404511495788
 20
-152.0172498534887
 10
95.72404511495788
 20
-152.0172498534887
 10
95.72404511495788
 20
-151.2300455351091
 10
95.72404511495788
 20
-151.2300455351091
 10
95.72404511495788
 20
-151.2300455351091
 10
95.4732421636317
 20
-151.2300455351091
 10
95.4732421636317
 20
-151.2300455351091
 10
95.34887421661418
 20
-151.2300455351091
 10
95.22450626959665
 20
-151.2365912165311
 10
95.10186087032176
 20
-151.2493380698265
 10
95.10186087032176
 20
-151.2493380698265
 10
95.10186087032176
 20
-151.0419433216145
 10
95.10186087032176
 20
-151.0419433216145
 10
95.22967391282453
 20
-151.0546901749099
 10
95.41570906902803
 20
-151.0588242894922
 10
95.4732421636317
 20
-151.0588242894922
 10
95.4732421636317
 20
-151.0588242894922
 10
95.72404511495788
 20
-151.0588242894922
 10
95.72404511495788
 20
-151.0588242894922
 10
95.72197805766673
 20
-150.7901068416428
 10
95.72197805766673
 20
-150.7139702314187
 10
95.71474335714771
 20
-150.565831125553
 10
95.71474335714771
 20
-150.565831125553
 10
95.93488495865518
 20
-150.6040716854393
 10
95.93488495865518
 20
-150.6040716854393
 10
95.94763181195061
 20
-150.6061387427304
 10
95.9600341556975
 20
-150.6123399146038
 10
95.9600341556975
 20
-150.6336995066124
 10
95.9600341556975
 20
-150.6526475317813
 10
95.95486651246963
 20
-150.6547145890724
 10
95.90594615657908
 20
-150.6884765248279
 10
95.90250106109383
 20
-150.7670247018916
 10
95.90250106109383
 20
-150.7818386124782
 10
95.90250106109383
 20
-151.0588242894922
 10
96.05374075289629
 20
-151.0546901749099
 10
96.07027721122548
 20
-151.0546901749099
 10
96.09887150375307
 20
-151.0502115507791
 10
96.14227970686721
 20
-151.0460774361968
 10
96.14572480235246
 20
-151.0440103789057
 10
96.18362085269021
 20
-151.0419433216145
 10
96.18362085269021
 20
-151.0419433216145
 10
96.18362085269021
 20
-151.2493380698265
 10
96.18362085269021
 20
-151.2493380698265
 10
96.15847165564789
 20
-151.2472710125354
 10
96.11161835704848
 20
-151.2386582738223
 10
96.0775119117445
 20
-151.2365912165311
 97
        0
 97
        1
330
F7
 92
        1
 93
        1
 72
     4
 94
        3
 73
     0
 74
     0
 95
       53
 96
       49
 40
0.0
 40
0.0
 40
0.0
 40
0.0
 40
1.0
 40
1.0
 40
1.0
 40
2.0
 40
2.0
 40
2.0
 40
3.0
 40
3.0
 40
3.0
 40
4.0
 40
4.0
 40
4.0
 40
5.0
 40
5.0
 40
5.0
 40
6.0
 40
6.0
 40
6.0
 40
7.0
 40
7.0
 40
7.0
 40
8.0
 40
8.0
 40
8.0
 40
9.0
 40
9.0
 40
9.0
 40
10.0
 40
10.0
 40
10.0
 40
11.0
 40
11.0
 40
11.0
 40
12.0
 40
12.0
 40
12.0
 40
13.0
 40
13.0
 40
13.0
 40
14.0
 40
14.0
 40
14.0
 40
15.0
 40
15.0
 40
15.0
 40
16.0
 40
16.0
 40
16.0
 40
16.0
 10
95.09634871754537
 20
-150.7373968807184
 10
95.03881562294168
 20
-150.8896701011664
 10
95.00264212034656
 20
-150.9678737686816
 10
94.97025822278521
 20
-151.0353976401925
 10
95.00608721583182
 20
-151.0567572322011
 10
95.00987682086558
 20
-151.0588242894922
 10
95.00987682086558
 20
-151.0736382000788
 10
95.00987682086558
 20
-151.0863850533742
 10
94.98093801878949
 20
-151.1201469891297
 10
94.97198077052784
 20
-151.1287597278428
 10
94.97025822278521
 20
-151.3254746800505
 10
94.97025822278521
 20
-151.3464897625106
 10
94.97025822278521
 20
-151.4798149577898
 10
94.96819116549406
 20
-151.4925618110852
 10
94.96819116549406
 20
-151.5073757216717
 10
94.96819116549406
 20
-151.5221896322583
 10
94.96819116549406
 20
-151.5221896322583
 10
94.96819116549406
 20
-152.0572129611176
 10
94.96819116549406
 20
-152.0572129611176
 10
94.96819116549406
 20
-152.1292154567593
 10
94.97198077052784
 20
-152.3641709688534
 10
94.97921547104686
 20
-152.4740695148329
 10
94.97921547104686
 20
-152.4740695148329
 10
94.77182072283483
 20
-152.4740695148329
 10
94.77182072283483
 20
-152.4740695148329
 10
94.79145776710074
 20
-152.3155951225114
 10
94.79696991987715
 20
-152.0744384385439
 10
94.79696991987715
 20
-152.0530788465353
 10
94.79696991987715
 20
-152.0530788465353
 10
94.79696991987715
 20
-151.3358099665063
 10
94.79696991987715
 20
-151.3358099665063
 10
94.71945527145903
 20
-151.4501871366166
 10
94.66708982008324
 20
-151.5094427789629
 10
94.63126082703663
 20
-151.5518174534315
 10
94.63126082703663
 20
-151.5518174534315
 10
94.46865232013285
 20
-151.41435814357
 10
94.46865232013285
 20
-151.41435814357
 10
94.70877547545475
 20
-151.1983506566448
 10
94.87276202055264
 20
-150.8896701011664
 10
94.96819116549406
 20
-150.5530842722575
 10
94.96819116549406
 20
-150.5530842722575
 10
95.15594886944018
 20
-150.6674614423678
 10
95.15594886944018
 20
-150.6674614423678
 10
95.16662866544447
 20
-150.6736626142413
 10
95.17386336596349
 20
-150.6781412383721
 10
95.17386336596349
 20
-150.6929551489587
 10
95.17386336596349
 20
-150.718104346001
 10
95.15939396492543
 20
-150.7225829701319
 10
95.09634871754537
 20
-150.7373968807184
 97
        0
 97
        1
330
F8
 75
     2
 76
     1
 98
        1
 10
0.0
 20
0.0
450
        0
451
        0
460
0.0
461
0.0
452
        0
462
0.0
453
        0
470

  0
ENDBLK
  5
DB
330
D8
100
AcDbEntity
  8
0
100
AcDbBlockEnd
  0
ENDSEC
  0
SECTION
  2
ENTITIES
  0
LINE
  5
79
330
70
100
AcDbEntity
  8
レイヤー 1
 62
   250
420
  2299925
370
    25
100
AcDbLine
 10
92.30006650389848
 20
-145.1589449326663
 30
0.0
 11
99.30003677992596
 21
-145.1589449326663
 31
0.0
  0
LINE
  5
7A
330
70
100
AcDbEntity
  8
レイヤー 1
 62
   250
420
  2299925
370
    25
100
AcDbLine
 10
98.30004039128716
 20
-146.1593874071429
 30
0.0
 11
98.30004039128716
 21
-152.1593030848791
 31
0.0
  0
LINE
  5
7B
330
70
100
AcDbEntity
  8
レイヤー 1
 62
   250
420
  2299925
370
    25
100
AcDbLine
 10
98.30004039128716
 20
-146.1593874071429
 30
0.0
 11
98.30004039128716
 21
-152.1593030848791
 31
0.0
  0
LINE
  5
7C
330
70
100
AcDbEntity
  8
レイヤー 1
 62
   250
420
  2299925
370
    25
100
AcDbLine
 10
92.30006650389848
 20
-146.1593874071429
 30
0.0
 11
98.30004039128716
 21
-146.1593874071429
 31
0.0
  0
LINE
  5
7D
330
70
100
AcDbEntity
  8
レイヤー 1
 62
   250
420
  2299925
370
    25
100
AcDbLine
 10
92.30006650389848
 20
-145.1589449326663
 30
0.0
 11
92.30006650389848
 21
-146.1593874071429
 31
0.0
  0
LINE
  5
7E
330
70
100
AcDbEntity
  8
レイヤー 1
 62
   250
420
  2299925
370
    25
100
AcDbLine
 10
99.30003677504167
 20
-145.1589449326663
 30
0.0
 11
99.30003677504167
 21
-151.1596242240207
 31
0.0
  0
LINE
  5
7F
330
70
100
AcDbEntity
  8
レイヤー 1
 62
   250
420
  2299925
370
    25
100
AcDbLine
 10
115.3000123109799
 20
-151.1596242240207
 30
0.0
 11
115.3000123109799
 21
-151.559250880492
 31
0.0
  0
LINE
  5
80
330
70
100
AcDbEntity
  8
レイヤー 1
 62
   250
420
  2299925
370
    25
100
AcDbLine
 10
99.30003677992596
 20
-151.1596242240207
 30
0.0
 11
115.3000123109799
 21
-151.1596242240207
 31
0.0
  0
LINE
  5
81
330
70
100
AcDbEntity
  8
レイヤー 1
 62
   250
420
  2299925
370
    25
100
AcDbLine
 10
115.3000123109799
 20
-151.559250880492
 30
0.0
 11
98.30004039128716
 21
-152.1593030848791
 31
0.0
  0
SPLINE
  5
82
330
70
100
AcDbEntity
  8
レイヤー 1
 62
   250
420
  2299925
370
     9
100
AcDbSpline
210
0.0
220
0.0
230
1.0
 70
     9
 71
     3
 72
    17
 73
    13
 74
     0
 42
0.0000000001
 43
0.0000000001
 40
0.0
 40
0.0
 40
0.0
 40
0.0
 40
1.0
 40
1.0
 40
1.0
 40
2.0
 40
2.0
 40
2.0
 40
3.0
 40
3.0
 40
3.0
 40
4.0
 40
4.0
 40
4.0
 40
4.0
 10
119.3993605397301
 20
-145.1589449326663
 30
0.0
 10
119.3993605397301
 20
-145.1038410451833
 30
0.0
 10
119.3545577630954
 20
-145.0590382685485
 30
0.0
 10
119.2991010978435
 20
-145.0590382685485
 30
0.0
 10
119.2439619325836
 20
-145.0590382685485
 30
0.0
 10
119.1991944337257
 20
-145.1038410451833
 30
0.0
 10
119.1991944337257
 20
-145.1589449326663
 30
0.0
 10
119.1991944337257
 20
-145.2147543756869
 30
0.0
 10
119.2439619325836
 20
-145.2595571523217
 30
0.0
 10
119.2991010978435
 20
-145.2595571523217
 30
0.0
 10
119.3545577630954
 20
-145.2595571523217
 30
0.0
 10
119.3993605397301
 20
-145.2147543756869
 30
0.0
 10
119.3993605397301
 20
-145.1589449326663
 30
0.0
  0
SPLINE
  5
83
330
70
100
AcDbEntity
  8
レイヤー 1
 62
   250
420
  2299925
370
     9
100
AcDbSpline
210
0.0
220
0.0
230
1.0
 70
     9
 71
     3
 72
    17
 73
    13
 74
     0
 42
0.0000000001
 43
0.0000000001
 40
0.0
 40
0.0
 40
0.0
 40
0.0
 40
1.0
 40
1.0
 40
1.0
 40
2.0
 40
2.0
 40
2.0
 40
3.0
 40
3.0
 40
3.0
 40
4.0
 40
4.0
 40
4.0
 40
4.0
 10
119.3993605397301
 20
-151.1596242240207
 30
0.0
 10
119.3993605397301
 20
-151.1038147810001
 30
0.0
 10
119.3545577630954
 20
-151.0590120043653
 30
0.0
 10
119.2991010978435
 20
-151.0590120043653
 30
0.0
 10
119.2439619325836
 20
-151.0590120043653
 30
0.0
 10
119.1991944337257
 20
-151.1038147810001
 30
0.0
 10
119.1991944337257
 20
-151.1596242240207
 30
0.0
 10
119.1991944337257
 20
-151.2147281115038
 30
0.0
 10
119.2439619325836
 20
-151.2595308881385
 30
0.0
 10
119.2991010978435
 20
-151.2595308881385
 30
0.0
 10
119.3545577630954
 20
-151.2595308881385
 30
0.0
 10
119.3993605397301
 20
-151.2147281115038
 30
0.0
 10
119.3993605397301
 20
-151.1596242240207
 30
0.0
  0
SPLINE
  5
84
330
70
100
AcDbEntity
  8
レイヤー 1
 62
   250
420
  2299925
370
     9
100
AcDbSpline
210
0.0
220
0.0
230
1.0
 70
     9
 71
     3
 72
    17
 73
    13
 74
     0
 42
0.0000000001
 43
0.0000000001
 40
0.0
 40
0.0
 40
0.0
 40
0.0
 40
1.0
 40
1.0
 40
1.0
 40
2.0
 40
2.0
 40
2.0
 40
3.0
 40
3.0
 40
3.0
 40
4.0
 40
4.0
 40
4.0
 40
4.0
 10
119.3993605397301
 20
-151.559250880492
 30
0.0
 10
119.3993605397301
 20
-151.5041117152321
 30
0.0
 10
119.3545577630954
 20
-151.4593406623831
 30
0.0
 10
119.2991010978435
 20
-151.4593406623831
 30
0.0
 10
119.2439619325836
 20
-151.4593406623831
 30
0.0
 10
119.1991944337257
 20
-151.5041117152321
 30
0.0
 10
119.1991944337257
 20
-151.559250880492
 30
0.0
 10
119.1991944337257
 20
-151.6143547679751
 30
0.0
 10
119.2439619325836
 20
-151.6591575446098
 30
0.0
 10
119.2991010978435
 20
-151.6591575446098
 30
0.0
 10
119.3545577630954
 20
-151.6591575446098
 30
0.0
 10
119.3993605397301
 20
-151.6143547679751
 30
0.0
 10
119.3993605397301
 20
-151.559250880492
 30
0.0
  0
SPLINE
  5
85
330
70
100
AcDbEntity
  8
レイヤー 1
 62
   250
420
  2299925
370
     9
100
AcDbSpline
210
0.0
220
0.0
230
1.0
 70
     9
 71
     3
 72
    17
 73
    13
 74
     0
 42
0.0000000001
 43
0.0000000001
 40
0.0
 40
0.0
 40
0.0
 40
0.0
 40
1.0
 40
1.0
 40
1.0
 40
2.0
 40
2.0
 40
2.0
 40
3.0
 40
3.0
 40
3.0
 40
4.0
 40
4.0
 40
4.0
 40
4.0
 10
115.3999189750977
 20
-156.2590621494788
 30
0.0
 10
115.3999189750977
 20
-156.2039229842188
 30
0.0
 10
115.3551514762399
 20
-156.159120207584
 30
0.0
 10
115.3000123109799
 20
-156.159120207584
 30
0.0
 10
115.2445556457281
 20
-156.159120207584
 30
0.0
 10
115.1997881468702
 20
-156.2039229842188
 30
0.0
 10
115.1997881468702
 20
-156.2590621494788
 30
0.0
 10
115.1997881468702
 20
-156.3141660369618
 30
0.0
 10
115.2445556457281
 20
-156.3589688135966
 30
0.0
 10
115.3000123109799
 20
-156.3589688135966
 30
0.0
 10
115.3551514762399
 20
-156.3589688135966
 30
0.0
 10
115.3999189750977
 20
-156.3141660369618
 30
0.0
 10
115.3999189750977
 20
-156.2590621494788
 30
0.0
  0
SPLINE
  5
86
330
70
100
AcDbEntity
  8
レイヤー 1
 62
   250
420
  2299925
370
     9
100
AcDbSpline
210
0.0
220
0.0
230
1.0
 70
     9
 71
     3
 72
    17
 73
    13
 74
     0
 42
0.0000000001
 43
0.0000000001
 40
0.0
 40
0.0
 40
0.0
 40
0.0
 40
1.0
 40
1.0
 40
1.0
 40
2.0
 40
2.0
 40
2.0
 40
3.0
 40
3.0
 40
3.0
 40
4.0
 40
4.0
 40
4.0
 40
4.0
 10
92.40029067054003
 20
-156.2590621494788
 30
0.0
 10
92.40029067054003
 20
-156.2039229842188
 30
0.0
 10
92.35552317055148
 20
-156.159120207584
 30
0.0
 10
92.30006650389848
 20
-156.159120207584
 30
0.0
 10
92.24457455946764
 20
-156.159120207584
 30
0.0
 10
92.20015983725652
 20
-156.2039229842188
 30
0.0
 10
92.20015983725652
 20
-156.2590621494788
 30
0.0
 10
92.20015983725652
 20
-156.3141660369618
 30
0.0
 10
92.24457455946764
 20
-156.3589688135966
 30
0.0
 10
92.30006650389848
 20
-156.3589688135966
 30
0.0
 10
92.35552317055148
 20
-156.3589688135966
 30
0.0
 10
92.40029067054003
 20
-156.3141660369618
 30
0.0
 10
92.40029067054003
 20
-156.2590621494788
 30
0.0
  0
SPLINE
  5
87
330
70
100
AcDbEntity
  8
レイヤー 1
 62
   250
420
  2299925
370
     9
100
AcDbSpline
210
0.0
220
0.0
230
1.0
 70
     9
 71
     3
 72
    17
 73
    13
 74
     0
 42
0.0000000001
 43
0.0000000001
 40
0.0
 40
0.0
 40
0.0
 40
0.0
 40
1.0
 40
1.0
 40
1.0
 40
2.0
 40
2.0
 40
2.0
 40
3.0
 40
3.0
 40
3.0
 40
4.0
 40
4.0
 40
4.0
 40
4.0
 10
90.17151122665252
 20
-145.1331215999918
 30
0.0
 10
90.17151122665252
 20
-145.0779824347318
 30
0.0
 10
90.1267084488858
 20
-145.0332149358743
 30
0.0
 10
90.0716045600109
 20
-145.0332149358743
 30
0.0
 10
90.01628900446926
 20
-145.0332149358743
 30
0.0
 10
89.97152150448037
 20
-145.0779824347318
 30
0.0
 10
89.97152150448037
 20
-145.1331215999918
 30
0.0
 10
89.97152150448037
 20
-145.1889310430124
 30
0.0
 10
90.01628900446926
 20
-145.2336985418703
 30
0.0
 10
90.0716045600109
 20
-145.2336985418703
 30
0.0
 10
90.1267084488858
 20
-145.2336985418703
 30
0.0
 10
90.17151122665252
 20
-145.1889310430124
 30
0.0
 10
90.17151122665252
 20
-145.1331215999918
 30
0.0
  0
SPLINE
  5
88
330
70
100
AcDbEntity
  8
レイヤー 1
 62
   250
420
  2299925
370
     9
100
AcDbSpline
210
0.0
220
0.0
230
1.0
 70
     9
 71
     3
 72
    17
 73
    13
 74
     0
 42
0.0000000001
 43
0.0000000001
 40
0.0
 40
0.0
 40
0.0
 40
0.0
 40
1.0
 40
1.0
 40
1.0
 40
2.0
 40
2.0
 40
2.0
 40
3.0
 40
3.0
 40
3.0
 40
4.0
 40
4.0
 40
4.0
 40
4.0
 10
90.17151122665252
 20
-146.1332112966996
 30
0.0
 10
90.17151122665252
 20
-146.0781074092165
 30
0.0
 10
90.1267084488858
 20
-146.0333046325818
 30
0.0
 10
90.0716045600109
 20
-146.0333046325818
 30
0.0
 10
90.01628900446926
 20
-146.0333046325818
 30
0.0
 10
89.97152150448037
 20
-146.0781074092165
 30
0.0
 10
89.97152150448037
 20
-146.1332112966996
 30
0.0
 10
89.97152150448037
 20
-146.1883504619595
 30
0.0
 10
90.01628900446926
 20
-146.2331179608175
 30
0.0
 10
90.0716045600109
 20
-146.2331179608175
 30
0.0
 10
90.1267084488858
 20
-146.2331179608175
 30
0.0
 10
90.17151122665252
 20
-146.1883504619595
 30
0.0
 10
90.17151122665252
 20
-146.1332112966996
 30
0.0
  0
SPLINE
  5
89
330
70
100
AcDbEntity
  8
レイヤー 1
 62
   250
420
  2299925
370
     9
100
AcDbSpline
210
0.0
220
0.0
230
1.0
 70
     9
 71
     3
 72
    17
 73
    13
 74
     0
 42
0.0000000001
 43
0.0000000001
 40
0.0
 40
0.0
 40
0.0
 40
0.0
 40
1.0
 40
1.0
 40
1.0
 40
2.0
 40
2.0
 40
2.0
 40
3.0
 40
3.0
 40
3.0
 40
4.0
 40
4.0
 40
4.0
 40
4.0
 10
98.40029983570657
 20
-156.2590621494788
 30
0.0
 10
98.40029983570657
 20
-156.2039229842188
 30
0.0
 10
98.35549705794015
 20
-156.159120207584
 30
0.0
 10
98.30004039128716
 20
-156.159120207584
 30
0.0
 10
98.24490122463441
 20
-156.159120207584
 30
0.0
 10
98.20013372464552
 20
-156.2039229842188
 30
0.0
 10
98.20013372464552
 20
-156.2590621494788
 30
0.0
 10
98.20013372464552
 20
-156.3141660369618
 30
0.0
 10
98.24490122463441
 20
-156.3589688135966
 30
0.0
 10
98.30004039128716
 20
-156.3589688135966
 30
0.0
 10
98.35549705794015
 20
-156.3589688135966
 30
0.0
 10
98.40029983570657
 20
-156.3141660369618
 30
0.0
 10
98.40029983570657
 20
-156.2590621494788
 30
0.0
  0
LINE
  5
8A
330
70
100
AcDbEntity
  8
レイヤー 1
 62
   250
420
  2299925
370
     9
100
AcDbLine
 10
92.30006650389848
 20
-156.2590621494788
 30
0.0
 11
98.30004039128716
 21
-156.2590621494788
 31
0.0
  0
LINE
  5
8B
330
70
100
AcDbEntity
  8
レイヤー 1
 62
   250
420
  2299925
370
     9
100
AcDbLine
 10
92.30006650389848
 20
-153.1998086164157
 30
0.0
 11
92.30006650389848
 21
-157.2595046239553
 31
0.0
  0
LINE
  5
8C
330
70
100
AcDbEntity
  8
レイヤー 1
 62
   250
420
  2299925
370
     9
100
AcDbLine
 10
98.30004039128716
 20
-154.7990207978386
 30
0.0
 11
98.30004039128716
 21
-157.2595046239553
 31
0.0
  0
INSERT
  5
8E
330
70
100
AcDbEntity
  8
レイヤー 1
100
AcDbBlockReference
  2
Block_0
 10
0.0
 20
0.0
 30
0.0
  0
LINE
  5
94
330
70
100
AcDbEntity
  8
レイヤー 1
 62
   250
420
  2299925
370
     9
100
AcDbLine
 10
98.30004039128716
 20
-156.2590621494788
 30
0.0
 11
115.3000123109799
 21
-156.2590621494788
 31
0.0
  0
LINE
  5
95
330
70
100
AcDbEntity
  8
レイヤー 1
 62
   250
420
  2299925
370
     9
100
AcDbLine
 10
115.3000123109799
 20
-154.0989685934762
 30
0.0
 11
115.3000123109799
 21
-157.2595046239553
 31
0.0
  0
INSERT
  5
97
330
70
100
AcDbEntity
  8
レイヤー 1
100
AcDbBlockReference
  2
Block_1
 10
0.0
 20
0.0
 30
0.0
  0
LINE
  5
A2
330
70
100
AcDbEntity
  8
レイヤー 1
 62
   250
420
  2299925
370
     9
100
AcDbLine
 10
119.2991010978435
 20
-151.1596242240207
 30
0.0
 11
119.2991010978435
 21
-145.1589449326663
 31
0.0
  0
LINE
  5
A3
330
70
100
AcDbEntity
  8
レイヤー 1
 62
   250
420
  2299925
370
     9
100
AcDbLine
 10
101.9401073348215
 20
-145.1589449326663
 30
0.0
 11
120.299014405667
 21
-145.1589449326663
 31
0.0
  0
INSERT
  5
A5
330
70
100
AcDbEntity
  8
レイヤー 1
100
AcDbBlockReference
  2
Block_3
 10
0.0
 20
0.0
 30
0.0
  0
LINE
  5
AB
330
70
100
AcDbEntity
  8
レイヤー 1
 62
   250
420
  2299925
370
     9
100
AcDbLine
 10
119.2991010978435
 20
-151.559250880492
 30
0.0
 11
119.2991010978435
 21
-152.5590230772079
 31
0.0
  0
LINE
  5
AC
330
70
100
AcDbEntity
  8
レイヤー 1
 62
   250
420
  2299925
370
     9
100
AcDbLine
 10
119.2991010978435
 20
-151.1596242240207
 30
0.0
 11
119.2991010978435
 21
-151.559250880492
 31
0.0
  0
LINE
  5
AD
330
70
100
AcDbEntity
  8
レイヤー 1
 62
   250
420
  2299925
370
     9
100
AcDbLine
 10
117.8392361350878
 20
-151.1596242240207
 30
0.0
 11
120.299014405667
 21
-151.1596242240207
 31
0.0
  0
LINE
  5
AE
330
70
100
AcDbEntity
  8
レイヤー 1
 62
   250
420
  2299925
370
     9
100
AcDbLine
 10
117.8392361350878
 20
-151.559250880492
 30
0.0
 11
120.299014405667
 21
-151.559250880492
 31
0.0
  0
INSERT
  5
B0
330
70
100
AcDbEntity
  8
レイヤー 1
100
AcDbBlockReference
  2
Block_4
 10
0.0
 20
0.0
 30
0.0
  0
LINE
  5
BF
330
70
100
AcDbEntity
  8
レイヤー 1
 62
   250
420
  2299925
370
     9
100
AcDbLine
 10
90.0716045600109
 20
-145.1331215999918
 30
0.0
 11
90.0716045600109
 21
-144.1333494032759
 31
0.0
  0
LINE
  5
C0
330
70
100
AcDbEntity
  8
レイヤー 1
 62
   250
420
  2299925
370
     9
100
AcDbLine
 10
90.0716045600109
 20
-145.1331215999918
 30
0.0
 11
90.0716045600109
 21
-147.1329834934155
 31
0.0
  0
LINE
  5
C1
330
70
100
AcDbEntity
  8
レイヤー 1
 62
   250
420
  2299925
370
     9
100
AcDbLine
 10
91.53146955964604
 20
-145.1589449326663
 30
0.0
 11
89.07147956026092
 21
-145.1589449326663
 31
0.0
  0
LINE
  5
C2
330
70
100
AcDbEntity
  8
レイヤー 1
 62
   250
420
  2299925
370
     9
100
AcDbLine
 10
91.53146955964604
 20
-146.1593874071429
 30
0.0
 11
89.07147956026092
 21
-146.1593874071429
 31
0.0
  0
INSERT
  5
C4
330
70
100
AcDbEntity
  8
レイヤー 1
100
AcDbBlockReference
  2
Block_6
 10
0.0
 20
0.0
 30
0.0
  0
LWPOLYLINE
  5
D2
330
70
100
AcDbEntity
  8
レイヤー 1
  6
AI-Linetype-0
 62
   154
420
    23468
370
    25
100
AcDbPolyline
 90
        3
 70
     0
 43
0.0
 10
92.30024289278704
 20
-146.9903517746109
 10
97.48508844704689
 20
-146.9903517746109
 10
97.48508844704689
 20
-152.5403964110165
  0
INSERT
  5
D5
330
70
100
AcDbEntity
  8
レイヤー 1
100
AcDbBlockReference
  2
Block_8
 10
0.0
 20
0.0
 30
0.0
  0
ENDSEC
  0
SECTION
  2
OBJECTS
  0
DICTIONARY
  5
C
330
0
100
AcDbDictionary
281
     1
  3
ACAD_COLOR
350
63
  3
ACAD_DETAILVIEWSTYLE
350
6A
  3
ACAD_GROUP
350
D
  3
ACAD_LAYOUT
350
62
  3
ACAD_MATERIAL
350
10
  3
ACAD_MLEADERSTYLE
350
66
  3
ACAD_MLINESTYLE
350
5F
  3
ACAD_PLOTSETTINGS
350
61
  3
ACAD_PLOTSTYLENAME
350
E
  3
ACAD_SCALELIST
350
42
  3
ACAD_SECTIONVIEWSTYLE
350
68
  3
ACAD_TABLESTYLE
350
64
  3
ACAD_VISUALSTYLE
350
29
  3
ACDB_RECOMPOSE_DATA
350
102
  3
AcDbVariableDictionary
350
FA
  0
DICTIONARY
  5
63
102
{ACAD_REACTORS
330
C
102
}
330
C
100
AcDbDictionary
281
     1
  0
DICTIONARY
  5
6A
102
{ACAD_REACTORS
330
C
102
}
330
C
100
AcDbDictionary
281
     1
  3
Imperial24
350
6B
  0
DICTIONARY
  5
D
102
{ACAD_REACTORS
330
C
102
}
330
C
100
AcDbDictionary
281
     1
  0
DICTIONARY
  5
62
102
{ACAD_REACTORS
330
C
102
}
330
C
100
AcDbDictionary
281
     1
  3
Layout1
350
6F
  3
Layout2
350
77
  3
Model
350
73
  0
DICTIONARY
  5
10
102
{ACAD_REACTORS
330
C
102
}
330
C
100
AcDbDictionary
281
     1
  3
ByBlock
350
19
  3
ByLayer
350
11
  3
Global
350
21
  0
DICTIONARY
  5
66
102
{ACAD_REACTORS
330
C
102
}
330
C
100
AcDbDictionary
281
     1
  3
Standard
350
67
  0
DICTIONARY
  5
5F
102
{ACAD_REACTORS
330
C
102
}
330
C
100
AcDbDictionary
281
     1
  3
Standard
350
60
  0
DICTIONARY
  5
61
102
{ACAD_REACTORS
330
C
102
}
330
C
100
AcDbDictionary
281
     1
  0
ACDBDICTIONARYWDFLT
  5
E
102
{ACAD_REACTORS
330
C
102
}
330
C
100
AcDbDictionary
281
     1
  3
Normal
350
F
100
AcDbDictionaryWithDefault
340
F
  0
DICTIONARY
  5
42
102
{ACAD_REACTORS
330
C
102
}
330
C
100
AcDbDictionary
281
     1
  3
A0
350
43
  3
A1
350
44
  3
A2
350
45
  3
A3
350
46
  3
A4
350
47
  3
A5
350
48
  3
A6
350
49
  3
A7
350
4A
  3
A8
350
4B
  3
A9
350
4C
  3
B0
350
4D
  3
B1
350
4E
  3
B2
350
4F
  3
B3
350
50
  3
B4
350
51
  3
B5
350
52
  3
B6
350
53
  0
DICTIONARY
  5
68
102
{ACAD_REACTORS
330
C
102
}
330
C
100
AcDbDictionary
281
     1
  3
Imperial24
350
69
  0
DICTIONARY
  5
64
102
{ACAD_REACTORS
330
C
102
}
330
C
100
AcDbDictionary
281
     1
  3
Standard
350
65
  0
DICTIONARY
  5
29
102
{ACAD_REACTORS
330
C
102
}
330
C
100
AcDbDictionary
281
     1
  3
2dWireframe
350
2F
  3
Basic
350
2E
  3
Brighten
350
35
  3
ColorChange
350
39
  3
Conceptual
350
32
  3
Dim
350
34
  3
EdgeColorOff
350
41
  3
Facepattern
350
38
  3
Flat
350
2A
  3
FlatWithEdges
350
2B
  3
Gouraud
350
2C
  3
GouraudWithEdges
350
2D
  3
Hidden
350
31
  3
JitterOff
350
3F
  3
Linepattern
350
37
  3
OverhangOff
350
40
  3
Realistic
350
33
  3
Shaded
350
3E
  3
Shaded with edges
350
3D
  3
Shades of Gray
350
3A
  3
Sketchy
350
3B
  3
Thicken
350
36
  3
Wireframe
350
30
  3
X-Ray
350
3C
  0
XRECORD
  5
102
102
{ACAD_REACTORS
330
C
102
}
330
C
100
AcDbXrecord
280
     1
 90
        1
330
65
  0
DICTIONARY
  5
FA
102
{ACAD_REACTORS
330
C
102
}
330
C
100
AcDbDictionary
281
     1
  3
CANNOSCALE
350
FF
  3
CMLEADERSTYLE
350
FC
  3
CTABLESTYLE
350
FB
  3
CVIEWDETAILSTYLE
350
FD
  3
CVIEWSECTIONSTYLE
350
FE
  0
ACDBDETAILVIEWSTYLE
  5
6B
102
{ACAD_XDICTIONARY
360
137
102
}
102
{ACAD_REACTORS
330
6A
102
}
330
6A
100
AcDbModelDocViewStyle
 70
     0
  3
Imperial24
290
     0
100
AcDbDetailViewStyle
 70
     0
 71
     0
 90
        3
 71
     1
340
55
 62
   256
 40
0.24
340
0
 62
   256
 40
0.24
300

 40
0.36
280
     3
 71
     2
340
5D
 90
       25
 62
   256
 71
     3
340
55
 62
   256
 40
0.24
 90
        1
 40
0.75
 90
        1
300
%<\AcVar ViewType \f "%tc1">% %<\AcVar ViewDetailId>%\PSCALE %<\AcVar ViewScale \f "%sn">%
 71
     4
340
5D
 90
       25
 62
   256
340
5D
 90
       25
 62
   256
280
     0
  0
LAYOUT
  5
6F
102
{ACAD_REACTORS
330
62
102
}
330
62
100
AcDbPlotSettings
  1

  2

  4

  6

 40
0.0
 41
0.0
 42
0.0
 43
0.0
 44
0.0
 45
0.0
 46
0.0
 47
0.0
 48
0.0
 49
0.0
140
0.0
141
0.0
142
1.0
143
1.0
 70
   688
 72
     0
 73
     0
 74
     5
  7

 75
    16
147
1.0
 76
     0
 77
     2
 78
   300
148
0.0
149
0.0
100
AcDbLayout
  1
Layout1
 70
     1
 71
     1
 10
0.0
 20
0.0
 11
12.0
 21
9.0
 12
0.0
 22
0.0
 32
0.0
 14
0.0
 24
0.0
 34
0.0
 15
0.0
 25
0.0
 35
0.0
146
0.0
 13
0.0
 23
0.0
 33
0.0
 16
1.0
 26
0.0
 36
0.0
 17
0.0
 27
1.0
 37
0.0
 76
     0
330
6C
  0
LAYOUT
  5
77
102
{ACAD_REACTORS
330
62
102
}
330
62
100
AcDbPlotSettings
  1

  2

  4

  6

 40
0.0
 41
0.0
 42
0.0
 43
0.0
 44
0.0
 45
0.0
 46
0.0
 47
0.0
 48
0.0
 49
0.0
140
0.0
141
0.0
142
1.0
143
1.0
 70
   688
 72
     0
 73
     0
 74
     5
  7

 75
    16
147
1.0
 76
     0
 77
     2
 78
   300
148
0.0
149
0.0
100
AcDbLayout
  1
Layout2
 70
     1
 71
     2
 10
0.0
 20
0.0
 11
12.0
 21
9.0
 12
0.0
 22
0.0
 32
0.0
 14
0.0
 24
0.0
 34
0.0
 15
0.0
 25
0.0
 35
0.0
146
0.0
 13
0.0
 23
0.0
 33
0.0
 16
1.0
 26
0.0
 36
0.0
 17
0.0
 27
1.0
 37
0.0
 76
     0
330
74
  0
LAYOUT
  5
73
102
{ACAD_REACTORS
330
62
102
}
330
62
100
AcDbPlotSettings
  1

  2

  4

  6

 40
0.0
 41
0.0
 42
0.0
 43
0.0
 44
0.0
 45
0.0
 46
0.0
 47
0.0
 48
0.0
 49
0.0
140
0.0
141
0.0
142
1.0
143
1.0
 70
  1712
 72
     0
 73
     0
 74
     0
  7

 75
     0
147
1.0
 76
     0
 77
     2
 78
   300
148
0.0
149
0.0
100
AcDbLayout
  1
Model
 70
     1
 71
     0
 10
0.0
 20
0.0
 11
12.0
 21
9.0
 12
0.0
 22
0.0
 32
0.0
 14
0.0
 24
0.0
 34
0.0
 15
0.0
 25
0.0
 35
0.0
146
0.0
 13
0.0
 23
0.0
 33
0.0
 16
1.0
 26
0.0
 36
0.0
 17
0.0
 27
1.0
 37
0.0
 76
     0
330
70
  0
MATERIAL
  5
19
102
{ACAD_XDICTIONARY
360
1A
102
}
102
{ACAD_REACTORS
330
10
102
}
330
10
100
AcDbMaterial
  1
ByBlock
 72
     0
 43
0.0208333333333333
 43
0.0
 43
0.0
 43
0.0
 43
0.0
 43
0.0208333333333333
 43
0.0
 43
0.0
 43
0.0
 43
0.0
 43
1.0
 43
0.0
 43
0.0
 43
0.0
 43
0.0
 43
1.0
 77
     0
 47
0.0208333333333333
 47
0.0
 47
0.0
 47
0.0
 47
0.0
 47
0.0208333333333333
 47
0.0
 47
0.0
 47
0.0
 47
0.0
 47
1.0
 47
0.0
 47
0.0
 47
0.0
 47
0.0
 47
1.0
171
     0
 49
0.0208333333333333
 49
0.0
 49
0.0
 49
0.0
 49
0.0
 49
0.0208333333333333
 49
0.0
 49
0.0
 49
0.0
 49
0.0
 49
1.0
 49
0.0
 49
0.0
 49
0.0
 49
0.0
 49
1.0
175
     0
142
0.0208333333333333
142
0.0
142
0.0
142
0.0
142
0.0
142
0.0208333333333333
142
0.0
142
0.0
142
0.0
142
0.0
142
1.0
142
0.0
142
0.0
142
0.0
142
0.0
142
1.0
179
     0
144
0.0208333333333333
144
0.0
144
0.0
144
0.0
144
0.0
144
0.0208333333333333
144
0.0
144
0.0
144
0.0
144
0.0
144
1.0
144
0.0
144
0.0
144
0.0
144
0.0
144
1.0
147
0.0208333333333333
147
0.0
147
0.0
147
0.0
147
0.0
147
0.0208333333333333
147
0.0
147
0.0
147
0.0
147
0.0
147
1.0
147
0.0
147
0.0
147
0.0
147
0.0
147
1.0
  0
MATERIAL
  5
11
102
{ACAD_XDICTIONARY
360
12
102
}
102
{ACAD_REACTORS
330
10
102
}
330
10
100
AcDbMaterial
  1
ByLayer
 72
     0
 43
0.0208333333333333
 43
0.0
 43
0.0
 43
0.0
 43
0.0
 43
0.0208333333333333
 43
0.0
 43
0.0
 43
0.0
 43
0.0
 43
1.0
 43
0.0
 43
0.0
 43
0.0
 43
0.0
 43
1.0
 77
     0
 47
0.0208333333333333
 47
0.0
 47
0.0
 47
0.0
 47
0.0
 47
0.0208333333333333
 47
0.0
 47
0.0
 47
0.0
 47
0.0
 47
1.0
 47
0.0
 47
0.0
 47
0.0
 47
0.0
 47
1.0
171
     0
 49
0.0208333333333333
 49
0.0
 49
0.0
 49
0.0
 49
0.0
 49
0.0208333333333333
 49
0.0
 49
0.0
 49
0.0
 49
0.0
 49
1.0
 49
0.0
 49
0.0
 49
0.0
 49
0.0
 49
1.0
175
     0
142
0.0208333333333333
142
0.0
142
0.0
142
0.0
142
0.0
142
0.0208333333333333
142
0.0
142
0.0
142
0.0
142
0.0
142
1.0
142
0.0
142
0.0
142
0.0
142
0.0
142
1.0
179
     0
144
0.0208333333333333
144
0.0
144
0.0
144
0.0
144
0.0
144
0.0208333333333333
144
0.0
144
0.0
144
0.0
144
0.0
144
1.0
144
0.0
144
0.0
144
0.0
144
0.0
144
1.0
147
0.0208333333333333
147
0.0
147
0.0
147
0.0
147
0.0
147
0.0208333333333333
147
0.0
147
0.0
147
0.0
147
0.0
147
1.0
147
0.0
147
0.0
147
0.0
147
0.0
147
1.0
  0
MATERIAL
  5
21
102
{ACAD_XDICTIONARY
360
22
102
}
102
{ACAD_REACTORS
330
10
102
}
330
10
100
AcDbMaterial
  1
Global
 72
     0
 43
0.0208333333333333
 43
0.0
 43
0.0
 43
0.0
 43
0.0
 43
0.0208333333333333
 43
0.0
 43
0.0
 43
0.0
 43
0.0
 43
1.0
 43
0.0
 43
0.0
 43
0.0
 43
0.0
 43
1.0
 77
     0
 47
0.0208333333333333
 47
0.0
 47
0.0
 47
0.0
 47
0.0
 47
0.0208333333333333
 47
0.0
 47
0.0
 47
0.0
 47
0.0
 47
1.0
 47
0.0
 47
0.0
 47
0.0
 47
0.0
 47
1.0
171
     0
 49
0.0208333333333333
 49
0.0
 49
0.0
 49
0.0
 49
0.0
 49
0.0208333333333333
 49
0.0
 49
0.0
 49
0.0
 49
0.0
 49
1.0
 49
0.0
 49
0.0
 49
0.0
 49
0.0
 49
1.0
175
     0
142
0.0208333333333333
142
0.0
142
0.0
142
0.0
142
0.0
142
0.0208333333333333
142
0.0
142
0.0
142
0.0
142
0.0
142
1.0
142
0.0
142
0.0
142
0.0
142
0.0
142
1.0
179
     0
144
0.0208333333333333
144
0.0
144
0.0
144
0.0
144
0.0
144
0.0208333333333333
144
0.0
144
0.0
144
0.0
144
0.0
144
1.0
144
0.0
144
0.0
144
0.0
144
0.0
144
1.0
147
0.0208333333333333
147
0.0
147
0.0
147
0.0
147
0.0
147
0.0208333333333333
147
0.0
147
0.0
147
0.0
147
0.0
147
1.0
147
0.0
147
0.0
147
0.0
147
0.0
147
1.0
  0
MLEADERSTYLE
  5
67
102
{ACAD_XDICTIONARY
360
133
102
}
102
{ACAD_REACTORS
330
66
102
}
330
66
100
AcDbMLeaderStyle
179
     2
170
     2
171
     1
172
     0
 90
        2
 40
0.0
 41
0.0
173
     1
 91
-1056964608
340
5B
 92
       -2
290
     1
 42
0.09
291
     1
 43
0.36
  3
Standard
 44
0.18
300

342
55
174
     1
178
     6
175
     1
176
     0
 93
-1056964608
 45
0.18
292
     0
297
     0
 46
0.18
 94
-1056964608
 47
1.0
 49
1.0
140
1.0
293
     1
141
0.0
294
     1
177
     0
142
1.0
295
     0
296
     0
143
0.125
271
     0
272
     9
273
     9
  0
MLINESTYLE
  5
60
102
{ACAD_REACTORS
330
5F
102
}
330
5F
100
AcDbMlineStyle
  2
STANDARD
 70
     0
  3

 62
   256
 51
90.0
 52
90.0
 71
     2
 49
0.5
 62
   256
  6
BYLAYER
 49
-0.5
 62
   256
  6
BYLAYER
  0
ACDBPLACEHOLDER
  5
F
102
{ACAD_REACTORS
330
E
102
}
330
E
  0
SCALE
  5
43
102
{ACAD_REACTORS
330
42
102
}
330
42
100
AcDbScale
 70
     0
300
1:1
140
1.0
141
1.0
290
     1
  0
SCALE
  5
44
102
{ACAD_REACTORS
330
42
102
}
330
42
100
AcDbScale
 70
     0
300
1/128" = 1'-0"
140
0.0078125
141
12.0
290
     0
  0
SCALE
  5
45
102
{ACAD_REACTORS
330
42
102
}
330
42
100
AcDbScale
 70
     0
300
1/64" = 1'-0"
140
0.015625
141
12.0
290
     0
  0
SCALE
  5
46
102
{ACAD_REACTORS
330
42
102
}
330
42
100
AcDbScale
 70
     0
300
1/32" = 1'-0"
140
0.03125
141
12.0
290
     0
  0
SCALE
  5
47
102
{ACAD_REACTORS
330
42
102
}
330
42
100
AcDbScale
 70
     0
300
1/16" = 1'-0"
140
0.0625
141
12.0
290
     0
  0
SCALE
  5
48
102
{ACAD_REACTORS
330
42
102
}
330
42
100
AcDbScale
 70
     0
300
3/32" = 1'-0"
140
0.09375
141
12.0
290
     0
  0
SCALE
  5
49
102
{ACAD_REACTORS
330
42
102
}
330
42
100
AcDbScale
 70
     0
300
1/8" = 1'-0"
140
0.125
141
12.0
290
     0
  0
SCALE
  5
4A
102
{ACAD_REACTORS
330
42
102
}
330
42
100
AcDbScale
 70
     0
300
3/16" = 1'-0"
140
0.1875
141
12.0
290
     0
  0
SCALE
  5
4B
102
{ACAD_REACTORS
330
42
102
}
330
42
100
AcDbScale
 70
     0
300
1/4" = 1'-0"
140
0.25
141
12.0
290
     0
  0
SCALE
  5
4C
102
{ACAD_REACTORS
330
42
102
}
330
42
100
AcDbScale
 70
     0
300
3/8" = 1'-0"
140
0.375
141
12.0
290
     0
  0
SCALE
  5
4D
102
{ACAD_REACTORS
330
42
102
}
330
42
100
AcDbScale
 70
     0
300
1/2" = 1'-0"
140
0.5
141
12.0
290
     0
  0
SCALE
  5
4E
102
{ACAD_REACTORS
330
42
102
}
330
42
100
AcDbScale
 70
     0
300
3/4" = 1'-0"
140
0.75
141
12.0
290
     0
  0
SCALE
  5
4F
102
{ACAD_REACTORS
330
42
102
}
330
42
100
AcDbScale
 70
     0
300
1" = 1'-0"
140
1.0
141
12.0
290
     0
  0
SCALE
  5
50
102
{ACAD_REACTORS
330
42
102
}
330
42
100
AcDbScale
 70
     0
300
1-1/2" = 1'-0"
140
1.5
141
12.0
290
     0
  0
SCALE
  5
51
102
{ACAD_REACTORS
330
42
102
}
330
42
100
AcDbScale
 70
     0
300
3" = 1'-0"
140
3.0
141
12.0
290
     0
  0
SCALE
  5
52
102
{ACAD_REACTORS
330
42
102
}
330
42
100
AcDbScale
 70
     0
300
6" = 1'-0"
140
6.0
141
12.0
290
     0
  0
SCALE
  5
53
102
{ACAD_REACTORS
330
42
102
}
330
42
100
AcDbScale
 70
     0
300
1'-0" = 1'-0"
140
12.0
141
12.0
290
     0
  0
ACDBSECTIONVIEWSTYLE
  5
69
102
{ACAD_XDICTIONARY
360
135
102
}
102
{ACAD_REACTORS
330
68
102
}
330
68
100
AcDbModelDocViewStyle
 70
     0
  3
Imperial24
290
     0
100
AcDbSectionViewStyle
 70
     0
 71
     0
 90
       78
 71
     1
340
55
 62
   256
 40
0.24
340
0
340
0
 62
   256
 40
0.24
300
I, O, Q, S, X, Z
 40
0.48
 90
        3
 40
0.18
 90
        1
 71
     2
340
5D
 90
       25
 62
   256
340
5D
 90
       50
 62
   256
 40
0.24
 40
0.0
 40
0.24
 71
     3
340
55
 62
   256
 40
0.24
 90
        1
 40
0.75
 90
        1
300
%<\AcVar ViewType \f "%tc1">% %<\AcVar ViewSectionStartId>%-%<\AcVar ViewSectionEndId>%\PSCALE %<\AcVar ViewScale \f "%sn">%
 71
     4
 62
   256
 62
   257
300
ANSI31
 40
1.0
 90
        0
290
     0
290
     0
 90
        6
 40
0.0
 40
1.570796326794896
 40
0.2617993877991494
 40
1.308996938995747
 40
-0.2617993877991494
 40
1.832595714594046
  0
TABLESTYLE
  5
65
102
{ACAD_XDICTIONARY
360
100
102
}
102
{ACAD_REACTORS
330
64
102
}
330
64
100
AcDbTableStyle
280
     0
  3
Standard
 70
     0
 71
     0
 40
0.06
 41
0.06
280
     0
281
     0
  7
Standard
140
0.18
170
     2
 62
     0
 63
     7
283
     0
 90
      512
 91
        0
  1

274
    -2
284
     1
 64
     0
275
    -2
285
     1
 65
     0
276
    -2
286
     1
 66
     0
277
    -2
287
     1
 67
     0
278
    -2
288
     1
 68
     0
279
    -2
289
     1
 69
     0
  7
Standard
140
0.25
170
     5
 62
     0
 63
     7
283
     0
 90
      512
 91
        0
  1

274
    -2
284
     1
 64
     0
275
    -2
285
     1
 65
     0
276
    -2
286
     1
 66
     0
277
    -2
287
     1
 67
     0
278
    -2
288
     1
 68
     0
279
    -2
289
     1
 69
     0
  7
Standard
140
0.18
170
     5
 62
     0
 63
     7
283
     0
 90
      512
 91
        0
  1

274
    -2
284
     1
 64
     0
275
    -2
285
     1
 65
     0
276
    -2
286
     1
 66
     0
277
    -2
287
     1
 67
     0
278
    -2
288
     1
 68
     0
279
    -2
289
     1
 69
     0
  0
VISUALSTYLE
  5
2F
102
{ACAD_XDICTIONARY
360
10D
102
}
102
{ACAD_REACTORS
330
29
102
}
330
29
100
AcDbVisualStyle
  2
2dWireframe
 70
     4
177
     2
291
     0
 71
     0
176
     1
 72
     2
176
     1
 73
     0
176
     1
 90
        0
176
     1
 40
0.6
176
     1
 41
30.0
176
     1
 63
     7
421
 16777215
176
     1
 74
     1
176
     1
 91
        4
176
     1
 64
     7
176
     1
 65
   257
176
     1
 75
     1
176
     1
175
     1
176
     1
 42
1.0
176
     1
 92
        0
176
     1
 66
   257
176
     1
 43
1.0
176
     1
 76
     1
176
     1
 77
     6
176
     1
 78
     2
176
     1
 67
     7
176
     1
 79
     5
176
     1
170
     0
176
     1
171
     0
176
     1
290
     0
176
     1
 93
        1
176
     1
 44
0.0
176
     1
173
     0
176
     1
1001
ACAD
1000
AcDbSavedByObjectVersion
1070
     0
  0
VISUALSTYLE
  5
2E
102
{ACAD_XDICTIONARY
360
10B
102
}
102
{ACAD_REACTORS
330
29
102
}
330
29
100
AcDbVisualStyle
  2
Basic
 70
     7
177
     2
291
     1
 71
     1
176
     1
 72
     0
176
     1
 73
     1
176
     1
 90
        0
176
     1
 40
0.6
176
     1
 41
30.0
176
     1
 63
     7
421
 16777215
176
     1
 74
     0
176
     1
 91
        4
176
     1
 64
     7
176
     1
 65
   257
176
     1
 75
     1
176
     1
175
     1
176
     1
 42
1.0
176
     1
 92
        8
176
     1
 66
     7
176
     1
 43
1.0
176
     1
 76
     1
176
     1
 77
     6
176
     1
 78
     2
176
     1
 67
     7
176
     1
 79
     5
176
     1
170
     0
176
     1
171
     0
176
     1
290
     0
176
     1
 93
        1
176
     1
 44
0.0
176
     1
173
     0
176
     1
1001
ACAD
1000
AcDbSavedByObjectVersion
1070
     0
  0
VISUALSTYLE
  5
35
102
{ACAD_XDICTIONARY
360
119
102
}
102
{ACAD_REACTORS
330
29
102
}
330
29
100
AcDbVisualStyle
  2
Brighten
 70
    12
177
     2
291
     1
 71
     2
176
     1
 72
     2
176
     1
 73
     0
176
     1
 90
        0
176
     1
 40
0.6
176
     1
 41
30.0
176
     1
 63
     7
421
 16777215
176
     1
 74
     1
176
     1
 91
        4
176
     1
 64
     7
176
     1
 65
   257
176
     1
 75
     1
176
     1
175
     1
176
     1
 42
1.0
176
     1
 92
        8
176
     1
 66
     7
176
     1
 43
1.0
176
     1
 76
     1
176
     1
 77
     6
176
     1
 78
     2
176
     1
 67
     7
176
     1
 79
     5
176
     1
170
     0
176
     1
171
     0
176
     1
290
     0
176
     1
 93
        1
176
     1
 44
50.0
176
     1
173
     0
176
     1
1001
ACAD
1000
AcDbSavedByObjectVersion
1070
     0
  0
VISUALSTYLE
  5
39
102
{ACAD_XDICTIONARY
360
121
102
}
102
{ACAD_REACTORS
330
29
102
}
330
29
100
AcDbVisualStyle
  2
ColorChange
 70
    16
177
     2
291
     1
 71
     2
176
     1
 72
     2
176
     1
 73
     3
176
     1
 90
        0
176
     1
 40
0.6
176
     1
 41
30.0
176
     1
 63
     8
421
  8421504
176
     1
 74
     1
176
     1
 91
        4
176
     1
 64
     7
176
     1
 65
   257
176
     1
 75
     1
176
     1
175
     1
176
     1
 42
1.0
176
     1
 92
        8
176
     1
 66
     8
424
  8421504
176
     1
 43
1.0
176
     1
 76
     1
176
     1
 77
     6
176
     1
 78
     2
176
     1
 67
     7
176
     1
 79
     5
176
     1
170
     0
176
     1
171
     0
176
     1
290
     0
176
     1
 93
        1
176
     1
 44
0.0
176
     1
173
     0
176
     1
1001
ACAD
1000
AcDbSavedByObjectVersion
1070
     0
  0
VISUALSTYLE
  5
32
102
{ACAD_XDICTIONARY
360
113
102
}
102
{ACAD_REACTORS
330
29
102
}
330
29
100
AcDbVisualStyle
  2
Conceptual
 70
     9
177
     2
291
     0
 71
     3
176
     1
 72
     2
176
     1
 73
     0
176
     1
 90
        0
176
     1
 40
0.6
176
     1
 41
30.0
176
     1
 63
     7
421
 16777215
176
     1
 74
     2
176
     1
 91
        2
176
     1
 64
     7
176
     1
 65
   257
176
     1
 75
     1
176
     1
175
     1
176
     1
 42
179.0
176
     1
 92
        8
176
     1
 66
     7
176
     1
 43
1.0
176
     1
 76
     1
176
     1
 77
     6
176
     1
 78
     2
176
     1
 67
     7
176
     1
 79
     3
176
     1
170
     0
176
     1
171
     0
176
     1
290
     0
176
     1
 93
        1
176
     1
 44
0.0
176
     1
173
     0
176
     1
1001
ACAD
1000
AcDbSavedByObjectVersion
1070
     0
  0
VISUALSTYLE
  5
34
102
{ACAD_XDICTIONARY
360
117
102
}
102
{ACAD_REACTORS
330
29
102
}
330
29
100
AcDbVisualStyle
  2
Dim
 70
    11
177
     2
291
     1
 71
     2
176
     1
 72
     2
176
     1
 73
     0
176
     1
 90
        0
176
     1
 40
0.6
176
     1
 41
30.0
176
     1
 63
     7
421
 16777215
176
     1
 74
     1
176
     1
 91
        4
176
     1
 64
     7
176
     1
 65
   257
176
     1
 75
     1
176
     1
175
     1
176
     1
 42
1.0
176
     1
 92
        8
176
     1
 66
     7
176
     1
 43
1.0
176
     1
 76
     1
176
     1
 77
     6
176
     1
 78
     2
176
     1
 67
     7
176
     1
 79
     5
176
     1
170
     0
176
     1
171
     0
176
     1
290
     0
176
     1
 93
        1
176
     1
 44
-50.0
176
     1
173
     0
176
     1
1001
ACAD
1000
AcDbSavedByObjectVersion
1070
     0
  0
VISUALSTYLE
  5
41
102
{ACAD_XDICTIONARY
360
131
102
}
102
{ACAD_REACTORS
330
29
102
}
330
29
100
AcDbVisualStyle
  2
EdgeColorOff
 70
    22
177
     2
291
     1
 71
     2
176
     0
 72
     2
176
     0
 73
     0
176
     0
 90
        0
176
     0
 40
0.6
176
     0
 41
30.0
176
     0
 63
     7
421
 16777215
176
     0
 74
     1
176
     0
 91
        4
176
     0
 64
     7
176
     0
 65
   257
176
     0
 75
     1
176
     0
175
     1
176
     0
 42
1.0
176
     0
 92
        8
176
     2
 66
     7
176
     0
 43
1.0
176
     0
 76
     1
176
     0
 77
     6
176
     0
 78
     2
176
     0
 67
     7
176
     0
 79
     5
176
     0
170
     0
176
     0
171
     0
176
     0
290
     0
176
     0
 93
        1
176
     0
 44
0.0
176
     0
173
     0
176
     0
1001
ACAD
1000
AcDbSavedByObjectVersion
1070
     0
  0
VISUALSTYLE
  5
38
102
{ACAD_XDICTIONARY
360
11F
102
}
102
{ACAD_REACTORS
330
29
102
}
330
29
100
AcDbVisualStyle
  2
Facepattern
 70
    15
177
     2
291
     1
 71
     2
176
     1
 72
     2
176
     1
 73
     0
176
     1
 90
        0
176
     1
 40
0.6
176
     1
 41
30.0
176
     1
 63
     7
421
 16777215
176
     1
 74
     1
176
     1
 91
        4
176
     1
 64
     7
176
     1
 65
   257
176
     1
 75
     1
176
     1
175
     1
176
     1
 42
1.0
176
     1
 92
        8
176
     1
 66
     7
176
     1
 43
1.0
176
     1
 76
     1
176
     1
 77
     6
176
     1
 78
     2
176
     1
 67
     7
176
     1
 79
     5
176
     1
170
     0
176
     1
171
     0
176
     1
290
     0
176
     1
 93
        1
176
     1
 44
0.0
176
     1
173
     0
176
     1
1001
ACAD
1000
AcDbSavedByObjectVersion
1070
     0
  0
VISUALSTYLE
  5
2A
102
{ACAD_XDICTIONARY
360
103
102
}
102
{ACAD_REACTORS
330
29
102
}
330
29
100
AcDbVisualStyle
  2
Flat
 70
     0
177
     2
291
     1
 71
     2
176
     1
 72
     1
176
     1
 73
     1
176
     1
 90
        2
176
     1
 40
0.6
176
     1
 41
30.0
176
     1
 63
     7
421
 16777215
176
     1
 74
     0
176
     1
 91
        0
176
     1
 64
     7
176
     1
 65
   257
176
     1
 75
     1
176
     1
175
     1
176
     1
 42
1.0
176
     1
 92
        8
176
     1
 66
     7
176
     1
 43
1.0
176
     1
 76
     1
176
     1
 77
     6
176
     1
 78
     2
176
     1
 67
     7
176
     1
 79
     5
176
     1
170
     0
176
     1
171
     0
176
     1
290
     0
176
     1
 93
       13
176
     1
 44
0.0
176
     1
173
     0
176
     1
1001
ACAD
1000
AcDbSavedByObjectVersion
1070
     0
  0
VISUALSTYLE
  5
2B
102
{ACAD_XDICTIONARY
360
105
102
}
102
{ACAD_REACTORS
330
29
102
}
330
29
100
AcDbVisualStyle
  2
FlatWithEdges
 70
     1
177
     2
291
     1
 71
     2
176
     1
 72
     1
176
     1
 73
     1
176
     1
 90
        2
176
     1
 40
0.6
176
     1
 41
30.0
176
     1
 63
     7
421
 16777215
176
     1
 74
     1
176
     1
 91
        0
176
     1
 64
     7
176
     1
 65
   257
176
     1
 75
     1
176
     1
175
     1
176
     1
 42
1.0
176
     1
 92
        0
176
     1
 66
   257
176
     1
 43
1.0
176
     1
 76
     1
176
     1
 77
     6
176
     1
 78
     2
176
     1
 67
     7
176
     1
 79
     5
176
     1
170
     0
176
     1
171
     0
176
     1
290
     0
176
     1
 93
       13
176
     1
 44
0.0
176
     1
173
     0
176
     1
1001
ACAD
1000
AcDbSavedByObjectVersion
1070
     0
  0
VISUALSTYLE
  5
2C
102
{ACAD_XDICTIONARY
360
107
102
}
102
{ACAD_REACTORS
330
29
102
}
330
29
100
AcDbVisualStyle
  2
Gouraud
 70
     2
177
     2
291
     1
 71
     2
176
     1
 72
     2
176
     1
 73
     1
176
     1
 90
        2
176
     1
 40
0.6
176
     1
 41
30.0
176
     1
 63
     7
421
 16777215
176
     1
 74
     0
176
     1
 91
        0
176
     1
 64
     7
176
     1
 65
   257
176
     1
 75
     1
176
     1
175
     1
176
     1
 42
1.0
176
     1
 92
        0
176
     1
 66
     7
176
     1
 43
1.0
176
     1
 76
     1
176
     1
 77
     6
176
     1
 78
     2
176
     1
 67
     7
176
     1
 79
     5
176
     1
170
     0
176
     1
171
     0
176
     1
290
     0
176
     1
 93
       13
176
     1
 44
0.0
176
     1
173
     0
176
     1
1001
ACAD
1000
AcDbSavedByObjectVersion
1070
     0
  0
VISUALSTYLE
  5
2D
102
{ACAD_XDICTIONARY
360
109
102
}
102
{ACAD_REACTORS
330
29
102
}
330
29
100
AcDbVisualStyle
  2
GouraudWithEdges
 70
     3
177
     2
291
     1
 71
     2
176
     1
 72
     2
176
     1
 73
     1
176
     1
 90
        2
176
     1
 40
0.6
176
     1
 41
30.0
176
     1
 63
     7
421
 16777215
176
     1
 74
     1
176
     1
 91
        0
176
     1
 64
     7
176
     1
 65
   257
176
     1
 75
     1
176
     1
175
     1
176
     1
 42
1.0
176
     1
 92
        0
176
     1
 66
   257
176
     1
 43
1.0
176
     1
 76
     1
176
     1
 77
     6
176
     1
 78
     2
176
     1
 67
     7
176
     1
 79
     5
176
     1
170
     0
176
     1
171
     0
176
     1
290
     0
176
     1
 93
       13
176
     1
 44
0.0
176
     1
173
     0
176
     1
1001
ACAD
1000
AcDbSavedByObjectVersion
1070
     0
  0
VISUALSTYLE
  5
31
102
{ACAD_XDICTIONARY
360
111
102
}
102
{ACAD_REACTORS
330
29
102
}
330
29
100
AcDbVisualStyle
  2
Hidden
 70
     6
177
     2
291
     0
 71
     1
176
     1
 72
     2
176
     1
 73
     2
176
     1
 90
        0
176
     1
 40
0.6
176
     1
 41
30.0
176
     1
 63
     7
421
 16777215
176
     1
 74
     2
176
     1
 91
        2
176
     1
 64
     7
176
     1
 65
   257
176
     1
 75
     2
176
     1
175
     1
176
     1
 42
40.0
176
     1
 92
        0
176
     1
 66
   257
176
     1
 43
1.0
176
     1
 76
     1
176
     1
 77
     6
176
     1
 78
     2
176
     1
 67
     7
176
     1
 79
     3
176
     1
170
     0
176
     1
171
     0
176
     1
290
     0
176
     1
 93
        1
176
     1
 44
0.0
176
     1
173
     0
176
     1
1001
ACAD
1000
AcDbSavedByObjectVersion
1070
     0
  0
VISUALSTYLE
  5
3F
102
{ACAD_XDICTIONARY
360
12D
102
}
102
{ACAD_REACTORS
330
29
102
}
330
29
100
AcDbVisualStyle
  2
JitterOff
 70
    20
177
     2
291
     1
 71
     2
176
     0
 72
     2
176
     0
 73
     0
176
     0
 90
        0
176
     0
 40
0.6
176
     0
 41
30.0
176
     0
 63
     7
421
 16777215
176
     0
 74
     1
176
     0
 91
        4
176
     0
 64
     7
176
     0
 65
   257
176
     0
 75
     1
176
     0
175
     1
176
     0
 42
1.0
176
     0
 92
       10
176
     2
 66
     7
176
     0
 43
1.0
176
     0
 76
     1
176
     0
 77
     6
176
     0
 78
     2
176
     0
 67
     7
176
     0
 79
     5
176
     0
170
     0
176
     0
171
     0
176
     0
290
     0
176
     0
 93
        1
176
     0
 44
0.0
176
     0
173
     0
176
     0
1001
ACAD
1000
AcDbSavedByObjectVersion
1070
     0
  0
VISUALSTYLE
  5
37
102
{ACAD_XDICTIONARY
360
11D
102
}
102
{ACAD_REACTORS
330
29
102
}
330
29
100
AcDbVisualStyle
  2
Linepattern
 70
    14
177
     2
291
     1
 71
     2
176
     1
 72
     2
176
     1
 73
     0
176
     1
 90
        0
176
     1
 40
0.6
176
     1
 41
30.0
176
     1
 63
     7
421
 16777215
176
     1
 74
     1
176
     1
 91
        4
176
     1
 64
     7
176
     1
 65
   257
176
     1
 75
     7
176
     1
175
     7
176
     1
 42
1.0
176
     1
 92
        8
176
     1
 66
     7
176
     1
 43
1.0
176
     1
 76
     1
176
     1
 77
     6
176
     1
 78
     2
176
     1
 67
     7
176
     1
 79
     5
176
     1
170
     0
176
     1
171
     0
176
     1
290
     0
176
     1
 93
        1
176
     1
 44
0.0
176
     1
173
     0
176
     1
1001
ACAD
1000
AcDbSavedByObjectVersion
1070
     0
  0
VISUALSTYLE
  5
40
102
{ACAD_XDICTIONARY
360
12F
102
}
102
{ACAD_REACTORS
330
29
102
}
330
29
100
AcDbVisualStyle
  2
OverhangOff
 70
    21
177
     2
291
     1
 71
     2
176
     0
 72
     2
176
     0
 73
     0
176
     0
 90
        0
176
     0
 40
0.6
176
     0
 41
30.0
176
     0
 63
     7
421
 16777215
176
     0
 74
     1
176
     0
 91
        4
176
     0
 64
     7
176
     0
 65
   257
176
     0
 75
     1
176
     0
175
     1
176
     0
 42
1.0
176
     0
 92
        9
176
     2
 66
     7
176
     0
 43
1.0
176
     0
 76
     1
176
     0
 77
     6
176
     0
 78
     2
176
     0
 67
     7
176
     0
 79
     5
176
     0
170
     0
176
     0
171
     0
176
     0
290
     0
176
     0
 93
        1
176
     0
 44
0.0
176
     0
173
     0
176
     0
1001
ACAD
1000
AcDbSavedByObjectVersion
1070
     0
  0
VISUALSTYLE
  5
33
102
{ACAD_XDICTIONARY
360
115
102
}
102
{ACAD_REACTORS
330
29
102
}
330
29
100
AcDbVisualStyle
  2
Realistic
 70
     8
177
     2
291
     0
 71
     2
176
     1
 72
     3
176
     1
 73
     0
176
     1
 90
        2
176
     1
 40
0.6
176
     1
 41
30.0
176
     1
 63
     7
421
 16777215
176
     1
 74
     0
176
     1
 91
        0
176
     1
 64
     7
176
     1
 65
   257
176
     1
 75
     1
176
     1
175
     1
176
     1
 42
1.0
176
     1
 92
        8
176
     1
 66
   257
176
     1
 43
1.0
176
     1
 76
     1
176
     1
 77
     6
176
     1
 78
     2
176
     1
 67
     7
176
     1
 79
     3
176
     1
170
     0
176
     1
171
     0
176
     1
290
     0
176
     1
 93
       13
176
     1
 44
0.0
176
     1
173
     0
176
     1
1001
ACAD
1000
AcDbSavedByObjectVersion
1070
     0
  0
VISUALSTYLE
  5
3E
102
{ACAD_XDICTIONARY
360
12B
102
}
102
{ACAD_REACTORS
330
29
102
}
330
29
100
AcDbVisualStyle
  2
Shaded
 70
    27
177
     2
291
     0
 71
     2
176
     1
 72
     2
176
     1
 73
     1
176
     1
 90
        2
176
     1
 40
0.6
176
     1
 41
30.0
176
     1
 63
     7
421
 16777215
176
     1
 74
     0
176
     1
 91
        4
176
     1
 64
     7
176
     1
 65
   257
176
     1
 75
     1
176
     1
175
     1
176
     1
 42
1.0
176
     1
 92
        8
176
     1
 66
   257
176
     1
 43
1.0
176
     1
 76
     1
176
     1
 77
     6
176
     1
 78
     2
176
     1
 67
     8
425
  7895160
176
     1
 79
     3
176
     1
170
     0
176
     1
171
     0
176
     1
290
     0
176
     1
 93
        5
176
     1
 44
0.0
176
     1
173
     0
176
     1
1001
ACAD
1000
AcDbSavedByObjectVersion
1070
     0
  0
VISUALSTYLE
  5
3D
102
{ACAD_XDICTIONARY
360
129
102
}
102
{ACAD_REACTORS
330
29
102
}
330
29
100
AcDbVisualStyle
  2
Shaded with edges
 70
    26
177
     2
291
     0
 71
     2
176
     1
 72
     2
176
     1
 73
     1
176
     1
 90
        2
176
     1
 40
0.6
176
     1
 41
30.0
176
     1
 63
     7
421
 16777215
176
     1
 74
     1
176
     1
 91
        2
176
     1
 64
     7
176
     1
 65
   257
176
     1
 75
     2
176
     1
175
     1
176
     1
 42
1.0
176
     1
 92
        8
176
     1
 66
   257
176
     1
 43
1.0
176
     1
 76
     1
176
     1
 77
     6
176
     1
 78
     2
176
     1
 67
     7
176
     1
 79
     3
176
     1
170
     0
176
     1
171
     0
176
     1
290
     0
176
     1
 93
        5
176
     1
 44
0.0
176
     1
173
     0
176
     1
1001
ACAD
1000
AcDbSavedByObjectVersion
1070
     0
  0
VISUALSTYLE
  5
3A
102
{ACAD_XDICTIONARY
360
123
102
}
102
{ACAD_REACTORS
330
29
102
}
330
29
100
AcDbVisualStyle
  2
Shades of Gray
 70
    23
177
     2
291
     0
 71
     2
176
     1
 72
     2
176
     1
 73
     3
176
     1
 90
        0
176
     1
 40
0.6
176
     1
 41
30.0
176
     1
 63
     7
421
 16777215
176
     1
 74
     2
176
     1
 91
        2
176
     1
 64
     7
176
     1
 65
     7
176
     1
 75
     1
176
     1
175
     1
176
     1
 42
40.0
176
     1
 92
        8
176
     1
 66
     7
176
     1
 43
1.0
176
     1
 76
     1
176
     1
 77
     6
176
     1
 78
     2
176
     1
 67
     7
176
     1
 79
     3
176
     1
170
     0
176
     1
171
     0
176
     1
290
     0
176
     1
 93
        1
176
     1
 44
0.0
176
     1
173
     0
176
     1
1001
ACAD
1000
AcDbSavedByObjectVersion
1070
     0
  0
VISUALSTYLE
  5
3B
102
{ACAD_XDICTIONARY
360
125
102
}
102
{ACAD_REACTORS
330
29
102
}
330
29
100
AcDbVisualStyle
  2
Sketchy
 70
    24
177
     2
291
     0
 71
     1
176
     1
 72
     2
176
     1
 73
     2
176
     1
 90
        0
176
     1
 40
0.6
176
     1
 41
30.0
176
     1
 63
     7
421
 16777215
176
     1
 74
     2
176
     1
 91
        2
176
     1
 64
     7
176
     1
 65
     7
176
     1
 75
     1
176
     1
175
     1
176
     1
 42
40.0
176
     1
 92
       11
176
     1
 66
     7
176
     1
 43
1.0
176
     1
 76
     1
176
     1
 77
     6
176
     1
 78
     2
176
     1
 67
     7
176
     1
 79
     6
176
     1
170
     0
176
     1
171
     0
176
     1
290
     0
176
     1
 93
        1
176
     1
 44
0.0
176
     1
173
     0
176
     1
1001
ACAD
1000
AcDbSavedByObjectVersion
1070
     0
  0
VISUALSTYLE
  5
36
102
{ACAD_XDICTIONARY
360
11B
102
}
102
{ACAD_REACTORS
330
29
102
}
330
29
100
AcDbVisualStyle
  2
Thicken
 70
    13
177
     2
291
     1
 71
     2
176
     1
 72
     2
176
     1
 73
     0
176
     1
 90
        0
176
     1
 40
0.6
176
     1
 41
30.0
176
     1
 63
     7
421
 16777215
176
     1
 74
     1
176
     1
 91
        4
176
     1
 64
     7
176
     1
 65
   257
176
     1
 75
     1
176
     1
175
     1
176
     1
 42
1.0
176
     1
 92
       12
176
     1
 66
     7
176
     1
 43
1.0
176
     1
 76
     1
176
     1
 77
     6
176
     1
 78
     2
176
     1
 67
     7
176
     1
 79
     5
176
     1
170
     0
176
     1
171
     0
176
     1
290
     0
176
     1
 93
        1
176
     1
 44
0.0
176
     1
173
     0
176
     1
1001
ACAD
1000
AcDbSavedByObjectVersion
1070
     0
  0
VISUALSTYLE
  5
30
102
{ACAD_XDICTIONARY
360
10F
102
}
102
{ACAD_REACTORS
330
29
102
}
330
29
100
AcDbVisualStyle
  2
Wireframe
 70
     5
177
     2
291
     0
 71
     0
176
     1
 72
     2
176
     1
 73
     0
176
     1
 90
        0
176
     1
 40
0.6
176
     1
 41
30.0
176
     1
 63
     7
421
 16777215
176
     1
 74
     1
176
     1
 91
        4
176
     1
 64
     7
176
     1
 65
   257
176
     1
 75
     1
176
     1
175
     1
176
     1
 42
1.0
176
     1
 92
        0
176
     1
 66
   257
176
     1
 43
1.0
176
     1
 76
     1
176
     1
 77
     6
176
     1
 78
     2
176
     1
 67
     7
176
     1
 79
     3
176
     1
170
     0
176
     1
171
     0
176
     1
290
     0
176
     1
 93
        1
176
     1
 44
0.0
176
     1
173
     0
176
     1
1001
ACAD
1000
AcDbSavedByObjectVersion
1070
     0
  0
VISUALSTYLE
  5
3C
102
{ACAD_XDICTIONARY
360
127
102
}
102
{ACAD_REACTORS
330
29
102
}
330
29
100
AcDbVisualStyle
  2
X-Ray
 70
    25
177
     2
291
     0
 71
     2
176
     1
 72
     2
176
     1
 73
     1
176
     1
 90
        1
176
     1
 40
0.5
176
     1
 41
30.0
176
     1
 63
     7
421
 16777215
176
     1
 74
     1
176
     1
 91
        0
176
     1
 64
     7
176
     1
 65
   257
176
     1
 75
     1
176
     1
175
     1
176
     1
 42
1.0
176
     1
 92
        8
176
     1
 66
     7
176
     1
 43
1.0
176
     1
 76
     1
176
     1
 77
     6
176
     1
 78
     2
176
     1
 67
     7
176
     1
 79
     3
176
     1
170
     0
176
     1
171
     0
176
     1
290
     0
176
     1
 93
       13
176
     1
 44
0.0
176
     1
173
     0
176
     1
1001
ACAD
1000
AcDbSavedByObjectVersion
1070
     0
  0
DICTIONARYVAR
  5
FF
102
{ACAD_REACTORS
330
FA
102
}
330
FA
100
DictionaryVariables
280
     0
  1
1:1
  0
DICTIONARYVAR
  5
FC
102
{ACAD_REACTORS
330
FA
102
}
330
FA
100
DictionaryVariables
280
     0
  1
STANDARD
  0
DICTIONARYVAR
  5
FB
102
{ACAD_REACTORS
330
FA
102
}
330
FA
100
DictionaryVariables
280
     0
  1
STANDARD
  0
DICTIONARYVAR
  5
FD
102
{ACAD_REACTORS
330
FA
102
}
330
FA
100
DictionaryVariables
280
     0
  1
Imperial24
  0
DICTIONARYVAR
  5
FE
102
{ACAD_REACTORS
330
FA
102
}
330
FA
100
DictionaryVariables
280
     0
  1
Imperial24
  0
DICTIONARY
  5
137
330
6B
100
AcDbDictionary
280
     1
281
     1
  3
ACAD_XREC_ROUNDTRIP
360
138
  0
DICTIONARY
  5
1A
330
19
100
AcDbDictionary
280
     1
281
     1
  3
BUMPTILE
360
1C
  3
DIFFUSETILE
360
1B
  3
OPACITYTILE
360
1F
  3
REFLECTIONTILE
360
1E
  3
REFRACTIONTILE
360
20
  3
SPECULARTILE
360
1D
  0
DICTIONARY
  5
12
330
11
100
AcDbDictionary
280
     1
281
     1
  3
BUMPTILE
360
14
  3
DIFFUSETILE
360
13
  3
OPACITYTILE
360
17
  3
REFLECTIONTILE
360
16
  3
REFRACTIONTILE
360
18
  3
SPECULARTILE
360
15
  0
DICTIONARY
  5
22
330
21
100
AcDbDictionary
280
     1
281
     1
  3
BUMPTILE
360
24
  3
DIFFUSETILE
360
23
  3
OPACITYTILE
360
27
  3
REFLECTIONTILE
360
26
  3
REFRACTIONTILE
360
28
  3
SPECULARTILE
360
25
  0
DICTIONARY
  5
133
330
67
100
AcDbDictionary
280
     1
281
     1
  3
ACAD_XREC_ROUNDTRIP
360
134
  0
DICTIONARY
  5
135
330
69
100
AcDbDictionary
280
     1
281
     1
  3
ACAD_XREC_ROUNDTRIP
360
136
  0
DICTIONARY
  5
100
330
65
100
AcDbDictionary
280
     1
281
     1
  3
ACAD_ROUNDTRIP_2008_TABLESTYLE_CELLSTYLEMAP
360
101
  0
DICTIONARY
  5
10D
330
2F
100
AcDbDictionary
280
     1
281
     1
  3
ACAD_XREC_ROUNDTRIP
360
10E
  0
DICTIONARY
  5
10B
330
2E
100
AcDbDictionary
280
     1
281
     1
  3
ACAD_XREC_ROUNDTRIP
360
10C
  0
DICTIONARY
  5
119
330
35
100
AcDbDictionary
280
     1
281
     1
  3
ACAD_XREC_ROUNDTRIP
360
11A
  0
DICTIONARY
  5
121
330
39
100
AcDbDictionary
280
     1
281
     1
  3
ACAD_XREC_ROUNDTRIP
360
122
  0
DICTIONARY
  5
113
330
32
100
AcDbDictionary
280
     1
281
     1
  3
ACAD_XREC_ROUNDTRIP
360
114
  0
DICTIONARY
  5
117
330
34
100
AcDbDictionary
280
     1
281
     1
  3
ACAD_XREC_ROUNDTRIP
360
118
  0
DICTIONARY
  5
131
330
41
100
AcDbDictionary
280
     1
281
     1
  3
ACAD_XREC_ROUNDTRIP
360
132
  0
DICTIONARY
  5
11F
330
38
100
AcDbDictionary
280
     1
281
     1
  3
ACAD_XREC_ROUNDTRIP
360
120
  0
DICTIONARY
  5
103
330
2A
100
AcDbDictionary
280
     1
281
     1
  3
ACAD_XREC_ROUNDTRIP
360
104
  0
DICTIONARY
  5
105
330
2B
100
AcDbDictionary
280
     1
281
     1
  3
ACAD_XREC_ROUNDTRIP
360
106
  0
DICTIONARY
  5
107
330
2C
100
AcDbDictionary
280
     1
281
     1
  3
ACAD_XREC_ROUNDTRIP
360
108
  0
DICTIONARY
  5
109
330
2D
100
AcDbDictionary
280
     1
281
     1
  3
ACAD_XREC_ROUNDTRIP
360
10A
  0
DICTIONARY
  5
111
330
31
100
AcDbDictionary
280
     1
281
     1
  3
ACAD_XREC_ROUNDTRIP
360
112
  0
DICTIONARY
  5
12D
330
3F
100
AcDbDictionary
280
     1
281
     1
  3
ACAD_XREC_ROUNDTRIP
360
12E
  0
DICTIONARY
  5
11D
330
37
100
AcDbDictionary
280
     1
281
     1
  3
ACAD_XREC_ROUNDTRIP
360
11E
  0
DICTIONARY
  5
12F
330
40
100
AcDbDictionary
280
     1
281
     1
  3
ACAD_XREC_ROUNDTRIP
360
130
  0
DICTIONARY
  5
115
330
33
100
AcDbDictionary
280
     1
281
     1
  3
ACAD_XREC_ROUNDTRIP
360
116
  0
DICTIONARY
  5
12B
330
3E
100
AcDbDictionary
280
     1
281
     1
  3
ACAD_XREC_ROUNDTRIP
360
12C
  0
DICTIONARY
  5
129
330
3D
100
AcDbDictionary
280
     1
281
     1
  3
ACAD_XREC_ROUNDTRIP
360
12A
  0
DICTIONARY
  5
123
330
3A
100
AcDbDictionary
280
     1
281
     1
  3
ACAD_XREC_ROUNDTRIP
360
124
  0
DICTIONARY
  5
125
330
3B
100
AcDbDictionary
280
     1
281
     1
  3
ACAD_XREC_ROUNDTRIP
360
126
  0
DICTIONARY
  5
11B
330
36
100
AcDbDictionary
280
     1
281
     1
  3
ACAD_XREC_ROUNDTRIP
360
11C
  0
DICTIONARY
  5
10F
330
30
100
AcDbDictionary
280
     1
281
     1
  3
ACAD_XREC_ROUNDTRIP
360
110
  0
DICTIONARY
  5
127
330
3C
100
AcDbDictionary
280
     1
281
     1
  3
ACAD_XREC_ROUNDTRIP
360
128
  0
XRECORD
  5
138
102
{ACAD_REACTORS
330
137
102
}
330
137
100
AcDbXrecord
280
     1
102
DISPLAYNAME
  1
Imperial24
102
FLAGS
 90
        0
  0
XRECORD
  5
1C
102
{ACAD_REACTORS
330
1A
102
}
330
1A
100
AcDbXrecord
280
     1
270
     1
271
     1
  0
XRECORD
  5
1B
102
{ACAD_REACTORS
330
1A
102
}
330
1A
100
AcDbXrecord
280
     1
270
     1
271
     1
  0
XRECORD
  5
1F
102
{ACAD_REACTORS
330
1A
102
}
330
1A
100
AcDbXrecord
280
     1
270
     1
271
     1
  0
XRECORD
  5
1E
102
{ACAD_REACTORS
330
1A
102
}
330
1A
100
AcDbXrecord
280
     1
270
     1
271
     1
  0
XRECORD
  5
20
102
{ACAD_REACTORS
330
1A
102
}
330
1A
100
AcDbXrecord
280
     1
270
     1
271
     1
  0
XRECORD
  5
1D
102
{ACAD_REACTORS
330
1A
102
}
330
1A
100
AcDbXrecord
280
     1
270
     1
271
     1
  0
XRECORD
  5
14
102
{ACAD_REACTORS
330
12
102
}
330
12
100
AcDbXrecord
280
     1
270
     1
271
     1
  0
XRECORD
  5
13
102
{ACAD_REACTORS
330
12
102
}
330
12
100
AcDbXrecord
280
     1
270
     1
271
     1
  0
XRECORD
  5
17
102
{ACAD_REACTORS
330
12
102
}
330
12
100
AcDbXrecord
280
     1
270
     1
271
     1
  0
XRECORD
  5
16
102
{ACAD_REACTORS
330
12
102
}
330
12
100
AcDbXrecord
280
     1
270
     1
271
     1
  0
XRECORD
  5
18
102
{ACAD_REACTORS
330
12
102
}
330
12
100
AcDbXrecord
280
     1
270
     1
271
     1
  0
XRECORD
  5
15
102
{ACAD_REACTORS
330
12
102
}
330
12
100
AcDbXrecord
280
     1
270
     1
271
     1
  0
XRECORD
  5
24
102
{ACAD_REACTORS
330
22
102
}
330
22
100
AcDbXrecord
280
     1
270
     1
271
     1
  0
XRECORD
  5
23
102
{ACAD_REACTORS
330
22
102
}
330
22
100
AcDbXrecord
280
     1
270
     1
271
     1
  0
XRECORD
  5
27
102
{ACAD_REACTORS
330
22
102
}
330
22
100
AcDbXrecord
280
     1
270
     1
271
     1
  0
XRECORD
  5
26
102
{ACAD_REACTORS
330
22
102
}
330
22
100
AcDbXrecord
280
     1
270
     1
271
     1
  0
XRECORD
  5
28
102
{ACAD_REACTORS
330
22
102
}
330
22
100
AcDbXrecord
280
     1
270
     1
271
     1
  0
XRECORD
  5
25
102
{ACAD_REACTORS
330
22
102
}
330
22
100
AcDbXrecord
280
     1
270
     1
271
     1
  0
XRECORD
  5
134
102
{ACAD_REACTORS
330
133
102
}
330
133
100
AcDbXrecord
280
     1
102
ACAD_ROUNDTRIP_2012_MLEADER_STYLE
298
     1
  0
XRECORD
  5
136
102
{ACAD_REACTORS
330
135
102
}
330
135
100
AcDbXrecord
280
     1
102
DISPLAYNAME
  1
Imperial24
102
FLAGS
 90
        0
  0
CELLSTYLEMAP
  5
101
102
{ACAD_REACTORS
330
100
102
}
330
100
100
AcDbCellStyleMap
 90
        3
300
CELLSTYLE
  1
TABLEFORMAT_BEGIN
 90
        5
170
     1
 91
        0
 92
    32768
 62
   257
 93
        1
300
CONTENTFORMAT
  1
CONTENTFORMAT_BEGIN
 90
        0
 91
        0
 92
      512
 93
        0
300

 40
0.0
140
1.0
 94
        5
 62
     0
340
55
144
0.25
309
CONTENTFORMAT_END
171
     0
 94
        0
309
TABLEFORMAT_END
  1
CELLSTYLE_BEGIN
 90
        1
 91
        1
300
_TITLE
309
CELLSTYLE_END
300
CELLSTYLE
  1
TABLEFORMAT_BEGIN
 90
        5
170
     1
 91
        0
 92
        0
 62
   257
 93
        1
300
CONTENTFORMAT
  1
CONTENTFORMAT_BEGIN
 90
        0
 91
        0
 92
      512
 93
        0
300

 40
0.0
140
1.0
 94
        5
 62
     0
340
55
144
0.18
309
CONTENTFORMAT_END
171
     0
 94
        0
309
TABLEFORMAT_END
  1
CELLSTYLE_BEGIN
 90
        2
 91
        1
300
_HEADER
309
CELLSTYLE_END
300
CELLSTYLE
  1
TABLEFORMAT_BEGIN
 90
        5
170
     1
 91
        0
 92
        0
 62
   257
 93
        1
300
CONTENTFORMAT
  1
CONTENTFORMAT_BEGIN
 90
        0
 91
        0
 92
      512
 93
        0
300

 40
0.0
140
1.0
 94
        2
 62
     0
340
55
144
0.18
309
CONTENTFORMAT_END
171
     0
 94
        0
309
TABLEFORMAT_END
  1
CELLSTYLE_BEGIN
 90
        3
 91
        2
300
_DATA
309
CELLSTYLE_END
  0
XRECORD
  5
10E
102
{ACAD_REACTORS
330
10D
102
}
330
10D
100
AcDbXrecord
280
     1
102
RTVSPost2010Prop28
280
     1
102
RTVSPost2010PropOp28
 70
     1
102
RTVSPost2010Prop29
280
     1
102
RTVSPost2010PropOp29
 70
     1
102
RTVSPost2010Prop30
280
     0
102
RTVSPost2010PropOp30
 70
     1
102
RTVSPost2010Prop31
280
     0
102
RTVSPost2010PropOp31
 70
     1
102
RTVSPost2010Prop32
280
     0
102
RTVSPost2010PropOp32
 70
     1
102
RTVSPost2010Prop33
280
     0
102
RTVSPost2010PropOp33
 70
     1
102
RTVSPost2010Prop34
280
     0
102
RTVSPost2010PropOp34
 70
     1
102
RTVSPost2010Prop35
280
     0
102
RTVSPost2010PropOp35
 70
     1
102
RTVSPost2010Prop36
280
     0
102
RTVSPost2010PropOp36
 70
     1
102
RTVSPost2010Prop37
 90
       50
102
RTVSPost2010PropOp37
 70
     1
102
RTVSPost2010Prop38
140
0.0
102
RTVSPost2010PropOp38
 70
     1
102
RTVSPost2010Prop39
140
1.0
102
RTVSPost2010PropOp39
 70
     1
102
RTVSPost2010Prop40
 90
        0
102
RTVSPost2010PropOp40
 70
     1
102
RTVSPost2010Prop41ColorIndex
 90
       18
102
RTVSPost2010Prop41ColorRGB
 90
        0
102
RTVSPost2010PropOp41
 70
     1
102
RTVSPost2010Prop42
 90
       50
102
RTVSPost2010PropOp42
 70
     1
102
RTVSPost2010Prop43
 90
        3
102
RTVSPost2010PropOp43
 70
     1
102
RTVSPost2010Prop44ColorIndex
 90
        5
102
RTVSPost2010Prop44ColorRGB
 90
      255
102
RTVSPost2010PropOp44
 70
     1
102
RTVSPost2010Prop45
280
     0
102
RTVSPost2010PropOp45
 70
     1
102
RTVSPost2010Prop46
 90
       50
102
RTVSPost2010PropOp46
 70
     1
102
RTVSPost2010Prop47
 90
       50
102
RTVSPost2010PropOp47
 70
     1
102
RTVSPost2010Prop48
 90
       50
102
RTVSPost2010PropOp48
 70
     1
102
RTVSPost2010Prop49
280
     0
102
RTVSPost2010PropOp49
 70
     1
102
RTVSPost2010Prop50
 90
       50
102
RTVSPost2010PropOp50
 70
     1
102
RTVSPost2010Prop51ColorIndex
 90
      256
102
RTVSPost2010Prop51ColorRGB
 90
-16777216
102
RTVSPost2010PropOp51
 70
     0
102
RTVSPost2010Prop52
140
1.0
102
RTVSPost2010PropOp52
 70
     0
102
RTVSPost2010Prop53
 90
        2
102
RTVSPost2010PropOp53
 70
     1
102
RTVSPost2010Prop54
  1
strokes_ogs.tif
102
RTVSPost2010PropOp54
 70
     1
102
RTVSPost2010Prop55
280
     0
102
RTVSPost2010PropOp55
 70
     1
102
RTVSPost2010Prop56
140
1.0
102
RTVSPost2010PropOp56
 70
     1
102
RTVSPost2010Prop57
140
1.0
102
RTVSPost2010PropOp57
 70
     1
  0
XRECORD
  5
10C
102
{ACAD_REACTORS
330
10B
102
}
330
10B
100
AcDbXrecord
280
     1
102
RTVSPost2010Prop28
280
     0
102
RTVSPost2010PropOp28
 70
     1
102
RTVSPost2010Prop29
280
     1
102
RTVSPost2010PropOp29
 70
     1
102
RTVSPost2010Prop30
280
     1
102
RTVSPost2010PropOp30
 70
     1
102
RTVSPost2010Prop31
280
     0
102
RTVSPost2010PropOp31
 70
     1
102
RTVSPost2010Prop32
280
     0
102
RTVSPost2010PropOp32
 70
     1
102
RTVSPost2010Prop33
280
     0
102
RTVSPost2010PropOp33
 70
     1
102
RTVSPost2010Prop34
280
     0
102
RTVSPost2010PropOp34
 70
     1
102
RTVSPost2010Prop35
280
     0
102
RTVSPost2010PropOp35
 70
     1
102
RTVSPost2010Prop36
280
     0
102
RTVSPost2010PropOp36
 70
     1
102
RTVSPost2010Prop37
 90
       50
102
RTVSPost2010PropOp37
 70
     1
102
RTVSPost2010Prop38
140
0.0
102
RTVSPost2010PropOp38
 70
     1
102
RTVSPost2010Prop39
140
1.0
102
RTVSPost2010PropOp39
 70
     1
102
RTVSPost2010Prop40
 90
        0
102
RTVSPost2010PropOp40
 70
     1
102
RTVSPost2010Prop41ColorIndex
 90
       18
102
RTVSPost2010Prop41ColorRGB
 90
        0
102
RTVSPost2010PropOp41
 70
     1
102
RTVSPost2010Prop42
 90
       50
102
RTVSPost2010PropOp42
 70
     1
102
RTVSPost2010Prop43
 90
        3
102
RTVSPost2010PropOp43
 70
     1
102
RTVSPost2010Prop44ColorIndex
 90
        5
102
RTVSPost2010Prop44ColorRGB
 90
      255
102
RTVSPost2010PropOp44
 70
     1
102
RTVSPost2010Prop45
280
     0
102
RTVSPost2010PropOp45
 70
     1
102
RTVSPost2010Prop46
 90
       50
102
RTVSPost2010PropOp46
 70
     1
102
RTVSPost2010Prop47
 90
       50
102
RTVSPost2010PropOp47
 70
     1
102
RTVSPost2010Prop48
 90
       50
102
RTVSPost2010PropOp48
 70
     1
102
RTVSPost2010Prop49
280
     0
102
RTVSPost2010PropOp49
 70
     1
102
RTVSPost2010Prop50
 90
       50
102
RTVSPost2010PropOp50
 70
     1
102
RTVSPost2010Prop51ColorIndex
 90
      256
102
RTVSPost2010Prop51ColorRGB
 90
-16777216
102
RTVSPost2010PropOp51
 70
     0
102
RTVSPost2010Prop52
140
1.0
102
RTVSPost2010PropOp52
 70
     0
102
RTVSPost2010Prop53
 90
        2
102
RTVSPost2010PropOp53
 70
     1
102
RTVSPost2010Prop54
  1
strokes_ogs.tif
102
RTVSPost2010PropOp54
 70
     1
102
RTVSPost2010Prop55
280
     0
102
RTVSPost2010PropOp55
 70
     1
102
RTVSPost2010Prop56
140
1.0
102
RTVSPost2010PropOp56
 70
     1
102
RTVSPost2010Prop57
140
1.0
102
RTVSPost2010PropOp57
 70
     1
  0
XRECORD
  5
11A
102
{ACAD_REACTORS
330
119
102
}
330
119
100
AcDbXrecord
280
     1
102
RTVSPost2010Prop28
280
     0
102
RTVSPost2010PropOp28
 70
     1
102
RTVSPost2010Prop29
280
     1
102
RTVSPost2010PropOp29
 70
     1
102
RTVSPost2010Prop30
280
     1
102
RTVSPost2010PropOp30
 70
     1
102
RTVSPost2010Prop31
280
     0
102
RTVSPost2010PropOp31
 70
     1
102
RTVSPost2010Prop32
280
     0
102
RTVSPost2010PropOp32
 70
     1
102
RTVSPost2010Prop33
280
     0
102
RTVSPost2010PropOp33
 70
     1
102
RTVSPost2010Prop34
280
     0
102
RTVSPost2010PropOp34
 70
     1
102
RTVSPost2010Prop35
280
     0
102
RTVSPost2010PropOp35
 70
     1
102
RTVSPost2010Prop36
280
     0
102
RTVSPost2010PropOp36
 70
     1
102
RTVSPost2010Prop37
 90
       50
102
RTVSPost2010PropOp37
 70
     1
102
RTVSPost2010Prop38
140
0.0
102
RTVSPost2010PropOp38
 70
     1
102
RTVSPost2010Prop39
140
1.0
102
RTVSPost2010PropOp39
 70
     1
102
RTVSPost2010Prop40
 90
        0
102
RTVSPost2010PropOp40
 70
     1
102
RTVSPost2010Prop41ColorIndex
 90
       18
102
RTVSPost2010Prop41ColorRGB
 90
        0
102
RTVSPost2010PropOp41
 70
     1
102
RTVSPost2010Prop42
 90
       50
102
RTVSPost2010PropOp42
 70
     1
102
RTVSPost2010Prop43
 90
        3
102
RTVSPost2010PropOp43
 70
     1
102
RTVSPost2010Prop44ColorIndex
 90
        5
102
RTVSPost2010Prop44ColorRGB
 90
      255
102
RTVSPost2010PropOp44
 70
     1
102
RTVSPost2010Prop45
280
     0
102
RTVSPost2010PropOp45
 70
     1
102
RTVSPost2010Prop46
 90
       50
102
RTVSPost2010PropOp46
 70
     1
102
RTVSPost2010Prop47
 90
       50
102
RTVSPost2010PropOp47
 70
     1
102
RTVSPost2010Prop48
 90
       50
102
RTVSPost2010PropOp48
 70
     1
102
RTVSPost2010Prop49
280
     0
102
RTVSPost2010PropOp49
 70
     1
102
RTVSPost2010Prop50
 90
       50
102
RTVSPost2010PropOp50
 70
     1
102
RTVSPost2010Prop51ColorIndex
 90
      256
102
RTVSPost2010Prop51ColorRGB
 90
-16777216
102
RTVSPost2010PropOp51
 70
     0
102
RTVSPost2010Prop52
140
1.0
102
RTVSPost2010PropOp52
 70
     0
102
RTVSPost2010Prop53
 90
        2
102
RTVSPost2010PropOp53
 70
     1
102
RTVSPost2010Prop54
  1
strokes_ogs.tif
102
RTVSPost2010PropOp54
 70
     1
102
RTVSPost2010Prop55
280
     0
102
RTVSPost2010PropOp55
 70
     1
102
RTVSPost2010Prop56
140
1.0
102
RTVSPost2010PropOp56
 70
     1
102
RTVSPost2010Prop57
140
1.0
102
RTVSPost2010PropOp57
 70
     1
  0
XRECORD
  5
122
102
{ACAD_REACTORS
330
121
102
}
330
121
100
AcDbXrecord
280
     1
102
RTVSPost2010Prop28
280
     0
102
RTVSPost2010PropOp28
 70
     1
102
RTVSPost2010Prop29
280
     1
102
RTVSPost2010PropOp29
 70
     1
102
RTVSPost2010Prop30
280
     1
102
RTVSPost2010PropOp30
 70
     1
102
RTVSPost2010Prop31
280
     0
102
RTVSPost2010PropOp31
 70
     1
102
RTVSPost2010Prop32
280
     0
102
RTVSPost2010PropOp32
 70
     1
102
RTVSPost2010Prop33
280
     0
102
RTVSPost2010PropOp33
 70
     1
102
RTVSPost2010Prop34
280
     0
102
RTVSPost2010PropOp34
 70
     1
102
RTVSPost2010Prop35
280
     0
102
RTVSPost2010PropOp35
 70
     1
102
RTVSPost2010Prop36
280
     0
102
RTVSPost2010PropOp36
 70
     1
102
RTVSPost2010Prop37
 90
       50
102
RTVSPost2010PropOp37
 70
     1
102
RTVSPost2010Prop38
140
0.0
102
RTVSPost2010PropOp38
 70
     1
102
RTVSPost2010Prop39
140
1.0
102
RTVSPost2010PropOp39
 70
     1
102
RTVSPost2010Prop40
 90
        0
102
RTVSPost2010PropOp40
 70
     1
102
RTVSPost2010Prop41ColorIndex
 90
       18
102
RTVSPost2010Prop41ColorRGB
 90
        0
102
RTVSPost2010PropOp41
 70
     1
102
RTVSPost2010Prop42
 90
       50
102
RTVSPost2010PropOp42
 70
     1
102
RTVSPost2010Prop43
 90
        3
102
RTVSPost2010PropOp43
 70
     1
102
RTVSPost2010Prop44ColorIndex
 90
        5
102
RTVSPost2010Prop44ColorRGB
 90
      255
102
RTVSPost2010PropOp44
 70
     1
102
RTVSPost2010Prop45
280
     0
102
RTVSPost2010PropOp45
 70
     1
102
RTVSPost2010Prop46
 90
       50
102
RTVSPost2010PropOp46
 70
     1
102
RTVSPost2010Prop47
 90
       50
102
RTVSPost2010PropOp47
 70
     1
102
RTVSPost2010Prop48
 90
       50
102
RTVSPost2010PropOp48
 70
     1
102
RTVSPost2010Prop49
280
     0
102
RTVSPost2010PropOp49
 70
     1
102
RTVSPost2010Prop50
 90
       50
102
RTVSPost2010PropOp50
 70
     1
102
RTVSPost2010Prop51ColorIndex
 90
      256
102
RTVSPost2010Prop51ColorRGB
 90
-16777216
102
RTVSPost2010PropOp51
 70
     0
102
RTVSPost2010Prop52
140
1.0
102
RTVSPost2010PropOp52
 70
     0
102
RTVSPost2010Prop53
 90
        2
102
RTVSPost2010PropOp53
 70
     1
102
RTVSPost2010Prop54
  1
strokes_ogs.tif
102
RTVSPost2010PropOp54
 70
     1
102
RTVSPost2010Prop55
280
     0
102
RTVSPost2010PropOp55
 70
     1
102
RTVSPost2010Prop56
140
1.0
102
RTVSPost2010PropOp56
 70
     1
102
RTVSPost2010Prop57
140
1.0
102
RTVSPost2010PropOp57
 70
     1
  0
XRECORD
  5
114
102
{ACAD_REACTORS
330
113
102
}
330
113
100
AcDbXrecord
280
     1
102
RTVSPost2010Prop28
280
     0
102
RTVSPost2010PropOp28
 70
     1
102
RTVSPost2010Prop29
280
     1
102
RTVSPost2010PropOp29
 70
     1
102
RTVSPost2010Prop30
280
     1
102
RTVSPost2010PropOp30
 70
     1
102
RTVSPost2010Prop31
280
     0
102
RTVSPost2010PropOp31
 70
     1
102
RTVSPost2010Prop32
280
     0
102
RTVSPost2010PropOp32
 70
     1
102
RTVSPost2010Prop33
280
     0
102
RTVSPost2010PropOp33
 70
     1
102
RTVSPost2010Prop34
280
     0
102
RTVSPost2010PropOp34
 70
     1
102
RTVSPost2010Prop35
280
     0
102
RTVSPost2010PropOp35
 70
     1
102
RTVSPost2010Prop36
280
     0
102
RTVSPost2010PropOp36
 70
     1
102
RTVSPost2010Prop37
 90
       50
102
RTVSPost2010PropOp37
 70
     1
102
RTVSPost2010Prop38
140
0.0
102
RTVSPost2010PropOp38
 70
     1
102
RTVSPost2010Prop39
140
1.0
102
RTVSPost2010PropOp39
 70
     1
102
RTVSPost2010Prop40
 90
        0
102
RTVSPost2010PropOp40
 70
     1
102
RTVSPost2010Prop41ColorIndex
 90
       18
102
RTVSPost2010Prop41ColorRGB
 90
        0
102
RTVSPost2010PropOp41
 70
     1
102
RTVSPost2010Prop42
 90
       50
102
RTVSPost2010PropOp42
 70
     1
102
RTVSPost2010Prop43
 90
        3
102
RTVSPost2010PropOp43
 70
     1
102
RTVSPost2010Prop44ColorIndex
 90
        5
102
RTVSPost2010Prop44ColorRGB
 90
      255
102
RTVSPost2010PropOp44
 70
     1
102
RTVSPost2010Prop45
280
     0
102
RTVSPost2010PropOp45
 70
     1
102
RTVSPost2010Prop46
 90
       50
102
RTVSPost2010PropOp46
 70
     1
102
RTVSPost2010Prop47
 90
       50
102
RTVSPost2010PropOp47
 70
     1
102
RTVSPost2010Prop48
 90
       50
102
RTVSPost2010PropOp48
 70
     1
102
RTVSPost2010Prop49
280
     0
102
RTVSPost2010PropOp49
 70
     1
102
RTVSPost2010Prop50
 90
       50
102
RTVSPost2010PropOp50
 70
     1
102
RTVSPost2010Prop51ColorIndex
 90
      256
102
RTVSPost2010Prop51ColorRGB
 90
-16777216
102
RTVSPost2010PropOp51
 70
     0
102
RTVSPost2010Prop52
140
1.0
102
RTVSPost2010PropOp52
 70
     0
102
RTVSPost2010Prop53
 90
        2
102
RTVSPost2010PropOp53
 70
     1
102
RTVSPost2010Prop54
  1
strokes_ogs.tif
102
RTVSPost2010PropOp54
 70
     1
102
RTVSPost2010Prop55
280
     0
102
RTVSPost2010PropOp55
 70
     1
102
RTVSPost2010Prop56
140
1.0
102
RTVSPost2010PropOp56
 70
     1
102
RTVSPost2010Prop57
140
1.0
102
RTVSPost2010PropOp57
 70
     1
  0
XRECORD
  5
118
102
{ACAD_REACTORS
330
117
102
}
330
117
100
AcDbXrecord
280
     1
102
RTVSPost2010Prop28
280
     0
102
RTVSPost2010PropOp28
 70
     1
102
RTVSPost2010Prop29
280
     1
102
RTVSPost2010PropOp29
 70
     1
102
RTVSPost2010Prop30
280
     1
102
RTVSPost2010PropOp30
 70
     1
102
RTVSPost2010Prop31
280
     0
102
RTVSPost2010PropOp31
 70
     1
102
RTVSPost2010Prop32
280
     0
102
RTVSPost2010PropOp32
 70
     1
102
RTVSPost2010Prop33
280
     0
102
RTVSPost2010PropOp33
 70
     1
102
RTVSPost2010Prop34
280
     0
102
RTVSPost2010PropOp34
 70
     1
102
RTVSPost2010Prop35
280
     0
102
RTVSPost2010PropOp35
 70
     1
102
RTVSPost2010Prop36
280
     0
102
RTVSPost2010PropOp36
 70
     1
102
RTVSPost2010Prop37
 90
       50
102
RTVSPost2010PropOp37
 70
     1
102
RTVSPost2010Prop38
140
0.0
102
RTVSPost2010PropOp38
 70
     1
102
RTVSPost2010Prop39
140
1.0
102
RTVSPost2010PropOp39
 70
     1
102
RTVSPost2010Prop40
 90
        0
102
RTVSPost2010PropOp40
 70
     1
102
RTVSPost2010Prop41ColorIndex
 90
       18
102
RTVSPost2010Prop41ColorRGB
 90
        0
102
RTVSPost2010PropOp41
 70
     1
102
RTVSPost2010Prop42
 90
       50
102
RTVSPost2010PropOp42
 70
     1
102
RTVSPost2010Prop43
 90
        3
102
RTVSPost2010PropOp43
 70
     1
102
RTVSPost2010Prop44ColorIndex
 90
        5
102
RTVSPost2010Prop44ColorRGB
 90
      255
102
RTVSPost2010PropOp44
 70
     1
102
RTVSPost2010Prop45
280
     0
102
RTVSPost2010PropOp45
 70
     1
102
RTVSPost2010Prop46
 90
       50
102
RTVSPost2010PropOp46
 70
     1
102
RTVSPost2010Prop47
 90
       50
102
RTVSPost2010PropOp47
 70
     1
102
RTVSPost2010Prop48
 90
       50
102
RTVSPost2010PropOp48
 70
     1
102
RTVSPost2010Prop49
280
     0
102
RTVSPost2010PropOp49
 70
     1
102
RTVSPost2010Prop50
 90
       50
102
RTVSPost2010PropOp50
 70
     1
102
RTVSPost2010Prop51ColorIndex
 90
      256
102
RTVSPost2010Prop51ColorRGB
 90
-16777216
102
RTVSPost2010PropOp51
 70
     0
102
RTVSPost2010Prop52
140
1.0
102
RTVSPost2010PropOp52
 70
     0
102
RTVSPost2010Prop53
 90
        2
102
RTVSPost2010PropOp53
 70
     1
102
RTVSPost2010Prop54
  1
strokes_ogs.tif
102
RTVSPost2010PropOp54
 70
     1
102
RTVSPost2010Prop55
280
     0
102
RTVSPost2010PropOp55
 70
     1
102
RTVSPost2010Prop56
140
1.0
102
RTVSPost2010PropOp56
 70
     1
102
RTVSPost2010Prop57
140
1.0
102
RTVSPost2010PropOp57
 70
     1
  0
XRECORD
  5
132
102
{ACAD_REACTORS
330
131
102
}
330
131
100
AcDbXrecord
280
     1
102
RTVSPost2010Prop28
280
     0
102
RTVSPost2010PropOp28
 70
     0
102
RTVSPost2010Prop29
280
     1
102
RTVSPost2010PropOp29
 70
     0
102
RTVSPost2010Prop30
280
     1
102
RTVSPost2010PropOp30
 70
     0
102
RTVSPost2010Prop31
280
     0
102
RTVSPost2010PropOp31
 70
     0
102
RTVSPost2010Prop32
280
     0
102
RTVSPost2010PropOp32
 70
     0
102
RTVSPost2010Prop33
280
     0
102
RTVSPost2010PropOp33
 70
     0
102
RTVSPost2010Prop34
280
     0
102
RTVSPost2010PropOp34
 70
     0
102
RTVSPost2010Prop35
280
     0
102
RTVSPost2010PropOp35
 70
     0
102
RTVSPost2010Prop36
280
     0
102
RTVSPost2010PropOp36
 70
     0
102
RTVSPost2010Prop37
 90
       50
102
RTVSPost2010PropOp37
 70
     0
102
RTVSPost2010Prop38
140
0.0
102
RTVSPost2010PropOp38
 70
     0
102
RTVSPost2010Prop39
140
1.0
102
RTVSPost2010PropOp39
 70
     0
102
RTVSPost2010Prop40
 90
        0
102
RTVSPost2010PropOp40
 70
     0
102
RTVSPost2010Prop41ColorIndex
 90
       18
102
RTVSPost2010Prop41ColorRGB
 90
        0
102
RTVSPost2010PropOp41
 70
     0
102
RTVSPost2010Prop42
 90
       50
102
RTVSPost2010PropOp42
 70
     0
102
RTVSPost2010Prop43
 90
        3
102
RTVSPost2010PropOp43
 70
     0
102
RTVSPost2010Prop44ColorIndex
 90
        5
102
RTVSPost2010Prop44ColorRGB
 90
      255
102
RTVSPost2010PropOp44
 70
     0
102
RTVSPost2010Prop45
280
     0
102
RTVSPost2010PropOp45
 70
     0
102
RTVSPost2010Prop46
 90
       50
102
RTVSPost2010PropOp46
 70
     0
102
RTVSPost2010Prop47
 90
       50
102
RTVSPost2010PropOp47
 70
     0
102
RTVSPost2010Prop48
 90
       50
102
RTVSPost2010PropOp48
 70
     0
102
RTVSPost2010Prop49
280
     0
102
RTVSPost2010PropOp49
 70
     0
102
RTVSPost2010Prop50
 90
       50
102
RTVSPost2010PropOp50
 70
     0
102
RTVSPost2010Prop51ColorIndex
 90
      256
102
RTVSPost2010Prop51ColorRGB
 90
-16777216
102
RTVSPost2010PropOp51
 70
     0
102
RTVSPost2010Prop52
140
1.0
102
RTVSPost2010PropOp52
 70
     0
102
RTVSPost2010Prop53
 90
        2
102
RTVSPost2010PropOp53
 70
     0
102
RTVSPost2010Prop54
  1
strokes_ogs.tif
102
RTVSPost2010PropOp54
 70
     0
102
RTVSPost2010Prop55
280
     0
102
RTVSPost2010PropOp55
 70
     0
102
RTVSPost2010Prop56
140
1.0
102
RTVSPost2010PropOp56
 70
     0
102
RTVSPost2010Prop57
140
1.0
102
RTVSPost2010PropOp57
 70
     0
  0
XRECORD
  5
120
102
{ACAD_REACTORS
330
11F
102
}
330
11F
100
AcDbXrecord
280
     1
102
RTVSPost2010Prop28
280
     0
102
RTVSPost2010PropOp28
 70
     1
102
RTVSPost2010Prop29
280
     1
102
RTVSPost2010PropOp29
 70
     1
102
RTVSPost2010Prop30
280
     1
102
RTVSPost2010PropOp30
 70
     1
102
RTVSPost2010Prop31
280
     0
102
RTVSPost2010PropOp31
 70
     1
102
RTVSPost2010Prop32
280
     0
102
RTVSPost2010PropOp32
 70
     1
102
RTVSPost2010Prop33
280
     0
102
RTVSPost2010PropOp33
 70
     1
102
RTVSPost2010Prop34
280
     0
102
RTVSPost2010PropOp34
 70
     1
102
RTVSPost2010Prop35
280
     0
102
RTVSPost2010PropOp35
 70
     1
102
RTVSPost2010Prop36
280
     0
102
RTVSPost2010PropOp36
 70
     1
102
RTVSPost2010Prop37
 90
       50
102
RTVSPost2010PropOp37
 70
     1
102
RTVSPost2010Prop38
140
0.0
102
RTVSPost2010PropOp38
 70
     1
102
RTVSPost2010Prop39
140
1.0
102
RTVSPost2010PropOp39
 70
     1
102
RTVSPost2010Prop40
 90
        0
102
RTVSPost2010PropOp40
 70
     1
102
RTVSPost2010Prop41ColorIndex
 90
       18
102
RTVSPost2010Prop41ColorRGB
 90
        0
102
RTVSPost2010PropOp41
 70
     1
102
RTVSPost2010Prop42
 90
       50
102
RTVSPost2010PropOp42
 70
     1
102
RTVSPost2010Prop43
 90
        3
102
RTVSPost2010PropOp43
 70
     1
102
RTVSPost2010Prop44ColorIndex
 90
        5
102
RTVSPost2010Prop44ColorRGB
 90
      255
102
RTVSPost2010PropOp44
 70
     1
102
RTVSPost2010Prop45
280
     0
102
RTVSPost2010PropOp45
 70
     1
102
RTVSPost2010Prop46
 90
       50
102
RTVSPost2010PropOp46
 70
     1
102
RTVSPost2010Prop47
 90
       50
102
RTVSPost2010PropOp47
 70
     1
102
RTVSPost2010Prop48
 90
       50
102
RTVSPost2010PropOp48
 70
     1
102
RTVSPost2010Prop49
280
     0
102
RTVSPost2010PropOp49
 70
     1
102
RTVSPost2010Prop50
 90
       50
102
RTVSPost2010PropOp50
 70
     1
102
RTVSPost2010Prop51ColorIndex
 90
      256
102
RTVSPost2010Prop51ColorRGB
 90
-16777216
102
RTVSPost2010PropOp51
 70
     0
102
RTVSPost2010Prop52
140
1.0
102
RTVSPost2010PropOp52
 70
     0
102
RTVSPost2010Prop53
 90
        2
102
RTVSPost2010PropOp53
 70
     1
102
RTVSPost2010Prop54
  1
strokes_ogs.tif
102
RTVSPost2010PropOp54
 70
     1
102
RTVSPost2010Prop55
280
     0
102
RTVSPost2010PropOp55
 70
     1
102
RTVSPost2010Prop56
140
1.0
102
RTVSPost2010PropOp56
 70
     1
102
RTVSPost2010Prop57
140
1.0
102
RTVSPost2010PropOp57
 70
     1
  0
XRECORD
  5
104
102
{ACAD_REACTORS
330
103
102
}
330
103
100
AcDbXrecord
280
     1
102
RTVSPost2010Prop28
280
     0
102
RTVSPost2010PropOp28
 70
     1
102
RTVSPost2010Prop29
280
     1
102
RTVSPost2010PropOp29
 70
     1
102
RTVSPost2010Prop30
280
     1
102
RTVSPost2010PropOp30
 70
     1
102
RTVSPost2010Prop31
280
     0
102
RTVSPost2010PropOp31
 70
     1
102
RTVSPost2010Prop32
280
     0
102
RTVSPost2010PropOp32
 70
     1
102
RTVSPost2010Prop33
280
     0
102
RTVSPost2010PropOp33
 70
     1
102
RTVSPost2010Prop34
280
     0
102
RTVSPost2010PropOp34
 70
     1
102
RTVSPost2010Prop35
280
     0
102
RTVSPost2010PropOp35
 70
     1
102
RTVSPost2010Prop36
280
     0
102
RTVSPost2010PropOp36
 70
     1
102
RTVSPost2010Prop37
 90
       50
102
RTVSPost2010PropOp37
 70
     1
102
RTVSPost2010Prop38
140
0.0
102
RTVSPost2010PropOp38
 70
     1
102
RTVSPost2010Prop39
140
1.0
102
RTVSPost2010PropOp39
 70
     1
102
RTVSPost2010Prop40
 90
        0
102
RTVSPost2010PropOp40
 70
     1
102
RTVSPost2010Prop41ColorIndex
 90
       18
102
RTVSPost2010Prop41ColorRGB
 90
        0
102
RTVSPost2010PropOp41
 70
     1
102
RTVSPost2010Prop42
 90
       50
102
RTVSPost2010PropOp42
 70
     1
102
RTVSPost2010Prop43
 90
        3
102
RTVSPost2010PropOp43
 70
     1
102
RTVSPost2010Prop44ColorIndex
 90
        5
102
RTVSPost2010Prop44ColorRGB
 90
      255
102
RTVSPost2010PropOp44
 70
     1
102
RTVSPost2010Prop45
280
     0
102
RTVSPost2010PropOp45
 70
     1
102
RTVSPost2010Prop46
 90
       50
102
RTVSPost2010PropOp46
 70
     1
102
RTVSPost2010Prop47
 90
       50
102
RTVSPost2010PropOp47
 70
     1
102
RTVSPost2010Prop48
 90
       50
102
RTVSPost2010PropOp48
 70
     1
102
RTVSPost2010Prop49
280
     0
102
RTVSPost2010PropOp49
 70
     1
102
RTVSPost2010Prop50
 90
       50
102
RTVSPost2010PropOp50
 70
     1
102
RTVSPost2010Prop51ColorIndex
 90
      256
102
RTVSPost2010Prop51ColorRGB
 90
-16777216
102
RTVSPost2010PropOp51
 70
     0
102
RTVSPost2010Prop52
140
1.0
102
RTVSPost2010PropOp52
 70
     0
102
RTVSPost2010Prop53
 90
        2
102
RTVSPost2010PropOp53
 70
     1
102
RTVSPost2010Prop54
  1
strokes_ogs.tif
102
RTVSPost2010PropOp54
 70
     1
102
RTVSPost2010Prop55
280
     0
102
RTVSPost2010PropOp55
 70
     1
102
RTVSPost2010Prop56
140
1.0
102
RTVSPost2010PropOp56
 70
     1
102
RTVSPost2010Prop57
140
1.0
102
RTVSPost2010PropOp57
 70
     1
  0
XRECORD
  5
106
102
{ACAD_REACTORS
330
105
102
}
330
105
100
AcDbXrecord
280
     1
102
RTVSPost2010Prop28
280
     0
102
RTVSPost2010PropOp28
 70
     1
102
RTVSPost2010Prop29
280
     1
102
RTVSPost2010PropOp29
 70
     1
102
RTVSPost2010Prop30
280
     1
102
RTVSPost2010PropOp30
 70
     1
102
RTVSPost2010Prop31
280
     0
102
RTVSPost2010PropOp31
 70
     1
102
RTVSPost2010Prop32
280
     0
102
RTVSPost2010PropOp32
 70
     1
102
RTVSPost2010Prop33
280
     0
102
RTVSPost2010PropOp33
 70
     1
102
RTVSPost2010Prop34
280
     0
102
RTVSPost2010PropOp34
 70
     1
102
RTVSPost2010Prop35
280
     0
102
RTVSPost2010PropOp35
 70
     1
102
RTVSPost2010Prop36
280
     0
102
RTVSPost2010PropOp36
 70
     1
102
RTVSPost2010Prop37
 90
       50
102
RTVSPost2010PropOp37
 70
     1
102
RTVSPost2010Prop38
140
0.0
102
RTVSPost2010PropOp38
 70
     1
102
RTVSPost2010Prop39
140
1.0
102
RTVSPost2010PropOp39
 70
     1
102
RTVSPost2010Prop40
 90
        0
102
RTVSPost2010PropOp40
 70
     1
102
RTVSPost2010Prop41ColorIndex
 90
       18
102
RTVSPost2010Prop41ColorRGB
 90
        0
102
RTVSPost2010PropOp41
 70
     1
102
RTVSPost2010Prop42
 90
       50
102
RTVSPost2010PropOp42
 70
     1
102
RTVSPost2010Prop43
 90
        3
102
RTVSPost2010PropOp43
 70
     1
102
RTVSPost2010Prop44ColorIndex
 90
        5
102
RTVSPost2010Prop44ColorRGB
 90
      255
102
RTVSPost2010PropOp44
 70
     1
102
RTVSPost2010Prop45
280
     0
102
RTVSPost2010PropOp45
 70
     1
102
RTVSPost2010Prop46
 90
       50
102
RTVSPost2010PropOp46
 70
     1
102
RTVSPost2010Prop47
 90
       50
102
RTVSPost2010PropOp47
 70
     1
102
RTVSPost2010Prop48
 90
       50
102
RTVSPost2010PropOp48
 70
     1
102
RTVSPost2010Prop49
280
     0
102
RTVSPost2010PropOp49
 70
     1
102
RTVSPost2010Prop50
 90
       50
102
RTVSPost2010PropOp50
 70
     1
102
RTVSPost2010Prop51ColorIndex
 90
      256
102
RTVSPost2010Prop51ColorRGB
 90
-16777216
102
RTVSPost2010PropOp51
 70
     0
102
RTVSPost2010Prop52
140
1.0
102
RTVSPost2010PropOp52
 70
     0
102
RTVSPost2010Prop53
 90
        2
102
RTVSPost2010PropOp53
 70
     1
102
RTVSPost2010Prop54
  1
strokes_ogs.tif
102
RTVSPost2010PropOp54
 70
     1
102
RTVSPost2010Prop55
280
     0
102
RTVSPost2010PropOp55
 70
     1
102
RTVSPost2010Prop56
140
1.0
102
RTVSPost2010PropOp56
 70
     1
102
RTVSPost2010Prop57
140
1.0
102
RTVSPost2010PropOp57
 70
     1
  0
XRECORD
  5
108
102
{ACAD_REACTORS
330
107
102
}
330
107
100
AcDbXrecord
280
     1
102
RTVSPost2010Prop28
280
     0
102
RTVSPost2010PropOp28
 70
     1
102
RTVSPost2010Prop29
280
     1
102
RTVSPost2010PropOp29
 70
     1
102
RTVSPost2010Prop30
280
     1
102
RTVSPost2010PropOp30
 70
     1
102
RTVSPost2010Prop31
280
     0
102
RTVSPost2010PropOp31
 70
     1
102
RTVSPost2010Prop32
280
     0
102
RTVSPost2010PropOp32
 70
     1
102
RTVSPost2010Prop33
280
     0
102
RTVSPost2010PropOp33
 70
     1
102
RTVSPost2010Prop34
280
     0
102
RTVSPost2010PropOp34
 70
     1
102
RTVSPost2010Prop35
280
     0
102
RTVSPost2010PropOp35
 70
     1
102
RTVSPost2010Prop36
280
     0
102
RTVSPost2010PropOp36
 70
     1
102
RTVSPost2010Prop37
 90
       50
102
RTVSPost2010PropOp37
 70
     1
102
RTVSPost2010Prop38
140
0.0
102
RTVSPost2010PropOp38
 70
     1
102
RTVSPost2010Prop39
140
1.0
102
RTVSPost2010PropOp39
 70
     1
102
RTVSPost2010Prop40
 90
        0
102
RTVSPost2010PropOp40
 70
     1
102
RTVSPost2010Prop41ColorIndex
 90
       18
102
RTVSPost2010Prop41ColorRGB
 90
        0
102
RTVSPost2010PropOp41
 70
     1
102
RTVSPost2010Prop42
 90
       50
102
RTVSPost2010PropOp42
 70
     1
102
RTVSPost2010Prop43
 90
        3
102
RTVSPost2010PropOp43
 70
     1
102
RTVSPost2010Prop44ColorIndex
 90
        5
102
RTVSPost2010Prop44ColorRGB
 90
      255
102
RTVSPost2010PropOp44
 70
     1
102
RTVSPost2010Prop45
280
     0
102
RTVSPost2010PropOp45
 70
     1
102
RTVSPost2010Prop46
 90
       50
102
RTVSPost2010PropOp46
 70
     1
102
RTVSPost2010Prop47
 90
       50
102
RTVSPost2010PropOp47
 70
     1
102
RTVSPost2010Prop48
 90
       50
102
RTVSPost2010PropOp48
 70
     1
102
RTVSPost2010Prop49
280
     0
102
RTVSPost2010PropOp49
 70
     1
102
RTVSPost2010Prop50
 90
       50
102
RTVSPost2010PropOp50
 70
     1
102
RTVSPost2010Prop51ColorIndex
 90
      256
102
RTVSPost2010Prop51ColorRGB
 90
-16777216
102
RTVSPost2010PropOp51
 70
     0
102
RTVSPost2010Prop52
140
1.0
102
RTVSPost2010PropOp52
 70
     0
102
RTVSPost2010Prop53
 90
        2
102
RTVSPost2010PropOp53
 70
     1
102
RTVSPost2010Prop54
  1
strokes_ogs.tif
102
RTVSPost2010PropOp54
 70
     1
102
RTVSPost2010Prop55
280
     0
102
RTVSPost2010PropOp55
 70
     1
102
RTVSPost2010Prop56
140
1.0
102
RTVSPost2010PropOp56
 70
     1
102
RTVSPost2010Prop57
140
1.0
102
RTVSPost2010PropOp57
 70
     1
  0
XRECORD
  5
10A
102
{ACAD_REACTORS
330
109
102
}
330
109
100
AcDbXrecord
280
     1
102
RTVSPost2010Prop28
280
     0
102
RTVSPost2010PropOp28
 70
     1
102
RTVSPost2010Prop29
280
     1
102
RTVSPost2010PropOp29
 70
     1
102
RTVSPost2010Prop30
280
     1
102
RTVSPost2010PropOp30
 70
     1
102
RTVSPost2010Prop31
280
     0
102
RTVSPost2010PropOp31
 70
     1
102
RTVSPost2010Prop32
280
     0
102
RTVSPost2010PropOp32
 70
     1
102
RTVSPost2010Prop33
280
     0
102
RTVSPost2010PropOp33
 70
     1
102
RTVSPost2010Prop34
280
     0
102
RTVSPost2010PropOp34
 70
     1
102
RTVSPost2010Prop35
280
     0
102
RTVSPost2010PropOp35
 70
     1
102
RTVSPost2010Prop36
280
     0
102
RTVSPost2010PropOp36
 70
     1
102
RTVSPost2010Prop37
 90
       50
102
RTVSPost2010PropOp37
 70
     1
102
RTVSPost2010Prop38
140
0.0
102
RTVSPost2010PropOp38
 70
     1
102
RTVSPost2010Prop39
140
1.0
102
RTVSPost2010PropOp39
 70
     1
102
RTVSPost2010Prop40
 90
        0
102
RTVSPost2010PropOp40
 70
     1
102
RTVSPost2010Prop41ColorIndex
 90
       18
102
RTVSPost2010Prop41ColorRGB
 90
        0
102
RTVSPost2010PropOp41
 70
     1
102
RTVSPost2010Prop42
 90
       50
102
RTVSPost2010PropOp42
 70
     1
102
RTVSPost2010Prop43
 90
        3
102
RTVSPost2010PropOp43
 70
     1
102
RTVSPost2010Prop44ColorIndex
 90
        5
102
RTVSPost2010Prop44ColorRGB
 90
      255
102
RTVSPost2010PropOp44
 70
     1
102
RTVSPost2010Prop45
280
     0
102
RTVSPost2010PropOp45
 70
     1
102
RTVSPost2010Prop46
 90
       50
102
RTVSPost2010PropOp46
 70
     1
102
RTVSPost2010Prop47
 90
       50
102
RTVSPost2010PropOp47
 70
     1
102
RTVSPost2010Prop48
 90
       50
102
RTVSPost2010PropOp48
 70
     1
102
RTVSPost2010Prop49
280
     0
102
RTVSPost2010PropOp49
 70
     1
102
RTVSPost2010Prop50
 90
       50
102
RTVSPost2010PropOp50
 70
     1
102
RTVSPost2010Prop51ColorIndex
 90
      256
102
RTVSPost2010Prop51ColorRGB
 90
-16777216
102
RTVSPost2010PropOp51
 70
     0
102
RTVSPost2010Prop52
140
1.0
102
RTVSPost2010PropOp52
 70
     0
102
RTVSPost2010Prop53
 90
        2
102
RTVSPost2010PropOp53
 70
     1
102
RTVSPost2010Prop54
  1
strokes_ogs.tif
102
RTVSPost2010PropOp54
 70
     1
102
RTVSPost2010Prop55
280
     0
102
RTVSPost2010PropOp55
 70
     1
102
RTVSPost2010Prop56
140
1.0
102
RTVSPost2010PropOp56
 70
     1
102
RTVSPost2010Prop57
140
1.0
102
RTVSPost2010PropOp57
 70
     1
  0
XRECORD
  5
112
102
{ACAD_REACTORS
330
111
102
}
330
111
100
AcDbXrecord
280
     1
102
RTVSPost2010Prop28
280
     0
102
RTVSPost2010PropOp28
 70
     1
102
RTVSPost2010Prop29
280
     1
102
RTVSPost2010PropOp29
 70
     1
102
RTVSPost2010Prop30
280
     1
102
RTVSPost2010PropOp30
 70
     1
102
RTVSPost2010Prop31
280
     0
102
RTVSPost2010PropOp31
 70
     1
102
RTVSPost2010Prop32
280
     0
102
RTVSPost2010PropOp32
 70
     1
102
RTVSPost2010Prop33
280
     0
102
RTVSPost2010PropOp33
 70
     1
102
RTVSPost2010Prop34
280
     0
102
RTVSPost2010PropOp34
 70
     1
102
RTVSPost2010Prop35
280
     0
102
RTVSPost2010PropOp35
 70
     1
102
RTVSPost2010Prop36
280
     0
102
RTVSPost2010PropOp36
 70
     1
102
RTVSPost2010Prop37
 90
       50
102
RTVSPost2010PropOp37
 70
     1
102
RTVSPost2010Prop38
140
0.0
102
RTVSPost2010PropOp38
 70
     1
102
RTVSPost2010Prop39
140
1.0
102
RTVSPost2010PropOp39
 70
     1
102
RTVSPost2010Prop40
 90
        0
102
RTVSPost2010PropOp40
 70
     1
102
RTVSPost2010Prop41ColorIndex
 90
       18
102
RTVSPost2010Prop41ColorRGB
 90
        0
102
RTVSPost2010PropOp41
 70
     1
102
RTVSPost2010Prop42
 90
       50
102
RTVSPost2010PropOp42
 70
     1
102
RTVSPost2010Prop43
 90
        3
102
RTVSPost2010PropOp43
 70
     1
102
RTVSPost2010Prop44ColorIndex
 90
        5
102
RTVSPost2010Prop44ColorRGB
 90
      255
102
RTVSPost2010PropOp44
 70
     1
102
RTVSPost2010Prop45
280
     0
102
RTVSPost2010PropOp45
 70
     1
102
RTVSPost2010Prop46
 90
       50
102
RTVSPost2010PropOp46
 70
     1
102
RTVSPost2010Prop47
 90
       50
102
RTVSPost2010PropOp47
 70
     1
102
RTVSPost2010Prop48
 90
       50
102
RTVSPost2010PropOp48
 70
     1
102
RTVSPost2010Prop49
280
     0
102
RTVSPost2010PropOp49
 70
     1
102
RTVSPost2010Prop50
 90
       50
102
RTVSPost2010PropOp50
 70
     1
102
RTVSPost2010Prop51ColorIndex
 90
      256
102
RTVSPost2010Prop51ColorRGB
 90
-16777216
102
RTVSPost2010PropOp51
 70
     0
102
RTVSPost2010Prop52
140
1.0
102
RTVSPost2010PropOp52
 70
     0
102
RTVSPost2010Prop53
 90
        2
102
RTVSPost2010PropOp53
 70
     1
102
RTVSPost2010Prop54
  1
strokes_ogs.tif
102
RTVSPost2010PropOp54
 70
     1
102
RTVSPost2010Prop55
280
     0
102
RTVSPost2010PropOp55
 70
     1
102
RTVSPost2010Prop56
140
1.0
102
RTVSPost2010PropOp56
 70
     1
102
RTVSPost2010Prop57
140
1.0
102
RTVSPost2010PropOp57
 70
     1
  0
XRECORD
  5
12E
102
{ACAD_REACTORS
330
12D
102
}
330
12D
100
AcDbXrecord
280
     1
102
RTVSPost2010Prop28
280
     0
102
RTVSPost2010PropOp28
 70
     0
102
RTVSPost2010Prop29
280
     1
102
RTVSPost2010PropOp29
 70
     0
102
RTVSPost2010Prop30
280
     1
102
RTVSPost2010PropOp30
 70
     0
102
RTVSPost2010Prop31
280
     0
102
RTVSPost2010PropOp31
 70
     0
102
RTVSPost2010Prop32
280
     0
102
RTVSPost2010PropOp32
 70
     0
102
RTVSPost2010Prop33
280
     0
102
RTVSPost2010PropOp33
 70
     0
102
RTVSPost2010Prop34
280
     0
102
RTVSPost2010PropOp34
 70
     0
102
RTVSPost2010Prop35
280
     0
102
RTVSPost2010PropOp35
 70
     0
102
RTVSPost2010Prop36
280
     0
102
RTVSPost2010PropOp36
 70
     0
102
RTVSPost2010Prop37
 90
       50
102
RTVSPost2010PropOp37
 70
     0
102
RTVSPost2010Prop38
140
0.0
102
RTVSPost2010PropOp38
 70
     0
102
RTVSPost2010Prop39
140
1.0
102
RTVSPost2010PropOp39
 70
     0
102
RTVSPost2010Prop40
 90
        0
102
RTVSPost2010PropOp40
 70
     0
102
RTVSPost2010Prop41ColorIndex
 90
       18
102
RTVSPost2010Prop41ColorRGB
 90
        0
102
RTVSPost2010PropOp41
 70
     0
102
RTVSPost2010Prop42
 90
       50
102
RTVSPost2010PropOp42
 70
     0
102
RTVSPost2010Prop43
 90
        3
102
RTVSPost2010PropOp43
 70
     0
102
RTVSPost2010Prop44ColorIndex
 90
        5
102
RTVSPost2010Prop44ColorRGB
 90
      255
102
RTVSPost2010PropOp44
 70
     0
102
RTVSPost2010Prop45
280
     0
102
RTVSPost2010PropOp45
 70
     0
102
RTVSPost2010Prop46
 90
       50
102
RTVSPost2010PropOp46
 70
     0
102
RTVSPost2010Prop47
 90
       50
102
RTVSPost2010PropOp47
 70
     0
102
RTVSPost2010Prop48
 90
       50
102
RTVSPost2010PropOp48
 70
     0
102
RTVSPost2010Prop49
280
     0
102
RTVSPost2010PropOp49
 70
     0
102
RTVSPost2010Prop50
 90
       50
102
RTVSPost2010PropOp50
 70
     0
102
RTVSPost2010Prop51ColorIndex
 90
      256
102
RTVSPost2010Prop51ColorRGB
 90
-16777216
102
RTVSPost2010PropOp51
 70
     0
102
RTVSPost2010Prop52
140
1.0
102
RTVSPost2010PropOp52
 70
     0
102
RTVSPost2010Prop53
 90
        2
102
RTVSPost2010PropOp53
 70
     0
102
RTVSPost2010Prop54
  1
strokes_ogs.tif
102
RTVSPost2010PropOp54
 70
     0
102
RTVSPost2010Prop55
280
     0
102
RTVSPost2010PropOp55
 70
     0
102
RTVSPost2010Prop56
140
1.0
102
RTVSPost2010PropOp56
 70
     0
102
RTVSPost2010Prop57
140
1.0
102
RTVSPost2010PropOp57
 70
     0
  0
XRECORD
  5
11E
102
{ACAD_REACTORS
330
11D
102
}
330
11D
100
AcDbXrecord
280
     1
102
RTVSPost2010Prop28
280
     0
102
RTVSPost2010PropOp28
 70
     1
102
RTVSPost2010Prop29
280
     1
102
RTVSPost2010PropOp29
 70
     1
102
RTVSPost2010Prop30
280
     1
102
RTVSPost2010PropOp30
 70
     1
102
RTVSPost2010Prop31
280
     0
102
RTVSPost2010PropOp31
 70
     1
102
RTVSPost2010Prop32
280
     0
102
RTVSPost2010PropOp32
 70
     1
102
RTVSPost2010Prop33
280
     0
102
RTVSPost2010PropOp33
 70
     1
102
RTVSPost2010Prop34
280
     0
102
RTVSPost2010PropOp34
 70
     1
102
RTVSPost2010Prop35
280
     0
102
RTVSPost2010PropOp35
 70
     1
102
RTVSPost2010Prop36
280
     0
102
RTVSPost2010PropOp36
 70
     1
102
RTVSPost2010Prop37
 90
       50
102
RTVSPost2010PropOp37
 70
     1
102
RTVSPost2010Prop38
140
0.0
102
RTVSPost2010PropOp38
 70
     1
102
RTVSPost2010Prop39
140
1.0
102
RTVSPost2010PropOp39
 70
     1
102
RTVSPost2010Prop40
 90
        0
102
RTVSPost2010PropOp40
 70
     1
102
RTVSPost2010Prop41ColorIndex
 90
       18
102
RTVSPost2010Prop41ColorRGB
 90
        0
102
RTVSPost2010PropOp41
 70
     1
102
RTVSPost2010Prop42
 90
       50
102
RTVSPost2010PropOp42
 70
     1
102
RTVSPost2010Prop43
 90
        3
102
RTVSPost2010PropOp43
 70
     1
102
RTVSPost2010Prop44ColorIndex
 90
        5
102
RTVSPost2010Prop44ColorRGB
 90
      255
102
RTVSPost2010PropOp44
 70
     1
102
RTVSPost2010Prop45
280
     0
102
RTVSPost2010PropOp45
 70
     1
102
RTVSPost2010Prop46
 90
       50
102
RTVSPost2010PropOp46
 70
     1
102
RTVSPost2010Prop47
 90
       50
102
RTVSPost2010PropOp47
 70
     1
102
RTVSPost2010Prop48
 90
       50
102
RTVSPost2010PropOp48
 70
     1
102
RTVSPost2010Prop49
280
     0
102
RTVSPost2010PropOp49
 70
     1
102
RTVSPost2010Prop50
 90
       50
102
RTVSPost2010PropOp50
 70
     1
102
RTVSPost2010Prop51ColorIndex
 90
      256
102
RTVSPost2010Prop51ColorRGB
 90
-16777216
102
RTVSPost2010PropOp51
 70
     0
102
RTVSPost2010Prop52
140
1.0
102
RTVSPost2010PropOp52
 70
     0
102
RTVSPost2010Prop53
 90
        2
102
RTVSPost2010PropOp53
 70
     1
102
RTVSPost2010Prop54
  1
strokes_ogs.tif
102
RTVSPost2010PropOp54
 70
     1
102
RTVSPost2010Prop55
280
     0
102
RTVSPost2010PropOp55
 70
     1
102
RTVSPost2010Prop56
140
1.0
102
RTVSPost2010PropOp56
 70
     1
102
RTVSPost2010Prop57
140
1.0
102
RTVSPost2010PropOp57
 70
     1
  0
XRECORD
  5
130
102
{ACAD_REACTORS
330
12F
102
}
330
12F
100
AcDbXrecord
280
     1
102
RTVSPost2010Prop28
280
     0
102
RTVSPost2010PropOp28
 70
     0
102
RTVSPost2010Prop29
280
     1
102
RTVSPost2010PropOp29
 70
     0
102
RTVSPost2010Prop30
280
     1
102
RTVSPost2010PropOp30
 70
     0
102
RTVSPost2010Prop31
280
     0
102
RTVSPost2010PropOp31
 70
     0
102
RTVSPost2010Prop32
280
     0
102
RTVSPost2010PropOp32
 70
     0
102
RTVSPost2010Prop33
280
     0
102
RTVSPost2010PropOp33
 70
     0
102
RTVSPost2010Prop34
280
     0
102
RTVSPost2010PropOp34
 70
     0
102
RTVSPost2010Prop35
280
     0
102
RTVSPost2010PropOp35
 70
     0
102
RTVSPost2010Prop36
280
     0
102
RTVSPost2010PropOp36
 70
     0
102
RTVSPost2010Prop37
 90
       50
102
RTVSPost2010PropOp37
 70
     0
102
RTVSPost2010Prop38
140
0.0
102
RTVSPost2010PropOp38
 70
     0
102
RTVSPost2010Prop39
140
1.0
102
RTVSPost2010PropOp39
 70
     0
102
RTVSPost2010Prop40
 90
        0
102
RTVSPost2010PropOp40
 70
     0
102
RTVSPost2010Prop41ColorIndex
 90
       18
102
RTVSPost2010Prop41ColorRGB
 90
        0
102
RTVSPost2010PropOp41
 70
     0
102
RTVSPost2010Prop42
 90
       50
102
RTVSPost2010PropOp42
 70
     0
102
RTVSPost2010Prop43
 90
        3
102
RTVSPost2010PropOp43
 70
     0
102
RTVSPost2010Prop44ColorIndex
 90
        5
102
RTVSPost2010Prop44ColorRGB
 90
      255
102
RTVSPost2010PropOp44
 70
     0
102
RTVSPost2010Prop45
280
     0
102
RTVSPost2010PropOp45
 70
     0
102
RTVSPost2010Prop46
 90
       50
102
RTVSPost2010PropOp46
 70
     0
102
RTVSPost2010Prop47
 90
       50
102
RTVSPost2010PropOp47
 70
     0
102
RTVSPost2010Prop48
 90
       50
102
RTVSPost2010PropOp48
 70
     0
102
RTVSPost2010Prop49
280
     0
102
RTVSPost2010PropOp49
 70
     0
102
RTVSPost2010Prop50
 90
       50
102
RTVSPost2010PropOp50
 70
     0
102
RTVSPost2010Prop51ColorIndex
 90
      256
102
RTVSPost2010Prop51ColorRGB
 90
-16777216
102
RTVSPost2010PropOp51
 70
     0
102
RTVSPost2010Prop52
140
1.0
102
RTVSPost2010PropOp52
 70
     0
102
RTVSPost2010Prop53
 90
        2
102
RTVSPost2010PropOp53
 70
     0
102
RTVSPost2010Prop54
  1
strokes_ogs.tif
102
RTVSPost2010PropOp54
 70
     0
102
RTVSPost2010Prop55
280
     0
102
RTVSPost2010PropOp55
 70
     0
102
RTVSPost2010Prop56
140
1.0
102
RTVSPost2010PropOp56
 70
     0
102
RTVSPost2010Prop57
140
1.0
102
RTVSPost2010PropOp57
 70
     0
  0
XRECORD
  5
116
102
{ACAD_REACTORS
330
115
102
}
330
115
100
AcDbXrecord
280
     1
102
RTVSPost2010Prop28
280
     0
102
RTVSPost2010PropOp28
 70
     1
102
RTVSPost2010Prop29
280
     1
102
RTVSPost2010PropOp29
 70
     1
102
RTVSPost2010Prop30
280
     1
102
RTVSPost2010PropOp30
 70
     1
102
RTVSPost2010Prop31
280
     0
102
RTVSPost2010PropOp31
 70
     1
102
RTVSPost2010Prop32
280
     0
102
RTVSPost2010PropOp32
 70
     1
102
RTVSPost2010Prop33
280
     0
102
RTVSPost2010PropOp33
 70
     1
102
RTVSPost2010Prop34
280
     0
102
RTVSPost2010PropOp34
 70
     1
102
RTVSPost2010Prop35
280
     0
102
RTVSPost2010PropOp35
 70
     1
102
RTVSPost2010Prop36
280
     0
102
RTVSPost2010PropOp36
 70
     1
102
RTVSPost2010Prop37
 90
       50
102
RTVSPost2010PropOp37
 70
     1
102
RTVSPost2010Prop38
140
0.0
102
RTVSPost2010PropOp38
 70
     1
102
RTVSPost2010Prop39
140
1.0
102
RTVSPost2010PropOp39
 70
     1
102
RTVSPost2010Prop40
 90
        0
102
RTVSPost2010PropOp40
 70
     1
102
RTVSPost2010Prop41ColorIndex
 90
       18
102
RTVSPost2010Prop41ColorRGB
 90
        0
102
RTVSPost2010PropOp41
 70
     1
102
RTVSPost2010Prop42
 90
       50
102
RTVSPost2010PropOp42
 70
     1
102
RTVSPost2010Prop43
 90
        3
102
RTVSPost2010PropOp43
 70
     1
102
RTVSPost2010Prop44ColorIndex
 90
        5
102
RTVSPost2010Prop44ColorRGB
 90
      255
102
RTVSPost2010PropOp44
 70
     1
102
RTVSPost2010Prop45
280
     0
102
RTVSPost2010PropOp45
 70
     1
102
RTVSPost2010Prop46
 90
       50
102
RTVSPost2010PropOp46
 70
     1
102
RTVSPost2010Prop47
 90
       50
102
RTVSPost2010PropOp47
 70
     1
102
RTVSPost2010Prop48
 90
       50
102
RTVSPost2010PropOp48
 70
     1
102
RTVSPost2010Prop49
280
     0
102
RTVSPost2010PropOp49
 70
     1
102
RTVSPost2010Prop50
 90
       50
102
RTVSPost2010PropOp50
 70
     1
102
RTVSPost2010Prop51ColorIndex
 90
      256
102
RTVSPost2010Prop51ColorRGB
 90
-16777216
102
RTVSPost2010PropOp51
 70
     0
102
RTVSPost2010Prop52
140
1.0
102
RTVSPost2010PropOp52
 70
     0
102
RTVSPost2010Prop53
 90
        2
102
RTVSPost2010PropOp53
 70
     1
102
RTVSPost2010Prop54
  1
strokes_ogs.tif
102
RTVSPost2010PropOp54
 70
     1
102
RTVSPost2010Prop55
280
     0
102
RTVSPost2010PropOp55
 70
     1
102
RTVSPost2010Prop56
140
1.0
102
RTVSPost2010PropOp56
 70
     1
102
RTVSPost2010Prop57
140
1.0
102
RTVSPost2010PropOp57
 70
     1
  0
XRECORD
  5
12C
102
{ACAD_REACTORS
330
12B
102
}
330
12B
100
AcDbXrecord
280
     1
102
RTVSPost2010Prop28
280
     0
102
RTVSPost2010PropOp28
 70
     1
102
RTVSPost2010Prop29
280
     1
102
RTVSPost2010PropOp29
 70
     1
102
RTVSPost2010Prop30
280
     1
102
RTVSPost2010PropOp30
 70
     1
102
RTVSPost2010Prop31
280
     0
102
RTVSPost2010PropOp31
 70
     1
102
RTVSPost2010Prop32
280
     0
102
RTVSPost2010PropOp32
 70
     1
102
RTVSPost2010Prop33
280
     0
102
RTVSPost2010PropOp33
 70
     1
102
RTVSPost2010Prop34
280
     0
102
RTVSPost2010PropOp34
 70
     1
102
RTVSPost2010Prop35
280
     0
102
RTVSPost2010PropOp35
 70
     1
102
RTVSPost2010Prop36
280
     0
102
RTVSPost2010PropOp36
 70
     1
102
RTVSPost2010Prop37
 90
       50
102
RTVSPost2010PropOp37
 70
     1
102
RTVSPost2010Prop38
140
0.0
102
RTVSPost2010PropOp38
 70
     1
102
RTVSPost2010Prop39
140
1.0
102
RTVSPost2010PropOp39
 70
     1
102
RTVSPost2010Prop40
 90
        0
102
RTVSPost2010PropOp40
 70
     1
102
RTVSPost2010Prop41ColorIndex
 90
       18
102
RTVSPost2010Prop41ColorRGB
 90
        0
102
RTVSPost2010PropOp41
 70
     1
102
RTVSPost2010Prop42
 90
       50
102
RTVSPost2010PropOp42
 70
     1
102
RTVSPost2010Prop43
 90
        3
102
RTVSPost2010PropOp43
 70
     1
102
RTVSPost2010Prop44ColorIndex
 90
        5
102
RTVSPost2010Prop44ColorRGB
 90
      255
102
RTVSPost2010PropOp44
 70
     1
102
RTVSPost2010Prop45
280
     0
102
RTVSPost2010PropOp45
 70
     1
102
RTVSPost2010Prop46
 90
       50
102
RTVSPost2010PropOp46
 70
     1
102
RTVSPost2010Prop47
 90
       50
102
RTVSPost2010PropOp47
 70
     1
102
RTVSPost2010Prop48
 90
       50
102
RTVSPost2010PropOp48
 70
     1
102
RTVSPost2010Prop49
280
     0
102
RTVSPost2010PropOp49
 70
     1
102
RTVSPost2010Prop50
 90
       50
102
RTVSPost2010PropOp50
 70
     1
102
RTVSPost2010Prop51ColorIndex
 90
      256
102
RTVSPost2010Prop51ColorRGB
 90
-16777216
102
RTVSPost2010PropOp51
 70
     0
102
RTVSPost2010Prop52
140
1.0
102
RTVSPost2010PropOp52
 70
     0
102
RTVSPost2010Prop53
 90
        2
102
RTVSPost2010PropOp53
 70
     1
102
RTVSPost2010Prop54
  1
strokes_ogs.tif
102
RTVSPost2010PropOp54
 70
     1
102
RTVSPost2010Prop55
280
     0
102
RTVSPost2010PropOp55
 70
     1
102
RTVSPost2010Prop56
140
1.0
102
RTVSPost2010PropOp56
 70
     1
102
RTVSPost2010Prop57
140
1.0
102
RTVSPost2010PropOp57
 70
     1
  0
XRECORD
  5
12A
102
{ACAD_REACTORS
330
129
102
}
330
129
100
AcDbXrecord
280
     1
102
RTVSPost2010Prop28
280
     0
102
RTVSPost2010PropOp28
 70
     1
102
RTVSPost2010Prop29
280
     1
102
RTVSPost2010PropOp29
 70
     1
102
RTVSPost2010Prop30
280
     1
102
RTVSPost2010PropOp30
 70
     1
102
RTVSPost2010Prop31
280
     0
102
RTVSPost2010PropOp31
 70
     1
102
RTVSPost2010Prop32
280
     0
102
RTVSPost2010PropOp32
 70
     1
102
RTVSPost2010Prop33
280
     0
102
RTVSPost2010PropOp33
 70
     1
102
RTVSPost2010Prop34
280
     0
102
RTVSPost2010PropOp34
 70
     1
102
RTVSPost2010Prop35
280
     0
102
RTVSPost2010PropOp35
 70
     1
102
RTVSPost2010Prop36
280
     0
102
RTVSPost2010PropOp36
 70
     1
102
RTVSPost2010Prop37
 90
       50
102
RTVSPost2010PropOp37
 70
     1
102
RTVSPost2010Prop38
140
0.0
102
RTVSPost2010PropOp38
 70
     1
102
RTVSPost2010Prop39
140
1.0
102
RTVSPost2010PropOp39
 70
     1
102
RTVSPost2010Prop40
 90
        0
102
RTVSPost2010PropOp40
 70
     1
102
RTVSPost2010Prop41ColorIndex
 90
       18
102
RTVSPost2010Prop41ColorRGB
 90
        0
102
RTVSPost2010PropOp41
 70
     1
102
RTVSPost2010Prop42
 90
       50
102
RTVSPost2010PropOp42
 70
     1
102
RTVSPost2010Prop43
 90
        3
102
RTVSPost2010PropOp43
 70
     1
102
RTVSPost2010Prop44ColorIndex
 90
        5
102
RTVSPost2010Prop44ColorRGB
 90
      255
102
RTVSPost2010PropOp44
 70
     1
102
RTVSPost2010Prop45
280
     0
102
RTVSPost2010PropOp45
 70
     1
102
RTVSPost2010Prop46
 90
       50
102
RTVSPost2010PropOp46
 70
     1
102
RTVSPost2010Prop47
 90
       50
102
RTVSPost2010PropOp47
 70
     1
102
RTVSPost2010Prop48
 90
       50
102
RTVSPost2010PropOp48
 70
     1
102
RTVSPost2010Prop49
280
     0
102
RTVSPost2010PropOp49
 70
     1
102
RTVSPost2010Prop50
 90
       50
102
RTVSPost2010PropOp50
 70
     1
102
RTVSPost2010Prop51ColorIndex
 90
      256
102
RTVSPost2010Prop51ColorRGB
 90
-16777216
102
RTVSPost2010PropOp51
 70
     0
102
RTVSPost2010Prop52
140
1.0
102
RTVSPost2010PropOp52
 70
     0
102
RTVSPost2010Prop53
 90
        2
102
RTVSPost2010PropOp53
 70
     1
102
RTVSPost2010Prop54
  1
strokes_ogs.tif
102
RTVSPost2010PropOp54
 70
     1
102
RTVSPost2010Prop55
280
     0
102
RTVSPost2010PropOp55
 70
     1
102
RTVSPost2010Prop56
140
1.0
102
RTVSPost2010PropOp56
 70
     1
102
RTVSPost2010Prop57
140
1.0
102
RTVSPost2010PropOp57
 70
     1
  0
XRECORD
  5
124
102
{ACAD_REACTORS
330
123
102
}
330
123
100
AcDbXrecord
280
     1
102
RTVSPost2010Prop28
280
     0
102
RTVSPost2010PropOp28
 70
     1
102
RTVSPost2010Prop29
280
     1
102
RTVSPost2010PropOp29
 70
     1
102
RTVSPost2010Prop30
280
     1
102
RTVSPost2010PropOp30
 70
     1
102
RTVSPost2010Prop31
280
     0
102
RTVSPost2010PropOp31
 70
     1
102
RTVSPost2010Prop32
280
     0
102
RTVSPost2010PropOp32
 70
     1
102
RTVSPost2010Prop33
280
     0
102
RTVSPost2010PropOp33
 70
     1
102
RTVSPost2010Prop34
280
     0
102
RTVSPost2010PropOp34
 70
     1
102
RTVSPost2010Prop35
280
     0
102
RTVSPost2010PropOp35
 70
     1
102
RTVSPost2010Prop36
280
     0
102
RTVSPost2010PropOp36
 70
     1
102
RTVSPost2010Prop37
 90
       50
102
RTVSPost2010PropOp37
 70
     1
102
RTVSPost2010Prop38
140
0.0
102
RTVSPost2010PropOp38
 70
     1
102
RTVSPost2010Prop39
140
1.0
102
RTVSPost2010PropOp39
 70
     1
102
RTVSPost2010Prop40
 90
        0
102
RTVSPost2010PropOp40
 70
     1
102
RTVSPost2010Prop41ColorIndex
 90
       18
102
RTVSPost2010Prop41ColorRGB
 90
        0
102
RTVSPost2010PropOp41
 70
     1
102
RTVSPost2010Prop42
 90
       50
102
RTVSPost2010PropOp42
 70
     1
102
RTVSPost2010Prop43
 90
        3
102
RTVSPost2010PropOp43
 70
     1
102
RTVSPost2010Prop44ColorIndex
 90
        5
102
RTVSPost2010Prop44ColorRGB
 90
      255
102
RTVSPost2010PropOp44
 70
     1
102
RTVSPost2010Prop45
280
     0
102
RTVSPost2010PropOp45
 70
     1
102
RTVSPost2010Prop46
 90
       50
102
RTVSPost2010PropOp46
 70
     1
102
RTVSPost2010Prop47
 90
       50
102
RTVSPost2010PropOp47
 70
     1
102
RTVSPost2010Prop48
 90
       50
102
RTVSPost2010PropOp48
 70
     1
102
RTVSPost2010Prop49
280
     0
102
RTVSPost2010PropOp49
 70
     1
102
RTVSPost2010Prop50
 90
       50
102
RTVSPost2010PropOp50
 70
     1
102
RTVSPost2010Prop51ColorIndex
 90
      256
102
RTVSPost2010Prop51ColorRGB
 90
-16777216
102
RTVSPost2010PropOp51
 70
     0
102
RTVSPost2010Prop52
140
1.0
102
RTVSPost2010PropOp52
 70
     0
102
RTVSPost2010Prop53
 90
        2
102
RTVSPost2010PropOp53
 70
     1
102
RTVSPost2010Prop54
  1
strokes_ogs.tif
102
RTVSPost2010PropOp54
 70
     1
102
RTVSPost2010Prop55
280
     0
102
RTVSPost2010PropOp55
 70
     1
102
RTVSPost2010Prop56
140
1.0
102
RTVSPost2010PropOp56
 70
     1
102
RTVSPost2010Prop57
140
1.0
102
RTVSPost2010PropOp57
 70
     1
  0
XRECORD
  5
126
102
{ACAD_REACTORS
330
125
102
}
330
125
100
AcDbXrecord
280
     1
102
RTVSPost2010Prop28
280
     0
102
RTVSPost2010PropOp28
 70
     1
102
RTVSPost2010Prop29
280
     1
102
RTVSPost2010PropOp29
 70
     1
102
RTVSPost2010Prop30
280
     1
102
RTVSPost2010PropOp30
 70
     1
102
RTVSPost2010Prop31
280
     0
102
RTVSPost2010PropOp31
 70
     1
102
RTVSPost2010Prop32
280
     0
102
RTVSPost2010PropOp32
 70
     1
102
RTVSPost2010Prop33
280
     0
102
RTVSPost2010PropOp33
 70
     1
102
RTVSPost2010Prop34
280
     0
102
RTVSPost2010PropOp34
 70
     1
102
RTVSPost2010Prop35
280
     0
102
RTVSPost2010PropOp35
 70
     1
102
RTVSPost2010Prop36
280
     0
102
RTVSPost2010PropOp36
 70
     1
102
RTVSPost2010Prop37
 90
       50
102
RTVSPost2010PropOp37
 70
     1
102
RTVSPost2010Prop38
140
0.0
102
RTVSPost2010PropOp38
 70
     1
102
RTVSPost2010Prop39
140
1.0
102
RTVSPost2010PropOp39
 70
     1
102
RTVSPost2010Prop40
 90
        0
102
RTVSPost2010PropOp40
 70
     1
102
RTVSPost2010Prop41ColorIndex
 90
       18
102
RTVSPost2010Prop41ColorRGB
 90
        0
102
RTVSPost2010PropOp41
 70
     1
102
RTVSPost2010Prop42
 90
       50
102
RTVSPost2010PropOp42
 70
     1
102
RTVSPost2010Prop43
 90
        3
102
RTVSPost2010PropOp43
 70
     1
102
RTVSPost2010Prop44ColorIndex
 90
        5
102
RTVSPost2010Prop44ColorRGB
 90
      255
102
RTVSPost2010PropOp44
 70
     1
102
RTVSPost2010Prop45
280
     0
102
RTVSPost2010PropOp45
 70
     1
102
RTVSPost2010Prop46
 90
       50
102
RTVSPost2010PropOp46
 70
     1
102
RTVSPost2010Prop47
 90
       50
102
RTVSPost2010PropOp47
 70
     1
102
RTVSPost2010Prop48
 90
       50
102
RTVSPost2010PropOp48
 70
     1
102
RTVSPost2010Prop49
280
     0
102
RTVSPost2010PropOp49
 70
     1
102
RTVSPost2010Prop50
 90
       50
102
RTVSPost2010PropOp50
 70
     1
102
RTVSPost2010Prop51ColorIndex
 90
      256
102
RTVSPost2010Prop51ColorRGB
 90
-16777216
102
RTVSPost2010PropOp51
 70
     0
102
RTVSPost2010Prop52
140
1.0
102
RTVSPost2010PropOp52
 70
     0
102
RTVSPost2010Prop53
 90
        2
102
RTVSPost2010PropOp53
 70
     1
102
RTVSPost2010Prop54
  1
strokes_ogs.tif
102
RTVSPost2010PropOp54
 70
     1
102
RTVSPost2010Prop55
280
     0
102
RTVSPost2010PropOp55
 70
     1
102
RTVSPost2010Prop56
140
1.0
102
RTVSPost2010PropOp56
 70
     1
102
RTVSPost2010Prop57
140
1.0
102
RTVSPost2010PropOp57
 70
     1
  0
XRECORD
  5
11C
102
{ACAD_REACTORS
330
11B
102
}
330
11B
100
AcDbXrecord
280
     1
102
RTVSPost2010Prop28
280
     0
102
RTVSPost2010PropOp28
 70
     1
102
RTVSPost2010Prop29
280
     1
102
RTVSPost2010PropOp29
 70
     1
102
RTVSPost2010Prop30
280
     1
102
RTVSPost2010PropOp30
 70
     1
102
RTVSPost2010Prop31
280
     0
102
RTVSPost2010PropOp31
 70
     1
102
RTVSPost2010Prop32
280
     0
102
RTVSPost2010PropOp32
 70
     1
102
RTVSPost2010Prop33
280
     0
102
RTVSPost2010PropOp33
 70
     1
102
RTVSPost2010Prop34
280
     0
102
RTVSPost2010PropOp34
 70
     1
102
RTVSPost2010Prop35
280
     0
102
RTVSPost2010PropOp35
 70
     1
102
RTVSPost2010Prop36
280
     0
102
RTVSPost2010PropOp36
 70
     1
102
RTVSPost2010Prop37
 90
       50
102
RTVSPost2010PropOp37
 70
     1
102
RTVSPost2010Prop38
140
0.0
102
RTVSPost2010PropOp38
 70
     1
102
RTVSPost2010Prop39
140
1.0
102
RTVSPost2010PropOp39
 70
     1
102
RTVSPost2010Prop40
 90
        0
102
RTVSPost2010PropOp40
 70
     1
102
RTVSPost2010Prop41ColorIndex
 90
       18
102
RTVSPost2010Prop41ColorRGB
 90
        0
102
RTVSPost2010PropOp41
 70
     1
102
RTVSPost2010Prop42
 90
       50
102
RTVSPost2010PropOp42
 70
     1
102
RTVSPost2010Prop43
 90
        3
102
RTVSPost2010PropOp43
 70
     1
102
RTVSPost2010Prop44ColorIndex
 90
        5
102
RTVSPost2010Prop44ColorRGB
 90
      255
102
RTVSPost2010PropOp44
 70
     1
102
RTVSPost2010Prop45
280
     0
102
RTVSPost2010PropOp45
 70
     1
102
RTVSPost2010Prop46
 90
       50
102
RTVSPost2010PropOp46
 70
     1
102
RTVSPost2010Prop47
 90
       50
102
RTVSPost2010PropOp47
 70
     1
102
RTVSPost2010Prop48
 90
       50
102
RTVSPost2010PropOp48
 70
     1
102
RTVSPost2010Prop49
280
     0
102
RTVSPost2010PropOp49
 70
     1
102
RTVSPost2010Prop50
 90
       50
102
RTVSPost2010PropOp50
 70
     1
102
RTVSPost2010Prop51ColorIndex
 90
      256
102
RTVSPost2010Prop51ColorRGB
 90
-16777216
102
RTVSPost2010PropOp51
 70
     0
102
RTVSPost2010Prop52
140
1.0
102
RTVSPost2010PropOp52
 70
     0
102
RTVSPost2010Prop53
 90
        2
102
RTVSPost2010PropOp53
 70
     1
102
RTVSPost2010Prop54
  1
strokes_ogs.tif
102
RTVSPost2010PropOp54
 70
     1
102
RTVSPost2010Prop55
280
     0
102
RTVSPost2010PropOp55
 70
     1
102
RTVSPost2010Prop56
140
1.0
102
RTVSPost2010PropOp56
 70
     1
102
RTVSPost2010Prop57
140
1.0
102
RTVSPost2010PropOp57
 70
     1
  0
XRECORD
  5
110
102
{ACAD_REACTORS
330
10F
102
}
330
10F
100
AcDbXrecord
280
     1
102
RTVSPost2010Prop28
280
     0
102
RTVSPost2010PropOp28
 70
     1
102
RTVSPost2010Prop29
280
     1
102
RTVSPost2010PropOp29
 70
     1
102
RTVSPost2010Prop30
280
     1
102
RTVSPost2010PropOp30
 70
     1
102
RTVSPost2010Prop31
280
     0
102
RTVSPost2010PropOp31
 70
     1
102
RTVSPost2010Prop32
280
     0
102
RTVSPost2010PropOp32
 70
     1
102
RTVSPost2010Prop33
280
     0
102
RTVSPost2010PropOp33
 70
     1
102
RTVSPost2010Prop34
280
     0
102
RTVSPost2010PropOp34
 70
     1
102
RTVSPost2010Prop35
280
     0
102
RTVSPost2010PropOp35
 70
     1
102
RTVSPost2010Prop36
280
     0
102
RTVSPost2010PropOp36
 70
     1
102
RTVSPost2010Prop37
 90
       50
102
RTVSPost2010PropOp37
 70
     1
102
RTVSPost2010Prop38
140
0.0
102
RTVSPost2010PropOp38
 70
     1
102
RTVSPost2010Prop39
140
1.0
102
RTVSPost2010PropOp39
 70
     1
102
RTVSPost2010Prop40
 90
        0
102
RTVSPost2010PropOp40
 70
     1
102
RTVSPost2010Prop41ColorIndex
 90
       18
102
RTVSPost2010Prop41ColorRGB
 90
        0
102
RTVSPost2010PropOp41
 70
     1
102
RTVSPost2010Prop42
 90
       50
102
RTVSPost2010PropOp42
 70
     1
102
RTVSPost2010Prop43
 90
        3
102
RTVSPost2010PropOp43
 70
     1
102
RTVSPost2010Prop44ColorIndex
 90
        5
102
RTVSPost2010Prop44ColorRGB
 90
      255
102
RTVSPost2010PropOp44
 70
     1
102
RTVSPost2010Prop45
280
     0
102
RTVSPost2010PropOp45
 70
     1
102
RTVSPost2010Prop46
 90
       50
102
RTVSPost2010PropOp46
 70
     1
102
RTVSPost2010Prop47
 90
       50
102
RTVSPost2010PropOp47
 70
     1
102
RTVSPost2010Prop48
 90
       50
102
RTVSPost2010PropOp48
 70
     1
102
RTVSPost2010Prop49
280
     0
102
RTVSPost2010PropOp49
 70
     1
102
RTVSPost2010Prop50
 90
       50
102
RTVSPost2010PropOp50
 70
     1
102
RTVSPost2010Prop51ColorIndex
 90
      256
102
RTVSPost2010Prop51ColorRGB
 90
-16777216
102
RTVSPost2010PropOp51
 70
     0
102
RTVSPost2010Prop52
140
1.0
102
RTVSPost2010PropOp52
 70
     0
102
RTVSPost2010Prop53
 90
        2
102
RTVSPost2010PropOp53
 70
     1
102
RTVSPost2010Prop54
  1
strokes_ogs.tif
102
RTVSPost2010PropOp54
 70
     1
102
RTVSPost2010Prop55
280
     0
102
RTVSPost2010PropOp55
 70
     1
102
RTVSPost2010Prop56
140
1.0
102
RTVSPost2010PropOp56
 70
     1
102
RTVSPost2010Prop57
140
1.0
102
RTVSPost2010PropOp57
 70
     1
  0
XRECORD
  5
128
102
{ACAD_REACTORS
330
127
102
}
330
127
100
AcDbXrecord
280
     1
102
RTVSPost2010Prop28
280
     0
102
RTVSPost2010PropOp28
 70
     1
102
RTVSPost2010Prop29
280
     1
102
RTVSPost2010PropOp29
 70
     1
102
RTVSPost2010Prop30
280
     1
102
RTVSPost2010PropOp30
 70
     1
102
RTVSPost2010Prop31
280
     0
102
RTVSPost2010PropOp31
 70
     1
102
RTVSPost2010Prop32
280
     0
102
RTVSPost2010PropOp32
 70
     1
102
RTVSPost2010Prop33
280
     0
102
RTVSPost2010PropOp33
 70
     1
102
RTVSPost2010Prop34
280
     0
102
RTVSPost2010PropOp34
 70
     1
102
RTVSPost2010Prop35
280
     0
102
RTVSPost2010PropOp35
 70
     1
102
RTVSPost2010Prop36
280
     0
102
RTVSPost2010PropOp36
 70
     1
102
RTVSPost2010Prop37
 90
       50
102
RTVSPost2010PropOp37
 70
     1
102
RTVSPost2010Prop38
140
0.0
102
RTVSPost2010PropOp38
 70
     1
102
RTVSPost2010Prop39
140
1.0
102
RTVSPost2010PropOp39
 70
     1
102
RTVSPost2010Prop40
 90
        0
102
RTVSPost2010PropOp40
 70
     1
102
RTVSPost2010Prop41ColorIndex
 90
       18
102
RTVSPost2010Prop41ColorRGB
 90
        0
102
RTVSPost2010PropOp41
 70
     1
102
RTVSPost2010Prop42
 90
       50
102
RTVSPost2010PropOp42
 70
     1
102
RTVSPost2010Prop43
 90
        3
102
RTVSPost2010PropOp43
 70
     1
102
RTVSPost2010Prop44ColorIndex
 90
        5
102
RTVSPost2010Prop44ColorRGB
 90
      255
102
RTVSPost2010PropOp44
 70
     1
102
RTVSPost2010Prop45
280
     0
102
RTVSPost2010PropOp45
 70
     1
102
RTVSPost2010Prop46
 90
       50
102
RTVSPost2010PropOp46
 70
     1
102
RTVSPost2010Prop47
 90
       50
102
RTVSPost2010PropOp47
 70
     1
102
RTVSPost2010Prop48
 90
       50
102
RTVSPost2010PropOp48
 70
     1
102
RTVSPost2010Prop49
280
     0
102
RTVSPost2010PropOp49
 70
     1
102
RTVSPost2010Prop50
 90
       50
102
RTVSPost2010PropOp50
 70
     1
102
RTVSPost2010Prop51ColorIndex
 90
      256
102
RTVSPost2010Prop51ColorRGB
 90
-16777216
102
RTVSPost2010PropOp51
 70
     0
102
RTVSPost2010Prop52
140
1.0
102
RTVSPost2010PropOp52
 70
     0
102
RTVSPost2010Prop53
 90
        2
102
RTVSPost2010PropOp53
 70
     1
102
RTVSPost2010Prop54
  1
strokes_ogs.tif
102
RTVSPost2010PropOp54
 70
     1
102
RTVSPost2010Prop55
280
     0
102
RTVSPost2010PropOp55
 70
     1
102
RTVSPost2010Prop56
140
1.0
102
RTVSPost2010PropOp56
 70
     1
102
RTVSPost2010Prop57
140
1.0
102
RTVSPost2010PropOp57
 70
     1
  0
ENDSEC
  0
EOF
