  0
SECTION
  2
HEADER
  9
$ACADVER
  1
AC1024
  9
$ACADMAINTVER
 70
   226
  9
$DWGCODEPAGE
  3
ANSI_932
  9
$INSBASE
 10
0.0
 20
0.0
 30
0.0
  9
$EXTMIN
 10
1.000000000000000E+20
 20
1.000000000000000E+20
 30
1.000000000000000E+20
  9
$EXTMAX
 10
-1.000000000000000E+20
 20
-1.000000000000000E+20
 30
-1.000000000000000E+20
  9
$LIMMIN
 10
0.0
 20
0.0
  9
$LIMMAX
 10
12.0
 20
9.0
  9
$ORTHOMODE
 70
     0
  9
$REGENMODE
 70
     1
  9
$FILLMODE
 70
     1
  9
$QTEXTMODE
 70
     0
  9
$MIRRTEXT
 70
     0
  9
$LTSCALE
 40
1.0
  9
$ATTMODE
 70
     1
  9
$TEXTSIZE
 40
0.2
  9
$TRACEWID
 40
0.05
  9
$TEXTSTYLE
  7
Standard
  9
$CLAYER
  8
0
  9
$CELTYPE
  6
ByLayer
  9
$CECOLOR
 62
   256
  9
$CELTSCALE
 40
1.0
  9
$DISPSILH
 70
     0
  9
$DIMSCALE
 40
1.0
  9
$DIMASZ
 40
0.18
  9
$DIMEXO
 40
0.0625
  9
$DIMDLI
 40
0.38
  9
$DIMRND
 40
0.0
  9
$DIMDLE
 40
0.0
  9
$DIMEXE
 40
0.18
  9
$DIMTP
 40
0.0
  9
$DIMTM
 40
0.0
  9
$DIMTXT
 40
0.18
  9
$DIMCEN
 40
0.09
  9
$DIMTSZ
 40
0.0
  9
$DIMTOL
 70
     0
  9
$DIMLIM
 70
     0
  9
$DIMTIH
 70
     1
  9
$DIMTOH
 70
     1
  9
$DIMSE1
 70
     0
  9
$DIMSE2
 70
     0
  9
$DIMTAD
 70
     0
  9
$DIMZIN
 70
     0
  9
$DIMBLK
  1

  9
$DIMASO
 70
     1
  9
$DIMSHO
 70
     1
  9
$DIMPOST
  1

  9
$DIMAPOST
  1

  9
$DIMALT
 70
     0
  9
$DIMALTD
 70
     2
  9
$DIMALTF
 40
25.4
  9
$DIMLFAC
 40
1.0
  9
$DIMTOFL
 70
     0
  9
$DIMTVP
 40
0.0
  9
$DIMTIX
 70
     0
  9
$DIMSOXD
 70
     0
  9
$DIMSAH
 70
     0
  9
$DIMBLK1
  1

  9
$DIMBLK2
  1

  9
$DIMSTYLE
  2
Standard
  9
$DIMCLRD
 70
     0
  9
$DIMCLRE
 70
     0
  9
$DIMCLRT
 70
     0
  9
$DIMTFAC
 40
1.0
  9
$DIMGAP
 40
0.09
  9
$DIMJUST
 70
     0
  9
$DIMSD1
 70
     0
  9
$DIMSD2
 70
     0
  9
$DIMTOLJ
 70
     1
  9
$DIMTZIN
 70
     0
  9
$DIMALTZ
 70
     0
  9
$DIMALTTZ
 70
     0
  9
$DIMUPT
 70
     0
  9
$DIMDEC
 70
     4
  9
$DIMTDEC
 70
     4
  9
$DIMALTU
 70
     2
  9
$DIMALTTD
 70
     2
  9
$DIMTXSTY
  7
Standard
  9
$DIMAUNIT
 70
     0
  9
$DIMADEC
 70
     0
  9
$DIMALTRND
 40
0.0
  9
$DIMAZIN
 70
     0
  9
$DIMDSEP
 70
    46
  9
$DIMATFIT
 70
     3
  9
$DIMFRAC
 70
     0
  9
$DIMLDRBLK
  1

  9
$DIMLUNIT
 70
     2
  9
$DIMLWD
 70
    -2
  9
$DIMLWE
 70
    -2
  9
$DIMTMOVE
 70
     0
  9
$DIMFXL
 40
1.0
  9
$DIMFXLON
 70
     0
  9
$DIMJOGANG
 40
0.7853981633974483
  9
$DIMTFILL
 70
     0
  9
$DIMTFILLCLR
 70
     0
  9
$DIMARCSYM
 70
     0
  9
$DIMLTYPE
  6

  9
$DIMLTEX1
  6

  9
$DIMLTEX2
  6

  9
$DIMTXTDIRECTION
 70
     0
  9
$LUNITS
 70
     2
  9
$LUPREC
 70
     4
  9
$SKETCHINC
 40
0.1
  9
$FILLETRAD
 40
0.0
  9
$AUNITS
 70
     0
  9
$AUPREC
 70
     0
  9
$MENU
  1
.
  9
$ELEVATION
 40
0.0
  9
$PELEVATION
 40
0.0
  9
$THICKNESS
 40
0.0
  9
$LIMCHECK
 70
     0
  9
$CHAMFERA
 40
0.0
  9
$CHAMFERB
 40
0.0
  9
$CHAMFERC
 40
0.0
  9
$CHAMFERD
 40
0.0
  9
$SKPOLY
 70
     0
  9
$TDCREATE
 40
2459569.503495371
  9
$TDUCREATE
 40
2459569.128495371
  9
$TDUPDATE
 40
2459569.503495371
  9
$TDUUPDATE
 40
2459569.128495371
  9
$TDINDWG
 40
0.0000000000
  9
$TDUSRTIMER
 40
0.0000000000
  9
$USRTIMER
 70
     1
  9
$ANGBASE
 50
0.0
  9
$ANGDIR
 70
     0
  9
$PDMODE
 70
     0
  9
$PDSIZE
 40
0.0
  9
$PLINEWID
 40
0.0
  9
$SPLFRAME
 70
     0
  9
$SPLINETYPE
 70
     6
  9
$SPLINESEGS
 70
     8
  9
$HANDSEED
  5
162
  9
$SURFTAB1
 70
     6
  9
$SURFTAB2
 70
     6
  9
$SURFTYPE
 70
     6
  9
$SURFU
 70
     6
  9
$SURFV
 70
     6
  9
$UCSBASE
  2

  9
$UCSNAME
  2

  9
$UCSORG
 10
0.0
 20
0.0
 30
0.0
  9
$UCSXDIR
 10
1.0
 20
0.0
 30
0.0
  9
$UCSYDIR
 10
0.0
 20
1.0
 30
0.0
  9
$UCSORTHOREF
  2

  9
$UCSORTHOVIEW
 70
     0
  9
$UCSORGTOP
 10
0.0
 20
0.0
 30
0.0
  9
$UCSORGBOTTOM
 10
0.0
 20
0.0
 30
0.0
  9
$UCSORGLEFT
 10
0.0
 20
0.0
 30
0.0
  9
$UCSORGRIGHT
 10
0.0
 20
0.0
 30
0.0
  9
$UCSORGFRONT
 10
0.0
 20
0.0
 30
0.0
  9
$UCSORGBACK
 10
0.0
 20
0.0
 30
0.0
  9
$PUCSBASE
  2

  9
$PUCSNAME
  2

  9
$PUCSORG
 10
0.0
 20
0.0
 30
0.0
  9
$PUCSXDIR
 10
1.0
 20
0.0
 30
0.0
  9
$PUCSYDIR
 10
0.0
 20
1.0
 30
0.0
  9
$PUCSORTHOREF
  2

  9
$PUCSORTHOVIEW
 70
     0
  9
$PUCSORGTOP
 10
0.0
 20
0.0
 30
0.0
  9
$PUCSORGBOTTOM
 10
0.0
 20
0.0
 30
0.0
  9
$PUCSORGLEFT
 10
0.0
 20
0.0
 30
0.0
  9
$PUCSORGRIGHT
 10
0.0
 20
0.0
 30
0.0
  9
$PUCSORGFRONT
 10
0.0
 20
0.0
 30
0.0
  9
$PUCSORGBACK
 10
0.0
 20
0.0
 30
0.0
  9
$USERI1
 70
     0
  9
$USERI2
 70
     0
  9
$USERI3
 70
     0
  9
$USERI4
 70
     0
  9
$USERI5
 70
     0
  9
$USERR1
 40
0.0
  9
$USERR2
 40
0.0
  9
$USERR3
 40
0.0
  9
$USERR4
 40
0.0
  9
$USERR5
 40
0.0
  9
$WORLDVIEW
 70
     1
  9
$SHADEDGE
 70
     3
  9
$SHADEDIF
 70
    70
  9
$TILEMODE
 70
     1
  9
$MAXACTVP
 70
    64
  9
$PINSBASE
 10
0.0
 20
0.0
 30
0.0
  9
$PLIMCHECK
 70
     0
  9
$PEXTMIN
 10
1.000000000000000E+20
 20
1.000000000000000E+20
 30
1.000000000000000E+20
  9
$PEXTMAX
 10
-1.000000000000000E+20
 20
-1.000000000000000E+20
 30
-1.000000000000000E+20
  9
$PLIMMIN
 10
0.0
 20
0.0
  9
$PLIMMAX
 10
12.0
 20
9.0
  9
$UNITMODE
 70
     0
  9
$VISRETAIN
 70
     1
  9
$PLINEGEN
 70
     0
  9
$PSLTSCALE
 70
     1
  9
$TREEDEPTH
 70
  3020
  9
$CMLSTYLE
  2
Standard
  9
$CMLJUST
 70
     0
  9
$CMLSCALE
 40
1.0
  9
$PROXYGRAPHICS
 70
     1
  9
$MEASUREMENT
 70
     0
  9
$CELWEIGHT
370
    -1
  9
$ENDCAPS
280
     0
  9
$JOINSTYLE
280
     0
  9
$LWDISPLAY
290
     1
  9
$INSUNITS
 70
     4
  9
$HYPERLINKBASE
  1

  9
$STYLESHEET
  1

  9
$XEDIT
290
     1
  9
$CEPSNTYPE
380
     0
  9
$PSTYLEMODE
290
     1
  9
$FINGERPRINTGUID
  2
{0BC12F85-32DC-3545-A054-4FF36FAF46EF}
  9
$VERSIONGUID
  2
{10893475-4FEA-974C-81A0-B809E58D72BC}
  9
$EXTNAMES
290
     1
  9
$PSVPSCALE
 40
0.0
  9
$OLESTARTUP
290
     0
  9
$SORTENTS
280
   127
  9
$INDEXCTL
280
     0
  9
$HIDETEXT
280
     1
  9
$XCLIPFRAME
280
     2
  9
$HALOGAP
280
     0
  9
$OBSCOLOR
 70
   257
  9
$OBSLTYPE
280
     0
  9
$INTERSECTIONDISPLAY
280
     0
  9
$INTERSECTIONCOLOR
 70
   257
  9
$DIMASSOC
280
     2
  9
$PROJECTNAME
  1

  9
$CAMERADISPLAY
290
     0
  9
$LENSLENGTH
 40
50.0
  9
$CAMERAHEIGHT
 40
0.0
  9
$STEPSPERSEC
 40
2.0
  9
$STEPSIZE
 40
6.0
  9
$3DDWFPREC
 40
2.0
  9
$PSOLWIDTH
 40
0.25
  9
$PSOLHEIGHT
 40
4.0
  9
$LOFTANG1
 40
1.570796326794896
  9
$LOFTANG2
 40
1.570796326794896
  9
$LOFTMAG1
 40
0.0
  9
$LOFTMAG2
 40
0.0
  9
$LOFTPARAM
 70
     7
  9
$LOFTNORMALS
280
     1
  9
$LATITUDE
 40
37.795
  9
$LONGITUDE
 40
-122.394
  9
$NORTHDIRECTION
 40
0.0
  9
$TIMEZONE
 70
 -8000
  9
$LIGHTGLYPHDISPLAY
280
     1
  9
$TILEMODELIGHTSYNCH
280
     1
  9
$CMATERIAL
347
11
  9
$SOLIDHIST
280
     0
  9
$SHOWHIST
280
     1
  9
$DWFFRAME
280
     2
  9
$DGNFRAME
280
     0
  9
$REALWORLDSCALE
290
     1
  9
$INTERFERECOLOR
 62
     1
  9
$INTERFEREOBJVS
345
33
  9
$INTERFEREVPVS
346
30
  9
$CSHADOW
280
     0
  9
$SHADOWPLANELOCATION
 40
0.0
  0
ENDSEC
  0
SECTION
  2
CLASSES
  0
CLASS
  1
ACDBDICTIONARYWDFLT
  2
AcDbDictionaryWithDefault
  3
ObjectDBX Classes
 90
        0
 91
        1
280
     0
281
     0
  0
CLASS
  1
MATERIAL
  2
AcDbMaterial
  3
ObjectDBX Classes
 90
     1153
 91
        3
280
     0
281
     0
  0
CLASS
  1
VISUALSTYLE
  2
AcDbVisualStyle
  3
ObjectDBX Classes
 90
     4095
 91
       24
280
     0
281
     0
  0
CLASS
  1
SCALE
  2
AcDbScale
  3
ObjectDBX Classes
 90
     1153
 91
       17
280
     0
281
     0
  0
CLASS
  1
TABLESTYLE
  2
AcDbTableStyle
  3
ObjectDBX Classes
 90
     4095
 91
        1
280
     0
281
     0
  0
CLASS
  1
MLEADERSTYLE
  2
AcDbMLeaderStyle
  3
ACDB_MLEADERSTYLE_CLASS
 90
     4095
 91
        1
280
     0
281
     0
  0
CLASS
  1
ACDBSECTIONVIEWSTYLE
  2
AcDbSectionViewStyle
  3
ObjectDBX Classes
 90
     1025
 91
        1
280
     0
281
     0
  0
CLASS
  1
ACDBDETAILVIEWSTYLE
  2
AcDbDetailViewStyle
  3
ObjectDBX Classes
 90
     1025
 91
        1
280
     0
281
     0
  0
CLASS
  1
DICTIONARYVAR
  2
AcDbDictionaryVar
  3
ObjectDBX Classes
 90
        0
 91
        5
280
     0
281
     0
  0
CLASS
  1
CELLSTYLEMAP
  2
AcDbCellStyleMap
  3
ObjectDBX Classes
 90
     1152
 91
        1
280
     0
281
     0
  0
ENDSEC
  0
SECTION
  2
TABLES
  0
TABLE
  2
VPORT
  5
8
330
0
100
AcDbSymbolTable
 70
     1
  0
VPORT
  5
57
330
8
100
AcDbSymbolTableRecord
100
AcDbViewportTableRecord
  2
*Active
 70
     0
 10
0.0
 20
0.0
 11
1.0
 21
1.0
 12
0.0
 22
0.0
 13
0.0
 23
0.0
 14
1.0
 24
1.0
 15
0.0
 25
0.0
 16
0.0
 26
0.0
 36
1.0
 17
104.9999999737534
 27
-148.4999999628701
 37
0.0
 40
302.939999924255
 41
0.7070707070707534
 42
50.0
 43
0.0
 44
0.0
 50
0.0
 51
0.0
 71
     0
 72
   100
 73
     1
 74
     0
 75
     1
 76
     0
 77
     0
 78
     0
281
     0
 65
     1
110
0.0
120
0.0
130
0.0
111
1.0
121
0.0
131
0.0
112
0.0
122
1.0
132
0.0
 79
     0
146
0.0
 60
     3
 61
     5
292
     1
282
     1
141
0.0
142
0.0
 63
   250
421
  3355443
  0
ENDTAB
  0
TABLE
  2
LTYPE
  5
5
330
0
100
AcDbSymbolTable
 70
     3
  0
LTYPE
  5
5B
330
5
100
AcDbSymbolTableRecord
100
AcDbLinetypeTableRecord
  2
ByBlock
 70
     0
  3

 72
    65
 73
     0
 40
0.0
  0
LTYPE
  5
5C
330
5
100
AcDbSymbolTableRecord
100
AcDbLinetypeTableRecord
  2
ByLayer
 70
     0
  3

 72
    65
 73
     0
 40
0.0
  0
LTYPE
  5
5D
330
5
100
AcDbSymbolTableRecord
100
AcDbLinetypeTableRecord
  2
Continuous
 70
     0
  3
Solid line
 72
    65
 73
     0
 40
0.0
  0
LTYPE
  5
B8
330
5
100
AcDbSymbolTableRecord
100
AcDbLinetypeTableRecord
  2
AI-Linetype-0
 70
     0
  3
Adobe Illustrator Linetype No. 0
 72
    65
 73
     2
 40
1.411111110758333
 49
0.7055555553791667
 74
     0
 49
-0.7055555553791667
 74
     0
  0
LTYPE
  5
BA
330
5
100
AcDbSymbolTableRecord
100
AcDbLinetypeTableRecord
  2
AI-Linetype-1
 70
     0
  3
Adobe Illustrator Linetype No. 1
 72
    65
 73
     2
 40
1.411111110758333
 49
0.7055555553791667
 74
     0
 49
-0.7055555553791667
 74
     0
  0
ENDTAB
  0
TABLE
  2
LAYER
  5
2
330
0
100
AcDbSymbolTable
 70
     2
  0
LAYER
  5
54
330
2
100
AcDbSymbolTableRecord
100
AcDbLayerTableRecord
  2
0
 70
     0
 62
     7
  6
Continuous
370
    -3
390
F
347
21
  0
LAYER
  5
78
330
2
100
AcDbSymbolTableRecord
100
AcDbLayerTableRecord
  2
レイヤー 1
 70
     0
 62
     7
  6
Continuous
370
     0
390
F
347
21
  0
ENDTAB
  0
TABLE
  2
STYLE
  5
3
330
0
100
AcDbSymbolTable
 70
     2
  0
STYLE
  5
55
330
3
100
AcDbSymbolTableRecord
100
AcDbTextStyleTableRecord
  2
Standard
 70
     0
 40
0.0
 41
1.0
 50
0.0
 71
     0
 42
0.2
  3
txt
  4

  0
STYLE
  5
5A
330
3
100
AcDbSymbolTableRecord
100
AcDbTextStyleTableRecord
  2
Annotative
 70
     0
 40
0.0
 41
1.0
 50
0.0
 71
     0
 42
0.2
  3
txt
  4

1001
AcadAnnotative
1000
AnnotativeData
1002
{
1070
     1
1070
     1
1002
}
  0
ENDTAB
  0
TABLE
  2
VIEW
  5
6
330
0
100
AcDbSymbolTable
 70
     0
  0
ENDTAB
  0
TABLE
  2
UCS
  5
7
330
0
100
AcDbSymbolTable
 70
     0
  0
ENDTAB
  0
TABLE
  2
APPID
  5
9
330
0
100
AcDbSymbolTable
 70
     2
  0
APPID
  5
56
330
9
100
AcDbSymbolTableRecord
100
AcDbRegAppTableRecord
  2
ACAD
 70
     0
  0
APPID
  5
5E
330
9
100
AcDbSymbolTableRecord
100
AcDbRegAppTableRecord
  2
AcadAnnotative
 70
     0
  0
ENDTAB
  0
TABLE
  2
DIMSTYLE
  5
A
330
0
100
AcDbSymbolTable
 70
     2
100
AcDbDimStyleTable
 71
     0
  0
DIMSTYLE
105
58
330
A
100
AcDbSymbolTableRecord
100
AcDbDimStyleTableRecord
  2
Standard
 70
     0
340
55
  0
DIMSTYLE
105
59
330
A
100
AcDbSymbolTableRecord
100
AcDbDimStyleTableRecord
  2
Annotative
 70
     0
340
55
1001
AcadAnnotative
1000
AnnotativeData
1002
{
1070
     1
1070
     1
1002
}
  0
ENDTAB
  0
TABLE
  2
BLOCK_RECORD
  5
1
330
0
100
AcDbSymbolTable
 70
    20
  0
BLOCK_RECORD
  5
70
330
1
100
AcDbSymbolTableRecord
100
AcDbBlockTableRecord
  2
*Model_Space
340
73
 70
     0
280
     1
281
     0
  0
BLOCK_RECORD
  5
6C
330
1
100
AcDbSymbolTableRecord
100
AcDbBlockTableRecord
  2
*Paper_Space
340
6F
 70
     0
280
     1
281
     0
  0
BLOCK_RECORD
  5
74
330
1
100
AcDbSymbolTableRecord
100
AcDbBlockTableRecord
  2
*Paper_Space0
340
77
 70
     0
280
     1
281
     0
  0
BLOCK_RECORD
  5
79
330
1
100
AcDbSymbolTableRecord
100
AcDbBlockTableRecord
  2
Block_0
340
0
102
{BLKREFS
331
7A
102
}
 70
     0
280
     1
281
     0
  0
BLOCK_RECORD
  5
7D
330
1
100
AcDbSymbolTableRecord
100
AcDbBlockTableRecord
  2
Block_1
340
0
102
{BLKREFS
331
7E
102
}
 70
     0
280
     1
281
     0
  0
BLOCK_RECORD
  5
8E
330
1
100
AcDbSymbolTableRecord
100
AcDbBlockTableRecord
  2
Block_2
340
0
102
{BLKREFS
331
8F
102
}
 70
     0
280
     1
281
     0
  0
BLOCK_RECORD
  5
92
330
1
100
AcDbSymbolTableRecord
100
AcDbBlockTableRecord
  2
Block_3
340
0
102
{BLKREFS
331
93
102
}
 70
     0
280
     1
281
     0
  0
BLOCK_RECORD
  5
A7
330
1
100
AcDbSymbolTableRecord
100
AcDbBlockTableRecord
  2
Block_4
340
0
102
{BLKREFS
331
A8
102
}
 70
     0
280
     1
281
     0
  0
BLOCK_RECORD
  5
AB
330
1
100
AcDbSymbolTableRecord
100
AcDbBlockTableRecord
  2
Block_5
340
0
102
{BLKREFS
331
AC
102
}
 70
     0
280
     1
281
     0
  0
BLOCK_RECORD
  5
C3
330
1
100
AcDbSymbolTableRecord
100
AcDbBlockTableRecord
  2
Block_6
340
0
102
{BLKREFS
331
C4
102
}
 70
     0
280
     1
281
     0
  0
BLOCK_RECORD
  5
C9
330
1
100
AcDbSymbolTableRecord
100
AcDbBlockTableRecord
  2
Block_7
340
0
102
{BLKREFS
331
CA
102
}
 70
     0
280
     1
281
     0
  0
BLOCK_RECORD
  5
CD
330
1
100
AcDbSymbolTableRecord
100
AcDbBlockTableRecord
  2
Block_8
340
0
102
{BLKREFS
331
CE
102
}
 70
     0
280
     1
281
     0
  0
BLOCK_RECORD
  5
D5
330
1
100
AcDbSymbolTableRecord
100
AcDbBlockTableRecord
  2
Block_9
340
0
102
{BLKREFS
331
D6
102
}
 70
     0
280
     1
281
     0
  0
BLOCK_RECORD
  5
DD
330
1
100
AcDbSymbolTableRecord
100
AcDbBlockTableRecord
  2
Block_10
340
0
102
{BLKREFS
331
DE
102
}
 70
     0
280
     1
281
     0
  0
BLOCK_RECORD
  5
E1
330
1
100
AcDbSymbolTableRecord
100
AcDbBlockTableRecord
  2
Block_11
340
0
102
{BLKREFS
331
E2
102
}
 70
     0
280
     1
281
     0
  0
BLOCK_RECORD
  5
EB
330
1
100
AcDbSymbolTableRecord
100
AcDbBlockTableRecord
  2
Block_12
340
0
102
{BLKREFS
331
EC
102
}
 70
     0
280
     1
281
     0
  0
BLOCK_RECORD
  5
F3
330
1
100
AcDbSymbolTableRecord
100
AcDbBlockTableRecord
  2
Block_13
340
0
102
{BLKREFS
331
F4
102
}
 70
     0
280
     1
281
     0
  0
BLOCK_RECORD
  5
F7
330
1
100
AcDbSymbolTableRecord
100
AcDbBlockTableRecord
  2
Block_14
340
0
102
{BLKREFS
331
F8
102
}
 70
     0
280
     1
281
     0
  0
BLOCK_RECORD
  5
106
330
1
100
AcDbSymbolTableRecord
100
AcDbBlockTableRecord
  2
Block_15
340
0
102
{BLKREFS
331
107
102
}
 70
     0
280
     1
281
     0
  0
BLOCK_RECORD
  5
10E
330
1
100
AcDbSymbolTableRecord
100
AcDbBlockTableRecord
  2
Block_16
340
0
102
{BLKREFS
331
10F
102
}
 70
     0
280
     1
281
     0
  0
BLOCK_RECORD
  5
114
330
1
100
AcDbSymbolTableRecord
100
AcDbBlockTableRecord
  2
Block_17
340
0
102
{BLKREFS
331
115
102
}
 70
     0
280
     1
281
     0
  0
BLOCK_RECORD
  5
118
330
1
100
AcDbSymbolTableRecord
100
AcDbBlockTableRecord
  2
Block_18
340
0
102
{BLKREFS
331
119
102
}
 70
     0
280
     1
281
     0
  0
ENDTAB
  0
ENDSEC
  0
SECTION
  2
BLOCKS
  0
BLOCK
  5
71
330
70
100
AcDbEntity
  8
0
100
AcDbBlockBegin
  2
*Model_Space
 70
     0
 10
0.0
 20
0.0
 30
0.0
  3
*Model_Space
  1

  0
ENDBLK
  5
72
330
70
100
AcDbEntity
  8
0
100
AcDbBlockEnd
  0
BLOCK
  5
6D
330
6C
100
AcDbEntity
 67
     1
  8
0
100
AcDbBlockBegin
  2
*Paper_Space
 70
     0
 10
0.0
 20
0.0
 30
0.0
  3
*Paper_Space
  1

  0
ENDBLK
  5
6E
330
6C
100
AcDbEntity
 67
     1
  8
0
100
AcDbBlockEnd
  0
BLOCK
  5
75
330
74
100
AcDbEntity
 67
     1
  8
0
100
AcDbBlockBegin
  2
*Paper_Space0
 70
     0
 10
0.0
 20
0.0
 30
0.0
  3
*Paper_Space0
  1

  0
ENDBLK
  5
76
330
74
100
AcDbEntity
 67
     1
  8
0
100
AcDbBlockEnd
  0
BLOCK
  5
7B
330
79
100
AcDbEntity
  8
0
100
AcDbBlockBegin
  2
Block_0
 70
     0
 10
0.0
 20
0.0
 30
0.0
  3
Block_0
  1

  0
INSERT
  5
7E
330
79
100
AcDbEntity
  8
レイヤー 1
100
AcDbBlockReference
  2
Block_1
 10
0.0
 20
0.0
 30
0.0
  0
ENDBLK
  5
7C
330
79
100
AcDbEntity
  8
0
100
AcDbBlockEnd
  0
BLOCK
  5
7F
330
7D
100
AcDbEntity
  8
0
100
AcDbBlockBegin
  2
Block_1
 70
     0
 10
0.0
 20
0.0
 30
0.0
  3
Block_1
  1

  0
SPLINE
  5
81
330
7D
100
AcDbEntity
  8
レイヤー 1
100
AcDbSpline
210
0.0
220
0.0
230
1.0
 70
     9
 71
     3
 72
    59
 73
    55
 74
     0
 42
0.0000000001
 43
0.0000000001
 40
0.0
 40
0.0
 40
0.0
 40
0.0
 40
1.0
 40
1.0
 40
1.0
 40
2.0
 40
2.0
 40
2.0
 40
3.0
 40
3.0
 40
3.0
 40
4.0
 40
4.0
 40
4.0
 40
5.0
 40
5.0
 40
5.0
 40
6.0
 40
6.0
 40
6.0
 40
7.0
 40
7.0
 40
7.0
 40
8.0
 40
8.0
 40
8.0
 40
9.0
 40
9.0
 40
9.0
 40
10.0
 40
10.0
 40
10.0
 40
11.0
 40
11.0
 40
11.0
 40
12.0
 40
12.0
 40
12.0
 40
13.0
 40
13.0
 40
13.0
 40
14.0
 40
14.0
 40
14.0
 40
15.0
 40
15.0
 40
15.0
 40
16.0
 40
16.0
 40
16.0
 40
17.0
 40
17.0
 40
17.0
 40
18.0
 40
18.0
 40
18.0
 40
18.0
 10
92.79381914997863
 20
-146.2899508640351
 30
0.0
 10
92.65136445166355
 20
-146.7765706013267
 30
0.0
 10
92.43862980544937
 20
-147.2990193316648
 30
0.0
 10
91.92823890930961
 20
-147.6163126258563
 30
0.0
 10
91.92823890930961
 20
-147.6163126258563
 30
0.0
 10
91.76786971447123
 20
-147.4640394054083
 30
0.0
 10
91.76786971447123
 20
-147.4640394054083
 30
0.0
 10
91.90481226000992
 20
-147.394276221832
 30
0.0
 10
92.11410181073885
 20
-147.2842054210782
 30
0.0
 10
92.32855900469564
 20
-146.9541652735913
 30
0.0
 10
92.53061385490553
 20
-146.6411783487563
 30
0.0
 10
92.57936195602182
 20
-146.3852077542023
 30
0.0
 10
92.60278860532153
 20
-146.2582559855708
 30
0.0
 10
92.60278860532153
 20
-146.2582559855708
 30
0.0
 10
92.05088430858451
 20
-146.2582559855708
 30
0.0
 10
92.05088430858451
 20
-146.2582559855708
 30
0.0
 10
91.96251760938784
 20
-146.4189696899578
 30
0.0
 10
91.85985376392741
 20
-146.5860568209924
 30
0.0
 10
91.69569496405525
 20
-146.7574503213835
 30
0.0
 10
91.69569496405525
 20
-146.7574503213835
 30
0.0
 10
91.54772811296377
 20
-146.6348049221086
 30
0.0
 10
91.54772811296377
 20
-146.6348049221086
 30
0.0
 10
91.59837101659695
 20
-146.5882961330578
 30
0.0
 10
91.72446151135707
 20
-146.4761582750129
 30
0.0
 10
91.86519366192953
 20
-146.2265611071065
 30
0.0
 10
91.93013371182649
 20
-146.1080498224139
 30
0.0
 10
92.01850041102316
 20
-145.9387233793139
 30
0.0
 10
92.04003225780596
 20
-145.816077980039
 30
0.0
 10
92.04003225780596
 20
-145.816077980039
 30
0.0
 10
92.23674721001373
 20
-145.9175360420796
 30
0.0
 10
92.23674721001373
 20
-145.9175360420796
 30
0.0
 10
92.24932180853491
 20
-145.9239094687274
 30
0.0
 10
92.26189640705605
 20
-145.9323499526662
 30
0.0
 10
92.26189640705605
 20
-145.9471638632528
 30
0.0
 10
92.26189640705605
 20
-145.9683512004871
 30
0.0
 10
92.24019230549897
 20
-145.9810980537825
 30
0.0
 10
92.23312985975423
 20
-145.9831651110736
 30
0.0
 10
92.20970321045452
 20
-145.9916055950125
 30
0.0
 10
92.2024685099355
 20
-145.9895385377213
 30
0.0
 10
92.18076440837842
 20
-146.0148599895379
 30
0.0
 10
92.15906030682134
 20
-146.0403536961288
 30
0.0
 10
92.16095510933824
 20
-146.0487941800676
 30
0.0
 10
92.13391110977902
 20
-146.1016763957662
 30
0.0
 10
92.13391110977902
 20
-146.1016763957662
 30
0.0
 10
92.41882050640919
 20
-146.1016763957662
 30
0.0
 10
92.41882050640919
 20
-146.1016763957662
 30
0.0
 10
92.63706730539977
 20
-146.1016763957662
 30
0.0
 10
92.66411130495898
 20
-146.0889295424708
 30
0.0
 10
92.712687151301
 20
-146.0593017212977
 30
0.0
 10
92.712687151301
 20
-146.0593017212977
 30
0.0
 10
92.84618460135444
 20
-146.2243217950411
 30
0.0
 10
92.84618460135444
 20
-146.2243217950411
 30
0.0
 10
92.81724579927832
 20
-146.260323042862
 30
0.0
 10
92.81552325153571
 20
-146.2623901001531
 30
0.0
 10
92.79381914997863
 20
-146.2899508640351
 30
0.0
  0
HATCH
  5
82
330
7D
100
AcDbEntity
  8
レイヤー 1
 62
   250
420
  2299925
440
 33554687
100
AcDbHatch
 10
0.0
 20
0.0
 30
0.0
210
0.0
220
0.0
230
1.0
  2
SOLID
 70
     1
 71
     1
 91
        1
 92
        1
 93
        1
 72
     4
 94
        3
 73
     0
 74
     0
 95
       59
 96
       55
 40
0.0
 40
0.0
 40
0.0
 40
0.0
 40
1.0
 40
1.0
 40
1.0
 40
2.0
 40
2.0
 40
2.0
 40
3.0
 40
3.0
 40
3.0
 40
4.0
 40
4.0
 40
4.0
 40
5.0
 40
5.0
 40
5.0
 40
6.0
 40
6.0
 40
6.0
 40
7.0
 40
7.0
 40
7.0
 40
8.0
 40
8.0
 40
8.0
 40
9.0
 40
9.0
 40
9.0
 40
10.0
 40
10.0
 40
10.0
 40
11.0
 40
11.0
 40
11.0
 40
12.0
 40
12.0
 40
12.0
 40
13.0
 40
13.0
 40
13.0
 40
14.0
 40
14.0
 40
14.0
 40
15.0
 40
15.0
 40
15.0
 40
16.0
 40
16.0
 40
16.0
 40
17.0
 40
17.0
 40
17.0
 40
18.0
 40
18.0
 40
18.0
 40
18.0
 10
92.79381914997863
 20
-146.2899508640351
 10
92.65136445166355
 20
-146.7765706013267
 10
92.43862980544937
 20
-147.2990193316648
 10
91.92823890930961
 20
-147.6163126258563
 10
91.92823890930961
 20
-147.6163126258563
 10
91.76786971447123
 20
-147.4640394054083
 10
91.76786971447123
 20
-147.4640394054083
 10
91.90481226000992
 20
-147.394276221832
 10
92.11410181073885
 20
-147.2842054210782
 10
92.32855900469564
 20
-146.9541652735913
 10
92.53061385490553
 20
-146.6411783487563
 10
92.57936195602182
 20
-146.3852077542023
 10
92.60278860532153
 20
-146.2582559855708
 10
92.60278860532153
 20
-146.2582559855708
 10
92.05088430858451
 20
-146.2582559855708
 10
92.05088430858451
 20
-146.2582559855708
 10
91.96251760938784
 20
-146.4189696899578
 10
91.85985376392741
 20
-146.5860568209924
 10
91.69569496405525
 20
-146.7574503213835
 10
91.69569496405525
 20
-146.7574503213835
 10
91.54772811296377
 20
-146.6348049221086
 10
91.54772811296377
 20
-146.6348049221086
 10
91.59837101659695
 20
-146.5882961330578
 10
91.72446151135707
 20
-146.4761582750129
 10
91.86519366192953
 20
-146.2265611071065
 10
91.93013371182649
 20
-146.1080498224139
 10
92.01850041102316
 20
-145.9387233793139
 10
92.04003225780596
 20
-145.816077980039
 10
92.04003225780596
 20
-145.816077980039
 10
92.23674721001373
 20
-145.9175360420796
 10
92.23674721001373
 20
-145.9175360420796
 10
92.24932180853491
 20
-145.9239094687274
 10
92.26189640705605
 20
-145.9323499526662
 10
92.26189640705605
 20
-145.9471638632528
 10
92.26189640705605
 20
-145.9683512004871
 10
92.24019230549897
 20
-145.9810980537825
 10
92.23312985975423
 20
-145.9831651110736
 10
92.20970321045452
 20
-145.9916055950125
 10
92.2024685099355
 20
-145.9895385377213
 10
92.18076440837842
 20
-146.0148599895379
 10
92.15906030682134
 20
-146.0403536961288
 10
92.16095510933824
 20
-146.0487941800676
 10
92.13391110977902
 20
-146.1016763957662
 10
92.13391110977902
 20
-146.1016763957662
 10
92.41882050640919
 20
-146.1016763957662
 10
92.41882050640919
 20
-146.1016763957662
 10
92.63706730539977
 20
-146.1016763957662
 10
92.66411130495898
 20
-146.0889295424708
 10
92.712687151301
 20
-146.0593017212977
 10
92.712687151301
 20
-146.0593017212977
 10
92.84618460135444
 20
-146.2243217950411
 10
92.84618460135444
 20
-146.2243217950411
 10
92.81724579927832
 20
-146.260323042862
 10
92.81552325153571
 20
-146.2623901001531
 10
92.79381914997863
 20
-146.2899508640351
 97
        0
 97
        1
330
81
 75
     2
 76
     1
 98
        1
 10
0.0
 20
0.0
450
        0
451
        0
460
0.0
461
0.0
452
        0
462
0.0
453
        0
470

  0
SPLINE
  5
83
330
7D
100
AcDbEntity
  8
レイヤー 1
100
AcDbSpline
210
0.0
220
0.0
230
1.0
 70
    11
 71
     3
 72
    17
 73
    13
 74
     0
 42
0.0000000001
 43
0.0000000001
 40
0.0
 40
0.0
 40
0.0
 40
0.0
 40
1.0
 40
1.0
 40
1.0
 40
2.0
 40
2.0
 40
2.0
 40
3.0
 40
3.0
 40
3.0
 40
4.0
 40
4.0
 40
4.0
 40
4.0
 10
94.19183889789302
 20
-146.1990003432245
 30
0.0
 10
94.19183889789302
 20
-146.1990003432245
 30
0.0
 10
93.30455455566692
 20
-146.1990003432245
 30
0.0
 10
93.30455455566692
 20
-146.1990003432245
 30
0.0
 10
93.30455455566692
 20
-146.1990003432245
 30
0.0
 10
93.30455455566692
 20
-147.0874904688705
 30
0.0
 10
93.30455455566692
 20
-147.0874904688705
 30
0.0
 10
93.30455455566692
 20
-147.0874904688705
 30
0.0
 10
94.19183889789302
 20
-147.0874904688705
 30
0.0
 10
94.19183889789302
 20
-147.0874904688705
 30
0.0
 10
94.19183889789302
 20
-147.0874904688705
 30
0.0
 10
94.19183889789302
 20
-146.1990003432245
 30
0.0
 10
94.19183889789302
 20
-146.1990003432245
 30
0.0
  0
SPLINE
  5
84
330
7D
100
AcDbEntity
  8
レイヤー 1
100
AcDbSpline
210
0.0
220
0.0
230
1.0
 70
     9
 71
     3
 72
    53
 73
    49
 74
     0
 42
0.0000000001
 43
0.0000000001
 40
0.0
 40
0.0
 40
0.0
 40
0.0
 40
1.0
 40
1.0
 40
1.0
 40
2.0
 40
2.0
 40
2.0
 40
3.0
 40
3.0
 40
3.0
 40
4.0
 40
4.0
 40
4.0
 40
5.0
 40
5.0
 40
5.0
 40
6.0
 40
6.0
 40
6.0
 40
7.0
 40
7.0
 40
7.0
 40
8.0
 40
8.0
 40
8.0
 40
9.0
 40
9.0
 40
9.0
 40
10.0
 40
10.0
 40
10.0
 40
11.0
 40
11.0
 40
11.0
 40
12.0
 40
12.0
 40
12.0
 40
13.0
 40
13.0
 40
13.0
 40
14.0
 40
14.0
 40
14.0
 40
15.0
 40
15.0
 40
15.0
 40
16.0
 40
16.0
 40
16.0
 40
16.0
 10
94.17202959885283
 20
-147.4027167057708
 30
0.0
 10
94.17926429937185
 20
-147.3582749740111
 30
0.0
 10
94.17926429937185
 20
-147.3498344900723
 30
0.0
 10
94.18460419737398
 20
-147.2757649371394
 30
0.0
 10
94.18460419737398
 20
-147.2757649371394
 30
0.0
 10
93.30644935818382
 20
-147.2757649371394
 30
0.0
 10
93.30644935818382
 20
-147.2757649371394
 30
0.0
 10
93.30644935818382
 20
-147.3074598156037
 30
0.0
 10
93.30644935818382
 20
-147.3625813433677
 30
0.0
 10
93.31006670844331
 20
-147.3984103364143
 30
0.0
 10
93.31006670844331
 20
-147.3984103364143
 30
0.0
 10
93.10439450797391
 20
-147.3984103364143
 30
0.0
 10
93.10439450797391
 20
-147.3984103364143
 30
0.0
 10
93.10990666075031
 20
-147.3434610634245
 30
0.0
 10
93.11886390901195
 20
-147.2525105426139
 30
0.0
 10
93.11886390901195
 20
-147.1234917166913
 30
0.0
 10
93.12075871152883
 20
-146.9183362805447
 30
0.0
 10
93.12075871152883
 20
-146.894909631245
 30
0.0
 10
93.12075871152883
 20
-146.8716552367196
 30
0.0
 10
93.12075871152883
 20
-146.8716552367196
 30
0.0
 10
93.12075871152883
 20
-146.4317165432532
 30
0.0
 10
93.12075871152883
 20
-146.4317165432532
 30
0.0
 10
93.12075871152883
 20
-146.3660874742592
 30
0.0
 10
93.11524655875244
 20
-146.0424207534199
 30
0.0
 10
93.11162920849293
 20
-145.9874714804302
 30
0.0
 10
93.21808265898715
 20
-146.0000460789514
 30
0.0
 10
93.44356415849675
 20
-146.0043524483079
 30
0.0
 10
93.5553575069931
 20
-146.0043524483079
 30
0.0
 10
93.5553575069931
 20
-146.0043524483079
 30
0.0
 10
93.94293074908372
 20
-146.0043524483079
 30
0.0
 10
93.94293074908372
 20
-146.0043524483079
 30
0.0
 10
94.071088301135
 20
-146.0043524483079
 30
0.0
 10
94.26211884579211
 20
-146.0022853910168
 30
0.0
 10
94.38665904758389
 20
-145.9938449070779
 30
0.0
 10
94.37942434706487
 20
-146.1037434530574
 30
0.0
 10
94.37580699680536
 20
-146.3533406209637
 30
0.0
 10
94.37580699680536
 20
-146.4718519056563
 30
0.0
 10
94.37580699680536
 20
-146.4718519056563
 30
0.0
 10
94.37580699680536
 20
-146.8907755166627
 30
0.0
 10
94.37580699680536
 20
-146.8907755166627
 30
0.0
 10
94.37580699680536
 20
-146.9331501911313
 30
0.0
 10
94.3811468948075
 20
-147.1150512327525
 30
0.0
 10
94.3811468948075
 20
-147.1531195378645
 30
0.0
 10
94.38304169732438
 20
-147.3033257010214
 30
0.0
 10
94.3902763978434
 20
-147.3539686046545
 30
0.0
 10
94.39751109836242
 20
-147.4027167057708
 30
0.0
 10
94.39751109836242
 20
-147.4027167057708
 30
0.0
 10
94.17202959885283
 20
-147.4027167057708
 30
0.0
 10
94.17202959885283
 20
-147.4027167057708
 30
0.0
  0
HATCH
  5
85
330
7D
100
AcDbEntity
  8
レイヤー 1
 62
   250
420
  2299925
440
 33554687
100
AcDbHatch
 10
0.0
 20
0.0
 30
0.0
210
0.0
220
0.0
230
1.0
  2
SOLID
 70
     1
 71
     1
 91
        2
 92
        1
 93
        1
 72
     4
 94
        3
 73
     0
 74
     0
 95
       17
 96
       13
 40
0.0
 40
0.0
 40
0.0
 40
0.0
 40
1.0
 40
1.0
 40
1.0
 40
2.0
 40
2.0
 40
2.0
 40
3.0
 40
3.0
 40
3.0
 40
4.0
 40
4.0
 40
4.0
 40
4.0
 10
94.19183889789302
 20
-146.1990003432245
 10
94.19183889789302
 20
-146.1990003432245
 10
93.30455455566692
 20
-146.1990003432245
 10
93.30455455566692
 20
-146.1990003432245
 10
93.30455455566692
 20
-146.1990003432245
 10
93.30455455566692
 20
-147.0874904688705
 10
93.30455455566692
 20
-147.0874904688705
 10
93.30455455566692
 20
-147.0874904688705
 10
94.19183889789302
 20
-147.0874904688705
 10
94.19183889789302
 20
-147.0874904688705
 10
94.19183889789302
 20
-147.0874904688705
 10
94.19183889789302
 20
-146.1990003432245
 10
94.19183889789302
 20
-146.1990003432245
 97
        0
 97
        1
330
83
 92
        1
 93
        1
 72
     4
 94
        3
 73
     0
 74
     0
 95
       53
 96
       49
 40
0.0
 40
0.0
 40
0.0
 40
0.0
 40
1.0
 40
1.0
 40
1.0
 40
2.0
 40
2.0
 40
2.0
 40
3.0
 40
3.0
 40
3.0
 40
4.0
 40
4.0
 40
4.0
 40
5.0
 40
5.0
 40
5.0
 40
6.0
 40
6.0
 40
6.0
 40
7.0
 40
7.0
 40
7.0
 40
8.0
 40
8.0
 40
8.0
 40
9.0
 40
9.0
 40
9.0
 40
10.0
 40
10.0
 40
10.0
 40
11.0
 40
11.0
 40
11.0
 40
12.0
 40
12.0
 40
12.0
 40
13.0
 40
13.0
 40
13.0
 40
14.0
 40
14.0
 40
14.0
 40
15.0
 40
15.0
 40
15.0
 40
16.0
 40
16.0
 40
16.0
 40
16.0
 10
94.17202959885283
 20
-147.4027167057708
 10
94.17926429937185
 20
-147.3582749740111
 10
94.17926429937185
 20
-147.3498344900723
 10
94.18460419737398
 20
-147.2757649371394
 10
94.18460419737398
 20
-147.2757649371394
 10
93.30644935818382
 20
-147.2757649371394
 10
93.30644935818382
 20
-147.2757649371394
 10
93.30644935818382
 20
-147.3074598156037
 10
93.30644935818382
 20
-147.3625813433677
 10
93.31006670844331
 20
-147.3984103364143
 10
93.31006670844331
 20
-147.3984103364143
 10
93.10439450797391
 20
-147.3984103364143
 10
93.10439450797391
 20
-147.3984103364143
 10
93.10990666075031
 20
-147.3434610634245
 10
93.11886390901195
 20
-147.2525105426139
 10
93.11886390901195
 20
-147.1234917166913
 10
93.12075871152883
 20
-146.9183362805447
 10
93.12075871152883
 20
-146.894909631245
 10
93.12075871152883
 20
-146.8716552367196
 10
93.12075871152883
 20
-146.8716552367196
 10
93.12075871152883
 20
-146.4317165432532
 10
93.12075871152883
 20
-146.4317165432532
 10
93.12075871152883
 20
-146.3660874742592
 10
93.11524655875244
 20
-146.0424207534199
 10
93.11162920849293
 20
-145.9874714804302
 10
93.21808265898715
 20
-146.0000460789514
 10
93.44356415849675
 20
-146.0043524483079
 10
93.5553575069931
 20
-146.0043524483079
 10
93.5553575069931
 20
-146.0043524483079
 10
93.94293074908372
 20
-146.0043524483079
 10
93.94293074908372
 20
-146.0043524483079
 10
94.071088301135
 20
-146.0043524483079
 10
94.26211884579211
 20
-146.0022853910168
 10
94.38665904758389
 20
-145.9938449070779
 10
94.37942434706487
 20
-146.1037434530574
 10
94.37580699680536
 20
-146.3533406209637
 10
94.37580699680536
 20
-146.4718519056563
 10
94.37580699680536
 20
-146.4718519056563
 10
94.37580699680536
 20
-146.8907755166627
 10
94.37580699680536
 20
-146.8907755166627
 10
94.37580699680536
 20
-146.9331501911313
 10
94.3811468948075
 20
-147.1150512327525
 10
94.3811468948075
 20
-147.1531195378645
 10
94.38304169732438
 20
-147.3033257010214
 10
94.3902763978434
 20
-147.3539686046545
 10
94.39751109836242
 20
-147.4027167057708
 10
94.39751109836242
 20
-147.4027167057708
 10
94.17202959885283
 20
-147.4027167057708
 10
94.17202959885283
 20
-147.4027167057708
 97
        0
 97
        1
330
84
 75
     2
 76
     1
 98
        1
 10
0.0
 20
0.0
450
        0
451
        0
460
0.0
461
0.0
452
        0
462
0.0
453
        0
470

  0
SPLINE
  5
86
330
7D
100
AcDbEntity
  8
レイヤー 1
100
AcDbSpline
210
0.0
220
0.0
230
1.0
 70
     9
 71
     3
 72
    56
 73
    52
 74
     0
 42
0.0000000001
 43
0.0000000001
 40
0.0
 40
0.0
 40
0.0
 40
0.0
 40
1.0
 40
1.0
 40
1.0
 40
2.0
 40
2.0
 40
2.0
 40
3.0
 40
3.0
 40
3.0
 40
4.0
 40
4.0
 40
4.0
 40
5.0
 40
5.0
 40
5.0
 40
6.0
 40
6.0
 40
6.0
 40
7.0
 40
7.0
 40
7.0
 40
8.0
 40
8.0
 40
8.0
 40
9.0
 40
9.0
 40
9.0
 40
10.0
 40
10.0
 40
10.0
 40
11.0
 40
11.0
 40
11.0
 40
12.0
 40
12.0
 40
12.0
 40
13.0
 40
13.0
 40
13.0
 40
14.0
 40
14.0
 40
14.0
 40
15.0
 40
15.0
 40
15.0
 40
16.0
 40
16.0
 40
16.0
 40
17.0
 40
17.0
 40
17.0
 40
17.0
 10
95.88389754547348
 20
-147.4683457747648
 30
0.0
 10
95.71991100037559
 20
-147.1594929645122
 30
0.0
 10
95.49976939886811
 20
-146.9541652735913
 30
0.0
 10
95.42225475044999
 20
-146.8887084593715
 30
0.0
 10
95.17162405389807
 20
-147.2271890907973
 30
0.0
 10
94.92461070760565
 20
-147.3794623112454
 30
0.0
 10
94.75511200973135
 20
-147.4724798893471
 30
0.0
 10
94.75511200973135
 20
-147.4724798893471
 30
0.0
 10
94.6198920119353
 20
-147.2842054210782
 30
0.0
 10
94.6198920119353
 20
-147.2842054210782
 30
0.0
 10
94.70825871113197
 20
-147.2482041732574
 30
0.0
 10
94.89033200752741
 20
-147.1720675630334
 30
0.0
 10
95.08876950747781
 20
-146.9860324068299
 30
0.0
 10
95.31407875221315
 20
-146.7743312892613
 30
0.0
 10
95.4727253993089
 20
-146.4866658162429
 30
0.0
 10
95.57745630206049
 20
-146.1736788914079
 30
0.0
 10
95.57745630206049
 20
-146.1736788914079
 30
0.0
 10
95.25637340283521
 20
-146.1736788914079
 30
0.0
 10
95.25637340283521
 20
-146.1736788914079
 30
0.0
 10
95.1264933030413
 20
-146.1736788914079
 30
0.0
 10
94.94803735690537
 20
-146.1778130059903
 30
0.0
 10
94.82005205962833
 20
-146.1969332859334
 30
0.0
 10
94.82005205962833
 20
-146.1969332859334
 30
0.0
 10
94.82005205962833
 20
-145.985404423139
 30
0.0
 10
94.82005205962833
 20
-145.985404423139
 30
0.0
 10
94.87775740900627
 20
-145.9916055950125
 30
0.0
 10
95.09944930348209
 20
-146.0022853910168
 30
0.0
 10
95.17351885641495
 20
-146.0022853910168
 30
0.0
 10
95.17351885641495
 20
-146.0022853910168
 30
0.0
 10
95.43844669923066
 20
-146.0022853910168
 30
0.0
 10
95.43844669923066
 20
-146.0022853910168
 30
0.0
 10
95.615180097624
 20
-146.0022853910168
 30
0.0
 10
95.63516165143843
 20
-145.995911964369
 30
0.0
 10
95.65497095047863
 20
-145.9916055950125
 30
0.0
 10
95.69286700081638
 20
-145.985404423139
 30
0.0
 10
95.72525089837773
 20
-145.9599107165482
 30
0.0
 10
95.74333764967528
 20
-145.9430297486705
 30
0.0
 10
95.74333764967528
 20
-145.9430297486705
 30
0.0
 10
95.87666284495446
 20
-146.1164903063528
 30
0.0
 10
95.87666284495446
 20
-146.1164903063528
 30
0.0
 10
95.84238414487622
 20
-146.1440510702348
 30
0.0
 10
95.83170434887193
 20
-146.1545586114648
 30
0.0
 10
95.79019094827469
 20
-146.1905598592857
 30
0.0
 10
95.68012014752095
 20
-146.4380899699009
 30
0.0
 10
95.61156274736447
 20
-146.5882961330578
 30
0.0
 10
95.52319604816782
 20
-146.7341959268581
 30
0.0
 10
95.79019094827469
 20
-146.9520982163002
 30
0.0
 10
95.98483884319129
 20
-147.2376966320274
 30
0.0
 10
96.02996959404807
 20
-147.3159002995425
 30
0.0
 10
96.02996959404807
 20
-147.3159002995425
 30
0.0
 10
95.88389754547348
 20
-147.4683457747648
 30
0.0
 10
95.88389754547348
 20
-147.4683457747648
 30
0.0
  0
HATCH
  5
87
330
7D
100
AcDbEntity
  8
レイヤー 1
 62
   250
420
  2299925
440
 33554687
100
AcDbHatch
 10
0.0
 20
0.0
 30
0.0
210
0.0
220
0.0
230
1.0
  2
SOLID
 70
     1
 71
     1
 91
        1
 92
        1
 93
        1
 72
     4
 94
        3
 73
     0
 74
     0
 95
       56
 96
       52
 40
0.0
 40
0.0
 40
0.0
 40
0.0
 40
1.0
 40
1.0
 40
1.0
 40
2.0
 40
2.0
 40
2.0
 40
3.0
 40
3.0
 40
3.0
 40
4.0
 40
4.0
 40
4.0
 40
5.0
 40
5.0
 40
5.0
 40
6.0
 40
6.0
 40
6.0
 40
7.0
 40
7.0
 40
7.0
 40
8.0
 40
8.0
 40
8.0
 40
9.0
 40
9.0
 40
9.0
 40
10.0
 40
10.0
 40
10.0
 40
11.0
 40
11.0
 40
11.0
 40
12.0
 40
12.0
 40
12.0
 40
13.0
 40
13.0
 40
13.0
 40
14.0
 40
14.0
 40
14.0
 40
15.0
 40
15.0
 40
15.0
 40
16.0
 40
16.0
 40
16.0
 40
17.0
 40
17.0
 40
17.0
 40
17.0
 10
95.88389754547348
 20
-147.4683457747648
 10
95.71991100037559
 20
-147.1594929645122
 10
95.49976939886811
 20
-146.9541652735913
 10
95.42225475044999
 20
-146.8887084593715
 10
95.17162405389807
 20
-147.2271890907973
 10
94.92461070760565
 20
-147.3794623112454
 10
94.75511200973135
 20
-147.4724798893471
 10
94.75511200973135
 20
-147.4724798893471
 10
94.6198920119353
 20
-147.2842054210782
 10
94.6198920119353
 20
-147.2842054210782
 10
94.70825871113197
 20
-147.2482041732574
 10
94.89033200752741
 20
-147.1720675630334
 10
95.08876950747781
 20
-146.9860324068299
 10
95.31407875221315
 20
-146.7743312892613
 10
95.4727253993089
 20
-146.4866658162429
 10
95.57745630206049
 20
-146.1736788914079
 10
95.57745630206049
 20
-146.1736788914079
 10
95.25637340283521
 20
-146.1736788914079
 10
95.25637340283521
 20
-146.1736788914079
 10
95.1264933030413
 20
-146.1736788914079
 10
94.94803735690537
 20
-146.1778130059903
 10
94.82005205962833
 20
-146.1969332859334
 10
94.82005205962833
 20
-146.1969332859334
 10
94.82005205962833
 20
-145.985404423139
 10
94.82005205962833
 20
-145.985404423139
 10
94.87775740900627
 20
-145.9916055950125
 10
95.09944930348209
 20
-146.0022853910168
 10
95.17351885641495
 20
-146.0022853910168
 10
95.17351885641495
 20
-146.0022853910168
 10
95.43844669923066
 20
-146.0022853910168
 10
95.43844669923066
 20
-146.0022853910168
 10
95.615180097624
 20
-146.0022853910168
 10
95.63516165143843
 20
-145.995911964369
 10
95.65497095047863
 20
-145.9916055950125
 10
95.69286700081638
 20
-145.985404423139
 10
95.72525089837773
 20
-145.9599107165482
 10
95.74333764967528
 20
-145.9430297486705
 10
95.74333764967528
 20
-145.9430297486705
 10
95.87666284495446
 20
-146.1164903063528
 10
95.87666284495446
 20
-146.1164903063528
 10
95.84238414487622
 20
-146.1440510702348
 10
95.83170434887193
 20
-146.1545586114648
 10
95.79019094827469
 20
-146.1905598592857
 10
95.68012014752095
 20
-146.4380899699009
 10
95.61156274736447
 20
-146.5882961330578
 10
95.52319604816782
 20
-146.7341959268581
 10
95.79019094827469
 20
-146.9520982163002
 10
95.98483884319129
 20
-147.2376966320274
 10
96.02996959404807
 20
-147.3159002995425
 10
96.02996959404807
 20
-147.3159002995425
 10
95.88389754547348
 20
-147.4683457747648
 10
95.88389754547348
 20
-147.4683457747648
 97
        0
 97
        1
330
86
 75
     2
 76
     1
 98
        1
 10
0.0
 20
0.0
450
        0
451
        0
460
0.0
461
0.0
452
        0
462
0.0
453
        0
470

  0
SPLINE
  5
88
330
7D
100
AcDbEntity
  8
レイヤー 1
100
AcDbSpline
210
0.0
220
0.0
230
1.0
 70
    11
 71
     3
 72
    17
 73
    13
 74
     0
 42
0.0000000001
 43
0.0000000001
 40
0.0
 40
0.0
 40
0.0
 40
0.0
 40
1.0
 40
1.0
 40
1.0
 40
2.0
 40
2.0
 40
2.0
 40
3.0
 40
3.0
 40
3.0
 40
4.0
 40
4.0
 40
4.0
 40
4.0
 10
97.48586694611466
 20
-146.4909721855994
 30
0.0
 10
97.48586694611466
 20
-146.4909721855994
 30
0.0
 10
97.09450409899027
 20
-146.4909721855994
 30
0.0
 10
97.09450409899027
 20
-146.4909721855994
 30
0.0
 10
97.09450409899027
 20
-146.4909721855994
 30
0.0
 10
97.09450409899027
 20
-146.7998249958521
 30
0.0
 10
97.09450409899027
 20
-146.7998249958521
 30
0.0
 10
97.09450409899027
 20
-146.7998249958521
 30
0.0
 10
97.48586694611466
 20
-146.7998249958521
 30
0.0
 10
97.48586694611466
 20
-146.7998249958521
 30
0.0
 10
97.48586694611466
 20
-146.7998249958521
 30
0.0
 10
97.48586694611466
 20
-146.4909721855994
 30
0.0
 10
97.48586694611466
 20
-146.4909721855994
 30
0.0
  0
SPLINE
  5
89
330
7D
100
AcDbEntity
  8
レイヤー 1
100
AcDbSpline
210
0.0
220
0.0
230
1.0
 70
    11
 71
     3
 72
    17
 73
    13
 74
     0
 42
0.0000000001
 43
0.0000000001
 40
0.0
 40
0.0
 40
0.0
 40
0.0
 40
1.0
 40
1.0
 40
1.0
 40
2.0
 40
2.0
 40
2.0
 40
3.0
 40
3.0
 40
3.0
 40
4.0
 40
4.0
 40
4.0
 40
4.0
 10
97.48586694611466
 20
-146.0191663588945
 30
0.0
 10
97.48586694611466
 20
-146.0191663588945
 30
0.0
 10
97.09450409899027
 20
-146.0191663588945
 30
0.0
 10
97.09450409899027
 20
-146.0191663588945
 30
0.0
 10
97.09450409899027
 20
-146.0191663588945
 30
0.0
 10
97.09450409899027
 20
-146.3237127997906
 30
0.0
 10
97.09450409899027
 20
-146.3237127997906
 30
0.0
 10
97.09450409899027
 20
-146.3237127997906
 30
0.0
 10
97.48586694611466
 20
-146.3237127997906
 30
0.0
 10
97.48586694611466
 20
-146.3237127997906
 30
0.0
 10
97.48586694611466
 20
-146.3237127997906
 30
0.0
 10
97.48586694611466
 20
-146.0191663588945
 30
0.0
 10
97.48586694611466
 20
-146.0191663588945
 30
0.0
  0
SPLINE
  5
8A
330
7D
100
AcDbEntity
  8
レイヤー 1
100
AcDbSpline
210
0.0
220
0.0
230
1.0
 70
    11
 71
     3
 72
    17
 73
    13
 74
     0
 42
0.0000000001
 43
0.0000000001
 40
0.0
 40
0.0
 40
0.0
 40
0.0
 40
1.0
 40
1.0
 40
1.0
 40
2.0
 40
2.0
 40
2.0
 40
3.0
 40
3.0
 40
3.0
 40
4.0
 40
4.0
 40
4.0
 40
4.0
 10
96.932240101635
 20
-146.4909721855994
 30
0.0
 10
96.932240101635
 20
-146.4909721855994
 30
0.0
 10
96.55896400580818
 20
-146.4909721855994
 30
0.0
 10
96.55896400580818
 20
-146.4909721855994
 30
0.0
 10
96.55896400580818
 20
-146.4909721855994
 30
0.0
 10
96.55896400580818
 20
-146.7998249958521
 30
0.0
 10
96.55896400580818
 20
-146.7998249958521
 30
0.0
 10
96.55896400580818
 20
-146.7998249958521
 30
0.0
 10
96.932240101635
 20
-146.7998249958521
 30
0.0
 10
96.932240101635
 20
-146.7998249958521
 30
0.0
 10
96.932240101635
 20
-146.7998249958521
 30
0.0
 10
96.932240101635
 20
-146.4909721855994
 30
0.0
 10
96.932240101635
 20
-146.4909721855994
 30
0.0
  0
SPLINE
  5
8B
330
7D
100
AcDbEntity
  8
レイヤー 1
100
AcDbSpline
210
0.0
220
0.0
230
1.0
 70
    11
 71
     3
 72
    17
 73
    13
 74
     0
 42
0.0000000001
 43
0.0000000001
 40
0.0
 40
0.0
 40
0.0
 40
0.0
 40
1.0
 40
1.0
 40
1.0
 40
2.0
 40
2.0
 40
2.0
 40
3.0
 40
3.0
 40
3.0
 40
4.0
 40
4.0
 40
4.0
 40
4.0
 10
96.932240101635
 20
-146.0191663588945
 30
0.0
 10
96.932240101635
 20
-146.0191663588945
 30
0.0
 10
96.55896400580818
 20
-146.0191663588945
 30
0.0
 10
96.55896400580818
 20
-146.0191663588945
 30
0.0
 10
96.55896400580818
 20
-146.0191663588945
 30
0.0
 10
96.55896400580818
 20
-146.3237127997906
 30
0.0
 10
96.55896400580818
 20
-146.3237127997906
 30
0.0
 10
96.55896400580818
 20
-146.3237127997906
 30
0.0
 10
96.932240101635
 20
-146.3237127997906
 30
0.0
 10
96.932240101635
 20
-146.3237127997906
 30
0.0
 10
96.932240101635
 20
-146.3237127997906
 30
0.0
 10
96.932240101635
 20
-146.0191663588945
 30
0.0
 10
96.932240101635
 20
-146.0191663588945
 30
0.0
  0
SPLINE
  5
8C
330
7D
100
AcDbEntity
  8
レイヤー 1
100
AcDbSpline
210
0.0
220
0.0
230
1.0
 70
     9
 71
     3
 72
    77
 73
    73
 74
     0
 42
0.0000000001
 43
0.0000000001
 40
0.0
 40
0.0
 40
0.0
 40
0.0
 40
1.0
 40
1.0
 40
1.0
 40
2.0
 40
2.0
 40
2.0
 40
3.0
 40
3.0
 40
3.0
 40
4.0
 40
4.0
 40
4.0
 40
5.0
 40
5.0
 40
5.0
 40
6.0
 40
6.0
 40
6.0
 40
7.0
 40
7.0
 40
7.0
 40
8.0
 40
8.0
 40
8.0
 40
9.0
 40
9.0
 40
9.0
 40
10.0
 40
10.0
 40
10.0
 40
11.0
 40
11.0
 40
11.0
 40
12.0
 40
12.0
 40
12.0
 40
13.0
 40
13.0
 40
13.0
 40
14.0
 40
14.0
 40
14.0
 40
15.0
 40
15.0
 40
15.0
 40
16.0
 40
16.0
 40
16.0
 40
17.0
 40
17.0
 40
17.0
 40
18.0
 40
18.0
 40
18.0
 40
19.0
 40
19.0
 40
19.0
 40
20.0
 40
20.0
 40
20.0
 40
21.0
 40
21.0
 40
21.0
 40
22.0
 40
22.0
 40
22.0
 40
23.0
 40
23.0
 40
23.0
 40
24.0
 40
24.0
 40
24.0
 40
24.0
 10
97.60127764487052
 20
-147.6058050846263
 30
0.0
 10
97.56165904679015
 20
-147.6311265364429
 30
0.0
 10
97.45520559629593
 20
-147.6438733897383
 30
0.0
 10
97.38854299865636
 20
-147.6438733897383
 30
0.0
 10
97.37769094787781
 20
-147.6438733897383
 30
0.0
 10
97.35598684632073
 20
-147.6438733897383
 30
0.0
 10
97.32722029901889
 20
-147.6395670203817
 30
0.0
 10
97.32722029901889
 20
-147.6395670203817
 30
0.0
 10
97.24419349782436
 20
-147.4132242470008
 30
0.0
 10
97.24419349782436
 20
-147.4132242470008
 30
0.0
 10
97.26951494964097
 20
-147.4195976736486
 30
0.0
 10
97.31809079598299
 20
-147.4280381575874
 30
0.0
 10
97.41730954595817
 20
-147.4280381575874
 30
0.0
 10
97.48414439837203
 20
-147.4280381575874
 30
0.0
 10
97.48586694611466
 20
-147.3858357378931
 30
0.0
 10
97.48586694611466
 20
-147.328647152838
 30
0.0
 10
97.48586694611466
 20
-147.328647152838
 30
0.0
 10
97.48586694611466
 20
-146.9796589801821
 30
0.0
 10
97.48586694611466
 20
-146.9796589801821
 30
0.0
 10
97.48586694611466
 20
-146.9796589801821
 30
0.0
 10
97.09450409899027
 20
-146.9796589801821
 30
0.0
 10
97.09450409899027
 20
-146.9796589801821
 30
0.0
 10
97.09639890150716
 20
-147.1171182900436
 30
0.0
 10
97.09812144924978
 20
-147.3159002995425
 30
0.0
 10
97.10363360202618
 20
-147.4492254948217
 30
0.0
 10
97.10535614976882
 20
-147.4767862587037
 30
0.0
 10
97.10535614976882
 20
-147.5212279904634
 30
0.0
 10
97.11620820054735
 20
-147.5825506901009
 30
0.0
 10
97.11620820054735
 20
-147.5825506901009
 30
0.0
 10
96.91053600007792
 20
-147.5825506901009
 30
0.0
 10
96.91053600007792
 20
-147.5825506901009
 30
0.0
 10
96.932240101635
 20
-147.4576659787606
 30
0.0
 10
96.932240101635
 20
-147.1171182900436
 30
0.0
 10
96.932240101635
 20
-146.9796589801821
 30
0.0
 10
96.932240101635
 20
-146.9796589801821
 30
0.0
 10
96.55534665554867
 20
-146.9796589801821
 30
0.0
 10
96.55534665554867
 20
-146.9796589801821
 30
0.0
 10
96.53553735650849
 20
-147.1868814736199
 30
0.0
 10
96.47955455487318
 20
-147.4555989214694
 30
0.0
 10
96.31195065951578
 20
-147.6395670203817
 30
0.0
 10
96.31195065951578
 20
-147.6395670203817
 30
0.0
 10
96.15140920990313
 20
-147.5169216211069
 30
0.0
 10
96.15140920990313
 20
-147.5169216211069
 30
0.0
 10
96.36776120637682
 20
-147.2969522743737
 30
0.0
 10
96.39480520593602
 20
-146.9648450695956
 30
0.0
 10
96.39480520593602
 20
-146.6327378648175
 30
0.0
 10
96.39480520593602
 20
-146.6327378648175
 30
0.0
 10
96.39480520593602
 20
-146.1969332859334
 30
0.0
 10
96.39480520593602
 20
-146.1969332859334
 30
0.0
 10
96.39480520593602
 20
-146.1609320381125
 30
0.0
 10
96.39308265819341
 20
-145.9282158380839
 30
0.0
 10
96.38584795767437
 20
-145.826585521269
 30
0.0
 10
96.50487600668975
 20
-145.8372653172733
 30
0.0
 10
96.71037595238491
 20
-145.8372653172733
 30
0.0
 10
96.8330213516598
 20
-145.8372653172733
 30
0.0
 10
96.8330213516598
 20
-145.8372653172733
 30
0.0
 10
97.2243841987842
 20
-145.8372653172733
 30
0.0
 10
97.2243841987842
 20
-145.8372653172733
 30
0.0
 10
97.23695879730534
 20
-145.8372653172733
 30
0.0
 10
97.53461504723093
 20
-145.8372653172733
 30
0.0
 10
97.66983504502698
 20
-145.826585521269
 30
0.0
 10
97.6679402425101
 20
-145.8794677369676
 30
0.0
 10
97.66260034450796
 20
-146.0403536961288
 30
0.0
 10
97.66260034450796
 20
-146.0911688545362
 30
0.0
 10
97.66260034450796
 20
-146.0911688545362
 30
0.0
 10
97.66260034450796
 20
-146.6981946790372
 30
0.0
 10
97.66260034450796
 20
-146.6981946790372
 30
0.0
 10
97.66260034450796
 20
-146.7173149589804
 30
0.0
 10
97.67155759276962
 20
-147.2885117904348
 30
0.0
 10
97.67155759276962
 20
-147.4006496484797
 30
0.0
 10
97.67155759276962
 20
-147.4576659787606
 30
0.0
 10
97.67155759276962
 20
-147.5592962955754
 30
0.0
 10
97.60127764487052
 20
-147.6058050846263
 30
0.0
  0
HATCH
  5
8D
330
7D
100
AcDbEntity
  8
レイヤー 1
 62
   250
420
  2299925
440
 33554687
100
AcDbHatch
 10
0.0
 20
0.0
 30
0.0
210
0.0
220
0.0
230
1.0
  2
SOLID
 70
     1
 71
     1
 91
        5
 92
        1
 93
        1
 72
     4
 94
        3
 73
     0
 74
     0
 95
       17
 96
       13
 40
0.0
 40
0.0
 40
0.0
 40
0.0
 40
1.0
 40
1.0
 40
1.0
 40
2.0
 40
2.0
 40
2.0
 40
3.0
 40
3.0
 40
3.0
 40
4.0
 40
4.0
 40
4.0
 40
4.0
 10
97.48586694611466
 20
-146.4909721855994
 10
97.48586694611466
 20
-146.4909721855994
 10
97.09450409899027
 20
-146.4909721855994
 10
97.09450409899027
 20
-146.4909721855994
 10
97.09450409899027
 20
-146.4909721855994
 10
97.09450409899027
 20
-146.7998249958521
 10
97.09450409899027
 20
-146.7998249958521
 10
97.09450409899027
 20
-146.7998249958521
 10
97.48586694611466
 20
-146.7998249958521
 10
97.48586694611466
 20
-146.7998249958521
 10
97.48586694611466
 20
-146.7998249958521
 10
97.48586694611466
 20
-146.4909721855994
 10
97.48586694611466
 20
-146.4909721855994
 97
        0
 97
        1
330
88
 92
        1
 93
        1
 72
     4
 94
        3
 73
     0
 74
     0
 95
       17
 96
       13
 40
0.0
 40
0.0
 40
0.0
 40
0.0
 40
1.0
 40
1.0
 40
1.0
 40
2.0
 40
2.0
 40
2.0
 40
3.0
 40
3.0
 40
3.0
 40
4.0
 40
4.0
 40
4.0
 40
4.0
 10
97.48586694611466
 20
-146.0191663588945
 10
97.48586694611466
 20
-146.0191663588945
 10
97.09450409899027
 20
-146.0191663588945
 10
97.09450409899027
 20
-146.0191663588945
 10
97.09450409899027
 20
-146.0191663588945
 10
97.09450409899027
 20
-146.3237127997906
 10
97.09450409899027
 20
-146.3237127997906
 10
97.09450409899027
 20
-146.3237127997906
 10
97.48586694611466
 20
-146.3237127997906
 10
97.48586694611466
 20
-146.3237127997906
 10
97.48586694611466
 20
-146.3237127997906
 10
97.48586694611466
 20
-146.0191663588945
 10
97.48586694611466
 20
-146.0191663588945
 97
        0
 97
        1
330
89
 92
        1
 93
        1
 72
     4
 94
        3
 73
     0
 74
     0
 95
       17
 96
       13
 40
0.0
 40
0.0
 40
0.0
 40
0.0
 40
1.0
 40
1.0
 40
1.0
 40
2.0
 40
2.0
 40
2.0
 40
3.0
 40
3.0
 40
3.0
 40
4.0
 40
4.0
 40
4.0
 40
4.0
 10
96.932240101635
 20
-146.4909721855994
 10
96.932240101635
 20
-146.4909721855994
 10
96.55896400580818
 20
-146.4909721855994
 10
96.55896400580818
 20
-146.4909721855994
 10
96.55896400580818
 20
-146.4909721855994
 10
96.55896400580818
 20
-146.7998249958521
 10
96.55896400580818
 20
-146.7998249958521
 10
96.55896400580818
 20
-146.7998249958521
 10
96.932240101635
 20
-146.7998249958521
 10
96.932240101635
 20
-146.7998249958521
 10
96.932240101635
 20
-146.7998249958521
 10
96.932240101635
 20
-146.4909721855994
 10
96.932240101635
 20
-146.4909721855994
 97
        0
 97
        1
330
8A
 92
        1
 93
        1
 72
     4
 94
        3
 73
     0
 74
     0
 95
       17
 96
       13
 40
0.0
 40
0.0
 40
0.0
 40
0.0
 40
1.0
 40
1.0
 40
1.0
 40
2.0
 40
2.0
 40
2.0
 40
3.0
 40
3.0
 40
3.0
 40
4.0
 40
4.0
 40
4.0
 40
4.0
 10
96.932240101635
 20
-146.0191663588945
 10
96.932240101635
 20
-146.0191663588945
 10
96.55896400580818
 20
-146.0191663588945
 10
96.55896400580818
 20
-146.0191663588945
 10
96.55896400580818
 20
-146.0191663588945
 10
96.55896400580818
 20
-146.3237127997906
 10
96.55896400580818
 20
-146.3237127997906
 10
96.55896400580818
 20
-146.3237127997906
 10
96.932240101635
 20
-146.3237127997906
 10
96.932240101635
 20
-146.3237127997906
 10
96.932240101635
 20
-146.3237127997906
 10
96.932240101635
 20
-146.0191663588945
 10
96.932240101635
 20
-146.0191663588945
 97
        0
 97
        1
330
8B
 92
        1
 93
        1
 72
     4
 94
        3
 73
     0
 74
     0
 95
       77
 96
       73
 40
0.0
 40
0.0
 40
0.0
 40
0.0
 40
1.0
 40
1.0
 40
1.0
 40
2.0
 40
2.0
 40
2.0
 40
3.0
 40
3.0
 40
3.0
 40
4.0
 40
4.0
 40
4.0
 40
5.0
 40
5.0
 40
5.0
 40
6.0
 40
6.0
 40
6.0
 40
7.0
 40
7.0
 40
7.0
 40
8.0
 40
8.0
 40
8.0
 40
9.0
 40
9.0
 40
9.0
 40
10.0
 40
10.0
 40
10.0
 40
11.0
 40
11.0
 40
11.0
 40
12.0
 40
12.0
 40
12.0
 40
13.0
 40
13.0
 40
13.0
 40
14.0
 40
14.0
 40
14.0
 40
15.0
 40
15.0
 40
15.0
 40
16.0
 40
16.0
 40
16.0
 40
17.0
 40
17.0
 40
17.0
 40
18.0
 40
18.0
 40
18.0
 40
19.0
 40
19.0
 40
19.0
 40
20.0
 40
20.0
 40
20.0
 40
21.0
 40
21.0
 40
21.0
 40
22.0
 40
22.0
 40
22.0
 40
23.0
 40
23.0
 40
23.0
 40
24.0
 40
24.0
 40
24.0
 40
24.0
 10
97.60127764487052
 20
-147.6058050846263
 10
97.56165904679015
 20
-147.6311265364429
 10
97.45520559629593
 20
-147.6438733897383
 10
97.38854299865636
 20
-147.6438733897383
 10
97.37769094787781
 20
-147.6438733897383
 10
97.35598684632073
 20
-147.6438733897383
 10
97.32722029901889
 20
-147.6395670203817
 10
97.32722029901889
 20
-147.6395670203817
 10
97.24419349782436
 20
-147.4132242470008
 10
97.24419349782436
 20
-147.4132242470008
 10
97.26951494964097
 20
-147.4195976736486
 10
97.31809079598299
 20
-147.4280381575874
 10
97.41730954595817
 20
-147.4280381575874
 10
97.48414439837203
 20
-147.4280381575874
 10
97.48586694611466
 20
-147.3858357378931
 10
97.48586694611466
 20
-147.328647152838
 10
97.48586694611466
 20
-147.328647152838
 10
97.48586694611466
 20
-146.9796589801821
 10
97.48586694611466
 20
-146.9796589801821
 10
97.48586694611466
 20
-146.9796589801821
 10
97.09450409899027
 20
-146.9796589801821
 10
97.09450409899027
 20
-146.9796589801821
 10
97.09639890150716
 20
-147.1171182900436
 10
97.09812144924978
 20
-147.3159002995425
 10
97.10363360202618
 20
-147.4492254948217
 10
97.10535614976882
 20
-147.4767862587037
 10
97.10535614976882
 20
-147.5212279904634
 10
97.11620820054735
 20
-147.5825506901009
 10
97.11620820054735
 20
-147.5825506901009
 10
96.91053600007792
 20
-147.5825506901009
 10
96.91053600007792
 20
-147.5825506901009
 10
96.932240101635
 20
-147.4576659787606
 10
96.932240101635
 20
-147.1171182900436
 10
96.932240101635
 20
-146.9796589801821
 10
96.932240101635
 20
-146.9796589801821
 10
96.55534665554867
 20
-146.9796589801821
 10
96.55534665554867
 20
-146.9796589801821
 10
96.53553735650849
 20
-147.1868814736199
 10
96.47955455487318
 20
-147.4555989214694
 10
96.31195065951578
 20
-147.6395670203817
 10
96.31195065951578
 20
-147.6395670203817
 10
96.15140920990313
 20
-147.5169216211069
 10
96.15140920990313
 20
-147.5169216211069
 10
96.36776120637682
 20
-147.2969522743737
 10
96.39480520593602
 20
-146.9648450695956
 10
96.39480520593602
 20
-146.6327378648175
 10
96.39480520593602
 20
-146.6327378648175
 10
96.39480520593602
 20
-146.1969332859334
 10
96.39480520593602
 20
-146.1969332859334
 10
96.39480520593602
 20
-146.1609320381125
 10
96.39308265819341
 20
-145.9282158380839
 10
96.38584795767437
 20
-145.826585521269
 10
96.50487600668975
 20
-145.8372653172733
 10
96.71037595238491
 20
-145.8372653172733
 10
96.8330213516598
 20
-145.8372653172733
 10
96.8330213516598
 20
-145.8372653172733
 10
97.2243841987842
 20
-145.8372653172733
 10
97.2243841987842
 20
-145.8372653172733
 10
97.23695879730534
 20
-145.8372653172733
 10
97.53461504723093
 20
-145.8372653172733
 10
97.66983504502698
 20
-145.826585521269
 10
97.6679402425101
 20
-145.8794677369676
 10
97.66260034450796
 20
-146.0403536961288
 10
97.66260034450796
 20
-146.0911688545362
 10
97.66260034450796
 20
-146.0911688545362
 10
97.66260034450796
 20
-146.6981946790372
 10
97.66260034450796
 20
-146.6981946790372
 10
97.66260034450796
 20
-146.7173149589804
 10
97.67155759276962
 20
-147.2885117904348
 10
97.67155759276962
 20
-147.4006496484797
 10
97.67155759276962
 20
-147.4576659787606
 10
97.67155759276962
 20
-147.5592962955754
 10
97.60127764487052
 20
-147.6058050846263
 97
        0
 97
        1
330
8C
 75
     2
 76
     1
 98
        1
 10
0.0
 20
0.0
450
        0
451
        0
460
0.0
461
0.0
452
        0
462
0.0
453
        0
470

  0
ENDBLK
  5
80
330
7D
100
AcDbEntity
  8
0
100
AcDbBlockEnd
  0
BLOCK
  5
90
330
8E
100
AcDbEntity
  8
0
100
AcDbBlockBegin
  2
Block_2
 70
     0
 10
0.0
 20
0.0
 30
0.0
  3
Block_2
  1

  0
INSERT
  5
93
330
8E
100
AcDbEntity
  8
レイヤー 1
100
AcDbBlockReference
  2
Block_3
 10
0.0
 20
0.0
 30
0.0
  0
ENDBLK
  5
91
330
8E
100
AcDbEntity
  8
0
100
AcDbBlockEnd
  0
BLOCK
  5
94
330
92
100
AcDbEntity
  8
0
100
AcDbBlockBegin
  2
Block_3
 70
     0
 10
0.0
 20
0.0
 30
0.0
  3
Block_3
  1

  0
SPLINE
  5
96
330
92
100
AcDbEntity
  8
レイヤー 1
100
AcDbSpline
210
0.0
220
0.0
230
1.0
 70
     9
 71
     3
 72
    17
 73
    13
 74
     0
 42
0.0000000001
 43
0.0000000001
 40
0.0
 40
0.0
 40
0.0
 40
0.0
 40
1.0
 40
1.0
 40
1.0
 40
2.0
 40
2.0
 40
2.0
 40
3.0
 40
3.0
 40
3.0
 40
4.0
 40
4.0
 40
4.0
 40
4.0
 10
92.95780569507654
 20
-148.3763006899024
 30
0.0
 10
92.91095239647713
 20
-148.3763006899024
 30
0.0
 10
92.87305634613938
 20
-148.4207424216621
 30
0.0
 10
92.87305634613938
 20
-148.4758639494262
 30
0.0
 10
92.87305634613938
 20
-148.532880279707
 30
0.0
 10
92.91095239647713
 20
-148.5816283808233
 30
0.0
 10
92.96142304533603
 20
-148.5816283808233
 30
0.0
 10
93.01189369419494
 20
-148.5816283808233
 30
0.0
 10
93.04617239427319
 20
-148.5308132224159
 30
0.0
 10
93.04617239427319
 20
-148.4779310067173
 30
0.0
 10
93.04617239427319
 20
-148.4207424216621
 30
0.0
 10
93.0065537961928
 20
-148.3763006899024
 30
0.0
 10
92.95780569507654
 20
-148.3763006899024
 30
0.0
  0
SPLINE
  5
97
330
92
100
AcDbEntity
  8
レイヤー 1
100
AcDbSpline
210
0.0
220
0.0
230
1.0
 70
    11
 71
     3
 72
    17
 73
    13
 74
     0
 42
0.0000000001
 43
0.0000000001
 40
0.0
 40
0.0
 40
0.0
 40
0.0
 40
1.0
 40
1.0
 40
1.0
 40
2.0
 40
2.0
 40
2.0
 40
3.0
 40
3.0
 40
3.0
 40
4.0
 40
4.0
 40
4.0
 40
4.0
 10
92.95970049759342
 20
-148.7063408373894
 30
0.0
 10
92.85152449935656
 20
-148.7063408373894
 30
0.0
 10
92.76488034790252
 20
-148.6048827753488
 30
0.0
 10
92.76488034790252
 20
-148.4779310067173
 30
0.0
 10
92.76488034790252
 20
-148.3509792380858
 30
0.0
 10
92.85152449935656
 20
-148.2472818639798
 30
0.0
 10
92.95970049759342
 20
-148.2472818639798
 30
0.0
 10
93.06787649583027
 20
-148.2472818639798
 30
0.0
 10
93.15624319502692
 20
-148.3509792380858
 30
0.0
 10
93.15624319502692
 20
-148.4779310067173
 30
0.0
 10
93.15624319502692
 20
-148.6048827753488
 30
0.0
 10
93.06787649583027
 20
-148.7063408373894
 30
0.0
 10
92.95970049759342
 20
-148.7063408373894
 30
0.0
  0
SPLINE
  5
98
330
92
100
AcDbEntity
  8
レイヤー 1
100
AcDbSpline
210
0.0
220
0.0
230
1.0
 70
     9
 71
     3
 72
    44
 73
    40
 74
     0
 42
0.0000000001
 43
0.0000000001
 40
0.0
 40
0.0
 40
0.0
 40
0.0
 40
1.0
 40
1.0
 40
1.0
 40
2.0
 40
2.0
 40
2.0
 40
3.0
 40
3.0
 40
3.0
 40
4.0
 40
4.0
 40
4.0
 40
5.0
 40
5.0
 40
5.0
 40
6.0
 40
6.0
 40
6.0
 40
7.0
 40
7.0
 40
7.0
 40
8.0
 40
8.0
 40
8.0
 40
9.0
 40
9.0
 40
9.0
 40
10.0
 40
10.0
 40
10.0
 40
11.0
 40
11.0
 40
11.0
 40
12.0
 40
12.0
 40
12.0
 40
13.0
 40
13.0
 40
13.0
 40
13.0
 10
92.7810722966832
 20
-148.9052951016625
 30
0.0
 10
92.68564315174179
 20
-149.2732312994872
 30
0.0
 10
92.64223494862765
 20
-149.4320502013573
 30
0.0
 10
92.47463105327023
 20
-149.6814751144893
 30
0.0
 10
92.31770695391711
 20
-149.9119520024525
 30
0.0
 10
92.1156521037072
 20
-150.0983316682046
 30
0.0
 10
91.87776826045071
 20
-150.1913492463063
 30
0.0
 10
91.87776826045071
 20
-150.1913492463063
 30
0.0
 10
91.71360946057856
 20
-150.0115152619763
 30
0.0
 10
91.71360946057856
 20
-150.0115152619763
 30
0.0
 10
92.26000160453917
 20
-149.8592420415282
 30
0.0
 10
92.54129365090982
 20
-149.3028591206604
 30
0.0
 10
92.59538165002824
 20
-148.862920427194
 30
0.0
 10
92.59538165002824
 20
-148.862920427194
 30
0.0
 10
91.9425360555734
 20
-148.862920427194
 30
0.0
 10
91.9425360555734
 20
-148.862920427194
 30
0.0
 10
91.86329885941265
 20
-148.862920427194
 30
0.0
 10
91.70637476005952
 20
-148.8672267965506
 30
0.0
 10
91.57287731000609
 20
-148.8860025669452
 30
0.0
 10
91.57287731000609
 20
-148.8860025669452
 30
0.0
 10
91.57287731000609
 20
-148.6662054749862
 30
0.0
 10
91.57287731000609
 20
-148.6662054749862
 30
0.0
 10
91.64694686293897
 20
-148.6873928122205
 30
0.0
 10
91.86140405689576
 20
-148.6873928122205
 30
0.0
 10
91.94615340583291
 20
-148.6873928122205
 30
0.0
 10
91.94615340583291
 20
-148.6873928122205
 30
0.0
 10
92.3140896036576
 20
-148.6873928122205
 30
0.0
 10
92.3140896036576
 20
-148.6873928122205
 30
0.0
 10
92.35009085147845
 20
-148.6873928122205
 30
0.0
 10
92.55025089917147
 20
-148.6851535001551
 30
0.0
 10
92.58280705150708
 20
-148.6789523282816
 30
0.0
 10
92.61880829932794
 20
-148.6725789016339
 30
0.0
 10
92.62070310184482
 20
-148.6705118443428
 30
0.0
 10
92.67289629844636
 20
-148.6302042271653
 30
0.0
 10
92.67289629844636
 20
-148.6302042271653
 30
0.0
 10
92.83343774805901
 20
-148.7847167596788
 30
0.0
 10
92.83343774805901
 20
-148.7847167596788
 30
0.0
 10
92.80811629624242
 20
-148.814344580852
 30
0.0
 10
92.79554169772126
 20
-148.8460394593162
 30
0.0
 10
92.7810722966832
 20
-148.9052951016625
 30
0.0
  0
HATCH
  5
99
330
92
100
AcDbEntity
  8
レイヤー 1
 62
   250
420
  2299925
440
 33554687
100
AcDbHatch
 10
0.0
 20
0.0
 30
0.0
210
0.0
220
0.0
230
1.0
  2
SOLID
 70
     1
 71
     1
 91
        3
 92
        1
 93
        1
 72
     4
 94
        3
 73
     0
 74
     0
 95
       17
 96
       13
 40
0.0
 40
0.0
 40
0.0
 40
0.0
 40
1.0
 40
1.0
 40
1.0
 40
2.0
 40
2.0
 40
2.0
 40
3.0
 40
3.0
 40
3.0
 40
4.0
 40
4.0
 40
4.0
 40
4.0
 10
92.95780569507654
 20
-148.3763006899024
 10
92.91095239647713
 20
-148.3763006899024
 10
92.87305634613938
 20
-148.4207424216621
 10
92.87305634613938
 20
-148.4758639494262
 10
92.87305634613938
 20
-148.532880279707
 10
92.91095239647713
 20
-148.5816283808233
 10
92.96142304533603
 20
-148.5816283808233
 10
93.01189369419494
 20
-148.5816283808233
 10
93.04617239427319
 20
-148.5308132224159
 10
93.04617239427319
 20
-148.4779310067173
 10
93.04617239427319
 20
-148.4207424216621
 10
93.0065537961928
 20
-148.3763006899024
 10
92.95780569507654
 20
-148.3763006899024
 97
        0
 97
        1
330
96
 92
        1
 93
        1
 72
     4
 94
        3
 73
     0
 74
     0
 95
       17
 96
       13
 40
0.0
 40
0.0
 40
0.0
 40
0.0
 40
1.0
 40
1.0
 40
1.0
 40
2.0
 40
2.0
 40
2.0
 40
3.0
 40
3.0
 40
3.0
 40
4.0
 40
4.0
 40
4.0
 40
4.0
 10
92.95970049759342
 20
-148.7063408373894
 10
92.85152449935656
 20
-148.7063408373894
 10
92.76488034790252
 20
-148.6048827753488
 10
92.76488034790252
 20
-148.4779310067173
 10
92.76488034790252
 20
-148.3509792380858
 10
92.85152449935656
 20
-148.2472818639798
 10
92.95970049759342
 20
-148.2472818639798
 10
93.06787649583027
 20
-148.2472818639798
 10
93.15624319502692
 20
-148.3509792380858
 10
93.15624319502692
 20
-148.4779310067173
 10
93.15624319502692
 20
-148.6048827753488
 10
93.06787649583027
 20
-148.7063408373894
 10
92.95970049759342
 20
-148.7063408373894
 97
        0
 97
        1
330
97
 92
        1
 93
        1
 72
     4
 94
        3
 73
     0
 74
     0
 95
       44
 96
       40
 40
0.0
 40
0.0
 40
0.0
 40
0.0
 40
1.0
 40
1.0
 40
1.0
 40
2.0
 40
2.0
 40
2.0
 40
3.0
 40
3.0
 40
3.0
 40
4.0
 40
4.0
 40
4.0
 40
5.0
 40
5.0
 40
5.0
 40
6.0
 40
6.0
 40
6.0
 40
7.0
 40
7.0
 40
7.0
 40
8.0
 40
8.0
 40
8.0
 40
9.0
 40
9.0
 40
9.0
 40
10.0
 40
10.0
 40
10.0
 40
11.0
 40
11.0
 40
11.0
 40
12.0
 40
12.0
 40
12.0
 40
13.0
 40
13.0
 40
13.0
 40
13.0
 10
92.7810722966832
 20
-148.9052951016625
 10
92.68564315174179
 20
-149.2732312994872
 10
92.64223494862765
 20
-149.4320502013573
 10
92.47463105327023
 20
-149.6814751144893
 10
92.31770695391711
 20
-149.9119520024525
 10
92.1156521037072
 20
-150.0983316682046
 10
91.87776826045071
 20
-150.1913492463063
 10
91.87776826045071
 20
-150.1913492463063
 10
91.71360946057856
 20
-150.0115152619763
 10
91.71360946057856
 20
-150.0115152619763
 10
92.26000160453917
 20
-149.8592420415282
 10
92.54129365090982
 20
-149.3028591206604
 10
92.59538165002824
 20
-148.862920427194
 10
92.59538165002824
 20
-148.862920427194
 10
91.9425360555734
 20
-148.862920427194
 10
91.9425360555734
 20
-148.862920427194
 10
91.86329885941265
 20
-148.862920427194
 10
91.70637476005952
 20
-148.8672267965506
 10
91.57287731000609
 20
-148.8860025669452
 10
91.57287731000609
 20
-148.8860025669452
 10
91.57287731000609
 20
-148.6662054749862
 10
91.57287731000609
 20
-148.6662054749862
 10
91.64694686293897
 20
-148.6873928122205
 10
91.86140405689576
 20
-148.6873928122205
 10
91.94615340583291
 20
-148.6873928122205
 10
91.94615340583291
 20
-148.6873928122205
 10
92.3140896036576
 20
-148.6873928122205
 10
92.3140896036576
 20
-148.6873928122205
 10
92.35009085147845
 20
-148.6873928122205
 10
92.55025089917147
 20
-148.6851535001551
 10
92.58280705150708
 20
-148.6789523282816
 10
92.61880829932794
 20
-148.6725789016339
 10
92.62070310184482
 20
-148.6705118443428
 10
92.67289629844636
 20
-148.6302042271653
 10
92.67289629844636
 20
-148.6302042271653
 10
92.83343774805901
 20
-148.7847167596788
 10
92.83343774805901
 20
-148.7847167596788
 10
92.80811629624242
 20
-148.814344580852
 10
92.79554169772126
 20
-148.8460394593162
 10
92.7810722966832
 20
-148.9052951016625
 97
        0
 97
        1
330
98
 75
     2
 76
     1
 98
        1
 10
0.0
 20
0.0
450
        0
451
        0
460
0.0
461
0.0
452
        0
462
0.0
453
        0
470

  0
SPLINE
  5
9A
330
92
100
AcDbEntity
  8
レイヤー 1
100
AcDbSpline
210
0.0
220
0.0
230
1.0
 70
     9
 71
     3
 72
    29
 73
    25
 74
     0
 42
0.0000000001
 43
0.0000000001
 40
0.0
 40
0.0
 40
0.0
 40
0.0
 40
1.0
 40
1.0
 40
1.0
 40
2.0
 40
2.0
 40
2.0
 40
3.0
 40
3.0
 40
3.0
 40
4.0
 40
4.0
 40
4.0
 40
5.0
 40
5.0
 40
5.0
 40
6.0
 40
6.0
 40
6.0
 40
7.0
 40
7.0
 40
7.0
 40
8.0
 40
8.0
 40
8.0
 40
8.0
 10
94.06729869610122
 20
-148.588001807471
 30
0.0
 10
94.06729869610122
 20
-148.588001807471
 30
0.0
 10
93.77687714669468
 20
-148.588001807471
 30
0.0
 10
93.77687714669468
 20
-148.588001807471
 30
0.0
 10
93.67955319923636
 20
-148.588001807471
 30
0.0
 10
93.58033444926117
 20
-148.5921359220533
 30
0.0
 10
93.48301050180287
 20
-148.6069498326399
 30
0.0
 10
93.48301050180287
 20
-148.6069498326399
 30
0.0
 10
93.48301050180287
 20
-148.3974880271367
 30
0.0
 10
93.48301050180287
 20
-148.3974880271367
 30
0.0
 10
93.58395179952067
 20
-148.4123019377233
 30
0.0
 10
93.73191865061215
 20
-148.4166083070799
 30
0.0
 10
93.77687714669468
 20
-148.4166083070799
 30
0.0
 10
93.77687714669468
 20
-148.4166083070799
 30
0.0
 10
94.06729869610122
 20
-148.4166083070799
 30
0.0
 10
94.06729869610122
 20
-148.4166083070799
 30
0.0
 10
94.16651744607642
 20
-148.4166083070799
 30
0.0
 10
94.26556394127736
 20
-148.4123019377233
 30
0.0
 10
94.36478269125256
 20
-148.3974880271367
 30
0.0
 10
94.36478269125256
 20
-148.3974880271367
 30
0.0
 10
94.36478269125256
 20
-148.6069498326399
 30
0.0
 10
94.36478269125256
 20
-148.6069498326399
 30
0.0
 10
94.23679739397552
 20
-148.588001807471
 30
0.0
 10
94.0798732946224
 20
-148.588001807471
 30
0.0
 10
94.06729869610122
 20
-148.588001807471
 30
0.0
  0
SPLINE
  5
9B
330
92
100
AcDbEntity
  8
レイヤー 1
100
AcDbSpline
210
0.0
220
0.0
230
1.0
 70
     9
 71
     3
 72
    50
 73
    46
 74
     0
 42
0.0000000001
 43
0.0000000001
 40
0.0
 40
0.0
 40
0.0
 40
0.0
 40
1.0
 40
1.0
 40
1.0
 40
2.0
 40
2.0
 40
2.0
 40
3.0
 40
3.0
 40
3.0
 40
4.0
 40
4.0
 40
4.0
 40
5.0
 40
5.0
 40
5.0
 40
6.0
 40
6.0
 40
6.0
 40
7.0
 40
7.0
 40
7.0
 40
8.0
 40
8.0
 40
8.0
 40
9.0
 40
9.0
 40
9.0
 40
10.0
 40
10.0
 40
10.0
 40
11.0
 40
11.0
 40
11.0
 40
12.0
 40
12.0
 40
12.0
 40
13.0
 40
13.0
 40
13.0
 40
14.0
 40
14.0
 40
14.0
 40
15.0
 40
15.0
 40
15.0
 40
15.0
 10
94.48742809052745
 20
-149.2139756571409
 30
0.0
 10
94.42076549288787
 20
-149.3917425841798
 30
0.0
 10
94.30535479413199
 20
-149.5991373323918
 30
0.0
 10
94.18804929285924
 20
-149.7386636995445
 30
0.0
 10
94.04387204680153
 20
-149.9098849451614
 30
0.0
 10
93.90503469874596
 20
-149.9987684086808
 30
0.0
 10
93.63269990063697
 20
-150.1403618331246
 30
0.0
 10
93.63269990063697
 20
-150.1403618331246
 30
0.0
 10
93.488350399805
 20
-149.95225961963
 30
0.0
 10
93.488350399805
 20
-149.95225961963
 30
0.0
 10
93.64716930167501
 20
-149.9288329703303
 30
0.0
 10
93.79324135024962
 20
-149.8423610736505
 30
0.0
 10
93.92294919526927
 20
-149.7365966422533
 30
0.0
 10
94.14653589226197
 20
-149.5546956006321
 30
0.0
 10
94.30897214439152
 20
-149.2415364210229
 30
0.0
 10
94.35031329021452
 20
-149.0596353794017
 30
0.0
 10
94.35031329021452
 20
-149.0596353794017
 30
0.0
 10
93.77877194921156
 20
-149.0596353794017
 30
0.0
 10
93.77877194921156
 20
-149.0596353794017
 30
0.0
 10
93.6435519514155
 20
-149.0596353794017
 30
0.0
 10
93.3946438026062
 20
-149.0679036085663
 30
0.0
 10
93.26476370281229
 20
-149.0851290859926
 30
0.0
 10
93.26476370281229
 20
-149.0851290859926
 30
0.0
 10
93.26476370281229
 20
-148.8565470005463
 30
0.0
 10
93.26476370281229
 20
-148.8565470005463
 30
0.0
 10
93.29370250488839
 20
-148.862920427194
 30
0.0
 10
93.31523435167119
 20
-148.8692938538417
 30
0.0
 10
93.36036510252796
 20
-148.8732557136497
 30
0.0
 10
93.447009253982
 20
-148.8798013950717
 30
0.0
 10
93.6146131493394
 20
-148.8818684523629
 30
0.0
 10
93.68678789975538
 20
-148.8818684523629
 30
0.0
 10
93.68678789975538
 20
-148.8818684523629
 30
0.0
 10
94.11776934496016
 20
-148.8818684523629
 30
0.0
 10
94.11776934496016
 20
-148.8818684523629
 30
0.0
 10
94.17547469433808
 20
-148.8818684523629
 30
0.0
 10
94.2998426413556
 20
-148.8777343377805
 30
0.0
 10
94.3522080927314
 20
-148.8713609111328
 30
0.0
 10
94.41353079236884
 20
-148.862920427194
 30
0.0
 10
94.43695744166854
 20
-148.8481065166074
 30
0.0
 10
94.46572398897037
 20
-148.824852122082
 30
0.0
 10
94.46572398897037
 20
-148.824852122082
 30
0.0
 10
94.60645613954282
 20
-148.9917669983423
 30
0.0
 10
94.60645613954282
 20
-148.9917669983423
 30
0.0
 10
94.54685598764802
 20
-149.0596353794017
 30
0.0
 10
94.50723738956764
 20
-149.1633327535077
 30
0.0
 10
94.48742809052745
 20
-149.2139756571409
 30
0.0
  0
HATCH
  5
9C
330
92
100
AcDbEntity
  8
レイヤー 1
 62
   250
420
  2299925
440
 33554687
100
AcDbHatch
 10
0.0
 20
0.0
 30
0.0
210
0.0
220
0.0
230
1.0
  2
SOLID
 70
     1
 71
     1
 91
        2
 92
        1
 93
        1
 72
     4
 94
        3
 73
     0
 74
     0
 95
       29
 96
       25
 40
0.0
 40
0.0
 40
0.0
 40
0.0
 40
1.0
 40
1.0
 40
1.0
 40
2.0
 40
2.0
 40
2.0
 40
3.0
 40
3.0
 40
3.0
 40
4.0
 40
4.0
 40
4.0
 40
5.0
 40
5.0
 40
5.0
 40
6.0
 40
6.0
 40
6.0
 40
7.0
 40
7.0
 40
7.0
 40
8.0
 40
8.0
 40
8.0
 40
8.0
 10
94.06729869610122
 20
-148.588001807471
 10
94.06729869610122
 20
-148.588001807471
 10
93.77687714669468
 20
-148.588001807471
 10
93.77687714669468
 20
-148.588001807471
 10
93.67955319923636
 20
-148.588001807471
 10
93.58033444926117
 20
-148.5921359220533
 10
93.48301050180287
 20
-148.6069498326399
 10
93.48301050180287
 20
-148.6069498326399
 10
93.48301050180287
 20
-148.3974880271367
 10
93.48301050180287
 20
-148.3974880271367
 10
93.58395179952067
 20
-148.4123019377233
 10
93.73191865061215
 20
-148.4166083070799
 10
93.77687714669468
 20
-148.4166083070799
 10
93.77687714669468
 20
-148.4166083070799
 10
94.06729869610122
 20
-148.4166083070799
 10
94.06729869610122
 20
-148.4166083070799
 10
94.16651744607642
 20
-148.4166083070799
 10
94.26556394127736
 20
-148.4123019377233
 10
94.36478269125256
 20
-148.3974880271367
 10
94.36478269125256
 20
-148.3974880271367
 10
94.36478269125256
 20
-148.6069498326399
 10
94.36478269125256
 20
-148.6069498326399
 10
94.23679739397552
 20
-148.588001807471
 10
94.0798732946224
 20
-148.588001807471
 10
94.06729869610122
 20
-148.588001807471
 97
        0
 97
        1
330
9A
 92
        1
 93
        1
 72
     4
 94
        3
 73
     0
 74
     0
 95
       50
 96
       46
 40
0.0
 40
0.0
 40
0.0
 40
0.0
 40
1.0
 40
1.0
 40
1.0
 40
2.0
 40
2.0
 40
2.0
 40
3.0
 40
3.0
 40
3.0
 40
4.0
 40
4.0
 40
4.0
 40
5.0
 40
5.0
 40
5.0
 40
6.0
 40
6.0
 40
6.0
 40
7.0
 40
7.0
 40
7.0
 40
8.0
 40
8.0
 40
8.0
 40
9.0
 40
9.0
 40
9.0
 40
10.0
 40
10.0
 40
10.0
 40
11.0
 40
11.0
 40
11.0
 40
12.0
 40
12.0
 40
12.0
 40
13.0
 40
13.0
 40
13.0
 40
14.0
 40
14.0
 40
14.0
 40
15.0
 40
15.0
 40
15.0
 40
15.0
 10
94.48742809052745
 20
-149.2139756571409
 10
94.42076549288787
 20
-149.3917425841798
 10
94.30535479413199
 20
-149.5991373323918
 10
94.18804929285924
 20
-149.7386636995445
 10
94.04387204680153
 20
-149.9098849451614
 10
93.90503469874596
 20
-149.9987684086808
 10
93.63269990063697
 20
-150.1403618331246
 10
93.63269990063697
 20
-150.1403618331246
 10
93.488350399805
 20
-149.95225961963
 10
93.488350399805
 20
-149.95225961963
 10
93.64716930167501
 20
-149.9288329703303
 10
93.79324135024962
 20
-149.8423610736505
 10
93.92294919526927
 20
-149.7365966422533
 10
94.14653589226197
 20
-149.5546956006321
 10
94.30897214439152
 20
-149.2415364210229
 10
94.35031329021452
 20
-149.0596353794017
 10
94.35031329021452
 20
-149.0596353794017
 10
93.77877194921156
 20
-149.0596353794017
 10
93.77877194921156
 20
-149.0596353794017
 10
93.6435519514155
 20
-149.0596353794017
 10
93.3946438026062
 20
-149.0679036085663
 10
93.26476370281229
 20
-149.0851290859926
 10
93.26476370281229
 20
-149.0851290859926
 10
93.26476370281229
 20
-148.8565470005463
 10
93.26476370281229
 20
-148.8565470005463
 10
93.29370250488839
 20
-148.862920427194
 10
93.31523435167119
 20
-148.8692938538417
 10
93.36036510252796
 20
-148.8732557136497
 10
93.447009253982
 20
-148.8798013950717
 10
93.6146131493394
 20
-148.8818684523629
 10
93.68678789975538
 20
-148.8818684523629
 10
93.68678789975538
 20
-148.8818684523629
 10
94.11776934496016
 20
-148.8818684523629
 10
94.11776934496016
 20
-148.8818684523629
 10
94.17547469433808
 20
-148.8818684523629
 10
94.2998426413556
 20
-148.8777343377805
 10
94.3522080927314
 20
-148.8713609111328
 10
94.41353079236884
 20
-148.862920427194
 10
94.43695744166854
 20
-148.8481065166074
 10
94.46572398897037
 20
-148.824852122082
 10
94.46572398897037
 20
-148.824852122082
 10
94.60645613954282
 20
-148.9917669983423
 10
94.60645613954282
 20
-148.9917669983423
 10
94.54685598764802
 20
-149.0596353794017
 10
94.50723738956764
 20
-149.1633327535077
 10
94.48742809052745
 20
-149.2139756571409
 97
        0
 97
        1
330
9B
 75
     2
 76
     1
 98
        1
 10
0.0
 20
0.0
450
        0
451
        0
460
0.0
461
0.0
452
        0
462
0.0
453
        0
470

  0
SPLINE
  5
9D
330
92
100
AcDbEntity
  8
レイヤー 1
100
AcDbSpline
210
0.0
220
0.0
230
1.0
 70
     9
 71
     3
 72
    50
 73
    46
 74
     0
 42
0.0000000001
 43
0.0000000001
 40
0.0
 40
0.0
 40
0.0
 40
0.0
 40
1.0
 40
1.0
 40
1.0
 40
2.0
 40
2.0
 40
2.0
 40
3.0
 40
3.0
 40
3.0
 40
4.0
 40
4.0
 40
4.0
 40
5.0
 40
5.0
 40
5.0
 40
6.0
 40
6.0
 40
6.0
 40
7.0
 40
7.0
 40
7.0
 40
8.0
 40
8.0
 40
8.0
 40
9.0
 40
9.0
 40
9.0
 40
10.0
 40
10.0
 40
10.0
 40
11.0
 40
11.0
 40
11.0
 40
12.0
 40
12.0
 40
12.0
 40
13.0
 40
13.0
 40
13.0
 40
14.0
 40
14.0
 40
14.0
 40
15.0
 40
15.0
 40
15.0
 40
15.0
 10
95.94315318781978
 20
-148.5731878968845
 30
0.0
 10
95.76469724168383
 20
-148.7867838169699
 30
0.0
 10
95.70337454204638
 20
-148.8587863126117
 30
0.0
 10
95.58245169051412
 20
-148.9769530877557
 30
0.0
 10
95.58245169051412
 20
-148.9769530877557
 30
0.0
 10
95.58245169051412
 20
-149.5440158046279
 30
0.0
 10
95.58245169051412
 20
-149.5440158046279
 30
0.0
 10
95.58245169051412
 20
-149.6942219677848
 30
0.0
 10
95.58796384329051
 20
-149.7131699929536
 30
0.0
 10
95.59158119355002
 20
-149.8909369199925
 30
0.0
 10
95.59330374129265
 20
-150.0221950579805
 30
0.0
 10
95.59881589406904
 20
-150.0707709043226
 30
0.0
 10
95.60415579207118
 20
-150.1300265466689
 30
0.0
 10
95.60415579207118
 20
-150.1300265466689
 30
0.0
 10
95.41123044489721
 20
-150.1300265466689
 30
0.0
 10
95.41123044489721
 20
-150.1300265466689
 30
0.0
 10
95.4148477951567
 20
-150.0855848149091
 30
0.0
 10
95.41846514541623
 20
-150.0390760258583
 30
0.0
 10
95.41846514541623
 20
-150.0304632871451
 30
0.0
 10
95.41846514541623
 20
-149.9501925623388
 30
0.0
 10
95.42208249567574
 20
-149.5991373323918
 30
0.0
 10
95.42208249567574
 20
-149.5271348367501
 30
0.0
 10
95.42208249567574
 20
-149.5271348367501
 30
0.0
 10
95.42208249567574
 20
-149.1209580790392
 30
0.0
 10
95.42208249567574
 20
-149.1209580790392
 30
0.0
 10
95.26688094406523
 20
-149.2456705356052
 30
0.0
 10
95.10099959645044
 20
-149.3559135911332
 30
0.0
 10
94.92788354831665
 20
-149.442385487813
 30
0.0
 10
94.92788354831665
 20
-149.442385487813
 30
0.0
 10
94.75476750018284
 20
-149.2794324713607
 30
0.0
 10
94.75476750018284
 20
-149.2794324713607
 30
0.0
 10
94.85932614816018
 20
-149.2436034783141
 30
0.0
 10
95.07757294715075
 20
-149.1695339253812
 30
0.0
 10
95.37161184681682
 20
-148.9135633308271
 30
0.0
 10
95.55540769095491
 20
-148.7550889385057
 30
0.0
 10
95.71956649082705
 20
-148.5668144702368
 30
0.0
 10
95.84944659062097
 20
-148.3466728687293
 30
0.0
 10
95.84944659062097
 20
-148.3466728687293
 30
0.0
 10
96.01343313571888
 20
-148.4906778600127
 30
0.0
 10
96.01343313571888
 20
-148.4906778600127
 30
0.0
 10
96.02428518649741
 20
-148.5011854012427
 30
0.0
 10
96.03151988701643
 20
-148.5159993118293
 30
0.0
 10
96.03151988701643
 20
-148.5287461651247
 30
0.0
 10
96.03151988701643
 20
-148.5688815275279
 30
0.0
 10
95.99913598945509
 20
-148.5688815275279
 30
0.0
 10
95.94315318781978
 20
-148.5731878968845
 30
0.0
  0
HATCH
  5
9E
330
92
100
AcDbEntity
  8
レイヤー 1
 62
   250
420
  2299925
440
 33554687
100
AcDbHatch
 10
0.0
 20
0.0
 30
0.0
210
0.0
220
0.0
230
1.0
  2
SOLID
 70
     1
 71
     1
 91
        1
 92
        1
 93
        1
 72
     4
 94
        3
 73
     0
 74
     0
 95
       50
 96
       46
 40
0.0
 40
0.0
 40
0.0
 40
0.0
 40
1.0
 40
1.0
 40
1.0
 40
2.0
 40
2.0
 40
2.0
 40
3.0
 40
3.0
 40
3.0
 40
4.0
 40
4.0
 40
4.0
 40
5.0
 40
5.0
 40
5.0
 40
6.0
 40
6.0
 40
6.0
 40
7.0
 40
7.0
 40
7.0
 40
8.0
 40
8.0
 40
8.0
 40
9.0
 40
9.0
 40
9.0
 40
10.0
 40
10.0
 40
10.0
 40
11.0
 40
11.0
 40
11.0
 40
12.0
 40
12.0
 40
12.0
 40
13.0
 40
13.0
 40
13.0
 40
14.0
 40
14.0
 40
14.0
 40
15.0
 40
15.0
 40
15.0
 40
15.0
 10
95.94315318781978
 20
-148.5731878968845
 10
95.76469724168383
 20
-148.7867838169699
 10
95.70337454204638
 20
-148.8587863126117
 10
95.58245169051412
 20
-148.9769530877557
 10
95.58245169051412
 20
-148.9769530877557
 10
95.58245169051412
 20
-149.5440158046279
 10
95.58245169051412
 20
-149.5440158046279
 10
95.58245169051412
 20
-149.6942219677848
 10
95.58796384329051
 20
-149.7131699929536
 10
95.59158119355002
 20
-149.8909369199925
 10
95.59330374129265
 20
-150.0221950579805
 10
95.59881589406904
 20
-150.0707709043226
 10
95.60415579207118
 20
-150.1300265466689
 10
95.60415579207118
 20
-150.1300265466689
 10
95.41123044489721
 20
-150.1300265466689
 10
95.41123044489721
 20
-150.1300265466689
 10
95.4148477951567
 20
-150.0855848149091
 10
95.41846514541623
 20
-150.0390760258583
 10
95.41846514541623
 20
-150.0304632871451
 10
95.41846514541623
 20
-149.9501925623388
 10
95.42208249567574
 20
-149.5991373323918
 10
95.42208249567574
 20
-149.5271348367501
 10
95.42208249567574
 20
-149.5271348367501
 10
95.42208249567574
 20
-149.1209580790392
 10
95.42208249567574
 20
-149.1209580790392
 10
95.26688094406523
 20
-149.2456705356052
 10
95.10099959645044
 20
-149.3559135911332
 10
94.92788354831665
 20
-149.442385487813
 10
94.92788354831665
 20
-149.442385487813
 10
94.75476750018284
 20
-149.2794324713607
 10
94.75476750018284
 20
-149.2794324713607
 10
94.85932614816018
 20
-149.2436034783141
 10
95.07757294715075
 20
-149.1695339253812
 10
95.37161184681682
 20
-148.9135633308271
 10
95.55540769095491
 20
-148.7550889385057
 10
95.71956649082705
 20
-148.5668144702368
 10
95.84944659062097
 20
-148.3466728687293
 10
95.84944659062097
 20
-148.3466728687293
 10
96.01343313571888
 20
-148.4906778600127
 10
96.01343313571888
 20
-148.4906778600127
 10
96.02428518649741
 20
-148.5011854012427
 10
96.03151988701643
 20
-148.5159993118293
 10
96.03151988701643
 20
-148.5287461651247
 10
96.03151988701643
 20
-148.5688815275279
 10
95.99913598945509
 20
-148.5688815275279
 10
95.94315318781978
 20
-148.5731878968845
 97
        0
 97
        1
330
9D
 75
     2
 76
     1
 98
        1
 10
0.0
 20
0.0
450
        0
451
        0
460
0.0
461
0.0
452
        0
462
0.0
453
        0
470

  0
SPLINE
  5
9F
330
92
100
AcDbEntity
  8
レイヤー 1
100
AcDbSpline
210
0.0
220
0.0
230
1.0
 70
     9
 71
     3
 72
    50
 73
    46
 74
     0
 42
0.0000000001
 43
0.0000000001
 40
0.0
 40
0.0
 40
0.0
 40
0.0
 40
1.0
 40
1.0
 40
1.0
 40
2.0
 40
2.0
 40
2.0
 40
3.0
 40
3.0
 40
3.0
 40
4.0
 40
4.0
 40
4.0
 40
5.0
 40
5.0
 40
5.0
 40
6.0
 40
6.0
 40
6.0
 40
7.0
 40
7.0
 40
7.0
 40
8.0
 40
8.0
 40
8.0
 40
9.0
 40
9.0
 40
9.0
 40
10.0
 40
10.0
 40
10.0
 40
11.0
 40
11.0
 40
11.0
 40
12.0
 40
12.0
 40
12.0
 40
13.0
 40
13.0
 40
13.0
 40
14.0
 40
14.0
 40
14.0
 40
15.0
 40
15.0
 40
15.0
 40
15.0
 10
97.39732799214372
 20
-149.0999429965792
 30
0.0
 10
97.3451347955422
 20
-149.1716009826723
 30
0.0
 10
97.1232706462921
 20
-149.4888942768639
 30
0.0
 10
97.07452254517583
 20
-149.552628543341
 30
0.0
 10
97.14669729559181
 20
-149.649780236025
 30
0.0
 10
97.18993324393169
 20
-149.7131699929536
 30
0.0
 10
97.245916045567
 20
-149.8041205137642
 30
0.0
 10
97.245916045567
 20
-149.8041205137642
 30
0.0
 10
97.08899194621388
 20
-149.9415798236257
 30
0.0
 10
97.08899194621388
 20
-149.9415798236257
 30
0.0
 10
96.973581247458
 20
-149.7300509608314
 30
0.0
 10
96.82750919888341
 20
-149.5061197542901
 30
0.0
 10
96.57687850233148
 20
-149.3069932352427
 30
0.0
 10
96.57687850233148
 20
-149.3069932352427
 30
0.0
 10
96.70314125186589
 20
-149.1526529575035
 30
0.0
 10
96.70314125186589
 20
-149.1526529575035
 30
0.0
 10
96.79684784906468
 20
-149.2329236823098
 30
0.0
 10
96.88521454826135
 20
-149.3218071458293
 30
0.0
 10
96.96824134945586
 20
-149.4172362907707
 30
0.0
 10
97.0259466988338
 20
-149.3410996805466
 30
0.0
 10
97.19906274696761
 20
-149.0975314297395
 30
0.0
 10
97.31257864320658
 20
-148.8692938538417
 30
0.0
 10
97.31257864320658
 20
-148.8692938538417
 30
0.0
 10
96.73914249968674
 20
-148.8692938538417
 30
0.0
 10
96.73914249968674
 20
-148.8692938538417
 30
0.0
 10
96.63268904919252
 20
-148.8692938538417
 30
0.0
 10
96.41823185523572
 20
-148.8777343377805
 30
0.0
 10
96.23960365432552
 20
-148.8880696242363
 30
0.0
 10
96.23960365432552
 20
-148.8880696242363
 30
0.0
 10
96.23960365432552
 20
-148.6682725322773
 30
0.0
 10
96.23960365432552
 20
-148.6682725322773
 30
0.0
 10
96.39652775367865
 20
-148.6873928122205
 30
0.0
 10
96.57153860432934
 20
-148.6915269268028
 30
0.0
 10
96.73190779916772
 20
-148.6915269268028
 30
0.0
 10
96.73190779916772
 20
-148.6915269268028
 30
0.0
 10
97.16116669662985
 20
-148.6915269268028
 30
0.0
 10
97.16116669662985
 20
-148.6915269268028
 30
0.0
 10
97.44969344351952
 20
-148.6915269268028
 30
0.0
 10
97.48758949385727
 20
-148.6767130162162
 30
0.0
 10
97.55786944175637
 20
-148.6365776538131
 30
0.0
 10
97.55786944175637
 20
-148.6365776538131
 30
0.0
 10
97.70032414007145
 20
-148.7952243009088
 30
0.0
 10
97.70032414007145
 20
-148.7952243009088
 30
0.0
 10
97.57044404027753
 20
-148.8672267965506
 30
0.0
 10
97.44779864100264
 20
-149.0300075582286
 30
0.0
 10
97.39732799214372
 20
-149.0999429965792
 30
0.0
  0
HATCH
  5
A0
330
92
100
AcDbEntity
  8
レイヤー 1
 62
   250
420
  2299925
440
 33554687
100
AcDbHatch
 10
0.0
 20
0.0
 30
0.0
210
0.0
220
0.0
230
1.0
  2
SOLID
 70
     1
 71
     1
 91
        1
 92
        1
 93
        1
 72
     4
 94
        3
 73
     0
 74
     0
 95
       50
 96
       46
 40
0.0
 40
0.0
 40
0.0
 40
0.0
 40
1.0
 40
1.0
 40
1.0
 40
2.0
 40
2.0
 40
2.0
 40
3.0
 40
3.0
 40
3.0
 40
4.0
 40
4.0
 40
4.0
 40
5.0
 40
5.0
 40
5.0
 40
6.0
 40
6.0
 40
6.0
 40
7.0
 40
7.0
 40
7.0
 40
8.0
 40
8.0
 40
8.0
 40
9.0
 40
9.0
 40
9.0
 40
10.0
 40
10.0
 40
10.0
 40
11.0
 40
11.0
 40
11.0
 40
12.0
 40
12.0
 40
12.0
 40
13.0
 40
13.0
 40
13.0
 40
14.0
 40
14.0
 40
14.0
 40
15.0
 40
15.0
 40
15.0
 40
15.0
 10
97.39732799214372
 20
-149.0999429965792
 10
97.3451347955422
 20
-149.1716009826723
 10
97.1232706462921
 20
-149.4888942768639
 10
97.07452254517583
 20
-149.552628543341
 10
97.14669729559181
 20
-149.649780236025
 10
97.18993324393169
 20
-149.7131699929536
 10
97.245916045567
 20
-149.8041205137642
 10
97.245916045567
 20
-149.8041205137642
 10
97.08899194621388
 20
-149.9415798236257
 10
97.08899194621388
 20
-149.9415798236257
 10
96.973581247458
 20
-149.7300509608314
 10
96.82750919888341
 20
-149.5061197542901
 10
96.57687850233148
 20
-149.3069932352427
 10
96.57687850233148
 20
-149.3069932352427
 10
96.70314125186589
 20
-149.1526529575035
 10
96.70314125186589
 20
-149.1526529575035
 10
96.79684784906468
 20
-149.2329236823098
 10
96.88521454826135
 20
-149.3218071458293
 10
96.96824134945586
 20
-149.4172362907707
 10
97.0259466988338
 20
-149.3410996805466
 10
97.19906274696761
 20
-149.0975314297395
 10
97.31257864320658
 20
-148.8692938538417
 10
97.31257864320658
 20
-148.8692938538417
 10
96.73914249968674
 20
-148.8692938538417
 10
96.73914249968674
 20
-148.8692938538417
 10
96.63268904919252
 20
-148.8692938538417
 10
96.41823185523572
 20
-148.8777343377805
 10
96.23960365432552
 20
-148.8880696242363
 10
96.23960365432552
 20
-148.8880696242363
 10
96.23960365432552
 20
-148.6682725322773
 10
96.23960365432552
 20
-148.6682725322773
 10
96.39652775367865
 20
-148.6873928122205
 10
96.57153860432934
 20
-148.6915269268028
 10
96.73190779916772
 20
-148.6915269268028
 10
96.73190779916772
 20
-148.6915269268028
 10
97.16116669662985
 20
-148.6915269268028
 10
97.16116669662985
 20
-148.6915269268028
 10
97.44969344351952
 20
-148.6915269268028
 10
97.48758949385727
 20
-148.6767130162162
 10
97.55786944175637
 20
-148.6365776538131
 10
97.55786944175637
 20
-148.6365776538131
 10
97.70032414007145
 20
-148.7952243009088
 10
97.70032414007145
 20
-148.7952243009088
 10
97.57044404027753
 20
-148.8672267965506
 10
97.44779864100264
 20
-149.0300075582286
 10
97.39732799214372
 20
-149.0999429965792
 97
        0
 97
        1
330
9F
 75
     2
 76
     1
 98
        1
 10
0.0
 20
0.0
450
        0
451
        0
460
0.0
461
0.0
452
        0
462
0.0
453
        0
470

  0
SPLINE
  5
A1
330
92
100
AcDbEntity
  8
レイヤー 1
100
AcDbSpline
210
0.0
220
0.0
230
1.0
 70
     9
 71
     3
 72
    29
 73
    25
 74
     0
 42
0.0000000001
 43
0.0000000001
 40
0.0
 40
0.0
 40
0.0
 40
0.0
 40
1.0
 40
1.0
 40
1.0
 40
2.0
 40
2.0
 40
2.0
 40
3.0
 40
3.0
 40
3.0
 40
4.0
 40
4.0
 40
4.0
 40
5.0
 40
5.0
 40
5.0
 40
6.0
 40
6.0
 40
6.0
 40
7.0
 40
7.0
 40
7.0
 40
8.0
 40
8.0
 40
8.0
 40
8.0
 10
98.77915579127744
 20
-149.3431667378378
 30
0.0
 10
98.77915579127744
 20
-149.3431667378378
 30
0.0
 10
98.36626109737025
 20
-149.3431667378378
 30
0.0
 10
98.36626109737025
 20
-149.3431667378378
 30
0.0
 10
98.34266219329627
 20
-149.3431667378378
 30
0.0
 10
98.07222219770416
 20
-149.3431667378378
 30
0.0
 10
97.89187144905135
 20
-149.3683159348801
 30
0.0
 10
97.89187144905135
 20
-149.3683159348801
 30
0.0
 10
97.89187144905135
 20
-149.1378390469169
 30
0.0
 10
97.89187144905135
 20
-149.1378390469169
 30
0.0
 10
98.0270914468474
 20
-149.1612656962166
 30
0.0
 10
98.18952769897693
 20
-149.1633327535077
 30
0.0
 10
98.36626109737025
 20
-149.1633327535077
 30
0.0
 10
98.36626109737025
 20
-149.1633327535077
 30
0.0
 10
98.77915579127744
 20
-149.1633327535077
 30
0.0
 10
98.77915579127744
 20
-149.1633327535077
 30
0.0
 10
98.93780243837319
 20
-149.1633327535077
 30
0.0
 10
99.09644908546894
 20
-149.1612656962166
 30
0.0
 10
99.25337318482208
 20
-149.1378390469169
 30
0.0
 10
99.25337318482208
 20
-149.1378390469169
 30
0.0
 10
99.25337318482208
 20
-149.3683159348801
 30
0.0
 10
99.25337318482208
 20
-149.3683159348801
 30
0.0
 10
99.09644908546894
 20
-149.3452337951289
 30
0.0
 10
98.88560924177166
 20
-149.3431667378378
 30
0.0
 10
98.77915579127744
 20
-149.3431667378378
 30
0.0
  0
HATCH
  5
A2
330
92
100
AcDbEntity
  8
レイヤー 1
 62
   250
420
  2299925
440
 33554687
100
AcDbHatch
 10
0.0
 20
0.0
 30
0.0
210
0.0
220
0.0
230
1.0
  2
SOLID
 70
     1
 71
     1
 91
        1
 92
        1
 93
        1
 72
     4
 94
        3
 73
     0
 74
     0
 95
       29
 96
       25
 40
0.0
 40
0.0
 40
0.0
 40
0.0
 40
1.0
 40
1.0
 40
1.0
 40
2.0
 40
2.0
 40
2.0
 40
3.0
 40
3.0
 40
3.0
 40
4.0
 40
4.0
 40
4.0
 40
5.0
 40
5.0
 40
5.0
 40
6.0
 40
6.0
 40
6.0
 40
7.0
 40
7.0
 40
7.0
 40
8.0
 40
8.0
 40
8.0
 40
8.0
 10
98.77915579127744
 20
-149.3431667378378
 10
98.77915579127744
 20
-149.3431667378378
 10
98.36626109737025
 20
-149.3431667378378
 10
98.36626109737025
 20
-149.3431667378378
 10
98.34266219329627
 20
-149.3431667378378
 10
98.07222219770416
 20
-149.3431667378378
 10
97.89187144905135
 20
-149.3683159348801
 10
97.89187144905135
 20
-149.3683159348801
 10
97.89187144905135
 20
-149.1378390469169
 10
97.89187144905135
 20
-149.1378390469169
 10
98.0270914468474
 20
-149.1612656962166
 10
98.18952769897693
 20
-149.1633327535077
 10
98.36626109737025
 20
-149.1633327535077
 10
98.36626109737025
 20
-149.1633327535077
 10
98.77915579127744
 20
-149.1633327535077
 10
98.77915579127744
 20
-149.1633327535077
 10
98.93780243837319
 20
-149.1633327535077
 10
99.09644908546894
 20
-149.1612656962166
 10
99.25337318482208
 20
-149.1378390469169
 10
99.25337318482208
 20
-149.1378390469169
 10
99.25337318482208
 20
-149.3683159348801
 10
99.25337318482208
 20
-149.3683159348801
 10
99.09644908546894
 20
-149.3452337951289
 10
98.88560924177166
 20
-149.3431667378378
 10
98.77915579127744
 20
-149.3431667378378
 97
        0
 97
        1
330
A1
 75
     2
 76
     1
 98
        1
 10
0.0
 20
0.0
450
        0
451
        0
460
0.0
461
0.0
452
        0
462
0.0
453
        0
470

  0
SPLINE
  5
A3
330
92
100
AcDbEntity
  8
レイヤー 1
100
AcDbSpline
210
0.0
220
0.0
230
1.0
 70
     9
 71
     3
 72
    20
 73
    16
 74
     0
 42
0.0000000001
 43
0.0000000001
 40
0.0
 40
0.0
 40
0.0
 40
0.0
 40
1.0
 40
1.0
 40
1.0
 40
2.0
 40
2.0
 40
2.0
 40
3.0
 40
3.0
 40
3.0
 40
4.0
 40
4.0
 40
4.0
 40
5.0
 40
5.0
 40
5.0
 40
5.0
 10
100.310500734471
 20
-149.6942219677848
 30
0.0
 10
100.2708821363906
 20
-149.5164550407459
 30
0.0
 10
100.1878553351961
 20
-149.3748616163021
 30
0.0
 10
100.0688272861807
 20
-149.2649630703226
 30
0.0
 10
100.0688272861807
 20
-149.2649630703226
 30
0.0
 10
100.2059420864936
 20
-149.1505859002123
 30
0.0
 10
100.2059420864936
 20
-149.1505859002123
 30
0.0
 10
100.2581352830952
 20
-149.1929605746809
 30
0.0
 10
100.2924139831734
 20
-149.2267225104364
 30
0.0
 10
100.3573540330704
 20
-149.3345539991247
 30
0.0
 10
100.4259114332268
 20
-149.4509982265261
 30
0.0
 10
100.4439981845244
 20
-149.5037081874504
 30
0.0
 10
100.4655300313072
 20
-149.5695095112187
 30
0.0
 10
100.4655300313072
 20
-149.5695095112187
 30
0.0
 10
100.310500734471
 20
-149.6942219677848
 30
0.0
 10
100.310500734471
 20
-149.6942219677848
 30
0.0
  0
SPLINE
  5
A4
330
92
100
AcDbEntity
  8
レイヤー 1
100
AcDbSpline
210
0.0
220
0.0
230
1.0
 70
     9
 71
     3
 72
    77
 73
    73
 74
     0
 42
0.0000000001
 43
0.0000000001
 40
0.0
 40
0.0
 40
0.0
 40
0.0
 40
1.0
 40
1.0
 40
1.0
 40
2.0
 40
2.0
 40
2.0
 40
3.0
 40
3.0
 40
3.0
 40
4.0
 40
4.0
 40
4.0
 40
5.0
 40
5.0
 40
5.0
 40
6.0
 40
6.0
 40
6.0
 40
7.0
 40
7.0
 40
7.0
 40
8.0
 40
8.0
 40
8.0
 40
9.0
 40
9.0
 40
9.0
 40
10.0
 40
10.0
 40
10.0
 40
11.0
 40
11.0
 40
11.0
 40
12.0
 40
12.0
 40
12.0
 40
13.0
 40
13.0
 40
13.0
 40
14.0
 40
14.0
 40
14.0
 40
15.0
 40
15.0
 40
15.0
 40
16.0
 40
16.0
 40
16.0
 40
17.0
 40
17.0
 40
17.0
 40
18.0
 40
18.0
 40
18.0
 40
19.0
 40
19.0
 40
19.0
 40
20.0
 40
20.0
 40
20.0
 40
21.0
 40
21.0
 40
21.0
 40
22.0
 40
22.0
 40
22.0
 40
23.0
 40
23.0
 40
23.0
 40
24.0
 40
24.0
 40
24.0
 40
24.0
 10
100.9669636791853
 20
-148.9686848585911
 30
0.0
 10
100.9073635272905
 20
-148.9645507440088
 30
0.0
 10
100.8496581779126
 20
-148.9645507440088
 30
0.0
 10
100.7919528285346
 20
-148.9645507440088
 30
0.0
 10
100.7919528285346
 20
-148.9645507440088
 30
0.0
 10
100.7919528285346
 20
-149.7386636995445
 30
0.0
 10
100.7919528285346
 20
-149.7386636995445
 30
0.0
 10
100.7919528285346
 20
-150.0029025232632
 30
0.0
 10
100.790230280792
 20
-150.0325303444363
 30
0.0
 10
100.7847181280156
 20
-150.0621581656095
 30
0.0
 10
100.7559515807138
 20
-150.1954833608886
 30
0.0
 10
100.6693074292597
 20
-150.2040960996017
 30
0.0
 10
100.5196180304256
 20
-150.2040960996017
 30
0.0
 10
100.4853393303474
 20
-150.2040960996017
 30
0.0
 10
100.4710421840836
 20
-150.2040960996017
 30
0.0
 10
100.4367634840054
 20
-150.1996174754709
 30
0.0
 10
100.4367634840054
 20
-150.1996174754709
 30
0.0
 10
100.3303100335112
 20
-149.9584607915034
 30
0.0
 10
100.3303100335112
 20
-149.9584607915034
 30
0.0
 10
100.4295287834864
 20
-149.9901556699677
 30
0.0
 10
100.4998087313854
 20
-149.9901556699677
 30
0.0
 10
100.5196180304256
 20
-149.9901556699677
 30
0.0
 10
100.5792181823204
 20
-149.9901556699677
 30
0.0
 10
100.6079847296223
 20
-149.97327470209
 30
0.0
 10
100.6116020798818
 20
-149.9164306265834
 30
0.0
 10
100.6116020798818
 20
-149.9036837732879
 30
0.0
 10
100.6134968823987
 20
-149.8061875710554
 30
0.0
 10
100.6134968823987
 20
-149.7489989860002
 30
0.0
 10
100.6134968823987
 20
-149.7489989860002
 30
0.0
 10
100.6134968823987
 20
-148.9621391771692
 30
0.0
 10
100.6134968823987
 20
-148.9621391771692
 30
0.0
 10
100.6134968823987
 20
-148.9621391771692
 30
0.0
 10
100.3628661858467
 20
-148.9621391771692
 30
0.0
 10
100.3628661858467
 20
-148.9621391771692
 30
0.0
 10
100.238325984055
 20
-148.9621391771692
 30
0.0
 10
100.1139580370375
 20
-148.9686848585911
 30
0.0
 10
99.99131263776259
 20
-148.9814317118866
 30
0.0
 10
99.99131263776259
 20
-148.9814317118866
 30
0.0
 10
99.99131263776259
 20
-148.7740369636745
 30
0.0
 10
99.99131263776259
 20
-148.7740369636745
 30
0.0
 10
100.1192979350396
 20
-148.7867838169699
 30
0.0
 10
100.3051608364688
 20
-148.7910901863265
 30
0.0
 10
100.3628661858467
 20
-148.7910901863265
 30
0.0
 10
100.3628661858467
 20
-148.7910901863265
 30
0.0
 10
100.6134968823987
 20
-148.7910901863265
 30
0.0
 10
100.6134968823987
 20
-148.7910901863265
 30
0.0
 10
100.6116020798818
 20
-148.522372738477
 30
0.0
 10
100.6116020798818
 20
-148.446236128253
 30
0.0
 10
100.6043673793628
 20
-148.2980970223873
 30
0.0
 10
100.6043673793628
 20
-148.2980970223873
 30
0.0
 10
100.8245089808702
 20
-148.3361653274993
 30
0.0
 10
100.8245089808702
 20
-148.3361653274993
 30
0.0
 10
100.8370835793914
 20
-148.3382323847904
 30
0.0
 10
100.8496581779126
 20
-148.3446058114381
 30
0.0
 10
100.8496581779126
 20
-148.3657931486724
 30
0.0
 10
100.8496581779126
 20
-148.3849134286156
 30
0.0
 10
100.8443182799104
 20
-148.3869804859067
 30
0.0
 10
100.7955701787941
 20
-148.4207424216621
 30
0.0
 10
100.7919528285346
 20
-148.4991183439516
 30
0.0
 10
100.7919528285346
 20
-148.5139322545382
 30
0.0
 10
100.7919528285346
 20
-148.7910901863265
 30
0.0
 10
100.9433647751114
 20
-148.7867838169699
 30
0.0
 10
100.9597289786663
 20
-148.7867838169699
 30
0.0
 10
100.9884955259681
 20
-148.7824774476134
 30
0.0
 10
101.031731474308
 20
-148.7783433330311
 30
0.0
 10
101.0353488245675
 20
-148.7762762757399
 30
0.0
 10
101.0732448749053
 20
-148.7740369636745
 30
0.0
 10
101.0732448749053
 20
-148.7740369636745
 30
0.0
 10
101.0732448749053
 20
-148.9814317118866
 30
0.0
 10
101.0732448749053
 20
-148.9814317118866
 30
0.0
 10
101.0480956778629
 20
-148.9793646545954
 30
0.0
 10
101.0012423792636
 20
-148.9707519158823
 30
0.0
 10
100.9669636791853
 20
-148.9686848585911
 30
0.0
  0
SPLINE
  5
A5
330
92
100
AcDbEntity
  8
レイヤー 1
100
AcDbSpline
210
0.0
220
0.0
230
1.0
 70
     9
 71
     3
 72
    53
 73
    49
 74
     0
 42
0.0000000001
 43
0.0000000001
 40
0.0
 40
0.0
 40
0.0
 40
0.0
 40
1.0
 40
1.0
 40
1.0
 40
2.0
 40
2.0
 40
2.0
 40
3.0
 40
3.0
 40
3.0
 40
4.0
 40
4.0
 40
4.0
 40
5.0
 40
5.0
 40
5.0
 40
6.0
 40
6.0
 40
6.0
 40
7.0
 40
7.0
 40
7.0
 40
8.0
 40
8.0
 40
8.0
 40
9.0
 40
9.0
 40
9.0
 40
10.0
 40
10.0
 40
10.0
 40
11.0
 40
11.0
 40
11.0
 40
12.0
 40
12.0
 40
12.0
 40
13.0
 40
13.0
 40
13.0
 40
14.0
 40
14.0
 40
14.0
 40
15.0
 40
15.0
 40
15.0
 40
16.0
 40
16.0
 40
16.0
 40
16.0
 10
99.98597273976045
 20
-148.4694905227784
 30
0.0
 10
99.92826739038251
 20
-148.6217637432265
 30
0.0
 10
99.89209388778739
 20
-148.6999674107417
 30
0.0
 10
99.85970999022605
 20
-148.7676635370268
 30
0.0
 10
99.89571123804692
 20
-148.7888508742611
 30
0.0
 10
99.89932858830641
 20
-148.7910901863265
 30
0.0
 10
99.89932858830641
 20
-148.8059040969131
 30
0.0
 10
99.89932858830641
 20
-148.8184786954342
 30
0.0
 10
99.8705620410046
 20
-148.852412885964
 30
0.0
 10
99.86143253796868
 20
-148.8608533699028
 30
0.0
 10
99.85970999022605
 20
-149.0575683221106
 30
0.0
 10
99.85970999022605
 20
-149.0785834045706
 30
0.0
 10
99.85970999022605
 20
-149.2119085998498
 30
0.0
 10
99.85781518770917
 20
-149.2246554531452
 30
0.0
 10
99.85781518770917
 20
-149.2394693637318
 30
0.0
 10
99.85781518770917
 20
-149.2542832743184
 30
0.0
 10
99.85781518770917
 20
-149.2542832743184
 30
0.0
 10
99.85781518770917
 20
-149.7893066031777
 30
0.0
 10
99.85781518770917
 20
-149.7893066031777
 30
0.0
 10
99.85781518770917
 20
-149.8613090988194
 30
0.0
 10
99.86143253796868
 20
-150.0962646109134
 30
0.0
 10
99.8686672384877
 20
-150.2061631568929
 30
0.0
 10
99.8686672384877
 20
-150.2061631568929
 30
0.0
 10
99.66127249027566
 20
-150.2061631568929
 30
0.0
 10
99.66127249027566
 20
-150.2061631568929
 30
0.0
 10
99.68108178931585
 20
-150.0473442550229
 30
0.0
 10
99.68659394209225
 20
-149.8061875710554
 30
0.0
 10
99.68659394209225
 20
-149.7851724885953
 30
0.0
 10
99.68659394209225
 20
-149.7851724885953
 30
0.0
 10
99.68659394209225
 20
-149.0679036085663
 30
0.0
 10
99.68659394209225
 20
-149.0679036085663
 30
0.0
 10
99.60907929367413
 20
-149.1822807786767
 30
0.0
 10
99.55671384229832
 20
-149.2415364210229
 30
0.0
 10
99.52071259447746
 20
-149.2839110954915
 30
0.0
 10
99.52071259447746
 20
-149.2839110954915
 30
0.0
 10
99.35827634234794
 20
-149.14645178563
 30
0.0
 10
99.35827634234794
 20
-149.14645178563
 30
0.0
 10
99.59822724289558
 20
-148.9304442987049
 30
0.0
 10
99.76221378799348
 20
-148.6217637432265
 30
0.0
 10
99.85781518770917
 20
-148.2853501690918
 30
0.0
 10
99.85781518770917
 20
-148.2853501690918
 30
0.0
 10
100.045400636881
 20
-148.3997273392021
 30
0.0
 10
100.045400636881
 20
-148.3997273392021
 30
0.0
 10
100.0562526876595
 20
-148.4059285110756
 30
0.0
 10
100.0634873881786
 20
-148.4102348804321
 30
0.0
 10
100.0634873881786
 20
-148.4250487910187
 30
0.0
 10
100.0634873881786
 20
-148.4503702428353
 30
0.0
 10
100.0490179871405
 20
-148.4546766121919
 30
0.0
 10
99.98597273976045
 20
-148.4694905227784
 30
0.0
  0
HATCH
  5
A6
330
92
100
AcDbEntity
  8
レイヤー 1
 62
   250
420
  2299925
440
 33554687
100
AcDbHatch
 10
0.0
 20
0.0
 30
0.0
210
0.0
220
0.0
230
1.0
  2
SOLID
 70
     1
 71
     1
 91
        3
 92
        1
 93
        1
 72
     4
 94
        3
 73
     0
 74
     0
 95
       20
 96
       16
 40
0.0
 40
0.0
 40
0.0
 40
0.0
 40
1.0
 40
1.0
 40
1.0
 40
2.0
 40
2.0
 40
2.0
 40
3.0
 40
3.0
 40
3.0
 40
4.0
 40
4.0
 40
4.0
 40
5.0
 40
5.0
 40
5.0
 40
5.0
 10
100.310500734471
 20
-149.6942219677848
 10
100.2708821363906
 20
-149.5164550407459
 10
100.1878553351961
 20
-149.3748616163021
 10
100.0688272861807
 20
-149.2649630703226
 10
100.0688272861807
 20
-149.2649630703226
 10
100.2059420864936
 20
-149.1505859002123
 10
100.2059420864936
 20
-149.1505859002123
 10
100.2581352830952
 20
-149.1929605746809
 10
100.2924139831734
 20
-149.2267225104364
 10
100.3573540330704
 20
-149.3345539991247
 10
100.4259114332268
 20
-149.4509982265261
 10
100.4439981845244
 20
-149.5037081874504
 10
100.4655300313072
 20
-149.5695095112187
 10
100.4655300313072
 20
-149.5695095112187
 10
100.310500734471
 20
-149.6942219677848
 10
100.310500734471
 20
-149.6942219677848
 97
        0
 97
        1
330
A3
 92
        1
 93
        1
 72
     4
 94
        3
 73
     0
 74
     0
 95
       77
 96
       73
 40
0.0
 40
0.0
 40
0.0
 40
0.0
 40
1.0
 40
1.0
 40
1.0
 40
2.0
 40
2.0
 40
2.0
 40
3.0
 40
3.0
 40
3.0
 40
4.0
 40
4.0
 40
4.0
 40
5.0
 40
5.0
 40
5.0
 40
6.0
 40
6.0
 40
6.0
 40
7.0
 40
7.0
 40
7.0
 40
8.0
 40
8.0
 40
8.0
 40
9.0
 40
9.0
 40
9.0
 40
10.0
 40
10.0
 40
10.0
 40
11.0
 40
11.0
 40
11.0
 40
12.0
 40
12.0
 40
12.0
 40
13.0
 40
13.0
 40
13.0
 40
14.0
 40
14.0
 40
14.0
 40
15.0
 40
15.0
 40
15.0
 40
16.0
 40
16.0
 40
16.0
 40
17.0
 40
17.0
 40
17.0
 40
18.0
 40
18.0
 40
18.0
 40
19.0
 40
19.0
 40
19.0
 40
20.0
 40
20.0
 40
20.0
 40
21.0
 40
21.0
 40
21.0
 40
22.0
 40
22.0
 40
22.0
 40
23.0
 40
23.0
 40
23.0
 40
24.0
 40
24.0
 40
24.0
 40
24.0
 10
100.9669636791853
 20
-148.9686848585911
 10
100.9073635272905
 20
-148.9645507440088
 10
100.8496581779126
 20
-148.9645507440088
 10
100.7919528285346
 20
-148.9645507440088
 10
100.7919528285346
 20
-148.9645507440088
 10
100.7919528285346
 20
-149.7386636995445
 10
100.7919528285346
 20
-149.7386636995445
 10
100.7919528285346
 20
-150.0029025232632
 10
100.790230280792
 20
-150.0325303444363
 10
100.7847181280156
 20
-150.0621581656095
 10
100.7559515807138
 20
-150.1954833608886
 10
100.6693074292597
 20
-150.2040960996017
 10
100.5196180304256
 20
-150.2040960996017
 10
100.4853393303474
 20
-150.2040960996017
 10
100.4710421840836
 20
-150.2040960996017
 10
100.4367634840054
 20
-150.1996174754709
 10
100.4367634840054
 20
-150.1996174754709
 10
100.3303100335112
 20
-149.9584607915034
 10
100.3303100335112
 20
-149.9584607915034
 10
100.4295287834864
 20
-149.9901556699677
 10
100.4998087313854
 20
-149.9901556699677
 10
100.5196180304256
 20
-149.9901556699677
 10
100.5792181823204
 20
-149.9901556699677
 10
100.6079847296223
 20
-149.97327470209
 10
100.6116020798818
 20
-149.9164306265834
 10
100.6116020798818
 20
-149.9036837732879
 10
100.6134968823987
 20
-149.8061875710554
 10
100.6134968823987
 20
-149.7489989860002
 10
100.6134968823987
 20
-149.7489989860002
 10
100.6134968823987
 20
-148.9621391771692
 10
100.6134968823987
 20
-148.9621391771692
 10
100.6134968823987
 20
-148.9621391771692
 10
100.3628661858467
 20
-148.9621391771692
 10
100.3628661858467
 20
-148.9621391771692
 10
100.238325984055
 20
-148.9621391771692
 10
100.1139580370375
 20
-148.9686848585911
 10
99.99131263776259
 20
-148.9814317118866
 10
99.99131263776259
 20
-148.9814317118866
 10
99.99131263776259
 20
-148.7740369636745
 10
99.99131263776259
 20
-148.7740369636745
 10
100.1192979350396
 20
-148.7867838169699
 10
100.3051608364688
 20
-148.7910901863265
 10
100.3628661858467
 20
-148.7910901863265
 10
100.3628661858467
 20
-148.7910901863265
 10
100.6134968823987
 20
-148.7910901863265
 10
100.6134968823987
 20
-148.7910901863265
 10
100.6116020798818
 20
-148.522372738477
 10
100.6116020798818
 20
-148.446236128253
 10
100.6043673793628
 20
-148.2980970223873
 10
100.6043673793628
 20
-148.2980970223873
 10
100.8245089808702
 20
-148.3361653274993
 10
100.8245089808702
 20
-148.3361653274993
 10
100.8370835793914
 20
-148.3382323847904
 10
100.8496581779126
 20
-148.3446058114381
 10
100.8496581779126
 20
-148.3657931486724
 10
100.8496581779126
 20
-148.3849134286156
 10
100.8443182799104
 20
-148.3869804859067
 10
100.7955701787941
 20
-148.4207424216621
 10
100.7919528285346
 20
-148.4991183439516
 10
100.7919528285346
 20
-148.5139322545382
 10
100.7919528285346
 20
-148.7910901863265
 10
100.9433647751114
 20
-148.7867838169699
 10
100.9597289786663
 20
-148.7867838169699
 10
100.9884955259681
 20
-148.7824774476134
 10
101.031731474308
 20
-148.7783433330311
 10
101.0353488245675
 20
-148.7762762757399
 10
101.0732448749053
 20
-148.7740369636745
 10
101.0732448749053
 20
-148.7740369636745
 10
101.0732448749053
 20
-148.9814317118866
 10
101.0732448749053
 20
-148.9814317118866
 10
101.0480956778629
 20
-148.9793646545954
 10
101.0012423792636
 20
-148.9707519158823
 10
100.9669636791853
 20
-148.9686848585911
 97
        0
 97
        1
330
A4
 92
        1
 93
        1
 72
     4
 94
        3
 73
     0
 74
     0
 95
       53
 96
       49
 40
0.0
 40
0.0
 40
0.0
 40
0.0
 40
1.0
 40
1.0
 40
1.0
 40
2.0
 40
2.0
 40
2.0
 40
3.0
 40
3.0
 40
3.0
 40
4.0
 40
4.0
 40
4.0
 40
5.0
 40
5.0
 40
5.0
 40
6.0
 40
6.0
 40
6.0
 40
7.0
 40
7.0
 40
7.0
 40
8.0
 40
8.0
 40
8.0
 40
9.0
 40
9.0
 40
9.0
 40
10.0
 40
10.0
 40
10.0
 40
11.0
 40
11.0
 40
11.0
 40
12.0
 40
12.0
 40
12.0
 40
13.0
 40
13.0
 40
13.0
 40
14.0
 40
14.0
 40
14.0
 40
15.0
 40
15.0
 40
15.0
 40
16.0
 40
16.0
 40
16.0
 40
16.0
 10
99.98597273976045
 20
-148.4694905227784
 10
99.92826739038251
 20
-148.6217637432265
 10
99.89209388778739
 20
-148.6999674107417
 10
99.85970999022605
 20
-148.7676635370268
 10
99.89571123804692
 20
-148.7888508742611
 10
99.89932858830641
 20
-148.7910901863265
 10
99.89932858830641
 20
-148.8059040969131
 10
99.89932858830641
 20
-148.8184786954342
 10
99.8705620410046
 20
-148.852412885964
 10
99.86143253796868
 20
-148.8608533699028
 10
99.85970999022605
 20
-149.0575683221106
 10
99.85970999022605
 20
-149.0785834045706
 10
99.85970999022605
 20
-149.2119085998498
 10
99.85781518770917
 20
-149.2246554531452
 10
99.85781518770917
 20
-149.2394693637318
 10
99.85781518770917
 20
-149.2542832743184
 10
99.85781518770917
 20
-149.2542832743184
 10
99.85781518770917
 20
-149.7893066031777
 10
99.85781518770917
 20
-149.7893066031777
 10
99.85781518770917
 20
-149.8613090988194
 10
99.86143253796868
 20
-150.0962646109134
 10
99.8686672384877
 20
-150.2061631568929
 10
99.8686672384877
 20
-150.2061631568929
 10
99.66127249027566
 20
-150.2061631568929
 10
99.66127249027566
 20
-150.2061631568929
 10
99.68108178931585
 20
-150.0473442550229
 10
99.68659394209225
 20
-149.8061875710554
 10
99.68659394209225
 20
-149.7851724885953
 10
99.68659394209225
 20
-149.7851724885953
 10
99.68659394209225
 20
-149.0679036085663
 10
99.68659394209225
 20
-149.0679036085663
 10
99.60907929367413
 20
-149.1822807786767
 10
99.55671384229832
 20
-149.2415364210229
 10
99.52071259447746
 20
-149.2839110954915
 10
99.52071259447746
 20
-149.2839110954915
 10
99.35827634234794
 20
-149.14645178563
 10
99.35827634234794
 20
-149.14645178563
 10
99.59822724289558
 20
-148.9304442987049
 10
99.76221378799348
 20
-148.6217637432265
 10
99.85781518770917
 20
-148.2853501690918
 10
99.85781518770917
 20
-148.2853501690918
 10
100.045400636881
 20
-148.3997273392021
 10
100.045400636881
 20
-148.3997273392021
 10
100.0562526876595
 20
-148.4059285110756
 10
100.0634873881786
 20
-148.4102348804321
 10
100.0634873881786
 20
-148.4250487910187
 10
100.0634873881786
 20
-148.4503702428353
 10
100.0490179871405
 20
-148.4546766121919
 10
99.98597273976045
 20
-148.4694905227784
 97
        0
 97
        1
330
A5
 75
     2
 76
     1
 98
        1
 10
0.0
 20
0.0
450
        0
451
        0
460
0.0
461
0.0
452
        0
462
0.0
453
        0
470

  0
ENDBLK
  5
95
330
92
100
AcDbEntity
  8
0
100
AcDbBlockEnd
  0
BLOCK
  5
A9
330
A7
100
AcDbEntity
  8
0
100
AcDbBlockBegin
  2
Block_4
 70
     0
 10
0.0
 20
0.0
 30
0.0
  3
Block_4
  1

  0
INSERT
  5
AC
330
A7
100
AcDbEntity
  8
レイヤー 1
100
AcDbBlockReference
  2
Block_5
 10
0.0
 20
0.0
 30
0.0
  0
ENDBLK
  5
AA
330
A7
100
AcDbEntity
  8
0
100
AcDbBlockEnd
  0
BLOCK
  5
AD
330
AB
100
AcDbEntity
  8
0
100
AcDbBlockBegin
  2
Block_5
 70
     0
 10
0.0
 20
0.0
 30
0.0
  3
Block_5
  1

  0
LINE
  5
AF
330
AB
100
AcDbEntity
  8
レイヤー 1
 62
    18
420
        0
370
    25
100
AcDbLine
 10
94.26971836211967
 20
-143.6213040379158
 30
0.0
 11
103.3694445188552
 21
-143.6213040379158
 31
0.0
  0
LINE
  5
B0
330
AB
100
AcDbEntity
  8
レイヤー 1
 62
    18
420
        0
370
    25
100
AcDbLine
 10
102.269412880253
 20
-144.7209828987496
 30
0.0
 11
102.269412880253
 21
-154.2215351563703
 31
0.0
  0
LINE
  5
B1
330
AB
100
AcDbEntity
  8
レイヤー 1
 62
    18
420
        0
370
    25
100
AcDbLine
 10
94.26940086212779
 20
-144.7209828987496
 30
0.0
 11
102.269412880253
 21
-144.7209828987496
 31
0.0
  0
LINE
  5
B2
330
AB
100
AcDbEntity
  8
レイヤー 1
 62
    18
420
        0
370
    25
100
AcDbLine
 10
94.23941475178168
 20
-143.6213040379158
 30
0.0
 11
94.23941475178168
 21
-144.7209828987496
 31
0.0
  0
LINE
  5
B3
330
AB
100
AcDbEntity
  8
レイヤー 1
 62
    18
420
        0
370
    25
100
AcDbLine
 10
103.3694445188552
 20
-143.6213040379158
 30
0.0
 11
103.3694445188552
 21
-153.1218562955365
 31
0.0
  0
LINE
  5
B4
330
AB
100
AcDbEntity
  8
レイヤー 1
 62
    18
420
        0
370
    25
100
AcDbLine
 10
119.2709730020623
 20
-153.1218562955365
 30
0.0
 11
119.2709730020623
 21
-153.5214829520079
 31
0.0
  0
LINE
  5
B5
330
AB
100
AcDbEntity
  8
レイヤー 1
 62
    18
420
        0
370
    25
100
AcDbLine
 10
103.3694445188552
 20
-153.1218562955365
 30
0.0
 11
119.2709730020623
 21
-153.1218562955365
 31
0.0
  0
LINE
  5
B6
330
AB
100
AcDbEntity
  8
レイヤー 1
 62
    18
420
        0
370
    25
100
AcDbLine
 10
119.2709730020623
 20
-153.5214829520079
 30
0.0
 11
102.269412880253
 21
-154.2215351563703
 31
0.0
  0
LINE
  5
B7
330
AB
100
AcDbEntity
  8
レイヤー 1
  6
AI-Linetype-0
 62
   154
420
    23468
370
    25
100
AcDbLine
 10
94.26971836211967
 20
-145.2215745526451
 30
0.0
 11
101.769526781895
 21
-145.2215745526451
 31
0.0
  0
LINE
  5
B9
330
AB
100
AcDbEntity
  8
レイヤー 1
  6
AI-Linetype-1
 62
   154
420
    23468
370
    25
100
AcDbLine
 10
101.769526781895
 20
-145.2215745526451
 30
0.0
 11
101.769526781895
 21
-153.1218562955365
 31
0.0
  0
SPLINE
  5
BB
330
AB
100
AcDbEntity
  8
レイヤー 1
 62
    18
420
        0
370
     9
100
AcDbSpline
210
0.0
220
0.0
230
1.0
 70
     9
 71
     3
 72
    17
 73
    13
 74
     0
 42
0.0000000001
 43
0.0000000001
 40
0.0
 40
0.0
 40
0.0
 40
0.0
 40
1.0
 40
1.0
 40
1.0
 40
2.0
 40
2.0
 40
2.0
 40
3.0
 40
3.0
 40
3.0
 40
4.0
 40
4.0
 40
4.0
 40
4.0
 10
123.3713090085651
 20
-143.6213040379158
 30
0.0
 10
123.3713090085651
 20
-143.5662001504327
 30
0.0
 10
123.3265415097072
 20
-143.521397373798
 30
0.0
 10
123.2714023444473
 20
-143.521397373798
 30
0.0
 10
123.2162984569642
 20
-143.521397373798
 30
0.0
 10
123.1714956803294
 20
-143.5662001504327
 30
0.0
 10
123.1714956803294
 20
-143.6213040379158
 30
0.0
 10
123.1714956803294
 20
-143.6764432031758
 30
0.0
 10
123.2162984569642
 20
-143.7212459798105
 30
0.0
 10
123.2714023444473
 20
-143.7212459798105
 30
0.0
 10
123.3265415097072
 20
-143.7212459798105
 30
0.0
 10
123.3713090085651
 20
-143.6764432031758
 30
0.0
 10
123.3713090085651
 20
-143.6213040379158
 30
0.0
  0
SPLINE
  5
BC
330
AB
100
AcDbEntity
  8
レイヤー 1
 62
    18
420
        0
370
     9
100
AcDbSpline
210
0.0
220
0.0
230
1.0
 70
     9
 71
     3
 72
    17
 73
    13
 74
     0
 42
0.0000000001
 43
0.0000000001
 40
0.0
 40
0.0
 40
0.0
 40
0.0
 40
1.0
 40
1.0
 40
1.0
 40
2.0
 40
2.0
 40
2.0
 40
3.0
 40
3.0
 40
3.0
 40
4.0
 40
4.0
 40
4.0
 40
4.0
 10
123.3713090085651
 20
-153.1218562955365
 30
0.0
 10
123.3713090085651
 20
-153.0660468525159
 30
0.0
 10
123.3265415097072
 20
-153.021279353658
 30
0.0
 10
123.2714023444473
 20
-153.021279353658
 30
0.0
 10
123.2162984569642
 20
-153.021279353658
 30
0.0
 10
123.1714956803294
 20
-153.0660468525159
 30
0.0
 10
123.1714956803294
 20
-153.1218562955365
 30
0.0
 10
123.1714956803294
 20
-153.1769954607965
 30
0.0
 10
123.2162984569642
 20
-153.2217629596544
 30
0.0
 10
123.2714023444473
 20
-153.2217629596544
 30
0.0
 10
123.3265415097072
 20
-153.2217629596544
 30
0.0
 10
123.3713090085651
 20
-153.1769954607965
 30
0.0
 10
123.3713090085651
 20
-153.1218562955365
 30
0.0
  0
CIRCLE
  5
BD
330
AB
100
AcDbEntity
  8
レイヤー 1
 62
    18
420
        0
370
     9
100
AcDbCircle
 10
123.2714023444473
 20
-153.5214829520079
 30
0.0
 40
0.0999066641178353
  0
SPLINE
  5
BE
330
AB
100
AcDbEntity
  8
レイヤー 1
 62
    18
420
        0
370
     9
100
AcDbSpline
210
0.0
220
0.0
230
1.0
 70
     9
 71
     3
 72
    17
 73
    13
 74
     0
 42
0.0000000001
 43
0.0000000001
 40
0.0
 40
0.0
 40
0.0
 40
0.0
 40
1.0
 40
1.0
 40
1.0
 40
2.0
 40
2.0
 40
2.0
 40
3.0
 40
3.0
 40
3.0
 40
4.0
 40
4.0
 40
4.0
 40
4.0
 10
119.3708796661801
 20
-158.2212942209946
 30
0.0
 10
119.3708796661801
 20
-158.1661550557346
 30
0.0
 10
119.3260768895453
 20
-158.1213875568768
 30
0.0
 10
119.2709730020623
 20
-158.1213875568768
 30
0.0
 10
119.2155163368104
 20
-158.1213875568768
 30
0.0
 10
119.1707135601757
 20
-158.1661550557346
 30
0.0
 10
119.1707135601757
 20
-158.2212942209946
 30
0.0
 10
119.1707135601757
 20
-158.2763981084777
 30
0.0
 10
119.2155163368104
 20
-158.3212008851124
 30
0.0
 10
119.2709730020623
 20
-158.3212008851124
 30
0.0
 10
119.3260768895453
 20
-158.3212008851124
 30
0.0
 10
119.3708796661801
 20
-158.2763981084777
 30
0.0
 10
119.3708796661801
 20
-158.2212942209946
 30
0.0
  0
SPLINE
  5
BF
330
AB
100
AcDbEntity
  8
レイヤー 1
 62
    18
420
        0
370
     9
100
AcDbSpline
210
0.0
220
0.0
230
1.0
 70
     9
 71
     3
 72
    17
 73
    13
 74
     0
 42
0.0000000001
 43
0.0000000001
 40
0.0
 40
0.0
 40
0.0
 40
0.0
 40
1.0
 40
1.0
 40
1.0
 40
2.0
 40
2.0
 40
2.0
 40
3.0
 40
3.0
 40
3.0
 40
4.0
 40
4.0
 40
4.0
 40
4.0
 10
94.33173669387111
 20
-158.2212942209946
 30
0.0
 10
94.33173669387111
 20
-158.1661550557346
 30
0.0
 10
94.28696919501289
 20
-158.1213875568768
 30
0.0
 10
94.23183213388314
 20
-158.1213875568768
 30
0.0
 10
94.17672614226988
 20
-158.1213875568768
 30
0.0
 10
94.13192336563511
 20
-158.1661550557346
 30
0.0
 10
94.13192336563511
 20
-158.2212942209946
 30
0.0
 10
94.13192336563511
 20
-158.2763981084777
 30
0.0
 10
94.17672614226988
 20
-158.3212008851124
 30
0.0
 10
94.23183213388314
 20
-158.3212008851124
 30
0.0
 10
94.28696919501289
 20
-158.3212008851124
 30
0.0
 10
94.33173669387111
 20
-158.2763981084777
 30
0.0
 10
94.33173669387111
 20
-158.2212942209946
 30
0.0
  0
SPLINE
  5
C0
330
AB
100
AcDbEntity
  8
レイヤー 1
 62
    18
420
        0
370
     9
100
AcDbSpline
210
0.0
220
0.0
230
1.0
 70
     9
 71
     3
 72
    17
 73
    13
 74
     0
 42
0.0000000001
 43
0.0000000001
 40
0.0
 40
0.0
 40
0.0
 40
0.0
 40
1.0
 40
1.0
 40
1.0
 40
2.0
 40
2.0
 40
2.0
 40
3.0
 40
3.0
 40
3.0
 40
4.0
 40
4.0
 40
4.0
 40
4.0
 10
90.251015131312
 20
-143.6213040379158
 30
0.0
 10
90.251015131312
 20
-143.5662001504327
 30
0.0
 10
90.20624763245413
 20
-143.521397373798
 30
0.0
 10
90.15110846719416
 20
-143.521397373798
 30
0.0
 10
90.09565180194199
 20
-143.521397373798
 30
0.0
 10
90.05088430308443
 20
-143.5662001504327
 30
0.0
 10
90.05088430308443
 20
-143.6213040379158
 30
0.0
 10
90.05088430308443
 20
-143.6764432031758
 30
0.0
 10
90.09565180194199
 20
-143.7212459798105
 30
0.0
 10
90.15110846719416
 20
-143.7212459798105
 30
0.0
 10
90.20624763245413
 20
-143.7212459798105
 30
0.0
 10
90.251015131312
 20
-143.6764432031758
 30
0.0
 10
90.251015131312
 20
-143.6213040379158
 30
0.0
  0
SPLINE
  5
C1
330
AB
100
AcDbEntity
  8
レイヤー 1
 62
    18
420
        0
370
     9
100
AcDbSpline
210
0.0
220
0.0
230
1.0
 70
     9
 71
     3
 72
    17
 73
    13
 74
     0
 42
0.0000000001
 43
0.0000000001
 40
0.0
 40
0.0
 40
0.0
 40
0.0
 40
1.0
 40
1.0
 40
1.0
 40
2.0
 40
2.0
 40
2.0
 40
3.0
 40
3.0
 40
3.0
 40
4.0
 40
4.0
 40
4.0
 40
4.0
 10
90.251015131312
 20
-144.7209828987496
 30
0.0
 10
90.251015131312
 20
-144.6658790112668
 30
0.0
 10
90.20624763245413
 20
-144.6210762346317
 30
0.0
 10
90.15110846719416
 20
-144.6210762346317
 30
0.0
 10
90.09565180194199
 20
-144.6210762346317
 30
0.0
 10
90.05088430308443
 20
-144.6658790112668
 30
0.0
 10
90.05088430308443
 20
-144.7209828987496
 30
0.0
 10
90.05088430308443
 20
-144.7761220640095
 30
0.0
 10
90.09565180194199
 20
-144.8208870600897
 30
0.0
 10
90.15110846719416
 20
-144.8208870600897
 30
0.0
 10
90.20624763245413
 20
-144.8208870600897
 30
0.0
 10
90.251015131312
 20
-144.7761220640095
 30
0.0
 10
90.251015131312
 20
-144.7209828987496
 30
0.0
  0
SPLINE
  5
C2
330
AB
100
AcDbEntity
  8
レイヤー 1
 62
    18
420
        0
370
     9
100
AcDbSpline
210
0.0
220
0.0
230
1.0
 70
     9
 71
     3
 72
    17
 73
    13
 74
     0
 42
0.0000000001
 43
0.0000000001
 40
0.0
 40
0.0
 40
0.0
 40
0.0
 40
1.0
 40
1.0
 40
1.0
 40
2.0
 40
2.0
 40
2.0
 40
3.0
 40
3.0
 40
3.0
 40
4.0
 40
4.0
 40
4.0
 40
4.0
 10
102.3696723221393
 20
-158.2212942209946
 30
0.0
 10
102.3696723221393
 20
-158.1661550557346
 30
0.0
 10
102.3248695455045
 20
-158.1213875568768
 30
0.0
 10
102.269412880253
 20
-158.1213875568768
 30
0.0
 10
102.2143089927696
 20
-158.1213875568768
 30
0.0
 10
102.1695062161348
 20
-158.1661550557346
 30
0.0
 10
102.1695062161348
 20
-158.2212942209946
 30
0.0
 10
102.1695062161348
 20
-158.2763981084777
 30
0.0
 10
102.2143089927696
 20
-158.3212008851124
 30
0.0
 10
102.269412880253
 20
-158.3212008851124
 30
0.0
 10
102.3248695455045
 20
-158.3212008851124
 30
0.0
 10
102.3696723221393
 20
-158.2763981084777
 30
0.0
 10
102.3696723221393
 20
-158.2212942209946
 30
0.0
  0
INSERT
  5
C4
330
AB
100
AcDbEntity
  8
レイヤー 1
100
AcDbBlockReference
  2
Block_6
 10
0.0
 20
0.0
 30
0.0
  0
INSERT
  5
D6
330
AB
100
AcDbEntity
  8
レイヤー 1
100
AcDbBlockReference
  2
Block_9
 10
0.0
 20
0.0
 30
0.0
  0
INSERT
  5
EC
330
AB
100
AcDbEntity
  8
レイヤー 1
100
AcDbBlockReference
  2
Block_12
 10
0.0
 20
0.0
 30
0.0
  0
LINE
  5
103
330
AB
100
AcDbEntity
  8
レイヤー 1
 62
    18
420
        0
370
     9
100
AcDbLine
 10
94.26940086212779
 20
-158.2212942209946
 30
0.0
 11
102.269412880253
 21
-158.2212942209946
 31
0.0
  0
LINE
  5
104
330
AB
100
AcDbEntity
  8
レイヤー 1
 62
    18
420
        0
370
     9
100
AcDbLine
 10
94.23183213388314
 20
-151.261756502923
 30
0.0
 11
94.23183213388314
 21
-159.2217366954712
 31
0.0
  0
LINE
  5
105
330
AB
100
AcDbEntity
  8
レイヤー 1
 62
    18
420
        0
370
     9
100
AcDbLine
 10
102.269412880253
 20
-156.7612528693544
 30
0.0
 11
102.269412880253
 21
-159.2217366954712
 31
0.0
  0
INSERT
  5
107
330
AB
100
AcDbEntity
  8
レイヤー 1
100
AcDbBlockReference
  2
Block_15
 10
0.0
 20
0.0
 30
0.0
  0
INSERT
  5
10F
330
AB
100
AcDbEntity
  8
レイヤー 1
100
AcDbBlockReference
  2
Block_16
 10
0.0
 20
0.0
 30
0.0
  0
ENDBLK
  5
AE
330
AB
100
AcDbEntity
  8
0
100
AcDbBlockEnd
  0
BLOCK
  5
C5
330
C3
100
AcDbEntity
  8
0
100
AcDbBlockBegin
  2
Block_6
 70
     0
 10
0.0
 20
0.0
 30
0.0
  3
Block_6
  1

  0
LINE
  5
C7
330
C3
100
AcDbEntity
  8
レイヤー 1
 62
    18
420
        0
370
     9
100
AcDbLine
 10
102.269412880253
 20
-158.2212942209946
 30
0.0
 11
119.2709730020623
 21
-158.2212942209946
 31
0.0
  0
LINE
  5
C8
330
C3
100
AcDbEntity
  8
レイヤー 1
 62
    18
420
        0
370
     9
100
AcDbLine
 10
119.2709730020623
 20
-156.061200664992
 30
0.0
 11
119.2709730020623
 21
-159.2217366954712
 31
0.0
  0
INSERT
  5
CA
330
C3
100
AcDbEntity
  8
レイヤー 1
100
AcDbBlockReference
  2
Block_7
 10
0.0
 20
0.0
 30
0.0
  0
ENDBLK
  5
C6
330
C3
100
AcDbEntity
  8
0
100
AcDbBlockEnd
  0
BLOCK
  5
CB
330
C9
100
AcDbEntity
  8
0
100
AcDbBlockBegin
  2
Block_7
 70
     0
 10
0.0
 20
0.0
 30
0.0
  3
Block_7
  1

  0
INSERT
  5
CE
330
C9
100
AcDbEntity
  8
レイヤー 1
100
AcDbBlockReference
  2
Block_8
 10
0.0
 20
0.0
 30
0.0
  0
ENDBLK
  5
CC
330
C9
100
AcDbEntity
  8
0
100
AcDbBlockEnd
  0
BLOCK
  5
CF
330
CD
100
AcDbEntity
  8
0
100
AcDbBlockBegin
  2
Block_8
 70
     0
 10
0.0
 20
0.0
 30
0.0
  3
Block_8
  1

  0
SPLINE
  5
D1
330
CD
100
AcDbEntity
  8
レイヤー 1
100
AcDbSpline
210
0.0
220
0.0
230
1.0
 70
    11
 71
     3
 72
    26
 73
    22
 74
     0
 42
0.0000000001
 43
0.0000000001
 40
0.0
 40
0.0
 40
0.0
 40
0.0
 40
1.0
 40
1.0
 40
1.0
 40
2.0
 40
2.0
 40
2.0
 40
3.0
 40
3.0
 40
3.0
 40
4.0
 40
4.0
 40
4.0
 40
5.0
 40
5.0
 40
5.0
 40
6.0
 40
6.0
 40
6.0
 40
7.0
 40
7.0
 40
7.0
 40
7.0
 10
110.2316867128934
 20
-157.5752223998423
 30
0.0
 10
110.2316867128934
 20
-157.5752223998423
 30
0.0
 10
110.2316867128934
 20
-156.4710692968197
 30
0.0
 10
110.2316867128934
 20
-156.4710692968197
 30
0.0
 10
110.2316867128934
 20
-156.4710692968197
 30
0.0
 10
109.9502224117485
 20
-156.4710692968197
 30
0.0
 10
109.9502224117485
 20
-156.4710692968197
 30
0.0
 10
109.9502224117485
 20
-156.4710692968197
 30
0.0
 10
109.9502224117485
 20
-156.322930190954
 30
0.0
 10
109.9502224117485
 20
-156.322930190954
 30
0.0
 10
110.2334092606361
 20
-156.3081162803674
 30
0.0
 10
110.2730278587165
 20
-156.1451632639151
 30
0.0
 10
110.2981770557588
 20
-156.0307860938048
 30
0.0
 10
110.2981770557588
 20
-156.0307860938048
 30
0.0
 10
110.4228895123248
 20
-156.0307860938048
 30
0.0
 10
110.4228895123248
 20
-156.0307860938048
 30
0.0
 10
110.4228895123248
 20
-156.0307860938048
 30
0.0
 10
110.4228895123248
 20
-157.5752223998423
 30
0.0
 10
110.4228895123248
 20
-157.5752223998423
 30
0.0
 10
110.4228895123248
 20
-157.5752223998423
 30
0.0
 10
110.2316867128934
 20
-157.5752223998423
 30
0.0
 10
110.2316867128934
 20
-157.5752223998423
 30
0.0
  0
HATCH
  5
D2
330
CD
100
AcDbEntity
  8
レイヤー 1
 62
    18
420
        0
440
 33554687
100
AcDbHatch
 10
0.0
 20
0.0
 30
0.0
210
0.0
220
0.0
230
1.0
  2
SOLID
 70
     1
 71
     1
 91
        1
 92
        1
 93
        1
 72
     4
 94
        3
 73
     0
 74
     0
 95
       26
 96
       22
 40
0.0
 40
0.0
 40
0.0
 40
0.0
 40
1.0
 40
1.0
 40
1.0
 40
2.0
 40
2.0
 40
2.0
 40
3.0
 40
3.0
 40
3.0
 40
4.0
 40
4.0
 40
4.0
 40
5.0
 40
5.0
 40
5.0
 40
6.0
 40
6.0
 40
6.0
 40
7.0
 40
7.0
 40
7.0
 40
7.0
 10
110.2316867128934
 20
-157.5752223998423
 10
110.2316867128934
 20
-157.5752223998423
 10
110.2316867128934
 20
-156.4710692968197
 10
110.2316867128934
 20
-156.4710692968197
 10
110.2316867128934
 20
-156.4710692968197
 10
109.9502224117485
 20
-156.4710692968197
 10
109.9502224117485
 20
-156.4710692968197
 10
109.9502224117485
 20
-156.4710692968197
 10
109.9502224117485
 20
-156.322930190954
 10
109.9502224117485
 20
-156.322930190954
 10
110.2334092606361
 20
-156.3081162803674
 10
110.2730278587165
 20
-156.1451632639151
 10
110.2981770557588
 20
-156.0307860938048
 10
110.2981770557588
 20
-156.0307860938048
 10
110.4228895123248
 20
-156.0307860938048
 10
110.4228895123248
 20
-156.0307860938048
 10
110.4228895123248
 20
-156.0307860938048
 10
110.4228895123248
 20
-157.5752223998423
 10
110.4228895123248
 20
-157.5752223998423
 10
110.4228895123248
 20
-157.5752223998423
 10
110.2316867128934
 20
-157.5752223998423
 10
110.2316867128934
 20
-157.5752223998423
 97
        0
 97
        1
330
D1
 75
     2
 76
     1
 98
        1
 10
0.0
 20
0.0
450
        0
451
        0
460
0.0
461
0.0
452
        0
462
0.0
453
        0
470

  0
SPLINE
  5
D3
330
CD
100
AcDbEntity
  8
レイヤー 1
100
AcDbSpline
210
0.0
220
0.0
230
1.0
 70
     9
 71
     3
 72
    26
 73
    22
 74
     0
 42
0.0000000001
 43
0.0000000001
 40
0.0
 40
0.0
 40
0.0
 40
0.0
 40
1.0
 40
1.0
 40
1.0
 40
2.0
 40
2.0
 40
2.0
 40
3.0
 40
3.0
 40
3.0
 40
4.0
 40
4.0
 40
4.0
 40
5.0
 40
5.0
 40
5.0
 40
6.0
 40
6.0
 40
6.0
 40
7.0
 40
7.0
 40
7.0
 40
7.0
 10
111.1990695251516
 20
-157.5752223998423
 30
0.0
 10
111.1990695251516
 20
-157.5752223998423
 30
0.0
 10
110.997186929716
 20
-157.5752223998423
 30
0.0
 10
110.997186929716
 20
-157.5752223998423
 30
0.0
 10
111.018891031273
 20
-157.2661973348154
 30
0.0
 10
111.1828775763709
 20
-156.7480549738338
 30
0.0
 10
111.5291096726385
 20
-156.2423149565991
 30
0.0
 10
111.5291096726385
 20
-156.2423149565991
 30
0.0
 10
110.8149413785462
 20
-156.2423149565991
 30
0.0
 10
110.8149413785462
 20
-156.2423149565991
 30
0.0
 10
110.8149413785462
 20
-156.2423149565991
 30
0.0
 10
110.8149413785462
 20
-156.0307860938048
 30
0.0
 10
110.8149413785462
 20
-156.0307860938048
 30
0.0
 10
110.8149413785462
 20
-156.0307860938048
 30
0.0
 10
111.7309922680742
 20
-156.0307860938048
 30
0.0
 10
111.7309922680742
 20
-156.0307860938048
 30
0.0
 10
111.7309922680742
 20
-156.0307860938048
 30
0.0
 10
111.7309922680742
 20
-156.2423149565991
 30
0.0
 10
111.7309922680742
 20
-156.2423149565991
 30
0.0
 10
111.4553846292542
 20
-156.5323919964572
 30
0.0
 10
111.2280083272277
 20
-157.1246039103716
 30
0.0
 10
111.1990695251516
 20
-157.5752223998423
 30
0.0
  0
HATCH
  5
D4
330
CD
100
AcDbEntity
  8
レイヤー 1
 62
    18
420
        0
440
 33554687
100
AcDbHatch
 10
0.0
 20
0.0
 30
0.0
210
0.0
220
0.0
230
1.0
  2
SOLID
 70
     1
 71
     1
 91
        1
 92
        1
 93
        1
 72
     4
 94
        3
 73
     0
 74
     0
 95
       26
 96
       22
 40
0.0
 40
0.0
 40
0.0
 40
0.0
 40
1.0
 40
1.0
 40
1.0
 40
2.0
 40
2.0
 40
2.0
 40
3.0
 40
3.0
 40
3.0
 40
4.0
 40
4.0
 40
4.0
 40
5.0
 40
5.0
 40
5.0
 40
6.0
 40
6.0
 40
6.0
 40
7.0
 40
7.0
 40
7.0
 40
7.0
 10
111.1990695251516
 20
-157.5752223998423
 10
111.1990695251516
 20
-157.5752223998423
 10
110.997186929716
 20
-157.5752223998423
 10
110.997186929716
 20
-157.5752223998423
 10
111.018891031273
 20
-157.2661973348154
 10
111.1828775763709
 20
-156.7480549738338
 10
111.5291096726385
 20
-156.2423149565991
 10
111.5291096726385
 20
-156.2423149565991
 10
110.8149413785462
 20
-156.2423149565991
 10
110.8149413785462
 20
-156.2423149565991
 10
110.8149413785462
 20
-156.2423149565991
 10
110.8149413785462
 20
-156.0307860938048
 10
110.8149413785462
 20
-156.0307860938048
 10
110.8149413785462
 20
-156.0307860938048
 10
111.7309922680742
 20
-156.0307860938048
 10
111.7309922680742
 20
-156.0307860938048
 10
111.7309922680742
 20
-156.0307860938048
 10
111.7309922680742
 20
-156.2423149565991
 10
111.7309922680742
 20
-156.2423149565991
 10
111.4553846292542
 20
-156.5323919964572
 10
111.2280083272277
 20
-157.1246039103716
 10
111.1990695251516
 20
-157.5752223998423
 97
        0
 97
        1
330
D3
 75
     2
 76
     1
 98
        1
 10
0.0
 20
0.0
450
        0
451
        0
460
0.0
461
0.0
452
        0
462
0.0
453
        0
470

  0
ENDBLK
  5
D0
330
CD
100
AcDbEntity
  8
0
100
AcDbBlockEnd
  0
BLOCK
  5
D7
330
D5
100
AcDbEntity
  8
0
100
AcDbBlockBegin
  2
Block_9
 70
     0
 10
0.0
 20
0.0
 30
0.0
  3
Block_9
  1

  0
LINE
  5
D9
330
D5
100
AcDbEntity
  8
レイヤー 1
 62
    18
420
        0
370
     9
100
AcDbLine
 10
90.15110846719416
 20
-143.6213040379158
 30
0.0
 11
90.15110846719416
 21
-142.6208615634396
 31
0.0
  0
LINE
  5
DA
330
D5
100
AcDbEntity
  8
レイヤー 1
 62
    18
420
        0
370
     9
100
AcDbLine
 10
90.15110846719416
 20
-143.6213040379158
 30
0.0
 11
90.15110846719416
 21
-145.7211078732342
 31
0.0
  0
LINE
  5
DB
330
D5
100
AcDbEntity
  8
レイヤー 1
 62
    18
420
        0
370
     9
100
AcDbLine
 10
91.61079704106553
 20
-143.6213040379158
 30
0.0
 11
89.15101877048636
 21
-143.6213040379158
 31
0.0
  0
LINE
  5
DC
330
D5
100
AcDbEntity
  8
レイヤー 1
 62
    18
420
        0
370
     9
100
AcDbLine
 10
91.61079704106553
 20
-144.7209828987496
 30
0.0
 11
89.15101877048636
 21
-144.7209828987496
 31
0.0
  0
INSERT
  5
DE
330
D5
100
AcDbEntity
  8
レイヤー 1
100
AcDbBlockReference
  2
Block_10
 10
0.0
 20
0.0
 30
0.0
  0
ENDBLK
  5
D8
330
D5
100
AcDbEntity
  8
0
100
AcDbBlockEnd
  0
BLOCK
  5
DF
330
DD
100
AcDbEntity
  8
0
100
AcDbBlockBegin
  2
Block_10
 70
     0
 10
0.0
 20
0.0
 30
0.0
  3
Block_10
  1

  0
INSERT
  5
E2
330
DD
100
AcDbEntity
  8
レイヤー 1
100
AcDbBlockReference
  2
Block_11
 10
0.0
 20
0.0
 30
0.0
  0
ENDBLK
  5
E0
330
DD
100
AcDbEntity
  8
0
100
AcDbBlockEnd
  0
BLOCK
  5
E3
330
E1
100
AcDbEntity
  8
0
100
AcDbBlockBegin
  2
Block_11
 70
     0
 10
0.0
 20
0.0
 30
0.0
  3
Block_11
  1

  0
SPLINE
  5
E5
330
E1
100
AcDbEntity
  8
レイヤー 1
100
AcDbSpline
210
0.0
220
0.0
230
1.0
 70
    11
 71
     3
 72
    26
 73
    22
 74
     0
 42
0.0000000001
 43
0.0000000001
 40
0.0
 40
0.0
 40
0.0
 40
0.0
 40
1.0
 40
1.0
 40
1.0
 40
2.0
 40
2.0
 40
2.0
 40
3.0
 40
3.0
 40
3.0
 40
4.0
 40
4.0
 40
4.0
 40
5.0
 40
5.0
 40
5.0
 40
6.0
 40
6.0
 40
6.0
 40
7.0
 40
7.0
 40
7.0
 40
7.0
 10
89.50461423543634
 20
-142.3961316918315
 30
0.0
 10
89.50461423543634
 20
-142.3961316918315
 30
0.0
 10
88.40046113241378
 20
-142.3961316918315
 30
0.0
 10
88.40046113241378
 20
-142.3961316918315
 30
0.0
 10
88.40046113241378
 20
-142.3961316918315
 30
0.0
 10
88.40046113241378
 20
-142.6775959929764
 30
0.0
 10
88.40046113241378
 20
-142.6775959929764
 30
0.0
 10
88.40046113241378
 20
-142.6775959929764
 30
0.0
 10
88.25232202654802
 20
-142.6775959929764
 30
0.0
 10
88.25232202654802
 20
-142.6775959929764
 30
0.0
 10
88.23750811596147
 20
-142.3944091440889
 30
0.0
 10
88.07455509950914
 20
-142.3547905460085
 30
0.0
 10
87.96017792939885
 20
-142.3296413489662
 30
0.0
 10
87.96017792939885
 20
-142.3296413489662
 30
0.0
 10
87.96017792939885
 20
-142.2049288924001
 30
0.0
 10
87.96017792939885
 20
-142.2049288924001
 30
0.0
 10
87.96017792939885
 20
-142.2049288924001
 30
0.0
 10
89.50461423543634
 20
-142.2049288924001
 30
0.0
 10
89.50461423543634
 20
-142.2049288924001
 30
0.0
 10
89.50461423543634
 20
-142.2049288924001
 30
0.0
 10
89.50461423543634
 20
-142.3961316918315
 30
0.0
 10
89.50461423543634
 20
-142.3961316918315
 30
0.0
  0
HATCH
  5
E6
330
E1
100
AcDbEntity
  8
レイヤー 1
 62
    18
420
        0
440
 33554687
100
AcDbHatch
 10
0.0
 20
0.0
 30
0.0
210
0.0
220
0.0
230
1.0
  2
SOLID
 70
     1
 71
     1
 91
        1
 92
        1
 93
        1
 72
     4
 94
        3
 73
     0
 74
     0
 95
       26
 96
       22
 40
0.0
 40
0.0
 40
0.0
 40
0.0
 40
1.0
 40
1.0
 40
1.0
 40
2.0
 40
2.0
 40
2.0
 40
3.0
 40
3.0
 40
3.0
 40
4.0
 40
4.0
 40
4.0
 40
5.0
 40
5.0
 40
5.0
 40
6.0
 40
6.0
 40
6.0
 40
7.0
 40
7.0
 40
7.0
 40
7.0
 10
89.50461423543634
 20
-142.3961316918315
 10
89.50461423543634
 20
-142.3961316918315
 10
88.40046113241378
 20
-142.3961316918315
 10
88.40046113241378
 20
-142.3961316918315
 10
88.40046113241378
 20
-142.3961316918315
 10
88.40046113241378
 20
-142.6775959929764
 10
88.40046113241378
 20
-142.6775959929764
 10
88.40046113241378
 20
-142.6775959929764
 10
88.25232202654802
 20
-142.6775959929764
 10
88.25232202654802
 20
-142.6775959929764
 10
88.23750811596147
 20
-142.3944091440889
 10
88.07455509950914
 20
-142.3547905460085
 10
87.96017792939885
 20
-142.3296413489662
 10
87.96017792939885
 20
-142.3296413489662
 10
87.96017792939885
 20
-142.2049288924001
 10
87.96017792939885
 20
-142.2049288924001
 10
87.96017792939885
 20
-142.2049288924001
 10
89.50461423543634
 20
-142.2049288924001
 10
89.50461423543634
 20
-142.2049288924001
 10
89.50461423543634
 20
-142.2049288924001
 10
89.50461423543634
 20
-142.3961316918315
 10
89.50461423543634
 20
-142.3961316918315
 97
        0
 97
        1
330
E5
 75
     2
 76
     1
 98
        1
 10
0.0
 20
0.0
450
        0
451
        0
460
0.0
461
0.0
452
        0
462
0.0
453
        0
470

  0
SPLINE
  5
E7
330
E1
100
AcDbEntity
  8
レイヤー 1
100
AcDbSpline
210
0.0
220
0.0
230
1.0
 70
    11
 71
     3
 72
    17
 73
    13
 74
     0
 42
0.0000000001
 43
0.0000000001
 40
0.0
 40
0.0
 40
0.0
 40
0.0
 40
1.0
 40
1.0
 40
1.0
 40
2.0
 40
2.0
 40
2.0
 40
3.0
 40
3.0
 40
3.0
 40
4.0
 40
4.0
 40
4.0
 40
4.0
 10
89.50461423543634
 20
-141.7281276772416
 30
0.0
 10
89.50461423543634
 20
-141.7281276772416
 30
0.0
 10
89.2527777554646
 20
-141.7281276772416
 30
0.0
 10
89.2527777554646
 20
-141.7281276772416
 30
0.0
 10
89.2527777554646
 20
-141.7281276772416
 30
0.0
 10
89.2527777554646
 20
-141.5134982285105
 30
0.0
 10
89.2527777554646
 20
-141.5134982285105
 30
0.0
 10
89.2527777554646
 20
-141.5134982285105
 30
0.0
 10
89.50461423543634
 20
-141.5134982285105
 30
0.0
 10
89.50461423543634
 20
-141.5134982285105
 30
0.0
 10
89.50461423543634
 20
-141.5134982285105
 30
0.0
 10
89.50461423543634
 20
-141.7281276772416
 30
0.0
 10
89.50461423543634
 20
-141.7281276772416
 30
0.0
  0
HATCH
  5
E8
330
E1
100
AcDbEntity
  8
レイヤー 1
 62
    18
420
        0
440
 33554687
100
AcDbHatch
 10
0.0
 20
0.0
 30
0.0
210
0.0
220
0.0
230
1.0
  2
SOLID
 70
     1
 71
     1
 91
        1
 92
        1
 93
        1
 72
     4
 94
        3
 73
     0
 74
     0
 95
       17
 96
       13
 40
0.0
 40
0.0
 40
0.0
 40
0.0
 40
1.0
 40
1.0
 40
1.0
 40
2.0
 40
2.0
 40
2.0
 40
3.0
 40
3.0
 40
3.0
 40
4.0
 40
4.0
 40
4.0
 40
4.0
 10
89.50461423543634
 20
-141.7281276772416
 10
89.50461423543634
 20
-141.7281276772416
 10
89.2527777554646
 20
-141.7281276772416
 10
89.2527777554646
 20
-141.7281276772416
 10
89.2527777554646
 20
-141.7281276772416
 10
89.2527777554646
 20
-141.5134982285105
 10
89.2527777554646
 20
-141.5134982285105
 10
89.2527777554646
 20
-141.5134982285105
 10
89.50461423543634
 20
-141.5134982285105
 10
89.50461423543634
 20
-141.5134982285105
 10
89.50461423543634
 20
-141.5134982285105
 10
89.50461423543634
 20
-141.7281276772416
 10
89.50461423543634
 20
-141.7281276772416
 97
        0
 97
        1
330
E7
 75
     2
 76
     1
 98
        1
 10
0.0
 20
0.0
450
        0
451
        0
460
0.0
461
0.0
452
        0
462
0.0
453
        0
470

  0
SPLINE
  5
E9
330
E1
100
AcDbEntity
  8
レイヤー 1
100
AcDbSpline
210
0.0
220
0.0
230
1.0
 70
    11
 71
     3
 72
    26
 73
    22
 74
     0
 42
0.0000000001
 43
0.0000000001
 40
0.0
 40
0.0
 40
0.0
 40
0.0
 40
1.0
 40
1.0
 40
1.0
 40
2.0
 40
2.0
 40
2.0
 40
3.0
 40
3.0
 40
3.0
 40
4.0
 40
4.0
 40
4.0
 40
5.0
 40
5.0
 40
5.0
 40
6.0
 40
6.0
 40
6.0
 40
7.0
 40
7.0
 40
7.0
 40
7.0
 10
89.50461423543634
 20
-140.9274874864695
 30
0.0
 10
89.50461423543634
 20
-140.9274874864695
 30
0.0
 10
88.40046113241378
 20
-140.9274874864695
 30
0.0
 10
88.40046113241378
 20
-140.9274874864695
 30
0.0
 10
88.40046113241378
 20
-140.9274874864695
 30
0.0
 10
88.40046113241378
 20
-141.2089517876144
 30
0.0
 10
88.40046113241378
 20
-141.2089517876144
 30
0.0
 10
88.40046113241378
 20
-141.2089517876144
 30
0.0
 10
88.25232202654802
 20
-141.2089517876144
 30
0.0
 10
88.25232202654802
 20
-141.2089517876144
 30
0.0
 10
88.23750811596147
 20
-140.9257649387269
 30
0.0
 10
88.07455509950914
 20
-140.8861463406465
 30
0.0
 10
87.96017792939885
 20
-140.8609971436042
 30
0.0
 10
87.96017792939885
 20
-140.8609971436042
 30
0.0
 10
87.96017792939885
 20
-140.7362846870381
 30
0.0
 10
87.96017792939885
 20
-140.7362846870381
 30
0.0
 10
87.96017792939885
 20
-140.7362846870381
 30
0.0
 10
89.50461423543634
 20
-140.7362846870381
 30
0.0
 10
89.50461423543634
 20
-140.7362846870381
 30
0.0
 10
89.50461423543634
 20
-140.7362846870381
 30
0.0
 10
89.50461423543634
 20
-140.9274874864695
 30
0.0
 10
89.50461423543634
 20
-140.9274874864695
 30
0.0
  0
HATCH
  5
EA
330
E1
100
AcDbEntity
  8
レイヤー 1
 62
    18
420
        0
440
 33554687
100
AcDbHatch
 10
0.0
 20
0.0
 30
0.0
210
0.0
220
0.0
230
1.0
  2
SOLID
 70
     1
 71
     1
 91
        1
 92
        1
 93
        1
 72
     4
 94
        3
 73
     0
 74
     0
 95
       26
 96
       22
 40
0.0
 40
0.0
 40
0.0
 40
0.0
 40
1.0
 40
1.0
 40
1.0
 40
2.0
 40
2.0
 40
2.0
 40
3.0
 40
3.0
 40
3.0
 40
4.0
 40
4.0
 40
4.0
 40
5.0
 40
5.0
 40
5.0
 40
6.0
 40
6.0
 40
6.0
 40
7.0
 40
7.0
 40
7.0
 40
7.0
 10
89.50461423543634
 20
-140.9274874864695
 10
89.50461423543634
 20
-140.9274874864695
 10
88.40046113241378
 20
-140.9274874864695
 10
88.40046113241378
 20
-140.9274874864695
 10
88.40046113241378
 20
-140.9274874864695
 10
88.40046113241378
 20
-141.2089517876144
 10
88.40046113241378
 20
-141.2089517876144
 10
88.40046113241378
 20
-141.2089517876144
 10
88.25232202654802
 20
-141.2089517876144
 10
88.25232202654802
 20
-141.2089517876144
 10
88.23750811596147
 20
-140.9257649387269
 10
88.07455509950914
 20
-140.8861463406465
 10
87.96017792939885
 20
-140.8609971436042
 10
87.96017792939885
 20
-140.8609971436042
 10
87.96017792939885
 20
-140.7362846870381
 10
87.96017792939885
 20
-140.7362846870381
 10
87.96017792939885
 20
-140.7362846870381
 10
89.50461423543634
 20
-140.7362846870381
 10
89.50461423543634
 20
-140.7362846870381
 10
89.50461423543634
 20
-140.7362846870381
 10
89.50461423543634
 20
-140.9274874864695
 10
89.50461423543634
 20
-140.9274874864695
 97
        0
 97
        1
330
E9
 75
     2
 76
     1
 98
        1
 10
0.0
 20
0.0
450
        0
451
        0
460
0.0
461
0.0
452
        0
462
0.0
453
        0
470

  0
ENDBLK
  5
E4
330
E1
100
AcDbEntity
  8
0
100
AcDbBlockEnd
  0
BLOCK
  5
ED
330
EB
100
AcDbEntity
  8
0
100
AcDbBlockBegin
  2
Block_12
 70
     0
 10
0.0
 20
0.0
 30
0.0
  3
Block_12
  1

  0
LINE
  5
EF
330
EB
100
AcDbEntity
  8
レイヤー 1
 62
    18
420
        0
370
     9
100
AcDbLine
 10
123.2714023444473
 20
-153.5214829520079
 30
0.0
 11
123.2714023444473
 21
-154.5212551487238
 31
0.0
  0
LINE
  5
F0
330
EB
100
AcDbEntity
  8
レイヤー 1
 62
    18
420
        0
370
     9
100
AcDbLine
 10
123.2714023444473
 20
-153.1218562955365
 30
0.0
 11
123.2714023444473
 21
-153.5214829520079
 31
0.0
  0
LINE
  5
F1
330
EB
100
AcDbEntity
  8
レイヤー 1
 62
    18
420
        0
370
     9
100
AcDbLine
 10
121.8110434928153
 20
-153.1218562955365
 30
0.0
 11
124.2711745411632
 21
-153.1218562955365
 31
0.0
  0
LINE
  5
F2
330
EB
100
AcDbEntity
  8
レイヤー 1
 62
    18
420
        0
370
     9
100
AcDbLine
 10
121.8110434928153
 20
-153.5214829520079
 30
0.0
 11
124.2711745411632
 21
-153.5214829520079
 31
0.0
  0
INSERT
  5
F4
330
EB
100
AcDbEntity
  8
レイヤー 1
100
AcDbBlockReference
  2
Block_13
 10
0.0
 20
0.0
 30
0.0
  0
ENDBLK
  5
EE
330
EB
100
AcDbEntity
  8
0
100
AcDbBlockEnd
  0
BLOCK
  5
F5
330
F3
100
AcDbEntity
  8
0
100
AcDbBlockBegin
  2
Block_13
 70
     0
 10
0.0
 20
0.0
 30
0.0
  3
Block_13
  1

  0
INSERT
  5
F8
330
F3
100
AcDbEntity
  8
レイヤー 1
100
AcDbBlockReference
  2
Block_14
 10
0.0
 20
0.0
 30
0.0
  0
ENDBLK
  5
F6
330
F3
100
AcDbEntity
  8
0
100
AcDbBlockEnd
  0
BLOCK
  5
F9
330
F7
100
AcDbEntity
  8
0
100
AcDbBlockBegin
  2
Block_14
 70
     0
 10
0.0
 20
0.0
 30
0.0
  3
Block_14
  1

  0
SPLINE
  5
FB
330
F7
100
AcDbEntity
  8
レイヤー 1
100
AcDbSpline
210
0.0
220
0.0
230
1.0
 70
     9
 71
     3
 72
    17
 73
    13
 74
     0
 42
0.0000000001
 43
0.0000000001
 40
0.0
 40
0.0
 40
0.0
 40
0.0
 40
1.0
 40
1.0
 40
1.0
 40
2.0
 40
2.0
 40
2.0
 40
3.0
 40
3.0
 40
3.0
 40
4.0
 40
4.0
 40
4.0
 40
4.0
 10
120.698231306631
 20
-154.1690564935758
 30
0.0
 10
120.698231306631
 20
-154.3816188850157
 30
0.0
 10
120.981762665067
 20
-154.4215819926446
 30
0.0
 10
121.3266167231406
 20
-154.4215819926446
 30
0.0
 10
121.6459770746232
 20
-154.4215819926446
 30
0.0
 10
121.9546576301016
 20
-154.3909206428258
 30
0.0
 10
121.9546576301016
 20
-154.1690564935758
 30
0.0
 10
121.9546576301016
 20
-153.95787214033
 30
0.0
 10
121.6735378385052
 20
-153.916530994507
 30
0.0
 10
121.3266167231406
 20
-153.916530994507
 30
0.0
 10
121.0069118621094
 20
-153.916530994507
 30
0.0
 10
120.698231306631
 20
-153.9489148920683
 30
0.0
 10
120.698231306631
 20
-154.1690564935758
 30
0.0
  0
SPLINE
  5
FC
330
F7
100
AcDbEntity
  8
レイヤー 1
100
AcDbSpline
210
0.0
220
0.0
230
1.0
 70
     9
 71
     3
 72
    29
 73
    25
 74
     0
 42
0.0000000001
 43
0.0000000001
 40
0.0
 40
0.0
 40
0.0
 40
0.0
 40
1.0
 40
1.0
 40
1.0
 40
2.0
 40
2.0
 40
2.0
 40
3.0
 40
3.0
 40
3.0
 40
4.0
 40
4.0
 40
4.0
 40
5.0
 40
5.0
 40
5.0
 40
6.0
 40
6.0
 40
6.0
 40
7.0
 40
7.0
 40
7.0
 40
8.0
 40
8.0
 40
8.0
 40
8.0
 10
121.9208956943461
 20
-153.8300590978272
 30
0.0
 10
122.1303574998493
 20
-153.9220431472833
 30
0.0
 10
122.1493055250182
 20
-154.0698377436006
 30
0.0
 10
122.1493055250182
 20
-154.1690564935758
 30
0.0
 10
122.1493055250182
 20
-154.3061712938887
 30
0.0
 10
122.1027967359673
 20
-154.4267496358725
 30
0.0
 10
121.9208956943461
 20
-154.5080538893244
 30
0.0
 10
121.7262477994295
 20
-154.5962483337468
 30
0.0
 10
121.4892252300443
 20
-154.6124402825274
 30
0.0
 10
121.3266167231406
 20
-154.6124402825274
 30
0.0
 10
121.1826117318571
 20
-154.6124402825274
 30
0.0
 10
120.9307752518853
 20
-154.5983153910379
 30
0.0
 10
120.7319932423864
 20
-154.5080538893244
 30
0.0
 10
120.5290771183052
 20
-154.4160698398682
 30
0.0
 10
120.5056504690055
 20
-154.2789550395552
 30
0.0
 10
120.5056504690055
 20
-154.1690564935758
 30
0.0
 10
120.5056504690055
 20
-154.0336642410055
 30
0.0
 10
120.5500922007652
 20
-153.9110188417306
 30
0.0
 10
120.7319932423864
 20
-153.8300590978272
 30
0.0
 10
120.9245740800119
 20
-153.74530974889
 30
0.0
 10
121.152983910684
 20
-153.7253281950756
 30
0.0
 10
121.3266167231406
 20
-153.7253281950756
 30
0.0
 10
121.4978379687575
 20
-153.7253281950756
 30
0.0
 10
121.7283148567207
 20
-153.7435872011474
 30
0.0
 10
121.9208956943461
 20
-153.8300590978272
 30
0.0
  0
HATCH
  5
FD
330
F7
100
AcDbEntity
  8
レイヤー 1
 62
    18
420
        0
440
 33554687
100
AcDbHatch
 10
0.0
 20
0.0
 30
0.0
210
0.0
220
0.0
230
1.0
  2
SOLID
 70
     1
 71
     1
 91
        2
 92
        1
 93
        1
 72
     4
 94
        3
 73
     0
 74
     0
 95
       17
 96
       13
 40
0.0
 40
0.0
 40
0.0
 40
0.0
 40
1.0
 40
1.0
 40
1.0
 40
2.0
 40
2.0
 40
2.0
 40
3.0
 40
3.0
 40
3.0
 40
4.0
 40
4.0
 40
4.0
 40
4.0
 10
120.698231306631
 20
-154.1690564935758
 10
120.698231306631
 20
-154.3816188850157
 10
120.981762665067
 20
-154.4215819926446
 10
121.3266167231406
 20
-154.4215819926446
 10
121.6459770746232
 20
-154.4215819926446
 10
121.9546576301016
 20
-154.3909206428258
 10
121.9546576301016
 20
-154.1690564935758
 10
121.9546576301016
 20
-153.95787214033
 10
121.6735378385052
 20
-153.916530994507
 10
121.3266167231406
 20
-153.916530994507
 10
121.0069118621094
 20
-153.916530994507
 10
120.698231306631
 20
-153.9489148920683
 10
120.698231306631
 20
-154.1690564935758
 97
        0
 97
        1
330
FB
 92
        1
 93
        1
 72
     4
 94
        3
 73
     0
 74
     0
 95
       29
 96
       25
 40
0.0
 40
0.0
 40
0.0
 40
0.0
 40
1.0
 40
1.0
 40
1.0
 40
2.0
 40
2.0
 40
2.0
 40
3.0
 40
3.0
 40
3.0
 40
4.0
 40
4.0
 40
4.0
 40
5.0
 40
5.0
 40
5.0
 40
6.0
 40
6.0
 40
6.0
 40
7.0
 40
7.0
 40
7.0
 40
8.0
 40
8.0
 40
8.0
 40
8.0
 10
121.9208956943461
 20
-153.8300590978272
 10
122.1303574998493
 20
-153.9220431472833
 10
122.1493055250182
 20
-154.0698377436006
 10
122.1493055250182
 20
-154.1690564935758
 10
122.1493055250182
 20
-154.3061712938887
 10
122.1027967359673
 20
-154.4267496358725
 10
121.9208956943461
 20
-154.5080538893244
 10
121.7262477994295
 20
-154.5962483337468
 10
121.4892252300443
 20
-154.6124402825274
 10
121.3266167231406
 20
-154.6124402825274
 10
121.1826117318571
 20
-154.6124402825274
 10
120.9307752518853
 20
-154.5983153910379
 10
120.7319932423864
 20
-154.5080538893244
 10
120.5290771183052
 20
-154.4160698398682
 10
120.5056504690055
 20
-154.2789550395552
 10
120.5056504690055
 20
-154.1690564935758
 10
120.5056504690055
 20
-154.0336642410055
 10
120.5500922007652
 20
-153.9110188417306
 10
120.7319932423864
 20
-153.8300590978272
 10
120.9245740800119
 20
-153.74530974889
 10
121.152983910684
 20
-153.7253281950756
 10
121.3266167231406
 20
-153.7253281950756
 10
121.4978379687575
 20
-153.7253281950756
 10
121.7283148567207
 20
-153.7435872011474
 10
121.9208956943461
 20
-153.8300590978272
 97
        0
 97
        1
330
FC
 75
     2
 76
     1
 98
        1
 10
0.0
 20
0.0
450
        0
451
        0
460
0.0
461
0.0
452
        0
462
0.0
453
        0
470

  0
SPLINE
  5
FE
330
F7
100
AcDbEntity
  8
レイヤー 1
100
AcDbSpline
210
0.0
220
0.0
230
1.0
 70
    11
 71
     3
 72
    17
 73
    13
 74
     0
 42
0.0000000001
 43
0.0000000001
 40
0.0
 40
0.0
 40
0.0
 40
0.0
 40
1.0
 40
1.0
 40
1.0
 40
2.0
 40
2.0
 40
2.0
 40
3.0
 40
3.0
 40
3.0
 40
4.0
 40
4.0
 40
4.0
 40
4.0
 10
122.098662621385
 20
-153.5423936248088
 30
0.0
 10
122.098662621385
 20
-153.5423936248088
 30
0.0
 10
121.8468261414133
 20
-153.5423936248088
 30
0.0
 10
121.8468261414133
 20
-153.5423936248088
 30
0.0
 10
121.8468261414133
 20
-153.5423936248088
 30
0.0
 10
121.8468261414133
 20
-153.3277641760778
 30
0.0
 10
121.8468261414133
 20
-153.3277641760778
 30
0.0
 10
121.8468261414133
 20
-153.3277641760778
 30
0.0
 10
122.098662621385
 20
-153.3277641760778
 30
0.0
 10
122.098662621385
 20
-153.3277641760778
 30
0.0
 10
122.098662621385
 20
-153.3277641760778
 30
0.0
 10
122.098662621385
 20
-153.5423936248088
 30
0.0
 10
122.098662621385
 20
-153.5423936248088
 30
0.0
  0
HATCH
  5
FF
330
F7
100
AcDbEntity
  8
レイヤー 1
 62
    18
420
        0
440
 33554687
100
AcDbHatch
 10
0.0
 20
0.0
 30
0.0
210
0.0
220
0.0
230
1.0
  2
SOLID
 70
     1
 71
     1
 91
        1
 92
        1
 93
        1
 72
     4
 94
        3
 73
     0
 74
     0
 95
       17
 96
       13
 40
0.0
 40
0.0
 40
0.0
 40
0.0
 40
1.0
 40
1.0
 40
1.0
 40
2.0
 40
2.0
 40
2.0
 40
3.0
 40
3.0
 40
3.0
 40
4.0
 40
4.0
 40
4.0
 40
4.0
 10
122.098662621385
 20
-153.5423936248088
 10
122.098662621385
 20
-153.5423936248088
 10
121.8468261414133
 20
-153.5423936248088
 10
121.8468261414133
 20
-153.5423936248088
 10
121.8468261414133
 20
-153.5423936248088
 10
121.8468261414133
 20
-153.3277641760778
 10
121.8468261414133
 20
-153.3277641760778
 10
121.8468261414133
 20
-153.3277641760778
 10
122.098662621385
 20
-153.3277641760778
 10
122.098662621385
 20
-153.3277641760778
 10
122.098662621385
 20
-153.3277641760778
 10
122.098662621385
 20
-153.5423936248088
 10
122.098662621385
 20
-153.5423936248088
 97
        0
 97
        1
330
FE
 75
     2
 76
     1
 98
        1
 10
0.0
 20
0.0
450
        0
451
        0
460
0.0
461
0.0
452
        0
462
0.0
453
        0
470

  0
SPLINE
  5
100
330
F7
100
AcDbEntity
  8
レイヤー 1
100
AcDbSpline
210
0.0
220
0.0
230
1.0
 70
    11
 71
     3
 72
    14
 73
    10
 74
     0
 42
0.0000000001
 43
0.0000000001
 40
0.0
 40
0.0
 40
0.0
 40
0.0
 40
1.0
 40
1.0
 40
1.0
 40
2.0
 40
2.0
 40
2.0
 40
3.0
 40
3.0
 40
3.0
 40
3.0
 10
120.8970133161299
 20
-152.6029160859812
 30
0.0
 10
120.8970133161299
 20
-152.6029160859812
 30
0.0
 10
121.5529594965214
 20
-152.9925563853629
 30
0.0
 10
121.5529594965214
 20
-152.9925563853629
 30
0.0
 10
121.5529594965214
 20
-152.9925563853629
 30
0.0
 10
121.5529594965214
 20
-152.6029160859812
 30
0.0
 10
121.5529594965214
 20
-152.6029160859812
 30
0.0
 10
121.5529594965214
 20
-152.6029160859812
 30
0.0
 10
120.8970133161299
 20
-152.6029160859812
 30
0.0
 10
120.8970133161299
 20
-152.6029160859812
 30
0.0
  0
SPLINE
  5
101
330
F7
100
AcDbEntity
  8
レイヤー 1
100
AcDbSpline
210
0.0
220
0.0
230
1.0
 70
    11
 71
     3
 72
    38
 73
    34
 74
     0
 42
0.0000000001
 43
0.0000000001
 40
0.0
 40
0.0
 40
0.0
 40
0.0
 40
1.0
 40
1.0
 40
1.0
 40
2.0
 40
2.0
 40
2.0
 40
3.0
 40
3.0
 40
3.0
 40
4.0
 40
4.0
 40
4.0
 40
5.0
 40
5.0
 40
5.0
 40
6.0
 40
6.0
 40
6.0
 40
7.0
 40
7.0
 40
7.0
 40
8.0
 40
8.0
 40
8.0
 40
9.0
 40
9.0
 40
9.0
 40
10.0
 40
10.0
 40
10.0
 40
11.0
 40
11.0
 40
11.0
 40
11.0
 10
121.7517415060204
 20
-152.4172254393262
 30
0.0
 10
121.7517415060204
 20
-152.4172254393262
 30
0.0
 10
122.098662621385
 20
-152.4172254393262
 30
0.0
 10
122.098662621385
 20
-152.4172254393262
 30
0.0
 10
122.098662621385
 20
-152.4172254393262
 30
0.0
 10
122.098662621385
 20
-152.6029160859812
 30
0.0
 10
122.098662621385
 20
-152.6029160859812
 30
0.0
 10
122.098662621385
 20
-152.6029160859812
 30
0.0
 10
121.7517415060204
 20
-152.6029160859812
 30
0.0
 10
121.7517415060204
 20
-152.6029160859812
 30
0.0
 10
121.7517415060204
 20
-152.6029160859812
 30
0.0
 10
121.7517415060204
 20
-153.1620550832372
 30
0.0
 10
121.7517415060204
 20
-153.1620550832372
 30
0.0
 10
121.7517415060204
 20
-153.1620550832372
 30
0.0
 10
121.5274657899306
 20
-153.1620550832372
 30
0.0
 10
121.5274657899306
 20
-153.1620550832372
 30
0.0
 10
121.5274657899306
 20
-153.1620550832372
 30
0.0
 10
120.5542263153475
 20
-152.5832790417153
 30
0.0
 10
120.5542263153475
 20
-152.5832790417153
 30
0.0
 10
120.5542263153475
 20
-152.5832790417153
 30
0.0
 10
120.5542263153475
 20
-152.4172254393262
 30
0.0
 10
120.5542263153475
 20
-152.4172254393262
 30
0.0
 10
120.5542263153475
 20
-152.4172254393262
 30
0.0
 10
121.5529594965214
 20
-152.4172254393262
 30
0.0
 10
121.5529594965214
 20
-152.4172254393262
 30
0.0
 10
121.5529594965214
 20
-152.4172254393262
 30
0.0
 10
121.5529594965214
 20
-152.2404920409329
 30
0.0
 10
121.5529594965214
 20
-152.2404920409329
 30
0.0
 10
121.5529594965214
 20
-152.2404920409329
 30
0.0
 10
121.7517415060204
 20
-152.2404920409329
 30
0.0
 10
121.7517415060204
 20
-152.2404920409329
 30
0.0
 10
121.7517415060204
 20
-152.2404920409329
 30
0.0
 10
121.7517415060204
 20
-152.4172254393262
 30
0.0
 10
121.7517415060204
 20
-152.4172254393262
 30
0.0
  0
HATCH
  5
102
330
F7
100
AcDbEntity
  8
レイヤー 1
 62
    18
420
        0
440
 33554687
100
AcDbHatch
 10
0.0
 20
0.0
 30
0.0
210
0.0
220
0.0
230
1.0
  2
SOLID
 70
     1
 71
     1
 91
        2
 92
        1
 93
        1
 72
     4
 94
        3
 73
     0
 74
     0
 95
       14
 96
       10
 40
0.0
 40
0.0
 40
0.0
 40
0.0
 40
1.0
 40
1.0
 40
1.0
 40
2.0
 40
2.0
 40
2.0
 40
3.0
 40
3.0
 40
3.0
 40
3.0
 10
120.8970133161299
 20
-152.6029160859812
 10
120.8970133161299
 20
-152.6029160859812
 10
121.5529594965214
 20
-152.9925563853629
 10
121.5529594965214
 20
-152.9925563853629
 10
121.5529594965214
 20
-152.9925563853629
 10
121.5529594965214
 20
-152.6029160859812
 10
121.5529594965214
 20
-152.6029160859812
 10
121.5529594965214
 20
-152.6029160859812
 10
120.8970133161299
 20
-152.6029160859812
 10
120.8970133161299
 20
-152.6029160859812
 97
        0
 97
        1
330
100
 92
        1
 93
        1
 72
     4
 94
        3
 73
     0
 74
     0
 95
       38
 96
       34
 40
0.0
 40
0.0
 40
0.0
 40
0.0
 40
1.0
 40
1.0
 40
1.0
 40
2.0
 40
2.0
 40
2.0
 40
3.0
 40
3.0
 40
3.0
 40
4.0
 40
4.0
 40
4.0
 40
5.0
 40
5.0
 40
5.0
 40
6.0
 40
6.0
 40
6.0
 40
7.0
 40
7.0
 40
7.0
 40
8.0
 40
8.0
 40
8.0
 40
9.0
 40
9.0
 40
9.0
 40
10.0
 40
10.0
 40
10.0
 40
11.0
 40
11.0
 40
11.0
 40
11.0
 10
121.7517415060204
 20
-152.4172254393262
 10
121.7517415060204
 20
-152.4172254393262
 10
122.098662621385
 20
-152.4172254393262
 10
122.098662621385
 20
-152.4172254393262
 10
122.098662621385
 20
-152.4172254393262
 10
122.098662621385
 20
-152.6029160859812
 10
122.098662621385
 20
-152.6029160859812
 10
122.098662621385
 20
-152.6029160859812
 10
121.7517415060204
 20
-152.6029160859812
 10
121.7517415060204
 20
-152.6029160859812
 10
121.7517415060204
 20
-152.6029160859812
 10
121.7517415060204
 20
-153.1620550832372
 10
121.7517415060204
 20
-153.1620550832372
 10
121.7517415060204
 20
-153.1620550832372
 10
121.5274657899306
 20
-153.1620550832372
 10
121.5274657899306
 20
-153.1620550832372
 10
121.5274657899306
 20
-153.1620550832372
 10
120.5542263153475
 20
-152.5832790417153
 10
120.5542263153475
 20
-152.5832790417153
 10
120.5542263153475
 20
-152.5832790417153
 10
120.5542263153475
 20
-152.4172254393262
 10
120.5542263153475
 20
-152.4172254393262
 10
120.5542263153475
 20
-152.4172254393262
 10
121.5529594965214
 20
-152.4172254393262
 10
121.5529594965214
 20
-152.4172254393262
 10
121.5529594965214
 20
-152.4172254393262
 10
121.5529594965214
 20
-152.2404920409329
 10
121.5529594965214
 20
-152.2404920409329
 10
121.5529594965214
 20
-152.2404920409329
 10
121.7517415060204
 20
-152.2404920409329
 10
121.7517415060204
 20
-152.2404920409329
 10
121.7517415060204
 20
-152.2404920409329
 10
121.7517415060204
 20
-152.4172254393262
 10
121.7517415060204
 20
-152.4172254393262
 97
        0
 97
        1
330
101
 75
     2
 76
     1
 98
        1
 10
0.0
 20
0.0
450
        0
451
        0
460
0.0
461
0.0
452
        0
462
0.0
453
        0
470

  0
ENDBLK
  5
FA
330
F7
100
AcDbEntity
  8
0
100
AcDbBlockEnd
  0
BLOCK
  5
108
330
106
100
AcDbEntity
  8
0
100
AcDbBlockBegin
  2
Block_15
 70
     0
 10
0.0
 20
0.0
 30
0.0
  3
Block_15
  1

  0
SPLINE
  5
10A
330
106
100
AcDbEntity
  8
レイヤー 1
100
AcDbSpline
210
0.0
220
0.0
230
1.0
 70
     9
 71
     3
 72
    17
 73
    13
 74
     0
 42
0.0000000001
 43
0.0000000001
 40
0.0
 40
0.0
 40
0.0
 40
0.0
 40
1.0
 40
1.0
 40
1.0
 40
2.0
 40
2.0
 40
2.0
 40
3.0
 40
3.0
 40
3.0
 40
4.0
 40
4.0
 40
4.0
 40
4.0
 10
98.27410479313982
 20
-156.1747910850882
 30
0.0
 10
98.13354489734162
 20
-156.1747910850882
 30
0.0
 10
98.06137014692565
 20
-156.2698757204811
 30
0.0
 10
98.06137014692565
 20
-156.4052679730514
 30
0.0
 10
98.06137014692565
 20
-156.5279133723263
 30
0.0
 10
98.12269284656309
 20
-156.6464246570189
 30
0.0
 10
98.27410479313982
 20
-156.6464246570189
 30
0.0
 10
98.4256889944908
 20
-156.6464246570189
 30
0.0
 10
98.48701169412827
 20
-156.5279133723263
 30
0.0
 10
98.48701169412827
 20
-156.4052679730514
 30
0.0
 10
98.48701169412827
 20
-156.2698757204811
 30
0.0
 10
98.41294214119539
 20
-156.1747910850882
 30
0.0
 10
98.27410479313982
 20
-156.1747910850882
 30
0.0
  0
SPLINE
  5
10B
330
106
100
AcDbEntity
  8
レイヤー 1
100
AcDbSpline
210
0.0
220
0.0
230
1.0
 70
     9
 71
     3
 72
    17
 73
    13
 74
     0
 42
0.0000000001
 43
0.0000000001
 40
0.0
 40
0.0
 40
0.0
 40
0.0
 40
1.0
 40
1.0
 40
1.0
 40
2.0
 40
2.0
 40
2.0
 40
3.0
 40
3.0
 40
3.0
 40
4.0
 40
4.0
 40
4.0
 40
4.0
 10
98.27410479313982
 20
-156.8348713800621
 30
0.0
 10
98.15145939386491
 20
-156.8348713800621
 30
0.0
 10
98.02175154884526
 20
-156.9216877862904
 30
0.0
 10
98.02175154884526
 20
-157.1246039103716
 30
0.0
 10
98.02175154884526
 20
-157.3299316012925
 30
0.0
 10
98.12992754708211
 20
-157.4312174085588
 30
0.0
 10
98.27410479313982
 20
-157.4312174085588
 30
0.0
 10
98.43292369500984
 20
-157.4312174085588
 30
0.0
 10
98.52663029220863
 20
-157.308572009284
 30
0.0
 10
98.52663029220863
 20
-157.1308050822451
 30
0.0
 10
98.52663029220863
 20
-156.908940932995
 30
0.0
 10
98.38779294415306
 20
-156.8348713800621
 30
0.0
 10
98.27410479313982
 20
-156.8348713800621
 30
0.0
  0
SPLINE
  5
10C
330
106
100
AcDbEntity
  8
レイヤー 1
100
AcDbSpline
210
0.0
220
0.0
230
1.0
 70
     9
 71
     3
 72
    29
 73
    25
 74
     0
 42
0.0000000001
 43
0.0000000001
 40
0.0
 40
0.0
 40
0.0
 40
0.0
 40
1.0
 40
1.0
 40
1.0
 40
2.0
 40
2.0
 40
2.0
 40
3.0
 40
3.0
 40
3.0
 40
4.0
 40
4.0
 40
4.0
 40
5.0
 40
5.0
 40
5.0
 40
6.0
 40
6.0
 40
6.0
 40
7.0
 40
7.0
 40
7.0
 40
8.0
 40
8.0
 40
8.0
 40
8.0
 10
98.27410479313982
 20
-157.6258653034755
 30
0.0
 10
98.04690074588759
 20
-157.6258653034755
 30
0.0
 10
97.8305487494139
 20
-157.488405993614
 30
0.0
 10
97.8305487494139
 20
-157.1394178209582
 30
0.0
 10
97.8305487494139
 20
-156.8834472264041
 30
0.0
 10
97.95129934617191
 20
-156.7883625910112
 30
0.0
 10
98.04156084788544
 20
-156.7270398913738
 30
0.0
 10
97.93510739739122
 20
-156.6677842490275
 30
0.0
 10
97.87016734749428
 20
-156.5534070789172
 30
0.0
 10
97.87016734749428
 20
-156.392521119756
 30
0.0
 10
97.87016734749428
 20
-156.1176025000331
 30
0.0
 10
98.03966604536856
 20
-155.9822102474627
 30
0.0
 10
98.27410479313982
 20
-155.9822102474627
 30
0.0
 10
98.51577824143008
 20
-155.9822102474627
 30
0.0
 10
98.67804223878536
 20
-156.1262152387462
 30
0.0
 10
98.67804223878536
 20
-156.392521119756
 30
0.0
 10
98.67804223878536
 20
-156.5534070789172
 30
0.0
 10
98.61137964114577
 20
-156.6677842490275
 30
0.0
 10
98.50492619065155
 20
-156.7270398913738
 30
0.0
 10
98.58071829132704
 20
-156.7776827950069
 30
0.0
 10
98.7159382891231
 20
-156.8727674303999
 30
0.0
 10
98.7159382891231
 20
-157.1352837063759
 30
0.0
 10
98.7159382891231
 20
-157.5097655856225
 30
0.0
 10
98.47788219109233
 20
-157.6258653034755
 30
0.0
 10
98.27410479313982
 20
-157.6258653034755
 30
0.0
  0
HATCH
  5
10D
330
106
100
AcDbEntity
  8
レイヤー 1
 62
    18
420
        0
440
 33554687
100
AcDbHatch
 10
0.0
 20
0.0
 30
0.0
210
0.0
220
0.0
230
1.0
  2
SOLID
 70
     1
 71
     1
 91
        3
 92
        1
 93
        1
 72
     4
 94
        3
 73
     0
 74
     0
 95
       17
 96
       13
 40
0.0
 40
0.0
 40
0.0
 40
0.0
 40
1.0
 40
1.0
 40
1.0
 40
2.0
 40
2.0
 40
2.0
 40
3.0
 40
3.0
 40
3.0
 40
4.0
 40
4.0
 40
4.0
 40
4.0
 10
98.27410479313982
 20
-156.1747910850882
 10
98.13354489734162
 20
-156.1747910850882
 10
98.06137014692565
 20
-156.2698757204811
 10
98.06137014692565
 20
-156.4052679730514
 10
98.06137014692565
 20
-156.5279133723263
 10
98.12269284656309
 20
-156.6464246570189
 10
98.27410479313982
 20
-156.6464246570189
 10
98.4256889944908
 20
-156.6464246570189
 10
98.48701169412827
 20
-156.5279133723263
 10
98.48701169412827
 20
-156.4052679730514
 10
98.48701169412827
 20
-156.2698757204811
 10
98.41294214119539
 20
-156.1747910850882
 10
98.27410479313982
 20
-156.1747910850882
 97
        0
 97
        1
330
10A
 92
        1
 93
        1
 72
     4
 94
        3
 73
     0
 74
     0
 95
       17
 96
       13
 40
0.0
 40
0.0
 40
0.0
 40
0.0
 40
1.0
 40
1.0
 40
1.0
 40
2.0
 40
2.0
 40
2.0
 40
3.0
 40
3.0
 40
3.0
 40
4.0
 40
4.0
 40
4.0
 40
4.0
 10
98.27410479313982
 20
-156.8348713800621
 10
98.15145939386491
 20
-156.8348713800621
 10
98.02175154884526
 20
-156.9216877862904
 10
98.02175154884526
 20
-157.1246039103716
 10
98.02175154884526
 20
-157.3299316012925
 10
98.12992754708211
 20
-157.4312174085588
 10
98.27410479313982
 20
-157.4312174085588
 10
98.43292369500984
 20
-157.4312174085588
 10
98.52663029220863
 20
-157.308572009284
 10
98.52663029220863
 20
-157.1308050822451
 10
98.52663029220863
 20
-156.908940932995
 10
98.38779294415306
 20
-156.8348713800621
 10
98.27410479313982
 20
-156.8348713800621
 97
        0
 97
        1
330
10B
 92
        1
 93
        1
 72
     4
 94
        3
 73
     0
 74
     0
 95
       29
 96
       25
 40
0.0
 40
0.0
 40
0.0
 40
0.0
 40
1.0
 40
1.0
 40
1.0
 40
2.0
 40
2.0
 40
2.0
 40
3.0
 40
3.0
 40
3.0
 40
4.0
 40
4.0
 40
4.0
 40
5.0
 40
5.0
 40
5.0
 40
6.0
 40
6.0
 40
6.0
 40
7.0
 40
7.0
 40
7.0
 40
8.0
 40
8.0
 40
8.0
 40
8.0
 10
98.27410479313982
 20
-157.6258653034755
 10
98.04690074588759
 20
-157.6258653034755
 10
97.8305487494139
 20
-157.488405993614
 10
97.8305487494139
 20
-157.1394178209582
 10
97.8305487494139
 20
-156.8834472264041
 10
97.95129934617191
 20
-156.7883625910112
 10
98.04156084788544
 20
-156.7270398913738
 10
97.93510739739122
 20
-156.6677842490275
 10
97.87016734749428
 20
-156.5534070789172
 10
97.87016734749428
 20
-156.392521119756
 10
97.87016734749428
 20
-156.1176025000331
 10
98.03966604536856
 20
-155.9822102474627
 10
98.27410479313982
 20
-155.9822102474627
 10
98.51577824143008
 20
-155.9822102474627
 10
98.67804223878536
 20
-156.1262152387462
 10
98.67804223878536
 20
-156.392521119756
 10
98.67804223878536
 20
-156.5534070789172
 10
98.61137964114577
 20
-156.6677842490275
 10
98.50492619065155
 20
-156.7270398913738
 10
98.58071829132704
 20
-156.7776827950069
 10
98.7159382891231
 20
-156.8727674303999
 10
98.7159382891231
 20
-157.1352837063759
 10
98.7159382891231
 20
-157.5097655856225
 10
98.47788219109233
 20
-157.6258653034755
 10
98.27410479313982
 20
-157.6258653034755
 97
        0
 97
        1
330
10C
 75
     2
 76
     1
 98
        1
 10
0.0
 20
0.0
450
        0
451
        0
460
0.0
461
0.0
452
        0
462
0.0
453
        0
470

  0
ENDBLK
  5
109
330
106
100
AcDbEntity
  8
0
100
AcDbBlockEnd
  0
BLOCK
  5
110
330
10E
100
AcDbEntity
  8
0
100
AcDbBlockBegin
  2
Block_16
 70
     0
 10
0.0
 20
0.0
 30
0.0
  3
Block_16
  1

  0
LINE
  5
112
330
10E
100
AcDbEntity
  8
レイヤー 1
 62
    18
420
        0
370
     9
100
AcDbLine
 10
123.2714023444473
 20
-143.6213040379158
 30
0.0
 11
123.2714023444473
 21
-153.1218562955365
 31
0.0
  0
LINE
  5
113
330
10E
100
AcDbEntity
  8
レイヤー 1
 62
    18
420
        0
370
     9
100
AcDbLine
 10
105.9095150096081
 20
-143.6213040379158
 30
0.0
 11
124.2711745411632
 21
-143.6213040379158
 31
0.0
  0
INSERT
  5
115
330
10E
100
AcDbEntity
  8
レイヤー 1
100
AcDbBlockReference
  2
Block_17
 10
0.0
 20
0.0
 30
0.0
  0
ENDBLK
  5
111
330
10E
100
AcDbEntity
  8
0
100
AcDbBlockEnd
  0
BLOCK
  5
116
330
114
100
AcDbEntity
  8
0
100
AcDbBlockBegin
  2
Block_17
 70
     0
 10
0.0
 20
0.0
 30
0.0
  3
Block_17
  1

  0
INSERT
  5
119
330
114
100
AcDbEntity
  8
レイヤー 1
100
AcDbBlockReference
  2
Block_18
 10
0.0
 20
0.0
 30
0.0
  0
ENDBLK
  5
117
330
114
100
AcDbEntity
  8
0
100
AcDbBlockEnd
  0
BLOCK
  5
11A
330
118
100
AcDbEntity
  8
0
100
AcDbBlockBegin
  2
Block_18
 70
     0
 10
0.0
 20
0.0
 30
0.0
  3
Block_18
  1

  0
SPLINE
  5
11C
330
118
100
AcDbEntity
  8
レイヤー 1
100
AcDbSpline
210
0.0
220
0.0
230
1.0
 70
     9
 71
     3
 72
    17
 73
    13
 74
     0
 42
0.0000000001
 43
0.0000000001
 40
0.0
 40
0.0
 40
0.0
 40
0.0
 40
1.0
 40
1.0
 40
1.0
 40
2.0
 40
2.0
 40
2.0
 40
3.0
 40
3.0
 40
3.0
 40
4.0
 40
4.0
 40
4.0
 40
4.0
 10
120.698231306631
 20
-149.1953721415206
 30
0.0
 10
120.698231306631
 20
-149.2963134392384
 30
0.0
 10
120.7554198916861
 20
-149.4461750928468
 30
0.0
 10
121.0410183074133
 20
-149.4461750928468
 30
0.0
 10
121.2673610807943
 20
-149.4461750928468
 30
0.0
 10
121.3624457161871
 20
-149.3269747890571
 30
0.0
 10
121.3624457161871
 20
-149.2115640903013
 30
0.0
 10
121.3624457161871
 20
-148.9879773933085
 30
0.0
 10
121.152983910684
 20
-148.9555934957472
 30
0.0
 10
121.0365396832825
 20
-148.9555934957472
 30
0.0
 10
120.8611843230833
 20
-148.9555934957472
 30
0.0
 10
120.698231306631
 20
-149.0365532396506
 30
0.0
 10
120.698231306631
 20
-149.1953721415206
 30
0.0
  0
SPLINE
  5
11D
330
118
100
AcDbEntity
  8
レイヤー 1
100
AcDbSpline
210
0.0
220
0.0
230
1.0
 70
     9
 71
     3
 72
    32
 73
    28
 74
     0
 42
0.0000000001
 43
0.0000000001
 40
0.0
 40
0.0
 40
0.0
 40
0.0
 40
1.0
 40
1.0
 40
1.0
 40
2.0
 40
2.0
 40
2.0
 40
3.0
 40
3.0
 40
3.0
 40
4.0
 40
4.0
 40
4.0
 40
5.0
 40
5.0
 40
5.0
 40
6.0
 40
6.0
 40
6.0
 40
7.0
 40
7.0
 40
7.0
 40
8.0
 40
8.0
 40
8.0
 40
9.0
 40
9.0
 40
9.0
 40
9.0
 10
122.1493055250182
 20
-149.2298230963731
 30
0.0
 10
122.1493055250182
 20
-149.3776176926903
 30
0.0
 10
122.0797145962162
 20
-149.586734988645
 30
0.0
 10
121.7476073914381
 20
-149.6191188862063
 30
0.0
 10
121.7476073914381
 20
-149.6191188862063
 30
0.0
 10
121.7476073914381
 20
-149.4368733350366
 30
0.0
 10
121.7476073914381
 20
-149.4368733350366
 30
0.0
 10
121.8068630337844
 20
-149.427916086775
 30
0.0
 10
121.9546576301016
 20
-149.40104434199
 30
0.0
 10
121.9546576301016
 20
-149.2277560390819
 30
0.0
 10
121.9546576301016
 20
-148.9790201450469
 30
0.0
 10
121.6249619921632
 20
-148.9466362474855
 30
0.0
 10
121.4196343012423
 20
-148.9356119419327
 30
0.0
 10
121.4999050260486
 20
-149.0131265903509
 30
0.0
 10
121.5570936111038
 20
-149.071004194503
 30
0.0
 10
121.5570936111038
 20
-149.2260334913393
 30
0.0
 10
121.5570936111038
 20
-149.3793402404329
 30
0.0
 10
121.4513291797066
 20
-149.6370333827296
 30
0.0
 10
121.0451524219956
 20
-149.6370333827296
 30
0.0
 10
120.725792070513
 20
-149.6370333827296
 30
0.0
 10
120.5056504690055
 20
-149.4675346848553
 30
0.0
 10
120.5056504690055
 20
-149.1970946892632
 30
0.0
 10
120.5056504690055
 20
-148.7588785435394
 30
0.0
 10
121.0599663325822
 20
-148.7499212952778
 30
0.0
 10
121.2735622526677
 20
-148.7499212952778
 30
0.0
 10
121.5040391406309
 20
-148.7499212952778
 30
0.0
 10
122.1493055250182
 20
-148.7661132440585
 30
0.0
 10
122.1493055250182
 20
-149.2298230963731
 30
0.0
  0
HATCH
  5
11E
330
118
100
AcDbEntity
  8
レイヤー 1
 62
    18
420
        0
440
 33554687
100
AcDbHatch
 10
0.0
 20
0.0
 30
0.0
210
0.0
220
0.0
230
1.0
  2
SOLID
 70
     1
 71
     1
 91
        2
 92
        1
 93
        1
 72
     4
 94
        3
 73
     0
 74
     0
 95
       17
 96
       13
 40
0.0
 40
0.0
 40
0.0
 40
0.0
 40
1.0
 40
1.0
 40
1.0
 40
2.0
 40
2.0
 40
2.0
 40
3.0
 40
3.0
 40
3.0
 40
4.0
 40
4.0
 40
4.0
 40
4.0
 10
120.698231306631
 20
-149.1953721415206
 10
120.698231306631
 20
-149.2963134392384
 10
120.7554198916861
 20
-149.4461750928468
 10
121.0410183074133
 20
-149.4461750928468
 10
121.2673610807943
 20
-149.4461750928468
 10
121.3624457161871
 20
-149.3269747890571
 10
121.3624457161871
 20
-149.2115640903013
 10
121.3624457161871
 20
-148.9879773933085
 10
121.152983910684
 20
-148.9555934957472
 10
121.0365396832825
 20
-148.9555934957472
 10
120.8611843230833
 20
-148.9555934957472
 10
120.698231306631
 20
-149.0365532396506
 10
120.698231306631
 20
-149.1953721415206
 97
        0
 97
        1
330
11C
 92
        1
 93
        1
 72
     4
 94
        3
 73
     0
 74
     0
 95
       32
 96
       28
 40
0.0
 40
0.0
 40
0.0
 40
0.0
 40
1.0
 40
1.0
 40
1.0
 40
2.0
 40
2.0
 40
2.0
 40
3.0
 40
3.0
 40
3.0
 40
4.0
 40
4.0
 40
4.0
 40
5.0
 40
5.0
 40
5.0
 40
6.0
 40
6.0
 40
6.0
 40
7.0
 40
7.0
 40
7.0
 40
8.0
 40
8.0
 40
8.0
 40
9.0
 40
9.0
 40
9.0
 40
9.0
 10
122.1493055250182
 20
-149.2298230963731
 10
122.1493055250182
 20
-149.3776176926903
 10
122.0797145962162
 20
-149.586734988645
 10
121.7476073914381
 20
-149.6191188862063
 10
121.7476073914381
 20
-149.6191188862063
 10
121.7476073914381
 20
-149.4368733350366
 10
121.7476073914381
 20
-149.4368733350366
 10
121.8068630337844
 20
-149.427916086775
 10
121.9546576301016
 20
-149.40104434199
 10
121.9546576301016
 20
-149.2277560390819
 10
121.9546576301016
 20
-148.9790201450469
 10
121.6249619921632
 20
-148.9466362474855
 10
121.4196343012423
 20
-148.9356119419327
 10
121.4999050260486
 20
-149.0131265903509
 10
121.5570936111038
 20
-149.071004194503
 10
121.5570936111038
 20
-149.2260334913393
 10
121.5570936111038
 20
-149.3793402404329
 10
121.4513291797066
 20
-149.6370333827296
 10
121.0451524219956
 20
-149.6370333827296
 10
120.725792070513
 20
-149.6370333827296
 10
120.5056504690055
 20
-149.4675346848553
 10
120.5056504690055
 20
-149.1970946892632
 10
120.5056504690055
 20
-148.7588785435394
 10
121.0599663325822
 20
-148.7499212952778
 10
121.2735622526677
 20
-148.7499212952778
 10
121.5040391406309
 20
-148.7499212952778
 10
122.1493055250182
 20
-148.7661132440585
 10
122.1493055250182
 20
-149.2298230963731
 97
        0
 97
        1
330
11D
 75
     2
 76
     1
 98
        1
 10
0.0
 20
0.0
450
        0
451
        0
460
0.0
461
0.0
452
        0
462
0.0
453
        0
470

  0
SPLINE
  5
11F
330
118
100
AcDbEntity
  8
レイヤー 1
100
AcDbSpline
210
0.0
220
0.0
230
1.0
 70
    11
 71
     3
 72
    17
 73
    13
 74
     0
 42
0.0000000001
 43
0.0000000001
 40
0.0
 40
0.0
 40
0.0
 40
0.0
 40
1.0
 40
1.0
 40
1.0
 40
2.0
 40
2.0
 40
2.0
 40
3.0
 40
3.0
 40
3.0
 40
4.0
 40
4.0
 40
4.0
 40
4.0
 10
122.098662621385
 20
-148.566986725011
 30
0.0
 10
122.098662621385
 20
-148.566986725011
 30
0.0
 10
121.8468261414133
 20
-148.566986725011
 30
0.0
 10
121.8468261414133
 20
-148.566986725011
 30
0.0
 10
121.8468261414133
 20
-148.566986725011
 30
0.0
 10
121.8468261414133
 20
-148.3523572762799
 30
0.0
 10
121.8468261414133
 20
-148.3523572762799
 30
0.0
 10
121.8468261414133
 20
-148.3523572762799
 30
0.0
 10
122.098662621385
 20
-148.3523572762799
 30
0.0
 10
122.098662621385
 20
-148.3523572762799
 30
0.0
 10
122.098662621385
 20
-148.3523572762799
 30
0.0
 10
122.098662621385
 20
-148.566986725011
 30
0.0
 10
122.098662621385
 20
-148.566986725011
 30
0.0
  0
HATCH
  5
120
330
118
100
AcDbEntity
  8
レイヤー 1
 62
    18
420
        0
440
 33554687
100
AcDbHatch
 10
0.0
 20
0.0
 30
0.0
210
0.0
220
0.0
230
1.0
  2
SOLID
 70
     1
 71
     1
 91
        1
 92
        1
 93
        1
 72
     4
 94
        3
 73
     0
 74
     0
 95
       17
 96
       13
 40
0.0
 40
0.0
 40
0.0
 40
0.0
 40
1.0
 40
1.0
 40
1.0
 40
2.0
 40
2.0
 40
2.0
 40
3.0
 40
3.0
 40
3.0
 40
4.0
 40
4.0
 40
4.0
 40
4.0
 10
122.098662621385
 20
-148.566986725011
 10
122.098662621385
 20
-148.566986725011
 10
121.8468261414133
 20
-148.566986725011
 10
121.8468261414133
 20
-148.566986725011
 10
121.8468261414133
 20
-148.566986725011
 10
121.8468261414133
 20
-148.3523572762799
 10
121.8468261414133
 20
-148.3523572762799
 10
121.8468261414133
 20
-148.3523572762799
 10
122.098662621385
 20
-148.3523572762799
 10
122.098662621385
 20
-148.3523572762799
 10
122.098662621385
 20
-148.3523572762799
 10
122.098662621385
 20
-148.566986725011
 10
122.098662621385
 20
-148.566986725011
 97
        0
 97
        1
330
11F
 75
     2
 76
     1
 98
        1
 10
0.0
 20
0.0
450
        0
451
        0
460
0.0
461
0.0
452
        0
462
0.0
453
        0
470

  0
SPLINE
  5
121
330
118
100
AcDbEntity
  8
レイヤー 1
100
AcDbSpline
210
0.0
220
0.0
230
1.0
 70
     9
 71
     3
 72
    53
 73
    49
 74
     0
 42
0.0000000001
 43
0.0000000001
 40
0.0
 40
0.0
 40
0.0
 40
0.0
 40
1.0
 40
1.0
 40
1.0
 40
2.0
 40
2.0
 40
2.0
 40
3.0
 40
3.0
 40
3.0
 40
4.0
 40
4.0
 40
4.0
 40
5.0
 40
5.0
 40
5.0
 40
6.0
 40
6.0
 40
6.0
 40
7.0
 40
7.0
 40
7.0
 40
8.0
 40
8.0
 40
8.0
 40
9.0
 40
9.0
 40
9.0
 40
10.0
 40
10.0
 40
10.0
 40
11.0
 40
11.0
 40
11.0
 40
12.0
 40
12.0
 40
12.0
 40
13.0
 40
13.0
 40
13.0
 40
14.0
 40
14.0
 40
14.0
 40
15.0
 40
15.0
 40
15.0
 40
16.0
 40
16.0
 40
16.0
 40
16.0
 10
122.1493055250182
 20
-147.7411973371966
 30
0.0
 10
122.1493055250182
 20
-147.8080321896105
 30
0.0
 10
122.1324245571405
 20
-147.8945040862902
 30
0.0
 10
122.0690348002119
 20
-147.98097598297
 30
0.0
 10
121.9591362542324
 20
-148.1287705792872
 30
0.0
 10
121.8278781162444
 20
-148.1470295853591
 30
0.0
 10
121.7200466275561
 20
-148.1632215341397
 30
0.0
 10
121.7200466275561
 20
-148.1632215341397
 30
0.0
 10
121.7200466275561
 20
-147.973741282451
 30
0.0
 10
121.7200466275561
 20
-147.973741282451
 30
0.0
 10
121.918828637055
 20
-147.9268879838516
 30
0.0
 10
121.9484564582281
 20
-147.8187119856148
 30
0.0
 10
121.9484564582281
 20
-147.739474789454
 30
0.0
 10
121.9484564582281
 20
-147.6202744856644
 30
0.0
 10
121.8488931987044
 20
-147.4903943858705
 30
0.0
 10
121.6163492534501
 20
-147.4903943858705
 30
0.0
 10
121.360378658896
 20
-147.4903943858705
 30
0.0
 10
121.2904432205454
 20
-147.6437011349641
 30
0.0
 10
121.2904432205454
 20
-147.746709489973
 30
0.0
 10
121.2904432205454
 20
-147.773581234758
 30
0.0
 10
121.2904432205454
 20
-147.8945040862902
 30
0.0
 10
121.4196343012423
 20
-147.9702961869657
 30
0.0
 10
121.4196343012423
 20
-147.9702961869657
 30
0.0
 10
121.4006862760734
 20
-148.1198133310256
 30
0.0
 10
121.4006862760734
 20
-148.1198133310256
 30
0.0
 10
121.4006862760734
 20
-148.1198133310256
 30
0.0
 10
120.5542263153475
 20
-148.0171494855651
 30
0.0
 10
120.5542263153475
 20
-148.0171494855651
 30
0.0
 10
120.5542263153475
 20
-148.0171494855651
 30
0.0
 10
120.5542263153475
 20
-147.353624095106
 30
0.0
 10
120.5542263153475
 20
-147.353624095106
 30
0.0
 10
120.5542263153475
 20
-147.353624095106
 30
0.0
 10
120.7488742102642
 20
-147.353624095106
 30
0.0
 10
120.7488742102642
 20
-147.353624095106
 30
0.0
 10
120.7488742102642
 20
-147.353624095106
 30
0.0
 10
120.7488742102642
 20
-147.8783121375096
 30
0.0
 10
120.7488742102642
 20
-147.8783121375096
 30
0.0
 10
120.7488742102642
 20
-147.8783121375096
 30
0.0
 10
121.1719319358528
 20
-147.9341226843706
 30
0.0
 10
121.1719319358528
 20
-147.9341226843706
 30
0.0
 10
121.1381700000974
 20
-147.8817572329948
 30
0.0
 10
121.09786238292
 20
-147.8114772850957
 30
0.0
 10
121.09786238292
 20
-147.7105359873779
 30
0.0
 10
121.09786238292
 20
-147.4941839909042
 30
0.0
 10
121.284242048672
 20
-147.2923013954686
 30
0.0
 10
121.5974012282812
 20
-147.2923013954686
 30
0.0
 10
121.9146945224727
 20
-147.2923013954686
 30
0.0
 10
122.1493055250182
 20
-147.4831596853514
 30
0.0
 10
122.1493055250182
 20
-147.7411973371966
 30
0.0
  0
HATCH
  5
122
330
118
100
AcDbEntity
  8
レイヤー 1
 62
    18
420
        0
440
 33554687
100
AcDbHatch
 10
0.0
 20
0.0
 30
0.0
210
0.0
220
0.0
230
1.0
  2
SOLID
 70
     1
 71
     1
 91
        1
 92
        1
 93
        1
 72
     4
 94
        3
 73
     0
 74
     0
 95
       53
 96
       49
 40
0.0
 40
0.0
 40
0.0
 40
0.0
 40
1.0
 40
1.0
 40
1.0
 40
2.0
 40
2.0
 40
2.0
 40
3.0
 40
3.0
 40
3.0
 40
4.0
 40
4.0
 40
4.0
 40
5.0
 40
5.0
 40
5.0
 40
6.0
 40
6.0
 40
6.0
 40
7.0
 40
7.0
 40
7.0
 40
8.0
 40
8.0
 40
8.0
 40
9.0
 40
9.0
 40
9.0
 40
10.0
 40
10.0
 40
10.0
 40
11.0
 40
11.0
 40
11.0
 40
12.0
 40
12.0
 40
12.0
 40
13.0
 40
13.0
 40
13.0
 40
14.0
 40
14.0
 40
14.0
 40
15.0
 40
15.0
 40
15.0
 40
16.0
 40
16.0
 40
16.0
 40
16.0
 10
122.1493055250182
 20
-147.7411973371966
 10
122.1493055250182
 20
-147.8080321896105
 10
122.1324245571405
 20
-147.8945040862902
 10
122.0690348002119
 20
-147.98097598297
 10
121.9591362542324
 20
-148.1287705792872
 10
121.8278781162444
 20
-148.1470295853591
 10
121.7200466275561
 20
-148.1632215341397
 10
121.7200466275561
 20
-148.1632215341397
 10
121.7200466275561
 20
-147.973741282451
 10
121.7200466275561
 20
-147.973741282451
 10
121.918828637055
 20
-147.9268879838516
 10
121.9484564582281
 20
-147.8187119856148
 10
121.9484564582281
 20
-147.739474789454
 10
121.9484564582281
 20
-147.6202744856644
 10
121.8488931987044
 20
-147.4903943858705
 10
121.6163492534501
 20
-147.4903943858705
 10
121.360378658896
 20
-147.4903943858705
 10
121.2904432205454
 20
-147.6437011349641
 10
121.2904432205454
 20
-147.746709489973
 10
121.2904432205454
 20
-147.773581234758
 10
121.2904432205454
 20
-147.8945040862902
 10
121.4196343012423
 20
-147.9702961869657
 10
121.4196343012423
 20
-147.9702961869657
 10
121.4006862760734
 20
-148.1198133310256
 10
121.4006862760734
 20
-148.1198133310256
 10
121.4006862760734
 20
-148.1198133310256
 10
120.5542263153475
 20
-148.0171494855651
 10
120.5542263153475
 20
-148.0171494855651
 10
120.5542263153475
 20
-148.0171494855651
 10
120.5542263153475
 20
-147.353624095106
 10
120.5542263153475
 20
-147.353624095106
 10
120.5542263153475
 20
-147.353624095106
 10
120.7488742102642
 20
-147.353624095106
 10
120.7488742102642
 20
-147.353624095106
 10
120.7488742102642
 20
-147.353624095106
 10
120.7488742102642
 20
-147.8783121375096
 10
120.7488742102642
 20
-147.8783121375096
 10
120.7488742102642
 20
-147.8783121375096
 10
121.1719319358528
 20
-147.9341226843706
 10
121.1719319358528
 20
-147.9341226843706
 10
121.1381700000974
 20
-147.8817572329948
 10
121.09786238292
 20
-147.8114772850957
 10
121.09786238292
 20
-147.7105359873779
 10
121.09786238292
 20
-147.4941839909042
 10
121.284242048672
 20
-147.2923013954686
 10
121.5974012282812
 20
-147.2923013954686
 10
121.9146945224727
 20
-147.2923013954686
 10
122.1493055250182
 20
-147.4831596853514
 10
122.1493055250182
 20
-147.7411973371966
 97
        0
 97
        1
330
121
 75
     2
 76
     1
 98
        1
 10
0.0
 20
0.0
450
        0
451
        0
460
0.0
461
0.0
452
        0
462
0.0
453
        0
470

  0
ENDBLK
  5
11B
330
118
100
AcDbEntity
  8
0
100
AcDbBlockEnd
  0
ENDSEC
  0
SECTION
  2
ENTITIES
  0
INSERT
  5
7A
330
70
100
AcDbEntity
  8
レイヤー 1
100
AcDbBlockReference
  2
Block_0
 10
0.0
 20
0.0
 30
0.0
  0
INSERT
  5
8F
330
70
100
AcDbEntity
  8
レイヤー 1
100
AcDbBlockReference
  2
Block_2
 10
0.0
 20
0.0
 30
0.0
  0
INSERT
  5
A8
330
70
100
AcDbEntity
  8
レイヤー 1
100
AcDbBlockReference
  2
Block_4
 10
0.0
 20
0.0
 30
0.0
  0
ENDSEC
  0
SECTION
  2
OBJECTS
  0
DICTIONARY
  5
C
330
0
100
AcDbDictionary
281
     1
  3
ACAD_COLOR
350
63
  3
ACAD_DETAILVIEWSTYLE
350
6A
  3
ACAD_GROUP
350
D
  3
ACAD_LAYOUT
350
62
  3
ACAD_MATERIAL
350
10
  3
ACAD_MLEADERSTYLE
350
66
  3
ACAD_MLINESTYLE
350
5F
  3
ACAD_PLOTSETTINGS
350
61
  3
ACAD_PLOTSTYLENAME
350
E
  3
ACAD_SCALELIST
350
42
  3
ACAD_SECTIONVIEWSTYLE
350
68
  3
ACAD_TABLESTYLE
350
64
  3
ACAD_VISUALSTYLE
350
29
  3
ACDB_RECOMPOSE_DATA
350
12B
  3
AcDbVariableDictionary
350
123
  0
DICTIONARY
  5
63
102
{ACAD_REACTORS
330
C
102
}
330
C
100
AcDbDictionary
281
     1
  0
DICTIONARY
  5
6A
102
{ACAD_REACTORS
330
C
102
}
330
C
100
AcDbDictionary
281
     1
  3
Imperial24
350
6B
  0
DICTIONARY
  5
D
102
{ACAD_REACTORS
330
C
102
}
330
C
100
AcDbDictionary
281
     1
  0
DICTIONARY
  5
62
102
{ACAD_REACTORS
330
C
102
}
330
C
100
AcDbDictionary
281
     1
  3
Layout1
350
6F
  3
Layout2
350
77
  3
Model
350
73
  0
DICTIONARY
  5
10
102
{ACAD_REACTORS
330
C
102
}
330
C
100
AcDbDictionary
281
     1
  3
ByBlock
350
19
  3
ByLayer
350
11
  3
Global
350
21
  0
DICTIONARY
  5
66
102
{ACAD_REACTORS
330
C
102
}
330
C
100
AcDbDictionary
281
     1
  3
Standard
350
67
  0
DICTIONARY
  5
5F
102
{ACAD_REACTORS
330
C
102
}
330
C
100
AcDbDictionary
281
     1
  3
Standard
350
60
  0
DICTIONARY
  5
61
102
{ACAD_REACTORS
330
C
102
}
330
C
100
AcDbDictionary
281
     1
  0
ACDBDICTIONARYWDFLT
  5
E
102
{ACAD_REACTORS
330
C
102
}
330
C
100
AcDbDictionary
281
     1
  3
Normal
350
F
100
AcDbDictionaryWithDefault
340
F
  0
DICTIONARY
  5
42
102
{ACAD_REACTORS
330
C
102
}
330
C
100
AcDbDictionary
281
     1
  3
A0
350
43
  3
A1
350
44
  3
A2
350
45
  3
A3
350
46
  3
A4
350
47
  3
A5
350
48
  3
A6
350
49
  3
A7
350
4A
  3
A8
350
4B
  3
A9
350
4C
  3
B0
350
4D
  3
B1
350
4E
  3
B2
350
4F
  3
B3
350
50
  3
B4
350
51
  3
B5
350
52
  3
B6
350
53
  0
DICTIONARY
  5
68
102
{ACAD_REACTORS
330
C
102
}
330
C
100
AcDbDictionary
281
     1
  3
Imperial24
350
69
  0
DICTIONARY
  5
64
102
{ACAD_REACTORS
330
C
102
}
330
C
100
AcDbDictionary
281
     1
  3
Standard
350
65
  0
DICTIONARY
  5
29
102
{ACAD_REACTORS
330
C
102
}
330
C
100
AcDbDictionary
281
     1
  3
2dWireframe
350
2F
  3
Basic
350
2E
  3
Brighten
350
35
  3
ColorChange
350
39
  3
Conceptual
350
32
  3
Dim
350
34
  3
EdgeColorOff
350
41
  3
Facepattern
350
38
  3
Flat
350
2A
  3
FlatWithEdges
350
2B
  3
Gouraud
350
2C
  3
GouraudWithEdges
350
2D
  3
Hidden
350
31
  3
JitterOff
350
3F
  3
Linepattern
350
37
  3
OverhangOff
350
40
  3
Realistic
350
33
  3
Shaded
350
3E
  3
Shaded with edges
350
3D
  3
Shades of Gray
350
3A
  3
Sketchy
350
3B
  3
Thicken
350
36
  3
Wireframe
350
30
  3
X-Ray
350
3C
  0
XRECORD
  5
12B
102
{ACAD_REACTORS
330
C
102
}
330
C
100
AcDbXrecord
280
     1
 90
        1
330
65
  0
DICTIONARY
  5
123
102
{ACAD_REACTORS
330
C
102
}
330
C
100
AcDbDictionary
281
     1
  3
CANNOSCALE
350
128
  3
CMLEADERSTYLE
350
125
  3
CTABLESTYLE
350
124
  3
CVIEWDETAILSTYLE
350
126
  3
CVIEWSECTIONSTYLE
350
127
  0
ACDBDETAILVIEWSTYLE
  5
6B
102
{ACAD_XDICTIONARY
360
160
102
}
102
{ACAD_REACTORS
330
6A
102
}
330
6A
100
AcDbModelDocViewStyle
 70
     0
  3
Imperial24
290
     0
100
AcDbDetailViewStyle
 70
     0
 71
     0
 90
        3
 71
     1
340
55
 62
   256
 40
0.24
340
0
 62
   256
 40
0.24
300

 40
0.36
280
     3
 71
     2
340
5D
 90
       25
 62
   256
 71
     3
340
55
 62
   256
 40
0.24
 90
        1
 40
0.75
 90
        1
300
%<\AcVar ViewType \f "%tc1">% %<\AcVar ViewDetailId>%\PSCALE %<\AcVar ViewScale \f "%sn">%
 71
     4
340
5D
 90
       25
 62
   256
340
5D
 90
       25
 62
   256
280
     0
  0
LAYOUT
  5
6F
102
{ACAD_REACTORS
330
62
102
}
330
62
100
AcDbPlotSettings
  1

  2

  4

  6

 40
0.0
 41
0.0
 42
0.0
 43
0.0
 44
0.0
 45
0.0
 46
0.0
 47
0.0
 48
0.0
 49
0.0
140
0.0
141
0.0
142
1.0
143
1.0
 70
   688
 72
     0
 73
     0
 74
     5
  7

 75
    16
147
1.0
 76
     0
 77
     2
 78
   300
148
0.0
149
0.0
100
AcDbLayout
  1
Layout1
 70
     1
 71
     1
 10
0.0
 20
0.0
 11
12.0
 21
9.0
 12
0.0
 22
0.0
 32
0.0
 14
0.0
 24
0.0
 34
0.0
 15
0.0
 25
0.0
 35
0.0
146
0.0
 13
0.0
 23
0.0
 33
0.0
 16
1.0
 26
0.0
 36
0.0
 17
0.0
 27
1.0
 37
0.0
 76
     0
330
6C
  0
LAYOUT
  5
77
102
{ACAD_REACTORS
330
62
102
}
330
62
100
AcDbPlotSettings
  1

  2

  4

  6

 40
0.0
 41
0.0
 42
0.0
 43
0.0
 44
0.0
 45
0.0
 46
0.0
 47
0.0
 48
0.0
 49
0.0
140
0.0
141
0.0
142
1.0
143
1.0
 70
   688
 72
     0
 73
     0
 74
     5
  7

 75
    16
147
1.0
 76
     0
 77
     2
 78
   300
148
0.0
149
0.0
100
AcDbLayout
  1
Layout2
 70
     1
 71
     2
 10
0.0
 20
0.0
 11
12.0
 21
9.0
 12
0.0
 22
0.0
 32
0.0
 14
0.0
 24
0.0
 34
0.0
 15
0.0
 25
0.0
 35
0.0
146
0.0
 13
0.0
 23
0.0
 33
0.0
 16
1.0
 26
0.0
 36
0.0
 17
0.0
 27
1.0
 37
0.0
 76
     0
330
74
  0
LAYOUT
  5
73
102
{ACAD_REACTORS
330
62
102
}
330
62
100
AcDbPlotSettings
  1

  2

  4

  6

 40
0.0
 41
0.0
 42
0.0
 43
0.0
 44
0.0
 45
0.0
 46
0.0
 47
0.0
 48
0.0
 49
0.0
140
0.0
141
0.0
142
1.0
143
1.0
 70
  1712
 72
     0
 73
     0
 74
     0
  7

 75
     0
147
1.0
 76
     0
 77
     2
 78
   300
148
0.0
149
0.0
100
AcDbLayout
  1
Model
 70
     1
 71
     0
 10
0.0
 20
0.0
 11
12.0
 21
9.0
 12
0.0
 22
0.0
 32
0.0
 14
0.0
 24
0.0
 34
0.0
 15
0.0
 25
0.0
 35
0.0
146
0.0
 13
0.0
 23
0.0
 33
0.0
 16
1.0
 26
0.0
 36
0.0
 17
0.0
 27
1.0
 37
0.0
 76
     0
330
70
  0
MATERIAL
  5
19
102
{ACAD_XDICTIONARY
360
1A
102
}
102
{ACAD_REACTORS
330
10
102
}
330
10
100
AcDbMaterial
  1
ByBlock
 72
     0
 43
0.0208333333333333
 43
0.0
 43
0.0
 43
0.0
 43
0.0
 43
0.0208333333333333
 43
0.0
 43
0.0
 43
0.0
 43
0.0
 43
1.0
 43
0.0
 43
0.0
 43
0.0
 43
0.0
 43
1.0
 77
     0
 47
0.0208333333333333
 47
0.0
 47
0.0
 47
0.0
 47
0.0
 47
0.0208333333333333
 47
0.0
 47
0.0
 47
0.0
 47
0.0
 47
1.0
 47
0.0
 47
0.0
 47
0.0
 47
0.0
 47
1.0
171
     0
 49
0.0208333333333333
 49
0.0
 49
0.0
 49
0.0
 49
0.0
 49
0.0208333333333333
 49
0.0
 49
0.0
 49
0.0
 49
0.0
 49
1.0
 49
0.0
 49
0.0
 49
0.0
 49
0.0
 49
1.0
175
     0
142
0.0208333333333333
142
0.0
142
0.0
142
0.0
142
0.0
142
0.0208333333333333
142
0.0
142
0.0
142
0.0
142
0.0
142
1.0
142
0.0
142
0.0
142
0.0
142
0.0
142
1.0
179
     0
144
0.0208333333333333
144
0.0
144
0.0
144
0.0
144
0.0
144
0.0208333333333333
144
0.0
144
0.0
144
0.0
144
0.0
144
1.0
144
0.0
144
0.0
144
0.0
144
0.0
144
1.0
147
0.0208333333333333
147
0.0
147
0.0
147
0.0
147
0.0
147
0.0208333333333333
147
0.0
147
0.0
147
0.0
147
0.0
147
1.0
147
0.0
147
0.0
147
0.0
147
0.0
147
1.0
  0
MATERIAL
  5
11
102
{ACAD_XDICTIONARY
360
12
102
}
102
{ACAD_REACTORS
330
10
102
}
330
10
100
AcDbMaterial
  1
ByLayer
 72
     0
 43
0.0208333333333333
 43
0.0
 43
0.0
 43
0.0
 43
0.0
 43
0.0208333333333333
 43
0.0
 43
0.0
 43
0.0
 43
0.0
 43
1.0
 43
0.0
 43
0.0
 43
0.0
 43
0.0
 43
1.0
 77
     0
 47
0.0208333333333333
 47
0.0
 47
0.0
 47
0.0
 47
0.0
 47
0.0208333333333333
 47
0.0
 47
0.0
 47
0.0
 47
0.0
 47
1.0
 47
0.0
 47
0.0
 47
0.0
 47
0.0
 47
1.0
171
     0
 49
0.0208333333333333
 49
0.0
 49
0.0
 49
0.0
 49
0.0
 49
0.0208333333333333
 49
0.0
 49
0.0
 49
0.0
 49
0.0
 49
1.0
 49
0.0
 49
0.0
 49
0.0
 49
0.0
 49
1.0
175
     0
142
0.0208333333333333
142
0.0
142
0.0
142
0.0
142
0.0
142
0.0208333333333333
142
0.0
142
0.0
142
0.0
142
0.0
142
1.0
142
0.0
142
0.0
142
0.0
142
0.0
142
1.0
179
     0
144
0.0208333333333333
144
0.0
144
0.0
144
0.0
144
0.0
144
0.0208333333333333
144
0.0
144
0.0
144
0.0
144
0.0
144
1.0
144
0.0
144
0.0
144
0.0
144
0.0
144
1.0
147
0.0208333333333333
147
0.0
147
0.0
147
0.0
147
0.0
147
0.0208333333333333
147
0.0
147
0.0
147
0.0
147
0.0
147
1.0
147
0.0
147
0.0
147
0.0
147
0.0
147
1.0
  0
MATERIAL
  5
21
102
{ACAD_XDICTIONARY
360
22
102
}
102
{ACAD_REACTORS
330
10
102
}
330
10
100
AcDbMaterial
  1
Global
 72
     0
 43
0.0208333333333333
 43
0.0
 43
0.0
 43
0.0
 43
0.0
 43
0.0208333333333333
 43
0.0
 43
0.0
 43
0.0
 43
0.0
 43
1.0
 43
0.0
 43
0.0
 43
0.0
 43
0.0
 43
1.0
 77
     0
 47
0.0208333333333333
 47
0.0
 47
0.0
 47
0.0
 47
0.0
 47
0.0208333333333333
 47
0.0
 47
0.0
 47
0.0
 47
0.0
 47
1.0
 47
0.0
 47
0.0
 47
0.0
 47
0.0
 47
1.0
171
     0
 49
0.0208333333333333
 49
0.0
 49
0.0
 49
0.0
 49
0.0
 49
0.0208333333333333
 49
0.0
 49
0.0
 49
0.0
 49
0.0
 49
1.0
 49
0.0
 49
0.0
 49
0.0
 49
0.0
 49
1.0
175
     0
142
0.0208333333333333
142
0.0
142
0.0
142
0.0
142
0.0
142
0.0208333333333333
142
0.0
142
0.0
142
0.0
142
0.0
142
1.0
142
0.0
142
0.0
142
0.0
142
0.0
142
1.0
179
     0
144
0.0208333333333333
144
0.0
144
0.0
144
0.0
144
0.0
144
0.0208333333333333
144
0.0
144
0.0
144
0.0
144
0.0
144
1.0
144
0.0
144
0.0
144
0.0
144
0.0
144
1.0
147
0.0208333333333333
147
0.0
147
0.0
147
0.0
147
0.0
147
0.0208333333333333
147
0.0
147
0.0
147
0.0
147
0.0
147
1.0
147
0.0
147
0.0
147
0.0
147
0.0
147
1.0
  0
MLEADERSTYLE
  5
67
102
{ACAD_XDICTIONARY
360
15C
102
}
102
{ACAD_REACTORS
330
66
102
}
330
66
100
AcDbMLeaderStyle
179
     2
170
     2
171
     1
172
     0
 90
        2
 40
0.0
 41
0.0
173
     1
 91
-1056964608
340
5B
 92
       -2
290
     1
 42
0.09
291
     1
 43
0.36
  3
Standard
 44
0.18
300

342
55
174
     1
178
     6
175
     1
176
     0
 93
-1056964608
 45
0.18
292
     0
297
     0
 46
0.18
 94
-1056964608
 47
1.0
 49
1.0
140
1.0
293
     1
141
0.0
294
     1
177
     0
142
1.0
295
     0
296
     0
143
0.125
271
     0
272
     9
273
     9
  0
MLINESTYLE
  5
60
102
{ACAD_REACTORS
330
5F
102
}
330
5F
100
AcDbMlineStyle
  2
STANDARD
 70
     0
  3

 62
   256
 51
90.0
 52
90.0
 71
     2
 49
0.5
 62
   256
  6
BYLAYER
 49
-0.5
 62
   256
  6
BYLAYER
  0
ACDBPLACEHOLDER
  5
F
102
{ACAD_REACTORS
330
E
102
}
330
E
  0
SCALE
  5
43
102
{ACAD_REACTORS
330
42
102
}
330
42
100
AcDbScale
 70
     0
300
1:1
140
1.0
141
1.0
290
     1
  0
SCALE
  5
44
102
{ACAD_REACTORS
330
42
102
}
330
42
100
AcDbScale
 70
     0
300
1/128" = 1'-0"
140
0.0078125
141
12.0
290
     0
  0
SCALE
  5
45
102
{ACAD_REACTORS
330
42
102
}
330
42
100
AcDbScale
 70
     0
300
1/64" = 1'-0"
140
0.015625
141
12.0
290
     0
  0
SCALE
  5
46
102
{ACAD_REACTORS
330
42
102
}
330
42
100
AcDbScale
 70
     0
300
1/32" = 1'-0"
140
0.03125
141
12.0
290
     0
  0
SCALE
  5
47
102
{ACAD_REACTORS
330
42
102
}
330
42
100
AcDbScale
 70
     0
300
1/16" = 1'-0"
140
0.0625
141
12.0
290
     0
  0
SCALE
  5
48
102
{ACAD_REACTORS
330
42
102
}
330
42
100
AcDbScale
 70
     0
300
3/32" = 1'-0"
140
0.09375
141
12.0
290
     0
  0
SCALE
  5
49
102
{ACAD_REACTORS
330
42
102
}
330
42
100
AcDbScale
 70
     0
300
1/8" = 1'-0"
140
0.125
141
12.0
290
     0
  0
SCALE
  5
4A
102
{ACAD_REACTORS
330
42
102
}
330
42
100
AcDbScale
 70
     0
300
3/16" = 1'-0"
140
0.1875
141
12.0
290
     0
  0
SCALE
  5
4B
102
{ACAD_REACTORS
330
42
102
}
330
42
100
AcDbScale
 70
     0
300
1/4" = 1'-0"
140
0.25
141
12.0
290
     0
  0
SCALE
  5
4C
102
{ACAD_REACTORS
330
42
102
}
330
42
100
AcDbScale
 70
     0
300
3/8" = 1'-0"
140
0.375
141
12.0
290
     0
  0
SCALE
  5
4D
102
{ACAD_REACTORS
330
42
102
}
330
42
100
AcDbScale
 70
     0
300
1/2" = 1'-0"
140
0.5
141
12.0
290
     0
  0
SCALE
  5
4E
102
{ACAD_REACTORS
330
42
102
}
330
42
100
AcDbScale
 70
     0
300
3/4" = 1'-0"
140
0.75
141
12.0
290
     0
  0
SCALE
  5
4F
102
{ACAD_REACTORS
330
42
102
}
330
42
100
AcDbScale
 70
     0
300
1" = 1'-0"
140
1.0
141
12.0
290
     0
  0
SCALE
  5
50
102
{ACAD_REACTORS
330
42
102
}
330
42
100
AcDbScale
 70
     0
300
1-1/2" = 1'-0"
140
1.5
141
12.0
290
     0
  0
SCALE
  5
51
102
{ACAD_REACTORS
330
42
102
}
330
42
100
AcDbScale
 70
     0
300
3" = 1'-0"
140
3.0
141
12.0
290
     0
  0
SCALE
  5
52
102
{ACAD_REACTORS
330
42
102
}
330
42
100
AcDbScale
 70
     0
300
6" = 1'-0"
140
6.0
141
12.0
290
     0
  0
SCALE
  5
53
102
{ACAD_REACTORS
330
42
102
}
330
42
100
AcDbScale
 70
     0
300
1'-0" = 1'-0"
140
12.0
141
12.0
290
     0
  0
ACDBSECTIONVIEWSTYLE
  5
69
102
{ACAD_XDICTIONARY
360
15E
102
}
102
{ACAD_REACTORS
330
68
102
}
330
68
100
AcDbModelDocViewStyle
 70
     0
  3
Imperial24
290
     0
100
AcDbSectionViewStyle
 70
     0
 71
     0
 90
       78
 71
     1
340
55
 62
   256
 40
0.24
340
0
340
0
 62
   256
 40
0.24
300
I, O, Q, S, X, Z
 40
0.48
 90
        3
 40
0.18
 90
        1
 71
     2
340
5D
 90
       25
 62
   256
340
5D
 90
       50
 62
   256
 40
0.24
 40
0.0
 40
0.24
 71
     3
340
55
 62
   256
 40
0.24
 90
        1
 40
0.75
 90
        1
300
%<\AcVar ViewType \f "%tc1">% %<\AcVar ViewSectionStartId>%-%<\AcVar ViewSectionEndId>%\PSCALE %<\AcVar ViewScale \f "%sn">%
 71
     4
 62
   256
 62
   257
300
ANSI31
 40
1.0
 90
        0
290
     0
290
     0
 90
        6
 40
0.0
 40
1.570796326794896
 40
0.2617993877991494
 40
1.308996938995747
 40
-0.2617993877991494
 40
1.832595714594046
  0
TABLESTYLE
  5
65
102
{ACAD_XDICTIONARY
360
129
102
}
102
{ACAD_REACTORS
330
64
102
}
330
64
100
AcDbTableStyle
280
     0
  3
Standard
 70
     0
 71
     0
 40
0.06
 41
0.06
280
     0
281
     0
  7
Standard
140
0.18
170
     2
 62
     0
 63
     7
283
     0
 90
      512
 91
        0
  1

274
    -2
284
     1
 64
     0
275
    -2
285
     1
 65
     0
276
    -2
286
     1
 66
     0
277
    -2
287
     1
 67
     0
278
    -2
288
     1
 68
     0
279
    -2
289
     1
 69
     0
  7
Standard
140
0.25
170
     5
 62
     0
 63
     7
283
     0
 90
      512
 91
        0
  1

274
    -2
284
     1
 64
     0
275
    -2
285
     1
 65
     0
276
    -2
286
     1
 66
     0
277
    -2
287
     1
 67
     0
278
    -2
288
     1
 68
     0
279
    -2
289
     1
 69
     0
  7
Standard
140
0.18
170
     5
 62
     0
 63
     7
283
     0
 90
      512
 91
        0
  1

274
    -2
284
     1
 64
     0
275
    -2
285
     1
 65
     0
276
    -2
286
     1
 66
     0
277
    -2
287
     1
 67
     0
278
    -2
288
     1
 68
     0
279
    -2
289
     1
 69
     0
  0
VISUALSTYLE
  5
2F
102
{ACAD_XDICTIONARY
360
136
102
}
102
{ACAD_REACTORS
330
29
102
}
330
29
100
AcDbVisualStyle
  2
2dWireframe
 70
     4
177
     2
291
     0
 71
     0
176
     1
 72
     2
176
     1
 73
     0
176
     1
 90
        0
176
     1
 40
0.6
176
     1
 41
30.0
176
     1
 63
     7
421
 16777215
176
     1
 74
     1
176
     1
 91
        4
176
     1
 64
     7
176
     1
 65
   257
176
     1
 75
     1
176
     1
175
     1
176
     1
 42
1.0
176
     1
 92
        0
176
     1
 66
   257
176
     1
 43
1.0
176
     1
 76
     1
176
     1
 77
     6
176
     1
 78
     2
176
     1
 67
     7
176
     1
 79
     5
176
     1
170
     0
176
     1
171
     0
176
     1
290
     0
176
     1
 93
        1
176
     1
 44
0.0
176
     1
173
     0
176
     1
1001
ACAD
1000
AcDbSavedByObjectVersion
1070
     0
  0
VISUALSTYLE
  5
2E
102
{ACAD_XDICTIONARY
360
134
102
}
102
{ACAD_REACTORS
330
29
102
}
330
29
100
AcDbVisualStyle
  2
Basic
 70
     7
177
     2
291
     1
 71
     1
176
     1
 72
     0
176
     1
 73
     1
176
     1
 90
        0
176
     1
 40
0.6
176
     1
 41
30.0
176
     1
 63
     7
421
 16777215
176
     1
 74
     0
176
     1
 91
        4
176
     1
 64
     7
176
     1
 65
   257
176
     1
 75
     1
176
     1
175
     1
176
     1
 42
1.0
176
     1
 92
        8
176
     1
 66
     7
176
     1
 43
1.0
176
     1
 76
     1
176
     1
 77
     6
176
     1
 78
     2
176
     1
 67
     7
176
     1
 79
     5
176
     1
170
     0
176
     1
171
     0
176
     1
290
     0
176
     1
 93
        1
176
     1
 44
0.0
176
     1
173
     0
176
     1
1001
ACAD
1000
AcDbSavedByObjectVersion
1070
     0
  0
VISUALSTYLE
  5
35
102
{ACAD_XDICTIONARY
360
142
102
}
102
{ACAD_REACTORS
330
29
102
}
330
29
100
AcDbVisualStyle
  2
Brighten
 70
    12
177
     2
291
     1
 71
     2
176
     1
 72
     2
176
     1
 73
     0
176
     1
 90
        0
176
     1
 40
0.6
176
     1
 41
30.0
176
     1
 63
     7
421
 16777215
176
     1
 74
     1
176
     1
 91
        4
176
     1
 64
     7
176
     1
 65
   257
176
     1
 75
     1
176
     1
175
     1
176
     1
 42
1.0
176
     1
 92
        8
176
     1
 66
     7
176
     1
 43
1.0
176
     1
 76
     1
176
     1
 77
     6
176
     1
 78
     2
176
     1
 67
     7
176
     1
 79
     5
176
     1
170
     0
176
     1
171
     0
176
     1
290
     0
176
     1
 93
        1
176
     1
 44
50.0
176
     1
173
     0
176
     1
1001
ACAD
1000
AcDbSavedByObjectVersion
1070
     0
  0
VISUALSTYLE
  5
39
102
{ACAD_XDICTIONARY
360
14A
102
}
102
{ACAD_REACTORS
330
29
102
}
330
29
100
AcDbVisualStyle
  2
ColorChange
 70
    16
177
     2
291
     1
 71
     2
176
     1
 72
     2
176
     1
 73
     3
176
     1
 90
        0
176
     1
 40
0.6
176
     1
 41
30.0
176
     1
 63
     8
421
  8421504
176
     1
 74
     1
176
     1
 91
        4
176
     1
 64
     7
176
     1
 65
   257
176
     1
 75
     1
176
     1
175
     1
176
     1
 42
1.0
176
     1
 92
        8
176
     1
 66
     8
424
  8421504
176
     1
 43
1.0
176
     1
 76
     1
176
     1
 77
     6
176
     1
 78
     2
176
     1
 67
     7
176
     1
 79
     5
176
     1
170
     0
176
     1
171
     0
176
     1
290
     0
176
     1
 93
        1
176
     1
 44
0.0
176
     1
173
     0
176
     1
1001
ACAD
1000
AcDbSavedByObjectVersion
1070
     0
  0
VISUALSTYLE
  5
32
102
{ACAD_XDICTIONARY
360
13C
102
}
102
{ACAD_REACTORS
330
29
102
}
330
29
100
AcDbVisualStyle
  2
Conceptual
 70
     9
177
     2
291
     0
 71
     3
176
     1
 72
     2
176
     1
 73
     0
176
     1
 90
        0
176
     1
 40
0.6
176
     1
 41
30.0
176
     1
 63
     7
421
 16777215
176
     1
 74
     2
176
     1
 91
        2
176
     1
 64
     7
176
     1
 65
   257
176
     1
 75
     1
176
     1
175
     1
176
     1
 42
179.0
176
     1
 92
        8
176
     1
 66
     7
176
     1
 43
1.0
176
     1
 76
     1
176
     1
 77
     6
176
     1
 78
     2
176
     1
 67
     7
176
     1
 79
     3
176
     1
170
     0
176
     1
171
     0
176
     1
290
     0
176
     1
 93
        1
176
     1
 44
0.0
176
     1
173
     0
176
     1
1001
ACAD
1000
AcDbSavedByObjectVersion
1070
     0
  0
VISUALSTYLE
  5
34
102
{ACAD_XDICTIONARY
360
140
102
}
102
{ACAD_REACTORS
330
29
102
}
330
29
100
AcDbVisualStyle
  2
Dim
 70
    11
177
     2
291
     1
 71
     2
176
     1
 72
     2
176
     1
 73
     0
176
     1
 90
        0
176
     1
 40
0.6
176
     1
 41
30.0
176
     1
 63
     7
421
 16777215
176
     1
 74
     1
176
     1
 91
        4
176
     1
 64
     7
176
     1
 65
   257
176
     1
 75
     1
176
     1
175
     1
176
     1
 42
1.0
176
     1
 92
        8
176
     1
 66
     7
176
     1
 43
1.0
176
     1
 76
     1
176
     1
 77
     6
176
     1
 78
     2
176
     1
 67
     7
176
     1
 79
     5
176
     1
170
     0
176
     1
171
     0
176
     1
290
     0
176
     1
 93
        1
176
     1
 44
-50.0
176
     1
173
     0
176
     1
1001
ACAD
1000
AcDbSavedByObjectVersion
1070
     0
  0
VISUALSTYLE
  5
41
102
{ACAD_XDICTIONARY
360
15A
102
}
102
{ACAD_REACTORS
330
29
102
}
330
29
100
AcDbVisualStyle
  2
EdgeColorOff
 70
    22
177
     2
291
     1
 71
     2
176
     0
 72
     2
176
     0
 73
     0
176
     0
 90
        0
176
     0
 40
0.6
176
     0
 41
30.0
176
     0
 63
     7
421
 16777215
176
     0
 74
     1
176
     0
 91
        4
176
     0
 64
     7
176
     0
 65
   257
176
     0
 75
     1
176
     0
175
     1
176
     0
 42
1.0
176
     0
 92
        8
176
     2
 66
     7
176
     0
 43
1.0
176
     0
 76
     1
176
     0
 77
     6
176
     0
 78
     2
176
     0
 67
     7
176
     0
 79
     5
176
     0
170
     0
176
     0
171
     0
176
     0
290
     0
176
     0
 93
        1
176
     0
 44
0.0
176
     0
173
     0
176
     0
1001
ACAD
1000
AcDbSavedByObjectVersion
1070
     0
  0
VISUALSTYLE
  5
38
102
{ACAD_XDICTIONARY
360
148
102
}
102
{ACAD_REACTORS
330
29
102
}
330
29
100
AcDbVisualStyle
  2
Facepattern
 70
    15
177
     2
291
     1
 71
     2
176
     1
 72
     2
176
     1
 73
     0
176
     1
 90
        0
176
     1
 40
0.6
176
     1
 41
30.0
176
     1
 63
     7
421
 16777215
176
     1
 74
     1
176
     1
 91
        4
176
     1
 64
     7
176
     1
 65
   257
176
     1
 75
     1
176
     1
175
     1
176
     1
 42
1.0
176
     1
 92
        8
176
     1
 66
     7
176
     1
 43
1.0
176
     1
 76
     1
176
     1
 77
     6
176
     1
 78
     2
176
     1
 67
     7
176
     1
 79
     5
176
     1
170
     0
176
     1
171
     0
176
     1
290
     0
176
     1
 93
        1
176
     1
 44
0.0
176
     1
173
     0
176
     1
1001
ACAD
1000
AcDbSavedByObjectVersion
1070
     0
  0
VISUALSTYLE
  5
2A
102
{ACAD_XDICTIONARY
360
12C
102
}
102
{ACAD_REACTORS
330
29
102
}
330
29
100
AcDbVisualStyle
  2
Flat
 70
     0
177
     2
291
     1
 71
     2
176
     1
 72
     1
176
     1
 73
     1
176
     1
 90
        2
176
     1
 40
0.6
176
     1
 41
30.0
176
     1
 63
     7
421
 16777215
176
     1
 74
     0
176
     1
 91
        0
176
     1
 64
     7
176
     1
 65
   257
176
     1
 75
     1
176
     1
175
     1
176
     1
 42
1.0
176
     1
 92
        8
176
     1
 66
     7
176
     1
 43
1.0
176
     1
 76
     1
176
     1
 77
     6
176
     1
 78
     2
176
     1
 67
     7
176
     1
 79
     5
176
     1
170
     0
176
     1
171
     0
176
     1
290
     0
176
     1
 93
       13
176
     1
 44
0.0
176
     1
173
     0
176
     1
1001
ACAD
1000
AcDbSavedByObjectVersion
1070
     0
  0
VISUALSTYLE
  5
2B
102
{ACAD_XDICTIONARY
360
12E
102
}
102
{ACAD_REACTORS
330
29
102
}
330
29
100
AcDbVisualStyle
  2
FlatWithEdges
 70
     1
177
     2
291
     1
 71
     2
176
     1
 72
     1
176
     1
 73
     1
176
     1
 90
        2
176
     1
 40
0.6
176
     1
 41
30.0
176
     1
 63
     7
421
 16777215
176
     1
 74
     1
176
     1
 91
        0
176
     1
 64
     7
176
     1
 65
   257
176
     1
 75
     1
176
     1
175
     1
176
     1
 42
1.0
176
     1
 92
        0
176
     1
 66
   257
176
     1
 43
1.0
176
     1
 76
     1
176
     1
 77
     6
176
     1
 78
     2
176
     1
 67
     7
176
     1
 79
     5
176
     1
170
     0
176
     1
171
     0
176
     1
290
     0
176
     1
 93
       13
176
     1
 44
0.0
176
     1
173
     0
176
     1
1001
ACAD
1000
AcDbSavedByObjectVersion
1070
     0
  0
VISUALSTYLE
  5
2C
102
{ACAD_XDICTIONARY
360
130
102
}
102
{ACAD_REACTORS
330
29
102
}
330
29
100
AcDbVisualStyle
  2
Gouraud
 70
     2
177
     2
291
     1
 71
     2
176
     1
 72
     2
176
     1
 73
     1
176
     1
 90
        2
176
     1
 40
0.6
176
     1
 41
30.0
176
     1
 63
     7
421
 16777215
176
     1
 74
     0
176
     1
 91
        0
176
     1
 64
     7
176
     1
 65
   257
176
     1
 75
     1
176
     1
175
     1
176
     1
 42
1.0
176
     1
 92
        0
176
     1
 66
     7
176
     1
 43
1.0
176
     1
 76
     1
176
     1
 77
     6
176
     1
 78
     2
176
     1
 67
     7
176
     1
 79
     5
176
     1
170
     0
176
     1
171
     0
176
     1
290
     0
176
     1
 93
       13
176
     1
 44
0.0
176
     1
173
     0
176
     1
1001
ACAD
1000
AcDbSavedByObjectVersion
1070
     0
  0
VISUALSTYLE
  5
2D
102
{ACAD_XDICTIONARY
360
132
102
}
102
{ACAD_REACTORS
330
29
102
}
330
29
100
AcDbVisualStyle
  2
GouraudWithEdges
 70
     3
177
     2
291
     1
 71
     2
176
     1
 72
     2
176
     1
 73
     1
176
     1
 90
        2
176
     1
 40
0.6
176
     1
 41
30.0
176
     1
 63
     7
421
 16777215
176
     1
 74
     1
176
     1
 91
        0
176
     1
 64
     7
176
     1
 65
   257
176
     1
 75
     1
176
     1
175
     1
176
     1
 42
1.0
176
     1
 92
        0
176
     1
 66
   257
176
     1
 43
1.0
176
     1
 76
     1
176
     1
 77
     6
176
     1
 78
     2
176
     1
 67
     7
176
     1
 79
     5
176
     1
170
     0
176
     1
171
     0
176
     1
290
     0
176
     1
 93
       13
176
     1
 44
0.0
176
     1
173
     0
176
     1
1001
ACAD
1000
AcDbSavedByObjectVersion
1070
     0
  0
VISUALSTYLE
  5
31
102
{ACAD_XDICTIONARY
360
13A
102
}
102
{ACAD_REACTORS
330
29
102
}
330
29
100
AcDbVisualStyle
  2
Hidden
 70
     6
177
     2
291
     0
 71
     1
176
     1
 72
     2
176
     1
 73
     2
176
     1
 90
        0
176
     1
 40
0.6
176
     1
 41
30.0
176
     1
 63
     7
421
 16777215
176
     1
 74
     2
176
     1
 91
        2
176
     1
 64
     7
176
     1
 65
   257
176
     1
 75
     2
176
     1
175
     1
176
     1
 42
40.0
176
     1
 92
        0
176
     1
 66
   257
176
     1
 43
1.0
176
     1
 76
     1
176
     1
 77
     6
176
     1
 78
     2
176
     1
 67
     7
176
     1
 79
     3
176
     1
170
     0
176
     1
171
     0
176
     1
290
     0
176
     1
 93
        1
176
     1
 44
0.0
176
     1
173
     0
176
     1
1001
ACAD
1000
AcDbSavedByObjectVersion
1070
     0
  0
VISUALSTYLE
  5
3F
102
{ACAD_XDICTIONARY
360
156
102
}
102
{ACAD_REACTORS
330
29
102
}
330
29
100
AcDbVisualStyle
  2
JitterOff
 70
    20
177
     2
291
     1
 71
     2
176
     0
 72
     2
176
     0
 73
     0
176
     0
 90
        0
176
     0
 40
0.6
176
     0
 41
30.0
176
     0
 63
     7
421
 16777215
176
     0
 74
     1
176
     0
 91
        4
176
     0
 64
     7
176
     0
 65
   257
176
     0
 75
     1
176
     0
175
     1
176
     0
 42
1.0
176
     0
 92
       10
176
     2
 66
     7
176
     0
 43
1.0
176
     0
 76
     1
176
     0
 77
     6
176
     0
 78
     2
176
     0
 67
     7
176
     0
 79
     5
176
     0
170
     0
176
     0
171
     0
176
     0
290
     0
176
     0
 93
        1
176
     0
 44
0.0
176
     0
173
     0
176
     0
1001
ACAD
1000
AcDbSavedByObjectVersion
1070
     0
  0
VISUALSTYLE
  5
37
102
{ACAD_XDICTIONARY
360
146
102
}
102
{ACAD_REACTORS
330
29
102
}
330
29
100
AcDbVisualStyle
  2
Linepattern
 70
    14
177
     2
291
     1
 71
     2
176
     1
 72
     2
176
     1
 73
     0
176
     1
 90
        0
176
     1
 40
0.6
176
     1
 41
30.0
176
     1
 63
     7
421
 16777215
176
     1
 74
     1
176
     1
 91
        4
176
     1
 64
     7
176
     1
 65
   257
176
     1
 75
     7
176
     1
175
     7
176
     1
 42
1.0
176
     1
 92
        8
176
     1
 66
     7
176
     1
 43
1.0
176
     1
 76
     1
176
     1
 77
     6
176
     1
 78
     2
176
     1
 67
     7
176
     1
 79
     5
176
     1
170
     0
176
     1
171
     0
176
     1
290
     0
176
     1
 93
        1
176
     1
 44
0.0
176
     1
173
     0
176
     1
1001
ACAD
1000
AcDbSavedByObjectVersion
1070
     0
  0
VISUALSTYLE
  5
40
102
{ACAD_XDICTIONARY
360
158
102
}
102
{ACAD_REACTORS
330
29
102
}
330
29
100
AcDbVisualStyle
  2
OverhangOff
 70
    21
177
     2
291
     1
 71
     2
176
     0
 72
     2
176
     0
 73
     0
176
     0
 90
        0
176
     0
 40
0.6
176
     0
 41
30.0
176
     0
 63
     7
421
 16777215
176
     0
 74
     1
176
     0
 91
        4
176
     0
 64
     7
176
     0
 65
   257
176
     0
 75
     1
176
     0
175
     1
176
     0
 42
1.0
176
     0
 92
        9
176
     2
 66
     7
176
     0
 43
1.0
176
     0
 76
     1
176
     0
 77
     6
176
     0
 78
     2
176
     0
 67
     7
176
     0
 79
     5
176
     0
170
     0
176
     0
171
     0
176
     0
290
     0
176
     0
 93
        1
176
     0
 44
0.0
176
     0
173
     0
176
     0
1001
ACAD
1000
AcDbSavedByObjectVersion
1070
     0
  0
VISUALSTYLE
  5
33
102
{ACAD_XDICTIONARY
360
13E
102
}
102
{ACAD_REACTORS
330
29
102
}
330
29
100
AcDbVisualStyle
  2
Realistic
 70
     8
177
     2
291
     0
 71
     2
176
     1
 72
     3
176
     1
 73
     0
176
     1
 90
        2
176
     1
 40
0.6
176
     1
 41
30.0
176
     1
 63
     7
421
 16777215
176
     1
 74
     0
176
     1
 91
        0
176
     1
 64
     7
176
     1
 65
   257
176
     1
 75
     1
176
     1
175
     1
176
     1
 42
1.0
176
     1
 92
        8
176
     1
 66
   257
176
     1
 43
1.0
176
     1
 76
     1
176
     1
 77
     6
176
     1
 78
     2
176
     1
 67
     7
176
     1
 79
     3
176
     1
170
     0
176
     1
171
     0
176
     1
290
     0
176
     1
 93
       13
176
     1
 44
0.0
176
     1
173
     0
176
     1
1001
ACAD
1000
AcDbSavedByObjectVersion
1070
     0
  0
VISUALSTYLE
  5
3E
102
{ACAD_XDICTIONARY
360
154
102
}
102
{ACAD_REACTORS
330
29
102
}
330
29
100
AcDbVisualStyle
  2
Shaded
 70
    27
177
     2
291
     0
 71
     2
176
     1
 72
     2
176
     1
 73
     1
176
     1
 90
        2
176
     1
 40
0.6
176
     1
 41
30.0
176
     1
 63
     7
421
 16777215
176
     1
 74
     0
176
     1
 91
        4
176
     1
 64
     7
176
     1
 65
   257
176
     1
 75
     1
176
     1
175
     1
176
     1
 42
1.0
176
     1
 92
        8
176
     1
 66
   257
176
     1
 43
1.0
176
     1
 76
     1
176
     1
 77
     6
176
     1
 78
     2
176
     1
 67
     8
425
  7895160
176
     1
 79
     3
176
     1
170
     0
176
     1
171
     0
176
     1
290
     0
176
     1
 93
        5
176
     1
 44
0.0
176
     1
173
     0
176
     1
1001
ACAD
1000
AcDbSavedByObjectVersion
1070
     0
  0
VISUALSTYLE
  5
3D
102
{ACAD_XDICTIONARY
360
152
102
}
102
{ACAD_REACTORS
330
29
102
}
330
29
100
AcDbVisualStyle
  2
Shaded with edges
 70
    26
177
     2
291
     0
 71
     2
176
     1
 72
     2
176
     1
 73
     1
176
     1
 90
        2
176
     1
 40
0.6
176
     1
 41
30.0
176
     1
 63
     7
421
 16777215
176
     1
 74
     1
176
     1
 91
        2
176
     1
 64
     7
176
     1
 65
   257
176
     1
 75
     2
176
     1
175
     1
176
     1
 42
1.0
176
     1
 92
        8
176
     1
 66
   257
176
     1
 43
1.0
176
     1
 76
     1
176
     1
 77
     6
176
     1
 78
     2
176
     1
 67
     7
176
     1
 79
     3
176
     1
170
     0
176
     1
171
     0
176
     1
290
     0
176
     1
 93
        5
176
     1
 44
0.0
176
     1
173
     0
176
     1
1001
ACAD
1000
AcDbSavedByObjectVersion
1070
     0
  0
VISUALSTYLE
  5
3A
102
{ACAD_XDICTIONARY
360
14C
102
}
102
{ACAD_REACTORS
330
29
102
}
330
29
100
AcDbVisualStyle
  2
Shades of Gray
 70
    23
177
     2
291
     0
 71
     2
176
     1
 72
     2
176
     1
 73
     3
176
     1
 90
        0
176
     1
 40
0.6
176
     1
 41
30.0
176
     1
 63
     7
421
 16777215
176
     1
 74
     2
176
     1
 91
        2
176
     1
 64
     7
176
     1
 65
     7
176
     1
 75
     1
176
     1
175
     1
176
     1
 42
40.0
176
     1
 92
        8
176
     1
 66
     7
176
     1
 43
1.0
176
     1
 76
     1
176
     1
 77
     6
176
     1
 78
     2
176
     1
 67
     7
176
     1
 79
     3
176
     1
170
     0
176
     1
171
     0
176
     1
290
     0
176
     1
 93
        1
176
     1
 44
0.0
176
     1
173
     0
176
     1
1001
ACAD
1000
AcDbSavedByObjectVersion
1070
     0
  0
VISUALSTYLE
  5
3B
102
{ACAD_XDICTIONARY
360
14E
102
}
102
{ACAD_REACTORS
330
29
102
}
330
29
100
AcDbVisualStyle
  2
Sketchy
 70
    24
177
     2
291
     0
 71
     1
176
     1
 72
     2
176
     1
 73
     2
176
     1
 90
        0
176
     1
 40
0.6
176
     1
 41
30.0
176
     1
 63
     7
421
 16777215
176
     1
 74
     2
176
     1
 91
        2
176
     1
 64
     7
176
     1
 65
     7
176
     1
 75
     1
176
     1
175
     1
176
     1
 42
40.0
176
     1
 92
       11
176
     1
 66
     7
176
     1
 43
1.0
176
     1
 76
     1
176
     1
 77
     6
176
     1
 78
     2
176
     1
 67
     7
176
     1
 79
     6
176
     1
170
     0
176
     1
171
     0
176
     1
290
     0
176
     1
 93
        1
176
     1
 44
0.0
176
     1
173
     0
176
     1
1001
ACAD
1000
AcDbSavedByObjectVersion
1070
     0
  0
VISUALSTYLE
  5
36
102
{ACAD_XDICTIONARY
360
144
102
}
102
{ACAD_REACTORS
330
29
102
}
330
29
100
AcDbVisualStyle
  2
Thicken
 70
    13
177
     2
291
     1
 71
     2
176
     1
 72
     2
176
     1
 73
     0
176
     1
 90
        0
176
     1
 40
0.6
176
     1
 41
30.0
176
     1
 63
     7
421
 16777215
176
     1
 74
     1
176
     1
 91
        4
176
     1
 64
     7
176
     1
 65
   257
176
     1
 75
     1
176
     1
175
     1
176
     1
 42
1.0
176
     1
 92
       12
176
     1
 66
     7
176
     1
 43
1.0
176
     1
 76
     1
176
     1
 77
     6
176
     1
 78
     2
176
     1
 67
     7
176
     1
 79
     5
176
     1
170
     0
176
     1
171
     0
176
     1
290
     0
176
     1
 93
        1
176
     1
 44
0.0
176
     1
173
     0
176
     1
1001
ACAD
1000
AcDbSavedByObjectVersion
1070
     0
  0
VISUALSTYLE
  5
30
102
{ACAD_XDICTIONARY
360
138
102
}
102
{ACAD_REACTORS
330
29
102
}
330
29
100
AcDbVisualStyle
  2
Wireframe
 70
     5
177
     2
291
     0
 71
     0
176
     1
 72
     2
176
     1
 73
     0
176
     1
 90
        0
176
     1
 40
0.6
176
     1
 41
30.0
176
     1
 63
     7
421
 16777215
176
     1
 74
     1
176
     1
 91
        4
176
     1
 64
     7
176
     1
 65
   257
176
     1
 75
     1
176
     1
175
     1
176
     1
 42
1.0
176
     1
 92
        0
176
     1
 66
   257
176
     1
 43
1.0
176
     1
 76
     1
176
     1
 77
     6
176
     1
 78
     2
176
     1
 67
     7
176
     1
 79
     3
176
     1
170
     0
176
     1
171
     0
176
     1
290
     0
176
     1
 93
        1
176
     1
 44
0.0
176
     1
173
     0
176
     1
1001
ACAD
1000
AcDbSavedByObjectVersion
1070
     0
  0
VISUALSTYLE
  5
3C
102
{ACAD_XDICTIONARY
360
150
102
}
102
{ACAD_REACTORS
330
29
102
}
330
29
100
AcDbVisualStyle
  2
X-Ray
 70
    25
177
     2
291
     0
 71
     2
176
     1
 72
     2
176
     1
 73
     1
176
     1
 90
        1
176
     1
 40
0.5
176
     1
 41
30.0
176
     1
 63
     7
421
 16777215
176
     1
 74
     1
176
     1
 91
        0
176
     1
 64
     7
176
     1
 65
   257
176
     1
 75
     1
176
     1
175
     1
176
     1
 42
1.0
176
     1
 92
        8
176
     1
 66
     7
176
     1
 43
1.0
176
     1
 76
     1
176
     1
 77
     6
176
     1
 78
     2
176
     1
 67
     7
176
     1
 79
     3
176
     1
170
     0
176
     1
171
     0
176
     1
290
     0
176
     1
 93
       13
176
     1
 44
0.0
176
     1
173
     0
176
     1
1001
ACAD
1000
AcDbSavedByObjectVersion
1070
     0
  0
DICTIONARYVAR
  5
128
102
{ACAD_REACTORS
330
123
102
}
330
123
100
DictionaryVariables
280
     0
  1
1:1
  0
DICTIONARYVAR
  5
125
102
{ACAD_REACTORS
330
123
102
}
330
123
100
DictionaryVariables
280
     0
  1
STANDARD
  0
DICTIONARYVAR
  5
124
102
{ACAD_REACTORS
330
123
102
}
330
123
100
DictionaryVariables
280
     0
  1
STANDARD
  0
DICTIONARYVAR
  5
126
102
{ACAD_REACTORS
330
123
102
}
330
123
100
DictionaryVariables
280
     0
  1
Imperial24
  0
DICTIONARYVAR
  5
127
102
{ACAD_REACTORS
330
123
102
}
330
123
100
DictionaryVariables
280
     0
  1
Imperial24
  0
DICTIONARY
  5
160
330
6B
100
AcDbDictionary
280
     1
281
     1
  3
ACAD_XREC_ROUNDTRIP
360
161
  0
DICTIONARY
  5
1A
330
19
100
AcDbDictionary
280
     1
281
     1
  3
BUMPTILE
360
1C
  3
DIFFUSETILE
360
1B
  3
OPACITYTILE
360
1F
  3
REFLECTIONTILE
360
1E
  3
REFRACTIONTILE
360
20
  3
SPECULARTILE
360
1D
  0
DICTIONARY
  5
12
330
11
100
AcDbDictionary
280
     1
281
     1
  3
BUMPTILE
360
14
  3
DIFFUSETILE
360
13
  3
OPACITYTILE
360
17
  3
REFLECTIONTILE
360
16
  3
REFRACTIONTILE
360
18
  3
SPECULARTILE
360
15
  0
DICTIONARY
  5
22
330
21
100
AcDbDictionary
280
     1
281
     1
  3
BUMPTILE
360
24
  3
DIFFUSETILE
360
23
  3
OPACITYTILE
360
27
  3
REFLECTIONTILE
360
26
  3
REFRACTIONTILE
360
28
  3
SPECULARTILE
360
25
  0
DICTIONARY
  5
15C
330
67
100
AcDbDictionary
280
     1
281
     1
  3
ACAD_XREC_ROUNDTRIP
360
15D
  0
DICTIONARY
  5
15E
330
69
100
AcDbDictionary
280
     1
281
     1
  3
ACAD_XREC_ROUNDTRIP
360
15F
  0
DICTIONARY
  5
129
330
65
100
AcDbDictionary
280
     1
281
     1
  3
ACAD_ROUNDTRIP_2008_TABLESTYLE_CELLSTYLEMAP
360
12A
  0
DICTIONARY
  5
136
330
2F
100
AcDbDictionary
280
     1
281
     1
  3
ACAD_XREC_ROUNDTRIP
360
137
  0
DICTIONARY
  5
134
330
2E
100
AcDbDictionary
280
     1
281
     1
  3
ACAD_XREC_ROUNDTRIP
360
135
  0
DICTIONARY
  5
142
330
35
100
AcDbDictionary
280
     1
281
     1
  3
ACAD_XREC_ROUNDTRIP
360
143
  0
DICTIONARY
  5
14A
330
39
100
AcDbDictionary
280
     1
281
     1
  3
ACAD_XREC_ROUNDTRIP
360
14B
  0
DICTIONARY
  5
13C
330
32
100
AcDbDictionary
280
     1
281
     1
  3
ACAD_XREC_ROUNDTRIP
360
13D
  0
DICTIONARY
  5
140
330
34
100
AcDbDictionary
280
     1
281
     1
  3
ACAD_XREC_ROUNDTRIP
360
141
  0
DICTIONARY
  5
15A
330
41
100
AcDbDictionary
280
     1
281
     1
  3
ACAD_XREC_ROUNDTRIP
360
15B
  0
DICTIONARY
  5
148
330
38
100
AcDbDictionary
280
     1
281
     1
  3
ACAD_XREC_ROUNDTRIP
360
149
  0
DICTIONARY
  5
12C
330
2A
100
AcDbDictionary
280
     1
281
     1
  3
ACAD_XREC_ROUNDTRIP
360
12D
  0
DICTIONARY
  5
12E
330
2B
100
AcDbDictionary
280
     1
281
     1
  3
ACAD_XREC_ROUNDTRIP
360
12F
  0
DICTIONARY
  5
130
330
2C
100
AcDbDictionary
280
     1
281
     1
  3
ACAD_XREC_ROUNDTRIP
360
131
  0
DICTIONARY
  5
132
330
2D
100
AcDbDictionary
280
     1
281
     1
  3
ACAD_XREC_ROUNDTRIP
360
133
  0
DICTIONARY
  5
13A
330
31
100
AcDbDictionary
280
     1
281
     1
  3
ACAD_XREC_ROUNDTRIP
360
13B
  0
DICTIONARY
  5
156
330
3F
100
AcDbDictionary
280
     1
281
     1
  3
ACAD_XREC_ROUNDTRIP
360
157
  0
DICTIONARY
  5
146
330
37
100
AcDbDictionary
280
     1
281
     1
  3
ACAD_XREC_ROUNDTRIP
360
147
  0
DICTIONARY
  5
158
330
40
100
AcDbDictionary
280
     1
281
     1
  3
ACAD_XREC_ROUNDTRIP
360
159
  0
DICTIONARY
  5
13E
330
33
100
AcDbDictionary
280
     1
281
     1
  3
ACAD_XREC_ROUNDTRIP
360
13F
  0
DICTIONARY
  5
154
330
3E
100
AcDbDictionary
280
     1
281
     1
  3
ACAD_XREC_ROUNDTRIP
360
155
  0
DICTIONARY
  5
152
330
3D
100
AcDbDictionary
280
     1
281
     1
  3
ACAD_XREC_ROUNDTRIP
360
153
  0
DICTIONARY
  5
14C
330
3A
100
AcDbDictionary
280
     1
281
     1
  3
ACAD_XREC_ROUNDTRIP
360
14D
  0
DICTIONARY
  5
14E
330
3B
100
AcDbDictionary
280
     1
281
     1
  3
ACAD_XREC_ROUNDTRIP
360
14F
  0
DICTIONARY
  5
144
330
36
100
AcDbDictionary
280
     1
281
     1
  3
ACAD_XREC_ROUNDTRIP
360
145
  0
DICTIONARY
  5
138
330
30
100
AcDbDictionary
280
     1
281
     1
  3
ACAD_XREC_ROUNDTRIP
360
139
  0
DICTIONARY
  5
150
330
3C
100
AcDbDictionary
280
     1
281
     1
  3
ACAD_XREC_ROUNDTRIP
360
151
  0
XRECORD
  5
161
102
{ACAD_REACTORS
330
160
102
}
330
160
100
AcDbXrecord
280
     1
102
DISPLAYNAME
  1
Imperial24
102
FLAGS
 90
        0
  0
XRECORD
  5
1C
102
{ACAD_REACTORS
330
1A
102
}
330
1A
100
AcDbXrecord
280
     1
270
     1
271
     1
  0
XRECORD
  5
1B
102
{ACAD_REACTORS
330
1A
102
}
330
1A
100
AcDbXrecord
280
     1
270
     1
271
     1
  0
XRECORD
  5
1F
102
{ACAD_REACTORS
330
1A
102
}
330
1A
100
AcDbXrecord
280
     1
270
     1
271
     1
  0
XRECORD
  5
1E
102
{ACAD_REACTORS
330
1A
102
}
330
1A
100
AcDbXrecord
280
     1
270
     1
271
     1
  0
XRECORD
  5
20
102
{ACAD_REACTORS
330
1A
102
}
330
1A
100
AcDbXrecord
280
     1
270
     1
271
     1
  0
XRECORD
  5
1D
102
{ACAD_REACTORS
330
1A
102
}
330
1A
100
AcDbXrecord
280
     1
270
     1
271
     1
  0
XRECORD
  5
14
102
{ACAD_REACTORS
330
12
102
}
330
12
100
AcDbXrecord
280
     1
270
     1
271
     1
  0
XRECORD
  5
13
102
{ACAD_REACTORS
330
12
102
}
330
12
100
AcDbXrecord
280
     1
270
     1
271
     1
  0
XRECORD
  5
17
102
{ACAD_REACTORS
330
12
102
}
330
12
100
AcDbXrecord
280
     1
270
     1
271
     1
  0
XRECORD
  5
16
102
{ACAD_REACTORS
330
12
102
}
330
12
100
AcDbXrecord
280
     1
270
     1
271
     1
  0
XRECORD
  5
18
102
{ACAD_REACTORS
330
12
102
}
330
12
100
AcDbXrecord
280
     1
270
     1
271
     1
  0
XRECORD
  5
15
102
{ACAD_REACTORS
330
12
102
}
330
12
100
AcDbXrecord
280
     1
270
     1
271
     1
  0
XRECORD
  5
24
102
{ACAD_REACTORS
330
22
102
}
330
22
100
AcDbXrecord
280
     1
270
     1
271
     1
  0
XRECORD
  5
23
102
{ACAD_REACTORS
330
22
102
}
330
22
100
AcDbXrecord
280
     1
270
     1
271
     1
  0
XRECORD
  5
27
102
{ACAD_REACTORS
330
22
102
}
330
22
100
AcDbXrecord
280
     1
270
     1
271
     1
  0
XRECORD
  5
26
102
{ACAD_REACTORS
330
22
102
}
330
22
100
AcDbXrecord
280
     1
270
     1
271
     1
  0
XRECORD
  5
28
102
{ACAD_REACTORS
330
22
102
}
330
22
100
AcDbXrecord
280
     1
270
     1
271
     1
  0
XRECORD
  5
25
102
{ACAD_REACTORS
330
22
102
}
330
22
100
AcDbXrecord
280
     1
270
     1
271
     1
  0
XRECORD
  5
15D
102
{ACAD_REACTORS
330
15C
102
}
330
15C
100
AcDbXrecord
280
     1
102
ACAD_ROUNDTRIP_2012_MLEADER_STYLE
298
     1
  0
XRECORD
  5
15F
102
{ACAD_REACTORS
330
15E
102
}
330
15E
100
AcDbXrecord
280
     1
102
DISPLAYNAME
  1
Imperial24
102
FLAGS
 90
        0
  0
CELLSTYLEMAP
  5
12A
102
{ACAD_REACTORS
330
129
102
}
330
129
100
AcDbCellStyleMap
 90
        3
300
CELLSTYLE
  1
TABLEFORMAT_BEGIN
 90
        5
170
     1
 91
        0
 92
    32768
 62
   257
 93
        1
300
CONTENTFORMAT
  1
CONTENTFORMAT_BEGIN
 90
        0
 91
        0
 92
      512
 93
        0
300

 40
0.0
140
1.0
 94
        5
 62
     0
340
55
144
0.25
309
CONTENTFORMAT_END
171
     0
 94
        0
309
TABLEFORMAT_END
  1
CELLSTYLE_BEGIN
 90
        1
 91
        1
300
_TITLE
309
CELLSTYLE_END
300
CELLSTYLE
  1
TABLEFORMAT_BEGIN
 90
        5
170
     1
 91
        0
 92
        0
 62
   257
 93
        1
300
CONTENTFORMAT
  1
CONTENTFORMAT_BEGIN
 90
        0
 91
        0
 92
      512
 93
        0
300

 40
0.0
140
1.0
 94
        5
 62
     0
340
55
144
0.18
309
CONTENTFORMAT_END
171
     0
 94
        0
309
TABLEFORMAT_END
  1
CELLSTYLE_BEGIN
 90
        2
 91
        1
300
_HEADER
309
CELLSTYLE_END
300
CELLSTYLE
  1
TABLEFORMAT_BEGIN
 90
        5
170
     1
 91
        0
 92
        0
 62
   257
 93
        1
300
CONTENTFORMAT
  1
CONTENTFORMAT_BEGIN
 90
        0
 91
        0
 92
      512
 93
        0
300

 40
0.0
140
1.0
 94
        2
 62
     0
340
55
144
0.18
309
CONTENTFORMAT_END
171
     0
 94
        0
309
TABLEFORMAT_END
  1
CELLSTYLE_BEGIN
 90
        3
 91
        2
300
_DATA
309
CELLSTYLE_END
  0
XRECORD
  5
137
102
{ACAD_REACTORS
330
136
102
}
330
136
100
AcDbXrecord
280
     1
102
RTVSPost2010Prop28
280
     1
102
RTVSPost2010PropOp28
 70
     1
102
RTVSPost2010Prop29
280
     1
102
RTVSPost2010PropOp29
 70
     1
102
RTVSPost2010Prop30
280
     0
102
RTVSPost2010PropOp30
 70
     1
102
RTVSPost2010Prop31
280
     0
102
RTVSPost2010PropOp31
 70
     1
102
RTVSPost2010Prop32
280
     0
102
RTVSPost2010PropOp32
 70
     1
102
RTVSPost2010Prop33
280
     0
102
RTVSPost2010PropOp33
 70
     1
102
RTVSPost2010Prop34
280
     0
102
RTVSPost2010PropOp34
 70
     1
102
RTVSPost2010Prop35
280
     0
102
RTVSPost2010PropOp35
 70
     1
102
RTVSPost2010Prop36
280
     0
102
RTVSPost2010PropOp36
 70
     1
102
RTVSPost2010Prop37
 90
       50
102
RTVSPost2010PropOp37
 70
     1
102
RTVSPost2010Prop38
140
0.0
102
RTVSPost2010PropOp38
 70
     1
102
RTVSPost2010Prop39
140
1.0
102
RTVSPost2010PropOp39
 70
     1
102
RTVSPost2010Prop40
 90
        0
102
RTVSPost2010PropOp40
 70
     1
102
RTVSPost2010Prop41ColorIndex
 90
       18
102
RTVSPost2010Prop41ColorRGB
 90
        0
102
RTVSPost2010PropOp41
 70
     1
102
RTVSPost2010Prop42
 90
       50
102
RTVSPost2010PropOp42
 70
     1
102
RTVSPost2010Prop43
 90
        3
102
RTVSPost2010PropOp43
 70
     1
102
RTVSPost2010Prop44ColorIndex
 90
        5
102
RTVSPost2010Prop44ColorRGB
 90
      255
102
RTVSPost2010PropOp44
 70
     1
102
RTVSPost2010Prop45
280
     0
102
RTVSPost2010PropOp45
 70
     1
102
RTVSPost2010Prop46
 90
       50
102
RTVSPost2010PropOp46
 70
     1
102
RTVSPost2010Prop47
 90
       50
102
RTVSPost2010PropOp47
 70
     1
102
RTVSPost2010Prop48
 90
       50
102
RTVSPost2010PropOp48
 70
     1
102
RTVSPost2010Prop49
280
     0
102
RTVSPost2010PropOp49
 70
     1
102
RTVSPost2010Prop50
 90
       50
102
RTVSPost2010PropOp50
 70
     1
102
RTVSPost2010Prop51ColorIndex
 90
      256
102
RTVSPost2010Prop51ColorRGB
 90
-16777216
102
RTVSPost2010PropOp51
 70
     0
102
RTVSPost2010Prop52
140
1.0
102
RTVSPost2010PropOp52
 70
     0
102
RTVSPost2010Prop53
 90
        2
102
RTVSPost2010PropOp53
 70
     1
102
RTVSPost2010Prop54
  1
strokes_ogs.tif
102
RTVSPost2010PropOp54
 70
     1
102
RTVSPost2010Prop55
280
     0
102
RTVSPost2010PropOp55
 70
     1
102
RTVSPost2010Prop56
140
1.0
102
RTVSPost2010PropOp56
 70
     1
102
RTVSPost2010Prop57
140
1.0
102
RTVSPost2010PropOp57
 70
     1
  0
XRECORD
  5
135
102
{ACAD_REACTORS
330
134
102
}
330
134
100
AcDbXrecord
280
     1
102
RTVSPost2010Prop28
280
     0
102
RTVSPost2010PropOp28
 70
     1
102
RTVSPost2010Prop29
280
     1
102
RTVSPost2010PropOp29
 70
     1
102
RTVSPost2010Prop30
280
     1
102
RTVSPost2010PropOp30
 70
     1
102
RTVSPost2010Prop31
280
     0
102
RTVSPost2010PropOp31
 70
     1
102
RTVSPost2010Prop32
280
     0
102
RTVSPost2010PropOp32
 70
     1
102
RTVSPost2010Prop33
280
     0
102
RTVSPost2010PropOp33
 70
     1
102
RTVSPost2010Prop34
280
     0
102
RTVSPost2010PropOp34
 70
     1
102
RTVSPost2010Prop35
280
     0
102
RTVSPost2010PropOp35
 70
     1
102
RTVSPost2010Prop36
280
     0
102
RTVSPost2010PropOp36
 70
     1
102
RTVSPost2010Prop37
 90
       50
102
RTVSPost2010PropOp37
 70
     1
102
RTVSPost2010Prop38
140
0.0
102
RTVSPost2010PropOp38
 70
     1
102
RTVSPost2010Prop39
140
1.0
102
RTVSPost2010PropOp39
 70
     1
102
RTVSPost2010Prop40
 90
        0
102
RTVSPost2010PropOp40
 70
     1
102
RTVSPost2010Prop41ColorIndex
 90
       18
102
RTVSPost2010Prop41ColorRGB
 90
        0
102
RTVSPost2010PropOp41
 70
     1
102
RTVSPost2010Prop42
 90
       50
102
RTVSPost2010PropOp42
 70
     1
102
RTVSPost2010Prop43
 90
        3
102
RTVSPost2010PropOp43
 70
     1
102
RTVSPost2010Prop44ColorIndex
 90
        5
102
RTVSPost2010Prop44ColorRGB
 90
      255
102
RTVSPost2010PropOp44
 70
     1
102
RTVSPost2010Prop45
280
     0
102
RTVSPost2010PropOp45
 70
     1
102
RTVSPost2010Prop46
 90
       50
102
RTVSPost2010PropOp46
 70
     1
102
RTVSPost2010Prop47
 90
       50
102
RTVSPost2010PropOp47
 70
     1
102
RTVSPost2010Prop48
 90
       50
102
RTVSPost2010PropOp48
 70
     1
102
RTVSPost2010Prop49
280
     0
102
RTVSPost2010PropOp49
 70
     1
102
RTVSPost2010Prop50
 90
       50
102
RTVSPost2010PropOp50
 70
     1
102
RTVSPost2010Prop51ColorIndex
 90
      256
102
RTVSPost2010Prop51ColorRGB
 90
-16777216
102
RTVSPost2010PropOp51
 70
     0
102
RTVSPost2010Prop52
140
1.0
102
RTVSPost2010PropOp52
 70
     0
102
RTVSPost2010Prop53
 90
        2
102
RTVSPost2010PropOp53
 70
     1
102
RTVSPost2010Prop54
  1
strokes_ogs.tif
102
RTVSPost2010PropOp54
 70
     1
102
RTVSPost2010Prop55
280
     0
102
RTVSPost2010PropOp55
 70
     1
102
RTVSPost2010Prop56
140
1.0
102
RTVSPost2010PropOp56
 70
     1
102
RTVSPost2010Prop57
140
1.0
102
RTVSPost2010PropOp57
 70
     1
  0
XRECORD
  5
143
102
{ACAD_REACTORS
330
142
102
}
330
142
100
AcDbXrecord
280
     1
102
RTVSPost2010Prop28
280
     0
102
RTVSPost2010PropOp28
 70
     1
102
RTVSPost2010Prop29
280
     1
102
RTVSPost2010PropOp29
 70
     1
102
RTVSPost2010Prop30
280
     1
102
RTVSPost2010PropOp30
 70
     1
102
RTVSPost2010Prop31
280
     0
102
RTVSPost2010PropOp31
 70
     1
102
RTVSPost2010Prop32
280
     0
102
RTVSPost2010PropOp32
 70
     1
102
RTVSPost2010Prop33
280
     0
102
RTVSPost2010PropOp33
 70
     1
102
RTVSPost2010Prop34
280
     0
102
RTVSPost2010PropOp34
 70
     1
102
RTVSPost2010Prop35
280
     0
102
RTVSPost2010PropOp35
 70
     1
102
RTVSPost2010Prop36
280
     0
102
RTVSPost2010PropOp36
 70
     1
102
RTVSPost2010Prop37
 90
       50
102
RTVSPost2010PropOp37
 70
     1
102
RTVSPost2010Prop38
140
0.0
102
RTVSPost2010PropOp38
 70
     1
102
RTVSPost2010Prop39
140
1.0
102
RTVSPost2010PropOp39
 70
     1
102
RTVSPost2010Prop40
 90
        0
102
RTVSPost2010PropOp40
 70
     1
102
RTVSPost2010Prop41ColorIndex
 90
       18
102
RTVSPost2010Prop41ColorRGB
 90
        0
102
RTVSPost2010PropOp41
 70
     1
102
RTVSPost2010Prop42
 90
       50
102
RTVSPost2010PropOp42
 70
     1
102
RTVSPost2010Prop43
 90
        3
102
RTVSPost2010PropOp43
 70
     1
102
RTVSPost2010Prop44ColorIndex
 90
        5
102
RTVSPost2010Prop44ColorRGB
 90
      255
102
RTVSPost2010PropOp44
 70
     1
102
RTVSPost2010Prop45
280
     0
102
RTVSPost2010PropOp45
 70
     1
102
RTVSPost2010Prop46
 90
       50
102
RTVSPost2010PropOp46
 70
     1
102
RTVSPost2010Prop47
 90
       50
102
RTVSPost2010PropOp47
 70
     1
102
RTVSPost2010Prop48
 90
       50
102
RTVSPost2010PropOp48
 70
     1
102
RTVSPost2010Prop49
280
     0
102
RTVSPost2010PropOp49
 70
     1
102
RTVSPost2010Prop50
 90
       50
102
RTVSPost2010PropOp50
 70
     1
102
RTVSPost2010Prop51ColorIndex
 90
      256
102
RTVSPost2010Prop51ColorRGB
 90
-16777216
102
RTVSPost2010PropOp51
 70
     0
102
RTVSPost2010Prop52
140
1.0
102
RTVSPost2010PropOp52
 70
     0
102
RTVSPost2010Prop53
 90
        2
102
RTVSPost2010PropOp53
 70
     1
102
RTVSPost2010Prop54
  1
strokes_ogs.tif
102
RTVSPost2010PropOp54
 70
     1
102
RTVSPost2010Prop55
280
     0
102
RTVSPost2010PropOp55
 70
     1
102
RTVSPost2010Prop56
140
1.0
102
RTVSPost2010PropOp56
 70
     1
102
RTVSPost2010Prop57
140
1.0
102
RTVSPost2010PropOp57
 70
     1
  0
XRECORD
  5
14B
102
{ACAD_REACTORS
330
14A
102
}
330
14A
100
AcDbXrecord
280
     1
102
RTVSPost2010Prop28
280
     0
102
RTVSPost2010PropOp28
 70
     1
102
RTVSPost2010Prop29
280
     1
102
RTVSPost2010PropOp29
 70
     1
102
RTVSPost2010Prop30
280
     1
102
RTVSPost2010PropOp30
 70
     1
102
RTVSPost2010Prop31
280
     0
102
RTVSPost2010PropOp31
 70
     1
102
RTVSPost2010Prop32
280
     0
102
RTVSPost2010PropOp32
 70
     1
102
RTVSPost2010Prop33
280
     0
102
RTVSPost2010PropOp33
 70
     1
102
RTVSPost2010Prop34
280
     0
102
RTVSPost2010PropOp34
 70
     1
102
RTVSPost2010Prop35
280
     0
102
RTVSPost2010PropOp35
 70
     1
102
RTVSPost2010Prop36
280
     0
102
RTVSPost2010PropOp36
 70
     1
102
RTVSPost2010Prop37
 90
       50
102
RTVSPost2010PropOp37
 70
     1
102
RTVSPost2010Prop38
140
0.0
102
RTVSPost2010PropOp38
 70
     1
102
RTVSPost2010Prop39
140
1.0
102
RTVSPost2010PropOp39
 70
     1
102
RTVSPost2010Prop40
 90
        0
102
RTVSPost2010PropOp40
 70
     1
102
RTVSPost2010Prop41ColorIndex
 90
       18
102
RTVSPost2010Prop41ColorRGB
 90
        0
102
RTVSPost2010PropOp41
 70
     1
102
RTVSPost2010Prop42
 90
       50
102
RTVSPost2010PropOp42
 70
     1
102
RTVSPost2010Prop43
 90
        3
102
RTVSPost2010PropOp43
 70
     1
102
RTVSPost2010Prop44ColorIndex
 90
        5
102
RTVSPost2010Prop44ColorRGB
 90
      255
102
RTVSPost2010PropOp44
 70
     1
102
RTVSPost2010Prop45
280
     0
102
RTVSPost2010PropOp45
 70
     1
102
RTVSPost2010Prop46
 90
       50
102
RTVSPost2010PropOp46
 70
     1
102
RTVSPost2010Prop47
 90
       50
102
RTVSPost2010PropOp47
 70
     1
102
RTVSPost2010Prop48
 90
       50
102
RTVSPost2010PropOp48
 70
     1
102
RTVSPost2010Prop49
280
     0
102
RTVSPost2010PropOp49
 70
     1
102
RTVSPost2010Prop50
 90
       50
102
RTVSPost2010PropOp50
 70
     1
102
RTVSPost2010Prop51ColorIndex
 90
      256
102
RTVSPost2010Prop51ColorRGB
 90
-16777216
102
RTVSPost2010PropOp51
 70
     0
102
RTVSPost2010Prop52
140
1.0
102
RTVSPost2010PropOp52
 70
     0
102
RTVSPost2010Prop53
 90
        2
102
RTVSPost2010PropOp53
 70
     1
102
RTVSPost2010Prop54
  1
strokes_ogs.tif
102
RTVSPost2010PropOp54
 70
     1
102
RTVSPost2010Prop55
280
     0
102
RTVSPost2010PropOp55
 70
     1
102
RTVSPost2010Prop56
140
1.0
102
RTVSPost2010PropOp56
 70
     1
102
RTVSPost2010Prop57
140
1.0
102
RTVSPost2010PropOp57
 70
     1
  0
XRECORD
  5
13D
102
{ACAD_REACTORS
330
13C
102
}
330
13C
100
AcDbXrecord
280
     1
102
RTVSPost2010Prop28
280
     0
102
RTVSPost2010PropOp28
 70
     1
102
RTVSPost2010Prop29
280
     1
102
RTVSPost2010PropOp29
 70
     1
102
RTVSPost2010Prop30
280
     1
102
RTVSPost2010PropOp30
 70
     1
102
RTVSPost2010Prop31
280
     0
102
RTVSPost2010PropOp31
 70
     1
102
RTVSPost2010Prop32
280
     0
102
RTVSPost2010PropOp32
 70
     1
102
RTVSPost2010Prop33
280
     0
102
RTVSPost2010PropOp33
 70
     1
102
RTVSPost2010Prop34
280
     0
102
RTVSPost2010PropOp34
 70
     1
102
RTVSPost2010Prop35
280
     0
102
RTVSPost2010PropOp35
 70
     1
102
RTVSPost2010Prop36
280
     0
102
RTVSPost2010PropOp36
 70
     1
102
RTVSPost2010Prop37
 90
       50
102
RTVSPost2010PropOp37
 70
     1
102
RTVSPost2010Prop38
140
0.0
102
RTVSPost2010PropOp38
 70
     1
102
RTVSPost2010Prop39
140
1.0
102
RTVSPost2010PropOp39
 70
     1
102
RTVSPost2010Prop40
 90
        0
102
RTVSPost2010PropOp40
 70
     1
102
RTVSPost2010Prop41ColorIndex
 90
       18
102
RTVSPost2010Prop41ColorRGB
 90
        0
102
RTVSPost2010PropOp41
 70
     1
102
RTVSPost2010Prop42
 90
       50
102
RTVSPost2010PropOp42
 70
     1
102
RTVSPost2010Prop43
 90
        3
102
RTVSPost2010PropOp43
 70
     1
102
RTVSPost2010Prop44ColorIndex
 90
        5
102
RTVSPost2010Prop44ColorRGB
 90
      255
102
RTVSPost2010PropOp44
 70
     1
102
RTVSPost2010Prop45
280
     0
102
RTVSPost2010PropOp45
 70
     1
102
RTVSPost2010Prop46
 90
       50
102
RTVSPost2010PropOp46
 70
     1
102
RTVSPost2010Prop47
 90
       50
102
RTVSPost2010PropOp47
 70
     1
102
RTVSPost2010Prop48
 90
       50
102
RTVSPost2010PropOp48
 70
     1
102
RTVSPost2010Prop49
280
     0
102
RTVSPost2010PropOp49
 70
     1
102
RTVSPost2010Prop50
 90
       50
102
RTVSPost2010PropOp50
 70
     1
102
RTVSPost2010Prop51ColorIndex
 90
      256
102
RTVSPost2010Prop51ColorRGB
 90
-16777216
102
RTVSPost2010PropOp51
 70
     0
102
RTVSPost2010Prop52
140
1.0
102
RTVSPost2010PropOp52
 70
     0
102
RTVSPost2010Prop53
 90
        2
102
RTVSPost2010PropOp53
 70
     1
102
RTVSPost2010Prop54
  1
strokes_ogs.tif
102
RTVSPost2010PropOp54
 70
     1
102
RTVSPost2010Prop55
280
     0
102
RTVSPost2010PropOp55
 70
     1
102
RTVSPost2010Prop56
140
1.0
102
RTVSPost2010PropOp56
 70
     1
102
RTVSPost2010Prop57
140
1.0
102
RTVSPost2010PropOp57
 70
     1
  0
XRECORD
  5
141
102
{ACAD_REACTORS
330
140
102
}
330
140
100
AcDbXrecord
280
     1
102
RTVSPost2010Prop28
280
     0
102
RTVSPost2010PropOp28
 70
     1
102
RTVSPost2010Prop29
280
     1
102
RTVSPost2010PropOp29
 70
     1
102
RTVSPost2010Prop30
280
     1
102
RTVSPost2010PropOp30
 70
     1
102
RTVSPost2010Prop31
280
     0
102
RTVSPost2010PropOp31
 70
     1
102
RTVSPost2010Prop32
280
     0
102
RTVSPost2010PropOp32
 70
     1
102
RTVSPost2010Prop33
280
     0
102
RTVSPost2010PropOp33
 70
     1
102
RTVSPost2010Prop34
280
     0
102
RTVSPost2010PropOp34
 70
     1
102
RTVSPost2010Prop35
280
     0
102
RTVSPost2010PropOp35
 70
     1
102
RTVSPost2010Prop36
280
     0
102
RTVSPost2010PropOp36
 70
     1
102
RTVSPost2010Prop37
 90
       50
102
RTVSPost2010PropOp37
 70
     1
102
RTVSPost2010Prop38
140
0.0
102
RTVSPost2010PropOp38
 70
     1
102
RTVSPost2010Prop39
140
1.0
102
RTVSPost2010PropOp39
 70
     1
102
RTVSPost2010Prop40
 90
        0
102
RTVSPost2010PropOp40
 70
     1
102
RTVSPost2010Prop41ColorIndex
 90
       18
102
RTVSPost2010Prop41ColorRGB
 90
        0
102
RTVSPost2010PropOp41
 70
     1
102
RTVSPost2010Prop42
 90
       50
102
RTVSPost2010PropOp42
 70
     1
102
RTVSPost2010Prop43
 90
        3
102
RTVSPost2010PropOp43
 70
     1
102
RTVSPost2010Prop44ColorIndex
 90
        5
102
RTVSPost2010Prop44ColorRGB
 90
      255
102
RTVSPost2010PropOp44
 70
     1
102
RTVSPost2010Prop45
280
     0
102
RTVSPost2010PropOp45
 70
     1
102
RTVSPost2010Prop46
 90
       50
102
RTVSPost2010PropOp46
 70
     1
102
RTVSPost2010Prop47
 90
       50
102
RTVSPost2010PropOp47
 70
     1
102
RTVSPost2010Prop48
 90
       50
102
RTVSPost2010PropOp48
 70
     1
102
RTVSPost2010Prop49
280
     0
102
RTVSPost2010PropOp49
 70
     1
102
RTVSPost2010Prop50
 90
       50
102
RTVSPost2010PropOp50
 70
     1
102
RTVSPost2010Prop51ColorIndex
 90
      256
102
RTVSPost2010Prop51ColorRGB
 90
-16777216
102
RTVSPost2010PropOp51
 70
     0
102
RTVSPost2010Prop52
140
1.0
102
RTVSPost2010PropOp52
 70
     0
102
RTVSPost2010Prop53
 90
        2
102
RTVSPost2010PropOp53
 70
     1
102
RTVSPost2010Prop54
  1
strokes_ogs.tif
102
RTVSPost2010PropOp54
 70
     1
102
RTVSPost2010Prop55
280
     0
102
RTVSPost2010PropOp55
 70
     1
102
RTVSPost2010Prop56
140
1.0
102
RTVSPost2010PropOp56
 70
     1
102
RTVSPost2010Prop57
140
1.0
102
RTVSPost2010PropOp57
 70
     1
  0
XRECORD
  5
15B
102
{ACAD_REACTORS
330
15A
102
}
330
15A
100
AcDbXrecord
280
     1
102
RTVSPost2010Prop28
280
     0
102
RTVSPost2010PropOp28
 70
     0
102
RTVSPost2010Prop29
280
     1
102
RTVSPost2010PropOp29
 70
     0
102
RTVSPost2010Prop30
280
     1
102
RTVSPost2010PropOp30
 70
     0
102
RTVSPost2010Prop31
280
     0
102
RTVSPost2010PropOp31
 70
     0
102
RTVSPost2010Prop32
280
     0
102
RTVSPost2010PropOp32
 70
     0
102
RTVSPost2010Prop33
280
     0
102
RTVSPost2010PropOp33
 70
     0
102
RTVSPost2010Prop34
280
     0
102
RTVSPost2010PropOp34
 70
     0
102
RTVSPost2010Prop35
280
     0
102
RTVSPost2010PropOp35
 70
     0
102
RTVSPost2010Prop36
280
     0
102
RTVSPost2010PropOp36
 70
     0
102
RTVSPost2010Prop37
 90
       50
102
RTVSPost2010PropOp37
 70
     0
102
RTVSPost2010Prop38
140
0.0
102
RTVSPost2010PropOp38
 70
     0
102
RTVSPost2010Prop39
140
1.0
102
RTVSPost2010PropOp39
 70
     0
102
RTVSPost2010Prop40
 90
        0
102
RTVSPost2010PropOp40
 70
     0
102
RTVSPost2010Prop41ColorIndex
 90
       18
102
RTVSPost2010Prop41ColorRGB
 90
        0
102
RTVSPost2010PropOp41
 70
     0
102
RTVSPost2010Prop42
 90
       50
102
RTVSPost2010PropOp42
 70
     0
102
RTVSPost2010Prop43
 90
        3
102
RTVSPost2010PropOp43
 70
     0
102
RTVSPost2010Prop44ColorIndex
 90
        5
102
RTVSPost2010Prop44ColorRGB
 90
      255
102
RTVSPost2010PropOp44
 70
     0
102
RTVSPost2010Prop45
280
     0
102
RTVSPost2010PropOp45
 70
     0
102
RTVSPost2010Prop46
 90
       50
102
RTVSPost2010PropOp46
 70
     0
102
RTVSPost2010Prop47
 90
       50
102
RTVSPost2010PropOp47
 70
     0
102
RTVSPost2010Prop48
 90
       50
102
RTVSPost2010PropOp48
 70
     0
102
RTVSPost2010Prop49
280
     0
102
RTVSPost2010PropOp49
 70
     0
102
RTVSPost2010Prop50
 90
       50
102
RTVSPost2010PropOp50
 70
     0
102
RTVSPost2010Prop51ColorIndex
 90
      256
102
RTVSPost2010Prop51ColorRGB
 90
-16777216
102
RTVSPost2010PropOp51
 70
     0
102
RTVSPost2010Prop52
140
1.0
102
RTVSPost2010PropOp52
 70
     0
102
RTVSPost2010Prop53
 90
        2
102
RTVSPost2010PropOp53
 70
     0
102
RTVSPost2010Prop54
  1
strokes_ogs.tif
102
RTVSPost2010PropOp54
 70
     0
102
RTVSPost2010Prop55
280
     0
102
RTVSPost2010PropOp55
 70
     0
102
RTVSPost2010Prop56
140
1.0
102
RTVSPost2010PropOp56
 70
     0
102
RTVSPost2010Prop57
140
1.0
102
RTVSPost2010PropOp57
 70
     0
  0
XRECORD
  5
149
102
{ACAD_REACTORS
330
148
102
}
330
148
100
AcDbXrecord
280
     1
102
RTVSPost2010Prop28
280
     0
102
RTVSPost2010PropOp28
 70
     1
102
RTVSPost2010Prop29
280
     1
102
RTVSPost2010PropOp29
 70
     1
102
RTVSPost2010Prop30
280
     1
102
RTVSPost2010PropOp30
 70
     1
102
RTVSPost2010Prop31
280
     0
102
RTVSPost2010PropOp31
 70
     1
102
RTVSPost2010Prop32
280
     0
102
RTVSPost2010PropOp32
 70
     1
102
RTVSPost2010Prop33
280
     0
102
RTVSPost2010PropOp33
 70
     1
102
RTVSPost2010Prop34
280
     0
102
RTVSPost2010PropOp34
 70
     1
102
RTVSPost2010Prop35
280
     0
102
RTVSPost2010PropOp35
 70
     1
102
RTVSPost2010Prop36
280
     0
102
RTVSPost2010PropOp36
 70
     1
102
RTVSPost2010Prop37
 90
       50
102
RTVSPost2010PropOp37
 70
     1
102
RTVSPost2010Prop38
140
0.0
102
RTVSPost2010PropOp38
 70
     1
102
RTVSPost2010Prop39
140
1.0
102
RTVSPost2010PropOp39
 70
     1
102
RTVSPost2010Prop40
 90
        0
102
RTVSPost2010PropOp40
 70
     1
102
RTVSPost2010Prop41ColorIndex
 90
       18
102
RTVSPost2010Prop41ColorRGB
 90
        0
102
RTVSPost2010PropOp41
 70
     1
102
RTVSPost2010Prop42
 90
       50
102
RTVSPost2010PropOp42
 70
     1
102
RTVSPost2010Prop43
 90
        3
102
RTVSPost2010PropOp43
 70
     1
102
RTVSPost2010Prop44ColorIndex
 90
        5
102
RTVSPost2010Prop44ColorRGB
 90
      255
102
RTVSPost2010PropOp44
 70
     1
102
RTVSPost2010Prop45
280
     0
102
RTVSPost2010PropOp45
 70
     1
102
RTVSPost2010Prop46
 90
       50
102
RTVSPost2010PropOp46
 70
     1
102
RTVSPost2010Prop47
 90
       50
102
RTVSPost2010PropOp47
 70
     1
102
RTVSPost2010Prop48
 90
       50
102
RTVSPost2010PropOp48
 70
     1
102
RTVSPost2010Prop49
280
     0
102
RTVSPost2010PropOp49
 70
     1
102
RTVSPost2010Prop50
 90
       50
102
RTVSPost2010PropOp50
 70
     1
102
RTVSPost2010Prop51ColorIndex
 90
      256
102
RTVSPost2010Prop51ColorRGB
 90
-16777216
102
RTVSPost2010PropOp51
 70
     0
102
RTVSPost2010Prop52
140
1.0
102
RTVSPost2010PropOp52
 70
     0
102
RTVSPost2010Prop53
 90
        2
102
RTVSPost2010PropOp53
 70
     1
102
RTVSPost2010Prop54
  1
strokes_ogs.tif
102
RTVSPost2010PropOp54
 70
     1
102
RTVSPost2010Prop55
280
     0
102
RTVSPost2010PropOp55
 70
     1
102
RTVSPost2010Prop56
140
1.0
102
RTVSPost2010PropOp56
 70
     1
102
RTVSPost2010Prop57
140
1.0
102
RTVSPost2010PropOp57
 70
     1
  0
XRECORD
  5
12D
102
{ACAD_REACTORS
330
12C
102
}
330
12C
100
AcDbXrecord
280
     1
102
RTVSPost2010Prop28
280
     0
102
RTVSPost2010PropOp28
 70
     1
102
RTVSPost2010Prop29
280
     1
102
RTVSPost2010PropOp29
 70
     1
102
RTVSPost2010Prop30
280
     1
102
RTVSPost2010PropOp30
 70
     1
102
RTVSPost2010Prop31
280
     0
102
RTVSPost2010PropOp31
 70
     1
102
RTVSPost2010Prop32
280
     0
102
RTVSPost2010PropOp32
 70
     1
102
RTVSPost2010Prop33
280
     0
102
RTVSPost2010PropOp33
 70
     1
102
RTVSPost2010Prop34
280
     0
102
RTVSPost2010PropOp34
 70
     1
102
RTVSPost2010Prop35
280
     0
102
RTVSPost2010PropOp35
 70
     1
102
RTVSPost2010Prop36
280
     0
102
RTVSPost2010PropOp36
 70
     1
102
RTVSPost2010Prop37
 90
       50
102
RTVSPost2010PropOp37
 70
     1
102
RTVSPost2010Prop38
140
0.0
102
RTVSPost2010PropOp38
 70
     1
102
RTVSPost2010Prop39
140
1.0
102
RTVSPost2010PropOp39
 70
     1
102
RTVSPost2010Prop40
 90
        0
102
RTVSPost2010PropOp40
 70
     1
102
RTVSPost2010Prop41ColorIndex
 90
       18
102
RTVSPost2010Prop41ColorRGB
 90
        0
102
RTVSPost2010PropOp41
 70
     1
102
RTVSPost2010Prop42
 90
       50
102
RTVSPost2010PropOp42
 70
     1
102
RTVSPost2010Prop43
 90
        3
102
RTVSPost2010PropOp43
 70
     1
102
RTVSPost2010Prop44ColorIndex
 90
        5
102
RTVSPost2010Prop44ColorRGB
 90
      255
102
RTVSPost2010PropOp44
 70
     1
102
RTVSPost2010Prop45
280
     0
102
RTVSPost2010PropOp45
 70
     1
102
RTVSPost2010Prop46
 90
       50
102
RTVSPost2010PropOp46
 70
     1
102
RTVSPost2010Prop47
 90
       50
102
RTVSPost2010PropOp47
 70
     1
102
RTVSPost2010Prop48
 90
       50
102
RTVSPost2010PropOp48
 70
     1
102
RTVSPost2010Prop49
280
     0
102
RTVSPost2010PropOp49
 70
     1
102
RTVSPost2010Prop50
 90
       50
102
RTVSPost2010PropOp50
 70
     1
102
RTVSPost2010Prop51ColorIndex
 90
      256
102
RTVSPost2010Prop51ColorRGB
 90
-16777216
102
RTVSPost2010PropOp51
 70
     0
102
RTVSPost2010Prop52
140
1.0
102
RTVSPost2010PropOp52
 70
     0
102
RTVSPost2010Prop53
 90
        2
102
RTVSPost2010PropOp53
 70
     1
102
RTVSPost2010Prop54
  1
strokes_ogs.tif
102
RTVSPost2010PropOp54
 70
     1
102
RTVSPost2010Prop55
280
     0
102
RTVSPost2010PropOp55
 70
     1
102
RTVSPost2010Prop56
140
1.0
102
RTVSPost2010PropOp56
 70
     1
102
RTVSPost2010Prop57
140
1.0
102
RTVSPost2010PropOp57
 70
     1
  0
XRECORD
  5
12F
102
{ACAD_REACTORS
330
12E
102
}
330
12E
100
AcDbXrecord
280
     1
102
RTVSPost2010Prop28
280
     0
102
RTVSPost2010PropOp28
 70
     1
102
RTVSPost2010Prop29
280
     1
102
RTVSPost2010PropOp29
 70
     1
102
RTVSPost2010Prop30
280
     1
102
RTVSPost2010PropOp30
 70
     1
102
RTVSPost2010Prop31
280
     0
102
RTVSPost2010PropOp31
 70
     1
102
RTVSPost2010Prop32
280
     0
102
RTVSPost2010PropOp32
 70
     1
102
RTVSPost2010Prop33
280
     0
102
RTVSPost2010PropOp33
 70
     1
102
RTVSPost2010Prop34
280
     0
102
RTVSPost2010PropOp34
 70
     1
102
RTVSPost2010Prop35
280
     0
102
RTVSPost2010PropOp35
 70
     1
102
RTVSPost2010Prop36
280
     0
102
RTVSPost2010PropOp36
 70
     1
102
RTVSPost2010Prop37
 90
       50
102
RTVSPost2010PropOp37
 70
     1
102
RTVSPost2010Prop38
140
0.0
102
RTVSPost2010PropOp38
 70
     1
102
RTVSPost2010Prop39
140
1.0
102
RTVSPost2010PropOp39
 70
     1
102
RTVSPost2010Prop40
 90
        0
102
RTVSPost2010PropOp40
 70
     1
102
RTVSPost2010Prop41ColorIndex
 90
       18
102
RTVSPost2010Prop41ColorRGB
 90
        0
102
RTVSPost2010PropOp41
 70
     1
102
RTVSPost2010Prop42
 90
       50
102
RTVSPost2010PropOp42
 70
     1
102
RTVSPost2010Prop43
 90
        3
102
RTVSPost2010PropOp43
 70
     1
102
RTVSPost2010Prop44ColorIndex
 90
        5
102
RTVSPost2010Prop44ColorRGB
 90
      255
102
RTVSPost2010PropOp44
 70
     1
102
RTVSPost2010Prop45
280
     0
102
RTVSPost2010PropOp45
 70
     1
102
RTVSPost2010Prop46
 90
       50
102
RTVSPost2010PropOp46
 70
     1
102
RTVSPost2010Prop47
 90
       50
102
RTVSPost2010PropOp47
 70
     1
102
RTVSPost2010Prop48
 90
       50
102
RTVSPost2010PropOp48
 70
     1
102
RTVSPost2010Prop49
280
     0
102
RTVSPost2010PropOp49
 70
     1
102
RTVSPost2010Prop50
 90
       50
102
RTVSPost2010PropOp50
 70
     1
102
RTVSPost2010Prop51ColorIndex
 90
      256
102
RTVSPost2010Prop51ColorRGB
 90
-16777216
102
RTVSPost2010PropOp51
 70
     0
102
RTVSPost2010Prop52
140
1.0
102
RTVSPost2010PropOp52
 70
     0
102
RTVSPost2010Prop53
 90
        2
102
RTVSPost2010PropOp53
 70
     1
102
RTVSPost2010Prop54
  1
strokes_ogs.tif
102
RTVSPost2010PropOp54
 70
     1
102
RTVSPost2010Prop55
280
     0
102
RTVSPost2010PropOp55
 70
     1
102
RTVSPost2010Prop56
140
1.0
102
RTVSPost2010PropOp56
 70
     1
102
RTVSPost2010Prop57
140
1.0
102
RTVSPost2010PropOp57
 70
     1
  0
XRECORD
  5
131
102
{ACAD_REACTORS
330
130
102
}
330
130
100
AcDbXrecord
280
     1
102
RTVSPost2010Prop28
280
     0
102
RTVSPost2010PropOp28
 70
     1
102
RTVSPost2010Prop29
280
     1
102
RTVSPost2010PropOp29
 70
     1
102
RTVSPost2010Prop30
280
     1
102
RTVSPost2010PropOp30
 70
     1
102
RTVSPost2010Prop31
280
     0
102
RTVSPost2010PropOp31
 70
     1
102
RTVSPost2010Prop32
280
     0
102
RTVSPost2010PropOp32
 70
     1
102
RTVSPost2010Prop33
280
     0
102
RTVSPost2010PropOp33
 70
     1
102
RTVSPost2010Prop34
280
     0
102
RTVSPost2010PropOp34
 70
     1
102
RTVSPost2010Prop35
280
     0
102
RTVSPost2010PropOp35
 70
     1
102
RTVSPost2010Prop36
280
     0
102
RTVSPost2010PropOp36
 70
     1
102
RTVSPost2010Prop37
 90
       50
102
RTVSPost2010PropOp37
 70
     1
102
RTVSPost2010Prop38
140
0.0
102
RTVSPost2010PropOp38
 70
     1
102
RTVSPost2010Prop39
140
1.0
102
RTVSPost2010PropOp39
 70
     1
102
RTVSPost2010Prop40
 90
        0
102
RTVSPost2010PropOp40
 70
     1
102
RTVSPost2010Prop41ColorIndex
 90
       18
102
RTVSPost2010Prop41ColorRGB
 90
        0
102
RTVSPost2010PropOp41
 70
     1
102
RTVSPost2010Prop42
 90
       50
102
RTVSPost2010PropOp42
 70
     1
102
RTVSPost2010Prop43
 90
        3
102
RTVSPost2010PropOp43
 70
     1
102
RTVSPost2010Prop44ColorIndex
 90
        5
102
RTVSPost2010Prop44ColorRGB
 90
      255
102
RTVSPost2010PropOp44
 70
     1
102
RTVSPost2010Prop45
280
     0
102
RTVSPost2010PropOp45
 70
     1
102
RTVSPost2010Prop46
 90
       50
102
RTVSPost2010PropOp46
 70
     1
102
RTVSPost2010Prop47
 90
       50
102
RTVSPost2010PropOp47
 70
     1
102
RTVSPost2010Prop48
 90
       50
102
RTVSPost2010PropOp48
 70
     1
102
RTVSPost2010Prop49
280
     0
102
RTVSPost2010PropOp49
 70
     1
102
RTVSPost2010Prop50
 90
       50
102
RTVSPost2010PropOp50
 70
     1
102
RTVSPost2010Prop51ColorIndex
 90
      256
102
RTVSPost2010Prop51ColorRGB
 90
-16777216
102
RTVSPost2010PropOp51
 70
     0
102
RTVSPost2010Prop52
140
1.0
102
RTVSPost2010PropOp52
 70
     0
102
RTVSPost2010Prop53
 90
        2
102
RTVSPost2010PropOp53
 70
     1
102
RTVSPost2010Prop54
  1
strokes_ogs.tif
102
RTVSPost2010PropOp54
 70
     1
102
RTVSPost2010Prop55
280
     0
102
RTVSPost2010PropOp55
 70
     1
102
RTVSPost2010Prop56
140
1.0
102
RTVSPost2010PropOp56
 70
     1
102
RTVSPost2010Prop57
140
1.0
102
RTVSPost2010PropOp57
 70
     1
  0
XRECORD
  5
133
102
{ACAD_REACTORS
330
132
102
}
330
132
100
AcDbXrecord
280
     1
102
RTVSPost2010Prop28
280
     0
102
RTVSPost2010PropOp28
 70
     1
102
RTVSPost2010Prop29
280
     1
102
RTVSPost2010PropOp29
 70
     1
102
RTVSPost2010Prop30
280
     1
102
RTVSPost2010PropOp30
 70
     1
102
RTVSPost2010Prop31
280
     0
102
RTVSPost2010PropOp31
 70
     1
102
RTVSPost2010Prop32
280
     0
102
RTVSPost2010PropOp32
 70
     1
102
RTVSPost2010Prop33
280
     0
102
RTVSPost2010PropOp33
 70
     1
102
RTVSPost2010Prop34
280
     0
102
RTVSPost2010PropOp34
 70
     1
102
RTVSPost2010Prop35
280
     0
102
RTVSPost2010PropOp35
 70
     1
102
RTVSPost2010Prop36
280
     0
102
RTVSPost2010PropOp36
 70
     1
102
RTVSPost2010Prop37
 90
       50
102
RTVSPost2010PropOp37
 70
     1
102
RTVSPost2010Prop38
140
0.0
102
RTVSPost2010PropOp38
 70
     1
102
RTVSPost2010Prop39
140
1.0
102
RTVSPost2010PropOp39
 70
     1
102
RTVSPost2010Prop40
 90
        0
102
RTVSPost2010PropOp40
 70
     1
102
RTVSPost2010Prop41ColorIndex
 90
       18
102
RTVSPost2010Prop41ColorRGB
 90
        0
102
RTVSPost2010PropOp41
 70
     1
102
RTVSPost2010Prop42
 90
       50
102
RTVSPost2010PropOp42
 70
     1
102
RTVSPost2010Prop43
 90
        3
102
RTVSPost2010PropOp43
 70
     1
102
RTVSPost2010Prop44ColorIndex
 90
        5
102
RTVSPost2010Prop44ColorRGB
 90
      255
102
RTVSPost2010PropOp44
 70
     1
102
RTVSPost2010Prop45
280
     0
102
RTVSPost2010PropOp45
 70
     1
102
RTVSPost2010Prop46
 90
       50
102
RTVSPost2010PropOp46
 70
     1
102
RTVSPost2010Prop47
 90
       50
102
RTVSPost2010PropOp47
 70
     1
102
RTVSPost2010Prop48
 90
       50
102
RTVSPost2010PropOp48
 70
     1
102
RTVSPost2010Prop49
280
     0
102
RTVSPost2010PropOp49
 70
     1
102
RTVSPost2010Prop50
 90
       50
102
RTVSPost2010PropOp50
 70
     1
102
RTVSPost2010Prop51ColorIndex
 90
      256
102
RTVSPost2010Prop51ColorRGB
 90
-16777216
102
RTVSPost2010PropOp51
 70
     0
102
RTVSPost2010Prop52
140
1.0
102
RTVSPost2010PropOp52
 70
     0
102
RTVSPost2010Prop53
 90
        2
102
RTVSPost2010PropOp53
 70
     1
102
RTVSPost2010Prop54
  1
strokes_ogs.tif
102
RTVSPost2010PropOp54
 70
     1
102
RTVSPost2010Prop55
280
     0
102
RTVSPost2010PropOp55
 70
     1
102
RTVSPost2010Prop56
140
1.0
102
RTVSPost2010PropOp56
 70
     1
102
RTVSPost2010Prop57
140
1.0
102
RTVSPost2010PropOp57
 70
     1
  0
XRECORD
  5
13B
102
{ACAD_REACTORS
330
13A
102
}
330
13A
100
AcDbXrecord
280
     1
102
RTVSPost2010Prop28
280
     0
102
RTVSPost2010PropOp28
 70
     1
102
RTVSPost2010Prop29
280
     1
102
RTVSPost2010PropOp29
 70
     1
102
RTVSPost2010Prop30
280
     1
102
RTVSPost2010PropOp30
 70
     1
102
RTVSPost2010Prop31
280
     0
102
RTVSPost2010PropOp31
 70
     1
102
RTVSPost2010Prop32
280
     0
102
RTVSPost2010PropOp32
 70
     1
102
RTVSPost2010Prop33
280
     0
102
RTVSPost2010PropOp33
 70
     1
102
RTVSPost2010Prop34
280
     0
102
RTVSPost2010PropOp34
 70
     1
102
RTVSPost2010Prop35
280
     0
102
RTVSPost2010PropOp35
 70
     1
102
RTVSPost2010Prop36
280
     0
102
RTVSPost2010PropOp36
 70
     1
102
RTVSPost2010Prop37
 90
       50
102
RTVSPost2010PropOp37
 70
     1
102
RTVSPost2010Prop38
140
0.0
102
RTVSPost2010PropOp38
 70
     1
102
RTVSPost2010Prop39
140
1.0
102
RTVSPost2010PropOp39
 70
     1
102
RTVSPost2010Prop40
 90
        0
102
RTVSPost2010PropOp40
 70
     1
102
RTVSPost2010Prop41ColorIndex
 90
       18
102
RTVSPost2010Prop41ColorRGB
 90
        0
102
RTVSPost2010PropOp41
 70
     1
102
RTVSPost2010Prop42
 90
       50
102
RTVSPost2010PropOp42
 70
     1
102
RTVSPost2010Prop43
 90
        3
102
RTVSPost2010PropOp43
 70
     1
102
RTVSPost2010Prop44ColorIndex
 90
        5
102
RTVSPost2010Prop44ColorRGB
 90
      255
102
RTVSPost2010PropOp44
 70
     1
102
RTVSPost2010Prop45
280
     0
102
RTVSPost2010PropOp45
 70
     1
102
RTVSPost2010Prop46
 90
       50
102
RTVSPost2010PropOp46
 70
     1
102
RTVSPost2010Prop47
 90
       50
102
RTVSPost2010PropOp47
 70
     1
102
RTVSPost2010Prop48
 90
       50
102
RTVSPost2010PropOp48
 70
     1
102
RTVSPost2010Prop49
280
     0
102
RTVSPost2010PropOp49
 70
     1
102
RTVSPost2010Prop50
 90
       50
102
RTVSPost2010PropOp50
 70
     1
102
RTVSPost2010Prop51ColorIndex
 90
      256
102
RTVSPost2010Prop51ColorRGB
 90
-16777216
102
RTVSPost2010PropOp51
 70
     0
102
RTVSPost2010Prop52
140
1.0
102
RTVSPost2010PropOp52
 70
     0
102
RTVSPost2010Prop53
 90
        2
102
RTVSPost2010PropOp53
 70
     1
102
RTVSPost2010Prop54
  1
strokes_ogs.tif
102
RTVSPost2010PropOp54
 70
     1
102
RTVSPost2010Prop55
280
     0
102
RTVSPost2010PropOp55
 70
     1
102
RTVSPost2010Prop56
140
1.0
102
RTVSPost2010PropOp56
 70
     1
102
RTVSPost2010Prop57
140
1.0
102
RTVSPost2010PropOp57
 70
     1
  0
XRECORD
  5
157
102
{ACAD_REACTORS
330
156
102
}
330
156
100
AcDbXrecord
280
     1
102
RTVSPost2010Prop28
280
     0
102
RTVSPost2010PropOp28
 70
     0
102
RTVSPost2010Prop29
280
     1
102
RTVSPost2010PropOp29
 70
     0
102
RTVSPost2010Prop30
280
     1
102
RTVSPost2010PropOp30
 70
     0
102
RTVSPost2010Prop31
280
     0
102
RTVSPost2010PropOp31
 70
     0
102
RTVSPost2010Prop32
280
     0
102
RTVSPost2010PropOp32
 70
     0
102
RTVSPost2010Prop33
280
     0
102
RTVSPost2010PropOp33
 70
     0
102
RTVSPost2010Prop34
280
     0
102
RTVSPost2010PropOp34
 70
     0
102
RTVSPost2010Prop35
280
     0
102
RTVSPost2010PropOp35
 70
     0
102
RTVSPost2010Prop36
280
     0
102
RTVSPost2010PropOp36
 70
     0
102
RTVSPost2010Prop37
 90
       50
102
RTVSPost2010PropOp37
 70
     0
102
RTVSPost2010Prop38
140
0.0
102
RTVSPost2010PropOp38
 70
     0
102
RTVSPost2010Prop39
140
1.0
102
RTVSPost2010PropOp39
 70
     0
102
RTVSPost2010Prop40
 90
        0
102
RTVSPost2010PropOp40
 70
     0
102
RTVSPost2010Prop41ColorIndex
 90
       18
102
RTVSPost2010Prop41ColorRGB
 90
        0
102
RTVSPost2010PropOp41
 70
     0
102
RTVSPost2010Prop42
 90
       50
102
RTVSPost2010PropOp42
 70
     0
102
RTVSPost2010Prop43
 90
        3
102
RTVSPost2010PropOp43
 70
     0
102
RTVSPost2010Prop44ColorIndex
 90
        5
102
RTVSPost2010Prop44ColorRGB
 90
      255
102
RTVSPost2010PropOp44
 70
     0
102
RTVSPost2010Prop45
280
     0
102
RTVSPost2010PropOp45
 70
     0
102
RTVSPost2010Prop46
 90
       50
102
RTVSPost2010PropOp46
 70
     0
102
RTVSPost2010Prop47
 90
       50
102
RTVSPost2010PropOp47
 70
     0
102
RTVSPost2010Prop48
 90
       50
102
RTVSPost2010PropOp48
 70
     0
102
RTVSPost2010Prop49
280
     0
102
RTVSPost2010PropOp49
 70
     0
102
RTVSPost2010Prop50
 90
       50
102
RTVSPost2010PropOp50
 70
     0
102
RTVSPost2010Prop51ColorIndex
 90
      256
102
RTVSPost2010Prop51ColorRGB
 90
-16777216
102
RTVSPost2010PropOp51
 70
     0
102
RTVSPost2010Prop52
140
1.0
102
RTVSPost2010PropOp52
 70
     0
102
RTVSPost2010Prop53
 90
        2
102
RTVSPost2010PropOp53
 70
     0
102
RTVSPost2010Prop54
  1
strokes_ogs.tif
102
RTVSPost2010PropOp54
 70
     0
102
RTVSPost2010Prop55
280
     0
102
RTVSPost2010PropOp55
 70
     0
102
RTVSPost2010Prop56
140
1.0
102
RTVSPost2010PropOp56
 70
     0
102
RTVSPost2010Prop57
140
1.0
102
RTVSPost2010PropOp57
 70
     0
  0
XRECORD
  5
147
102
{ACAD_REACTORS
330
146
102
}
330
146
100
AcDbXrecord
280
     1
102
RTVSPost2010Prop28
280
     0
102
RTVSPost2010PropOp28
 70
     1
102
RTVSPost2010Prop29
280
     1
102
RTVSPost2010PropOp29
 70
     1
102
RTVSPost2010Prop30
280
     1
102
RTVSPost2010PropOp30
 70
     1
102
RTVSPost2010Prop31
280
     0
102
RTVSPost2010PropOp31
 70
     1
102
RTVSPost2010Prop32
280
     0
102
RTVSPost2010PropOp32
 70
     1
102
RTVSPost2010Prop33
280
     0
102
RTVSPost2010PropOp33
 70
     1
102
RTVSPost2010Prop34
280
     0
102
RTVSPost2010PropOp34
 70
     1
102
RTVSPost2010Prop35
280
     0
102
RTVSPost2010PropOp35
 70
     1
102
RTVSPost2010Prop36
280
     0
102
RTVSPost2010PropOp36
 70
     1
102
RTVSPost2010Prop37
 90
       50
102
RTVSPost2010PropOp37
 70
     1
102
RTVSPost2010Prop38
140
0.0
102
RTVSPost2010PropOp38
 70
     1
102
RTVSPost2010Prop39
140
1.0
102
RTVSPost2010PropOp39
 70
     1
102
RTVSPost2010Prop40
 90
        0
102
RTVSPost2010PropOp40
 70
     1
102
RTVSPost2010Prop41ColorIndex
 90
       18
102
RTVSPost2010Prop41ColorRGB
 90
        0
102
RTVSPost2010PropOp41
 70
     1
102
RTVSPost2010Prop42
 90
       50
102
RTVSPost2010PropOp42
 70
     1
102
RTVSPost2010Prop43
 90
        3
102
RTVSPost2010PropOp43
 70
     1
102
RTVSPost2010Prop44ColorIndex
 90
        5
102
RTVSPost2010Prop44ColorRGB
 90
      255
102
RTVSPost2010PropOp44
 70
     1
102
RTVSPost2010Prop45
280
     0
102
RTVSPost2010PropOp45
 70
     1
102
RTVSPost2010Prop46
 90
       50
102
RTVSPost2010PropOp46
 70
     1
102
RTVSPost2010Prop47
 90
       50
102
RTVSPost2010PropOp47
 70
     1
102
RTVSPost2010Prop48
 90
       50
102
RTVSPost2010PropOp48
 70
     1
102
RTVSPost2010Prop49
280
     0
102
RTVSPost2010PropOp49
 70
     1
102
RTVSPost2010Prop50
 90
       50
102
RTVSPost2010PropOp50
 70
     1
102
RTVSPost2010Prop51ColorIndex
 90
      256
102
RTVSPost2010Prop51ColorRGB
 90
-16777216
102
RTVSPost2010PropOp51
 70
     0
102
RTVSPost2010Prop52
140
1.0
102
RTVSPost2010PropOp52
 70
     0
102
RTVSPost2010Prop53
 90
        2
102
RTVSPost2010PropOp53
 70
     1
102
RTVSPost2010Prop54
  1
strokes_ogs.tif
102
RTVSPost2010PropOp54
 70
     1
102
RTVSPost2010Prop55
280
     0
102
RTVSPost2010PropOp55
 70
     1
102
RTVSPost2010Prop56
140
1.0
102
RTVSPost2010PropOp56
 70
     1
102
RTVSPost2010Prop57
140
1.0
102
RTVSPost2010PropOp57
 70
     1
  0
XRECORD
  5
159
102
{ACAD_REACTORS
330
158
102
}
330
158
100
AcDbXrecord
280
     1
102
RTVSPost2010Prop28
280
     0
102
RTVSPost2010PropOp28
 70
     0
102
RTVSPost2010Prop29
280
     1
102
RTVSPost2010PropOp29
 70
     0
102
RTVSPost2010Prop30
280
     1
102
RTVSPost2010PropOp30
 70
     0
102
RTVSPost2010Prop31
280
     0
102
RTVSPost2010PropOp31
 70
     0
102
RTVSPost2010Prop32
280
     0
102
RTVSPost2010PropOp32
 70
     0
102
RTVSPost2010Prop33
280
     0
102
RTVSPost2010PropOp33
 70
     0
102
RTVSPost2010Prop34
280
     0
102
RTVSPost2010PropOp34
 70
     0
102
RTVSPost2010Prop35
280
     0
102
RTVSPost2010PropOp35
 70
     0
102
RTVSPost2010Prop36
280
     0
102
RTVSPost2010PropOp36
 70
     0
102
RTVSPost2010Prop37
 90
       50
102
RTVSPost2010PropOp37
 70
     0
102
RTVSPost2010Prop38
140
0.0
102
RTVSPost2010PropOp38
 70
     0
102
RTVSPost2010Prop39
140
1.0
102
RTVSPost2010PropOp39
 70
     0
102
RTVSPost2010Prop40
 90
        0
102
RTVSPost2010PropOp40
 70
     0
102
RTVSPost2010Prop41ColorIndex
 90
       18
102
RTVSPost2010Prop41ColorRGB
 90
        0
102
RTVSPost2010PropOp41
 70
     0
102
RTVSPost2010Prop42
 90
       50
102
RTVSPost2010PropOp42
 70
     0
102
RTVSPost2010Prop43
 90
        3
102
RTVSPost2010PropOp43
 70
     0
102
RTVSPost2010Prop44ColorIndex
 90
        5
102
RTVSPost2010Prop44ColorRGB
 90
      255
102
RTVSPost2010PropOp44
 70
     0
102
RTVSPost2010Prop45
280
     0
102
RTVSPost2010PropOp45
 70
     0
102
RTVSPost2010Prop46
 90
       50
102
RTVSPost2010PropOp46
 70
     0
102
RTVSPost2010Prop47
 90
       50
102
RTVSPost2010PropOp47
 70
     0
102
RTVSPost2010Prop48
 90
       50
102
RTVSPost2010PropOp48
 70
     0
102
RTVSPost2010Prop49
280
     0
102
RTVSPost2010PropOp49
 70
     0
102
RTVSPost2010Prop50
 90
       50
102
RTVSPost2010PropOp50
 70
     0
102
RTVSPost2010Prop51ColorIndex
 90
      256
102
RTVSPost2010Prop51ColorRGB
 90
-16777216
102
RTVSPost2010PropOp51
 70
     0
102
RTVSPost2010Prop52
140
1.0
102
RTVSPost2010PropOp52
 70
     0
102
RTVSPost2010Prop53
 90
        2
102
RTVSPost2010PropOp53
 70
     0
102
RTVSPost2010Prop54
  1
strokes_ogs.tif
102
RTVSPost2010PropOp54
 70
     0
102
RTVSPost2010Prop55
280
     0
102
RTVSPost2010PropOp55
 70
     0
102
RTVSPost2010Prop56
140
1.0
102
RTVSPost2010PropOp56
 70
     0
102
RTVSPost2010Prop57
140
1.0
102
RTVSPost2010PropOp57
 70
     0
  0
XRECORD
  5
13F
102
{ACAD_REACTORS
330
13E
102
}
330
13E
100
AcDbXrecord
280
     1
102
RTVSPost2010Prop28
280
     0
102
RTVSPost2010PropOp28
 70
     1
102
RTVSPost2010Prop29
280
     1
102
RTVSPost2010PropOp29
 70
     1
102
RTVSPost2010Prop30
280
     1
102
RTVSPost2010PropOp30
 70
     1
102
RTVSPost2010Prop31
280
     0
102
RTVSPost2010PropOp31
 70
     1
102
RTVSPost2010Prop32
280
     0
102
RTVSPost2010PropOp32
 70
     1
102
RTVSPost2010Prop33
280
     0
102
RTVSPost2010PropOp33
 70
     1
102
RTVSPost2010Prop34
280
     0
102
RTVSPost2010PropOp34
 70
     1
102
RTVSPost2010Prop35
280
     0
102
RTVSPost2010PropOp35
 70
     1
102
RTVSPost2010Prop36
280
     0
102
RTVSPost2010PropOp36
 70
     1
102
RTVSPost2010Prop37
 90
       50
102
RTVSPost2010PropOp37
 70
     1
102
RTVSPost2010Prop38
140
0.0
102
RTVSPost2010PropOp38
 70
     1
102
RTVSPost2010Prop39
140
1.0
102
RTVSPost2010PropOp39
 70
     1
102
RTVSPost2010Prop40
 90
        0
102
RTVSPost2010PropOp40
 70
     1
102
RTVSPost2010Prop41ColorIndex
 90
       18
102
RTVSPost2010Prop41ColorRGB
 90
        0
102
RTVSPost2010PropOp41
 70
     1
102
RTVSPost2010Prop42
 90
       50
102
RTVSPost2010PropOp42
 70
     1
102
RTVSPost2010Prop43
 90
        3
102
RTVSPost2010PropOp43
 70
     1
102
RTVSPost2010Prop44ColorIndex
 90
        5
102
RTVSPost2010Prop44ColorRGB
 90
      255
102
RTVSPost2010PropOp44
 70
     1
102
RTVSPost2010Prop45
280
     0
102
RTVSPost2010PropOp45
 70
     1
102
RTVSPost2010Prop46
 90
       50
102
RTVSPost2010PropOp46
 70
     1
102
RTVSPost2010Prop47
 90
       50
102
RTVSPost2010PropOp47
 70
     1
102
RTVSPost2010Prop48
 90
       50
102
RTVSPost2010PropOp48
 70
     1
102
RTVSPost2010Prop49
280
     0
102
RTVSPost2010PropOp49
 70
     1
102
RTVSPost2010Prop50
 90
       50
102
RTVSPost2010PropOp50
 70
     1
102
RTVSPost2010Prop51ColorIndex
 90
      256
102
RTVSPost2010Prop51ColorRGB
 90
-16777216
102
RTVSPost2010PropOp51
 70
     0
102
RTVSPost2010Prop52
140
1.0
102
RTVSPost2010PropOp52
 70
     0
102
RTVSPost2010Prop53
 90
        2
102
RTVSPost2010PropOp53
 70
     1
102
RTVSPost2010Prop54
  1
strokes_ogs.tif
102
RTVSPost2010PropOp54
 70
     1
102
RTVSPost2010Prop55
280
     0
102
RTVSPost2010PropOp55
 70
     1
102
RTVSPost2010Prop56
140
1.0
102
RTVSPost2010PropOp56
 70
     1
102
RTVSPost2010Prop57
140
1.0
102
RTVSPost2010PropOp57
 70
     1
  0
XRECORD
  5
155
102
{ACAD_REACTORS
330
154
102
}
330
154
100
AcDbXrecord
280
     1
102
RTVSPost2010Prop28
280
     0
102
RTVSPost2010PropOp28
 70
     1
102
RTVSPost2010Prop29
280
     1
102
RTVSPost2010PropOp29
 70
     1
102
RTVSPost2010Prop30
280
     1
102
RTVSPost2010PropOp30
 70
     1
102
RTVSPost2010Prop31
280
     0
102
RTVSPost2010PropOp31
 70
     1
102
RTVSPost2010Prop32
280
     0
102
RTVSPost2010PropOp32
 70
     1
102
RTVSPost2010Prop33
280
     0
102
RTVSPost2010PropOp33
 70
     1
102
RTVSPost2010Prop34
280
     0
102
RTVSPost2010PropOp34
 70
     1
102
RTVSPost2010Prop35
280
     0
102
RTVSPost2010PropOp35
 70
     1
102
RTVSPost2010Prop36
280
     0
102
RTVSPost2010PropOp36
 70
     1
102
RTVSPost2010Prop37
 90
       50
102
RTVSPost2010PropOp37
 70
     1
102
RTVSPost2010Prop38
140
0.0
102
RTVSPost2010PropOp38
 70
     1
102
RTVSPost2010Prop39
140
1.0
102
RTVSPost2010PropOp39
 70
     1
102
RTVSPost2010Prop40
 90
        0
102
RTVSPost2010PropOp40
 70
     1
102
RTVSPost2010Prop41ColorIndex
 90
       18
102
RTVSPost2010Prop41ColorRGB
 90
        0
102
RTVSPost2010PropOp41
 70
     1
102
RTVSPost2010Prop42
 90
       50
102
RTVSPost2010PropOp42
 70
     1
102
RTVSPost2010Prop43
 90
        3
102
RTVSPost2010PropOp43
 70
     1
102
RTVSPost2010Prop44ColorIndex
 90
        5
102
RTVSPost2010Prop44ColorRGB
 90
      255
102
RTVSPost2010PropOp44
 70
     1
102
RTVSPost2010Prop45
280
     0
102
RTVSPost2010PropOp45
 70
     1
102
RTVSPost2010Prop46
 90
       50
102
RTVSPost2010PropOp46
 70
     1
102
RTVSPost2010Prop47
 90
       50
102
RTVSPost2010PropOp47
 70
     1
102
RTVSPost2010Prop48
 90
       50
102
RTVSPost2010PropOp48
 70
     1
102
RTVSPost2010Prop49
280
     0
102
RTVSPost2010PropOp49
 70
     1
102
RTVSPost2010Prop50
 90
       50
102
RTVSPost2010PropOp50
 70
     1
102
RTVSPost2010Prop51ColorIndex
 90
      256
102
RTVSPost2010Prop51ColorRGB
 90
-16777216
102
RTVSPost2010PropOp51
 70
     0
102
RTVSPost2010Prop52
140
1.0
102
RTVSPost2010PropOp52
 70
     0
102
RTVSPost2010Prop53
 90
        2
102
RTVSPost2010PropOp53
 70
     1
102
RTVSPost2010Prop54
  1
strokes_ogs.tif
102
RTVSPost2010PropOp54
 70
     1
102
RTVSPost2010Prop55
280
     0
102
RTVSPost2010PropOp55
 70
     1
102
RTVSPost2010Prop56
140
1.0
102
RTVSPost2010PropOp56
 70
     1
102
RTVSPost2010Prop57
140
1.0
102
RTVSPost2010PropOp57
 70
     1
  0
XRECORD
  5
153
102
{ACAD_REACTORS
330
152
102
}
330
152
100
AcDbXrecord
280
     1
102
RTVSPost2010Prop28
280
     0
102
RTVSPost2010PropOp28
 70
     1
102
RTVSPost2010Prop29
280
     1
102
RTVSPost2010PropOp29
 70
     1
102
RTVSPost2010Prop30
280
     1
102
RTVSPost2010PropOp30
 70
     1
102
RTVSPost2010Prop31
280
     0
102
RTVSPost2010PropOp31
 70
     1
102
RTVSPost2010Prop32
280
     0
102
RTVSPost2010PropOp32
 70
     1
102
RTVSPost2010Prop33
280
     0
102
RTVSPost2010PropOp33
 70
     1
102
RTVSPost2010Prop34
280
     0
102
RTVSPost2010PropOp34
 70
     1
102
RTVSPost2010Prop35
280
     0
102
RTVSPost2010PropOp35
 70
     1
102
RTVSPost2010Prop36
280
     0
102
RTVSPost2010PropOp36
 70
     1
102
RTVSPost2010Prop37
 90
       50
102
RTVSPost2010PropOp37
 70
     1
102
RTVSPost2010Prop38
140
0.0
102
RTVSPost2010PropOp38
 70
     1
102
RTVSPost2010Prop39
140
1.0
102
RTVSPost2010PropOp39
 70
     1
102
RTVSPost2010Prop40
 90
        0
102
RTVSPost2010PropOp40
 70
     1
102
RTVSPost2010Prop41ColorIndex
 90
       18
102
RTVSPost2010Prop41ColorRGB
 90
        0
102
RTVSPost2010PropOp41
 70
     1
102
RTVSPost2010Prop42
 90
       50
102
RTVSPost2010PropOp42
 70
     1
102
RTVSPost2010Prop43
 90
        3
102
RTVSPost2010PropOp43
 70
     1
102
RTVSPost2010Prop44ColorIndex
 90
        5
102
RTVSPost2010Prop44ColorRGB
 90
      255
102
RTVSPost2010PropOp44
 70
     1
102
RTVSPost2010Prop45
280
     0
102
RTVSPost2010PropOp45
 70
     1
102
RTVSPost2010Prop46
 90
       50
102
RTVSPost2010PropOp46
 70
     1
102
RTVSPost2010Prop47
 90
       50
102
RTVSPost2010PropOp47
 70
     1
102
RTVSPost2010Prop48
 90
       50
102
RTVSPost2010PropOp48
 70
     1
102
RTVSPost2010Prop49
280
     0
102
RTVSPost2010PropOp49
 70
     1
102
RTVSPost2010Prop50
 90
       50
102
RTVSPost2010PropOp50
 70
     1
102
RTVSPost2010Prop51ColorIndex
 90
      256
102
RTVSPost2010Prop51ColorRGB
 90
-16777216
102
RTVSPost2010PropOp51
 70
     0
102
RTVSPost2010Prop52
140
1.0
102
RTVSPost2010PropOp52
 70
     0
102
RTVSPost2010Prop53
 90
        2
102
RTVSPost2010PropOp53
 70
     1
102
RTVSPost2010Prop54
  1
strokes_ogs.tif
102
RTVSPost2010PropOp54
 70
     1
102
RTVSPost2010Prop55
280
     0
102
RTVSPost2010PropOp55
 70
     1
102
RTVSPost2010Prop56
140
1.0
102
RTVSPost2010PropOp56
 70
     1
102
RTVSPost2010Prop57
140
1.0
102
RTVSPost2010PropOp57
 70
     1
  0
XRECORD
  5
14D
102
{ACAD_REACTORS
330
14C
102
}
330
14C
100
AcDbXrecord
280
     1
102
RTVSPost2010Prop28
280
     0
102
RTVSPost2010PropOp28
 70
     1
102
RTVSPost2010Prop29
280
     1
102
RTVSPost2010PropOp29
 70
     1
102
RTVSPost2010Prop30
280
     1
102
RTVSPost2010PropOp30
 70
     1
102
RTVSPost2010Prop31
280
     0
102
RTVSPost2010PropOp31
 70
     1
102
RTVSPost2010Prop32
280
     0
102
RTVSPost2010PropOp32
 70
     1
102
RTVSPost2010Prop33
280
     0
102
RTVSPost2010PropOp33
 70
     1
102
RTVSPost2010Prop34
280
     0
102
RTVSPost2010PropOp34
 70
     1
102
RTVSPost2010Prop35
280
     0
102
RTVSPost2010PropOp35
 70
     1
102
RTVSPost2010Prop36
280
     0
102
RTVSPost2010PropOp36
 70
     1
102
RTVSPost2010Prop37
 90
       50
102
RTVSPost2010PropOp37
 70
     1
102
RTVSPost2010Prop38
140
0.0
102
RTVSPost2010PropOp38
 70
     1
102
RTVSPost2010Prop39
140
1.0
102
RTVSPost2010PropOp39
 70
     1
102
RTVSPost2010Prop40
 90
        0
102
RTVSPost2010PropOp40
 70
     1
102
RTVSPost2010Prop41ColorIndex
 90
       18
102
RTVSPost2010Prop41ColorRGB
 90
        0
102
RTVSPost2010PropOp41
 70
     1
102
RTVSPost2010Prop42
 90
       50
102
RTVSPost2010PropOp42
 70
     1
102
RTVSPost2010Prop43
 90
        3
102
RTVSPost2010PropOp43
 70
     1
102
RTVSPost2010Prop44ColorIndex
 90
        5
102
RTVSPost2010Prop44ColorRGB
 90
      255
102
RTVSPost2010PropOp44
 70
     1
102
RTVSPost2010Prop45
280
     0
102
RTVSPost2010PropOp45
 70
     1
102
RTVSPost2010Prop46
 90
       50
102
RTVSPost2010PropOp46
 70
     1
102
RTVSPost2010Prop47
 90
       50
102
RTVSPost2010PropOp47
 70
     1
102
RTVSPost2010Prop48
 90
       50
102
RTVSPost2010PropOp48
 70
     1
102
RTVSPost2010Prop49
280
     0
102
RTVSPost2010PropOp49
 70
     1
102
RTVSPost2010Prop50
 90
       50
102
RTVSPost2010PropOp50
 70
     1
102
RTVSPost2010Prop51ColorIndex
 90
      256
102
RTVSPost2010Prop51ColorRGB
 90
-16777216
102
RTVSPost2010PropOp51
 70
     0
102
RTVSPost2010Prop52
140
1.0
102
RTVSPost2010PropOp52
 70
     0
102
RTVSPost2010Prop53
 90
        2
102
RTVSPost2010PropOp53
 70
     1
102
RTVSPost2010Prop54
  1
strokes_ogs.tif
102
RTVSPost2010PropOp54
 70
     1
102
RTVSPost2010Prop55
280
     0
102
RTVSPost2010PropOp55
 70
     1
102
RTVSPost2010Prop56
140
1.0
102
RTVSPost2010PropOp56
 70
     1
102
RTVSPost2010Prop57
140
1.0
102
RTVSPost2010PropOp57
 70
     1
  0
XRECORD
  5
14F
102
{ACAD_REACTORS
330
14E
102
}
330
14E
100
AcDbXrecord
280
     1
102
RTVSPost2010Prop28
280
     0
102
RTVSPost2010PropOp28
 70
     1
102
RTVSPost2010Prop29
280
     1
102
RTVSPost2010PropOp29
 70
     1
102
RTVSPost2010Prop30
280
     1
102
RTVSPost2010PropOp30
 70
     1
102
RTVSPost2010Prop31
280
     0
102
RTVSPost2010PropOp31
 70
     1
102
RTVSPost2010Prop32
280
     0
102
RTVSPost2010PropOp32
 70
     1
102
RTVSPost2010Prop33
280
     0
102
RTVSPost2010PropOp33
 70
     1
102
RTVSPost2010Prop34
280
     0
102
RTVSPost2010PropOp34
 70
     1
102
RTVSPost2010Prop35
280
     0
102
RTVSPost2010PropOp35
 70
     1
102
RTVSPost2010Prop36
280
     0
102
RTVSPost2010PropOp36
 70
     1
102
RTVSPost2010Prop37
 90
       50
102
RTVSPost2010PropOp37
 70
     1
102
RTVSPost2010Prop38
140
0.0
102
RTVSPost2010PropOp38
 70
     1
102
RTVSPost2010Prop39
140
1.0
102
RTVSPost2010PropOp39
 70
     1
102
RTVSPost2010Prop40
 90
        0
102
RTVSPost2010PropOp40
 70
     1
102
RTVSPost2010Prop41ColorIndex
 90
       18
102
RTVSPost2010Prop41ColorRGB
 90
        0
102
RTVSPost2010PropOp41
 70
     1
102
RTVSPost2010Prop42
 90
       50
102
RTVSPost2010PropOp42
 70
     1
102
RTVSPost2010Prop43
 90
        3
102
RTVSPost2010PropOp43
 70
     1
102
RTVSPost2010Prop44ColorIndex
 90
        5
102
RTVSPost2010Prop44ColorRGB
 90
      255
102
RTVSPost2010PropOp44
 70
     1
102
RTVSPost2010Prop45
280
     0
102
RTVSPost2010PropOp45
 70
     1
102
RTVSPost2010Prop46
 90
       50
102
RTVSPost2010PropOp46
 70
     1
102
RTVSPost2010Prop47
 90
       50
102
RTVSPost2010PropOp47
 70
     1
102
RTVSPost2010Prop48
 90
       50
102
RTVSPost2010PropOp48
 70
     1
102
RTVSPost2010Prop49
280
     0
102
RTVSPost2010PropOp49
 70
     1
102
RTVSPost2010Prop50
 90
       50
102
RTVSPost2010PropOp50
 70
     1
102
RTVSPost2010Prop51ColorIndex
 90
      256
102
RTVSPost2010Prop51ColorRGB
 90
-16777216
102
RTVSPost2010PropOp51
 70
     0
102
RTVSPost2010Prop52
140
1.0
102
RTVSPost2010PropOp52
 70
     0
102
RTVSPost2010Prop53
 90
        2
102
RTVSPost2010PropOp53
 70
     1
102
RTVSPost2010Prop54
  1
strokes_ogs.tif
102
RTVSPost2010PropOp54
 70
     1
102
RTVSPost2010Prop55
280
     0
102
RTVSPost2010PropOp55
 70
     1
102
RTVSPost2010Prop56
140
1.0
102
RTVSPost2010PropOp56
 70
     1
102
RTVSPost2010Prop57
140
1.0
102
RTVSPost2010PropOp57
 70
     1
  0
XRECORD
  5
145
102
{ACAD_REACTORS
330
144
102
}
330
144
100
AcDbXrecord
280
     1
102
RTVSPost2010Prop28
280
     0
102
RTVSPost2010PropOp28
 70
     1
102
RTVSPost2010Prop29
280
     1
102
RTVSPost2010PropOp29
 70
     1
102
RTVSPost2010Prop30
280
     1
102
RTVSPost2010PropOp30
 70
     1
102
RTVSPost2010Prop31
280
     0
102
RTVSPost2010PropOp31
 70
     1
102
RTVSPost2010Prop32
280
     0
102
RTVSPost2010PropOp32
 70
     1
102
RTVSPost2010Prop33
280
     0
102
RTVSPost2010PropOp33
 70
     1
102
RTVSPost2010Prop34
280
     0
102
RTVSPost2010PropOp34
 70
     1
102
RTVSPost2010Prop35
280
     0
102
RTVSPost2010PropOp35
 70
     1
102
RTVSPost2010Prop36
280
     0
102
RTVSPost2010PropOp36
 70
     1
102
RTVSPost2010Prop37
 90
       50
102
RTVSPost2010PropOp37
 70
     1
102
RTVSPost2010Prop38
140
0.0
102
RTVSPost2010PropOp38
 70
     1
102
RTVSPost2010Prop39
140
1.0
102
RTVSPost2010PropOp39
 70
     1
102
RTVSPost2010Prop40
 90
        0
102
RTVSPost2010PropOp40
 70
     1
102
RTVSPost2010Prop41ColorIndex
 90
       18
102
RTVSPost2010Prop41ColorRGB
 90
        0
102
RTVSPost2010PropOp41
 70
     1
102
RTVSPost2010Prop42
 90
       50
102
RTVSPost2010PropOp42
 70
     1
102
RTVSPost2010Prop43
 90
        3
102
RTVSPost2010PropOp43
 70
     1
102
RTVSPost2010Prop44ColorIndex
 90
        5
102
RTVSPost2010Prop44ColorRGB
 90
      255
102
RTVSPost2010PropOp44
 70
     1
102
RTVSPost2010Prop45
280
     0
102
RTVSPost2010PropOp45
 70
     1
102
RTVSPost2010Prop46
 90
       50
102
RTVSPost2010PropOp46
 70
     1
102
RTVSPost2010Prop47
 90
       50
102
RTVSPost2010PropOp47
 70
     1
102
RTVSPost2010Prop48
 90
       50
102
RTVSPost2010PropOp48
 70
     1
102
RTVSPost2010Prop49
280
     0
102
RTVSPost2010PropOp49
 70
     1
102
RTVSPost2010Prop50
 90
       50
102
RTVSPost2010PropOp50
 70
     1
102
RTVSPost2010Prop51ColorIndex
 90
      256
102
RTVSPost2010Prop51ColorRGB
 90
-16777216
102
RTVSPost2010PropOp51
 70
     0
102
RTVSPost2010Prop52
140
1.0
102
RTVSPost2010PropOp52
 70
     0
102
RTVSPost2010Prop53
 90
        2
102
RTVSPost2010PropOp53
 70
     1
102
RTVSPost2010Prop54
  1
strokes_ogs.tif
102
RTVSPost2010PropOp54
 70
     1
102
RTVSPost2010Prop55
280
     0
102
RTVSPost2010PropOp55
 70
     1
102
RTVSPost2010Prop56
140
1.0
102
RTVSPost2010PropOp56
 70
     1
102
RTVSPost2010Prop57
140
1.0
102
RTVSPost2010PropOp57
 70
     1
  0
XRECORD
  5
139
102
{ACAD_REACTORS
330
138
102
}
330
138
100
AcDbXrecord
280
     1
102
RTVSPost2010Prop28
280
     0
102
RTVSPost2010PropOp28
 70
     1
102
RTVSPost2010Prop29
280
     1
102
RTVSPost2010PropOp29
 70
     1
102
RTVSPost2010Prop30
280
     1
102
RTVSPost2010PropOp30
 70
     1
102
RTVSPost2010Prop31
280
     0
102
RTVSPost2010PropOp31
 70
     1
102
RTVSPost2010Prop32
280
     0
102
RTVSPost2010PropOp32
 70
     1
102
RTVSPost2010Prop33
280
     0
102
RTVSPost2010PropOp33
 70
     1
102
RTVSPost2010Prop34
280
     0
102
RTVSPost2010PropOp34
 70
     1
102
RTVSPost2010Prop35
280
     0
102
RTVSPost2010PropOp35
 70
     1
102
RTVSPost2010Prop36
280
     0
102
RTVSPost2010PropOp36
 70
     1
102
RTVSPost2010Prop37
 90
       50
102
RTVSPost2010PropOp37
 70
     1
102
RTVSPost2010Prop38
140
0.0
102
RTVSPost2010PropOp38
 70
     1
102
RTVSPost2010Prop39
140
1.0
102
RTVSPost2010PropOp39
 70
     1
102
RTVSPost2010Prop40
 90
        0
102
RTVSPost2010PropOp40
 70
     1
102
RTVSPost2010Prop41ColorIndex
 90
       18
102
RTVSPost2010Prop41ColorRGB
 90
        0
102
RTVSPost2010PropOp41
 70
     1
102
RTVSPost2010Prop42
 90
       50
102
RTVSPost2010PropOp42
 70
     1
102
RTVSPost2010Prop43
 90
        3
102
RTVSPost2010PropOp43
 70
     1
102
RTVSPost2010Prop44ColorIndex
 90
        5
102
RTVSPost2010Prop44ColorRGB
 90
      255
102
RTVSPost2010PropOp44
 70
     1
102
RTVSPost2010Prop45
280
     0
102
RTVSPost2010PropOp45
 70
     1
102
RTVSPost2010Prop46
 90
       50
102
RTVSPost2010PropOp46
 70
     1
102
RTVSPost2010Prop47
 90
       50
102
RTVSPost2010PropOp47
 70
     1
102
RTVSPost2010Prop48
 90
       50
102
RTVSPost2010PropOp48
 70
     1
102
RTVSPost2010Prop49
280
     0
102
RTVSPost2010PropOp49
 70
     1
102
RTVSPost2010Prop50
 90
       50
102
RTVSPost2010PropOp50
 70
     1
102
RTVSPost2010Prop51ColorIndex
 90
      256
102
RTVSPost2010Prop51ColorRGB
 90
-16777216
102
RTVSPost2010PropOp51
 70
     0
102
RTVSPost2010Prop52
140
1.0
102
RTVSPost2010PropOp52
 70
     0
102
RTVSPost2010Prop53
 90
        2
102
RTVSPost2010PropOp53
 70
     1
102
RTVSPost2010Prop54
  1
strokes_ogs.tif
102
RTVSPost2010PropOp54
 70
     1
102
RTVSPost2010Prop55
280
     0
102
RTVSPost2010PropOp55
 70
     1
102
RTVSPost2010Prop56
140
1.0
102
RTVSPost2010PropOp56
 70
     1
102
RTVSPost2010Prop57
140
1.0
102
RTVSPost2010PropOp57
 70
     1
  0
XRECORD
  5
151
102
{ACAD_REACTORS
330
150
102
}
330
150
100
AcDbXrecord
280
     1
102
RTVSPost2010Prop28
280
     0
102
RTVSPost2010PropOp28
 70
     1
102
RTVSPost2010Prop29
280
     1
102
RTVSPost2010PropOp29
 70
     1
102
RTVSPost2010Prop30
280
     1
102
RTVSPost2010PropOp30
 70
     1
102
RTVSPost2010Prop31
280
     0
102
RTVSPost2010PropOp31
 70
     1
102
RTVSPost2010Prop32
280
     0
102
RTVSPost2010PropOp32
 70
     1
102
RTVSPost2010Prop33
280
     0
102
RTVSPost2010PropOp33
 70
     1
102
RTVSPost2010Prop34
280
     0
102
RTVSPost2010PropOp34
 70
     1
102
RTVSPost2010Prop35
280
     0
102
RTVSPost2010PropOp35
 70
     1
102
RTVSPost2010Prop36
280
     0
102
RTVSPost2010PropOp36
 70
     1
102
RTVSPost2010Prop37
 90
       50
102
RTVSPost2010PropOp37
 70
     1
102
RTVSPost2010Prop38
140
0.0
102
RTVSPost2010PropOp38
 70
     1
102
RTVSPost2010Prop39
140
1.0
102
RTVSPost2010PropOp39
 70
     1
102
RTVSPost2010Prop40
 90
        0
102
RTVSPost2010PropOp40
 70
     1
102
RTVSPost2010Prop41ColorIndex
 90
       18
102
RTVSPost2010Prop41ColorRGB
 90
        0
102
RTVSPost2010PropOp41
 70
     1
102
RTVSPost2010Prop42
 90
       50
102
RTVSPost2010PropOp42
 70
     1
102
RTVSPost2010Prop43
 90
        3
102
RTVSPost2010PropOp43
 70
     1
102
RTVSPost2010Prop44ColorIndex
 90
        5
102
RTVSPost2010Prop44ColorRGB
 90
      255
102
RTVSPost2010PropOp44
 70
     1
102
RTVSPost2010Prop45
280
     0
102
RTVSPost2010PropOp45
 70
     1
102
RTVSPost2010Prop46
 90
       50
102
RTVSPost2010PropOp46
 70
     1
102
RTVSPost2010Prop47
 90
       50
102
RTVSPost2010PropOp47
 70
     1
102
RTVSPost2010Prop48
 90
       50
102
RTVSPost2010PropOp48
 70
     1
102
RTVSPost2010Prop49
280
     0
102
RTVSPost2010PropOp49
 70
     1
102
RTVSPost2010Prop50
 90
       50
102
RTVSPost2010PropOp50
 70
     1
102
RTVSPost2010Prop51ColorIndex
 90
      256
102
RTVSPost2010Prop51ColorRGB
 90
-16777216
102
RTVSPost2010PropOp51
 70
     0
102
RTVSPost2010Prop52
140
1.0
102
RTVSPost2010PropOp52
 70
     0
102
RTVSPost2010Prop53
 90
        2
102
RTVSPost2010PropOp53
 70
     1
102
RTVSPost2010Prop54
  1
strokes_ogs.tif
102
RTVSPost2010PropOp54
 70
     1
102
RTVSPost2010Prop55
280
     0
102
RTVSPost2010PropOp55
 70
     1
102
RTVSPost2010Prop56
140
1.0
102
RTVSPost2010PropOp56
 70
     1
102
RTVSPost2010Prop57
140
1.0
102
RTVSPost2010PropOp57
 70
     1
  0
ENDSEC
  0
EOF
