  0
SECTION
  2
HEADER
  9
$ACADVER
  1
AC1024
  9
$ACADMAINTVER
 70
   226
  9
$DWGCODEPAGE
  3
ANSI_932
  9
$INSBASE
 10
0.0
 20
0.0
 30
0.0
  9
$EXTMIN
 10
1.000000000000000E+20
 20
1.000000000000000E+20
 30
1.000000000000000E+20
  9
$EXTMAX
 10
-1.000000000000000E+20
 20
-1.000000000000000E+20
 30
-1.000000000000000E+20
  9
$LIMMIN
 10
0.0
 20
0.0
  9
$LIMMAX
 10
12.0
 20
9.0
  9
$ORTHOMODE
 70
     0
  9
$REGENMODE
 70
     1
  9
$FILLMODE
 70
     1
  9
$QTEXTMODE
 70
     0
  9
$MIRRTEXT
 70
     0
  9
$LTSCALE
 40
1.0
  9
$ATTMODE
 70
     1
  9
$TEXTSIZE
 40
0.2
  9
$TRACEWID
 40
0.05
  9
$TEXTSTYLE
  7
Standard
  9
$CLAYER
  8
0
  9
$CELTYPE
  6
ByLayer
  9
$CECOLOR
 62
   256
  9
$CELTSCALE
 40
1.0
  9
$DISPSILH
 70
     0
  9
$DIMSCALE
 40
1.0
  9
$DIMASZ
 40
0.18
  9
$DIMEXO
 40
0.0625
  9
$DIMDLI
 40
0.38
  9
$DIMRND
 40
0.0
  9
$DIMDLE
 40
0.0
  9
$DIMEXE
 40
0.18
  9
$DIMTP
 40
0.0
  9
$DIMTM
 40
0.0
  9
$DIMTXT
 40
0.18
  9
$DIMCEN
 40
0.09
  9
$DIMTSZ
 40
0.0
  9
$DIMTOL
 70
     0
  9
$DIMLIM
 70
     0
  9
$DIMTIH
 70
     1
  9
$DIMTOH
 70
     1
  9
$DIMSE1
 70
     0
  9
$DIMSE2
 70
     0
  9
$DIMTAD
 70
     0
  9
$DIMZIN
 70
     0
  9
$DIMBLK
  1

  9
$DIMASO
 70
     1
  9
$DIMSHO
 70
     1
  9
$DIMPOST
  1

  9
$DIMAPOST
  1

  9
$DIMALT
 70
     0
  9
$DIMALTD
 70
     2
  9
$DIMALTF
 40
25.4
  9
$DIMLFAC
 40
1.0
  9
$DIMTOFL
 70
     0
  9
$DIMTVP
 40
0.0
  9
$DIMTIX
 70
     0
  9
$DIMSOXD
 70
     0
  9
$DIMSAH
 70
     0
  9
$DIMBLK1
  1

  9
$DIMBLK2
  1

  9
$DIMSTYLE
  2
Standard
  9
$DIMCLRD
 70
     0
  9
$DIMCLRE
 70
     0
  9
$DIMCLRT
 70
     0
  9
$DIMTFAC
 40
1.0
  9
$DIMGAP
 40
0.09
  9
$DIMJUST
 70
     0
  9
$DIMSD1
 70
     0
  9
$DIMSD2
 70
     0
  9
$DIMTOLJ
 70
     1
  9
$DIMTZIN
 70
     0
  9
$DIMALTZ
 70
     0
  9
$DIMALTTZ
 70
     0
  9
$DIMUPT
 70
     0
  9
$DIMDEC
 70
     4
  9
$DIMTDEC
 70
     4
  9
$DIMALTU
 70
     2
  9
$DIMALTTD
 70
     2
  9
$DIMTXSTY
  7
Standard
  9
$DIMAUNIT
 70
     0
  9
$DIMADEC
 70
     0
  9
$DIMALTRND
 40
0.0
  9
$DIMAZIN
 70
     0
  9
$DIMDSEP
 70
    46
  9
$DIMATFIT
 70
     3
  9
$DIMFRAC
 70
     0
  9
$DIMLDRBLK
  1

  9
$DIMLUNIT
 70
     2
  9
$DIMLWD
 70
    -2
  9
$DIMLWE
 70
    -2
  9
$DIMTMOVE
 70
     0
  9
$DIMFXL
 40
1.0
  9
$DIMFXLON
 70
     0
  9
$DIMJOGANG
 40
0.7853981633974483
  9
$DIMTFILL
 70
     0
  9
$DIMTFILLCLR
 70
     0
  9
$DIMARCSYM
 70
     0
  9
$DIMLTYPE
  6

  9
$DIMLTEX1
  6

  9
$DIMLTEX2
  6

  9
$DIMTXTDIRECTION
 70
     0
  9
$LUNITS
 70
     2
  9
$LUPREC
 70
     4
  9
$SKETCHINC
 40
0.1
  9
$FILLETRAD
 40
0.0
  9
$AUNITS
 70
     0
  9
$AUPREC
 70
     0
  9
$MENU
  1
.
  9
$ELEVATION
 40
0.0
  9
$PELEVATION
 40
0.0
  9
$THICKNESS
 40
0.0
  9
$LIMCHECK
 70
     0
  9
$CHAMFERA
 40
0.0
  9
$CHAMFERB
 40
0.0
  9
$CHAMFERC
 40
0.0
  9
$CHAMFERD
 40
0.0
  9
$SKPOLY
 70
     0
  9
$TDCREATE
 40
2459569.503495371
  9
$TDUCREATE
 40
2459569.128495371
  9
$TDUPDATE
 40
2459569.503495371
  9
$TDUUPDATE
 40
2459569.128495371
  9
$TDINDWG
 40
0.0000000000
  9
$TDUSRTIMER
 40
0.0000000000
  9
$USRTIMER
 70
     1
  9
$ANGBASE
 50
0.0
  9
$ANGDIR
 70
     0
  9
$PDMODE
 70
     0
  9
$PDSIZE
 40
0.0
  9
$PLINEWID
 40
0.0
  9
$SPLFRAME
 70
     0
  9
$SPLINETYPE
 70
     6
  9
$SPLINESEGS
 70
     8
  9
$HANDSEED
  5
168
  9
$SURFTAB1
 70
     6
  9
$SURFTAB2
 70
     6
  9
$SURFTYPE
 70
     6
  9
$SURFU
 70
     6
  9
$SURFV
 70
     6
  9
$UCSBASE
  2

  9
$UCSNAME
  2

  9
$UCSORG
 10
0.0
 20
0.0
 30
0.0
  9
$UCSXDIR
 10
1.0
 20
0.0
 30
0.0
  9
$UCSYDIR
 10
0.0
 20
1.0
 30
0.0
  9
$UCSORTHOREF
  2

  9
$UCSORTHOVIEW
 70
     0
  9
$UCSORGTOP
 10
0.0
 20
0.0
 30
0.0
  9
$UCSORGBOTTOM
 10
0.0
 20
0.0
 30
0.0
  9
$UCSORGLEFT
 10
0.0
 20
0.0
 30
0.0
  9
$UCSORGRIGHT
 10
0.0
 20
0.0
 30
0.0
  9
$UCSORGFRONT
 10
0.0
 20
0.0
 30
0.0
  9
$UCSORGBACK
 10
0.0
 20
0.0
 30
0.0
  9
$PUCSBASE
  2

  9
$PUCSNAME
  2

  9
$PUCSORG
 10
0.0
 20
0.0
 30
0.0
  9
$PUCSXDIR
 10
1.0
 20
0.0
 30
0.0
  9
$PUCSYDIR
 10
0.0
 20
1.0
 30
0.0
  9
$PUCSORTHOREF
  2

  9
$PUCSORTHOVIEW
 70
     0
  9
$PUCSORGTOP
 10
0.0
 20
0.0
 30
0.0
  9
$PUCSORGBOTTOM
 10
0.0
 20
0.0
 30
0.0
  9
$PUCSORGLEFT
 10
0.0
 20
0.0
 30
0.0
  9
$PUCSORGRIGHT
 10
0.0
 20
0.0
 30
0.0
  9
$PUCSORGFRONT
 10
0.0
 20
0.0
 30
0.0
  9
$PUCSORGBACK
 10
0.0
 20
0.0
 30
0.0
  9
$USERI1
 70
     0
  9
$USERI2
 70
     0
  9
$USERI3
 70
     0
  9
$USERI4
 70
     0
  9
$USERI5
 70
     0
  9
$USERR1
 40
0.0
  9
$USERR2
 40
0.0
  9
$USERR3
 40
0.0
  9
$USERR4
 40
0.0
  9
$USERR5
 40
0.0
  9
$WORLDVIEW
 70
     1
  9
$SHADEDGE
 70
     3
  9
$SHADEDIF
 70
    70
  9
$TILEMODE
 70
     1
  9
$MAXACTVP
 70
    64
  9
$PINSBASE
 10
0.0
 20
0.0
 30
0.0
  9
$PLIMCHECK
 70
     0
  9
$PEXTMIN
 10
1.000000000000000E+20
 20
1.000000000000000E+20
 30
1.000000000000000E+20
  9
$PEXTMAX
 10
-1.000000000000000E+20
 20
-1.000000000000000E+20
 30
-1.000000000000000E+20
  9
$PLIMMIN
 10
0.0
 20
0.0
  9
$PLIMMAX
 10
12.0
 20
9.0
  9
$UNITMODE
 70
     0
  9
$VISRETAIN
 70
     1
  9
$PLINEGEN
 70
     0
  9
$PSLTSCALE
 70
     1
  9
$TREEDEPTH
 70
  3020
  9
$CMLSTYLE
  2
Standard
  9
$CMLJUST
 70
     0
  9
$CMLSCALE
 40
1.0
  9
$PROXYGRAPHICS
 70
     1
  9
$MEASUREMENT
 70
     0
  9
$CELWEIGHT
370
    -1
  9
$ENDCAPS
280
     0
  9
$JOINSTYLE
280
     0
  9
$LWDISPLAY
290
     1
  9
$INSUNITS
 70
     4
  9
$HYPERLINKBASE
  1

  9
$STYLESHEET
  1

  9
$XEDIT
290
     1
  9
$CEPSNTYPE
380
     0
  9
$PSTYLEMODE
290
     1
  9
$FINGERPRINTGUID
  2
{4DC04B45-D240-5F41-8416-DCD73A60449D}
  9
$VERSIONGUID
  2
{B5E51063-A638-764E-A3A1-909052FE72A3}
  9
$EXTNAMES
290
     1
  9
$PSVPSCALE
 40
0.0
  9
$OLESTARTUP
290
     0
  9
$SORTENTS
280
   127
  9
$INDEXCTL
280
     0
  9
$HIDETEXT
280
     1
  9
$XCLIPFRAME
280
     2
  9
$HALOGAP
280
     0
  9
$OBSCOLOR
 70
   257
  9
$OBSLTYPE
280
     0
  9
$INTERSECTIONDISPLAY
280
     0
  9
$INTERSECTIONCOLOR
 70
   257
  9
$DIMASSOC
280
     2
  9
$PROJECTNAME
  1

  9
$CAMERADISPLAY
290
     0
  9
$LENSLENGTH
 40
50.0
  9
$CAMERAHEIGHT
 40
0.0
  9
$STEPSPERSEC
 40
2.0
  9
$STEPSIZE
 40
6.0
  9
$3DDWFPREC
 40
2.0
  9
$PSOLWIDTH
 40
0.25
  9
$PSOLHEIGHT
 40
4.0
  9
$LOFTANG1
 40
1.570796326794896
  9
$LOFTANG2
 40
1.570796326794896
  9
$LOFTMAG1
 40
0.0
  9
$LOFTMAG2
 40
0.0
  9
$LOFTPARAM
 70
     7
  9
$LOFTNORMALS
280
     1
  9
$LATITUDE
 40
37.795
  9
$LONGITUDE
 40
-122.394
  9
$NORTHDIRECTION
 40
0.0
  9
$TIMEZONE
 70
 -8000
  9
$LIGHTGLYPHDISPLAY
280
     1
  9
$TILEMODELIGHTSYNCH
280
     1
  9
$CMATERIAL
347
11
  9
$SOLIDHIST
280
     0
  9
$SHOWHIST
280
     1
  9
$DWFFRAME
280
     2
  9
$DGNFRAME
280
     0
  9
$REALWORLDSCALE
290
     1
  9
$INTERFERECOLOR
 62
     1
  9
$INTERFEREOBJVS
345
33
  9
$INTERFEREVPVS
346
30
  9
$CSHADOW
280
     0
  9
$SHADOWPLANELOCATION
 40
0.0
  0
ENDSEC
  0
SECTION
  2
CLASSES
  0
CLASS
  1
ACDBDICTIONARYWDFLT
  2
AcDbDictionaryWithDefault
  3
ObjectDBX Classes
 90
        0
 91
        1
280
     0
281
     0
  0
CLASS
  1
MATERIAL
  2
AcDbMaterial
  3
ObjectDBX Classes
 90
     1153
 91
        3
280
     0
281
     0
  0
CLASS
  1
VISUALSTYLE
  2
AcDbVisualStyle
  3
ObjectDBX Classes
 90
     4095
 91
       24
280
     0
281
     0
  0
CLASS
  1
SCALE
  2
AcDbScale
  3
ObjectDBX Classes
 90
     1153
 91
       17
280
     0
281
     0
  0
CLASS
  1
TABLESTYLE
  2
AcDbTableStyle
  3
ObjectDBX Classes
 90
     4095
 91
        1
280
     0
281
     0
  0
CLASS
  1
MLEADERSTYLE
  2
AcDbMLeaderStyle
  3
ACDB_MLEADERSTYLE_CLASS
 90
     4095
 91
        1
280
     0
281
     0
  0
CLASS
  1
ACDBSECTIONVIEWSTYLE
  2
AcDbSectionViewStyle
  3
ObjectDBX Classes
 90
     1025
 91
        1
280
     0
281
     0
  0
CLASS
  1
ACDBDETAILVIEWSTYLE
  2
AcDbDetailViewStyle
  3
ObjectDBX Classes
 90
     1025
 91
        1
280
     0
281
     0
  0
CLASS
  1
DICTIONARYVAR
  2
AcDbDictionaryVar
  3
ObjectDBX Classes
 90
        0
 91
        5
280
     0
281
     0
  0
CLASS
  1
CELLSTYLEMAP
  2
AcDbCellStyleMap
  3
ObjectDBX Classes
 90
     1152
 91
        1
280
     0
281
     0
  0
ENDSEC
  0
SECTION
  2
TABLES
  0
TABLE
  2
VPORT
  5
8
330
0
100
AcDbSymbolTable
 70
     1
  0
VPORT
  5
57
330
8
100
AcDbSymbolTableRecord
100
AcDbViewportTableRecord
  2
*Active
 70
     0
 10
0.0
 20
0.0
 11
1.0
 21
1.0
 12
0.0
 22
0.0
 13
0.0
 23
0.0
 14
1.0
 24
1.0
 15
0.0
 25
0.0
 16
0.0
 26
0.0
 36
1.0
 17
104.9999999737534
 27
-148.4999999628701
 37
0.0
 40
302.939999924255
 41
0.7070707070707534
 42
50.0
 43
0.0
 44
0.0
 50
0.0
 51
0.0
 71
     0
 72
   100
 73
     1
 74
     0
 75
     1
 76
     0
 77
     0
 78
     0
281
     0
 65
     1
110
0.0
120
0.0
130
0.0
111
1.0
121
0.0
131
0.0
112
0.0
122
1.0
132
0.0
 79
     0
146
0.0
 60
     3
 61
     5
292
     1
282
     1
141
0.0
142
0.0
 63
   250
421
  3355443
  0
ENDTAB
  0
TABLE
  2
LTYPE
  5
5
330
0
100
AcDbSymbolTable
 70
     3
  0
LTYPE
  5
5B
330
5
100
AcDbSymbolTableRecord
100
AcDbLinetypeTableRecord
  2
ByBlock
 70
     0
  3

 72
    65
 73
     0
 40
0.0
  0
LTYPE
  5
5C
330
5
100
AcDbSymbolTableRecord
100
AcDbLinetypeTableRecord
  2
ByLayer
 70
     0
  3

 72
    65
 73
     0
 40
0.0
  0
LTYPE
  5
5D
330
5
100
AcDbSymbolTableRecord
100
AcDbLinetypeTableRecord
  2
Continuous
 70
     0
  3
Solid line
 72
    65
 73
     0
 40
0.0
  0
LTYPE
  5
86
330
5
100
AcDbSymbolTableRecord
100
AcDbLinetypeTableRecord
  2
AI-Linetype-0
 70
     0
  3
Adobe Illustrator Linetype No. 0
 72
    65
 73
     2
 40
1.411111110758333
 49
0.7055555553791667
 74
     0
 49
-0.7055555553791667
 74
     0
  0
LTYPE
  5
88
330
5
100
AcDbSymbolTableRecord
100
AcDbLinetypeTableRecord
  2
AI-Linetype-1
 70
     0
  3
Adobe Illustrator Linetype No. 1
 72
    65
 73
     2
 40
1.411111110758333
 49
0.7055555553791667
 74
     0
 49
-0.7055555553791667
 74
     0
  0
ENDTAB
  0
TABLE
  2
LAYER
  5
2
330
0
100
AcDbSymbolTable
 70
     2
  0
LAYER
  5
54
330
2
100
AcDbSymbolTableRecord
100
AcDbLayerTableRecord
  2
0
 70
     0
 62
     7
  6
Continuous
370
    -3
390
F
347
21
  0
LAYER
  5
78
330
2
100
AcDbSymbolTableRecord
100
AcDbLayerTableRecord
  2
レイヤー 1
 70
     0
 62
     7
  6
Continuous
370
     0
390
F
347
21
  0
ENDTAB
  0
TABLE
  2
STYLE
  5
3
330
0
100
AcDbSymbolTable
 70
     2
  0
STYLE
  5
55
330
3
100
AcDbSymbolTableRecord
100
AcDbTextStyleTableRecord
  2
Standard
 70
     0
 40
0.0
 41
1.0
 50
0.0
 71
     0
 42
0.2
  3
txt
  4

  0
STYLE
  5
5A
330
3
100
AcDbSymbolTableRecord
100
AcDbTextStyleTableRecord
  2
Annotative
 70
     0
 40
0.0
 41
1.0
 50
0.0
 71
     0
 42
0.2
  3
txt
  4

1001
AcadAnnotative
1000
AnnotativeData
1002
{
1070
     1
1070
     1
1002
}
  0
ENDTAB
  0
TABLE
  2
VIEW
  5
6
330
0
100
AcDbSymbolTable
 70
     0
  0
ENDTAB
  0
TABLE
  2
UCS
  5
7
330
0
100
AcDbSymbolTable
 70
     0
  0
ENDTAB
  0
TABLE
  2
APPID
  5
9
330
0
100
AcDbSymbolTable
 70
     2
  0
APPID
  5
56
330
9
100
AcDbSymbolTableRecord
100
AcDbRegAppTableRecord
  2
ACAD
 70
     0
  0
APPID
  5
5E
330
9
100
AcDbSymbolTableRecord
100
AcDbRegAppTableRecord
  2
AcadAnnotative
 70
     0
  0
ENDTAB
  0
TABLE
  2
DIMSTYLE
  5
A
330
0
100
AcDbSymbolTable
 70
     2
100
AcDbDimStyleTable
 71
     0
  0
DIMSTYLE
105
58
330
A
100
AcDbSymbolTableRecord
100
AcDbDimStyleTableRecord
  2
Standard
 70
     0
340
55
  0
DIMSTYLE
105
59
330
A
100
AcDbSymbolTableRecord
100
AcDbDimStyleTableRecord
  2
Annotative
 70
     0
340
55
1001
AcadAnnotative
1000
AnnotativeData
1002
{
1070
     1
1070
     1
1002
}
  0
ENDTAB
  0
TABLE
  2
BLOCK_RECORD
  5
1
330
0
100
AcDbSymbolTable
 70
    21
  0
BLOCK_RECORD
  5
70
330
1
100
AcDbSymbolTableRecord
100
AcDbBlockTableRecord
  2
*Model_Space
340
73
 70
     0
280
     1
281
     0
  0
BLOCK_RECORD
  5
6C
330
1
100
AcDbSymbolTableRecord
100
AcDbBlockTableRecord
  2
*Paper_Space
340
6F
 70
     0
280
     1
281
     0
  0
BLOCK_RECORD
  5
74
330
1
100
AcDbSymbolTableRecord
100
AcDbBlockTableRecord
  2
*Paper_Space0
340
77
 70
     0
280
     1
281
     0
  0
BLOCK_RECORD
  5
79
330
1
100
AcDbSymbolTableRecord
100
AcDbBlockTableRecord
  2
Block_0
340
0
102
{BLKREFS
331
7A
102
}
 70
     0
280
     1
281
     0
  0
BLOCK_RECORD
  5
91
330
1
100
AcDbSymbolTableRecord
100
AcDbBlockTableRecord
  2
Block_1
340
0
102
{BLKREFS
331
92
102
}
 70
     0
280
     1
281
     0
  0
BLOCK_RECORD
  5
97
330
1
100
AcDbSymbolTableRecord
100
AcDbBlockTableRecord
  2
Block_2
340
0
102
{BLKREFS
331
98
102
}
 70
     0
280
     1
281
     0
  0
BLOCK_RECORD
  5
9B
330
1
100
AcDbSymbolTableRecord
100
AcDbBlockTableRecord
  2
Block_3
340
0
102
{BLKREFS
331
9C
102
}
 70
     0
280
     1
281
     0
  0
BLOCK_RECORD
  5
A3
330
1
100
AcDbSymbolTableRecord
100
AcDbBlockTableRecord
  2
Block_4
340
0
102
{BLKREFS
331
A4
102
}
 70
     0
280
     1
281
     0
  0
BLOCK_RECORD
  5
AB
330
1
100
AcDbSymbolTableRecord
100
AcDbBlockTableRecord
  2
Block_5
340
0
102
{BLKREFS
331
AC
102
}
 70
     0
280
     1
281
     0
  0
BLOCK_RECORD
  5
AF
330
1
100
AcDbSymbolTableRecord
100
AcDbBlockTableRecord
  2
Block_6
340
0
102
{BLKREFS
331
B0
102
}
 70
     0
280
     1
281
     0
  0
BLOCK_RECORD
  5
B9
330
1
100
AcDbSymbolTableRecord
100
AcDbBlockTableRecord
  2
Block_7
340
0
102
{BLKREFS
331
BA
102
}
 70
     0
280
     1
281
     0
  0
BLOCK_RECORD
  5
C1
330
1
100
AcDbSymbolTableRecord
100
AcDbBlockTableRecord
  2
Block_8
340
0
102
{BLKREFS
331
C2
102
}
 70
     0
280
     1
281
     0
  0
BLOCK_RECORD
  5
C5
330
1
100
AcDbSymbolTableRecord
100
AcDbBlockTableRecord
  2
Block_9
340
0
102
{BLKREFS
331
C6
102
}
 70
     0
280
     1
281
     0
  0
BLOCK_RECORD
  5
D4
330
1
100
AcDbSymbolTableRecord
100
AcDbBlockTableRecord
  2
Block_10
340
0
102
{BLKREFS
331
D5
102
}
 70
     0
280
     1
281
     0
  0
BLOCK_RECORD
  5
D8
330
1
100
AcDbSymbolTableRecord
100
AcDbBlockTableRecord
  2
Block_11
340
0
102
{BLKREFS
331
D9
102
}
 70
     0
280
     1
281
     0
  0
BLOCK_RECORD
  5
E1
330
1
100
AcDbSymbolTableRecord
100
AcDbBlockTableRecord
  2
Block_12
340
0
102
{BLKREFS
331
E2
102
}
 70
     0
280
     1
281
     0
  0
BLOCK_RECORD
  5
E7
330
1
100
AcDbSymbolTableRecord
100
AcDbBlockTableRecord
  2
Block_13
340
0
102
{BLKREFS
331
E8
102
}
 70
     0
280
     1
281
     0
  0
BLOCK_RECORD
  5
EB
330
1
100
AcDbSymbolTableRecord
100
AcDbBlockTableRecord
  2
Block_14
340
0
102
{BLKREFS
331
EC
102
}
 70
     0
280
     1
281
     0
  0
BLOCK_RECORD
  5
F7
330
1
100
AcDbSymbolTableRecord
100
AcDbBlockTableRecord
  2
Block_15
340
0
102
{BLKREFS
331
F8
102
}
 70
     0
280
     1
281
     0
  0
BLOCK_RECORD
  5
FB
330
1
100
AcDbSymbolTableRecord
100
AcDbBlockTableRecord
  2
Block_16
340
0
102
{BLKREFS
331
FC
102
}
 70
     0
280
     1
281
     0
  0
BLOCK_RECORD
  5
FF
330
1
100
AcDbSymbolTableRecord
100
AcDbBlockTableRecord
  2
Block_17
340
0
102
{BLKREFS
331
100
102
}
 70
     0
280
     1
281
     0
  0
BLOCK_RECORD
  5
110
330
1
100
AcDbSymbolTableRecord
100
AcDbBlockTableRecord
  2
Block_18
340
0
102
{BLKREFS
331
111
102
}
 70
     0
280
     1
281
     0
  0
BLOCK_RECORD
  5
114
330
1
100
AcDbSymbolTableRecord
100
AcDbBlockTableRecord
  2
Block_19
340
0
102
{BLKREFS
331
115
102
}
 70
     0
280
     1
281
     0
  0
ENDTAB
  0
ENDSEC
  0
SECTION
  2
BLOCKS
  0
BLOCK
  5
71
330
70
100
AcDbEntity
  8
0
100
AcDbBlockBegin
  2
*Model_Space
 70
     0
 10
0.0
 20
0.0
 30
0.0
  3
*Model_Space
  1

  0
ENDBLK
  5
72
330
70
100
AcDbEntity
  8
0
100
AcDbBlockEnd
  0
BLOCK
  5
6D
330
6C
100
AcDbEntity
 67
     1
  8
0
100
AcDbBlockBegin
  2
*Paper_Space
 70
     0
 10
0.0
 20
0.0
 30
0.0
  3
*Paper_Space
  1

  0
ENDBLK
  5
6E
330
6C
100
AcDbEntity
 67
     1
  8
0
100
AcDbBlockEnd
  0
BLOCK
  5
75
330
74
100
AcDbEntity
 67
     1
  8
0
100
AcDbBlockBegin
  2
*Paper_Space0
 70
     0
 10
0.0
 20
0.0
 30
0.0
  3
*Paper_Space0
  1

  0
ENDBLK
  5
76
330
74
100
AcDbEntity
 67
     1
  8
0
100
AcDbBlockEnd
  0
BLOCK
  5
7B
330
79
100
AcDbEntity
  8
0
100
AcDbBlockBegin
  2
Block_0
 70
     0
 10
0.0
 20
0.0
 30
0.0
  3
Block_0
  1

  0
LINE
  5
7D
330
79
100
AcDbEntity
  8
レイヤー 1
 62
    18
420
        0
370
    25
100
AcDbLine
 10
93.25665745625453
 20
-142.1214171629884
 30
0.0
 11
104.3567746730669
 21
-142.1214171629884
 31
0.0
  0
LINE
  5
7E
330
79
100
AcDbEntity
  8
レイヤー 1
 62
    18
420
        0
370
    25
100
AcDbLine
 10
103.2563902566959
 20
-143.2210960238221
 30
0.0
 11
103.2563902566959
 21
-155.7215998715744
 31
0.0
  0
LINE
  5
7F
330
79
100
AcDbEntity
  8
レイヤー 1
 62
    18
420
        0
370
    25
100
AcDbLine
 10
93.25665745625453
 20
-143.2210960238221
 30
0.0
 11
103.2563902566959
 21
-143.2210960238221
 31
0.0
  0
LINE
  5
80
330
79
100
AcDbEntity
  8
レイヤー 1
 62
    18
420
        0
370
    25
100
AcDbLine
 10
93.25599093412668
 20
-142.1214171629884
 30
0.0
 11
93.25599093412668
 21
-143.2210960238221
 31
0.0
  0
LINE
  5
81
330
79
100
AcDbEntity
  8
レイヤー 1
 62
    18
420
        0
370
    25
100
AcDbLine
 10
104.3567746730669
 20
-142.1214171629884
 30
0.0
 11
104.3567746730669
 21
-154.6219562885175
 31
0.0
  0
LINE
  5
82
330
79
100
AcDbEntity
  8
レイヤー 1
 62
    18
420
        0
370
    25
100
AcDbLine
 10
120.2572801007446
 20
-154.6219562885175
 30
0.0
 11
120.2572801007446
 21
-155.0215829449889
 31
0.0
  0
LINE
  5
83
330
79
100
AcDbEntity
  8
レイヤー 1
 62
    18
420
        0
370
    25
100
AcDbLine
 10
104.3567746730669
 20
-154.6219562885175
 30
0.0
 11
120.2572801007446
 21
-154.6219562885175
 31
0.0
  0
LINE
  5
84
330
79
100
AcDbEntity
  8
レイヤー 1
 62
    18
420
        0
370
    25
100
AcDbLine
 10
120.2572801007446
 20
-155.0215829449889
 30
0.0
 11
103.2563902566959
 21
-155.7215998715744
 31
0.0
  0
LINE
  5
85
330
79
100
AcDbEntity
  8
レイヤー 1
  6
AI-Linetype-0
 62
   154
420
    23468
370
    25
100
AcDbLine
 10
93.25665745625453
 20
-143.7212967725688
 30
0.0
 11
102.7568569361064
 21
-143.7212967725688
 31
0.0
  0
LINE
  5
87
330
79
100
AcDbEntity
  8
レイヤー 1
  6
AI-Linetype-1
 62
   154
420
    23468
370
    25
100
AcDbLine
 10
102.7568569361064
 20
-143.7212967725688
 30
0.0
 11
102.7568569361064
 21
-154.6219562885175
 31
0.0
  0
CIRCLE
  5
89
330
79
100
AcDbEntity
  8
レイヤー 1
 62
    18
420
        0
370
     9
100
AcDbCircle
 10
124.257003887592
 20
-142.1214171629884
 30
0.0
 40
0.0999066641178353
  0
SPLINE
  5
8A
330
79
100
AcDbEntity
  8
レイヤー 1
 62
    18
420
        0
370
     9
100
AcDbSpline
210
0.0
220
0.0
230
1.0
 70
     9
 71
     3
 72
    17
 73
    13
 74
     0
 42
0.0000000001
 43
0.0000000001
 40
0.0
 40
0.0
 40
0.0
 40
0.0
 40
1.0
 40
1.0
 40
1.0
 40
2.0
 40
2.0
 40
2.0
 40
3.0
 40
3.0
 40
3.0
 40
4.0
 40
4.0
 40
4.0
 40
4.0
 10
124.3569105517098
 20
-154.6219562885175
 30
0.0
 10
124.3569105517098
 20
-154.5661468454969
 30
0.0
 10
124.3121430528519
 20
-154.5213440688621
 30
0.0
 10
124.257003887592
 20
-154.5213440688621
 30
0.0
 10
124.2019000001089
 20
-154.5213440688621
 30
0.0
 10
124.1570972234742
 20
-154.5661468454969
 30
0.0
 10
124.1570972234742
 20
-154.6219562885175
 30
0.0
 10
124.1570972234742
 20
-154.6770601760006
 30
0.0
 10
124.2019000001089
 20
-154.7218629526353
 30
0.0
 10
124.257003887592
 20
-154.7218629526353
 30
0.0
 10
124.3121430528519
 20
-154.7218629526353
 30
0.0
 10
124.3569105517098
 20
-154.6770601760006
 30
0.0
 10
124.3569105517098
 20
-154.6219562885175
 30
0.0
  0
CIRCLE
  5
8B
330
79
100
AcDbEntity
  8
レイヤー 1
 62
    18
420
        0
370
     9
100
AcDbCircle
 10
124.257003887592
 20
-155.0215829449889
 30
0.0
 40
0.0999066641178353
  0
SPLINE
  5
8C
330
79
100
AcDbEntity
  8
レイヤー 1
 62
    18
420
        0
370
     9
100
AcDbSpline
210
0.0
220
0.0
230
1.0
 70
     9
 71
     3
 72
    17
 73
    13
 74
     0
 42
0.0000000001
 43
0.0000000001
 40
0.0
 40
0.0
 40
0.0
 40
0.0
 40
1.0
 40
1.0
 40
1.0
 40
2.0
 40
2.0
 40
2.0
 40
3.0
 40
3.0
 40
3.0
 40
4.0
 40
4.0
 40
4.0
 40
4.0
 10
120.3571867648624
 20
-159.7213589361987
 30
0.0
 10
120.3571867648624
 20
-159.6662550487156
 30
0.0
 10
120.3123839882276
 20
-159.6214522720809
 30
0.0
 10
120.2572801007446
 20
-159.6214522720809
 30
0.0
 10
120.2014706577239
 20
-159.6214522720809
 30
0.0
 10
120.1566678810892
 20
-159.6662550487156
 30
0.0
 10
120.1566678810892
 20
-159.7213589361987
 30
0.0
 10
120.1566678810892
 20
-159.7764981014587
 30
0.0
 10
120.2014706577239
 20
-159.8212656003165
 30
0.0
 10
120.2572801007446
 20
-159.8212656003165
 30
0.0
 10
120.3123839882276
 20
-159.8212656003165
 30
0.0
 10
120.3571867648624
 20
-159.7764981014587
 30
0.0
 10
120.3571867648624
 20
-159.7213589361987
 30
0.0
  0
SPLINE
  5
8D
330
79
100
AcDbEntity
  8
レイヤー 1
 62
    18
420
        0
370
     9
100
AcDbSpline
210
0.0
220
0.0
230
1.0
 70
     9
 71
     3
 72
    17
 73
    13
 74
     0
 42
0.0000000001
 43
0.0000000001
 40
0.0
 40
0.0
 40
0.0
 40
0.0
 40
1.0
 40
1.0
 40
1.0
 40
2.0
 40
2.0
 40
2.0
 40
3.0
 40
3.0
 40
3.0
 40
4.0
 40
4.0
 40
4.0
 40
4.0
 10
93.34072439855424
 20
-159.7213589361987
 30
0.0
 10
93.34072439855424
 20
-159.6662550487156
 30
0.0
 10
93.29662717745703
 20
-159.6214522720809
 30
0.0
 10
93.24082148968614
 20
-159.6214522720809
 30
0.0
 10
93.18571384695333
 20
-159.6214522720809
 30
0.0
 10
93.14091107031856
 20
-159.6662550487156
 30
0.0
 10
93.14091107031856
 20
-159.7213589361987
 30
0.0
 10
93.14091107031856
 20
-159.7764981014587
 30
0.0
 10
93.18571384695333
 20
-159.8212656003165
 30
0.0
 10
93.24082148968614
 20
-159.8212656003165
 30
0.0
 10
93.29662717745703
 20
-159.8212656003165
 30
0.0
 10
93.34072439855424
 20
-159.7764981014587
 30
0.0
 10
93.34072439855424
 20
-159.7213589361987
 30
0.0
  0
SPLINE
  5
8E
330
79
100
AcDbEntity
  8
レイヤー 1
 62
    18
420
        0
370
     9
100
AcDbSpline
210
0.0
220
0.0
230
1.0
 70
     9
 71
     3
 72
    17
 73
    13
 74
     0
 42
0.0000000001
 43
0.0000000001
 40
0.0
 40
0.0
 40
0.0
 40
0.0
 40
1.0
 40
1.0
 40
1.0
 40
2.0
 40
2.0
 40
2.0
 40
3.0
 40
3.0
 40
3.0
 40
4.0
 40
4.0
 40
4.0
 40
4.0
 10
89.35613477798737
 20
-142.1214171629884
 30
0.0
 10
89.35613477798737
 20
-142.0656077199678
 30
0.0
 10
89.31136727912948
 20
-142.0215104988706
 30
0.0
 10
89.25622811386954
 20
-142.0215104988706
 30
0.0
 10
89.2004186708489
 20
-142.0215104988706
 30
0.0
 10
89.15561589421415
 20
-142.0656077199678
 30
0.0
 10
89.15561589421415
 20
-142.1214171629884
 30
0.0
 10
89.15561589421415
 20
-142.1765210504715
 30
0.0
 10
89.2004186708489
 20
-142.2213238271062
 30
0.0
 10
89.25622811386954
 20
-142.2213238271062
 30
0.0
 10
89.31136727912948
 20
-142.2213238271062
 30
0.0
 10
89.35613477798737
 20
-142.1765210504715
 30
0.0
 10
89.35613477798737
 20
-142.1214171629884
 30
0.0
  0
SPLINE
  5
8F
330
79
100
AcDbEntity
  8
レイヤー 1
 62
    18
420
        0
370
     9
100
AcDbSpline
210
0.0
220
0.0
230
1.0
 70
     9
 71
     3
 72
    17
 73
    13
 74
     0
 42
0.0000000001
 43
0.0000000001
 40
0.0
 40
0.0
 40
0.0
 40
0.0
 40
1.0
 40
1.0
 40
1.0
 40
2.0
 40
2.0
 40
2.0
 40
3.0
 40
3.0
 40
3.0
 40
4.0
 40
4.0
 40
4.0
 40
4.0
 10
89.35613477798737
 20
-143.2210960238221
 30
0.0
 10
89.35613477798737
 20
-143.1659568585622
 30
0.0
 10
89.31136727912948
 20
-143.1211893597043
 30
0.0
 10
89.25622811386954
 20
-143.1211893597043
 30
0.0
 10
89.2004186708489
 20
-143.1211893597043
 30
0.0
 10
89.15561589421415
 20
-143.1659568585622
 30
0.0
 10
89.15561589421415
 20
-143.2210960238221
 30
0.0
 10
89.15561589421415
 20
-143.2761999113052
 30
0.0
 10
89.2004186708489
 20
-143.3210026879403
 30
0.0
 10
89.25622811386954
 20
-143.3210026879403
 30
0.0
 10
89.31136727912948
 20
-143.3210026879403
 30
0.0
 10
89.35613477798737
 20
-143.2761999113052
 30
0.0
 10
89.35613477798737
 20
-143.2210960238221
 30
0.0
  0
SPLINE
  5
90
330
79
100
AcDbEntity
  8
レイヤー 1
 62
    18
420
        0
370
     9
100
AcDbSpline
210
0.0
220
0.0
230
1.0
 70
     9
 71
     3
 72
    17
 73
    13
 74
     0
 42
0.0000000001
 43
0.0000000001
 40
0.0
 40
0.0
 40
0.0
 40
0.0
 40
1.0
 40
1.0
 40
1.0
 40
2.0
 40
2.0
 40
2.0
 40
3.0
 40
3.0
 40
3.0
 40
4.0
 40
4.0
 40
4.0
 40
4.0
 10
103.357002476351
 20
-159.7213589361987
 30
0.0
 10
103.357002476351
 20
-159.6662550487156
 30
0.0
 10
103.3122349774934
 20
-159.6214522720809
 30
0.0
 10
103.2563902566959
 20
-159.6214522720809
 30
0.0
 10
103.2012863692125
 20
-159.6214522720809
 30
0.0
 10
103.1564835925778
 20
-159.6662550487156
 30
0.0
 10
103.1564835925778
 20
-159.7213589361987
 30
0.0
 10
103.1564835925778
 20
-159.7764981014587
 30
0.0
 10
103.2012863692125
 20
-159.8212656003165
 30
0.0
 10
103.2563902566959
 20
-159.8212656003165
 30
0.0
 10
103.3122349774934
 20
-159.8212656003165
 30
0.0
 10
103.357002476351
 20
-159.7764981014587
 30
0.0
 10
103.357002476351
 20
-159.7213589361987
 30
0.0
  0
INSERT
  5
92
330
79
100
AcDbEntity
  8
レイヤー 1
100
AcDbBlockReference
  2
Block_1
 10
0.0
 20
0.0
 30
0.0
  0
INSERT
  5
A4
330
79
100
AcDbEntity
  8
レイヤー 1
100
AcDbBlockReference
  2
Block_4
 10
0.0
 20
0.0
 30
0.0
  0
INSERT
  5
BA
330
79
100
AcDbEntity
  8
レイヤー 1
100
AcDbBlockReference
  2
Block_7
 10
0.0
 20
0.0
 30
0.0
  0
LINE
  5
D1
330
79
100
AcDbEntity
  8
レイヤー 1
 62
    18
420
        0
370
     9
100
AcDbLine
 10
93.25665745625453
 20
-159.7213589361987
 30
0.0
 11
103.2563902566959
 21
-159.7213589361987
 31
0.0
  0
LINE
  5
D2
330
79
100
AcDbEntity
  8
レイヤー 1
 62
    18
420
        0
370
     9
100
AcDbLine
 10
93.24082148968614
 20
-149.7614840135667
 30
0.0
 11
93.24082148968614
 21
-160.7218366884522
 31
0.0
  0
LINE
  5
D3
330
79
100
AcDbEntity
  8
レイヤー 1
 62
    18
420
        0
370
     9
100
AcDbLine
 10
103.2563902566959
 20
-158.2613528623355
 30
0.0
 11
103.2563902566959
 21
-160.7218366884522
 31
0.0
  0
INSERT
  5
D5
330
79
100
AcDbEntity
  8
レイヤー 1
100
AcDbBlockReference
  2
Block_10
 10
0.0
 20
0.0
 30
0.0
  0
INSERT
  5
E2
330
79
100
AcDbEntity
  8
レイヤー 1
100
AcDbBlockReference
  2
Block_12
 10
0.0
 20
0.0
 30
0.0
  0
ENDBLK
  5
7C
330
79
100
AcDbEntity
  8
0
100
AcDbBlockEnd
  0
BLOCK
  5
93
330
91
100
AcDbEntity
  8
0
100
AcDbBlockBegin
  2
Block_1
 70
     0
 10
0.0
 20
0.0
 30
0.0
  3
Block_1
  1

  0
LINE
  5
95
330
91
100
AcDbEntity
  8
レイヤー 1
 62
    18
420
        0
370
     9
100
AcDbLine
 10
103.2563902566959
 20
-159.7213589361987
 30
0.0
 11
120.2572801007446
 21
-159.7213589361987
 31
0.0
  0
LINE
  5
96
330
91
100
AcDbEntity
  8
レイヤー 1
 62
    18
420
        0
370
     9
100
AcDbLine
 10
120.2572801007446
 20
-157.5613006579731
 30
0.0
 11
120.2572801007446
 21
-160.7218366884522
 31
0.0
  0
INSERT
  5
98
330
91
100
AcDbEntity
  8
レイヤー 1
100
AcDbBlockReference
  2
Block_2
 10
0.0
 20
0.0
 30
0.0
  0
ENDBLK
  5
94
330
91
100
AcDbEntity
  8
0
100
AcDbBlockEnd
  0
BLOCK
  5
99
330
97
100
AcDbEntity
  8
0
100
AcDbBlockBegin
  2
Block_2
 70
     0
 10
0.0
 20
0.0
 30
0.0
  3
Block_2
  1

  0
INSERT
  5
9C
330
97
100
AcDbEntity
  8
レイヤー 1
100
AcDbBlockReference
  2
Block_3
 10
0.0
 20
0.0
 30
0.0
  0
ENDBLK
  5
9A
330
97
100
AcDbEntity
  8
0
100
AcDbBlockEnd
  0
BLOCK
  5
9D
330
9B
100
AcDbEntity
  8
0
100
AcDbBlockBegin
  2
Block_3
 70
     0
 10
0.0
 20
0.0
 30
0.0
  3
Block_3
  1

  0
SPLINE
  5
9F
330
9B
100
AcDbEntity
  8
レイヤー 1
100
AcDbSpline
210
0.0
220
0.0
230
1.0
 70
    11
 71
     3
 72
    26
 73
    22
 74
     0
 42
0.0000000001
 43
0.0000000001
 40
0.0
 40
0.0
 40
0.0
 40
0.0
 40
1.0
 40
1.0
 40
1.0
 40
2.0
 40
2.0
 40
2.0
 40
3.0
 40
3.0
 40
3.0
 40
4.0
 40
4.0
 40
4.0
 40
5.0
 40
5.0
 40
5.0
 40
6.0
 40
6.0
 40
6.0
 40
7.0
 40
7.0
 40
7.0
 40
7.0
 10
111.2149169643837
 20
-159.0755614836686
 30
0.0
 10
111.2149169643837
 20
-159.0755614836686
 30
0.0
 10
111.2149169643837
 20
-157.971408380646
 30
0.0
 10
111.2149169643837
 20
-157.971408380646
 30
0.0
 10
111.2149169643837
 20
-157.971408380646
 30
0.0
 10
110.9334526632388
 20
-157.971408380646
 30
0.0
 10
110.9334526632388
 20
-157.971408380646
 30
0.0
 10
110.9334526632388
 20
-157.971408380646
 30
0.0
 10
110.9334526632388
 20
-157.8232692747803
 30
0.0
 10
110.9334526632388
 20
-157.8232692747803
 30
0.0
 10
111.2166395121264
 20
-157.8084553641937
 30
0.0
 10
111.2562581102068
 20
-157.6455023477414
 30
0.0
 10
111.2814073072491
 20
-157.5311251776311
 30
0.0
 10
111.2814073072491
 20
-157.5311251776311
 30
0.0
 10
111.4061197638151
 20
-157.5311251776311
 30
0.0
 10
111.4061197638151
 20
-157.5311251776311
 30
0.0
 10
111.4061197638151
 20
-157.5311251776311
 30
0.0
 10
111.4061197638151
 20
-159.0755614836686
 30
0.0
 10
111.4061197638151
 20
-159.0755614836686
 30
0.0
 10
111.4061197638151
 20
-159.0755614836686
 30
0.0
 10
111.2149169643837
 20
-159.0755614836686
 30
0.0
 10
111.2149169643837
 20
-159.0755614836686
 30
0.0
  0
HATCH
  5
A0
330
9B
100
AcDbEntity
  8
レイヤー 1
 62
    18
420
        0
440
 33554687
100
AcDbHatch
 10
0.0
 20
0.0
 30
0.0
210
0.0
220
0.0
230
1.0
  2
SOLID
 70
     1
 71
     1
 91
        1
 92
        1
 93
        1
 72
     4
 94
        3
 73
     0
 74
     0
 95
       26
 96
       22
 40
0.0
 40
0.0
 40
0.0
 40
0.0
 40
1.0
 40
1.0
 40
1.0
 40
2.0
 40
2.0
 40
2.0
 40
3.0
 40
3.0
 40
3.0
 40
4.0
 40
4.0
 40
4.0
 40
5.0
 40
5.0
 40
5.0
 40
6.0
 40
6.0
 40
6.0
 40
7.0
 40
7.0
 40
7.0
 40
7.0
 10
111.2149169643837
 20
-159.0755614836686
 10
111.2149169643837
 20
-159.0755614836686
 10
111.2149169643837
 20
-157.971408380646
 10
111.2149169643837
 20
-157.971408380646
 10
111.2149169643837
 20
-157.971408380646
 10
110.9334526632388
 20
-157.971408380646
 10
110.9334526632388
 20
-157.971408380646
 10
110.9334526632388
 20
-157.971408380646
 10
110.9334526632388
 20
-157.8232692747803
 10
110.9334526632388
 20
-157.8232692747803
 10
111.2166395121264
 20
-157.8084553641937
 10
111.2562581102068
 20
-157.6455023477414
 10
111.2814073072491
 20
-157.5311251776311
 10
111.2814073072491
 20
-157.5311251776311
 10
111.4061197638151
 20
-157.5311251776311
 10
111.4061197638151
 20
-157.5311251776311
 10
111.4061197638151
 20
-157.5311251776311
 10
111.4061197638151
 20
-159.0755614836686
 10
111.4061197638151
 20
-159.0755614836686
 10
111.4061197638151
 20
-159.0755614836686
 10
111.2149169643837
 20
-159.0755614836686
 10
111.2149169643837
 20
-159.0755614836686
 97
        0
 97
        1
330
9F
 75
     2
 76
     1
 98
        1
 10
0.0
 20
0.0
450
        0
451
        0
460
0.0
461
0.0
452
        0
462
0.0
453
        0
470

  0
SPLINE
  5
A1
330
9B
100
AcDbEntity
  8
レイヤー 1
100
AcDbSpline
210
0.0
220
0.0
230
1.0
 70
     9
 71
     3
 72
    26
 73
    22
 74
     0
 42
0.0000000001
 43
0.0000000001
 40
0.0
 40
0.0
 40
0.0
 40
0.0
 40
1.0
 40
1.0
 40
1.0
 40
2.0
 40
2.0
 40
2.0
 40
3.0
 40
3.0
 40
3.0
 40
4.0
 40
4.0
 40
4.0
 40
5.0
 40
5.0
 40
5.0
 40
6.0
 40
6.0
 40
6.0
 40
7.0
 40
7.0
 40
7.0
 40
7.0
 10
112.1822997766419
 20
-159.0755614836686
 30
0.0
 10
112.1822997766419
 20
-159.0755614836686
 30
0.0
 10
111.9804171812063
 20
-159.0755614836686
 30
0.0
 10
111.9804171812063
 20
-159.0755614836686
 30
0.0
 10
112.0021212827633
 20
-158.7665364186417
 30
0.0
 10
112.1661078278612
 20
-158.2483940576601
 30
0.0
 10
112.5123399241289
 20
-157.7426540404254
 30
0.0
 10
112.5123399241289
 20
-157.7426540404254
 30
0.0
 10
111.7981716300366
 20
-157.7426540404254
 30
0.0
 10
111.7981716300366
 20
-157.7426540404254
 30
0.0
 10
111.7981716300366
 20
-157.7426540404254
 30
0.0
 10
111.7981716300366
 20
-157.5311251776311
 30
0.0
 10
111.7981716300366
 20
-157.5311251776311
 30
0.0
 10
111.7981716300366
 20
-157.5311251776311
 30
0.0
 10
112.7142225195645
 20
-157.5311251776311
 30
0.0
 10
112.7142225195645
 20
-157.5311251776311
 30
0.0
 10
112.7142225195645
 20
-157.5311251776311
 30
0.0
 10
112.7142225195645
 20
-157.7426540404254
 30
0.0
 10
112.7142225195645
 20
-157.7426540404254
 30
0.0
 10
112.4386148807445
 20
-158.0327310802835
 30
0.0
 10
112.211238578718
 20
-158.6249429941979
 30
0.0
 10
112.1822997766419
 20
-159.0755614836686
 30
0.0
  0
HATCH
  5
A2
330
9B
100
AcDbEntity
  8
レイヤー 1
 62
    18
420
        0
440
 33554687
100
AcDbHatch
 10
0.0
 20
0.0
 30
0.0
210
0.0
220
0.0
230
1.0
  2
SOLID
 70
     1
 71
     1
 91
        1
 92
        1
 93
        1
 72
     4
 94
        3
 73
     0
 74
     0
 95
       26
 96
       22
 40
0.0
 40
0.0
 40
0.0
 40
0.0
 40
1.0
 40
1.0
 40
1.0
 40
2.0
 40
2.0
 40
2.0
 40
3.0
 40
3.0
 40
3.0
 40
4.0
 40
4.0
 40
4.0
 40
5.0
 40
5.0
 40
5.0
 40
6.0
 40
6.0
 40
6.0
 40
7.0
 40
7.0
 40
7.0
 40
7.0
 10
112.1822997766419
 20
-159.0755614836686
 10
112.1822997766419
 20
-159.0755614836686
 10
111.9804171812063
 20
-159.0755614836686
 10
111.9804171812063
 20
-159.0755614836686
 10
112.0021212827633
 20
-158.7665364186417
 10
112.1661078278612
 20
-158.2483940576601
 10
112.5123399241289
 20
-157.7426540404254
 10
112.5123399241289
 20
-157.7426540404254
 10
111.7981716300366
 20
-157.7426540404254
 10
111.7981716300366
 20
-157.7426540404254
 10
111.7981716300366
 20
-157.7426540404254
 10
111.7981716300366
 20
-157.5311251776311
 10
111.7981716300366
 20
-157.5311251776311
 10
111.7981716300366
 20
-157.5311251776311
 10
112.7142225195645
 20
-157.5311251776311
 10
112.7142225195645
 20
-157.5311251776311
 10
112.7142225195645
 20
-157.5311251776311
 10
112.7142225195645
 20
-157.7426540404254
 10
112.7142225195645
 20
-157.7426540404254
 10
112.4386148807445
 20
-158.0327310802835
 10
112.211238578718
 20
-158.6249429941979
 10
112.1822997766419
 20
-159.0755614836686
 97
        0
 97
        1
330
A1
 75
     2
 76
     1
 98
        1
 10
0.0
 20
0.0
450
        0
451
        0
460
0.0
461
0.0
452
        0
462
0.0
453
        0
470

  0
ENDBLK
  5
9E
330
9B
100
AcDbEntity
  8
0
100
AcDbBlockEnd
  0
BLOCK
  5
A5
330
A3
100
AcDbEntity
  8
0
100
AcDbBlockBegin
  2
Block_4
 70
     0
 10
0.0
 20
0.0
 30
0.0
  3
Block_4
  1

  0
LINE
  5
A7
330
A3
100
AcDbEntity
  8
レイヤー 1
 62
    18
420
        0
370
     9
100
AcDbLine
 10
89.25622811386954
 20
-142.1214171629884
 30
0.0
 11
89.25622811386954
 21
-141.1209717732192
 31
0.0
  0
LINE
  5
A8
330
A3
100
AcDbEntity
  8
レイヤー 1
 62
    18
420
        0
370
     9
100
AcDbLine
 10
89.25622811386954
 20
-142.1214171629884
 30
0.0
 11
89.25622811386954
 21
-144.2208682205381
 31
0.0
  0
LINE
  5
A9
330
A3
100
AcDbEntity
  8
レイヤー 1
 62
    18
420
        0
370
     9
100
AcDbLine
 10
90.7155639099721
 20
-142.1214171629884
 30
0.0
 11
88.25578563939295
 21
-142.1214171629884
 31
0.0
  0
LINE
  5
AA
330
A3
100
AcDbEntity
  8
レイヤー 1
 62
    18
420
        0
370
     9
100
AcDbLine
 10
90.7155639099721
 20
-143.2210960238221
 30
0.0
 11
88.25578563939295
 21
-143.2210960238221
 31
0.0
  0
INSERT
  5
AC
330
A3
100
AcDbEntity
  8
レイヤー 1
100
AcDbBlockReference
  2
Block_5
 10
0.0
 20
0.0
 30
0.0
  0
ENDBLK
  5
A6
330
A3
100
AcDbEntity
  8
0
100
AcDbBlockEnd
  0
BLOCK
  5
AD
330
AB
100
AcDbEntity
  8
0
100
AcDbBlockBegin
  2
Block_5
 70
     0
 10
0.0
 20
0.0
 30
0.0
  3
Block_5
  1

  0
INSERT
  5
B0
330
AB
100
AcDbEntity
  8
レイヤー 1
100
AcDbBlockReference
  2
Block_6
 10
0.0
 20
0.0
 30
0.0
  0
ENDBLK
  5
AE
330
AB
100
AcDbEntity
  8
0
100
AcDbBlockEnd
  0
BLOCK
  5
B1
330
AF
100
AcDbEntity
  8
0
100
AcDbBlockBegin
  2
Block_6
 70
     0
 10
0.0
 20
0.0
 30
0.0
  3
Block_6
  1

  0
SPLINE
  5
B3
330
AF
100
AcDbEntity
  8
レイヤー 1
100
AcDbSpline
210
0.0
220
0.0
230
1.0
 70
    11
 71
     3
 72
    26
 73
    22
 74
     0
 42
0.0000000001
 43
0.0000000001
 40
0.0
 40
0.0
 40
0.0
 40
0.0
 40
1.0
 40
1.0
 40
1.0
 40
2.0
 40
2.0
 40
2.0
 40
3.0
 40
3.0
 40
3.0
 40
4.0
 40
4.0
 40
4.0
 40
5.0
 40
5.0
 40
5.0
 40
6.0
 40
6.0
 40
6.0
 40
7.0
 40
7.0
 40
7.0
 40
7.0
 10
88.60957842836844
 20
-140.8961371175537
 30
0.0
 10
88.60957842836844
 20
-140.8961371175537
 30
0.0
 10
87.50542532534586
 20
-140.8961371175537
 30
0.0
 10
87.50542532534586
 20
-140.8961371175537
 30
0.0
 10
87.50542532534586
 20
-140.8961371175537
 30
0.0
 10
87.50542532534586
 20
-141.1776014186986
 30
0.0
 10
87.50542532534586
 20
-141.1776014186986
 30
0.0
 10
87.50542532534586
 20
-141.1776014186986
 30
0.0
 10
87.35728621948013
 20
-141.1776014186986
 30
0.0
 10
87.35728621948013
 20
-141.1776014186986
 30
0.0
 10
87.34247230889355
 20
-140.8944145698111
 30
0.0
 10
87.17951929244124
 20
-140.8547959717307
 30
0.0
 10
87.06514212233093
 20
-140.8296467746884
 30
0.0
 10
87.06514212233093
 20
-140.8296467746884
 30
0.0
 10
87.06514212233093
 20
-140.7049343181224
 30
0.0
 10
87.06514212233093
 20
-140.7049343181224
 30
0.0
 10
87.06514212233093
 20
-140.7049343181224
 30
0.0
 10
88.60957842836844
 20
-140.7049343181224
 30
0.0
 10
88.60957842836844
 20
-140.7049343181224
 30
0.0
 10
88.60957842836844
 20
-140.7049343181224
 30
0.0
 10
88.60957842836844
 20
-140.8961371175537
 30
0.0
 10
88.60957842836844
 20
-140.8961371175537
 30
0.0
  0
HATCH
  5
B4
330
AF
100
AcDbEntity
  8
レイヤー 1
 62
    18
420
        0
440
 33554687
100
AcDbHatch
 10
0.0
 20
0.0
 30
0.0
210
0.0
220
0.0
230
1.0
  2
SOLID
 70
     1
 71
     1
 91
        1
 92
        1
 93
        1
 72
     4
 94
        3
 73
     0
 74
     0
 95
       26
 96
       22
 40
0.0
 40
0.0
 40
0.0
 40
0.0
 40
1.0
 40
1.0
 40
1.0
 40
2.0
 40
2.0
 40
2.0
 40
3.0
 40
3.0
 40
3.0
 40
4.0
 40
4.0
 40
4.0
 40
5.0
 40
5.0
 40
5.0
 40
6.0
 40
6.0
 40
6.0
 40
7.0
 40
7.0
 40
7.0
 40
7.0
 10
88.60957842836844
 20
-140.8961371175537
 10
88.60957842836844
 20
-140.8961371175537
 10
87.50542532534586
 20
-140.8961371175537
 10
87.50542532534586
 20
-140.8961371175537
 10
87.50542532534586
 20
-140.8961371175537
 10
87.50542532534586
 20
-141.1776014186986
 10
87.50542532534586
 20
-141.1776014186986
 10
87.50542532534586
 20
-141.1776014186986
 10
87.35728621948013
 20
-141.1776014186986
 10
87.35728621948013
 20
-141.1776014186986
 10
87.34247230889355
 20
-140.8944145698111
 10
87.17951929244124
 20
-140.8547959717307
 10
87.06514212233093
 20
-140.8296467746884
 10
87.06514212233093
 20
-140.8296467746884
 10
87.06514212233093
 20
-140.7049343181224
 10
87.06514212233093
 20
-140.7049343181224
 10
87.06514212233093
 20
-140.7049343181224
 10
88.60957842836844
 20
-140.7049343181224
 10
88.60957842836844
 20
-140.7049343181224
 10
88.60957842836844
 20
-140.7049343181224
 10
88.60957842836844
 20
-140.8961371175537
 10
88.60957842836844
 20
-140.8961371175537
 97
        0
 97
        1
330
B3
 75
     2
 76
     1
 98
        1
 10
0.0
 20
0.0
450
        0
451
        0
460
0.0
461
0.0
452
        0
462
0.0
453
        0
470

  0
SPLINE
  5
B5
330
AF
100
AcDbEntity
  8
レイヤー 1
100
AcDbSpline
210
0.0
220
0.0
230
1.0
 70
    11
 71
     3
 72
    17
 73
    13
 74
     0
 42
0.0000000001
 43
0.0000000001
 40
0.0
 40
0.0
 40
0.0
 40
0.0
 40
1.0
 40
1.0
 40
1.0
 40
2.0
 40
2.0
 40
2.0
 40
3.0
 40
3.0
 40
3.0
 40
4.0
 40
4.0
 40
4.0
 40
4.0
 10
88.60957842836844
 20
-140.2281331029638
 30
0.0
 10
88.60957842836844
 20
-140.2281331029638
 30
0.0
 10
88.35774194839668
 20
-140.2281331029638
 30
0.0
 10
88.35774194839668
 20
-140.2281331029638
 30
0.0
 10
88.35774194839668
 20
-140.2281331029638
 30
0.0
 10
88.35774194839668
 20
-140.0135036542327
 30
0.0
 10
88.35774194839668
 20
-140.0135036542327
 30
0.0
 10
88.35774194839668
 20
-140.0135036542327
 30
0.0
 10
88.60957842836844
 20
-140.0135036542327
 30
0.0
 10
88.60957842836844
 20
-140.0135036542327
 30
0.0
 10
88.60957842836844
 20
-140.0135036542327
 30
0.0
 10
88.60957842836844
 20
-140.2281331029638
 30
0.0
 10
88.60957842836844
 20
-140.2281331029638
 30
0.0
  0
HATCH
  5
B6
330
AF
100
AcDbEntity
  8
レイヤー 1
 62
    18
420
        0
440
 33554687
100
AcDbHatch
 10
0.0
 20
0.0
 30
0.0
210
0.0
220
0.0
230
1.0
  2
SOLID
 70
     1
 71
     1
 91
        1
 92
        1
 93
        1
 72
     4
 94
        3
 73
     0
 74
     0
 95
       17
 96
       13
 40
0.0
 40
0.0
 40
0.0
 40
0.0
 40
1.0
 40
1.0
 40
1.0
 40
2.0
 40
2.0
 40
2.0
 40
3.0
 40
3.0
 40
3.0
 40
4.0
 40
4.0
 40
4.0
 40
4.0
 10
88.60957842836844
 20
-140.2281331029638
 10
88.60957842836844
 20
-140.2281331029638
 10
88.35774194839668
 20
-140.2281331029638
 10
88.35774194839668
 20
-140.2281331029638
 10
88.35774194839668
 20
-140.2281331029638
 10
88.35774194839668
 20
-140.0135036542327
 10
88.35774194839668
 20
-140.0135036542327
 10
88.35774194839668
 20
-140.0135036542327
 10
88.60957842836844
 20
-140.0135036542327
 10
88.60957842836844
 20
-140.0135036542327
 10
88.60957842836844
 20
-140.0135036542327
 10
88.60957842836844
 20
-140.2281331029638
 10
88.60957842836844
 20
-140.2281331029638
 97
        0
 97
        1
330
B5
 75
     2
 76
     1
 98
        1
 10
0.0
 20
0.0
450
        0
451
        0
460
0.0
461
0.0
452
        0
462
0.0
453
        0
470

  0
SPLINE
  5
B7
330
AF
100
AcDbEntity
  8
レイヤー 1
100
AcDbSpline
210
0.0
220
0.0
230
1.0
 70
    11
 71
     3
 72
    26
 73
    22
 74
     0
 42
0.0000000001
 43
0.0000000001
 40
0.0
 40
0.0
 40
0.0
 40
0.0
 40
1.0
 40
1.0
 40
1.0
 40
2.0
 40
2.0
 40
2.0
 40
3.0
 40
3.0
 40
3.0
 40
4.0
 40
4.0
 40
4.0
 40
5.0
 40
5.0
 40
5.0
 40
6.0
 40
6.0
 40
6.0
 40
7.0
 40
7.0
 40
7.0
 40
7.0
 10
88.60957842836844
 20
-139.4274929121917
 30
0.0
 10
88.60957842836844
 20
-139.4274929121917
 30
0.0
 10
87.50542532534586
 20
-139.4274929121917
 30
0.0
 10
87.50542532534586
 20
-139.4274929121917
 30
0.0
 10
87.50542532534586
 20
-139.4274929121917
 30
0.0
 10
87.50542532534586
 20
-139.7089572133366
 30
0.0
 10
87.50542532534586
 20
-139.7089572133366
 30
0.0
 10
87.50542532534586
 20
-139.7089572133366
 30
0.0
 10
87.35728621948013
 20
-139.7089572133366
 30
0.0
 10
87.35728621948013
 20
-139.7089572133366
 30
0.0
 10
87.34247230889355
 20
-139.4257703644491
 30
0.0
 10
87.17951929244124
 20
-139.3861517663687
 30
0.0
 10
87.06514212233093
 20
-139.3610025693264
 30
0.0
 10
87.06514212233093
 20
-139.3610025693264
 30
0.0
 10
87.06514212233093
 20
-139.2362901127603
 30
0.0
 10
87.06514212233093
 20
-139.2362901127603
 30
0.0
 10
87.06514212233093
 20
-139.2362901127603
 30
0.0
 10
88.60957842836844
 20
-139.2362901127603
 30
0.0
 10
88.60957842836844
 20
-139.2362901127603
 30
0.0
 10
88.60957842836844
 20
-139.2362901127603
 30
0.0
 10
88.60957842836844
 20
-139.4274929121917
 30
0.0
 10
88.60957842836844
 20
-139.4274929121917
 30
0.0
  0
HATCH
  5
B8
330
AF
100
AcDbEntity
  8
レイヤー 1
 62
    18
420
        0
440
 33554687
100
AcDbHatch
 10
0.0
 20
0.0
 30
0.0
210
0.0
220
0.0
230
1.0
  2
SOLID
 70
     1
 71
     1
 91
        1
 92
        1
 93
        1
 72
     4
 94
        3
 73
     0
 74
     0
 95
       26
 96
       22
 40
0.0
 40
0.0
 40
0.0
 40
0.0
 40
1.0
 40
1.0
 40
1.0
 40
2.0
 40
2.0
 40
2.0
 40
3.0
 40
3.0
 40
3.0
 40
4.0
 40
4.0
 40
4.0
 40
5.0
 40
5.0
 40
5.0
 40
6.0
 40
6.0
 40
6.0
 40
7.0
 40
7.0
 40
7.0
 40
7.0
 10
88.60957842836844
 20
-139.4274929121917
 10
88.60957842836844
 20
-139.4274929121917
 10
87.50542532534586
 20
-139.4274929121917
 10
87.50542532534586
 20
-139.4274929121917
 10
87.50542532534586
 20
-139.4274929121917
 10
87.50542532534586
 20
-139.7089572133366
 10
87.50542532534586
 20
-139.7089572133366
 10
87.50542532534586
 20
-139.7089572133366
 10
87.35728621948013
 20
-139.7089572133366
 10
87.35728621948013
 20
-139.7089572133366
 10
87.34247230889355
 20
-139.4257703644491
 10
87.17951929244124
 20
-139.3861517663687
 10
87.06514212233093
 20
-139.3610025693264
 10
87.06514212233093
 20
-139.3610025693264
 10
87.06514212233093
 20
-139.2362901127603
 10
87.06514212233093
 20
-139.2362901127603
 10
87.06514212233093
 20
-139.2362901127603
 10
88.60957842836844
 20
-139.2362901127603
 10
88.60957842836844
 20
-139.2362901127603
 10
88.60957842836844
 20
-139.2362901127603
 10
88.60957842836844
 20
-139.4274929121917
 10
88.60957842836844
 20
-139.4274929121917
 97
        0
 97
        1
330
B7
 75
     2
 76
     1
 98
        1
 10
0.0
 20
0.0
450
        0
451
        0
460
0.0
461
0.0
452
        0
462
0.0
453
        0
470

  0
ENDBLK
  5
B2
330
AF
100
AcDbEntity
  8
0
100
AcDbBlockEnd
  0
BLOCK
  5
BB
330
B9
100
AcDbEntity
  8
0
100
AcDbBlockBegin
  2
Block_7
 70
     0
 10
0.0
 20
0.0
 30
0.0
  3
Block_7
  1

  0
LINE
  5
BD
330
B9
100
AcDbEntity
  8
レイヤー 1
 62
    18
420
        0
370
     9
100
AcDbLine
 10
124.257003887592
 20
-155.0215829449889
 30
0.0
 11
124.257003887592
 21
-156.0213551417048
 31
0.0
  0
LINE
  5
BE
330
B9
100
AcDbEntity
  8
レイヤー 1
 62
    18
420
        0
370
     9
100
AcDbLine
 10
124.257003887592
 20
-154.6219562885175
 30
0.0
 11
124.257003887592
 21
-155.0215829449889
 31
0.0
  0
LINE
  5
BF
330
B9
100
AcDbEntity
  8
レイヤー 1
 62
    18
420
        0
370
     9
100
AcDbLine
 10
122.7969978137287
 20
-154.6219562885175
 30
0.0
 11
125.2567760843079
 21
-154.6219562885175
 31
0.0
  0
LINE
  5
C0
330
B9
100
AcDbEntity
  8
レイヤー 1
 62
    18
420
        0
370
     9
100
AcDbLine
 10
122.7969978137287
 20
-155.0215829449889
 30
0.0
 11
125.2567760843079
 21
-155.0215829449889
 31
0.0
  0
INSERT
  5
C2
330
B9
100
AcDbEntity
  8
レイヤー 1
100
AcDbBlockReference
  2
Block_8
 10
0.0
 20
0.0
 30
0.0
  0
ENDBLK
  5
BC
330
B9
100
AcDbEntity
  8
0
100
AcDbBlockEnd
  0
BLOCK
  5
C3
330
C1
100
AcDbEntity
  8
0
100
AcDbBlockBegin
  2
Block_8
 70
     0
 10
0.0
 20
0.0
 30
0.0
  3
Block_8
  1

  0
INSERT
  5
C6
330
C1
100
AcDbEntity
  8
レイヤー 1
100
AcDbBlockReference
  2
Block_9
 10
0.0
 20
0.0
 30
0.0
  0
ENDBLK
  5
C4
330
C1
100
AcDbEntity
  8
0
100
AcDbBlockEnd
  0
BLOCK
  5
C7
330
C5
100
AcDbEntity
  8
0
100
AcDbBlockBegin
  2
Block_9
 70
     0
 10
0.0
 20
0.0
 30
0.0
  3
Block_9
  1

  0
SPLINE
  5
C9
330
C5
100
AcDbEntity
  8
レイヤー 1
100
AcDbSpline
210
0.0
220
0.0
230
1.0
 70
     9
 71
     3
 72
    17
 73
    13
 74
     0
 42
0.0000000001
 43
0.0000000001
 40
0.0
 40
0.0
 40
0.0
 40
0.0
 40
1.0
 40
1.0
 40
1.0
 40
2.0
 40
2.0
 40
2.0
 40
3.0
 40
3.0
 40
3.0
 40
4.0
 40
4.0
 40
4.0
 40
4.0
 10
121.5932671136989
 20
-155.57878956614
 30
0.0
 10
121.5932671136989
 20
-155.7913519575799
 30
0.0
 10
121.8767984721349
 20
-155.8313150652088
 30
0.0
 10
122.2216525302085
 20
-155.8313150652088
 30
0.0
 10
122.5410128816911
 20
-155.8313150652088
 30
0.0
 10
122.8496934371695
 20
-155.8006537153901
 30
0.0
 10
122.8496934371695
 20
-155.57878956614
 30
0.0
 10
122.8496934371695
 20
-155.3676052128942
 30
0.0
 10
122.5685736455731
 20
-155.3262640670712
 30
0.0
 10
122.2216525302085
 20
-155.3262640670712
 30
0.0
 10
121.9019476691773
 20
-155.3262640670712
 30
0.0
 10
121.5932671136989
 20
-155.3586479646326
 30
0.0
 10
121.5932671136989
 20
-155.57878956614
 30
0.0
  0
SPLINE
  5
CA
330
C5
100
AcDbEntity
  8
レイヤー 1
100
AcDbSpline
210
0.0
220
0.0
230
1.0
 70
     9
 71
     3
 72
    29
 73
    25
 74
     0
 42
0.0000000001
 43
0.0000000001
 40
0.0
 40
0.0
 40
0.0
 40
0.0
 40
1.0
 40
1.0
 40
1.0
 40
2.0
 40
2.0
 40
2.0
 40
3.0
 40
3.0
 40
3.0
 40
4.0
 40
4.0
 40
4.0
 40
5.0
 40
5.0
 40
5.0
 40
6.0
 40
6.0
 40
6.0
 40
7.0
 40
7.0
 40
7.0
 40
8.0
 40
8.0
 40
8.0
 40
8.0
 10
122.815931501414
 20
-155.2397921703914
 30
0.0
 10
123.0253933069172
 20
-155.3317762198476
 30
0.0
 10
123.0443413320861
 20
-155.4795708161648
 30
0.0
 10
123.0443413320861
 20
-155.57878956614
 30
0.0
 10
123.0443413320861
 20
-155.7159043664529
 30
0.0
 10
122.9978325430352
 20
-155.8364827084367
 30
0.0
 10
122.815931501414
 20
-155.9177869618886
 30
0.0
 10
122.6212836064974
 20
-156.005981406311
 30
0.0
 10
122.3846055466608
 20
-156.0221733550917
 30
0.0
 10
122.2216525302085
 20
-156.0221733550917
 30
0.0
 10
122.077647538925
 20
-156.0221733550917
 30
0.0
 10
121.8258110589532
 20
-156.0080484636021
 30
0.0
 10
121.6270290494543
 20
-155.9177869618886
 30
0.0
 10
121.4241129253731
 20
-155.8258029124324
 30
0.0
 10
121.4006862760734
 20
-155.6886881121195
 30
0.0
 10
121.4006862760734
 20
-155.57878956614
 30
0.0
 10
121.4006862760734
 20
-155.4433973135697
 30
0.0
 10
121.4451280078331
 20
-155.3207519142948
 30
0.0
 10
121.6270290494543
 20
-155.2397921703914
 30
0.0
 10
121.8196098870798
 20
-155.1550428214543
 30
0.0
 10
122.0480197177518
 20
-155.1350612676398
 30
0.0
 10
122.2216525302085
 20
-155.1350612676398
 30
0.0
 10
122.3928737758254
 20
-155.1350612676398
 30
0.0
 10
122.6233506637886
 20
-155.1533202737116
 30
0.0
 10
122.815931501414
 20
-155.2397921703914
 30
0.0
  0
HATCH
  5
CB
330
C5
100
AcDbEntity
  8
レイヤー 1
 62
    18
420
        0
440
 33554687
100
AcDbHatch
 10
0.0
 20
0.0
 30
0.0
210
0.0
220
0.0
230
1.0
  2
SOLID
 70
     1
 71
     1
 91
        2
 92
        1
 93
        1
 72
     4
 94
        3
 73
     0
 74
     0
 95
       17
 96
       13
 40
0.0
 40
0.0
 40
0.0
 40
0.0
 40
1.0
 40
1.0
 40
1.0
 40
2.0
 40
2.0
 40
2.0
 40
3.0
 40
3.0
 40
3.0
 40
4.0
 40
4.0
 40
4.0
 40
4.0
 10
121.5932671136989
 20
-155.57878956614
 10
121.5932671136989
 20
-155.7913519575799
 10
121.8767984721349
 20
-155.8313150652088
 10
122.2216525302085
 20
-155.8313150652088
 10
122.5410128816911
 20
-155.8313150652088
 10
122.8496934371695
 20
-155.8006537153901
 10
122.8496934371695
 20
-155.57878956614
 10
122.8496934371695
 20
-155.3676052128942
 10
122.5685736455731
 20
-155.3262640670712
 10
122.2216525302085
 20
-155.3262640670712
 10
121.9019476691773
 20
-155.3262640670712
 10
121.5932671136989
 20
-155.3586479646326
 10
121.5932671136989
 20
-155.57878956614
 97
        0
 97
        1
330
C9
 92
        1
 93
        1
 72
     4
 94
        3
 73
     0
 74
     0
 95
       29
 96
       25
 40
0.0
 40
0.0
 40
0.0
 40
0.0
 40
1.0
 40
1.0
 40
1.0
 40
2.0
 40
2.0
 40
2.0
 40
3.0
 40
3.0
 40
3.0
 40
4.0
 40
4.0
 40
4.0
 40
5.0
 40
5.0
 40
5.0
 40
6.0
 40
6.0
 40
6.0
 40
7.0
 40
7.0
 40
7.0
 40
8.0
 40
8.0
 40
8.0
 40
8.0
 10
122.815931501414
 20
-155.2397921703914
 10
123.0253933069172
 20
-155.3317762198476
 10
123.0443413320861
 20
-155.4795708161648
 10
123.0443413320861
 20
-155.57878956614
 10
123.0443413320861
 20
-155.7159043664529
 10
122.9978325430352
 20
-155.8364827084367
 10
122.815931501414
 20
-155.9177869618886
 10
122.6212836064974
 20
-156.005981406311
 10
122.3846055466608
 20
-156.0221733550917
 10
122.2216525302085
 20
-156.0221733550917
 10
122.077647538925
 20
-156.0221733550917
 10
121.8258110589532
 20
-156.0080484636021
 10
121.6270290494543
 20
-155.9177869618886
 10
121.4241129253731
 20
-155.8258029124324
 10
121.4006862760734
 20
-155.6886881121195
 10
121.4006862760734
 20
-155.57878956614
 10
121.4006862760734
 20
-155.4433973135697
 10
121.4451280078331
 20
-155.3207519142948
 10
121.6270290494543
 20
-155.2397921703914
 10
121.8196098870798
 20
-155.1550428214543
 10
122.0480197177518
 20
-155.1350612676398
 10
122.2216525302085
 20
-155.1350612676398
 10
122.3928737758254
 20
-155.1350612676398
 10
122.6233506637886
 20
-155.1533202737116
 10
122.815931501414
 20
-155.2397921703914
 97
        0
 97
        1
330
CA
 75
     2
 76
     1
 98
        1
 10
0.0
 20
0.0
450
        0
451
        0
460
0.0
461
0.0
452
        0
462
0.0
453
        0
470

  0
SPLINE
  5
CC
330
C5
100
AcDbEntity
  8
レイヤー 1
100
AcDbSpline
210
0.0
220
0.0
230
1.0
 70
    11
 71
     3
 72
    17
 73
    13
 74
     0
 42
0.0000000001
 43
0.0000000001
 40
0.0
 40
0.0
 40
0.0
 40
0.0
 40
1.0
 40
1.0
 40
1.0
 40
2.0
 40
2.0
 40
2.0
 40
3.0
 40
3.0
 40
3.0
 40
4.0
 40
4.0
 40
4.0
 40
4.0
 10
122.993698428453
 20
-154.9521266973731
 30
0.0
 10
122.993698428453
 20
-154.9521266973731
 30
0.0
 10
122.7418619484812
 20
-154.9521266973731
 30
0.0
 10
122.7418619484812
 20
-154.9521266973731
 30
0.0
 10
122.7418619484812
 20
-154.9521266973731
 30
0.0
 10
122.7418619484812
 20
-154.737497248642
 30
0.0
 10
122.7418619484812
 20
-154.737497248642
 30
0.0
 10
122.7418619484812
 20
-154.737497248642
 30
0.0
 10
122.993698428453
 20
-154.737497248642
 30
0.0
 10
122.993698428453
 20
-154.737497248642
 30
0.0
 10
122.993698428453
 20
-154.737497248642
 30
0.0
 10
122.993698428453
 20
-154.9521266973731
 30
0.0
 10
122.993698428453
 20
-154.9521266973731
 30
0.0
  0
HATCH
  5
CD
330
C5
100
AcDbEntity
  8
レイヤー 1
 62
    18
420
        0
440
 33554687
100
AcDbHatch
 10
0.0
 20
0.0
 30
0.0
210
0.0
220
0.0
230
1.0
  2
SOLID
 70
     1
 71
     1
 91
        1
 92
        1
 93
        1
 72
     4
 94
        3
 73
     0
 74
     0
 95
       17
 96
       13
 40
0.0
 40
0.0
 40
0.0
 40
0.0
 40
1.0
 40
1.0
 40
1.0
 40
2.0
 40
2.0
 40
2.0
 40
3.0
 40
3.0
 40
3.0
 40
4.0
 40
4.0
 40
4.0
 40
4.0
 10
122.993698428453
 20
-154.9521266973731
 10
122.993698428453
 20
-154.9521266973731
 10
122.7418619484812
 20
-154.9521266973731
 10
122.7418619484812
 20
-154.9521266973731
 10
122.7418619484812
 20
-154.9521266973731
 10
122.7418619484812
 20
-154.737497248642
 10
122.7418619484812
 20
-154.737497248642
 10
122.7418619484812
 20
-154.737497248642
 10
122.993698428453
 20
-154.737497248642
 10
122.993698428453
 20
-154.737497248642
 10
122.993698428453
 20
-154.737497248642
 10
122.993698428453
 20
-154.9521266973731
 10
122.993698428453
 20
-154.9521266973731
 97
        0
 97
        1
330
CC
 75
     2
 76
     1
 98
        1
 10
0.0
 20
0.0
450
        0
451
        0
460
0.0
461
0.0
452
        0
462
0.0
453
        0
470

  0
SPLINE
  5
CE
330
C5
100
AcDbEntity
  8
レイヤー 1
100
AcDbSpline
210
0.0
220
0.0
230
1.0
 70
    11
 71
     3
 72
    14
 73
    10
 74
     0
 42
0.0000000001
 43
0.0000000001
 40
0.0
 40
0.0
 40
0.0
 40
0.0
 40
1.0
 40
1.0
 40
1.0
 40
2.0
 40
2.0
 40
2.0
 40
3.0
 40
3.0
 40
3.0
 40
3.0
 10
121.7920491231978
 20
-154.0126491585454
 30
0.0
 10
121.7920491231978
 20
-154.0126491585454
 30
0.0
 10
122.4479953035894
 20
-154.4022894579272
 30
0.0
 10
122.4479953035894
 20
-154.4022894579272
 30
0.0
 10
122.4479953035894
 20
-154.4022894579272
 30
0.0
 10
122.4479953035894
 20
-154.0126491585454
 30
0.0
 10
122.4479953035894
 20
-154.0126491585454
 30
0.0
 10
122.4479953035894
 20
-154.0126491585454
 30
0.0
 10
121.7920491231978
 20
-154.0126491585454
 30
0.0
 10
121.7920491231978
 20
-154.0126491585454
 30
0.0
  0
SPLINE
  5
CF
330
C5
100
AcDbEntity
  8
レイヤー 1
100
AcDbSpline
210
0.0
220
0.0
230
1.0
 70
    11
 71
     3
 72
    38
 73
    34
 74
     0
 42
0.0000000001
 43
0.0000000001
 40
0.0
 40
0.0
 40
0.0
 40
0.0
 40
1.0
 40
1.0
 40
1.0
 40
2.0
 40
2.0
 40
2.0
 40
3.0
 40
3.0
 40
3.0
 40
4.0
 40
4.0
 40
4.0
 40
5.0
 40
5.0
 40
5.0
 40
6.0
 40
6.0
 40
6.0
 40
7.0
 40
7.0
 40
7.0
 40
8.0
 40
8.0
 40
8.0
 40
9.0
 40
9.0
 40
9.0
 40
10.0
 40
10.0
 40
10.0
 40
11.0
 40
11.0
 40
11.0
 40
11.0
 10
122.6467773130883
 20
-153.8269585118905
 30
0.0
 10
122.6467773130883
 20
-153.8269585118905
 30
0.0
 10
122.993698428453
 20
-153.8269585118905
 30
0.0
 10
122.993698428453
 20
-153.8269585118905
 30
0.0
 10
122.993698428453
 20
-153.8269585118905
 30
0.0
 10
122.993698428453
 20
-154.0126491585454
 30
0.0
 10
122.993698428453
 20
-154.0126491585454
 30
0.0
 10
122.993698428453
 20
-154.0126491585454
 30
0.0
 10
122.6467773130883
 20
-154.0126491585454
 30
0.0
 10
122.6467773130883
 20
-154.0126491585454
 30
0.0
 10
122.6467773130883
 20
-154.0126491585454
 30
0.0
 10
122.6467773130883
 20
-154.5717881558015
 30
0.0
 10
122.6467773130883
 20
-154.5717881558015
 30
0.0
 10
122.6467773130883
 20
-154.5717881558015
 30
0.0
 10
122.4225015969985
 20
-154.5717881558015
 30
0.0
 10
122.4225015969985
 20
-154.5717881558015
 30
0.0
 10
122.4225015969985
 20
-154.5717881558015
 30
0.0
 10
121.4492621224154
 20
-153.9930121142795
 30
0.0
 10
121.4492621224154
 20
-153.9930121142795
 30
0.0
 10
121.4492621224154
 20
-153.9930121142795
 30
0.0
 10
121.4492621224154
 20
-153.8269585118905
 30
0.0
 10
121.4492621224154
 20
-153.8269585118905
 30
0.0
 10
121.4492621224154
 20
-153.8269585118905
 30
0.0
 10
122.4479953035894
 20
-153.8269585118905
 30
0.0
 10
122.4479953035894
 20
-153.8269585118905
 30
0.0
 10
122.4479953035894
 20
-153.8269585118905
 30
0.0
 10
122.4479953035894
 20
-153.6502251134972
 30
0.0
 10
122.4479953035894
 20
-153.6502251134972
 30
0.0
 10
122.4479953035894
 20
-153.6502251134972
 30
0.0
 10
122.6467773130883
 20
-153.6502251134972
 30
0.0
 10
122.6467773130883
 20
-153.6502251134972
 30
0.0
 10
122.6467773130883
 20
-153.6502251134972
 30
0.0
 10
122.6467773130883
 20
-153.8269585118905
 30
0.0
 10
122.6467773130883
 20
-153.8269585118905
 30
0.0
  0
HATCH
  5
D0
330
C5
100
AcDbEntity
  8
レイヤー 1
 62
    18
420
        0
440
 33554687
100
AcDbHatch
 10
0.0
 20
0.0
 30
0.0
210
0.0
220
0.0
230
1.0
  2
SOLID
 70
     1
 71
     1
 91
        2
 92
        1
 93
        1
 72
     4
 94
        3
 73
     0
 74
     0
 95
       14
 96
       10
 40
0.0
 40
0.0
 40
0.0
 40
0.0
 40
1.0
 40
1.0
 40
1.0
 40
2.0
 40
2.0
 40
2.0
 40
3.0
 40
3.0
 40
3.0
 40
3.0
 10
121.7920491231978
 20
-154.0126491585454
 10
121.7920491231978
 20
-154.0126491585454
 10
122.4479953035894
 20
-154.4022894579272
 10
122.4479953035894
 20
-154.4022894579272
 10
122.4479953035894
 20
-154.4022894579272
 10
122.4479953035894
 20
-154.0126491585454
 10
122.4479953035894
 20
-154.0126491585454
 10
122.4479953035894
 20
-154.0126491585454
 10
121.7920491231978
 20
-154.0126491585454
 10
121.7920491231978
 20
-154.0126491585454
 97
        0
 97
        1
330
CE
 92
        1
 93
        1
 72
     4
 94
        3
 73
     0
 74
     0
 95
       38
 96
       34
 40
0.0
 40
0.0
 40
0.0
 40
0.0
 40
1.0
 40
1.0
 40
1.0
 40
2.0
 40
2.0
 40
2.0
 40
3.0
 40
3.0
 40
3.0
 40
4.0
 40
4.0
 40
4.0
 40
5.0
 40
5.0
 40
5.0
 40
6.0
 40
6.0
 40
6.0
 40
7.0
 40
7.0
 40
7.0
 40
8.0
 40
8.0
 40
8.0
 40
9.0
 40
9.0
 40
9.0
 40
10.0
 40
10.0
 40
10.0
 40
11.0
 40
11.0
 40
11.0
 40
11.0
 10
122.6467773130883
 20
-153.8269585118905
 10
122.6467773130883
 20
-153.8269585118905
 10
122.993698428453
 20
-153.8269585118905
 10
122.993698428453
 20
-153.8269585118905
 10
122.993698428453
 20
-153.8269585118905
 10
122.993698428453
 20
-154.0126491585454
 10
122.993698428453
 20
-154.0126491585454
 10
122.993698428453
 20
-154.0126491585454
 10
122.6467773130883
 20
-154.0126491585454
 10
122.6467773130883
 20
-154.0126491585454
 10
122.6467773130883
 20
-154.0126491585454
 10
122.6467773130883
 20
-154.5717881558015
 10
122.6467773130883
 20
-154.5717881558015
 10
122.6467773130883
 20
-154.5717881558015
 10
122.4225015969985
 20
-154.5717881558015
 10
122.4225015969985
 20
-154.5717881558015
 10
122.4225015969985
 20
-154.5717881558015
 10
121.4492621224154
 20
-153.9930121142795
 10
121.4492621224154
 20
-153.9930121142795
 10
121.4492621224154
 20
-153.9930121142795
 10
121.4492621224154
 20
-153.8269585118905
 10
121.4492621224154
 20
-153.8269585118905
 10
121.4492621224154
 20
-153.8269585118905
 10
122.4479953035894
 20
-153.8269585118905
 10
122.4479953035894
 20
-153.8269585118905
 10
122.4479953035894
 20
-153.8269585118905
 10
122.4479953035894
 20
-153.6502251134972
 10
122.4479953035894
 20
-153.6502251134972
 10
122.4479953035894
 20
-153.6502251134972
 10
122.6467773130883
 20
-153.6502251134972
 10
122.6467773130883
 20
-153.6502251134972
 10
122.6467773130883
 20
-153.6502251134972
 10
122.6467773130883
 20
-153.8269585118905
 10
122.6467773130883
 20
-153.8269585118905
 97
        0
 97
        1
330
CF
 75
     2
 76
     1
 98
        1
 10
0.0
 20
0.0
450
        0
451
        0
460
0.0
461
0.0
452
        0
462
0.0
453
        0
470

  0
ENDBLK
  5
C8
330
C5
100
AcDbEntity
  8
0
100
AcDbBlockEnd
  0
BLOCK
  5
D6
330
D4
100
AcDbEntity
  8
0
100
AcDbBlockBegin
  2
Block_10
 70
     0
 10
0.0
 20
0.0
 30
0.0
  3
Block_10
  1

  0
INSERT
  5
D9
330
D4
100
AcDbEntity
  8
レイヤー 1
100
AcDbBlockReference
  2
Block_11
 10
0.0
 20
0.0
 30
0.0
  0
ENDBLK
  5
D7
330
D4
100
AcDbEntity
  8
0
100
AcDbBlockEnd
  0
BLOCK
  5
DA
330
D8
100
AcDbEntity
  8
0
100
AcDbBlockBegin
  2
Block_11
 70
     0
 10
0.0
 20
0.0
 30
0.0
  3
Block_11
  1

  0
SPLINE
  5
DC
330
D8
100
AcDbEntity
  8
レイヤー 1
100
AcDbSpline
210
0.0
220
0.0
230
1.0
 70
    11
 71
     3
 72
    26
 73
    22
 74
     0
 42
0.0000000001
 43
0.0000000001
 40
0.0
 40
0.0
 40
0.0
 40
0.0
 40
1.0
 40
1.0
 40
1.0
 40
2.0
 40
2.0
 40
2.0
 40
3.0
 40
3.0
 40
3.0
 40
4.0
 40
4.0
 40
4.0
 40
5.0
 40
5.0
 40
5.0
 40
6.0
 40
6.0
 40
6.0
 40
7.0
 40
7.0
 40
7.0
 40
7.0
 10
97.71462128633524
 20
-159.0755614836686
 30
0.0
 10
97.71462128633524
 20
-159.0755614836686
 30
0.0
 10
97.71462128633524
 20
-157.971408380646
 30
0.0
 10
97.71462128633524
 20
-157.971408380646
 30
0.0
 10
97.71462128633524
 20
-157.971408380646
 30
0.0
 10
97.43315698519033
 20
-157.971408380646
 30
0.0
 10
97.43315698519033
 20
-157.971408380646
 30
0.0
 10
97.43315698519033
 20
-157.971408380646
 30
0.0
 10
97.43315698519033
 20
-157.8232692747803
 30
0.0
 10
97.43315698519033
 20
-157.8232692747803
 30
0.0
 10
97.71634383407786
 20
-157.8084553641937
 30
0.0
 10
97.75596243215824
 20
-157.6455023477414
 30
0.0
 10
97.78128388397483
 20
-157.5311251776311
 30
0.0
 10
97.78128388397483
 20
-157.5311251776311
 30
0.0
 10
97.90565183099234
 20
-157.5311251776311
 30
0.0
 10
97.90565183099234
 20
-157.5311251776311
 30
0.0
 10
97.90565183099234
 20
-157.5311251776311
 30
0.0
 10
97.90565183099234
 20
-159.0755614836686
 30
0.0
 10
97.90565183099234
 20
-159.0755614836686
 30
0.0
 10
97.90565183099234
 20
-159.0755614836686
 30
0.0
 10
97.71462128633524
 20
-159.0755614836686
 30
0.0
 10
97.71462128633524
 20
-159.0755614836686
 30
0.0
  0
HATCH
  5
DD
330
D8
100
AcDbEntity
  8
レイヤー 1
 62
    18
420
        0
440
 33554687
100
AcDbHatch
 10
0.0
 20
0.0
 30
0.0
210
0.0
220
0.0
230
1.0
  2
SOLID
 70
     1
 71
     1
 91
        1
 92
        1
 93
        1
 72
     4
 94
        3
 73
     0
 74
     0
 95
       26
 96
       22
 40
0.0
 40
0.0
 40
0.0
 40
0.0
 40
1.0
 40
1.0
 40
1.0
 40
2.0
 40
2.0
 40
2.0
 40
3.0
 40
3.0
 40
3.0
 40
4.0
 40
4.0
 40
4.0
 40
5.0
 40
5.0
 40
5.0
 40
6.0
 40
6.0
 40
6.0
 40
7.0
 40
7.0
 40
7.0
 40
7.0
 10
97.71462128633524
 20
-159.0755614836686
 10
97.71462128633524
 20
-159.0755614836686
 10
97.71462128633524
 20
-157.971408380646
 10
97.71462128633524
 20
-157.971408380646
 10
97.71462128633524
 20
-157.971408380646
 10
97.43315698519033
 20
-157.971408380646
 10
97.43315698519033
 20
-157.971408380646
 10
97.43315698519033
 20
-157.971408380646
 10
97.43315698519033
 20
-157.8232692747803
 10
97.43315698519033
 20
-157.8232692747803
 10
97.71634383407786
 20
-157.8084553641937
 10
97.75596243215824
 20
-157.6455023477414
 10
97.78128388397483
 20
-157.5311251776311
 10
97.78128388397483
 20
-157.5311251776311
 10
97.90565183099234
 20
-157.5311251776311
 10
97.90565183099234
 20
-157.5311251776311
 10
97.90565183099234
 20
-157.5311251776311
 10
97.90565183099234
 20
-159.0755614836686
 10
97.90565183099234
 20
-159.0755614836686
 10
97.90565183099234
 20
-159.0755614836686
 10
97.71462128633524
 20
-159.0755614836686
 10
97.71462128633524
 20
-159.0755614836686
 97
        0
 97
        1
330
DC
 75
     2
 76
     1
 98
        1
 10
0.0
 20
0.0
450
        0
451
        0
460
0.0
461
0.0
452
        0
462
0.0
453
        0
470

  0
SPLINE
  5
DE
330
D8
100
AcDbEntity
  8
レイヤー 1
100
AcDbSpline
210
0.0
220
0.0
230
1.0
 70
     9
 71
     3
 72
    17
 73
    13
 74
     0
 42
0.0000000001
 43
0.0000000001
 40
0.0
 40
0.0
 40
0.0
 40
0.0
 40
1.0
 40
1.0
 40
1.0
 40
2.0
 40
2.0
 40
2.0
 40
3.0
 40
3.0
 40
3.0
 40
4.0
 40
4.0
 40
4.0
 40
4.0
 10
98.75779619926889
 20
-157.6751301689145
 30
0.0
 10
98.54506155305472
 20
-157.6751301689145
 30
0.0
 10
98.50544295497435
 20
-157.9586615273506
 30
0.0
 10
98.50544295497435
 20
-158.3035155854241
 30
0.0
 10
98.50544295497435
 20
-158.6228759369068
 30
0.0
 10
98.53610430479307
 20
-158.9315564923851
 30
0.0
 10
98.75779619926889
 20
-158.9315564923851
 30
0.0
 10
98.96880829774044
 20
-158.9315564923851
 30
0.0
 10
99.0103216983377
 20
-158.6504367007888
 30
0.0
 10
99.0103216983377
 20
-158.3035155854241
 30
0.0
 10
99.0103216983377
 20
-157.9838107243929
 30
0.0
 10
98.97793780077636
 20
-157.6751301689145
 30
0.0
 10
98.75779619926889
 20
-157.6751301689145
 30
0.0
  0
SPLINE
  5
DF
330
D8
100
AcDbEntity
  8
レイヤー 1
100
AcDbSpline
210
0.0
220
0.0
230
1.0
 70
     9
 71
     3
 72
    29
 73
    25
 74
     0
 42
0.0000000001
 43
0.0000000001
 40
0.0
 40
0.0
 40
0.0
 40
0.0
 40
1.0
 40
1.0
 40
1.0
 40
2.0
 40
2.0
 40
2.0
 40
3.0
 40
3.0
 40
3.0
 40
4.0
 40
4.0
 40
4.0
 40
5.0
 40
5.0
 40
5.0
 40
6.0
 40
6.0
 40
6.0
 40
7.0
 40
7.0
 40
7.0
 40
8.0
 40
8.0
 40
8.0
 40
8.0
 10
99.09679359501748
 20
-158.8977945566297
 30
0.0
 10
99.00498180033558
 20
-159.1072563621329
 30
0.0
 10
98.85701494924409
 20
-159.1262043873018
 30
0.0
 10
98.75779619926889
 20
-159.1262043873018
 30
0.0
 10
98.62085365373021
 20
-159.1262043873018
 30
0.0
 10
98.49993080219794
 20
-159.0796955982509
 30
0.0
 10
98.41879880352031
 20
-158.8977945566297
 30
0.0
 10
98.33043210432364
 20
-158.7031466617131
 30
0.0
 10
98.31424015554297
 20
-158.4664686018764
 30
0.0
 10
98.31424015554297
 20
-158.3035155854241
 30
0.0
 10
98.31424015554297
 20
-158.1595105941407
 30
0.0
 10
98.32870955658101
 20
-157.9076741141689
 30
0.0
 10
98.41879880352031
 20
-157.70889210467
 30
0.0
 10
98.51078285297647
 20
-157.5059759805888
 30
0.0
 10
98.64789765328943
 20
-157.4825493312891
 30
0.0
 10
98.75779619926889
 20
-157.4825493312891
 30
0.0
 10
98.89301619706493
 20
-157.4825493312891
 30
0.0
 10
99.01566159633985
 20
-157.5269910630488
 30
0.0
 10
99.09679359501748
 20
-157.70889210467
 30
0.0
 10
99.18154294395463
 20
-157.9014729422955
 30
0.0
 10
99.20152449776907
 20
-158.1298827729675
 30
0.0
 10
99.20152449776907
 20
-158.3035155854241
 30
0.0
 10
99.20152449776907
 20
-158.474736831041
 30
0.0
 10
99.18343774647151
 20
-158.7052137190042
 30
0.0
 10
99.09679359501748
 20
-158.8977945566297
 30
0.0
  0
HATCH
  5
E0
330
D8
100
AcDbEntity
  8
レイヤー 1
 62
    18
420
        0
440
 33554687
100
AcDbHatch
 10
0.0
 20
0.0
 30
0.0
210
0.0
220
0.0
230
1.0
  2
SOLID
 70
     1
 71
     1
 91
        2
 92
        1
 93
        1
 72
     4
 94
        3
 73
     0
 74
     0
 95
       17
 96
       13
 40
0.0
 40
0.0
 40
0.0
 40
0.0
 40
1.0
 40
1.0
 40
1.0
 40
2.0
 40
2.0
 40
2.0
 40
3.0
 40
3.0
 40
3.0
 40
4.0
 40
4.0
 40
4.0
 40
4.0
 10
98.75779619926889
 20
-157.6751301689145
 10
98.54506155305472
 20
-157.6751301689145
 10
98.50544295497435
 20
-157.9586615273506
 10
98.50544295497435
 20
-158.3035155854241
 10
98.50544295497435
 20
-158.6228759369068
 10
98.53610430479307
 20
-158.9315564923851
 10
98.75779619926889
 20
-158.9315564923851
 10
98.96880829774044
 20
-158.9315564923851
 10
99.0103216983377
 20
-158.6504367007888
 10
99.0103216983377
 20
-158.3035155854241
 10
99.0103216983377
 20
-157.9838107243929
 10
98.97793780077636
 20
-157.6751301689145
 10
98.75779619926889
 20
-157.6751301689145
 97
        0
 97
        1
330
DE
 92
        1
 93
        1
 72
     4
 94
        3
 73
     0
 74
     0
 95
       29
 96
       25
 40
0.0
 40
0.0
 40
0.0
 40
0.0
 40
1.0
 40
1.0
 40
1.0
 40
2.0
 40
2.0
 40
2.0
 40
3.0
 40
3.0
 40
3.0
 40
4.0
 40
4.0
 40
4.0
 40
5.0
 40
5.0
 40
5.0
 40
6.0
 40
6.0
 40
6.0
 40
7.0
 40
7.0
 40
7.0
 40
8.0
 40
8.0
 40
8.0
 40
8.0
 10
99.09679359501748
 20
-158.8977945566297
 10
99.00498180033558
 20
-159.1072563621329
 10
98.85701494924409
 20
-159.1262043873018
 10
98.75779619926889
 20
-159.1262043873018
 10
98.62085365373021
 20
-159.1262043873018
 10
98.49993080219794
 20
-159.0796955982509
 10
98.41879880352031
 20
-158.8977945566297
 10
98.33043210432364
 20
-158.7031466617131
 10
98.31424015554297
 20
-158.4664686018764
 10
98.31424015554297
 20
-158.3035155854241
 10
98.31424015554297
 20
-158.1595105941407
 10
98.32870955658101
 20
-157.9076741141689
 10
98.41879880352031
 20
-157.70889210467
 10
98.51078285297647
 20
-157.5059759805888
 10
98.64789765328943
 20
-157.4825493312891
 10
98.75779619926889
 20
-157.4825493312891
 10
98.89301619706493
 20
-157.4825493312891
 10
99.01566159633985
 20
-157.5269910630488
 10
99.09679359501748
 20
-157.70889210467
 10
99.18154294395463
 20
-157.9014729422955
 10
99.20152449776907
 20
-158.1298827729675
 10
99.20152449776907
 20
-158.3035155854241
 10
99.20152449776907
 20
-158.474736831041
 10
99.18343774647151
 20
-158.7052137190042
 10
99.09679359501748
 20
-158.8977945566297
 97
        0
 97
        1
330
DF
 75
     2
 76
     1
 98
        1
 10
0.0
 20
0.0
450
        0
451
        0
460
0.0
461
0.0
452
        0
462
0.0
453
        0
470

  0
ENDBLK
  5
DB
330
D8
100
AcDbEntity
  8
0
100
AcDbBlockEnd
  0
BLOCK
  5
E3
330
E1
100
AcDbEntity
  8
0
100
AcDbBlockBegin
  2
Block_12
 70
     0
 10
0.0
 20
0.0
 30
0.0
  3
Block_12
  1

  0
LINE
  5
E5
330
E1
100
AcDbEntity
  8
レイヤー 1
 62
    18
420
        0
370
     9
100
AcDbLine
 10
124.257003887592
 20
-142.1214171629884
 30
0.0
 11
124.257003887592
 21
-154.6219562885175
 31
0.0
  0
LINE
  5
E6
330
E1
100
AcDbEntity
  8
レイヤー 1
 62
    18
420
        0
370
     9
100
AcDbLine
 10
106.8964964862725
 20
-142.1214171629884
 30
0.0
 11
125.2567760843079
 21
-142.1214171629884
 31
0.0
  0
INSERT
  5
E8
330
E1
100
AcDbEntity
  8
レイヤー 1
100
AcDbBlockReference
  2
Block_13
 10
0.0
 20
0.0
 30
0.0
  0
ENDBLK
  5
E4
330
E1
100
AcDbEntity
  8
0
100
AcDbBlockEnd
  0
BLOCK
  5
E9
330
E7
100
AcDbEntity
  8
0
100
AcDbBlockBegin
  2
Block_13
 70
     0
 10
0.0
 20
0.0
 30
0.0
  3
Block_13
  1

  0
INSERT
  5
EC
330
E7
100
AcDbEntity
  8
レイヤー 1
100
AcDbBlockReference
  2
Block_14
 10
0.0
 20
0.0
 30
0.0
  0
ENDBLK
  5
EA
330
E7
100
AcDbEntity
  8
0
100
AcDbBlockEnd
  0
BLOCK
  5
ED
330
EB
100
AcDbEntity
  8
0
100
AcDbBlockBegin
  2
Block_14
 70
     0
 10
0.0
 20
0.0
 30
0.0
  3
Block_14
  1

  0
SPLINE
  5
EF
330
EB
100
AcDbEntity
  8
レイヤー 1
100
AcDbSpline
210
0.0
220
0.0
230
1.0
 70
    11
 71
     3
 72
    26
 73
    22
 74
     0
 42
0.0000000001
 43
0.0000000001
 40
0.0
 40
0.0
 40
0.0
 40
0.0
 40
1.0
 40
1.0
 40
1.0
 40
2.0
 40
2.0
 40
2.0
 40
3.0
 40
3.0
 40
3.0
 40
4.0
 40
4.0
 40
4.0
 40
5.0
 40
5.0
 40
5.0
 40
6.0
 40
6.0
 40
6.0
 40
7.0
 40
7.0
 40
7.0
 40
7.0
 10
122.993698428453
 20
-149.6459906309913
 30
0.0
 10
122.993698428453
 20
-149.6459906309913
 30
0.0
 10
121.8895453254304
 20
-149.6459906309913
 30
0.0
 10
121.8895453254304
 20
-149.6459906309913
 30
0.0
 10
121.8895453254304
 20
-149.6459906309913
 30
0.0
 10
121.8895453254304
 20
-149.9274549321362
 30
0.0
 10
121.8895453254304
 20
-149.9274549321362
 30
0.0
 10
121.8895453254304
 20
-149.9274549321362
 30
0.0
 10
121.7414062195646
 20
-149.9274549321362
 30
0.0
 10
121.7414062195646
 20
-149.9274549321362
 30
0.0
 10
121.7265923089781
 20
-149.6442680832487
 30
0.0
 10
121.5636392925257
 20
-149.6046494851683
 30
0.0
 10
121.4492621224154
 20
-149.5795002881259
 30
0.0
 10
121.4492621224154
 20
-149.5795002881259
 30
0.0
 10
121.4492621224154
 20
-149.4547878315599
 30
0.0
 10
121.4492621224154
 20
-149.4547878315599
 30
0.0
 10
121.4492621224154
 20
-149.4547878315599
 30
0.0
 10
122.993698428453
 20
-149.4547878315599
 30
0.0
 10
122.993698428453
 20
-149.4547878315599
 30
0.0
 10
122.993698428453
 20
-149.4547878315599
 30
0.0
 10
122.993698428453
 20
-149.6459906309913
 30
0.0
 10
122.993698428453
 20
-149.6459906309913
 30
0.0
  0
HATCH
  5
F0
330
EB
100
AcDbEntity
  8
レイヤー 1
 62
    18
420
        0
440
 33554687
100
AcDbHatch
 10
0.0
 20
0.0
 30
0.0
210
0.0
220
0.0
230
1.0
  2
SOLID
 70
     1
 71
     1
 91
        1
 92
        1
 93
        1
 72
     4
 94
        3
 73
     0
 74
     0
 95
       26
 96
       22
 40
0.0
 40
0.0
 40
0.0
 40
0.0
 40
1.0
 40
1.0
 40
1.0
 40
2.0
 40
2.0
 40
2.0
 40
3.0
 40
3.0
 40
3.0
 40
4.0
 40
4.0
 40
4.0
 40
5.0
 40
5.0
 40
5.0
 40
6.0
 40
6.0
 40
6.0
 40
7.0
 40
7.0
 40
7.0
 40
7.0
 10
122.993698428453
 20
-149.6459906309913
 10
122.993698428453
 20
-149.6459906309913
 10
121.8895453254304
 20
-149.6459906309913
 10
121.8895453254304
 20
-149.6459906309913
 10
121.8895453254304
 20
-149.6459906309913
 10
121.8895453254304
 20
-149.9274549321362
 10
121.8895453254304
 20
-149.9274549321362
 10
121.8895453254304
 20
-149.9274549321362
 10
121.7414062195646
 20
-149.9274549321362
 10
121.7414062195646
 20
-149.9274549321362
 10
121.7265923089781
 20
-149.6442680832487
 10
121.5636392925257
 20
-149.6046494851683
 10
121.4492621224154
 20
-149.5795002881259
 10
121.4492621224154
 20
-149.5795002881259
 10
121.4492621224154
 20
-149.4547878315599
 10
121.4492621224154
 20
-149.4547878315599
 10
121.4492621224154
 20
-149.4547878315599
 10
122.993698428453
 20
-149.4547878315599
 10
122.993698428453
 20
-149.4547878315599
 10
122.993698428453
 20
-149.4547878315599
 10
122.993698428453
 20
-149.6459906309913
 10
122.993698428453
 20
-149.6459906309913
 97
        0
 97
        1
330
EF
 75
     2
 76
     1
 98
        1
 10
0.0
 20
0.0
450
        0
451
        0
460
0.0
461
0.0
452
        0
462
0.0
453
        0
470

  0
SPLINE
  5
F1
330
EB
100
AcDbEntity
  8
レイヤー 1
100
AcDbSpline
210
0.0
220
0.0
230
1.0
 70
     9
 71
     3
 72
    44
 73
    40
 74
     0
 42
0.0000000001
 43
0.0000000001
 40
0.0
 40
0.0
 40
0.0
 40
0.0
 40
1.0
 40
1.0
 40
1.0
 40
2.0
 40
2.0
 40
2.0
 40
3.0
 40
3.0
 40
3.0
 40
4.0
 40
4.0
 40
4.0
 40
5.0
 40
5.0
 40
5.0
 40
6.0
 40
6.0
 40
6.0
 40
7.0
 40
7.0
 40
7.0
 40
8.0
 40
8.0
 40
8.0
 40
9.0
 40
9.0
 40
9.0
 40
10.0
 40
10.0
 40
10.0
 40
11.0
 40
11.0
 40
11.0
 40
12.0
 40
12.0
 40
12.0
 40
13.0
 40
13.0
 40
13.0
 40
13.0
 10
122.4118218009943
 20
-148.5235785218969
 30
0.0
 10
122.5706407028643
 20
-148.7092691685518
 30
0.0
 10
122.6447102557971
 20
-148.7885063647126
 30
0.0
 10
122.7883707375321
 20
-148.8298475105356
 30
0.0
 10
122.7883707375321
 20
-148.8298475105356
 30
0.0
 10
122.7883707375321
 20
-148.1663221200764
 30
0.0
 10
122.7883707375321
 20
-148.1663221200764
 30
0.0
 10
122.7883707375321
 20
-148.1663221200764
 30
0.0
 10
122.993698428453
 20
-148.1663221200764
 30
0.0
 10
122.993698428453
 20
-148.1663221200764
 30
0.0
 10
122.993698428453
 20
-148.1663221200764
 30
0.0
 10
122.993698428453
 20
-149.042754411524
 30
0.0
 10
122.993698428453
 20
-149.042754411524
 30
0.0
 10
122.636097517084
 20
-149.0158826667391
 30
0.0
 10
122.5578938495688
 20
-148.9597276103295
 30
0.0
 10
122.2595485805462
 20
-148.6317545201337
 30
0.0
 10
122.0607665710473
 20
-148.4133354663689
 30
0.0
 10
121.9928981899879
 20
-148.3575249195078
 30
0.0
 10
121.8554388801264
 20
-148.3575249195078
 30
0.0
 10
121.7369275954338
 20
-148.3575249195078
 30
0.0
 10
121.6060139669943
 20
-148.4188476191452
 30
0.0
 10
121.6060139669943
 20
-148.586623769277
 30
0.0
 10
121.6060139669943
 20
-148.808487918527
 30
0.0
 10
121.8364908549575
 20
-148.8157226190461
 30
0.0
 10
121.952935082359
 20
-148.8191677145313
 30
0.0
 10
121.952935082359
 20
-148.8191677145313
 30
0.0
 10
121.952935082359
 20
-149.0103705139627
 30
0.0
 10
121.952935082359
 20
-149.0103705139627
 30
0.0
 10
121.8258110589532
 20
-149.0031358134436
 30
0.0
 10
121.7138454556826
 20
-148.994178565182
 30
0.0
 10
121.59533417099
 20
-148.9256211650255
 30
0.0
 10
121.4344482118289
 20
-148.8319145678267
 30
0.0
 10
121.4006862760734
 20
-148.6730956659567
 30
0.0
 10
121.4006862760734
 20
-148.5738769159815
 30
0.0
 10
121.4006862760734
 20
-148.3375433656934
 30
0.0
 10
121.5846543749858
 20
-148.1608099673
 30
0.0
 10
121.8575059374175
 20
-148.1608099673
 30
0.0
 10
122.0862602776381
 20
-148.1608099673
 30
0.0
 10
122.1854790276133
 20
-148.2600287172753
 30
0.0
 10
122.4118218009943
 20
-148.5235785218969
 30
0.0
  0
HATCH
  5
F2
330
EB
100
AcDbEntity
  8
レイヤー 1
 62
    18
420
        0
440
 33554687
100
AcDbHatch
 10
0.0
 20
0.0
 30
0.0
210
0.0
220
0.0
230
1.0
  2
SOLID
 70
     1
 71
     1
 91
        1
 92
        1
 93
        1
 72
     4
 94
        3
 73
     0
 74
     0
 95
       44
 96
       40
 40
0.0
 40
0.0
 40
0.0
 40
0.0
 40
1.0
 40
1.0
 40
1.0
 40
2.0
 40
2.0
 40
2.0
 40
3.0
 40
3.0
 40
3.0
 40
4.0
 40
4.0
 40
4.0
 40
5.0
 40
5.0
 40
5.0
 40
6.0
 40
6.0
 40
6.0
 40
7.0
 40
7.0
 40
7.0
 40
8.0
 40
8.0
 40
8.0
 40
9.0
 40
9.0
 40
9.0
 40
10.0
 40
10.0
 40
10.0
 40
11.0
 40
11.0
 40
11.0
 40
12.0
 40
12.0
 40
12.0
 40
13.0
 40
13.0
 40
13.0
 40
13.0
 10
122.4118218009943
 20
-148.5235785218969
 10
122.5706407028643
 20
-148.7092691685518
 10
122.6447102557971
 20
-148.7885063647126
 10
122.7883707375321
 20
-148.8298475105356
 10
122.7883707375321
 20
-148.8298475105356
 10
122.7883707375321
 20
-148.1663221200764
 10
122.7883707375321
 20
-148.1663221200764
 10
122.7883707375321
 20
-148.1663221200764
 10
122.993698428453
 20
-148.1663221200764
 10
122.993698428453
 20
-148.1663221200764
 10
122.993698428453
 20
-148.1663221200764
 10
122.993698428453
 20
-149.042754411524
 10
122.993698428453
 20
-149.042754411524
 10
122.636097517084
 20
-149.0158826667391
 10
122.5578938495688
 20
-148.9597276103295
 10
122.2595485805462
 20
-148.6317545201337
 10
122.0607665710473
 20
-148.4133354663689
 10
121.9928981899879
 20
-148.3575249195078
 10
121.8554388801264
 20
-148.3575249195078
 10
121.7369275954338
 20
-148.3575249195078
 10
121.6060139669943
 20
-148.4188476191452
 10
121.6060139669943
 20
-148.586623769277
 10
121.6060139669943
 20
-148.808487918527
 10
121.8364908549575
 20
-148.8157226190461
 10
121.952935082359
 20
-148.8191677145313
 10
121.952935082359
 20
-148.8191677145313
 10
121.952935082359
 20
-149.0103705139627
 10
121.952935082359
 20
-149.0103705139627
 10
121.8258110589532
 20
-149.0031358134436
 10
121.7138454556826
 20
-148.994178565182
 10
121.59533417099
 20
-148.9256211650255
 10
121.4344482118289
 20
-148.8319145678267
 10
121.4006862760734
 20
-148.6730956659567
 10
121.4006862760734
 20
-148.5738769159815
 10
121.4006862760734
 20
-148.3375433656934
 10
121.5846543749858
 20
-148.1608099673
 10
121.8575059374175
 20
-148.1608099673
 10
122.0862602776381
 20
-148.1608099673
 10
122.1854790276133
 20
-148.2600287172753
 10
122.4118218009943
 20
-148.5235785218969
 97
        0
 97
        1
330
F1
 75
     2
 76
     1
 98
        1
 10
0.0
 20
0.0
450
        0
451
        0
460
0.0
461
0.0
452
        0
462
0.0
453
        0
470

  0
SPLINE
  5
F3
330
EB
100
AcDbEntity
  8
レイヤー 1
100
AcDbSpline
210
0.0
220
0.0
230
1.0
 70
    11
 71
     3
 72
    17
 73
    13
 74
     0
 42
0.0000000001
 43
0.0000000001
 40
0.0
 40
0.0
 40
0.0
 40
0.0
 40
1.0
 40
1.0
 40
1.0
 40
2.0
 40
2.0
 40
2.0
 40
3.0
 40
3.0
 40
3.0
 40
4.0
 40
4.0
 40
4.0
 40
4.0
 10
122.993698428453
 20
-147.9761528492907
 30
0.0
 10
122.993698428453
 20
-147.9761528492907
 30
0.0
 10
122.7418619484812
 20
-147.9761528492907
 30
0.0
 10
122.7418619484812
 20
-147.9761528492907
 30
0.0
 10
122.7418619484812
 20
-147.9761528492907
 30
0.0
 10
122.7418619484812
 20
-147.7615234005596
 30
0.0
 10
122.7418619484812
 20
-147.7615234005596
 30
0.0
 10
122.7418619484812
 20
-147.7615234005596
 30
0.0
 10
122.993698428453
 20
-147.7615234005596
 30
0.0
 10
122.993698428453
 20
-147.7615234005596
 30
0.0
 10
122.993698428453
 20
-147.7615234005596
 30
0.0
 10
122.993698428453
 20
-147.9761528492907
 30
0.0
 10
122.993698428453
 20
-147.9761528492907
 30
0.0
  0
HATCH
  5
F4
330
EB
100
AcDbEntity
  8
レイヤー 1
 62
    18
420
        0
440
 33554687
100
AcDbHatch
 10
0.0
 20
0.0
 30
0.0
210
0.0
220
0.0
230
1.0
  2
SOLID
 70
     1
 71
     1
 91
        1
 92
        1
 93
        1
 72
     4
 94
        3
 73
     0
 74
     0
 95
       17
 96
       13
 40
0.0
 40
0.0
 40
0.0
 40
0.0
 40
1.0
 40
1.0
 40
1.0
 40
2.0
 40
2.0
 40
2.0
 40
3.0
 40
3.0
 40
3.0
 40
4.0
 40
4.0
 40
4.0
 40
4.0
 10
122.993698428453
 20
-147.9761528492907
 10
122.993698428453
 20
-147.9761528492907
 10
122.7418619484812
 20
-147.9761528492907
 10
122.7418619484812
 20
-147.9761528492907
 10
122.7418619484812
 20
-147.9761528492907
 10
122.7418619484812
 20
-147.7615234005596
 10
122.7418619484812
 20
-147.7615234005596
 10
122.7418619484812
 20
-147.7615234005596
 10
122.993698428453
 20
-147.7615234005596
 10
122.993698428453
 20
-147.7615234005596
 10
122.993698428453
 20
-147.7615234005596
 10
122.993698428453
 20
-147.9761528492907
 10
122.993698428453
 20
-147.9761528492907
 97
        0
 97
        1
330
F3
 75
     2
 76
     1
 98
        1
 10
0.0
 20
0.0
450
        0
451
        0
460
0.0
461
0.0
452
        0
462
0.0
453
        0
470

  0
SPLINE
  5
F5
330
EB
100
AcDbEntity
  8
レイヤー 1
100
AcDbSpline
210
0.0
220
0.0
230
1.0
 70
     9
 71
     3
 72
    53
 73
    49
 74
     0
 42
0.0000000001
 43
0.0000000001
 40
0.0
 40
0.0
 40
0.0
 40
0.0
 40
1.0
 40
1.0
 40
1.0
 40
2.0
 40
2.0
 40
2.0
 40
3.0
 40
3.0
 40
3.0
 40
4.0
 40
4.0
 40
4.0
 40
5.0
 40
5.0
 40
5.0
 40
6.0
 40
6.0
 40
6.0
 40
7.0
 40
7.0
 40
7.0
 40
8.0
 40
8.0
 40
8.0
 40
9.0
 40
9.0
 40
9.0
 40
10.0
 40
10.0
 40
10.0
 40
11.0
 40
11.0
 40
11.0
 40
12.0
 40
12.0
 40
12.0
 40
13.0
 40
13.0
 40
13.0
 40
14.0
 40
14.0
 40
14.0
 40
15.0
 40
15.0
 40
15.0
 40
16.0
 40
16.0
 40
16.0
 40
16.0
 10
123.0443413320861
 20
-147.1503634614763
 30
0.0
 10
123.0443413320861
 20
-147.2171983138901
 30
0.0
 10
123.0274603642084
 20
-147.3036702105699
 30
0.0
 10
122.9640706072798
 20
-147.3901421072497
 30
0.0
 10
122.8541720613003
 20
-147.5379367035669
 30
0.0
 10
122.7229139233123
 20
-147.5561957096387
 30
0.0
 10
122.615082434624
 20
-147.5723876584194
 30
0.0
 10
122.615082434624
 20
-147.5723876584194
 30
0.0
 10
122.615082434624
 20
-147.3829074067307
 30
0.0
 10
122.615082434624
 20
-147.3829074067307
 30
0.0
 10
122.8138644441229
 20
-147.3360541081312
 30
0.0
 10
122.843492265296
 20
-147.2278781098944
 30
0.0
 10
122.843492265296
 20
-147.1486409137337
 30
0.0
 10
122.843492265296
 20
-147.029440609944
 30
0.0
 10
122.7439290057723
 20
-146.8995605101501
 30
0.0
 10
122.511385060518
 20
-146.8995605101501
 30
0.0
 10
122.2554144659639
 20
-146.8995605101501
 30
0.0
 10
122.1854790276133
 20
-147.0528672592437
 30
0.0
 10
122.1854790276133
 20
-147.1558756142527
 30
0.0
 10
122.1854790276133
 20
-147.1827473590376
 30
0.0
 10
122.1854790276133
 20
-147.3036702105699
 30
0.0
 10
122.3146701083102
 20
-147.3794623112454
 30
0.0
 10
122.3146701083102
 20
-147.3794623112454
 30
0.0
 10
122.2957220831413
 20
-147.5289794553052
 30
0.0
 10
122.2957220831413
 20
-147.5289794553052
 30
0.0
 10
122.2957220831413
 20
-147.5289794553052
 30
0.0
 10
121.4492621224154
 20
-147.4263156098448
 30
0.0
 10
121.4492621224154
 20
-147.4263156098448
 30
0.0
 10
121.4492621224154
 20
-147.4263156098448
 30
0.0
 10
121.4492621224154
 20
-146.7627902193857
 30
0.0
 10
121.4492621224154
 20
-146.7627902193857
 30
0.0
 10
121.4492621224154
 20
-146.7627902193857
 30
0.0
 10
121.6439100173321
 20
-146.7627902193857
 30
0.0
 10
121.6439100173321
 20
-146.7627902193857
 30
0.0
 10
121.6439100173321
 20
-146.7627902193857
 30
0.0
 10
121.6439100173321
 20
-147.2874782617892
 30
0.0
 10
121.6439100173321
 20
-147.2874782617892
 30
0.0
 10
121.6439100173321
 20
-147.2874782617892
 30
0.0
 10
122.0669677429207
 20
-147.3432888086503
 30
0.0
 10
122.0669677429207
 20
-147.3432888086503
 30
0.0
 10
122.0332058071653
 20
-147.2909233572745
 30
0.0
 10
121.9928981899879
 20
-147.2206434093754
 30
0.0
 10
121.9928981899879
 20
-147.1197021116575
 30
0.0
 10
121.9928981899879
 20
-146.9033501151839
 30
0.0
 10
122.1792778557399
 20
-146.7014675197482
 30
0.0
 10
122.4924370353491
 20
-146.7014675197482
 30
0.0
 10
122.8097303295406
 20
-146.7014675197482
 30
0.0
 10
123.0443413320861
 20
-146.8923258096311
 30
0.0
 10
123.0443413320861
 20
-147.1503634614763
 30
0.0
  0
HATCH
  5
F6
330
EB
100
AcDbEntity
  8
レイヤー 1
 62
    18
420
        0
440
 33554687
100
AcDbHatch
 10
0.0
 20
0.0
 30
0.0
210
0.0
220
0.0
230
1.0
  2
SOLID
 70
     1
 71
     1
 91
        1
 92
        1
 93
        1
 72
     4
 94
        3
 73
     0
 74
     0
 95
       53
 96
       49
 40
0.0
 40
0.0
 40
0.0
 40
0.0
 40
1.0
 40
1.0
 40
1.0
 40
2.0
 40
2.0
 40
2.0
 40
3.0
 40
3.0
 40
3.0
 40
4.0
 40
4.0
 40
4.0
 40
5.0
 40
5.0
 40
5.0
 40
6.0
 40
6.0
 40
6.0
 40
7.0
 40
7.0
 40
7.0
 40
8.0
 40
8.0
 40
8.0
 40
9.0
 40
9.0
 40
9.0
 40
10.0
 40
10.0
 40
10.0
 40
11.0
 40
11.0
 40
11.0
 40
12.0
 40
12.0
 40
12.0
 40
13.0
 40
13.0
 40
13.0
 40
14.0
 40
14.0
 40
14.0
 40
15.0
 40
15.0
 40
15.0
 40
16.0
 40
16.0
 40
16.0
 40
16.0
 10
123.0443413320861
 20
-147.1503634614763
 10
123.0443413320861
 20
-147.2171983138901
 10
123.0274603642084
 20
-147.3036702105699
 10
122.9640706072798
 20
-147.3901421072497
 10
122.8541720613003
 20
-147.5379367035669
 10
122.7229139233123
 20
-147.5561957096387
 10
122.615082434624
 20
-147.5723876584194
 10
122.615082434624
 20
-147.5723876584194
 10
122.615082434624
 20
-147.3829074067307
 10
122.615082434624
 20
-147.3829074067307
 10
122.8138644441229
 20
-147.3360541081312
 10
122.843492265296
 20
-147.2278781098944
 10
122.843492265296
 20
-147.1486409137337
 10
122.843492265296
 20
-147.029440609944
 10
122.7439290057723
 20
-146.8995605101501
 10
122.511385060518
 20
-146.8995605101501
 10
122.2554144659639
 20
-146.8995605101501
 10
122.1854790276133
 20
-147.0528672592437
 10
122.1854790276133
 20
-147.1558756142527
 10
122.1854790276133
 20
-147.1827473590376
 10
122.1854790276133
 20
-147.3036702105699
 10
122.3146701083102
 20
-147.3794623112454
 10
122.3146701083102
 20
-147.3794623112454
 10
122.2957220831413
 20
-147.5289794553052
 10
122.2957220831413
 20
-147.5289794553052
 10
122.2957220831413
 20
-147.5289794553052
 10
121.4492621224154
 20
-147.4263156098448
 10
121.4492621224154
 20
-147.4263156098448
 10
121.4492621224154
 20
-147.4263156098448
 10
121.4492621224154
 20
-146.7627902193857
 10
121.4492621224154
 20
-146.7627902193857
 10
121.4492621224154
 20
-146.7627902193857
 10
121.6439100173321
 20
-146.7627902193857
 10
121.6439100173321
 20
-146.7627902193857
 10
121.6439100173321
 20
-146.7627902193857
 10
121.6439100173321
 20
-147.2874782617892
 10
121.6439100173321
 20
-147.2874782617892
 10
121.6439100173321
 20
-147.2874782617892
 10
122.0669677429207
 20
-147.3432888086503
 10
122.0669677429207
 20
-147.3432888086503
 10
122.0332058071653
 20
-147.2909233572745
 10
121.9928981899879
 20
-147.2206434093754
 10
121.9928981899879
 20
-147.1197021116575
 10
121.9928981899879
 20
-146.9033501151839
 10
122.1792778557399
 20
-146.7014675197482
 10
122.4924370353491
 20
-146.7014675197482
 10
122.8097303295406
 20
-146.7014675197482
 10
123.0443413320861
 20
-146.8923258096311
 10
123.0443413320861
 20
-147.1503634614763
 97
        0
 97
        1
330
F5
 75
     2
 76
     1
 98
        1
 10
0.0
 20
0.0
450
        0
451
        0
460
0.0
461
0.0
452
        0
462
0.0
453
        0
470

  0
ENDBLK
  5
EE
330
EB
100
AcDbEntity
  8
0
100
AcDbBlockEnd
  0
BLOCK
  5
F9
330
F7
100
AcDbEntity
  8
0
100
AcDbBlockBegin
  2
Block_15
 70
     0
 10
0.0
 20
0.0
 30
0.0
  3
Block_15
  1

  0
INSERT
  5
FC
330
F7
100
AcDbEntity
  8
レイヤー 1
100
AcDbBlockReference
  2
Block_16
 10
0.0
 20
0.0
 30
0.0
  0
INSERT
  5
111
330
F7
100
AcDbEntity
  8
レイヤー 1
100
AcDbBlockReference
  2
Block_18
 10
0.0
 20
0.0
 30
0.0
  0
ENDBLK
  5
FA
330
F7
100
AcDbEntity
  8
0
100
AcDbBlockEnd
  0
BLOCK
  5
FD
330
FB
100
AcDbEntity
  8
0
100
AcDbBlockBegin
  2
Block_16
 70
     0
 10
0.0
 20
0.0
 30
0.0
  3
Block_16
  1

  0
INSERT
  5
100
330
FB
100
AcDbEntity
  8
レイヤー 1
100
AcDbBlockReference
  2
Block_17
 10
0.0
 20
0.0
 30
0.0
  0
ENDBLK
  5
FE
330
FB
100
AcDbEntity
  8
0
100
AcDbBlockEnd
  0
BLOCK
  5
101
330
FF
100
AcDbEntity
  8
0
100
AcDbBlockBegin
  2
Block_17
 70
     0
 10
0.0
 20
0.0
 30
0.0
  3
Block_17
  1

  0
SPLINE
  5
103
330
FF
100
AcDbEntity
  8
レイヤー 1
100
AcDbSpline
210
0.0
220
0.0
230
1.0
 70
     9
 71
     3
 72
    59
 73
    55
 74
     0
 42
0.0000000001
 43
0.0000000001
 40
0.0
 40
0.0
 40
0.0
 40
0.0
 40
1.0
 40
1.0
 40
1.0
 40
2.0
 40
2.0
 40
2.0
 40
3.0
 40
3.0
 40
3.0
 40
4.0
 40
4.0
 40
4.0
 40
5.0
 40
5.0
 40
5.0
 40
6.0
 40
6.0
 40
6.0
 40
7.0
 40
7.0
 40
7.0
 40
8.0
 40
8.0
 40
8.0
 40
9.0
 40
9.0
 40
9.0
 40
10.0
 40
10.0
 40
10.0
 40
11.0
 40
11.0
 40
11.0
 40
12.0
 40
12.0
 40
12.0
 40
13.0
 40
13.0
 40
13.0
 40
14.0
 40
14.0
 40
14.0
 40
15.0
 40
15.0
 40
15.0
 40
16.0
 40
16.0
 40
16.0
 40
17.0
 40
17.0
 40
17.0
 40
18.0
 40
18.0
 40
18.0
 40
18.0
 10
93.7822170446968
 20
-145.3465114653995
 30
0.0
 10
93.63976234638172
 20
-145.833131202691
 30
0.0
 10
93.42702770016755
 20
-146.3555799330291
 30
0.0
 10
92.91663680402779
 20
-146.6728732272207
 30
0.0
 10
92.91663680402779
 20
-146.6728732272207
 30
0.0
 10
92.75626760918941
 20
-146.5206000067726
 30
0.0
 10
92.75626760918941
 20
-146.5206000067726
 30
0.0
 10
92.89321015472809
 20
-146.4508368231963
 30
0.0
 10
93.10249970545703
 20
-146.3407660224426
 30
0.0
 10
93.31695689941382
 20
-146.0107258749556
 30
0.0
 10
93.51901174962373
 20
-145.6977389501207
 30
0.0
 10
93.56775985073999
 20
-145.4417683555666
 30
0.0
 10
93.59118650003971
 20
-145.3148165869352
 30
0.0
 10
93.59118650003971
 20
-145.3148165869352
 30
0.0
 10
93.03928220330268
 20
-145.3148165869352
 30
0.0
 10
93.03928220330268
 20
-145.3148165869352
 30
0.0
 10
92.95091550410601
 20
-145.4755302913221
 30
0.0
 10
92.84825165864559
 20
-145.6426174223567
 30
0.0
 10
92.68409285877343
 20
-145.8140109227479
 30
0.0
 10
92.68409285877343
 20
-145.8140109227479
 30
0.0
 10
92.53612600768194
 20
-145.691365523473
 30
0.0
 10
92.53612600768194
 20
-145.691365523473
 30
0.0
 10
92.58676891131512
 20
-145.6448567344221
 30
0.0
 10
92.71285940607526
 20
-145.5327188763772
 30
0.0
 10
92.85359155664771
 20
-145.2831217084709
 30
0.0
 10
92.91853160654467
 20
-145.1646104237783
 30
0.0
 10
93.00689830574134
 20
-144.9952839806782
 30
0.0
 10
93.02843015252415
 20
-144.8726385814033
 30
0.0
 10
93.02843015252415
 20
-144.8726385814033
 30
0.0
 10
93.2251451047319
 20
-144.974096643444
 30
0.0
 10
93.2251451047319
 20
-144.974096643444
 30
0.0
 10
93.23771970325308
 20
-144.9804700700917
 30
0.0
 10
93.25029430177423
 20
-144.9889105540305
 30
0.0
 10
93.25029430177423
 20
-145.0037244646171
 30
0.0
 10
93.25029430177423
 20
-145.0249118018514
 30
0.0
 10
93.22859020021715
 20
-145.0376586551468
 30
0.0
 10
93.22152775447241
 20
-145.039725712438
 30
0.0
 10
93.19792885039843
 20
-145.0481661963768
 30
0.0
 10
93.19086640465368
 20
-145.0460991390857
 30
0.0
 10
93.1691623030966
 20
-145.0714205909022
 30
0.0
 10
93.14745820153953
 20
-145.0969142974931
 30
0.0
 10
93.14935300405641
 20
-145.105354781432
 30
0.0
 10
93.12230900449721
 20
-145.1582369971306
 30
0.0
 10
93.12230900449721
 20
-145.1582369971306
 30
0.0
 10
93.40721840112736
 20
-145.1582369971306
 30
0.0
 10
93.40721840112736
 20
-145.1582369971306
 30
0.0
 10
93.62546520011795
 20
-145.1582369971306
 30
0.0
 10
93.65250919967715
 20
-145.1454901438351
 30
0.0
 10
93.70108504601917
 20
-145.115862322662
 30
0.0
 10
93.70108504601917
 20
-145.115862322662
 30
0.0
 10
93.83458249607262
 20
-145.2808823964055
 30
0.0
 10
93.83458249607262
 20
-145.2808823964055
 30
0.0
 10
93.80564369399651
 20
-145.3168836442263
 30
0.0
 10
93.80392114625388
 20
-145.3189507015174
 30
0.0
 10
93.7822170446968
 20
-145.3465114653995
 30
0.0
  0
HATCH
  5
104
330
FF
100
AcDbEntity
  8
レイヤー 1
 62
   250
420
  2299925
440
 33554687
100
AcDbHatch
 10
0.0
 20
0.0
 30
0.0
210
0.0
220
0.0
230
1.0
  2
SOLID
 70
     1
 71
     1
 91
        1
 92
        1
 93
        1
 72
     4
 94
        3
 73
     0
 74
     0
 95
       59
 96
       55
 40
0.0
 40
0.0
 40
0.0
 40
0.0
 40
1.0
 40
1.0
 40
1.0
 40
2.0
 40
2.0
 40
2.0
 40
3.0
 40
3.0
 40
3.0
 40
4.0
 40
4.0
 40
4.0
 40
5.0
 40
5.0
 40
5.0
 40
6.0
 40
6.0
 40
6.0
 40
7.0
 40
7.0
 40
7.0
 40
8.0
 40
8.0
 40
8.0
 40
9.0
 40
9.0
 40
9.0
 40
10.0
 40
10.0
 40
10.0
 40
11.0
 40
11.0
 40
11.0
 40
12.0
 40
12.0
 40
12.0
 40
13.0
 40
13.0
 40
13.0
 40
14.0
 40
14.0
 40
14.0
 40
15.0
 40
15.0
 40
15.0
 40
16.0
 40
16.0
 40
16.0
 40
17.0
 40
17.0
 40
17.0
 40
18.0
 40
18.0
 40
18.0
 40
18.0
 10
93.7822170446968
 20
-145.3465114653995
 10
93.63976234638172
 20
-145.833131202691
 10
93.42702770016755
 20
-146.3555799330291
 10
92.91663680402779
 20
-146.6728732272207
 10
92.91663680402779
 20
-146.6728732272207
 10
92.75626760918941
 20
-146.5206000067726
 10
92.75626760918941
 20
-146.5206000067726
 10
92.89321015472809
 20
-146.4508368231963
 10
93.10249970545703
 20
-146.3407660224426
 10
93.31695689941382
 20
-146.0107258749556
 10
93.51901174962373
 20
-145.6977389501207
 10
93.56775985073999
 20
-145.4417683555666
 10
93.59118650003971
 20
-145.3148165869352
 10
93.59118650003971
 20
-145.3148165869352
 10
93.03928220330268
 20
-145.3148165869352
 10
93.03928220330268
 20
-145.3148165869352
 10
92.95091550410601
 20
-145.4755302913221
 10
92.84825165864559
 20
-145.6426174223567
 10
92.68409285877343
 20
-145.8140109227479
 10
92.68409285877343
 20
-145.8140109227479
 10
92.53612600768194
 20
-145.691365523473
 10
92.53612600768194
 20
-145.691365523473
 10
92.58676891131512
 20
-145.6448567344221
 10
92.71285940607526
 20
-145.5327188763772
 10
92.85359155664771
 20
-145.2831217084709
 10
92.91853160654467
 20
-145.1646104237783
 10
93.00689830574134
 20
-144.9952839806782
 10
93.02843015252415
 20
-144.8726385814033
 10
93.02843015252415
 20
-144.8726385814033
 10
93.2251451047319
 20
-144.974096643444
 10
93.2251451047319
 20
-144.974096643444
 10
93.23771970325308
 20
-144.9804700700917
 10
93.25029430177423
 20
-144.9889105540305
 10
93.25029430177423
 20
-145.0037244646171
 10
93.25029430177423
 20
-145.0249118018514
 10
93.22859020021715
 20
-145.0376586551468
 10
93.22152775447241
 20
-145.039725712438
 10
93.19792885039843
 20
-145.0481661963768
 10
93.19086640465368
 20
-145.0460991390857
 10
93.1691623030966
 20
-145.0714205909022
 10
93.14745820153953
 20
-145.0969142974931
 10
93.14935300405641
 20
-145.105354781432
 10
93.12230900449721
 20
-145.1582369971306
 10
93.12230900449721
 20
-145.1582369971306
 10
93.40721840112736
 20
-145.1582369971306
 10
93.40721840112736
 20
-145.1582369971306
 10
93.62546520011795
 20
-145.1582369971306
 10
93.65250919967715
 20
-145.1454901438351
 10
93.70108504601917
 20
-145.115862322662
 10
93.70108504601917
 20
-145.115862322662
 10
93.83458249607262
 20
-145.2808823964055
 10
93.83458249607262
 20
-145.2808823964055
 10
93.80564369399651
 20
-145.3168836442263
 10
93.80392114625388
 20
-145.3189507015174
 10
93.7822170446968
 20
-145.3465114653995
 97
        0
 97
        1
330
103
 75
     2
 76
     1
 98
        1
 10
0.0
 20
0.0
450
        0
451
        0
460
0.0
461
0.0
452
        0
462
0.0
453
        0
470

  0
SPLINE
  5
105
330
FF
100
AcDbEntity
  8
レイヤー 1
100
AcDbSpline
210
0.0
220
0.0
230
1.0
 70
    11
 71
     3
 72
    17
 73
    13
 74
     0
 42
0.0000000001
 43
0.0000000001
 40
0.0
 40
0.0
 40
0.0
 40
0.0
 40
1.0
 40
1.0
 40
1.0
 40
2.0
 40
2.0
 40
2.0
 40
3.0
 40
3.0
 40
3.0
 40
4.0
 40
4.0
 40
4.0
 40
4.0
 10
95.18023679261119
 20
-145.2555609445889
 30
0.0
 10
95.18023679261119
 20
-145.2555609445889
 30
0.0
 10
94.2929524503851
 20
-145.2555609445889
 30
0.0
 10
94.2929524503851
 20
-145.2555609445889
 30
0.0
 10
94.2929524503851
 20
-145.2555609445889
 30
0.0
 10
94.2929524503851
 20
-146.1440510702348
 30
0.0
 10
94.2929524503851
 20
-146.1440510702348
 30
0.0
 10
94.2929524503851
 20
-146.1440510702348
 30
0.0
 10
95.18023679261119
 20
-146.1440510702348
 30
0.0
 10
95.18023679261119
 20
-146.1440510702348
 30
0.0
 10
95.18023679261119
 20
-146.1440510702348
 30
0.0
 10
95.18023679261119
 20
-145.2555609445889
 30
0.0
 10
95.18023679261119
 20
-145.2555609445889
 30
0.0
  0
SPLINE
  5
106
330
FF
100
AcDbEntity
  8
レイヤー 1
100
AcDbSpline
210
0.0
220
0.0
230
1.0
 70
     9
 71
     3
 72
    53
 73
    49
 74
     0
 42
0.0000000001
 43
0.0000000001
 40
0.0
 40
0.0
 40
0.0
 40
0.0
 40
1.0
 40
1.0
 40
1.0
 40
2.0
 40
2.0
 40
2.0
 40
3.0
 40
3.0
 40
3.0
 40
4.0
 40
4.0
 40
4.0
 40
5.0
 40
5.0
 40
5.0
 40
6.0
 40
6.0
 40
6.0
 40
7.0
 40
7.0
 40
7.0
 40
8.0
 40
8.0
 40
8.0
 40
9.0
 40
9.0
 40
9.0
 40
10.0
 40
10.0
 40
10.0
 40
11.0
 40
11.0
 40
11.0
 40
12.0
 40
12.0
 40
12.0
 40
13.0
 40
13.0
 40
13.0
 40
14.0
 40
14.0
 40
14.0
 40
15.0
 40
15.0
 40
15.0
 40
16.0
 40
16.0
 40
16.0
 40
16.0
 10
95.16042749357101
 20
-146.4592773071352
 30
0.0
 10
95.16766219409003
 20
-146.4148355753754
 30
0.0
 10
95.16766219409003
 20
-146.4063950914366
 30
0.0
 10
95.17300209209217
 20
-146.3323255385037
 30
0.0
 10
95.17300209209217
 20
-146.3323255385037
 30
0.0
 10
94.29484725290199
 20
-146.3323255385037
 30
0.0
 10
94.29484725290199
 20
-146.3323255385037
 30
0.0
 10
94.29484725290199
 20
-146.364020416968
 30
0.0
 10
94.29484725290199
 20
-146.419141944732
 30
0.0
 10
94.2984646031615
 20
-146.4549709377786
 30
0.0
 10
94.2984646031615
 20
-146.4549709377786
 30
0.0
 10
94.09279240269208
 20
-146.4549709377786
 30
0.0
 10
94.09279240269208
 20
-146.4549709377786
 30
0.0
 10
94.09830455546849
 20
-146.4000216647889
 30
0.0
 10
94.10726180373014
 20
-146.3090711439783
 30
0.0
 10
94.10726180373014
 20
-146.1800523180557
 30
0.0
 10
94.10915660624702
 20
-145.974896881909
 30
0.0
 10
94.10915660624702
 20
-145.9514702326093
 30
0.0
 10
94.10915660624702
 20
-145.9282158380839
 30
0.0
 10
94.10915660624702
 20
-145.9282158380839
 30
0.0
 10
94.10915660624702
 20
-145.4882771446175
 30
0.0
 10
94.10915660624702
 20
-145.4882771446175
 30
0.0
 10
94.10915660624702
 20
-145.4226480756235
 30
0.0
 10
94.10364445347061
 20
-145.0989813547843
 30
0.0
 10
94.1000271032111
 20
-145.0440320817945
 30
0.0
 10
94.20648055370532
 20
-145.0566066803157
 30
0.0
 10
94.43196205321493
 20
-145.0609130496722
 30
0.0
 10
94.54375540171129
 20
-145.0609130496722
 30
0.0
 10
94.54375540171129
 20
-145.0609130496722
 30
0.0
 10
94.93132864380189
 20
-145.0609130496722
 30
0.0
 10
94.93132864380189
 20
-145.0609130496722
 30
0.0
 10
95.05948619585318
 20
-145.0609130496722
 30
0.0
 10
95.25051674051029
 20
-145.0588459923811
 30
0.0
 10
95.37505694230206
 20
-145.0504055084422
 30
0.0
 10
95.36782224178304
 20
-145.1603040544217
 30
0.0
 10
95.36420489152353
 20
-145.4099012223281
 30
0.0
 10
95.36420489152353
 20
-145.5284125070207
 30
0.0
 10
95.36420489152353
 20
-145.5284125070207
 30
0.0
 10
95.36420489152353
 20
-145.947336118027
 30
0.0
 10
95.36420489152353
 20
-145.947336118027
 30
0.0
 10
95.36420489152353
 20
-145.9897107924956
 30
0.0
 10
95.36954478952567
 20
-146.1716118341168
 30
0.0
 10
95.36954478952567
 20
-146.2096801392288
 30
0.0
 10
95.37143959204255
 20
-146.3598863023857
 30
0.0
 10
95.37867429256158
 20
-146.4105292060189
 30
0.0
 10
95.3859089930806
 20
-146.4592773071352
 30
0.0
 10
95.3859089930806
 20
-146.4592773071352
 30
0.0
 10
95.16042749357101
 20
-146.4592773071352
 30
0.0
 10
95.16042749357101
 20
-146.4592773071352
 30
0.0
  0
HATCH
  5
107
330
FF
100
AcDbEntity
  8
レイヤー 1
 62
   250
420
  2299925
440
 33554687
100
AcDbHatch
 10
0.0
 20
0.0
 30
0.0
210
0.0
220
0.0
230
1.0
  2
SOLID
 70
     1
 71
     1
 91
        2
 92
        1
 93
        1
 72
     4
 94
        3
 73
     0
 74
     0
 95
       17
 96
       13
 40
0.0
 40
0.0
 40
0.0
 40
0.0
 40
1.0
 40
1.0
 40
1.0
 40
2.0
 40
2.0
 40
2.0
 40
3.0
 40
3.0
 40
3.0
 40
4.0
 40
4.0
 40
4.0
 40
4.0
 10
95.18023679261119
 20
-145.2555609445889
 10
95.18023679261119
 20
-145.2555609445889
 10
94.2929524503851
 20
-145.2555609445889
 10
94.2929524503851
 20
-145.2555609445889
 10
94.2929524503851
 20
-145.2555609445889
 10
94.2929524503851
 20
-146.1440510702348
 10
94.2929524503851
 20
-146.1440510702348
 10
94.2929524503851
 20
-146.1440510702348
 10
95.18023679261119
 20
-146.1440510702348
 10
95.18023679261119
 20
-146.1440510702348
 10
95.18023679261119
 20
-146.1440510702348
 10
95.18023679261119
 20
-145.2555609445889
 10
95.18023679261119
 20
-145.2555609445889
 97
        0
 97
        1
330
105
 92
        1
 93
        1
 72
     4
 94
        3
 73
     0
 74
     0
 95
       53
 96
       49
 40
0.0
 40
0.0
 40
0.0
 40
0.0
 40
1.0
 40
1.0
 40
1.0
 40
2.0
 40
2.0
 40
2.0
 40
3.0
 40
3.0
 40
3.0
 40
4.0
 40
4.0
 40
4.0
 40
5.0
 40
5.0
 40
5.0
 40
6.0
 40
6.0
 40
6.0
 40
7.0
 40
7.0
 40
7.0
 40
8.0
 40
8.0
 40
8.0
 40
9.0
 40
9.0
 40
9.0
 40
10.0
 40
10.0
 40
10.0
 40
11.0
 40
11.0
 40
11.0
 40
12.0
 40
12.0
 40
12.0
 40
13.0
 40
13.0
 40
13.0
 40
14.0
 40
14.0
 40
14.0
 40
15.0
 40
15.0
 40
15.0
 40
16.0
 40
16.0
 40
16.0
 40
16.0
 10
95.16042749357101
 20
-146.4592773071352
 10
95.16766219409003
 20
-146.4148355753754
 10
95.16766219409003
 20
-146.4063950914366
 10
95.17300209209217
 20
-146.3323255385037
 10
95.17300209209217
 20
-146.3323255385037
 10
94.29484725290199
 20
-146.3323255385037
 10
94.29484725290199
 20
-146.3323255385037
 10
94.29484725290199
 20
-146.364020416968
 10
94.29484725290199
 20
-146.419141944732
 10
94.2984646031615
 20
-146.4549709377786
 10
94.2984646031615
 20
-146.4549709377786
 10
94.09279240269208
 20
-146.4549709377786
 10
94.09279240269208
 20
-146.4549709377786
 10
94.09830455546849
 20
-146.4000216647889
 10
94.10726180373014
 20
-146.3090711439783
 10
94.10726180373014
 20
-146.1800523180557
 10
94.10915660624702
 20
-145.974896881909
 10
94.10915660624702
 20
-145.9514702326093
 10
94.10915660624702
 20
-145.9282158380839
 10
94.10915660624702
 20
-145.9282158380839
 10
94.10915660624702
 20
-145.4882771446175
 10
94.10915660624702
 20
-145.4882771446175
 10
94.10915660624702
 20
-145.4226480756235
 10
94.10364445347061
 20
-145.0989813547843
 10
94.1000271032111
 20
-145.0440320817945
 10
94.20648055370532
 20
-145.0566066803157
 10
94.43196205321493
 20
-145.0609130496722
 10
94.54375540171129
 20
-145.0609130496722
 10
94.54375540171129
 20
-145.0609130496722
 10
94.93132864380189
 20
-145.0609130496722
 10
94.93132864380189
 20
-145.0609130496722
 10
95.05948619585318
 20
-145.0609130496722
 10
95.25051674051029
 20
-145.0588459923811
 10
95.37505694230206
 20
-145.0504055084422
 10
95.36782224178304
 20
-145.1603040544217
 10
95.36420489152353
 20
-145.4099012223281
 10
95.36420489152353
 20
-145.5284125070207
 10
95.36420489152353
 20
-145.5284125070207
 10
95.36420489152353
 20
-145.947336118027
 10
95.36420489152353
 20
-145.947336118027
 10
95.36420489152353
 20
-145.9897107924956
 10
95.36954478952567
 20
-146.1716118341168
 10
95.36954478952567
 20
-146.2096801392288
 10
95.37143959204255
 20
-146.3598863023857
 10
95.37867429256158
 20
-146.4105292060189
 10
95.3859089930806
 20
-146.4592773071352
 10
95.3859089930806
 20
-146.4592773071352
 10
95.16042749357101
 20
-146.4592773071352
 10
95.16042749357101
 20
-146.4592773071352
 97
        0
 97
        1
330
106
 75
     2
 76
     1
 98
        1
 10
0.0
 20
0.0
450
        0
451
        0
460
0.0
461
0.0
452
        0
462
0.0
453
        0
470

  0
SPLINE
  5
108
330
FF
100
AcDbEntity
  8
レイヤー 1
100
AcDbSpline
210
0.0
220
0.0
230
1.0
 70
     9
 71
     3
 72
    56
 73
    52
 74
     0
 42
0.0000000001
 43
0.0000000001
 40
0.0
 40
0.0
 40
0.0
 40
0.0
 40
1.0
 40
1.0
 40
1.0
 40
2.0
 40
2.0
 40
2.0
 40
3.0
 40
3.0
 40
3.0
 40
4.0
 40
4.0
 40
4.0
 40
5.0
 40
5.0
 40
5.0
 40
6.0
 40
6.0
 40
6.0
 40
7.0
 40
7.0
 40
7.0
 40
8.0
 40
8.0
 40
8.0
 40
9.0
 40
9.0
 40
9.0
 40
10.0
 40
10.0
 40
10.0
 40
11.0
 40
11.0
 40
11.0
 40
12.0
 40
12.0
 40
12.0
 40
13.0
 40
13.0
 40
13.0
 40
14.0
 40
14.0
 40
14.0
 40
15.0
 40
15.0
 40
15.0
 40
16.0
 40
16.0
 40
16.0
 40
17.0
 40
17.0
 40
17.0
 40
17.0
 10
96.87229544019166
 20
-146.5249063761292
 30
0.0
 10
96.70830889509376
 20
-146.2160535658765
 30
0.0
 10
96.4881672935863
 20
-146.0107258749556
 30
0.0
 10
96.41065264516818
 20
-145.9452690607359
 30
0.0
 10
96.16002194861625
 20
-146.2837496921617
 30
0.0
 10
95.91300860232385
 20
-146.4360229126097
 30
0.0
 10
95.74350990444953
 20
-146.5290404907115
 30
0.0
 10
95.74350990444953
 20
-146.5290404907115
 30
0.0
 10
95.60828990665347
 20
-146.3407660224426
 30
0.0
 10
95.60828990665347
 20
-146.3407660224426
 30
0.0
 10
95.69665660585014
 20
-146.3047647746217
 30
0.0
 10
95.87872990224559
 20
-146.2286281643977
 30
0.0
 10
96.07699514742172
 20
-146.0425930081942
 30
0.0
 10
96.30247664693133
 20
-145.8308918906256
 30
0.0
 10
96.4611232940271
 20
-145.5432264176072
 30
0.0
 10
96.56585419677867
 20
-145.2302394927723
 30
0.0
 10
96.56585419677867
 20
-145.2302394927723
 30
0.0
 10
96.24477129755341
 20
-145.2302394927723
 30
0.0
 10
96.24477129755341
 20
-145.2302394927723
 30
0.0
 10
96.11489119775947
 20
-145.2302394927723
 30
0.0
 10
95.93643525162354
 20
-145.2343736073546
 30
0.0
 10
95.80844995434651
 20
-145.2534938872977
 30
0.0
 10
95.80844995434651
 20
-145.2534938872977
 30
0.0
 10
95.80844995434651
 20
-145.0419650245034
 30
0.0
 10
95.80844995434651
 20
-145.0419650245034
 30
0.0
 10
95.86615530372444
 20
-145.0481661963768
 30
0.0
 10
96.08784719820027
 20
-145.0588459923811
 30
0.0
 10
96.16191675113313
 20
-145.0588459923811
 30
0.0
 10
96.16191675113313
 20
-145.0588459923811
 30
0.0
 10
96.42684459394885
 20
-145.0588459923811
 30
0.0
 10
96.42684459394885
 20
-145.0588459923811
 30
0.0
 10
96.60357799234217
 20
-145.0588459923811
 30
0.0
 10
96.62355954615662
 20
-145.0524725657334
 30
0.0
 10
96.64336884519681
 20
-145.0481661963768
 30
0.0
 10
96.68126489553456
 20
-145.0419650245034
 30
0.0
 10
96.7136487930959
 20
-145.0164713179125
 30
0.0
 10
96.73173554439346
 20
-144.9995903500348
 30
0.0
 10
96.73173554439346
 20
-144.9995903500348
 30
0.0
 10
96.86506073967263
 20
-145.1730509077171
 30
0.0
 10
96.86506073967263
 20
-145.1730509077171
 30
0.0
 10
96.83078203959439
 20
-145.2006116715991
 30
0.0
 10
96.82010224359011
 20
-145.2111192128292
 30
0.0
 10
96.77858884299286
 20
-145.24712046065
 30
0.0
 10
96.66851804223913
 20
-145.4946505712652
 30
0.0
 10
96.59996064208264
 20
-145.6448567344221
 30
0.0
 10
96.51159394288599
 20
-145.7907565282224
 30
0.0
 10
96.77858884299286
 20
-146.0086588176645
 30
0.0
 10
96.97323673790947
 20
-146.2942572333917
 30
0.0
 10
97.01836748876624
 20
-146.3724609009069
 30
0.0
 10
97.01836748876624
 20
-146.3724609009069
 30
0.0
 10
96.87229544019166
 20
-146.5249063761292
 30
0.0
 10
96.87229544019166
 20
-146.5249063761292
 30
0.0
  0
HATCH
  5
109
330
FF
100
AcDbEntity
  8
レイヤー 1
 62
   250
420
  2299925
440
 33554687
100
AcDbHatch
 10
0.0
 20
0.0
 30
0.0
210
0.0
220
0.0
230
1.0
  2
SOLID
 70
     1
 71
     1
 91
        1
 92
        1
 93
        1
 72
     4
 94
        3
 73
     0
 74
     0
 95
       56
 96
       52
 40
0.0
 40
0.0
 40
0.0
 40
0.0
 40
1.0
 40
1.0
 40
1.0
 40
2.0
 40
2.0
 40
2.0
 40
3.0
 40
3.0
 40
3.0
 40
4.0
 40
4.0
 40
4.0
 40
5.0
 40
5.0
 40
5.0
 40
6.0
 40
6.0
 40
6.0
 40
7.0
 40
7.0
 40
7.0
 40
8.0
 40
8.0
 40
8.0
 40
9.0
 40
9.0
 40
9.0
 40
10.0
 40
10.0
 40
10.0
 40
11.0
 40
11.0
 40
11.0
 40
12.0
 40
12.0
 40
12.0
 40
13.0
 40
13.0
 40
13.0
 40
14.0
 40
14.0
 40
14.0
 40
15.0
 40
15.0
 40
15.0
 40
16.0
 40
16.0
 40
16.0
 40
17.0
 40
17.0
 40
17.0
 40
17.0
 10
96.87229544019166
 20
-146.5249063761292
 10
96.70830889509376
 20
-146.2160535658765
 10
96.4881672935863
 20
-146.0107258749556
 10
96.41065264516818
 20
-145.9452690607359
 10
96.16002194861625
 20
-146.2837496921617
 10
95.91300860232385
 20
-146.4360229126097
 10
95.74350990444953
 20
-146.5290404907115
 10
95.74350990444953
 20
-146.5290404907115
 10
95.60828990665347
 20
-146.3407660224426
 10
95.60828990665347
 20
-146.3407660224426
 10
95.69665660585014
 20
-146.3047647746217
 10
95.87872990224559
 20
-146.2286281643977
 10
96.07699514742172
 20
-146.0425930081942
 10
96.30247664693133
 20
-145.8308918906256
 10
96.4611232940271
 20
-145.5432264176072
 10
96.56585419677867
 20
-145.2302394927723
 10
96.56585419677867
 20
-145.2302394927723
 10
96.24477129755341
 20
-145.2302394927723
 10
96.24477129755341
 20
-145.2302394927723
 10
96.11489119775947
 20
-145.2302394927723
 10
95.93643525162354
 20
-145.2343736073546
 10
95.80844995434651
 20
-145.2534938872977
 10
95.80844995434651
 20
-145.2534938872977
 10
95.80844995434651
 20
-145.0419650245034
 10
95.80844995434651
 20
-145.0419650245034
 10
95.86615530372444
 20
-145.0481661963768
 10
96.08784719820027
 20
-145.0588459923811
 10
96.16191675113313
 20
-145.0588459923811
 10
96.16191675113313
 20
-145.0588459923811
 10
96.42684459394885
 20
-145.0588459923811
 10
96.42684459394885
 20
-145.0588459923811
 10
96.60357799234217
 20
-145.0588459923811
 10
96.62355954615662
 20
-145.0524725657334
 10
96.64336884519681
 20
-145.0481661963768
 10
96.68126489553456
 20
-145.0419650245034
 10
96.7136487930959
 20
-145.0164713179125
 10
96.73173554439346
 20
-144.9995903500348
 10
96.73173554439346
 20
-144.9995903500348
 10
96.86506073967263
 20
-145.1730509077171
 10
96.86506073967263
 20
-145.1730509077171
 10
96.83078203959439
 20
-145.2006116715991
 10
96.82010224359011
 20
-145.2111192128292
 10
96.77858884299286
 20
-145.24712046065
 10
96.66851804223913
 20
-145.4946505712652
 10
96.59996064208264
 20
-145.6448567344221
 10
96.51159394288599
 20
-145.7907565282224
 10
96.77858884299286
 20
-146.0086588176645
 10
96.97323673790947
 20
-146.2942572333917
 10
97.01836748876624
 20
-146.3724609009069
 10
97.01836748876624
 20
-146.3724609009069
 10
96.87229544019166
 20
-146.5249063761292
 10
96.87229544019166
 20
-146.5249063761292
 97
        0
 97
        1
330
108
 75
     2
 76
     1
 98
        1
 10
0.0
 20
0.0
450
        0
451
        0
460
0.0
461
0.0
452
        0
462
0.0
453
        0
470

  0
SPLINE
  5
10A
330
FF
100
AcDbEntity
  8
レイヤー 1
100
AcDbSpline
210
0.0
220
0.0
230
1.0
 70
    11
 71
     3
 72
    17
 73
    13
 74
     0
 42
0.0000000001
 43
0.0000000001
 40
0.0
 40
0.0
 40
0.0
 40
0.0
 40
1.0
 40
1.0
 40
1.0
 40
2.0
 40
2.0
 40
2.0
 40
3.0
 40
3.0
 40
3.0
 40
4.0
 40
4.0
 40
4.0
 40
4.0
 10
98.47426484083284
 20
-145.5475327869638
 30
0.0
 10
98.47426484083284
 20
-145.5475327869638
 30
0.0
 10
98.08290199370844
 20
-145.5475327869638
 30
0.0
 10
98.08290199370844
 20
-145.5475327869638
 30
0.0
 10
98.08290199370844
 20
-145.5475327869638
 30
0.0
 10
98.08290199370844
 20
-145.8563855972164
 30
0.0
 10
98.08290199370844
 20
-145.8563855972164
 30
0.0
 10
98.08290199370844
 20
-145.8563855972164
 30
0.0
 10
98.47426484083284
 20
-145.8563855972164
 30
0.0
 10
98.47426484083284
 20
-145.8563855972164
 30
0.0
 10
98.47426484083284
 20
-145.8563855972164
 30
0.0
 10
98.47426484083284
 20
-145.5475327869638
 30
0.0
 10
98.47426484083284
 20
-145.5475327869638
 30
0.0
  0
SPLINE
  5
10B
330
FF
100
AcDbEntity
  8
レイヤー 1
100
AcDbSpline
210
0.0
220
0.0
230
1.0
 70
    11
 71
     3
 72
    17
 73
    13
 74
     0
 42
0.0000000001
 43
0.0000000001
 40
0.0
 40
0.0
 40
0.0
 40
0.0
 40
1.0
 40
1.0
 40
1.0
 40
2.0
 40
2.0
 40
2.0
 40
3.0
 40
3.0
 40
3.0
 40
4.0
 40
4.0
 40
4.0
 40
4.0
 10
98.47426484083284
 20
-145.0757269602588
 30
0.0
 10
98.47426484083284
 20
-145.0757269602588
 30
0.0
 10
98.08290199370844
 20
-145.0757269602588
 30
0.0
 10
98.08290199370844
 20
-145.0757269602588
 30
0.0
 10
98.08290199370844
 20
-145.0757269602588
 30
0.0
 10
98.08290199370844
 20
-145.3802734011549
 30
0.0
 10
98.08290199370844
 20
-145.3802734011549
 30
0.0
 10
98.08290199370844
 20
-145.3802734011549
 30
0.0
 10
98.47426484083284
 20
-145.3802734011549
 30
0.0
 10
98.47426484083284
 20
-145.3802734011549
 30
0.0
 10
98.47426484083284
 20
-145.3802734011549
 30
0.0
 10
98.47426484083284
 20
-145.0757269602588
 30
0.0
 10
98.47426484083284
 20
-145.0757269602588
 30
0.0
  0
SPLINE
  5
10C
330
FF
100
AcDbEntity
  8
レイヤー 1
100
AcDbSpline
210
0.0
220
0.0
230
1.0
 70
    11
 71
     3
 72
    17
 73
    13
 74
     0
 42
0.0000000001
 43
0.0000000001
 40
0.0
 40
0.0
 40
0.0
 40
0.0
 40
1.0
 40
1.0
 40
1.0
 40
2.0
 40
2.0
 40
2.0
 40
3.0
 40
3.0
 40
3.0
 40
4.0
 40
4.0
 40
4.0
 40
4.0
 10
97.92063799635318
 20
-145.5475327869638
 30
0.0
 10
97.92063799635318
 20
-145.5475327869638
 30
0.0
 10
97.54736190052636
 20
-145.5475327869638
 30
0.0
 10
97.54736190052636
 20
-145.5475327869638
 30
0.0
 10
97.54736190052636
 20
-145.5475327869638
 30
0.0
 10
97.54736190052636
 20
-145.8563855972164
 30
0.0
 10
97.54736190052636
 20
-145.8563855972164
 30
0.0
 10
97.54736190052636
 20
-145.8563855972164
 30
0.0
 10
97.92063799635318
 20
-145.8563855972164
 30
0.0
 10
97.92063799635318
 20
-145.8563855972164
 30
0.0
 10
97.92063799635318
 20
-145.8563855972164
 30
0.0
 10
97.92063799635318
 20
-145.5475327869638
 30
0.0
 10
97.92063799635318
 20
-145.5475327869638
 30
0.0
  0
SPLINE
  5
10D
330
FF
100
AcDbEntity
  8
レイヤー 1
100
AcDbSpline
210
0.0
220
0.0
230
1.0
 70
    11
 71
     3
 72
    17
 73
    13
 74
     0
 42
0.0000000001
 43
0.0000000001
 40
0.0
 40
0.0
 40
0.0
 40
0.0
 40
1.0
 40
1.0
 40
1.0
 40
2.0
 40
2.0
 40
2.0
 40
3.0
 40
3.0
 40
3.0
 40
4.0
 40
4.0
 40
4.0
 40
4.0
 10
97.92063799635318
 20
-145.0757269602588
 30
0.0
 10
97.92063799635318
 20
-145.0757269602588
 30
0.0
 10
97.54736190052636
 20
-145.0757269602588
 30
0.0
 10
97.54736190052636
 20
-145.0757269602588
 30
0.0
 10
97.54736190052636
 20
-145.0757269602588
 30
0.0
 10
97.54736190052636
 20
-145.3802734011549
 30
0.0
 10
97.54736190052636
 20
-145.3802734011549
 30
0.0
 10
97.54736190052636
 20
-145.3802734011549
 30
0.0
 10
97.92063799635318
 20
-145.3802734011549
 30
0.0
 10
97.92063799635318
 20
-145.3802734011549
 30
0.0
 10
97.92063799635318
 20
-145.3802734011549
 30
0.0
 10
97.92063799635318
 20
-145.0757269602588
 30
0.0
 10
97.92063799635318
 20
-145.0757269602588
 30
0.0
  0
SPLINE
  5
10E
330
FF
100
AcDbEntity
  8
レイヤー 1
100
AcDbSpline
210
0.0
220
0.0
230
1.0
 70
     9
 71
     3
 72
    77
 73
    73
 74
     0
 42
0.0000000001
 43
0.0000000001
 40
0.0
 40
0.0
 40
0.0
 40
0.0
 40
1.0
 40
1.0
 40
1.0
 40
2.0
 40
2.0
 40
2.0
 40
3.0
 40
3.0
 40
3.0
 40
4.0
 40
4.0
 40
4.0
 40
5.0
 40
5.0
 40
5.0
 40
6.0
 40
6.0
 40
6.0
 40
7.0
 40
7.0
 40
7.0
 40
8.0
 40
8.0
 40
8.0
 40
9.0
 40
9.0
 40
9.0
 40
10.0
 40
10.0
 40
10.0
 40
11.0
 40
11.0
 40
11.0
 40
12.0
 40
12.0
 40
12.0
 40
13.0
 40
13.0
 40
13.0
 40
14.0
 40
14.0
 40
14.0
 40
15.0
 40
15.0
 40
15.0
 40
16.0
 40
16.0
 40
16.0
 40
17.0
 40
17.0
 40
17.0
 40
18.0
 40
18.0
 40
18.0
 40
19.0
 40
19.0
 40
19.0
 40
20.0
 40
20.0
 40
20.0
 40
21.0
 40
21.0
 40
21.0
 40
22.0
 40
22.0
 40
22.0
 40
23.0
 40
23.0
 40
23.0
 40
24.0
 40
24.0
 40
24.0
 40
24.0
 10
98.58967553958869
 20
-146.6623656859906
 30
0.0
 10
98.55005694150833
 20
-146.6876871378072
 30
0.0
 10
98.4436034910141
 20
-146.7004339911026
 30
0.0
 10
98.37694089337453
 20
-146.7004339911026
 30
0.0
 10
98.36608884259598
 20
-146.7004339911026
 30
0.0
 10
98.3443847410389
 20
-146.7004339911026
 30
0.0
 10
98.31561819373707
 20
-146.6961276217461
 30
0.0
 10
98.31561819373707
 20
-146.6961276217461
 30
0.0
 10
98.23259139254254
 20
-146.4697848483652
 30
0.0
 10
98.23259139254254
 20
-146.4697848483652
 30
0.0
 10
98.25791284435915
 20
-146.4761582750129
 30
0.0
 10
98.30648869070117
 20
-146.4845987589517
 30
0.0
 10
98.40570744067635
 20
-146.4845987589517
 30
0.0
 10
98.47254229309021
 20
-146.4845987589517
 30
0.0
 10
98.47426484083284
 20
-146.4423963392574
 30
0.0
 10
98.47426484083284
 20
-146.3852077542023
 30
0.0
 10
98.47426484083284
 20
-146.3852077542023
 30
0.0
 10
98.47426484083284
 20
-146.0362195815465
 30
0.0
 10
98.47426484083284
 20
-146.0362195815465
 30
0.0
 10
98.47426484083284
 20
-146.0362195815465
 30
0.0
 10
98.08290199370844
 20
-146.0362195815465
 30
0.0
 10
98.08290199370844
 20
-146.0362195815465
 30
0.0
 10
98.08479679622534
 20
-146.1736788914079
 30
0.0
 10
98.08651934396797
 20
-146.3724609009069
 30
0.0
 10
98.09203149674436
 20
-146.505786096186
 30
0.0
 10
98.09375404448699
 20
-146.533346860068
 30
0.0
 10
98.09375404448699
 20
-146.5777885918278
 30
0.0
 10
98.10460609526552
 20
-146.6391112914652
 30
0.0
 10
98.10460609526552
 20
-146.6391112914652
 30
0.0
 10
97.8989338947961
 20
-146.6391112914652
 30
0.0
 10
97.8989338947961
 20
-146.6391112914652
 30
0.0
 10
97.92063799635318
 20
-146.5142265801249
 30
0.0
 10
97.92063799635318
 20
-146.1736788914079
 30
0.0
 10
97.92063799635318
 20
-146.0362195815465
 30
0.0
 10
97.92063799635318
 20
-146.0362195815465
 30
0.0
 10
97.54374455026685
 20
-146.0362195815465
 30
0.0
 10
97.54374455026685
 20
-146.0362195815465
 30
0.0
 10
97.52393525122666
 20
-146.2434420749842
 30
0.0
 10
97.46795244959136
 20
-146.5121595228337
 30
0.0
 10
97.30034855423395
 20
-146.6961276217461
 30
0.0
 10
97.30034855423395
 20
-146.6961276217461
 30
0.0
 10
97.13980710462131
 20
-146.5734822224712
 30
0.0
 10
97.13980710462131
 20
-146.5734822224712
 30
0.0
 10
97.35615910109499
 20
-146.353512875738
 30
0.0
 10
97.3832031006542
 20
-146.0214056709599
 30
0.0
 10
97.3832031006542
 20
-145.6892984661818
 30
0.0
 10
97.3832031006542
 20
-145.6892984661818
 30
0.0
 10
97.3832031006542
 20
-145.2534938872977
 30
0.0
 10
97.3832031006542
 20
-145.2534938872977
 30
0.0
 10
97.3832031006542
 20
-145.2174926394769
 30
0.0
 10
97.38148055291159
 20
-144.9847764394482
 30
0.0
 10
97.37424585239255
 20
-144.8831461226333
 30
0.0
 10
97.49327390140793
 20
-144.8938259186377
 30
0.0
 10
97.69877384710309
 20
-144.8938259186377
 30
0.0
 10
97.82141924637798
 20
-144.8938259186377
 30
0.0
 10
97.82141924637798
 20
-144.8938259186377
 30
0.0
 10
98.21278209350237
 20
-144.8938259186377
 30
0.0
 10
98.21278209350237
 20
-144.8938259186377
 30
0.0
 10
98.22535669202352
 20
-144.8938259186377
 30
0.0
 10
98.52301294194912
 20
-144.8938259186377
 30
0.0
 10
98.65823293974516
 20
-144.8831461226333
 30
0.0
 10
98.65633813722828
 20
-144.9360283383319
 30
0.0
 10
98.65099823922614
 20
-145.0969142974931
 30
0.0
 10
98.65099823922614
 20
-145.1477294559006
 30
0.0
 10
98.65099823922614
 20
-145.1477294559006
 30
0.0
 10
98.65099823922614
 20
-145.7547552804016
 30
0.0
 10
98.65099823922614
 20
-145.7547552804016
 30
0.0
 10
98.65099823922614
 20
-145.7738755603447
 30
0.0
 10
98.65995548748779
 20
-146.3450723917991
 30
0.0
 10
98.65995548748779
 20
-146.457210249844
 30
0.0
 10
98.65995548748779
 20
-146.5142265801249
 30
0.0
 10
98.65995548748779
 20
-146.6158568969398
 30
0.0
 10
98.58967553958869
 20
-146.6623656859906
 30
0.0
  0
HATCH
  5
10F
330
FF
100
AcDbEntity
  8
レイヤー 1
 62
   250
420
  2299925
440
 33554687
100
AcDbHatch
 10
0.0
 20
0.0
 30
0.0
210
0.0
220
0.0
230
1.0
  2
SOLID
 70
     1
 71
     1
 91
        5
 92
        1
 93
        1
 72
     4
 94
        3
 73
     0
 74
     0
 95
       17
 96
       13
 40
0.0
 40
0.0
 40
0.0
 40
0.0
 40
1.0
 40
1.0
 40
1.0
 40
2.0
 40
2.0
 40
2.0
 40
3.0
 40
3.0
 40
3.0
 40
4.0
 40
4.0
 40
4.0
 40
4.0
 10
98.47426484083284
 20
-145.5475327869638
 10
98.47426484083284
 20
-145.5475327869638
 10
98.08290199370844
 20
-145.5475327869638
 10
98.08290199370844
 20
-145.5475327869638
 10
98.08290199370844
 20
-145.5475327869638
 10
98.08290199370844
 20
-145.8563855972164
 10
98.08290199370844
 20
-145.8563855972164
 10
98.08290199370844
 20
-145.8563855972164
 10
98.47426484083284
 20
-145.8563855972164
 10
98.47426484083284
 20
-145.8563855972164
 10
98.47426484083284
 20
-145.8563855972164
 10
98.47426484083284
 20
-145.5475327869638
 10
98.47426484083284
 20
-145.5475327869638
 97
        0
 97
        1
330
10A
 92
        1
 93
        1
 72
     4
 94
        3
 73
     0
 74
     0
 95
       17
 96
       13
 40
0.0
 40
0.0
 40
0.0
 40
0.0
 40
1.0
 40
1.0
 40
1.0
 40
2.0
 40
2.0
 40
2.0
 40
3.0
 40
3.0
 40
3.0
 40
4.0
 40
4.0
 40
4.0
 40
4.0
 10
98.47426484083284
 20
-145.0757269602588
 10
98.47426484083284
 20
-145.0757269602588
 10
98.08290199370844
 20
-145.0757269602588
 10
98.08290199370844
 20
-145.0757269602588
 10
98.08290199370844
 20
-145.0757269602588
 10
98.08290199370844
 20
-145.3802734011549
 10
98.08290199370844
 20
-145.3802734011549
 10
98.08290199370844
 20
-145.3802734011549
 10
98.47426484083284
 20
-145.3802734011549
 10
98.47426484083284
 20
-145.3802734011549
 10
98.47426484083284
 20
-145.3802734011549
 10
98.47426484083284
 20
-145.0757269602588
 10
98.47426484083284
 20
-145.0757269602588
 97
        0
 97
        1
330
10B
 92
        1
 93
        1
 72
     4
 94
        3
 73
     0
 74
     0
 95
       17
 96
       13
 40
0.0
 40
0.0
 40
0.0
 40
0.0
 40
1.0
 40
1.0
 40
1.0
 40
2.0
 40
2.0
 40
2.0
 40
3.0
 40
3.0
 40
3.0
 40
4.0
 40
4.0
 40
4.0
 40
4.0
 10
97.92063799635318
 20
-145.5475327869638
 10
97.92063799635318
 20
-145.5475327869638
 10
97.54736190052636
 20
-145.5475327869638
 10
97.54736190052636
 20
-145.5475327869638
 10
97.54736190052636
 20
-145.5475327869638
 10
97.54736190052636
 20
-145.8563855972164
 10
97.54736190052636
 20
-145.8563855972164
 10
97.54736190052636
 20
-145.8563855972164
 10
97.92063799635318
 20
-145.8563855972164
 10
97.92063799635318
 20
-145.8563855972164
 10
97.92063799635318
 20
-145.8563855972164
 10
97.92063799635318
 20
-145.5475327869638
 10
97.92063799635318
 20
-145.5475327869638
 97
        0
 97
        1
330
10C
 92
        1
 93
        1
 72
     4
 94
        3
 73
     0
 74
     0
 95
       17
 96
       13
 40
0.0
 40
0.0
 40
0.0
 40
0.0
 40
1.0
 40
1.0
 40
1.0
 40
2.0
 40
2.0
 40
2.0
 40
3.0
 40
3.0
 40
3.0
 40
4.0
 40
4.0
 40
4.0
 40
4.0
 10
97.92063799635318
 20
-145.0757269602588
 10
97.92063799635318
 20
-145.0757269602588
 10
97.54736190052636
 20
-145.0757269602588
 10
97.54736190052636
 20
-145.0757269602588
 10
97.54736190052636
 20
-145.0757269602588
 10
97.54736190052636
 20
-145.3802734011549
 10
97.54736190052636
 20
-145.3802734011549
 10
97.54736190052636
 20
-145.3802734011549
 10
97.92063799635318
 20
-145.3802734011549
 10
97.92063799635318
 20
-145.3802734011549
 10
97.92063799635318
 20
-145.3802734011549
 10
97.92063799635318
 20
-145.0757269602588
 10
97.92063799635318
 20
-145.0757269602588
 97
        0
 97
        1
330
10D
 92
        1
 93
        1
 72
     4
 94
        3
 73
     0
 74
     0
 95
       77
 96
       73
 40
0.0
 40
0.0
 40
0.0
 40
0.0
 40
1.0
 40
1.0
 40
1.0
 40
2.0
 40
2.0
 40
2.0
 40
3.0
 40
3.0
 40
3.0
 40
4.0
 40
4.0
 40
4.0
 40
5.0
 40
5.0
 40
5.0
 40
6.0
 40
6.0
 40
6.0
 40
7.0
 40
7.0
 40
7.0
 40
8.0
 40
8.0
 40
8.0
 40
9.0
 40
9.0
 40
9.0
 40
10.0
 40
10.0
 40
10.0
 40
11.0
 40
11.0
 40
11.0
 40
12.0
 40
12.0
 40
12.0
 40
13.0
 40
13.0
 40
13.0
 40
14.0
 40
14.0
 40
14.0
 40
15.0
 40
15.0
 40
15.0
 40
16.0
 40
16.0
 40
16.0
 40
17.0
 40
17.0
 40
17.0
 40
18.0
 40
18.0
 40
18.0
 40
19.0
 40
19.0
 40
19.0
 40
20.0
 40
20.0
 40
20.0
 40
21.0
 40
21.0
 40
21.0
 40
22.0
 40
22.0
 40
22.0
 40
23.0
 40
23.0
 40
23.0
 40
24.0
 40
24.0
 40
24.0
 40
24.0
 10
98.58967553958869
 20
-146.6623656859906
 10
98.55005694150833
 20
-146.6876871378072
 10
98.4436034910141
 20
-146.7004339911026
 10
98.37694089337453
 20
-146.7004339911026
 10
98.36608884259598
 20
-146.7004339911026
 10
98.3443847410389
 20
-146.7004339911026
 10
98.31561819373707
 20
-146.6961276217461
 10
98.31561819373707
 20
-146.6961276217461
 10
98.23259139254254
 20
-146.4697848483652
 10
98.23259139254254
 20
-146.4697848483652
 10
98.25791284435915
 20
-146.4761582750129
 10
98.30648869070117
 20
-146.4845987589517
 10
98.40570744067635
 20
-146.4845987589517
 10
98.47254229309021
 20
-146.4845987589517
 10
98.47426484083284
 20
-146.4423963392574
 10
98.47426484083284
 20
-146.3852077542023
 10
98.47426484083284
 20
-146.3852077542023
 10
98.47426484083284
 20
-146.0362195815465
 10
98.47426484083284
 20
-146.0362195815465
 10
98.47426484083284
 20
-146.0362195815465
 10
98.08290199370844
 20
-146.0362195815465
 10
98.08290199370844
 20
-146.0362195815465
 10
98.08479679622534
 20
-146.1736788914079
 10
98.08651934396797
 20
-146.3724609009069
 10
98.09203149674436
 20
-146.505786096186
 10
98.09375404448699
 20
-146.533346860068
 10
98.09375404448699
 20
-146.5777885918278
 10
98.10460609526552
 20
-146.6391112914652
 10
98.10460609526552
 20
-146.6391112914652
 10
97.8989338947961
 20
-146.6391112914652
 10
97.8989338947961
 20
-146.6391112914652
 10
97.92063799635318
 20
-146.5142265801249
 10
97.92063799635318
 20
-146.1736788914079
 10
97.92063799635318
 20
-146.0362195815465
 10
97.92063799635318
 20
-146.0362195815465
 10
97.54374455026685
 20
-146.0362195815465
 10
97.54374455026685
 20
-146.0362195815465
 10
97.52393525122666
 20
-146.2434420749842
 10
97.46795244959136
 20
-146.5121595228337
 10
97.30034855423395
 20
-146.6961276217461
 10
97.30034855423395
 20
-146.6961276217461
 10
97.13980710462131
 20
-146.5734822224712
 10
97.13980710462131
 20
-146.5734822224712
 10
97.35615910109499
 20
-146.353512875738
 10
97.3832031006542
 20
-146.0214056709599
 10
97.3832031006542
 20
-145.6892984661818
 10
97.3832031006542
 20
-145.6892984661818
 10
97.3832031006542
 20
-145.2534938872977
 10
97.3832031006542
 20
-145.2534938872977
 10
97.3832031006542
 20
-145.2174926394769
 10
97.38148055291159
 20
-144.9847764394482
 10
97.37424585239255
 20
-144.8831461226333
 10
97.49327390140793
 20
-144.8938259186377
 10
97.69877384710309
 20
-144.8938259186377
 10
97.82141924637798
 20
-144.8938259186377
 10
97.82141924637798
 20
-144.8938259186377
 10
98.21278209350237
 20
-144.8938259186377
 10
98.21278209350237
 20
-144.8938259186377
 10
98.22535669202352
 20
-144.8938259186377
 10
98.52301294194912
 20
-144.8938259186377
 10
98.65823293974516
 20
-144.8831461226333
 10
98.65633813722828
 20
-144.9360283383319
 10
98.65099823922614
 20
-145.0969142974931
 10
98.65099823922614
 20
-145.1477294559006
 10
98.65099823922614
 20
-145.1477294559006
 10
98.65099823922614
 20
-145.7547552804016
 10
98.65099823922614
 20
-145.7547552804016
 10
98.65099823922614
 20
-145.7738755603447
 10
98.65995548748779
 20
-146.3450723917991
 10
98.65995548748779
 20
-146.457210249844
 10
98.65995548748779
 20
-146.5142265801249
 10
98.65995548748779
 20
-146.6158568969398
 10
98.58967553958869
 20
-146.6623656859906
 97
        0
 97
        1
330
10E
 75
     2
 76
     1
 98
        1
 10
0.0
 20
0.0
450
        0
451
        0
460
0.0
461
0.0
452
        0
462
0.0
453
        0
470

  0
ENDBLK
  5
102
330
FF
100
AcDbEntity
  8
0
100
AcDbBlockEnd
  0
BLOCK
  5
112
330
110
100
AcDbEntity
  8
0
100
AcDbBlockBegin
  2
Block_18
 70
     0
 10
0.0
 20
0.0
 30
0.0
  3
Block_18
  1

  0
INSERT
  5
115
330
110
100
AcDbEntity
  8
レイヤー 1
100
AcDbBlockReference
  2
Block_19
 10
0.0
 20
0.0
 30
0.0
  0
ENDBLK
  5
113
330
110
100
AcDbEntity
  8
0
100
AcDbBlockEnd
  0
BLOCK
  5
116
330
114
100
AcDbEntity
  8
0
100
AcDbBlockBegin
  2
Block_19
 70
     0
 10
0.0
 20
0.0
 30
0.0
  3
Block_19
  1

  0
SPLINE
  5
118
330
114
100
AcDbEntity
  8
レイヤー 1
100
AcDbSpline
210
0.0
220
0.0
230
1.0
 70
     9
 71
     3
 72
    17
 73
    13
 74
     0
 42
0.0000000001
 43
0.0000000001
 40
0.0
 40
0.0
 40
0.0
 40
0.0
 40
1.0
 40
1.0
 40
1.0
 40
2.0
 40
2.0
 40
2.0
 40
3.0
 40
3.0
 40
3.0
 40
4.0
 40
4.0
 40
4.0
 40
4.0
 10
93.94620358979471
 20
-147.4332058008153
 30
0.0
 10
93.89935029119531
 20
-147.4332058008153
 30
0.0
 10
93.86145424085755
 20
-147.477647532575
 30
0.0
 10
93.86145424085755
 20
-147.532769060339
 30
0.0
 10
93.86145424085755
 20
-147.5897853906199
 30
0.0
 10
93.89935029119531
 20
-147.6385334917362
 30
0.0
 10
93.9498209400542
 20
-147.6385334917362
 30
0.0
 10
94.00029158891312
 20
-147.6385334917362
 30
0.0
 10
94.03457028899136
 20
-147.5877183333287
 30
0.0
 10
94.03457028899136
 20
-147.5348361176302
 30
0.0
 10
94.03457028899136
 20
-147.477647532575
 30
0.0
 10
93.994951690911
 20
-147.4332058008153
 30
0.0
 10
93.94620358979471
 20
-147.4332058008153
 30
0.0
  0
SPLINE
  5
119
330
114
100
AcDbEntity
  8
レイヤー 1
100
AcDbSpline
210
0.0
220
0.0
230
1.0
 70
    11
 71
     3
 72
    17
 73
    13
 74
     0
 42
0.0000000001
 43
0.0000000001
 40
0.0
 40
0.0
 40
0.0
 40
0.0
 40
1.0
 40
1.0
 40
1.0
 40
2.0
 40
2.0
 40
2.0
 40
3.0
 40
3.0
 40
3.0
 40
4.0
 40
4.0
 40
4.0
 40
4.0
 10
93.94809839231159
 20
-147.7632459483022
 30
0.0
 10
93.83992239407474
 20
-147.7632459483022
 30
0.0
 10
93.7532782426207
 20
-147.6617878862616
 30
0.0
 10
93.7532782426207
 20
-147.5348361176302
 30
0.0
 10
93.7532782426207
 20
-147.4078843489987
 30
0.0
 10
93.83992239407474
 20
-147.3041869748927
 30
0.0
 10
93.94809839231159
 20
-147.3041869748927
 30
0.0
 10
94.05627439054844
 20
-147.3041869748927
 30
0.0
 10
94.1446410897451
 20
-147.4078843489987
 30
0.0
 10
94.1446410897451
 20
-147.5348361176302
 30
0.0
 10
94.1446410897451
 20
-147.6617878862616
 30
0.0
 10
94.05627439054844
 20
-147.7632459483022
 30
0.0
 10
93.94809839231159
 20
-147.7632459483022
 30
0.0
  0
SPLINE
  5
11A
330
114
100
AcDbEntity
  8
レイヤー 1
100
AcDbSpline
210
0.0
220
0.0
230
1.0
 70
     9
 71
     3
 72
    44
 73
    40
 74
     0
 42
0.0000000001
 43
0.0000000001
 40
0.0
 40
0.0
 40
0.0
 40
0.0
 40
1.0
 40
1.0
 40
1.0
 40
2.0
 40
2.0
 40
2.0
 40
3.0
 40
3.0
 40
3.0
 40
4.0
 40
4.0
 40
4.0
 40
5.0
 40
5.0
 40
5.0
 40
6.0
 40
6.0
 40
6.0
 40
7.0
 40
7.0
 40
7.0
 40
8.0
 40
8.0
 40
8.0
 40
9.0
 40
9.0
 40
9.0
 40
10.0
 40
10.0
 40
10.0
 40
11.0
 40
11.0
 40
11.0
 40
12.0
 40
12.0
 40
12.0
 40
13.0
 40
13.0
 40
13.0
 40
13.0
 10
93.76947019140137
 20
-147.9622002125754
 30
0.0
 10
93.67404104645997
 20
-148.3303086651743
 30
0.0
 10
93.63063284334582
 20
-148.4889553122701
 30
0.0
 10
93.46302894798842
 20
-148.7385524801765
 30
0.0
 10
93.30610484863528
 20
-148.9690293681397
 30
0.0
 10
93.10404999842537
 20
-149.1554090338917
 30
0.0
 10
92.86616615516889
 20
-149.2484266119934
 30
0.0
 10
92.86616615516889
 20
-149.2484266119934
 30
0.0
 10
92.70200735529673
 20
-149.0685926276634
 30
0.0
 10
92.70200735529673
 20
-149.0685926276634
 30
0.0
 10
93.24839949925735
 20
-148.9163194072154
 30
0.0
 10
93.52969154562799
 20
-148.3599364863475
 30
0.0
 10
93.58377954474642
 20
-147.9198255381068
 30
0.0
 10
93.58377954474642
 20
-147.9198255381068
 30
0.0
 10
92.93093395029158
 20
-147.9198255381068
 30
0.0
 10
92.93093395029158
 20
-147.9198255381068
 30
0.0
 10
92.85169675413083
 20
-147.9198255381068
 30
0.0
 10
92.69477265477769
 20
-147.9241319074634
 30
0.0
 10
92.56127520472427
 20
-147.9430799326323
 30
0.0
 10
92.56127520472427
 20
-147.9430799326323
 30
0.0
 10
92.56127520472427
 20
-147.7231105858991
 30
0.0
 10
92.56127520472427
 20
-147.7231105858991
 30
0.0
 10
92.63534475765714
 20
-147.7442979231334
 30
0.0
 10
92.84980195161393
 20
-147.7442979231334
 30
0.0
 10
92.93455130055109
 20
-147.7442979231334
 30
0.0
 10
92.93455130055109
 20
-147.7442979231334
 30
0.0
 10
93.30248749837577
 20
-147.7442979231334
 30
0.0
 10
93.30248749837577
 20
-147.7442979231334
 30
0.0
 10
93.33848874619663
 20
-147.7442979231334
 30
0.0
 10
93.53864879388964
 20
-147.7420586110679
 30
0.0
 10
93.57120494622526
 20
-147.7358574391945
 30
0.0
 10
93.60720619404611
 20
-147.7294840125468
 30
0.0
 10
93.60910099656299
 20
-147.7274169552556
 30
0.0
 10
93.66129419316454
 20
-147.6871093380782
 30
0.0
 10
93.66129419316454
 20
-147.6871093380782
 30
0.0
 10
93.82183564277719
 20
-147.8416218705917
 30
0.0
 10
93.82183564277719
 20
-147.8416218705917
 30
0.0
 10
93.7965141909606
 20
-147.8712496917648
 30
0.0
 10
93.78393959243943
 20
-147.9029445702291
 30
0.0
 10
93.76947019140137
 20
-147.9622002125754
 30
0.0
  0
HATCH
  5
11B
330
114
100
AcDbEntity
  8
レイヤー 1
 62
   250
420
  2299925
440
 33554687
100
AcDbHatch
 10
0.0
 20
0.0
 30
0.0
210
0.0
220
0.0
230
1.0
  2
SOLID
 70
     1
 71
     1
 91
        3
 92
        1
 93
        1
 72
     4
 94
        3
 73
     0
 74
     0
 95
       17
 96
       13
 40
0.0
 40
0.0
 40
0.0
 40
0.0
 40
1.0
 40
1.0
 40
1.0
 40
2.0
 40
2.0
 40
2.0
 40
3.0
 40
3.0
 40
3.0
 40
4.0
 40
4.0
 40
4.0
 40
4.0
 10
93.94620358979471
 20
-147.4332058008153
 10
93.89935029119531
 20
-147.4332058008153
 10
93.86145424085755
 20
-147.477647532575
 10
93.86145424085755
 20
-147.532769060339
 10
93.86145424085755
 20
-147.5897853906199
 10
93.89935029119531
 20
-147.6385334917362
 10
93.9498209400542
 20
-147.6385334917362
 10
94.00029158891312
 20
-147.6385334917362
 10
94.03457028899136
 20
-147.5877183333287
 10
94.03457028899136
 20
-147.5348361176302
 10
94.03457028899136
 20
-147.477647532575
 10
93.994951690911
 20
-147.4332058008153
 10
93.94620358979471
 20
-147.4332058008153
 97
        0
 97
        1
330
118
 92
        1
 93
        1
 72
     4
 94
        3
 73
     0
 74
     0
 95
       17
 96
       13
 40
0.0
 40
0.0
 40
0.0
 40
0.0
 40
1.0
 40
1.0
 40
1.0
 40
2.0
 40
2.0
 40
2.0
 40
3.0
 40
3.0
 40
3.0
 40
4.0
 40
4.0
 40
4.0
 40
4.0
 10
93.94809839231159
 20
-147.7632459483022
 10
93.83992239407474
 20
-147.7632459483022
 10
93.7532782426207
 20
-147.6617878862616
 10
93.7532782426207
 20
-147.5348361176302
 10
93.7532782426207
 20
-147.4078843489987
 10
93.83992239407474
 20
-147.3041869748927
 10
93.94809839231159
 20
-147.3041869748927
 10
94.05627439054844
 20
-147.3041869748927
 10
94.1446410897451
 20
-147.4078843489987
 10
94.1446410897451
 20
-147.5348361176302
 10
94.1446410897451
 20
-147.6617878862616
 10
94.05627439054844
 20
-147.7632459483022
 10
93.94809839231159
 20
-147.7632459483022
 97
        0
 97
        1
330
119
 92
        1
 93
        1
 72
     4
 94
        3
 73
     0
 74
     0
 95
       44
 96
       40
 40
0.0
 40
0.0
 40
0.0
 40
0.0
 40
1.0
 40
1.0
 40
1.0
 40
2.0
 40
2.0
 40
2.0
 40
3.0
 40
3.0
 40
3.0
 40
4.0
 40
4.0
 40
4.0
 40
5.0
 40
5.0
 40
5.0
 40
6.0
 40
6.0
 40
6.0
 40
7.0
 40
7.0
 40
7.0
 40
8.0
 40
8.0
 40
8.0
 40
9.0
 40
9.0
 40
9.0
 40
10.0
 40
10.0
 40
10.0
 40
11.0
 40
11.0
 40
11.0
 40
12.0
 40
12.0
 40
12.0
 40
13.0
 40
13.0
 40
13.0
 40
13.0
 10
93.76947019140137
 20
-147.9622002125754
 10
93.67404104645997
 20
-148.3303086651743
 10
93.63063284334582
 20
-148.4889553122701
 10
93.46302894798842
 20
-148.7385524801765
 10
93.30610484863528
 20
-148.9690293681397
 10
93.10404999842537
 20
-149.1554090338917
 10
92.86616615516889
 20
-149.2484266119934
 10
92.86616615516889
 20
-149.2484266119934
 10
92.70200735529673
 20
-149.0685926276634
 10
92.70200735529673
 20
-149.0685926276634
 10
93.24839949925735
 20
-148.9163194072154
 10
93.52969154562799
 20
-148.3599364863475
 10
93.58377954474642
 20
-147.9198255381068
 10
93.58377954474642
 20
-147.9198255381068
 10
92.93093395029158
 20
-147.9198255381068
 10
92.93093395029158
 20
-147.9198255381068
 10
92.85169675413083
 20
-147.9198255381068
 10
92.69477265477769
 20
-147.9241319074634
 10
92.56127520472427
 20
-147.9430799326323
 10
92.56127520472427
 20
-147.9430799326323
 10
92.56127520472427
 20
-147.7231105858991
 10
92.56127520472427
 20
-147.7231105858991
 10
92.63534475765714
 20
-147.7442979231334
 10
92.84980195161393
 20
-147.7442979231334
 10
92.93455130055109
 20
-147.7442979231334
 10
92.93455130055109
 20
-147.7442979231334
 10
93.30248749837577
 20
-147.7442979231334
 10
93.30248749837577
 20
-147.7442979231334
 10
93.33848874619663
 20
-147.7442979231334
 10
93.53864879388964
 20
-147.7420586110679
 10
93.57120494622526
 20
-147.7358574391945
 10
93.60720619404611
 20
-147.7294840125468
 10
93.60910099656299
 20
-147.7274169552556
 10
93.66129419316454
 20
-147.6871093380782
 10
93.66129419316454
 20
-147.6871093380782
 10
93.82183564277719
 20
-147.8416218705917
 10
93.82183564277719
 20
-147.8416218705917
 10
93.7965141909606
 20
-147.8712496917648
 10
93.78393959243943
 20
-147.9029445702291
 10
93.76947019140137
 20
-147.9622002125754
 97
        0
 97
        1
330
11A
 75
     2
 76
     1
 98
        1
 10
0.0
 20
0.0
450
        0
451
        0
460
0.0
461
0.0
452
        0
462
0.0
453
        0
470

  0
SPLINE
  5
11C
330
114
100
AcDbEntity
  8
レイヤー 1
100
AcDbSpline
210
0.0
220
0.0
230
1.0
 70
     9
 71
     3
 72
    29
 73
    25
 74
     0
 42
0.0000000001
 43
0.0000000001
 40
0.0
 40
0.0
 40
0.0
 40
0.0
 40
1.0
 40
1.0
 40
1.0
 40
2.0
 40
2.0
 40
2.0
 40
3.0
 40
3.0
 40
3.0
 40
4.0
 40
4.0
 40
4.0
 40
5.0
 40
5.0
 40
5.0
 40
6.0
 40
6.0
 40
6.0
 40
7.0
 40
7.0
 40
7.0
 40
8.0
 40
8.0
 40
8.0
 40
8.0
 10
95.0556965908194
 20
-147.6449069183839
 30
0.0
 10
95.0556965908194
 20
-147.6449069183839
 30
0.0
 10
94.76527504141285
 20
-147.6449069183839
 30
0.0
 10
94.76527504141285
 20
-147.6449069183839
 30
0.0
 10
94.66795109395453
 20
-147.6449069183839
 30
0.0
 10
94.56873234397935
 20
-147.6490410329662
 30
0.0
 10
94.47140839652105
 20
-147.6638549435528
 30
0.0
 10
94.47140839652105
 20
-147.6638549435528
 30
0.0
 10
94.47140839652105
 20
-147.4543931380496
 30
0.0
 10
94.47140839652105
 20
-147.4543931380496
 30
0.0
 10
94.57234969423886
 20
-147.4692070486361
 30
0.0
 10
94.72031654533035
 20
-147.4735134179927
 30
0.0
 10
94.76527504141285
 20
-147.4735134179927
 30
0.0
 10
94.76527504141285
 20
-147.4735134179927
 30
0.0
 10
95.0556965908194
 20
-147.4735134179927
 30
0.0
 10
95.0556965908194
 20
-147.4735134179927
 30
0.0
 10
95.1549153407946
 20
-147.4735134179927
 30
0.0
 10
95.25396183599553
 20
-147.4692070486361
 30
0.0
 10
95.35318058597074
 20
-147.4543931380496
 30
0.0
 10
95.35318058597074
 20
-147.4543931380496
 30
0.0
 10
95.35318058597074
 20
-147.6638549435528
 30
0.0
 10
95.35318058597074
 20
-147.6638549435528
 30
0.0
 10
95.22519528869372
 20
-147.6449069183839
 30
0.0
 10
95.06827118934058
 20
-147.6449069183839
 30
0.0
 10
95.0556965908194
 20
-147.6449069183839
 30
0.0
  0
SPLINE
  5
11D
330
114
100
AcDbEntity
  8
レイヤー 1
100
AcDbSpline
210
0.0
220
0.0
230
1.0
 70
     9
 71
     3
 72
    50
 73
    46
 74
     0
 42
0.0000000001
 43
0.0000000001
 40
0.0
 40
0.0
 40
0.0
 40
0.0
 40
1.0
 40
1.0
 40
1.0
 40
2.0
 40
2.0
 40
2.0
 40
3.0
 40
3.0
 40
3.0
 40
4.0
 40
4.0
 40
4.0
 40
5.0
 40
5.0
 40
5.0
 40
6.0
 40
6.0
 40
6.0
 40
7.0
 40
7.0
 40
7.0
 40
8.0
 40
8.0
 40
8.0
 40
9.0
 40
9.0
 40
9.0
 40
10.0
 40
10.0
 40
10.0
 40
11.0
 40
11.0
 40
11.0
 40
12.0
 40
12.0
 40
12.0
 40
13.0
 40
13.0
 40
13.0
 40
14.0
 40
14.0
 40
14.0
 40
15.0
 40
15.0
 40
15.0
 40
15.0
 10
95.47582598524563
 20
-148.271053022828
 30
0.0
 10
95.40916338760604
 20
-148.4486476950927
 30
0.0
 10
95.29375268885017
 20
-148.6560424433047
 30
0.0
 10
95.17644718757741
 20
-148.7957410652316
 30
0.0
 10
95.03226994151971
 20
-148.9669623108485
 30
0.0
 10
94.89343259346414
 20
-149.055845774368
 30
0.0
 10
94.62109779535515
 20
-149.1974391988117
 30
0.0
 10
94.62109779535515
 20
-149.1974391988117
 30
0.0
 10
94.47674829452317
 20
-149.0093369853171
 30
0.0
 10
94.47674829452317
 20
-149.0093369853171
 30
0.0
 10
94.63556719639319
 20
-148.9859103360174
 30
0.0
 10
94.78163924496779
 20
-148.8994384393376
 30
0.0
 10
94.91134708998744
 20
-148.7936740079405
 30
0.0
 10
95.13493378698015
 20
-148.611600711545
 30
0.0
 10
95.2973700391097
 20
-148.2984415319358
 30
0.0
 10
95.33871118493269
 20
-148.1165404903146
 30
0.0
 10
95.33871118493269
 20
-148.1165404903146
 30
0.0
 10
94.76716984392973
 20
-148.1165404903146
 30
0.0
 10
94.76716984392973
 20
-148.1165404903146
 30
0.0
 10
94.63194984613368
 20
-148.1165404903146
 30
0.0
 10
94.38304169732438
 20
-148.1249809742535
 30
0.0
 10
94.25316159753046
 20
-148.1420341969054
 30
0.0
 10
94.25316159753046
 20
-148.1420341969054
 30
0.0
 10
94.25316159753046
 20
-147.9134521114591
 30
0.0
 10
94.25316159753046
 20
-147.9134521114591
 30
0.0
 10
94.28210039960656
 20
-147.9198255381068
 30
0.0
 10
94.30363224638936
 20
-147.9261989647546
 30
0.0
 10
94.34876299724614
 20
-147.9303330793368
 30
0.0
 10
94.43540714870017
 20
-147.9367065059846
 30
0.0
 10
94.60301104405758
 20
-147.93894581805
 30
0.0
 10
94.67518579447355
 20
-147.93894581805
 30
0.0
 10
94.67518579447355
 20
-147.93894581805
 30
0.0
 10
95.10616723967833
 20
-147.93894581805
 30
0.0
 10
95.10616723967833
 20
-147.93894581805
 30
0.0
 10
95.16387258905625
 20
-147.93894581805
 30
0.0
 10
95.28824053607378
 20
-147.9346394486934
 30
0.0
 10
95.34060598744957
 20
-147.9282660220457
 30
0.0
 10
95.40192868708702
 20
-147.9198255381068
 30
0.0
 10
95.42535533638671
 20
-147.9050116275202
 30
0.0
 10
95.45412188368855
 20
-147.8817572329948
 30
0.0
 10
95.45412188368855
 20
-147.8817572329948
 30
0.0
 10
95.59485403426101
 20
-148.0488443640294
 30
0.0
 10
95.59485403426101
 20
-148.0488443640294
 30
0.0
 10
95.53542613714045
 20
-148.1165404903146
 30
0.0
 10
95.49563528428581
 20
-148.2202378644206
 30
0.0
 10
95.47582598524563
 20
-148.271053022828
 30
0.0
  0
HATCH
  5
11E
330
114
100
AcDbEntity
  8
レイヤー 1
 62
   250
420
  2299925
440
 33554687
100
AcDbHatch
 10
0.0
 20
0.0
 30
0.0
210
0.0
220
0.0
230
1.0
  2
SOLID
 70
     1
 71
     1
 91
        2
 92
        1
 93
        1
 72
     4
 94
        3
 73
     0
 74
     0
 95
       29
 96
       25
 40
0.0
 40
0.0
 40
0.0
 40
0.0
 40
1.0
 40
1.0
 40
1.0
 40
2.0
 40
2.0
 40
2.0
 40
3.0
 40
3.0
 40
3.0
 40
4.0
 40
4.0
 40
4.0
 40
5.0
 40
5.0
 40
5.0
 40
6.0
 40
6.0
 40
6.0
 40
7.0
 40
7.0
 40
7.0
 40
8.0
 40
8.0
 40
8.0
 40
8.0
 10
95.0556965908194
 20
-147.6449069183839
 10
95.0556965908194
 20
-147.6449069183839
 10
94.76527504141285
 20
-147.6449069183839
 10
94.76527504141285
 20
-147.6449069183839
 10
94.66795109395453
 20
-147.6449069183839
 10
94.56873234397935
 20
-147.6490410329662
 10
94.47140839652105
 20
-147.6638549435528
 10
94.47140839652105
 20
-147.6638549435528
 10
94.47140839652105
 20
-147.4543931380496
 10
94.47140839652105
 20
-147.4543931380496
 10
94.57234969423886
 20
-147.4692070486361
 10
94.72031654533035
 20
-147.4735134179927
 10
94.76527504141285
 20
-147.4735134179927
 10
94.76527504141285
 20
-147.4735134179927
 10
95.0556965908194
 20
-147.4735134179927
 10
95.0556965908194
 20
-147.4735134179927
 10
95.1549153407946
 20
-147.4735134179927
 10
95.25396183599553
 20
-147.4692070486361
 10
95.35318058597074
 20
-147.4543931380496
 10
95.35318058597074
 20
-147.4543931380496
 10
95.35318058597074
 20
-147.6638549435528
 10
95.35318058597074
 20
-147.6638549435528
 10
95.22519528869372
 20
-147.6449069183839
 10
95.06827118934058
 20
-147.6449069183839
 10
95.0556965908194
 20
-147.6449069183839
 97
        0
 97
        1
330
11C
 92
        1
 93
        1
 72
     4
 94
        3
 73
     0
 74
     0
 95
       50
 96
       46
 40
0.0
 40
0.0
 40
0.0
 40
0.0
 40
1.0
 40
1.0
 40
1.0
 40
2.0
 40
2.0
 40
2.0
 40
3.0
 40
3.0
 40
3.0
 40
4.0
 40
4.0
 40
4.0
 40
5.0
 40
5.0
 40
5.0
 40
6.0
 40
6.0
 40
6.0
 40
7.0
 40
7.0
 40
7.0
 40
8.0
 40
8.0
 40
8.0
 40
9.0
 40
9.0
 40
9.0
 40
10.0
 40
10.0
 40
10.0
 40
11.0
 40
11.0
 40
11.0
 40
12.0
 40
12.0
 40
12.0
 40
13.0
 40
13.0
 40
13.0
 40
14.0
 40
14.0
 40
14.0
 40
15.0
 40
15.0
 40
15.0
 40
15.0
 10
95.47582598524563
 20
-148.271053022828
 10
95.40916338760604
 20
-148.4486476950927
 10
95.29375268885017
 20
-148.6560424433047
 10
95.17644718757741
 20
-148.7957410652316
 10
95.03226994151971
 20
-148.9669623108485
 10
94.89343259346414
 20
-149.055845774368
 10
94.62109779535515
 20
-149.1974391988117
 10
94.62109779535515
 20
-149.1974391988117
 10
94.47674829452317
 20
-149.0093369853171
 10
94.47674829452317
 20
-149.0093369853171
 10
94.63556719639319
 20
-148.9859103360174
 10
94.78163924496779
 20
-148.8994384393376
 10
94.91134708998744
 20
-148.7936740079405
 10
95.13493378698015
 20
-148.611600711545
 10
95.2973700391097
 20
-148.2984415319358
 10
95.33871118493269
 20
-148.1165404903146
 10
95.33871118493269
 20
-148.1165404903146
 10
94.76716984392973
 20
-148.1165404903146
 10
94.76716984392973
 20
-148.1165404903146
 10
94.63194984613368
 20
-148.1165404903146
 10
94.38304169732438
 20
-148.1249809742535
 10
94.25316159753046
 20
-148.1420341969054
 10
94.25316159753046
 20
-148.1420341969054
 10
94.25316159753046
 20
-147.9134521114591
 10
94.25316159753046
 20
-147.9134521114591
 10
94.28210039960656
 20
-147.9198255381068
 10
94.30363224638936
 20
-147.9261989647546
 10
94.34876299724614
 20
-147.9303330793368
 10
94.43540714870017
 20
-147.9367065059846
 10
94.60301104405758
 20
-147.93894581805
 10
94.67518579447355
 20
-147.93894581805
 10
94.67518579447355
 20
-147.93894581805
 10
95.10616723967833
 20
-147.93894581805
 10
95.10616723967833
 20
-147.93894581805
 10
95.16387258905625
 20
-147.93894581805
 10
95.28824053607378
 20
-147.9346394486934
 10
95.34060598744957
 20
-147.9282660220457
 10
95.40192868708702
 20
-147.9198255381068
 10
95.42535533638671
 20
-147.9050116275202
 10
95.45412188368855
 20
-147.8817572329948
 10
95.45412188368855
 20
-147.8817572329948
 10
95.59485403426101
 20
-148.0488443640294
 10
95.59485403426101
 20
-148.0488443640294
 10
95.53542613714045
 20
-148.1165404903146
 10
95.49563528428581
 20
-148.2202378644206
 10
95.47582598524563
 20
-148.271053022828
 97
        0
 97
        1
330
11D
 75
     2
 76
     1
 98
        1
 10
0.0
 20
0.0
450
        0
451
        0
460
0.0
461
0.0
452
        0
462
0.0
453
        0
470

  0
SPLINE
  5
11F
330
114
100
AcDbEntity
  8
レイヤー 1
100
AcDbSpline
210
0.0
220
0.0
230
1.0
 70
     9
 71
     3
 72
    50
 73
    46
 74
     0
 42
0.0000000001
 43
0.0000000001
 40
0.0
 40
0.0
 40
0.0
 40
0.0
 40
1.0
 40
1.0
 40
1.0
 40
2.0
 40
2.0
 40
2.0
 40
3.0
 40
3.0
 40
3.0
 40
4.0
 40
4.0
 40
4.0
 40
5.0
 40
5.0
 40
5.0
 40
6.0
 40
6.0
 40
6.0
 40
7.0
 40
7.0
 40
7.0
 40
8.0
 40
8.0
 40
8.0
 40
9.0
 40
9.0
 40
9.0
 40
10.0
 40
10.0
 40
10.0
 40
11.0
 40
11.0
 40
11.0
 40
12.0
 40
12.0
 40
12.0
 40
13.0
 40
13.0
 40
13.0
 40
14.0
 40
14.0
 40
14.0
 40
15.0
 40
15.0
 40
15.0
 40
15.0
 10
96.93155108253796
 20
-147.6300930077973
 30
0.0
 10
96.753095136402
 20
-147.8436889278828
 30
0.0
 10
96.69177243676458
 20
-147.9156914235245
 30
0.0
 10
96.57084958523229
 20
-148.0340304534428
 30
0.0
 10
96.57084958523229
 20
-148.0340304534428
 30
0.0
 10
96.57084958523229
 20
-148.601093170315
 30
0.0
 10
96.57084958523229
 20
-148.601093170315
 30
0.0
 10
96.57084958523229
 20
-148.7512993334719
 30
0.0
 10
96.57636173800868
 20
-148.7702473586407
 30
0.0
 10
96.57997908826821
 20
-148.9480142856796
 30
0.0
 10
96.58170163601084
 20
-149.0792724236676
 30
0.0
 10
96.58721378878723
 20
-149.1278482700097
 30
0.0
 10
96.59255368678937
 20
-149.187103912356
 30
0.0
 10
96.59255368678937
 20
-149.187103912356
 30
0.0
 10
96.39962833961538
 20
-149.187103912356
 30
0.0
 10
96.39962833961538
 20
-149.187103912356
 30
0.0
 10
96.40324568987489
 20
-149.1426621805963
 30
0.0
 10
96.4068630401344
 20
-149.0961533915454
 30
0.0
 10
96.4068630401344
 20
-149.0875406528322
 30
0.0
 10
96.4068630401344
 20
-149.0072699280259
 30
0.0
 10
96.41048039039391
 20
-148.6560424433047
 30
0.0
 10
96.41048039039391
 20
-148.584039947663
 30
0.0
 10
96.41048039039391
 20
-148.584039947663
 30
0.0
 10
96.41048039039391
 20
-148.177863189952
 30
0.0
 10
96.41048039039391
 20
-148.177863189952
 30
0.0
 10
96.25527883878341
 20
-148.3027479012924
 30
0.0
 10
96.08939749116863
 20
-148.4128187020461
 30
0.0
 10
95.91628144303482
 20
-148.4994628535001
 30
0.0
 10
95.91628144303482
 20
-148.4994628535001
 30
0.0
 10
95.74316539490101
 20
-148.3365098370478
 30
0.0
 10
95.74316539490101
 20
-148.3365098370478
 30
0.0
 10
95.84789629765261
 20
-148.3006808440012
 30
0.0
 10
96.06597084186894
 20
-148.2266112910683
 30
0.0
 10
96.360009741535
 20
-147.9706406965143
 30
0.0
 10
96.54380558567309
 20
-147.8119940494185
 30
0.0
 10
96.70796438554525
 20
-147.6237195811496
 30
0.0
 10
96.83784448533916
 20
-147.4035779796421
 30
0.0
 10
96.83784448533916
 20
-147.4035779796421
 30
0.0
 10
97.00200328521132
 20
-147.5475829709256
 30
0.0
 10
97.00200328521132
 20
-147.5475829709256
 30
0.0
 10
97.01268308121559
 20
-147.5580905121556
 30
0.0
 10
97.01991778173461
 20
-147.5729044227422
 30
0.0
 10
97.01991778173461
 20
-147.5856512760376
 30
0.0
 10
97.01991778173461
 20
-147.6257866384408
 30
0.0
 10
96.98753388417326
 20
-147.6257866384408
 30
0.0
 10
96.93155108253796
 20
-147.6300930077973
 30
0.0
  0
HATCH
  5
120
330
114
100
AcDbEntity
  8
レイヤー 1
 62
   250
420
  2299925
440
 33554687
100
AcDbHatch
 10
0.0
 20
0.0
 30
0.0
210
0.0
220
0.0
230
1.0
  2
SOLID
 70
     1
 71
     1
 91
        1
 92
        1
 93
        1
 72
     4
 94
        3
 73
     0
 74
     0
 95
       50
 96
       46
 40
0.0
 40
0.0
 40
0.0
 40
0.0
 40
1.0
 40
1.0
 40
1.0
 40
2.0
 40
2.0
 40
2.0
 40
3.0
 40
3.0
 40
3.0
 40
4.0
 40
4.0
 40
4.0
 40
5.0
 40
5.0
 40
5.0
 40
6.0
 40
6.0
 40
6.0
 40
7.0
 40
7.0
 40
7.0
 40
8.0
 40
8.0
 40
8.0
 40
9.0
 40
9.0
 40
9.0
 40
10.0
 40
10.0
 40
10.0
 40
11.0
 40
11.0
 40
11.0
 40
12.0
 40
12.0
 40
12.0
 40
13.0
 40
13.0
 40
13.0
 40
14.0
 40
14.0
 40
14.0
 40
15.0
 40
15.0
 40
15.0
 40
15.0
 10
96.93155108253796
 20
-147.6300930077973
 10
96.753095136402
 20
-147.8436889278828
 10
96.69177243676458
 20
-147.9156914235245
 10
96.57084958523229
 20
-148.0340304534428
 10
96.57084958523229
 20
-148.0340304534428
 10
96.57084958523229
 20
-148.601093170315
 10
96.57084958523229
 20
-148.601093170315
 10
96.57084958523229
 20
-148.7512993334719
 10
96.57636173800868
 20
-148.7702473586407
 10
96.57997908826821
 20
-148.9480142856796
 10
96.58170163601084
 20
-149.0792724236676
 10
96.58721378878723
 20
-149.1278482700097
 10
96.59255368678937
 20
-149.187103912356
 10
96.59255368678937
 20
-149.187103912356
 10
96.39962833961538
 20
-149.187103912356
 10
96.39962833961538
 20
-149.187103912356
 10
96.40324568987489
 20
-149.1426621805963
 10
96.4068630401344
 20
-149.0961533915454
 10
96.4068630401344
 20
-149.0875406528322
 10
96.4068630401344
 20
-149.0072699280259
 10
96.41048039039391
 20
-148.6560424433047
 10
96.41048039039391
 20
-148.584039947663
 10
96.41048039039391
 20
-148.584039947663
 10
96.41048039039391
 20
-148.177863189952
 10
96.41048039039391
 20
-148.177863189952
 10
96.25527883878341
 20
-148.3027479012924
 10
96.08939749116863
 20
-148.4128187020461
 10
95.91628144303482
 20
-148.4994628535001
 10
95.91628144303482
 20
-148.4994628535001
 10
95.74316539490101
 20
-148.3365098370478
 10
95.74316539490101
 20
-148.3365098370478
 10
95.84789629765261
 20
-148.3006808440012
 10
96.06597084186894
 20
-148.2266112910683
 10
96.360009741535
 20
-147.9706406965143
 10
96.54380558567309
 20
-147.8119940494185
 10
96.70796438554525
 20
-147.6237195811496
 10
96.83784448533916
 20
-147.4035779796421
 10
96.83784448533916
 20
-147.4035779796421
 10
97.00200328521132
 20
-147.5475829709256
 10
97.00200328521132
 20
-147.5475829709256
 10
97.01268308121559
 20
-147.5580905121556
 10
97.01991778173461
 20
-147.5729044227422
 10
97.01991778173461
 20
-147.5856512760376
 10
97.01991778173461
 20
-147.6257866384408
 10
96.98753388417326
 20
-147.6257866384408
 10
96.93155108253796
 20
-147.6300930077973
 97
        0
 97
        1
330
11F
 75
     2
 76
     1
 98
        1
 10
0.0
 20
0.0
450
        0
451
        0
460
0.0
461
0.0
452
        0
462
0.0
453
        0
470

  0
SPLINE
  5
121
330
114
100
AcDbEntity
  8
レイヤー 1
100
AcDbSpline
210
0.0
220
0.0
230
1.0
 70
     9
 71
     3
 72
    50
 73
    46
 74
     0
 42
0.0000000001
 43
0.0000000001
 40
0.0
 40
0.0
 40
0.0
 40
0.0
 40
1.0
 40
1.0
 40
1.0
 40
2.0
 40
2.0
 40
2.0
 40
3.0
 40
3.0
 40
3.0
 40
4.0
 40
4.0
 40
4.0
 40
5.0
 40
5.0
 40
5.0
 40
6.0
 40
6.0
 40
6.0
 40
7.0
 40
7.0
 40
7.0
 40
8.0
 40
8.0
 40
8.0
 40
9.0
 40
9.0
 40
9.0
 40
10.0
 40
10.0
 40
10.0
 40
11.0
 40
11.0
 40
11.0
 40
12.0
 40
12.0
 40
12.0
 40
13.0
 40
13.0
 40
13.0
 40
14.0
 40
14.0
 40
14.0
 40
15.0
 40
15.0
 40
15.0
 40
15.0
 10
98.3857258868619
 20
-148.156848107492
 30
0.0
 10
98.33353269026037
 20
-148.2286783483595
 30
0.0
 10
98.11166854101029
 20
-148.545971642551
 30
0.0
 10
98.06292043989401
 20
-148.6095336542539
 30
0.0
 10
98.13509519030999
 20
-148.7068576017122
 30
0.0
 10
98.17833113864987
 20
-148.7702473586407
 30
0.0
 10
98.23431394028517
 20
-148.8611978794514
 30
0.0
 10
98.23431394028517
 20
-148.8611978794514
 30
0.0
 10
98.07738984093205
 20
-148.9986571893128
 30
0.0
 10
98.07738984093205
 20
-148.9986571893128
 30
0.0
 10
97.96197914217618
 20
-148.7871283265185
 30
0.0
 10
97.81590709360159
 20
-148.563024865203
 30
0.0
 10
97.56527639704966
 20
-148.3640706009298
 30
0.0
 10
97.56527639704966
 20
-148.3640706009298
 30
0.0
 10
97.69153914658406
 20
-148.2097303231906
 30
0.0
 10
97.69153914658406
 20
-148.2097303231906
 30
0.0
 10
97.78524574378288
 20
-148.2900010479969
 30
0.0
 10
97.87361244297953
 20
-148.3788845115164
 30
0.0
 10
97.95663924417404
 20
-148.4741414016836
 30
0.0
 10
98.01434459355197
 20
-148.3980047914595
 30
0.0
 10
98.18746064168578
 20
-148.1546087954266
 30
0.0
 10
98.30097653792476
 20
-147.9261989647546
 30
0.0
 10
98.30097653792476
 20
-147.9261989647546
 30
0.0
 10
97.72754039440492
 20
-147.9261989647546
 30
0.0
 10
97.72754039440492
 20
-147.9261989647546
 30
0.0
 10
97.62108694391072
 20
-147.9261989647546
 30
0.0
 10
97.40662974995391
 20
-147.9346394486934
 30
0.0
 10
97.22800154904369
 20
-147.9451469899234
 30
0.0
 10
97.22800154904369
 20
-147.9451469899234
 30
0.0
 10
97.22800154904369
 20
-147.7251776431902
 30
0.0
 10
97.22800154904369
 20
-147.7251776431902
 30
0.0
 10
97.38492564839683
 20
-147.7442979231334
 30
0.0
 10
97.55993649904752
 20
-147.7484320377157
 30
0.0
 10
97.7203056938859
 20
-147.7484320377157
 30
0.0
 10
97.7203056938859
 20
-147.7484320377157
 30
0.0
 10
98.14956459134803
 20
-147.7484320377157
 30
0.0
 10
98.14956459134803
 20
-147.7484320377157
 30
0.0
 10
98.4380913382377
 20
-147.7484320377157
 30
0.0
 10
98.47598738857545
 20
-147.7336181271291
 30
0.0
 10
98.54626733647455
 20
-147.6934827647259
 30
0.0
 10
98.54626733647455
 20
-147.6934827647259
 30
0.0
 10
98.68872203478964
 20
-147.8521294118217
 30
0.0
 10
98.68872203478964
 20
-147.8521294118217
 30
0.0
 10
98.55884193499571
 20
-147.9241319074634
 30
0.0
 10
98.43619653572082
 20
-148.0869126691414
 30
0.0
 10
98.3857258868619
 20
-148.156848107492
 30
0.0
  0
HATCH
  5
122
330
114
100
AcDbEntity
  8
レイヤー 1
 62
   250
420
  2299925
440
 33554687
100
AcDbHatch
 10
0.0
 20
0.0
 30
0.0
210
0.0
220
0.0
230
1.0
  2
SOLID
 70
     1
 71
     1
 91
        1
 92
        1
 93
        1
 72
     4
 94
        3
 73
     0
 74
     0
 95
       50
 96
       46
 40
0.0
 40
0.0
 40
0.0
 40
0.0
 40
1.0
 40
1.0
 40
1.0
 40
2.0
 40
2.0
 40
2.0
 40
3.0
 40
3.0
 40
3.0
 40
4.0
 40
4.0
 40
4.0
 40
5.0
 40
5.0
 40
5.0
 40
6.0
 40
6.0
 40
6.0
 40
7.0
 40
7.0
 40
7.0
 40
8.0
 40
8.0
 40
8.0
 40
9.0
 40
9.0
 40
9.0
 40
10.0
 40
10.0
 40
10.0
 40
11.0
 40
11.0
 40
11.0
 40
12.0
 40
12.0
 40
12.0
 40
13.0
 40
13.0
 40
13.0
 40
14.0
 40
14.0
 40
14.0
 40
15.0
 40
15.0
 40
15.0
 40
15.0
 10
98.3857258868619
 20
-148.156848107492
 10
98.33353269026037
 20
-148.2286783483595
 10
98.11166854101029
 20
-148.545971642551
 10
98.06292043989401
 20
-148.6095336542539
 10
98.13509519030999
 20
-148.7068576017122
 10
98.17833113864987
 20
-148.7702473586407
 10
98.23431394028517
 20
-148.8611978794514
 10
98.23431394028517
 20
-148.8611978794514
 10
98.07738984093205
 20
-148.9986571893128
 10
98.07738984093205
 20
-148.9986571893128
 10
97.96197914217618
 20
-148.7871283265185
 10
97.81590709360159
 20
-148.563024865203
 10
97.56527639704966
 20
-148.3640706009298
 10
97.56527639704966
 20
-148.3640706009298
 10
97.69153914658406
 20
-148.2097303231906
 10
97.69153914658406
 20
-148.2097303231906
 10
97.78524574378288
 20
-148.2900010479969
 10
97.87361244297953
 20
-148.3788845115164
 10
97.95663924417404
 20
-148.4741414016836
 10
98.01434459355197
 20
-148.3980047914595
 10
98.18746064168578
 20
-148.1546087954266
 10
98.30097653792476
 20
-147.9261989647546
 10
98.30097653792476
 20
-147.9261989647546
 10
97.72754039440492
 20
-147.9261989647546
 10
97.72754039440492
 20
-147.9261989647546
 10
97.62108694391072
 20
-147.9261989647546
 10
97.40662974995391
 20
-147.9346394486934
 10
97.22800154904369
 20
-147.9451469899234
 10
97.22800154904369
 20
-147.9451469899234
 10
97.22800154904369
 20
-147.7251776431902
 10
97.22800154904369
 20
-147.7251776431902
 10
97.38492564839683
 20
-147.7442979231334
 10
97.55993649904752
 20
-147.7484320377157
 10
97.7203056938859
 20
-147.7484320377157
 10
97.7203056938859
 20
-147.7484320377157
 10
98.14956459134803
 20
-147.7484320377157
 10
98.14956459134803
 20
-147.7484320377157
 10
98.4380913382377
 20
-147.7484320377157
 10
98.47598738857545
 20
-147.7336181271291
 10
98.54626733647455
 20
-147.6934827647259
 10
98.54626733647455
 20
-147.6934827647259
 10
98.68872203478964
 20
-147.8521294118217
 10
98.68872203478964
 20
-147.8521294118217
 10
98.55884193499571
 20
-147.9241319074634
 10
98.43619653572082
 20
-148.0869126691414
 10
98.3857258868619
 20
-148.156848107492
 97
        0
 97
        1
330
121
 75
     2
 76
     1
 98
        1
 10
0.0
 20
0.0
450
        0
451
        0
460
0.0
461
0.0
452
        0
462
0.0
453
        0
470

  0
SPLINE
  5
123
330
114
100
AcDbEntity
  8
レイヤー 1
100
AcDbSpline
210
0.0
220
0.0
230
1.0
 70
     9
 71
     3
 72
    29
 73
    25
 74
     0
 42
0.0000000001
 43
0.0000000001
 40
0.0
 40
0.0
 40
0.0
 40
0.0
 40
1.0
 40
1.0
 40
1.0
 40
2.0
 40
2.0
 40
2.0
 40
3.0
 40
3.0
 40
3.0
 40
4.0
 40
4.0
 40
4.0
 40
5.0
 40
5.0
 40
5.0
 40
6.0
 40
6.0
 40
6.0
 40
7.0
 40
7.0
 40
7.0
 40
8.0
 40
8.0
 40
8.0
 40
8.0
 10
99.76755368599562
 20
-148.4000718487506
 30
0.0
 10
99.76755368599562
 20
-148.4000718487506
 30
0.0
 10
99.35465899208843
 20
-148.4000718487506
 30
0.0
 10
99.35465899208843
 20
-148.4000718487506
 30
0.0
 10
99.33106008801447
 20
-148.4000718487506
 30
0.0
 10
99.06062009242235
 20
-148.4000718487506
 30
0.0
 10
98.88026934376952
 20
-148.4253933005672
 30
0.0
 10
98.88026934376952
 20
-148.4253933005672
 30
0.0
 10
98.88026934376952
 20
-148.194916412604
 30
0.0
 10
98.88026934376952
 20
-148.194916412604
 30
0.0
 10
99.01548934156558
 20
-148.2181708071295
 30
0.0
 10
99.17792559369511
 20
-148.2202378644206
 30
0.0
 10
99.35465899208843
 20
-148.2202378644206
 30
0.0
 10
99.35465899208843
 20
-148.2202378644206
 30
0.0
 10
99.76755368599562
 20
-148.2202378644206
 30
0.0
 10
99.76755368599562
 20
-148.2202378644206
 30
0.0
 10
99.92620033309137
 20
-148.2202378644206
 30
0.0
 10
100.0848469801871
 20
-148.2181708071295
 30
0.0
 10
100.2417710795402
 20
-148.194916412604
 30
0.0
 10
100.2417710795402
 20
-148.194916412604
 30
0.0
 10
100.2417710795402
 20
-148.4253933005672
 30
0.0
 10
100.2417710795402
 20
-148.4253933005672
 30
0.0
 10
100.0848469801871
 20
-148.4021389060418
 30
0.0
 10
99.87400713648984
 20
-148.4000718487506
 30
0.0
 10
99.76755368599562
 20
-148.4000718487506
 30
0.0
  0
HATCH
  5
124
330
114
100
AcDbEntity
  8
レイヤー 1
 62
   250
420
  2299925
440
 33554687
100
AcDbHatch
 10
0.0
 20
0.0
 30
0.0
210
0.0
220
0.0
230
1.0
  2
SOLID
 70
     1
 71
     1
 91
        1
 92
        1
 93
        1
 72
     4
 94
        3
 73
     0
 74
     0
 95
       29
 96
       25
 40
0.0
 40
0.0
 40
0.0
 40
0.0
 40
1.0
 40
1.0
 40
1.0
 40
2.0
 40
2.0
 40
2.0
 40
3.0
 40
3.0
 40
3.0
 40
4.0
 40
4.0
 40
4.0
 40
5.0
 40
5.0
 40
5.0
 40
6.0
 40
6.0
 40
6.0
 40
7.0
 40
7.0
 40
7.0
 40
8.0
 40
8.0
 40
8.0
 40
8.0
 10
99.76755368599562
 20
-148.4000718487506
 10
99.76755368599562
 20
-148.4000718487506
 10
99.35465899208843
 20
-148.4000718487506
 10
99.35465899208843
 20
-148.4000718487506
 10
99.33106008801447
 20
-148.4000718487506
 10
99.06062009242235
 20
-148.4000718487506
 10
98.88026934376952
 20
-148.4253933005672
 10
98.88026934376952
 20
-148.4253933005672
 10
98.88026934376952
 20
-148.194916412604
 10
98.88026934376952
 20
-148.194916412604
 10
99.01548934156558
 20
-148.2181708071295
 10
99.17792559369511
 20
-148.2202378644206
 10
99.35465899208843
 20
-148.2202378644206
 10
99.35465899208843
 20
-148.2202378644206
 10
99.76755368599562
 20
-148.2202378644206
 10
99.76755368599562
 20
-148.2202378644206
 10
99.92620033309137
 20
-148.2202378644206
 10
100.0848469801871
 20
-148.2181708071295
 10
100.2417710795402
 20
-148.194916412604
 10
100.2417710795402
 20
-148.194916412604
 10
100.2417710795402
 20
-148.4253933005672
 10
100.2417710795402
 20
-148.4253933005672
 10
100.0848469801871
 20
-148.4021389060418
 10
99.87400713648984
 20
-148.4000718487506
 10
99.76755368599562
 20
-148.4000718487506
 97
        0
 97
        1
330
123
 75
     2
 76
     1
 98
        1
 10
0.0
 20
0.0
450
        0
451
        0
460
0.0
461
0.0
452
        0
462
0.0
453
        0
470

  0
SPLINE
  5
125
330
114
100
AcDbEntity
  8
レイヤー 1
100
AcDbSpline
210
0.0
220
0.0
230
1.0
 70
     9
 71
     3
 72
    20
 73
    16
 74
     0
 42
0.0000000001
 43
0.0000000001
 40
0.0
 40
0.0
 40
0.0
 40
0.0
 40
1.0
 40
1.0
 40
1.0
 40
2.0
 40
2.0
 40
2.0
 40
3.0
 40
3.0
 40
3.0
 40
4.0
 40
4.0
 40
4.0
 40
5.0
 40
5.0
 40
5.0
 40
5.0
 10
101.2988986291891
 20
-148.7512993334719
 30
0.0
 10
101.2592800311088
 20
-148.573532406433
 30
0.0
 10
101.1762532299143
 20
-148.431766727215
 30
0.0
 10
101.0572251808989
 20
-148.3218681812355
 30
0.0
 10
101.0572251808989
 20
-148.3218681812355
 30
0.0
 10
101.1943399812118
 20
-148.2074910111252
 30
0.0
 10
101.1943399812118
 20
-148.2074910111252
 30
0.0
 10
101.2465331778134
 20
-148.2498656855938
 30
0.0
 10
101.2808118778916
 20
-148.2836276213492
 30
0.0
 10
101.3457519277885
 20
-148.3916313648118
 30
0.0
 10
101.414309327945
 20
-148.507903337439
 30
0.0
 10
101.4323960792426
 20
-148.5607855531376
 30
0.0
 10
101.4539279260254
 20
-148.6264146221316
 30
0.0
 10
101.4539279260254
 20
-148.6264146221316
 30
0.0
 10
101.2988986291891
 20
-148.7512993334719
 30
0.0
 10
101.2988986291891
 20
-148.7512993334719
 30
0.0
  0
SPLINE
  5
126
330
114
100
AcDbEntity
  8
レイヤー 1
100
AcDbSpline
210
0.0
220
0.0
230
1.0
 70
     9
 71
     3
 72
    77
 73
    73
 74
     0
 42
0.0000000001
 43
0.0000000001
 40
0.0
 40
0.0
 40
0.0
 40
0.0
 40
1.0
 40
1.0
 40
1.0
 40
2.0
 40
2.0
 40
2.0
 40
3.0
 40
3.0
 40
3.0
 40
4.0
 40
4.0
 40
4.0
 40
5.0
 40
5.0
 40
5.0
 40
6.0
 40
6.0
 40
6.0
 40
7.0
 40
7.0
 40
7.0
 40
8.0
 40
8.0
 40
8.0
 40
9.0
 40
9.0
 40
9.0
 40
10.0
 40
10.0
 40
10.0
 40
11.0
 40
11.0
 40
11.0
 40
12.0
 40
12.0
 40
12.0
 40
13.0
 40
13.0
 40
13.0
 40
14.0
 40
14.0
 40
14.0
 40
15.0
 40
15.0
 40
15.0
 40
16.0
 40
16.0
 40
16.0
 40
17.0
 40
17.0
 40
17.0
 40
18.0
 40
18.0
 40
18.0
 40
19.0
 40
19.0
 40
19.0
 40
20.0
 40
20.0
 40
20.0
 40
21.0
 40
21.0
 40
21.0
 40
22.0
 40
22.0
 40
22.0
 40
23.0
 40
23.0
 40
23.0
 40
24.0
 40
24.0
 40
24.0
 40
24.0
 10
101.9553615739035
 20
-148.025589969504
 30
0.0
 10
101.8957614220087
 20
-148.0214558549217
 30
0.0
 10
101.8380560726307
 20
-148.0214558549217
 30
0.0
 10
101.7803507232528
 20
-148.0214558549217
 30
0.0
 10
101.7803507232528
 20
-148.0214558549217
 30
0.0
 10
101.7803507232528
 20
-148.7957410652316
 30
0.0
 10
101.7803507232528
 20
-148.7957410652316
 30
0.0
 10
101.7803507232528
 20
-149.0599798889503
 30
0.0
 10
101.7786281755102
 20
-149.0896077101234
 30
0.0
 10
101.7731160227338
 20
-149.1192355312966
 30
0.0
 10
101.744349475432
 20
-149.2525607265757
 30
0.0
 10
101.6577053239779
 20
-149.2611734652889
 30
0.0
 10
101.5080159251438
 20
-149.2611734652889
 30
0.0
 10
101.4737372250656
 20
-149.2611734652889
 30
0.0
 10
101.4594400788018
 20
-149.2611734652889
 30
0.0
 10
101.4251613787235
 20
-149.256694841158
 30
0.0
 10
101.4251613787235
 20
-149.256694841158
 30
0.0
 10
101.3187079282293
 20
-149.0155381571906
 30
0.0
 10
101.3187079282293
 20
-149.0155381571906
 30
0.0
 10
101.4179266782045
 20
-149.0475775452034
 30
0.0
 10
101.4882066261036
 20
-149.0475775452034
 30
0.0
 10
101.5080159251438
 20
-149.0475775452034
 30
0.0
 10
101.5676160770386
 20
-149.0475775452034
 30
0.0
 10
101.5963826243405
 20
-149.0303520677771
 30
0.0
 10
101.5999999746
 20
-148.9735079922705
 30
0.0
 10
101.5999999746
 20
-148.9607611389751
 30
0.0
 10
101.6018947771169
 20
-148.8632649367425
 30
0.0
 10
101.6018947771169
 20
-148.8060763516874
 30
0.0
 10
101.6018947771169
 20
-148.8060763516874
 30
0.0
 10
101.6018947771169
 20
-148.0192165428563
 30
0.0
 10
101.6018947771169
 20
-148.0192165428563
 30
0.0
 10
101.6018947771169
 20
-148.0192165428563
 30
0.0
 10
101.3512640805649
 20
-148.0192165428563
 30
0.0
 10
101.3512640805649
 20
-148.0192165428563
 30
0.0
 10
101.2267238787732
 20
-148.0192165428563
 30
0.0
 10
101.1023559317556
 20
-148.025589969504
 30
0.0
 10
100.9797105324807
 20
-148.0383368227994
 30
0.0
 10
100.9797105324807
 20
-148.0383368227994
 30
0.0
 10
100.9797105324807
 20
-147.8309420745874
 30
0.0
 10
100.9797105324807
 20
-147.8309420745874
 30
0.0
 10
101.1076958297578
 20
-147.8436889278828
 30
0.0
 10
101.293558731187
 20
-147.8479952972394
 30
0.0
 10
101.3512640805649
 20
-147.8479952972394
 30
0.0
 10
101.3512640805649
 20
-147.8479952972394
 30
0.0
 10
101.6018947771169
 20
-147.8479952972394
 30
0.0
 10
101.6018947771169
 20
-147.8479952972394
 30
0.0
 10
101.5999999746
 20
-147.5792778493899
 30
0.0
 10
101.5999999746
 20
-147.5031412391659
 30
0.0
 10
101.592765274081
 20
-147.3550021333001
 30
0.0
 10
101.592765274081
 20
-147.3550021333001
 30
0.0
 10
101.8129068755884
 20
-147.3930704384121
 30
0.0
 10
101.8129068755884
 20
-147.3930704384121
 30
0.0
 10
101.8254814741096
 20
-147.3951374957033
 30
0.0
 10
101.8380560726307
 20
-147.401510922351
 30
0.0
 10
101.8380560726307
 20
-147.4226982595853
 30
0.0
 10
101.8380560726307
 20
-147.4418185395284
 30
0.0
 10
101.8327161746286
 20
-147.4438855968196
 30
0.0
 10
101.7839680735123
 20
-147.477647532575
 30
0.0
 10
101.7803507232528
 20
-147.5560234548645
 30
0.0
 10
101.7803507232528
 20
-147.570837365451
 30
0.0
 10
101.7803507232528
 20
-147.8479952972394
 30
0.0
 10
101.9319349246038
 20
-147.8436889278828
 30
0.0
 10
101.9481268733845
 20
-147.8436889278828
 30
0.0
 10
101.9768934206863
 20
-147.8393825585262
 30
0.0
 10
102.0201293690262
 20
-147.8352484439439
 30
0.0
 10
102.0237467192857
 20
-147.8331813866528
 30
0.0
 10
102.0616427696235
 20
-147.8309420745874
 30
0.0
 10
102.0616427696235
 20
-147.8309420745874
 30
0.0
 10
102.0616427696235
 20
-148.0383368227994
 30
0.0
 10
102.0616427696235
 20
-148.0383368227994
 30
0.0
 10
102.0364935725811
 20
-148.0362697655083
 30
0.0
 10
101.9894680192075
 20
-148.0276570267951
 30
0.0
 10
101.9553615739035
 20
-148.025589969504
 30
0.0
  0
SPLINE
  5
127
330
114
100
AcDbEntity
  8
レイヤー 1
100
AcDbSpline
210
0.0
220
0.0
230
1.0
 70
     9
 71
     3
 72
    53
 73
    49
 74
     0
 42
0.0000000001
 43
0.0000000001
 40
0.0
 40
0.0
 40
0.0
 40
0.0
 40
1.0
 40
1.0
 40
1.0
 40
2.0
 40
2.0
 40
2.0
 40
3.0
 40
3.0
 40
3.0
 40
4.0
 40
4.0
 40
4.0
 40
5.0
 40
5.0
 40
5.0
 40
6.0
 40
6.0
 40
6.0
 40
7.0
 40
7.0
 40
7.0
 40
8.0
 40
8.0
 40
8.0
 40
9.0
 40
9.0
 40
9.0
 40
10.0
 40
10.0
 40
10.0
 40
11.0
 40
11.0
 40
11.0
 40
12.0
 40
12.0
 40
12.0
 40
13.0
 40
13.0
 40
13.0
 40
14.0
 40
14.0
 40
14.0
 40
15.0
 40
15.0
 40
15.0
 40
16.0
 40
16.0
 40
16.0
 40
16.0
 10
100.9743706344786
 20
-147.5263956336913
 30
0.0
 10
100.9166652851007
 20
-147.6786688541394
 30
0.0
 10
100.8804917825055
 20
-147.7568725216545
 30
0.0
 10
100.8481078849442
 20
-147.8245686479397
 30
0.0
 10
100.8841091327651
 20
-147.8457559851739
 30
0.0
 10
100.8877264830246
 20
-147.8479952972394
 30
0.0
 10
100.8877264830246
 20
-147.862809207826
 30
0.0
 10
100.8877264830246
 20
-147.8753838063471
 30
0.0
 10
100.8589599357227
 20
-147.9093179968768
 30
0.0
 10
100.8498304326868
 20
-147.9177584808157
 30
0.0
 10
100.8481078849442
 20
-148.1144734330235
 30
0.0
 10
100.8481078849442
 20
-148.1356607702577
 30
0.0
 10
100.8481078849442
 20
-148.2689859655369
 30
0.0
 10
100.8462130824273
 20
-148.281560564058
 30
0.0
 10
100.8462130824273
 20
-148.2963744746446
 30
0.0
 10
100.8462130824273
 20
-148.3111883852312
 30
0.0
 10
100.8462130824273
 20
-148.3111883852312
 30
0.0
 10
100.8462130824273
 20
-148.8463839688648
 30
0.0
 10
100.8462130824273
 20
-148.8463839688648
 30
0.0
 10
100.8462130824273
 20
-148.9183864645065
 30
0.0
 10
100.8498304326868
 20
-149.1533419766005
 30
0.0
 10
100.8570651332058
 20
-149.26324052258
 30
0.0
 10
100.8570651332058
 20
-149.26324052258
 30
0.0
 10
100.6496703849938
 20
-149.26324052258
 30
0.0
 10
100.6496703849938
 20
-149.26324052258
 30
0.0
 10
100.669479684034
 20
-149.10442162071
 30
0.0
 10
100.6749918368104
 20
-148.8632649367425
 30
0.0
 10
100.6749918368104
 20
-148.8422498542825
 30
0.0
 10
100.6749918368104
 20
-148.8422498542825
 30
0.0
 10
100.6749918368104
 20
-148.1249809742535
 30
0.0
 10
100.6749918368104
 20
-148.1249809742535
 30
0.0
 10
100.5974771883923
 20
-148.2393581443638
 30
0.0
 10
100.5451117370165
 20
-148.2984415319358
 30
0.0
 10
100.5091104891956
 20
-148.3408162064043
 30
0.0
 10
100.5091104891956
 20
-148.3408162064043
 30
0.0
 10
100.3466742370661
 20
-148.2033568965429
 30
0.0
 10
100.3466742370661
 20
-148.2033568965429
 30
0.0
 10
100.5866251376137
 20
-147.987521664392
 30
0.0
 10
100.7506116827116
 20
-147.6786688541394
 30
0.0
 10
100.8462130824273
 20
-147.3422552800047
 30
0.0
 10
100.8462130824273
 20
-147.3422552800047
 30
0.0
 10
101.0337985315992
 20
-147.456632450115
 30
0.0
 10
101.0337985315992
 20
-147.456632450115
 30
0.0
 10
101.0446505823777
 20
-147.4628336219884
 30
0.0
 10
101.0518852828967
 20
-147.467139991345
 30
0.0
 10
101.0518852828967
 20
-147.4819539019316
 30
0.0
 10
101.0518852828967
 20
-147.5072753537482
 30
0.0
 10
101.0374158818587
 20
-147.5115817231047
 30
0.0
 10
100.9743706344786
 20
-147.5263956336913
 30
0.0
  0
HATCH
  5
128
330
114
100
AcDbEntity
  8
レイヤー 1
 62
   250
420
  2299925
440
 33554687
100
AcDbHatch
 10
0.0
 20
0.0
 30
0.0
210
0.0
220
0.0
230
1.0
  2
SOLID
 70
     1
 71
     1
 91
        3
 92
        1
 93
        1
 72
     4
 94
        3
 73
     0
 74
     0
 95
       20
 96
       16
 40
0.0
 40
0.0
 40
0.0
 40
0.0
 40
1.0
 40
1.0
 40
1.0
 40
2.0
 40
2.0
 40
2.0
 40
3.0
 40
3.0
 40
3.0
 40
4.0
 40
4.0
 40
4.0
 40
5.0
 40
5.0
 40
5.0
 40
5.0
 10
101.2988986291891
 20
-148.7512993334719
 10
101.2592800311088
 20
-148.573532406433
 10
101.1762532299143
 20
-148.431766727215
 10
101.0572251808989
 20
-148.3218681812355
 10
101.0572251808989
 20
-148.3218681812355
 10
101.1943399812118
 20
-148.2074910111252
 10
101.1943399812118
 20
-148.2074910111252
 10
101.2465331778134
 20
-148.2498656855938
 10
101.2808118778916
 20
-148.2836276213492
 10
101.3457519277885
 20
-148.3916313648118
 10
101.414309327945
 20
-148.507903337439
 10
101.4323960792426
 20
-148.5607855531376
 10
101.4539279260254
 20
-148.6264146221316
 10
101.4539279260254
 20
-148.6264146221316
 10
101.2988986291891
 20
-148.7512993334719
 10
101.2988986291891
 20
-148.7512993334719
 97
        0
 97
        1
330
125
 92
        1
 93
        1
 72
     4
 94
        3
 73
     0
 74
     0
 95
       77
 96
       73
 40
0.0
 40
0.0
 40
0.0
 40
0.0
 40
1.0
 40
1.0
 40
1.0
 40
2.0
 40
2.0
 40
2.0
 40
3.0
 40
3.0
 40
3.0
 40
4.0
 40
4.0
 40
4.0
 40
5.0
 40
5.0
 40
5.0
 40
6.0
 40
6.0
 40
6.0
 40
7.0
 40
7.0
 40
7.0
 40
8.0
 40
8.0
 40
8.0
 40
9.0
 40
9.0
 40
9.0
 40
10.0
 40
10.0
 40
10.0
 40
11.0
 40
11.0
 40
11.0
 40
12.0
 40
12.0
 40
12.0
 40
13.0
 40
13.0
 40
13.0
 40
14.0
 40
14.0
 40
14.0
 40
15.0
 40
15.0
 40
15.0
 40
16.0
 40
16.0
 40
16.0
 40
17.0
 40
17.0
 40
17.0
 40
18.0
 40
18.0
 40
18.0
 40
19.0
 40
19.0
 40
19.0
 40
20.0
 40
20.0
 40
20.0
 40
21.0
 40
21.0
 40
21.0
 40
22.0
 40
22.0
 40
22.0
 40
23.0
 40
23.0
 40
23.0
 40
24.0
 40
24.0
 40
24.0
 40
24.0
 10
101.9553615739035
 20
-148.025589969504
 10
101.8957614220087
 20
-148.0214558549217
 10
101.8380560726307
 20
-148.0214558549217
 10
101.7803507232528
 20
-148.0214558549217
 10
101.7803507232528
 20
-148.0214558549217
 10
101.7803507232528
 20
-148.7957410652316
 10
101.7803507232528
 20
-148.7957410652316
 10
101.7803507232528
 20
-149.0599798889503
 10
101.7786281755102
 20
-149.0896077101234
 10
101.7731160227338
 20
-149.1192355312966
 10
101.744349475432
 20
-149.2525607265757
 10
101.6577053239779
 20
-149.2611734652889
 10
101.5080159251438
 20
-149.2611734652889
 10
101.4737372250656
 20
-149.2611734652889
 10
101.4594400788018
 20
-149.2611734652889
 10
101.4251613787235
 20
-149.256694841158
 10
101.4251613787235
 20
-149.256694841158
 10
101.3187079282293
 20
-149.0155381571906
 10
101.3187079282293
 20
-149.0155381571906
 10
101.4179266782045
 20
-149.0475775452034
 10
101.4882066261036
 20
-149.0475775452034
 10
101.5080159251438
 20
-149.0475775452034
 10
101.5676160770386
 20
-149.0475775452034
 10
101.5963826243405
 20
-149.0303520677771
 10
101.5999999746
 20
-148.9735079922705
 10
101.5999999746
 20
-148.9607611389751
 10
101.6018947771169
 20
-148.8632649367425
 10
101.6018947771169
 20
-148.8060763516874
 10
101.6018947771169
 20
-148.8060763516874
 10
101.6018947771169
 20
-148.0192165428563
 10
101.6018947771169
 20
-148.0192165428563
 10
101.6018947771169
 20
-148.0192165428563
 10
101.3512640805649
 20
-148.0192165428563
 10
101.3512640805649
 20
-148.0192165428563
 10
101.2267238787732
 20
-148.0192165428563
 10
101.1023559317556
 20
-148.025589969504
 10
100.9797105324807
 20
-148.0383368227994
 10
100.9797105324807
 20
-148.0383368227994
 10
100.9797105324807
 20
-147.8309420745874
 10
100.9797105324807
 20
-147.8309420745874
 10
101.1076958297578
 20
-147.8436889278828
 10
101.293558731187
 20
-147.8479952972394
 10
101.3512640805649
 20
-147.8479952972394
 10
101.3512640805649
 20
-147.8479952972394
 10
101.6018947771169
 20
-147.8479952972394
 10
101.6018947771169
 20
-147.8479952972394
 10
101.5999999746
 20
-147.5792778493899
 10
101.5999999746
 20
-147.5031412391659
 10
101.592765274081
 20
-147.3550021333001
 10
101.592765274081
 20
-147.3550021333001
 10
101.8129068755884
 20
-147.3930704384121
 10
101.8129068755884
 20
-147.3930704384121
 10
101.8254814741096
 20
-147.3951374957033
 10
101.8380560726307
 20
-147.401510922351
 10
101.8380560726307
 20
-147.4226982595853
 10
101.8380560726307
 20
-147.4418185395284
 10
101.8327161746286
 20
-147.4438855968196
 10
101.7839680735123
 20
-147.477647532575
 10
101.7803507232528
 20
-147.5560234548645
 10
101.7803507232528
 20
-147.570837365451
 10
101.7803507232528
 20
-147.8479952972394
 10
101.9319349246038
 20
-147.8436889278828
 10
101.9481268733845
 20
-147.8436889278828
 10
101.9768934206863
 20
-147.8393825585262
 10
102.0201293690262
 20
-147.8352484439439
 10
102.0237467192857
 20
-147.8331813866528
 10
102.0616427696235
 20
-147.8309420745874
 10
102.0616427696235
 20
-147.8309420745874
 10
102.0616427696235
 20
-148.0383368227994
 10
102.0616427696235
 20
-148.0383368227994
 10
102.0364935725811
 20
-148.0362697655083
 10
101.9894680192075
 20
-148.0276570267951
 10
101.9553615739035
 20
-148.025589969504
 97
        0
 97
        1
330
126
 92
        1
 93
        1
 72
     4
 94
        3
 73
     0
 74
     0
 95
       53
 96
       49
 40
0.0
 40
0.0
 40
0.0
 40
0.0
 40
1.0
 40
1.0
 40
1.0
 40
2.0
 40
2.0
 40
2.0
 40
3.0
 40
3.0
 40
3.0
 40
4.0
 40
4.0
 40
4.0
 40
5.0
 40
5.0
 40
5.0
 40
6.0
 40
6.0
 40
6.0
 40
7.0
 40
7.0
 40
7.0
 40
8.0
 40
8.0
 40
8.0
 40
9.0
 40
9.0
 40
9.0
 40
10.0
 40
10.0
 40
10.0
 40
11.0
 40
11.0
 40
11.0
 40
12.0
 40
12.0
 40
12.0
 40
13.0
 40
13.0
 40
13.0
 40
14.0
 40
14.0
 40
14.0
 40
15.0
 40
15.0
 40
15.0
 40
16.0
 40
16.0
 40
16.0
 40
16.0
 10
100.9743706344786
 20
-147.5263956336913
 10
100.9166652851007
 20
-147.6786688541394
 10
100.8804917825055
 20
-147.7568725216545
 10
100.8481078849442
 20
-147.8245686479397
 10
100.8841091327651
 20
-147.8457559851739
 10
100.8877264830246
 20
-147.8479952972394
 10
100.8877264830246
 20
-147.862809207826
 10
100.8877264830246
 20
-147.8753838063471
 10
100.8589599357227
 20
-147.9093179968768
 10
100.8498304326868
 20
-147.9177584808157
 10
100.8481078849442
 20
-148.1144734330235
 10
100.8481078849442
 20
-148.1356607702577
 10
100.8481078849442
 20
-148.2689859655369
 10
100.8462130824273
 20
-148.281560564058
 10
100.8462130824273
 20
-148.2963744746446
 10
100.8462130824273
 20
-148.3111883852312
 10
100.8462130824273
 20
-148.3111883852312
 10
100.8462130824273
 20
-148.8463839688648
 10
100.8462130824273
 20
-148.8463839688648
 10
100.8462130824273
 20
-148.9183864645065
 10
100.8498304326868
 20
-149.1533419766005
 10
100.8570651332058
 20
-149.26324052258
 10
100.8570651332058
 20
-149.26324052258
 10
100.6496703849938
 20
-149.26324052258
 10
100.6496703849938
 20
-149.26324052258
 10
100.669479684034
 20
-149.10442162071
 10
100.6749918368104
 20
-148.8632649367425
 10
100.6749918368104
 20
-148.8422498542825
 10
100.6749918368104
 20
-148.8422498542825
 10
100.6749918368104
 20
-148.1249809742535
 10
100.6749918368104
 20
-148.1249809742535
 10
100.5974771883923
 20
-148.2393581443638
 10
100.5451117370165
 20
-148.2984415319358
 10
100.5091104891956
 20
-148.3408162064043
 10
100.5091104891956
 20
-148.3408162064043
 10
100.3466742370661
 20
-148.2033568965429
 10
100.3466742370661
 20
-148.2033568965429
 10
100.5866251376137
 20
-147.987521664392
 10
100.7506116827116
 20
-147.6786688541394
 10
100.8462130824273
 20
-147.3422552800047
 10
100.8462130824273
 20
-147.3422552800047
 10
101.0337985315992
 20
-147.456632450115
 10
101.0337985315992
 20
-147.456632450115
 10
101.0446505823777
 20
-147.4628336219884
 10
101.0518852828967
 20
-147.467139991345
 10
101.0518852828967
 20
-147.4819539019316
 10
101.0518852828967
 20
-147.5072753537482
 10
101.0374158818587
 20
-147.5115817231047
 10
100.9743706344786
 20
-147.5263956336913
 97
        0
 97
        1
330
127
 75
     2
 76
     1
 98
        1
 10
0.0
 20
0.0
450
        0
451
        0
460
0.0
461
0.0
452
        0
462
0.0
453
        0
470

  0
ENDBLK
  5
117
330
114
100
AcDbEntity
  8
0
100
AcDbBlockEnd
  0
ENDSEC
  0
SECTION
  2
ENTITIES
  0
INSERT
  5
7A
330
70
100
AcDbEntity
  8
レイヤー 1
100
AcDbBlockReference
  2
Block_0
 10
0.0
 20
0.0
 30
0.0
  0
INSERT
  5
F8
330
70
100
AcDbEntity
  8
レイヤー 1
100
AcDbBlockReference
  2
Block_15
 10
0.0
 20
0.0
 30
0.0
  0
ENDSEC
  0
SECTION
  2
OBJECTS
  0
DICTIONARY
  5
C
330
0
100
AcDbDictionary
281
     1
  3
ACAD_COLOR
350
63
  3
ACAD_DETAILVIEWSTYLE
350
6A
  3
ACAD_GROUP
350
D
  3
ACAD_LAYOUT
350
62
  3
ACAD_MATERIAL
350
10
  3
ACAD_MLEADERSTYLE
350
66
  3
ACAD_MLINESTYLE
350
5F
  3
ACAD_PLOTSETTINGS
350
61
  3
ACAD_PLOTSTYLENAME
350
E
  3
ACAD_SCALELIST
350
42
  3
ACAD_SECTIONVIEWSTYLE
350
68
  3
ACAD_TABLESTYLE
350
64
  3
ACAD_VISUALSTYLE
350
29
  3
ACDB_RECOMPOSE_DATA
350
131
  3
AcDbVariableDictionary
350
129
  0
DICTIONARY
  5
63
102
{ACAD_REACTORS
330
C
102
}
330
C
100
AcDbDictionary
281
     1
  0
DICTIONARY
  5
6A
102
{ACAD_REACTORS
330
C
102
}
330
C
100
AcDbDictionary
281
     1
  3
Imperial24
350
6B
  0
DICTIONARY
  5
D
102
{ACAD_REACTORS
330
C
102
}
330
C
100
AcDbDictionary
281
     1
  0
DICTIONARY
  5
62
102
{ACAD_REACTORS
330
C
102
}
330
C
100
AcDbDictionary
281
     1
  3
Layout1
350
6F
  3
Layout2
350
77
  3
Model
350
73
  0
DICTIONARY
  5
10
102
{ACAD_REACTORS
330
C
102
}
330
C
100
AcDbDictionary
281
     1
  3
ByBlock
350
19
  3
ByLayer
350
11
  3
Global
350
21
  0
DICTIONARY
  5
66
102
{ACAD_REACTORS
330
C
102
}
330
C
100
AcDbDictionary
281
     1
  3
Standard
350
67
  0
DICTIONARY
  5
5F
102
{ACAD_REACTORS
330
C
102
}
330
C
100
AcDbDictionary
281
     1
  3
Standard
350
60
  0
DICTIONARY
  5
61
102
{ACAD_REACTORS
330
C
102
}
330
C
100
AcDbDictionary
281
     1
  0
ACDBDICTIONARYWDFLT
  5
E
102
{ACAD_REACTORS
330
C
102
}
330
C
100
AcDbDictionary
281
     1
  3
Normal
350
F
100
AcDbDictionaryWithDefault
340
F
  0
DICTIONARY
  5
42
102
{ACAD_REACTORS
330
C
102
}
330
C
100
AcDbDictionary
281
     1
  3
A0
350
43
  3
A1
350
44
  3
A2
350
45
  3
A3
350
46
  3
A4
350
47
  3
A5
350
48
  3
A6
350
49
  3
A7
350
4A
  3
A8
350
4B
  3
A9
350
4C
  3
B0
350
4D
  3
B1
350
4E
  3
B2
350
4F
  3
B3
350
50
  3
B4
350
51
  3
B5
350
52
  3
B6
350
53
  0
DICTIONARY
  5
68
102
{ACAD_REACTORS
330
C
102
}
330
C
100
AcDbDictionary
281
     1
  3
Imperial24
350
69
  0
DICTIONARY
  5
64
102
{ACAD_REACTORS
330
C
102
}
330
C
100
AcDbDictionary
281
     1
  3
Standard
350
65
  0
DICTIONARY
  5
29
102
{ACAD_REACTORS
330
C
102
}
330
C
100
AcDbDictionary
281
     1
  3
2dWireframe
350
2F
  3
Basic
350
2E
  3
Brighten
350
35
  3
ColorChange
350
39
  3
Conceptual
350
32
  3
Dim
350
34
  3
EdgeColorOff
350
41
  3
Facepattern
350
38
  3
Flat
350
2A
  3
FlatWithEdges
350
2B
  3
Gouraud
350
2C
  3
GouraudWithEdges
350
2D
  3
Hidden
350
31
  3
JitterOff
350
3F
  3
Linepattern
350
37
  3
OverhangOff
350
40
  3
Realistic
350
33
  3
Shaded
350
3E
  3
Shaded with edges
350
3D
  3
Shades of Gray
350
3A
  3
Sketchy
350
3B
  3
Thicken
350
36
  3
Wireframe
350
30
  3
X-Ray
350
3C
  0
XRECORD
  5
131
102
{ACAD_REACTORS
330
C
102
}
330
C
100
AcDbXrecord
280
     1
 90
        1
330
65
  0
DICTIONARY
  5
129
102
{ACAD_REACTORS
330
C
102
}
330
C
100
AcDbDictionary
281
     1
  3
CANNOSCALE
350
12E
  3
CMLEADERSTYLE
350
12B
  3
CTABLESTYLE
350
12A
  3
CVIEWDETAILSTYLE
350
12C
  3
CVIEWSECTIONSTYLE
350
12D
  0
ACDBDETAILVIEWSTYLE
  5
6B
102
{ACAD_XDICTIONARY
360
166
102
}
102
{ACAD_REACTORS
330
6A
102
}
330
6A
100
AcDbModelDocViewStyle
 70
     0
  3
Imperial24
290
     0
100
AcDbDetailViewStyle
 70
     0
 71
     0
 90
        3
 71
     1
340
55
 62
   256
 40
0.24
340
0
 62
   256
 40
0.24
300

 40
0.36
280
     3
 71
     2
340
5D
 90
       25
 62
   256
 71
     3
340
55
 62
   256
 40
0.24
 90
        1
 40
0.75
 90
        1
300
%<\AcVar ViewType \f "%tc1">% %<\AcVar ViewDetailId>%\PSCALE %<\AcVar ViewScale \f "%sn">%
 71
     4
340
5D
 90
       25
 62
   256
340
5D
 90
       25
 62
   256
280
     0
  0
LAYOUT
  5
6F
102
{ACAD_REACTORS
330
62
102
}
330
62
100
AcDbPlotSettings
  1

  2

  4

  6

 40
0.0
 41
0.0
 42
0.0
 43
0.0
 44
0.0
 45
0.0
 46
0.0
 47
0.0
 48
0.0
 49
0.0
140
0.0
141
0.0
142
1.0
143
1.0
 70
   688
 72
     0
 73
     0
 74
     5
  7

 75
    16
147
1.0
 76
     0
 77
     2
 78
   300
148
0.0
149
0.0
100
AcDbLayout
  1
Layout1
 70
     1
 71
     1
 10
0.0
 20
0.0
 11
12.0
 21
9.0
 12
0.0
 22
0.0
 32
0.0
 14
0.0
 24
0.0
 34
0.0
 15
0.0
 25
0.0
 35
0.0
146
0.0
 13
0.0
 23
0.0
 33
0.0
 16
1.0
 26
0.0
 36
0.0
 17
0.0
 27
1.0
 37
0.0
 76
     0
330
6C
  0
LAYOUT
  5
77
102
{ACAD_REACTORS
330
62
102
}
330
62
100
AcDbPlotSettings
  1

  2

  4

  6

 40
0.0
 41
0.0
 42
0.0
 43
0.0
 44
0.0
 45
0.0
 46
0.0
 47
0.0
 48
0.0
 49
0.0
140
0.0
141
0.0
142
1.0
143
1.0
 70
   688
 72
     0
 73
     0
 74
     5
  7

 75
    16
147
1.0
 76
     0
 77
     2
 78
   300
148
0.0
149
0.0
100
AcDbLayout
  1
Layout2
 70
     1
 71
     2
 10
0.0
 20
0.0
 11
12.0
 21
9.0
 12
0.0
 22
0.0
 32
0.0
 14
0.0
 24
0.0
 34
0.0
 15
0.0
 25
0.0
 35
0.0
146
0.0
 13
0.0
 23
0.0
 33
0.0
 16
1.0
 26
0.0
 36
0.0
 17
0.0
 27
1.0
 37
0.0
 76
     0
330
74
  0
LAYOUT
  5
73
102
{ACAD_REACTORS
330
62
102
}
330
62
100
AcDbPlotSettings
  1

  2

  4

  6

 40
0.0
 41
0.0
 42
0.0
 43
0.0
 44
0.0
 45
0.0
 46
0.0
 47
0.0
 48
0.0
 49
0.0
140
0.0
141
0.0
142
1.0
143
1.0
 70
  1712
 72
     0
 73
     0
 74
     0
  7

 75
     0
147
1.0
 76
     0
 77
     2
 78
   300
148
0.0
149
0.0
100
AcDbLayout
  1
Model
 70
     1
 71
     0
 10
0.0
 20
0.0
 11
12.0
 21
9.0
 12
0.0
 22
0.0
 32
0.0
 14
0.0
 24
0.0
 34
0.0
 15
0.0
 25
0.0
 35
0.0
146
0.0
 13
0.0
 23
0.0
 33
0.0
 16
1.0
 26
0.0
 36
0.0
 17
0.0
 27
1.0
 37
0.0
 76
     0
330
70
  0
MATERIAL
  5
19
102
{ACAD_XDICTIONARY
360
1A
102
}
102
{ACAD_REACTORS
330
10
102
}
330
10
100
AcDbMaterial
  1
ByBlock
 72
     0
 43
0.0208333333333333
 43
0.0
 43
0.0
 43
0.0
 43
0.0
 43
0.0208333333333333
 43
0.0
 43
0.0
 43
0.0
 43
0.0
 43
1.0
 43
0.0
 43
0.0
 43
0.0
 43
0.0
 43
1.0
 77
     0
 47
0.0208333333333333
 47
0.0
 47
0.0
 47
0.0
 47
0.0
 47
0.0208333333333333
 47
0.0
 47
0.0
 47
0.0
 47
0.0
 47
1.0
 47
0.0
 47
0.0
 47
0.0
 47
0.0
 47
1.0
171
     0
 49
0.0208333333333333
 49
0.0
 49
0.0
 49
0.0
 49
0.0
 49
0.0208333333333333
 49
0.0
 49
0.0
 49
0.0
 49
0.0
 49
1.0
 49
0.0
 49
0.0
 49
0.0
 49
0.0
 49
1.0
175
     0
142
0.0208333333333333
142
0.0
142
0.0
142
0.0
142
0.0
142
0.0208333333333333
142
0.0
142
0.0
142
0.0
142
0.0
142
1.0
142
0.0
142
0.0
142
0.0
142
0.0
142
1.0
179
     0
144
0.0208333333333333
144
0.0
144
0.0
144
0.0
144
0.0
144
0.0208333333333333
144
0.0
144
0.0
144
0.0
144
0.0
144
1.0
144
0.0
144
0.0
144
0.0
144
0.0
144
1.0
147
0.0208333333333333
147
0.0
147
0.0
147
0.0
147
0.0
147
0.0208333333333333
147
0.0
147
0.0
147
0.0
147
0.0
147
1.0
147
0.0
147
0.0
147
0.0
147
0.0
147
1.0
  0
MATERIAL
  5
11
102
{ACAD_XDICTIONARY
360
12
102
}
102
{ACAD_REACTORS
330
10
102
}
330
10
100
AcDbMaterial
  1
ByLayer
 72
     0
 43
0.0208333333333333
 43
0.0
 43
0.0
 43
0.0
 43
0.0
 43
0.0208333333333333
 43
0.0
 43
0.0
 43
0.0
 43
0.0
 43
1.0
 43
0.0
 43
0.0
 43
0.0
 43
0.0
 43
1.0
 77
     0
 47
0.0208333333333333
 47
0.0
 47
0.0
 47
0.0
 47
0.0
 47
0.0208333333333333
 47
0.0
 47
0.0
 47
0.0
 47
0.0
 47
1.0
 47
0.0
 47
0.0
 47
0.0
 47
0.0
 47
1.0
171
     0
 49
0.0208333333333333
 49
0.0
 49
0.0
 49
0.0
 49
0.0
 49
0.0208333333333333
 49
0.0
 49
0.0
 49
0.0
 49
0.0
 49
1.0
 49
0.0
 49
0.0
 49
0.0
 49
0.0
 49
1.0
175
     0
142
0.0208333333333333
142
0.0
142
0.0
142
0.0
142
0.0
142
0.0208333333333333
142
0.0
142
0.0
142
0.0
142
0.0
142
1.0
142
0.0
142
0.0
142
0.0
142
0.0
142
1.0
179
     0
144
0.0208333333333333
144
0.0
144
0.0
144
0.0
144
0.0
144
0.0208333333333333
144
0.0
144
0.0
144
0.0
144
0.0
144
1.0
144
0.0
144
0.0
144
0.0
144
0.0
144
1.0
147
0.0208333333333333
147
0.0
147
0.0
147
0.0
147
0.0
147
0.0208333333333333
147
0.0
147
0.0
147
0.0
147
0.0
147
1.0
147
0.0
147
0.0
147
0.0
147
0.0
147
1.0
  0
MATERIAL
  5
21
102
{ACAD_XDICTIONARY
360
22
102
}
102
{ACAD_REACTORS
330
10
102
}
330
10
100
AcDbMaterial
  1
Global
 72
     0
 43
0.0208333333333333
 43
0.0
 43
0.0
 43
0.0
 43
0.0
 43
0.0208333333333333
 43
0.0
 43
0.0
 43
0.0
 43
0.0
 43
1.0
 43
0.0
 43
0.0
 43
0.0
 43
0.0
 43
1.0
 77
     0
 47
0.0208333333333333
 47
0.0
 47
0.0
 47
0.0
 47
0.0
 47
0.0208333333333333
 47
0.0
 47
0.0
 47
0.0
 47
0.0
 47
1.0
 47
0.0
 47
0.0
 47
0.0
 47
0.0
 47
1.0
171
     0
 49
0.0208333333333333
 49
0.0
 49
0.0
 49
0.0
 49
0.0
 49
0.0208333333333333
 49
0.0
 49
0.0
 49
0.0
 49
0.0
 49
1.0
 49
0.0
 49
0.0
 49
0.0
 49
0.0
 49
1.0
175
     0
142
0.0208333333333333
142
0.0
142
0.0
142
0.0
142
0.0
142
0.0208333333333333
142
0.0
142
0.0
142
0.0
142
0.0
142
1.0
142
0.0
142
0.0
142
0.0
142
0.0
142
1.0
179
     0
144
0.0208333333333333
144
0.0
144
0.0
144
0.0
144
0.0
144
0.0208333333333333
144
0.0
144
0.0
144
0.0
144
0.0
144
1.0
144
0.0
144
0.0
144
0.0
144
0.0
144
1.0
147
0.0208333333333333
147
0.0
147
0.0
147
0.0
147
0.0
147
0.0208333333333333
147
0.0
147
0.0
147
0.0
147
0.0
147
1.0
147
0.0
147
0.0
147
0.0
147
0.0
147
1.0
  0
MLEADERSTYLE
  5
67
102
{ACAD_XDICTIONARY
360
162
102
}
102
{ACAD_REACTORS
330
66
102
}
330
66
100
AcDbMLeaderStyle
179
     2
170
     2
171
     1
172
     0
 90
        2
 40
0.0
 41
0.0
173
     1
 91
-1056964608
340
5B
 92
       -2
290
     1
 42
0.09
291
     1
 43
0.36
  3
Standard
 44
0.18
300

342
55
174
     1
178
     6
175
     1
176
     0
 93
-1056964608
 45
0.18
292
     0
297
     0
 46
0.18
 94
-1056964608
 47
1.0
 49
1.0
140
1.0
293
     1
141
0.0
294
     1
177
     0
142
1.0
295
     0
296
     0
143
0.125
271
     0
272
     9
273
     9
  0
MLINESTYLE
  5
60
102
{ACAD_REACTORS
330
5F
102
}
330
5F
100
AcDbMlineStyle
  2
STANDARD
 70
     0
  3

 62
   256
 51
90.0
 52
90.0
 71
     2
 49
0.5
 62
   256
  6
BYLAYER
 49
-0.5
 62
   256
  6
BYLAYER
  0
ACDBPLACEHOLDER
  5
F
102
{ACAD_REACTORS
330
E
102
}
330
E
  0
SCALE
  5
43
102
{ACAD_REACTORS
330
42
102
}
330
42
100
AcDbScale
 70
     0
300
1:1
140
1.0
141
1.0
290
     1
  0
SCALE
  5
44
102
{ACAD_REACTORS
330
42
102
}
330
42
100
AcDbScale
 70
     0
300
1/128" = 1'-0"
140
0.0078125
141
12.0
290
     0
  0
SCALE
  5
45
102
{ACAD_REACTORS
330
42
102
}
330
42
100
AcDbScale
 70
     0
300
1/64" = 1'-0"
140
0.015625
141
12.0
290
     0
  0
SCALE
  5
46
102
{ACAD_REACTORS
330
42
102
}
330
42
100
AcDbScale
 70
     0
300
1/32" = 1'-0"
140
0.03125
141
12.0
290
     0
  0
SCALE
  5
47
102
{ACAD_REACTORS
330
42
102
}
330
42
100
AcDbScale
 70
     0
300
1/16" = 1'-0"
140
0.0625
141
12.0
290
     0
  0
SCALE
  5
48
102
{ACAD_REACTORS
330
42
102
}
330
42
100
AcDbScale
 70
     0
300
3/32" = 1'-0"
140
0.09375
141
12.0
290
     0
  0
SCALE
  5
49
102
{ACAD_REACTORS
330
42
102
}
330
42
100
AcDbScale
 70
     0
300
1/8" = 1'-0"
140
0.125
141
12.0
290
     0
  0
SCALE
  5
4A
102
{ACAD_REACTORS
330
42
102
}
330
42
100
AcDbScale
 70
     0
300
3/16" = 1'-0"
140
0.1875
141
12.0
290
     0
  0
SCALE
  5
4B
102
{ACAD_REACTORS
330
42
102
}
330
42
100
AcDbScale
 70
     0
300
1/4" = 1'-0"
140
0.25
141
12.0
290
     0
  0
SCALE
  5
4C
102
{ACAD_REACTORS
330
42
102
}
330
42
100
AcDbScale
 70
     0
300
3/8" = 1'-0"
140
0.375
141
12.0
290
     0
  0
SCALE
  5
4D
102
{ACAD_REACTORS
330
42
102
}
330
42
100
AcDbScale
 70
     0
300
1/2" = 1'-0"
140
0.5
141
12.0
290
     0
  0
SCALE
  5
4E
102
{ACAD_REACTORS
330
42
102
}
330
42
100
AcDbScale
 70
     0
300
3/4" = 1'-0"
140
0.75
141
12.0
290
     0
  0
SCALE
  5
4F
102
{ACAD_REACTORS
330
42
102
}
330
42
100
AcDbScale
 70
     0
300
1" = 1'-0"
140
1.0
141
12.0
290
     0
  0
SCALE
  5
50
102
{ACAD_REACTORS
330
42
102
}
330
42
100
AcDbScale
 70
     0
300
1-1/2" = 1'-0"
140
1.5
141
12.0
290
     0
  0
SCALE
  5
51
102
{ACAD_REACTORS
330
42
102
}
330
42
100
AcDbScale
 70
     0
300
3" = 1'-0"
140
3.0
141
12.0
290
     0
  0
SCALE
  5
52
102
{ACAD_REACTORS
330
42
102
}
330
42
100
AcDbScale
 70
     0
300
6" = 1'-0"
140
6.0
141
12.0
290
     0
  0
SCALE
  5
53
102
{ACAD_REACTORS
330
42
102
}
330
42
100
AcDbScale
 70
     0
300
1'-0" = 1'-0"
140
12.0
141
12.0
290
     0
  0
ACDBSECTIONVIEWSTYLE
  5
69
102
{ACAD_XDICTIONARY
360
164
102
}
102
{ACAD_REACTORS
330
68
102
}
330
68
100
AcDbModelDocViewStyle
 70
     0
  3
Imperial24
290
     0
100
AcDbSectionViewStyle
 70
     0
 71
     0
 90
       78
 71
     1
340
55
 62
   256
 40
0.24
340
0
340
0
 62
   256
 40
0.24
300
I, O, Q, S, X, Z
 40
0.48
 90
        3
 40
0.18
 90
        1
 71
     2
340
5D
 90
       25
 62
   256
340
5D
 90
       50
 62
   256
 40
0.24
 40
0.0
 40
0.24
 71
     3
340
55
 62
   256
 40
0.24
 90
        1
 40
0.75
 90
        1
300
%<\AcVar ViewType \f "%tc1">% %<\AcVar ViewSectionStartId>%-%<\AcVar ViewSectionEndId>%\PSCALE %<\AcVar ViewScale \f "%sn">%
 71
     4
 62
   256
 62
   257
300
ANSI31
 40
1.0
 90
        0
290
     0
290
     0
 90
        6
 40
0.0
 40
1.570796326794896
 40
0.2617993877991494
 40
1.308996938995747
 40
-0.2617993877991494
 40
1.832595714594046
  0
TABLESTYLE
  5
65
102
{ACAD_XDICTIONARY
360
12F
102
}
102
{ACAD_REACTORS
330
64
102
}
330
64
100
AcDbTableStyle
280
     0
  3
Standard
 70
     0
 71
     0
 40
0.06
 41
0.06
280
     0
281
     0
  7
Standard
140
0.18
170
     2
 62
     0
 63
     7
283
     0
 90
      512
 91
        0
  1

274
    -2
284
     1
 64
     0
275
    -2
285
     1
 65
     0
276
    -2
286
     1
 66
     0
277
    -2
287
     1
 67
     0
278
    -2
288
     1
 68
     0
279
    -2
289
     1
 69
     0
  7
Standard
140
0.25
170
     5
 62
     0
 63
     7
283
     0
 90
      512
 91
        0
  1

274
    -2
284
     1
 64
     0
275
    -2
285
     1
 65
     0
276
    -2
286
     1
 66
     0
277
    -2
287
     1
 67
     0
278
    -2
288
     1
 68
     0
279
    -2
289
     1
 69
     0
  7
Standard
140
0.18
170
     5
 62
     0
 63
     7
283
     0
 90
      512
 91
        0
  1

274
    -2
284
     1
 64
     0
275
    -2
285
     1
 65
     0
276
    -2
286
     1
 66
     0
277
    -2
287
     1
 67
     0
278
    -2
288
     1
 68
     0
279
    -2
289
     1
 69
     0
  0
VISUALSTYLE
  5
2F
102
{ACAD_XDICTIONARY
360
13C
102
}
102
{ACAD_REACTORS
330
29
102
}
330
29
100
AcDbVisualStyle
  2
2dWireframe
 70
     4
177
     2
291
     0
 71
     0
176
     1
 72
     2
176
     1
 73
     0
176
     1
 90
        0
176
     1
 40
0.6
176
     1
 41
30.0
176
     1
 63
     7
421
 16777215
176
     1
 74
     1
176
     1
 91
        4
176
     1
 64
     7
176
     1
 65
   257
176
     1
 75
     1
176
     1
175
     1
176
     1
 42
1.0
176
     1
 92
        0
176
     1
 66
   257
176
     1
 43
1.0
176
     1
 76
     1
176
     1
 77
     6
176
     1
 78
     2
176
     1
 67
     7
176
     1
 79
     5
176
     1
170
     0
176
     1
171
     0
176
     1
290
     0
176
     1
 93
        1
176
     1
 44
0.0
176
     1
173
     0
176
     1
1001
ACAD
1000
AcDbSavedByObjectVersion
1070
     0
  0
VISUALSTYLE
  5
2E
102
{ACAD_XDICTIONARY
360
13A
102
}
102
{ACAD_REACTORS
330
29
102
}
330
29
100
AcDbVisualStyle
  2
Basic
 70
     7
177
     2
291
     1
 71
     1
176
     1
 72
     0
176
     1
 73
     1
176
     1
 90
        0
176
     1
 40
0.6
176
     1
 41
30.0
176
     1
 63
     7
421
 16777215
176
     1
 74
     0
176
     1
 91
        4
176
     1
 64
     7
176
     1
 65
   257
176
     1
 75
     1
176
     1
175
     1
176
     1
 42
1.0
176
     1
 92
        8
176
     1
 66
     7
176
     1
 43
1.0
176
     1
 76
     1
176
     1
 77
     6
176
     1
 78
     2
176
     1
 67
     7
176
     1
 79
     5
176
     1
170
     0
176
     1
171
     0
176
     1
290
     0
176
     1
 93
        1
176
     1
 44
0.0
176
     1
173
     0
176
     1
1001
ACAD
1000
AcDbSavedByObjectVersion
1070
     0
  0
VISUALSTYLE
  5
35
102
{ACAD_XDICTIONARY
360
148
102
}
102
{ACAD_REACTORS
330
29
102
}
330
29
100
AcDbVisualStyle
  2
Brighten
 70
    12
177
     2
291
     1
 71
     2
176
     1
 72
     2
176
     1
 73
     0
176
     1
 90
        0
176
     1
 40
0.6
176
     1
 41
30.0
176
     1
 63
     7
421
 16777215
176
     1
 74
     1
176
     1
 91
        4
176
     1
 64
     7
176
     1
 65
   257
176
     1
 75
     1
176
     1
175
     1
176
     1
 42
1.0
176
     1
 92
        8
176
     1
 66
     7
176
     1
 43
1.0
176
     1
 76
     1
176
     1
 77
     6
176
     1
 78
     2
176
     1
 67
     7
176
     1
 79
     5
176
     1
170
     0
176
     1
171
     0
176
     1
290
     0
176
     1
 93
        1
176
     1
 44
50.0
176
     1
173
     0
176
     1
1001
ACAD
1000
AcDbSavedByObjectVersion
1070
     0
  0
VISUALSTYLE
  5
39
102
{ACAD_XDICTIONARY
360
150
102
}
102
{ACAD_REACTORS
330
29
102
}
330
29
100
AcDbVisualStyle
  2
ColorChange
 70
    16
177
     2
291
     1
 71
     2
176
     1
 72
     2
176
     1
 73
     3
176
     1
 90
        0
176
     1
 40
0.6
176
     1
 41
30.0
176
     1
 63
     8
421
  8421504
176
     1
 74
     1
176
     1
 91
        4
176
     1
 64
     7
176
     1
 65
   257
176
     1
 75
     1
176
     1
175
     1
176
     1
 42
1.0
176
     1
 92
        8
176
     1
 66
     8
424
  8421504
176
     1
 43
1.0
176
     1
 76
     1
176
     1
 77
     6
176
     1
 78
     2
176
     1
 67
     7
176
     1
 79
     5
176
     1
170
     0
176
     1
171
     0
176
     1
290
     0
176
     1
 93
        1
176
     1
 44
0.0
176
     1
173
     0
176
     1
1001
ACAD
1000
AcDbSavedByObjectVersion
1070
     0
  0
VISUALSTYLE
  5
32
102
{ACAD_XDICTIONARY
360
142
102
}
102
{ACAD_REACTORS
330
29
102
}
330
29
100
AcDbVisualStyle
  2
Conceptual
 70
     9
177
     2
291
     0
 71
     3
176
     1
 72
     2
176
     1
 73
     0
176
     1
 90
        0
176
     1
 40
0.6
176
     1
 41
30.0
176
     1
 63
     7
421
 16777215
176
     1
 74
     2
176
     1
 91
        2
176
     1
 64
     7
176
     1
 65
   257
176
     1
 75
     1
176
     1
175
     1
176
     1
 42
179.0
176
     1
 92
        8
176
     1
 66
     7
176
     1
 43
1.0
176
     1
 76
     1
176
     1
 77
     6
176
     1
 78
     2
176
     1
 67
     7
176
     1
 79
     3
176
     1
170
     0
176
     1
171
     0
176
     1
290
     0
176
     1
 93
        1
176
     1
 44
0.0
176
     1
173
     0
176
     1
1001
ACAD
1000
AcDbSavedByObjectVersion
1070
     0
  0
VISUALSTYLE
  5
34
102
{ACAD_XDICTIONARY
360
146
102
}
102
{ACAD_REACTORS
330
29
102
}
330
29
100
AcDbVisualStyle
  2
Dim
 70
    11
177
     2
291
     1
 71
     2
176
     1
 72
     2
176
     1
 73
     0
176
     1
 90
        0
176
     1
 40
0.6
176
     1
 41
30.0
176
     1
 63
     7
421
 16777215
176
     1
 74
     1
176
     1
 91
        4
176
     1
 64
     7
176
     1
 65
   257
176
     1
 75
     1
176
     1
175
     1
176
     1
 42
1.0
176
     1
 92
        8
176
     1
 66
     7
176
     1
 43
1.0
176
     1
 76
     1
176
     1
 77
     6
176
     1
 78
     2
176
     1
 67
     7
176
     1
 79
     5
176
     1
170
     0
176
     1
171
     0
176
     1
290
     0
176
     1
 93
        1
176
     1
 44
-50.0
176
     1
173
     0
176
     1
1001
ACAD
1000
AcDbSavedByObjectVersion
1070
     0
  0
VISUALSTYLE
  5
41
102
{ACAD_XDICTIONARY
360
160
102
}
102
{ACAD_REACTORS
330
29
102
}
330
29
100
AcDbVisualStyle
  2
EdgeColorOff
 70
    22
177
     2
291
     1
 71
     2
176
     0
 72
     2
176
     0
 73
     0
176
     0
 90
        0
176
     0
 40
0.6
176
     0
 41
30.0
176
     0
 63
     7
421
 16777215
176
     0
 74
     1
176
     0
 91
        4
176
     0
 64
     7
176
     0
 65
   257
176
     0
 75
     1
176
     0
175
     1
176
     0
 42
1.0
176
     0
 92
        8
176
     2
 66
     7
176
     0
 43
1.0
176
     0
 76
     1
176
     0
 77
     6
176
     0
 78
     2
176
     0
 67
     7
176
     0
 79
     5
176
     0
170
     0
176
     0
171
     0
176
     0
290
     0
176
     0
 93
        1
176
     0
 44
0.0
176
     0
173
     0
176
     0
1001
ACAD
1000
AcDbSavedByObjectVersion
1070
     0
  0
VISUALSTYLE
  5
38
102
{ACAD_XDICTIONARY
360
14E
102
}
102
{ACAD_REACTORS
330
29
102
}
330
29
100
AcDbVisualStyle
  2
Facepattern
 70
    15
177
     2
291
     1
 71
     2
176
     1
 72
     2
176
     1
 73
     0
176
     1
 90
        0
176
     1
 40
0.6
176
     1
 41
30.0
176
     1
 63
     7
421
 16777215
176
     1
 74
     1
176
     1
 91
        4
176
     1
 64
     7
176
     1
 65
   257
176
     1
 75
     1
176
     1
175
     1
176
     1
 42
1.0
176
     1
 92
        8
176
     1
 66
     7
176
     1
 43
1.0
176
     1
 76
     1
176
     1
 77
     6
176
     1
 78
     2
176
     1
 67
     7
176
     1
 79
     5
176
     1
170
     0
176
     1
171
     0
176
     1
290
     0
176
     1
 93
        1
176
     1
 44
0.0
176
     1
173
     0
176
     1
1001
ACAD
1000
AcDbSavedByObjectVersion
1070
     0
  0
VISUALSTYLE
  5
2A
102
{ACAD_XDICTIONARY
360
132
102
}
102
{ACAD_REACTORS
330
29
102
}
330
29
100
AcDbVisualStyle
  2
Flat
 70
     0
177
     2
291
     1
 71
     2
176
     1
 72
     1
176
     1
 73
     1
176
     1
 90
        2
176
     1
 40
0.6
176
     1
 41
30.0
176
     1
 63
     7
421
 16777215
176
     1
 74
     0
176
     1
 91
        0
176
     1
 64
     7
176
     1
 65
   257
176
     1
 75
     1
176
     1
175
     1
176
     1
 42
1.0
176
     1
 92
        8
176
     1
 66
     7
176
     1
 43
1.0
176
     1
 76
     1
176
     1
 77
     6
176
     1
 78
     2
176
     1
 67
     7
176
     1
 79
     5
176
     1
170
     0
176
     1
171
     0
176
     1
290
     0
176
     1
 93
       13
176
     1
 44
0.0
176
     1
173
     0
176
     1
1001
ACAD
1000
AcDbSavedByObjectVersion
1070
     0
  0
VISUALSTYLE
  5
2B
102
{ACAD_XDICTIONARY
360
134
102
}
102
{ACAD_REACTORS
330
29
102
}
330
29
100
AcDbVisualStyle
  2
FlatWithEdges
 70
     1
177
     2
291
     1
 71
     2
176
     1
 72
     1
176
     1
 73
     1
176
     1
 90
        2
176
     1
 40
0.6
176
     1
 41
30.0
176
     1
 63
     7
421
 16777215
176
     1
 74
     1
176
     1
 91
        0
176
     1
 64
     7
176
     1
 65
   257
176
     1
 75
     1
176
     1
175
     1
176
     1
 42
1.0
176
     1
 92
        0
176
     1
 66
   257
176
     1
 43
1.0
176
     1
 76
     1
176
     1
 77
     6
176
     1
 78
     2
176
     1
 67
     7
176
     1
 79
     5
176
     1
170
     0
176
     1
171
     0
176
     1
290
     0
176
     1
 93
       13
176
     1
 44
0.0
176
     1
173
     0
176
     1
1001
ACAD
1000
AcDbSavedByObjectVersion
1070
     0
  0
VISUALSTYLE
  5
2C
102
{ACAD_XDICTIONARY
360
136
102
}
102
{ACAD_REACTORS
330
29
102
}
330
29
100
AcDbVisualStyle
  2
Gouraud
 70
     2
177
     2
291
     1
 71
     2
176
     1
 72
     2
176
     1
 73
     1
176
     1
 90
        2
176
     1
 40
0.6
176
     1
 41
30.0
176
     1
 63
     7
421
 16777215
176
     1
 74
     0
176
     1
 91
        0
176
     1
 64
     7
176
     1
 65
   257
176
     1
 75
     1
176
     1
175
     1
176
     1
 42
1.0
176
     1
 92
        0
176
     1
 66
     7
176
     1
 43
1.0
176
     1
 76
     1
176
     1
 77
     6
176
     1
 78
     2
176
     1
 67
     7
176
     1
 79
     5
176
     1
170
     0
176
     1
171
     0
176
     1
290
     0
176
     1
 93
       13
176
     1
 44
0.0
176
     1
173
     0
176
     1
1001
ACAD
1000
AcDbSavedByObjectVersion
1070
     0
  0
VISUALSTYLE
  5
2D
102
{ACAD_XDICTIONARY
360
138
102
}
102
{ACAD_REACTORS
330
29
102
}
330
29
100
AcDbVisualStyle
  2
GouraudWithEdges
 70
     3
177
     2
291
     1
 71
     2
176
     1
 72
     2
176
     1
 73
     1
176
     1
 90
        2
176
     1
 40
0.6
176
     1
 41
30.0
176
     1
 63
     7
421
 16777215
176
     1
 74
     1
176
     1
 91
        0
176
     1
 64
     7
176
     1
 65
   257
176
     1
 75
     1
176
     1
175
     1
176
     1
 42
1.0
176
     1
 92
        0
176
     1
 66
   257
176
     1
 43
1.0
176
     1
 76
     1
176
     1
 77
     6
176
     1
 78
     2
176
     1
 67
     7
176
     1
 79
     5
176
     1
170
     0
176
     1
171
     0
176
     1
290
     0
176
     1
 93
       13
176
     1
 44
0.0
176
     1
173
     0
176
     1
1001
ACAD
1000
AcDbSavedByObjectVersion
1070
     0
  0
VISUALSTYLE
  5
31
102
{ACAD_XDICTIONARY
360
140
102
}
102
{ACAD_REACTORS
330
29
102
}
330
29
100
AcDbVisualStyle
  2
Hidden
 70
     6
177
     2
291
     0
 71
     1
176
     1
 72
     2
176
     1
 73
     2
176
     1
 90
        0
176
     1
 40
0.6
176
     1
 41
30.0
176
     1
 63
     7
421
 16777215
176
     1
 74
     2
176
     1
 91
        2
176
     1
 64
     7
176
     1
 65
   257
176
     1
 75
     2
176
     1
175
     1
176
     1
 42
40.0
176
     1
 92
        0
176
     1
 66
   257
176
     1
 43
1.0
176
     1
 76
     1
176
     1
 77
     6
176
     1
 78
     2
176
     1
 67
     7
176
     1
 79
     3
176
     1
170
     0
176
     1
171
     0
176
     1
290
     0
176
     1
 93
        1
176
     1
 44
0.0
176
     1
173
     0
176
     1
1001
ACAD
1000
AcDbSavedByObjectVersion
1070
     0
  0
VISUALSTYLE
  5
3F
102
{ACAD_XDICTIONARY
360
15C
102
}
102
{ACAD_REACTORS
330
29
102
}
330
29
100
AcDbVisualStyle
  2
JitterOff
 70
    20
177
     2
291
     1
 71
     2
176
     0
 72
     2
176
     0
 73
     0
176
     0
 90
        0
176
     0
 40
0.6
176
     0
 41
30.0
176
     0
 63
     7
421
 16777215
176
     0
 74
     1
176
     0
 91
        4
176
     0
 64
     7
176
     0
 65
   257
176
     0
 75
     1
176
     0
175
     1
176
     0
 42
1.0
176
     0
 92
       10
176
     2
 66
     7
176
     0
 43
1.0
176
     0
 76
     1
176
     0
 77
     6
176
     0
 78
     2
176
     0
 67
     7
176
     0
 79
     5
176
     0
170
     0
176
     0
171
     0
176
     0
290
     0
176
     0
 93
        1
176
     0
 44
0.0
176
     0
173
     0
176
     0
1001
ACAD
1000
AcDbSavedByObjectVersion
1070
     0
  0
VISUALSTYLE
  5
37
102
{ACAD_XDICTIONARY
360
14C
102
}
102
{ACAD_REACTORS
330
29
102
}
330
29
100
AcDbVisualStyle
  2
Linepattern
 70
    14
177
     2
291
     1
 71
     2
176
     1
 72
     2
176
     1
 73
     0
176
     1
 90
        0
176
     1
 40
0.6
176
     1
 41
30.0
176
     1
 63
     7
421
 16777215
176
     1
 74
     1
176
     1
 91
        4
176
     1
 64
     7
176
     1
 65
   257
176
     1
 75
     7
176
     1
175
     7
176
     1
 42
1.0
176
     1
 92
        8
176
     1
 66
     7
176
     1
 43
1.0
176
     1
 76
     1
176
     1
 77
     6
176
     1
 78
     2
176
     1
 67
     7
176
     1
 79
     5
176
     1
170
     0
176
     1
171
     0
176
     1
290
     0
176
     1
 93
        1
176
     1
 44
0.0
176
     1
173
     0
176
     1
1001
ACAD
1000
AcDbSavedByObjectVersion
1070
     0
  0
VISUALSTYLE
  5
40
102
{ACAD_XDICTIONARY
360
15E
102
}
102
{ACAD_REACTORS
330
29
102
}
330
29
100
AcDbVisualStyle
  2
OverhangOff
 70
    21
177
     2
291
     1
 71
     2
176
     0
 72
     2
176
     0
 73
     0
176
     0
 90
        0
176
     0
 40
0.6
176
     0
 41
30.0
176
     0
 63
     7
421
 16777215
176
     0
 74
     1
176
     0
 91
        4
176
     0
 64
     7
176
     0
 65
   257
176
     0
 75
     1
176
     0
175
     1
176
     0
 42
1.0
176
     0
 92
        9
176
     2
 66
     7
176
     0
 43
1.0
176
     0
 76
     1
176
     0
 77
     6
176
     0
 78
     2
176
     0
 67
     7
176
     0
 79
     5
176
     0
170
     0
176
     0
171
     0
176
     0
290
     0
176
     0
 93
        1
176
     0
 44
0.0
176
     0
173
     0
176
     0
1001
ACAD
1000
AcDbSavedByObjectVersion
1070
     0
  0
VISUALSTYLE
  5
33
102
{ACAD_XDICTIONARY
360
144
102
}
102
{ACAD_REACTORS
330
29
102
}
330
29
100
AcDbVisualStyle
  2
Realistic
 70
     8
177
     2
291
     0
 71
     2
176
     1
 72
     3
176
     1
 73
     0
176
     1
 90
        2
176
     1
 40
0.6
176
     1
 41
30.0
176
     1
 63
     7
421
 16777215
176
     1
 74
     0
176
     1
 91
        0
176
     1
 64
     7
176
     1
 65
   257
176
     1
 75
     1
176
     1
175
     1
176
     1
 42
1.0
176
     1
 92
        8
176
     1
 66
   257
176
     1
 43
1.0
176
     1
 76
     1
176
     1
 77
     6
176
     1
 78
     2
176
     1
 67
     7
176
     1
 79
     3
176
     1
170
     0
176
     1
171
     0
176
     1
290
     0
176
     1
 93
       13
176
     1
 44
0.0
176
     1
173
     0
176
     1
1001
ACAD
1000
AcDbSavedByObjectVersion
1070
     0
  0
VISUALSTYLE
  5
3E
102
{ACAD_XDICTIONARY
360
15A
102
}
102
{ACAD_REACTORS
330
29
102
}
330
29
100
AcDbVisualStyle
  2
Shaded
 70
    27
177
     2
291
     0
 71
     2
176
     1
 72
     2
176
     1
 73
     1
176
     1
 90
        2
176
     1
 40
0.6
176
     1
 41
30.0
176
     1
 63
     7
421
 16777215
176
     1
 74
     0
176
     1
 91
        4
176
     1
 64
     7
176
     1
 65
   257
176
     1
 75
     1
176
     1
175
     1
176
     1
 42
1.0
176
     1
 92
        8
176
     1
 66
   257
176
     1
 43
1.0
176
     1
 76
     1
176
     1
 77
     6
176
     1
 78
     2
176
     1
 67
     8
425
  7895160
176
     1
 79
     3
176
     1
170
     0
176
     1
171
     0
176
     1
290
     0
176
     1
 93
        5
176
     1
 44
0.0
176
     1
173
     0
176
     1
1001
ACAD
1000
AcDbSavedByObjectVersion
1070
     0
  0
VISUALSTYLE
  5
3D
102
{ACAD_XDICTIONARY
360
158
102
}
102
{ACAD_REACTORS
330
29
102
}
330
29
100
AcDbVisualStyle
  2
Shaded with edges
 70
    26
177
     2
291
     0
 71
     2
176
     1
 72
     2
176
     1
 73
     1
176
     1
 90
        2
176
     1
 40
0.6
176
     1
 41
30.0
176
     1
 63
     7
421
 16777215
176
     1
 74
     1
176
     1
 91
        2
176
     1
 64
     7
176
     1
 65
   257
176
     1
 75
     2
176
     1
175
     1
176
     1
 42
1.0
176
     1
 92
        8
176
     1
 66
   257
176
     1
 43
1.0
176
     1
 76
     1
176
     1
 77
     6
176
     1
 78
     2
176
     1
 67
     7
176
     1
 79
     3
176
     1
170
     0
176
     1
171
     0
176
     1
290
     0
176
     1
 93
        5
176
     1
 44
0.0
176
     1
173
     0
176
     1
1001
ACAD
1000
AcDbSavedByObjectVersion
1070
     0
  0
VISUALSTYLE
  5
3A
102
{ACAD_XDICTIONARY
360
152
102
}
102
{ACAD_REACTORS
330
29
102
}
330
29
100
AcDbVisualStyle
  2
Shades of Gray
 70
    23
177
     2
291
     0
 71
     2
176
     1
 72
     2
176
     1
 73
     3
176
     1
 90
        0
176
     1
 40
0.6
176
     1
 41
30.0
176
     1
 63
     7
421
 16777215
176
     1
 74
     2
176
     1
 91
        2
176
     1
 64
     7
176
     1
 65
     7
176
     1
 75
     1
176
     1
175
     1
176
     1
 42
40.0
176
     1
 92
        8
176
     1
 66
     7
176
     1
 43
1.0
176
     1
 76
     1
176
     1
 77
     6
176
     1
 78
     2
176
     1
 67
     7
176
     1
 79
     3
176
     1
170
     0
176
     1
171
     0
176
     1
290
     0
176
     1
 93
        1
176
     1
 44
0.0
176
     1
173
     0
176
     1
1001
ACAD
1000
AcDbSavedByObjectVersion
1070
     0
  0
VISUALSTYLE
  5
3B
102
{ACAD_XDICTIONARY
360
154
102
}
102
{ACAD_REACTORS
330
29
102
}
330
29
100
AcDbVisualStyle
  2
Sketchy
 70
    24
177
     2
291
     0
 71
     1
176
     1
 72
     2
176
     1
 73
     2
176
     1
 90
        0
176
     1
 40
0.6
176
     1
 41
30.0
176
     1
 63
     7
421
 16777215
176
     1
 74
     2
176
     1
 91
        2
176
     1
 64
     7
176
     1
 65
     7
176
     1
 75
     1
176
     1
175
     1
176
     1
 42
40.0
176
     1
 92
       11
176
     1
 66
     7
176
     1
 43
1.0
176
     1
 76
     1
176
     1
 77
     6
176
     1
 78
     2
176
     1
 67
     7
176
     1
 79
     6
176
     1
170
     0
176
     1
171
     0
176
     1
290
     0
176
     1
 93
        1
176
     1
 44
0.0
176
     1
173
     0
176
     1
1001
ACAD
1000
AcDbSavedByObjectVersion
1070
     0
  0
VISUALSTYLE
  5
36
102
{ACAD_XDICTIONARY
360
14A
102
}
102
{ACAD_REACTORS
330
29
102
}
330
29
100
AcDbVisualStyle
  2
Thicken
 70
    13
177
     2
291
     1
 71
     2
176
     1
 72
     2
176
     1
 73
     0
176
     1
 90
        0
176
     1
 40
0.6
176
     1
 41
30.0
176
     1
 63
     7
421
 16777215
176
     1
 74
     1
176
     1
 91
        4
176
     1
 64
     7
176
     1
 65
   257
176
     1
 75
     1
176
     1
175
     1
176
     1
 42
1.0
176
     1
 92
       12
176
     1
 66
     7
176
     1
 43
1.0
176
     1
 76
     1
176
     1
 77
     6
176
     1
 78
     2
176
     1
 67
     7
176
     1
 79
     5
176
     1
170
     0
176
     1
171
     0
176
     1
290
     0
176
     1
 93
        1
176
     1
 44
0.0
176
     1
173
     0
176
     1
1001
ACAD
1000
AcDbSavedByObjectVersion
1070
     0
  0
VISUALSTYLE
  5
30
102
{ACAD_XDICTIONARY
360
13E
102
}
102
{ACAD_REACTORS
330
29
102
}
330
29
100
AcDbVisualStyle
  2
Wireframe
 70
     5
177
     2
291
     0
 71
     0
176
     1
 72
     2
176
     1
 73
     0
176
     1
 90
        0
176
     1
 40
0.6
176
     1
 41
30.0
176
     1
 63
     7
421
 16777215
176
     1
 74
     1
176
     1
 91
        4
176
     1
 64
     7
176
     1
 65
   257
176
     1
 75
     1
176
     1
175
     1
176
     1
 42
1.0
176
     1
 92
        0
176
     1
 66
   257
176
     1
 43
1.0
176
     1
 76
     1
176
     1
 77
     6
176
     1
 78
     2
176
     1
 67
     7
176
     1
 79
     3
176
     1
170
     0
176
     1
171
     0
176
     1
290
     0
176
     1
 93
        1
176
     1
 44
0.0
176
     1
173
     0
176
     1
1001
ACAD
1000
AcDbSavedByObjectVersion
1070
     0
  0
VISUALSTYLE
  5
3C
102
{ACAD_XDICTIONARY
360
156
102
}
102
{ACAD_REACTORS
330
29
102
}
330
29
100
AcDbVisualStyle
  2
X-Ray
 70
    25
177
     2
291
     0
 71
     2
176
     1
 72
     2
176
     1
 73
     1
176
     1
 90
        1
176
     1
 40
0.5
176
     1
 41
30.0
176
     1
 63
     7
421
 16777215
176
     1
 74
     1
176
     1
 91
        0
176
     1
 64
     7
176
     1
 65
   257
176
     1
 75
     1
176
     1
175
     1
176
     1
 42
1.0
176
     1
 92
        8
176
     1
 66
     7
176
     1
 43
1.0
176
     1
 76
     1
176
     1
 77
     6
176
     1
 78
     2
176
     1
 67
     7
176
     1
 79
     3
176
     1
170
     0
176
     1
171
     0
176
     1
290
     0
176
     1
 93
       13
176
     1
 44
0.0
176
     1
173
     0
176
     1
1001
ACAD
1000
AcDbSavedByObjectVersion
1070
     0
  0
DICTIONARYVAR
  5
12E
102
{ACAD_REACTORS
330
129
102
}
330
129
100
DictionaryVariables
280
     0
  1
1:1
  0
DICTIONARYVAR
  5
12B
102
{ACAD_REACTORS
330
129
102
}
330
129
100
DictionaryVariables
280
     0
  1
STANDARD
  0
DICTIONARYVAR
  5
12A
102
{ACAD_REACTORS
330
129
102
}
330
129
100
DictionaryVariables
280
     0
  1
STANDARD
  0
DICTIONARYVAR
  5
12C
102
{ACAD_REACTORS
330
129
102
}
330
129
100
DictionaryVariables
280
     0
  1
Imperial24
  0
DICTIONARYVAR
  5
12D
102
{ACAD_REACTORS
330
129
102
}
330
129
100
DictionaryVariables
280
     0
  1
Imperial24
  0
DICTIONARY
  5
166
330
6B
100
AcDbDictionary
280
     1
281
     1
  3
ACAD_XREC_ROUNDTRIP
360
167
  0
DICTIONARY
  5
1A
330
19
100
AcDbDictionary
280
     1
281
     1
  3
BUMPTILE
360
1C
  3
DIFFUSETILE
360
1B
  3
OPACITYTILE
360
1F
  3
REFLECTIONTILE
360
1E
  3
REFRACTIONTILE
360
20
  3
SPECULARTILE
360
1D
  0
DICTIONARY
  5
12
330
11
100
AcDbDictionary
280
     1
281
     1
  3
BUMPTILE
360
14
  3
DIFFUSETILE
360
13
  3
OPACITYTILE
360
17
  3
REFLECTIONTILE
360
16
  3
REFRACTIONTILE
360
18
  3
SPECULARTILE
360
15
  0
DICTIONARY
  5
22
330
21
100
AcDbDictionary
280
     1
281
     1
  3
BUMPTILE
360
24
  3
DIFFUSETILE
360
23
  3
OPACITYTILE
360
27
  3
REFLECTIONTILE
360
26
  3
REFRACTIONTILE
360
28
  3
SPECULARTILE
360
25
  0
DICTIONARY
  5
162
330
67
100
AcDbDictionary
280
     1
281
     1
  3
ACAD_XREC_ROUNDTRIP
360
163
  0
DICTIONARY
  5
164
330
69
100
AcDbDictionary
280
     1
281
     1
  3
ACAD_XREC_ROUNDTRIP
360
165
  0
DICTIONARY
  5
12F
330
65
100
AcDbDictionary
280
     1
281
     1
  3
ACAD_ROUNDTRIP_2008_TABLESTYLE_CELLSTYLEMAP
360
130
  0
DICTIONARY
  5
13C
330
2F
100
AcDbDictionary
280
     1
281
     1
  3
ACAD_XREC_ROUNDTRIP
360
13D
  0
DICTIONARY
  5
13A
330
2E
100
AcDbDictionary
280
     1
281
     1
  3
ACAD_XREC_ROUNDTRIP
360
13B
  0
DICTIONARY
  5
148
330
35
100
AcDbDictionary
280
     1
281
     1
  3
ACAD_XREC_ROUNDTRIP
360
149
  0
DICTIONARY
  5
150
330
39
100
AcDbDictionary
280
     1
281
     1
  3
ACAD_XREC_ROUNDTRIP
360
151
  0
DICTIONARY
  5
142
330
32
100
AcDbDictionary
280
     1
281
     1
  3
ACAD_XREC_ROUNDTRIP
360
143
  0
DICTIONARY
  5
146
330
34
100
AcDbDictionary
280
     1
281
     1
  3
ACAD_XREC_ROUNDTRIP
360
147
  0
DICTIONARY
  5
160
330
41
100
AcDbDictionary
280
     1
281
     1
  3
ACAD_XREC_ROUNDTRIP
360
161
  0
DICTIONARY
  5
14E
330
38
100
AcDbDictionary
280
     1
281
     1
  3
ACAD_XREC_ROUNDTRIP
360
14F
  0
DICTIONARY
  5
132
330
2A
100
AcDbDictionary
280
     1
281
     1
  3
ACAD_XREC_ROUNDTRIP
360
133
  0
DICTIONARY
  5
134
330
2B
100
AcDbDictionary
280
     1
281
     1
  3
ACAD_XREC_ROUNDTRIP
360
135
  0
DICTIONARY
  5
136
330
2C
100
AcDbDictionary
280
     1
281
     1
  3
ACAD_XREC_ROUNDTRIP
360
137
  0
DICTIONARY
  5
138
330
2D
100
AcDbDictionary
280
     1
281
     1
  3
ACAD_XREC_ROUNDTRIP
360
139
  0
DICTIONARY
  5
140
330
31
100
AcDbDictionary
280
     1
281
     1
  3
ACAD_XREC_ROUNDTRIP
360
141
  0
DICTIONARY
  5
15C
330
3F
100
AcDbDictionary
280
     1
281
     1
  3
ACAD_XREC_ROUNDTRIP
360
15D
  0
DICTIONARY
  5
14C
330
37
100
AcDbDictionary
280
     1
281
     1
  3
ACAD_XREC_ROUNDTRIP
360
14D
  0
DICTIONARY
  5
15E
330
40
100
AcDbDictionary
280
     1
281
     1
  3
ACAD_XREC_ROUNDTRIP
360
15F
  0
DICTIONARY
  5
144
330
33
100
AcDbDictionary
280
     1
281
     1
  3
ACAD_XREC_ROUNDTRIP
360
145
  0
DICTIONARY
  5
15A
330
3E
100
AcDbDictionary
280
     1
281
     1
  3
ACAD_XREC_ROUNDTRIP
360
15B
  0
DICTIONARY
  5
158
330
3D
100
AcDbDictionary
280
     1
281
     1
  3
ACAD_XREC_ROUNDTRIP
360
159
  0
DICTIONARY
  5
152
330
3A
100
AcDbDictionary
280
     1
281
     1
  3
ACAD_XREC_ROUNDTRIP
360
153
  0
DICTIONARY
  5
154
330
3B
100
AcDbDictionary
280
     1
281
     1
  3
ACAD_XREC_ROUNDTRIP
360
155
  0
DICTIONARY
  5
14A
330
36
100
AcDbDictionary
280
     1
281
     1
  3
ACAD_XREC_ROUNDTRIP
360
14B
  0
DICTIONARY
  5
13E
330
30
100
AcDbDictionary
280
     1
281
     1
  3
ACAD_XREC_ROUNDTRIP
360
13F
  0
DICTIONARY
  5
156
330
3C
100
AcDbDictionary
280
     1
281
     1
  3
ACAD_XREC_ROUNDTRIP
360
157
  0
XRECORD
  5
167
102
{ACAD_REACTORS
330
166
102
}
330
166
100
AcDbXrecord
280
     1
102
DISPLAYNAME
  1
Imperial24
102
FLAGS
 90
        0
  0
XRECORD
  5
1C
102
{ACAD_REACTORS
330
1A
102
}
330
1A
100
AcDbXrecord
280
     1
270
     1
271
     1
  0
XRECORD
  5
1B
102
{ACAD_REACTORS
330
1A
102
}
330
1A
100
AcDbXrecord
280
     1
270
     1
271
     1
  0
XRECORD
  5
1F
102
{ACAD_REACTORS
330
1A
102
}
330
1A
100
AcDbXrecord
280
     1
270
     1
271
     1
  0
XRECORD
  5
1E
102
{ACAD_REACTORS
330
1A
102
}
330
1A
100
AcDbXrecord
280
     1
270
     1
271
     1
  0
XRECORD
  5
20
102
{ACAD_REACTORS
330
1A
102
}
330
1A
100
AcDbXrecord
280
     1
270
     1
271
     1
  0
XRECORD
  5
1D
102
{ACAD_REACTORS
330
1A
102
}
330
1A
100
AcDbXrecord
280
     1
270
     1
271
     1
  0
XRECORD
  5
14
102
{ACAD_REACTORS
330
12
102
}
330
12
100
AcDbXrecord
280
     1
270
     1
271
     1
  0
XRECORD
  5
13
102
{ACAD_REACTORS
330
12
102
}
330
12
100
AcDbXrecord
280
     1
270
     1
271
     1
  0
XRECORD
  5
17
102
{ACAD_REACTORS
330
12
102
}
330
12
100
AcDbXrecord
280
     1
270
     1
271
     1
  0
XRECORD
  5
16
102
{ACAD_REACTORS
330
12
102
}
330
12
100
AcDbXrecord
280
     1
270
     1
271
     1
  0
XRECORD
  5
18
102
{ACAD_REACTORS
330
12
102
}
330
12
100
AcDbXrecord
280
     1
270
     1
271
     1
  0
XRECORD
  5
15
102
{ACAD_REACTORS
330
12
102
}
330
12
100
AcDbXrecord
280
     1
270
     1
271
     1
  0
XRECORD
  5
24
102
{ACAD_REACTORS
330
22
102
}
330
22
100
AcDbXrecord
280
     1
270
     1
271
     1
  0
XRECORD
  5
23
102
{ACAD_REACTORS
330
22
102
}
330
22
100
AcDbXrecord
280
     1
270
     1
271
     1
  0
XRECORD
  5
27
102
{ACAD_REACTORS
330
22
102
}
330
22
100
AcDbXrecord
280
     1
270
     1
271
     1
  0
XRECORD
  5
26
102
{ACAD_REACTORS
330
22
102
}
330
22
100
AcDbXrecord
280
     1
270
     1
271
     1
  0
XRECORD
  5
28
102
{ACAD_REACTORS
330
22
102
}
330
22
100
AcDbXrecord
280
     1
270
     1
271
     1
  0
XRECORD
  5
25
102
{ACAD_REACTORS
330
22
102
}
330
22
100
AcDbXrecord
280
     1
270
     1
271
     1
  0
XRECORD
  5
163
102
{ACAD_REACTORS
330
162
102
}
330
162
100
AcDbXrecord
280
     1
102
ACAD_ROUNDTRIP_2012_MLEADER_STYLE
298
     1
  0
XRECORD
  5
165
102
{ACAD_REACTORS
330
164
102
}
330
164
100
AcDbXrecord
280
     1
102
DISPLAYNAME
  1
Imperial24
102
FLAGS
 90
        0
  0
CELLSTYLEMAP
  5
130
102
{ACAD_REACTORS
330
12F
102
}
330
12F
100
AcDbCellStyleMap
 90
        3
300
CELLSTYLE
  1
TABLEFORMAT_BEGIN
 90
        5
170
     1
 91
        0
 92
    32768
 62
   257
 93
        1
300
CONTENTFORMAT
  1
CONTENTFORMAT_BEGIN
 90
        0
 91
        0
 92
      512
 93
        0
300

 40
0.0
140
1.0
 94
        5
 62
     0
340
55
144
0.25
309
CONTENTFORMAT_END
171
     0
 94
        0
309
TABLEFORMAT_END
  1
CELLSTYLE_BEGIN
 90
        1
 91
        1
300
_TITLE
309
CELLSTYLE_END
300
CELLSTYLE
  1
TABLEFORMAT_BEGIN
 90
        5
170
     1
 91
        0
 92
        0
 62
   257
 93
        1
300
CONTENTFORMAT
  1
CONTENTFORMAT_BEGIN
 90
        0
 91
        0
 92
      512
 93
        0
300

 40
0.0
140
1.0
 94
        5
 62
     0
340
55
144
0.18
309
CONTENTFORMAT_END
171
     0
 94
        0
309
TABLEFORMAT_END
  1
CELLSTYLE_BEGIN
 90
        2
 91
        1
300
_HEADER
309
CELLSTYLE_END
300
CELLSTYLE
  1
TABLEFORMAT_BEGIN
 90
        5
170
     1
 91
        0
 92
        0
 62
   257
 93
        1
300
CONTENTFORMAT
  1
CONTENTFORMAT_BEGIN
 90
        0
 91
        0
 92
      512
 93
        0
300

 40
0.0
140
1.0
 94
        2
 62
     0
340
55
144
0.18
309
CONTENTFORMAT_END
171
     0
 94
        0
309
TABLEFORMAT_END
  1
CELLSTYLE_BEGIN
 90
        3
 91
        2
300
_DATA
309
CELLSTYLE_END
  0
XRECORD
  5
13D
102
{ACAD_REACTORS
330
13C
102
}
330
13C
100
AcDbXrecord
280
     1
102
RTVSPost2010Prop28
280
     1
102
RTVSPost2010PropOp28
 70
     1
102
RTVSPost2010Prop29
280
     1
102
RTVSPost2010PropOp29
 70
     1
102
RTVSPost2010Prop30
280
     0
102
RTVSPost2010PropOp30
 70
     1
102
RTVSPost2010Prop31
280
     0
102
RTVSPost2010PropOp31
 70
     1
102
RTVSPost2010Prop32
280
     0
102
RTVSPost2010PropOp32
 70
     1
102
RTVSPost2010Prop33
280
     0
102
RTVSPost2010PropOp33
 70
     1
102
RTVSPost2010Prop34
280
     0
102
RTVSPost2010PropOp34
 70
     1
102
RTVSPost2010Prop35
280
     0
102
RTVSPost2010PropOp35
 70
     1
102
RTVSPost2010Prop36
280
     0
102
RTVSPost2010PropOp36
 70
     1
102
RTVSPost2010Prop37
 90
       50
102
RTVSPost2010PropOp37
 70
     1
102
RTVSPost2010Prop38
140
0.0
102
RTVSPost2010PropOp38
 70
     1
102
RTVSPost2010Prop39
140
1.0
102
RTVSPost2010PropOp39
 70
     1
102
RTVSPost2010Prop40
 90
        0
102
RTVSPost2010PropOp40
 70
     1
102
RTVSPost2010Prop41ColorIndex
 90
       18
102
RTVSPost2010Prop41ColorRGB
 90
        0
102
RTVSPost2010PropOp41
 70
     1
102
RTVSPost2010Prop42
 90
       50
102
RTVSPost2010PropOp42
 70
     1
102
RTVSPost2010Prop43
 90
        3
102
RTVSPost2010PropOp43
 70
     1
102
RTVSPost2010Prop44ColorIndex
 90
        5
102
RTVSPost2010Prop44ColorRGB
 90
      255
102
RTVSPost2010PropOp44
 70
     1
102
RTVSPost2010Prop45
280
     0
102
RTVSPost2010PropOp45
 70
     1
102
RTVSPost2010Prop46
 90
       50
102
RTVSPost2010PropOp46
 70
     1
102
RTVSPost2010Prop47
 90
       50
102
RTVSPost2010PropOp47
 70
     1
102
RTVSPost2010Prop48
 90
       50
102
RTVSPost2010PropOp48
 70
     1
102
RTVSPost2010Prop49
280
     0
102
RTVSPost2010PropOp49
 70
     1
102
RTVSPost2010Prop50
 90
       50
102
RTVSPost2010PropOp50
 70
     1
102
RTVSPost2010Prop51ColorIndex
 90
      256
102
RTVSPost2010Prop51ColorRGB
 90
-16777216
102
RTVSPost2010PropOp51
 70
     0
102
RTVSPost2010Prop52
140
1.0
102
RTVSPost2010PropOp52
 70
     0
102
RTVSPost2010Prop53
 90
        2
102
RTVSPost2010PropOp53
 70
     1
102
RTVSPost2010Prop54
  1
strokes_ogs.tif
102
RTVSPost2010PropOp54
 70
     1
102
RTVSPost2010Prop55
280
     0
102
RTVSPost2010PropOp55
 70
     1
102
RTVSPost2010Prop56
140
1.0
102
RTVSPost2010PropOp56
 70
     1
102
RTVSPost2010Prop57
140
1.0
102
RTVSPost2010PropOp57
 70
     1
  0
XRECORD
  5
13B
102
{ACAD_REACTORS
330
13A
102
}
330
13A
100
AcDbXrecord
280
     1
102
RTVSPost2010Prop28
280
     0
102
RTVSPost2010PropOp28
 70
     1
102
RTVSPost2010Prop29
280
     1
102
RTVSPost2010PropOp29
 70
     1
102
RTVSPost2010Prop30
280
     1
102
RTVSPost2010PropOp30
 70
     1
102
RTVSPost2010Prop31
280
     0
102
RTVSPost2010PropOp31
 70
     1
102
RTVSPost2010Prop32
280
     0
102
RTVSPost2010PropOp32
 70
     1
102
RTVSPost2010Prop33
280
     0
102
RTVSPost2010PropOp33
 70
     1
102
RTVSPost2010Prop34
280
     0
102
RTVSPost2010PropOp34
 70
     1
102
RTVSPost2010Prop35
280
     0
102
RTVSPost2010PropOp35
 70
     1
102
RTVSPost2010Prop36
280
     0
102
RTVSPost2010PropOp36
 70
     1
102
RTVSPost2010Prop37
 90
       50
102
RTVSPost2010PropOp37
 70
     1
102
RTVSPost2010Prop38
140
0.0
102
RTVSPost2010PropOp38
 70
     1
102
RTVSPost2010Prop39
140
1.0
102
RTVSPost2010PropOp39
 70
     1
102
RTVSPost2010Prop40
 90
        0
102
RTVSPost2010PropOp40
 70
     1
102
RTVSPost2010Prop41ColorIndex
 90
       18
102
RTVSPost2010Prop41ColorRGB
 90
        0
102
RTVSPost2010PropOp41
 70
     1
102
RTVSPost2010Prop42
 90
       50
102
RTVSPost2010PropOp42
 70
     1
102
RTVSPost2010Prop43
 90
        3
102
RTVSPost2010PropOp43
 70
     1
102
RTVSPost2010Prop44ColorIndex
 90
        5
102
RTVSPost2010Prop44ColorRGB
 90
      255
102
RTVSPost2010PropOp44
 70
     1
102
RTVSPost2010Prop45
280
     0
102
RTVSPost2010PropOp45
 70
     1
102
RTVSPost2010Prop46
 90
       50
102
RTVSPost2010PropOp46
 70
     1
102
RTVSPost2010Prop47
 90
       50
102
RTVSPost2010PropOp47
 70
     1
102
RTVSPost2010Prop48
 90
       50
102
RTVSPost2010PropOp48
 70
     1
102
RTVSPost2010Prop49
280
     0
102
RTVSPost2010PropOp49
 70
     1
102
RTVSPost2010Prop50
 90
       50
102
RTVSPost2010PropOp50
 70
     1
102
RTVSPost2010Prop51ColorIndex
 90
      256
102
RTVSPost2010Prop51ColorRGB
 90
-16777216
102
RTVSPost2010PropOp51
 70
     0
102
RTVSPost2010Prop52
140
1.0
102
RTVSPost2010PropOp52
 70
     0
102
RTVSPost2010Prop53
 90
        2
102
RTVSPost2010PropOp53
 70
     1
102
RTVSPost2010Prop54
  1
strokes_ogs.tif
102
RTVSPost2010PropOp54
 70
     1
102
RTVSPost2010Prop55
280
     0
102
RTVSPost2010PropOp55
 70
     1
102
RTVSPost2010Prop56
140
1.0
102
RTVSPost2010PropOp56
 70
     1
102
RTVSPost2010Prop57
140
1.0
102
RTVSPost2010PropOp57
 70
     1
  0
XRECORD
  5
149
102
{ACAD_REACTORS
330
148
102
}
330
148
100
AcDbXrecord
280
     1
102
RTVSPost2010Prop28
280
     0
102
RTVSPost2010PropOp28
 70
     1
102
RTVSPost2010Prop29
280
     1
102
RTVSPost2010PropOp29
 70
     1
102
RTVSPost2010Prop30
280
     1
102
RTVSPost2010PropOp30
 70
     1
102
RTVSPost2010Prop31
280
     0
102
RTVSPost2010PropOp31
 70
     1
102
RTVSPost2010Prop32
280
     0
102
RTVSPost2010PropOp32
 70
     1
102
RTVSPost2010Prop33
280
     0
102
RTVSPost2010PropOp33
 70
     1
102
RTVSPost2010Prop34
280
     0
102
RTVSPost2010PropOp34
 70
     1
102
RTVSPost2010Prop35
280
     0
102
RTVSPost2010PropOp35
 70
     1
102
RTVSPost2010Prop36
280
     0
102
RTVSPost2010PropOp36
 70
     1
102
RTVSPost2010Prop37
 90
       50
102
RTVSPost2010PropOp37
 70
     1
102
RTVSPost2010Prop38
140
0.0
102
RTVSPost2010PropOp38
 70
     1
102
RTVSPost2010Prop39
140
1.0
102
RTVSPost2010PropOp39
 70
     1
102
RTVSPost2010Prop40
 90
        0
102
RTVSPost2010PropOp40
 70
     1
102
RTVSPost2010Prop41ColorIndex
 90
       18
102
RTVSPost2010Prop41ColorRGB
 90
        0
102
RTVSPost2010PropOp41
 70
     1
102
RTVSPost2010Prop42
 90
       50
102
RTVSPost2010PropOp42
 70
     1
102
RTVSPost2010Prop43
 90
        3
102
RTVSPost2010PropOp43
 70
     1
102
RTVSPost2010Prop44ColorIndex
 90
        5
102
RTVSPost2010Prop44ColorRGB
 90
      255
102
RTVSPost2010PropOp44
 70
     1
102
RTVSPost2010Prop45
280
     0
102
RTVSPost2010PropOp45
 70
     1
102
RTVSPost2010Prop46
 90
       50
102
RTVSPost2010PropOp46
 70
     1
102
RTVSPost2010Prop47
 90
       50
102
RTVSPost2010PropOp47
 70
     1
102
RTVSPost2010Prop48
 90
       50
102
RTVSPost2010PropOp48
 70
     1
102
RTVSPost2010Prop49
280
     0
102
RTVSPost2010PropOp49
 70
     1
102
RTVSPost2010Prop50
 90
       50
102
RTVSPost2010PropOp50
 70
     1
102
RTVSPost2010Prop51ColorIndex
 90
      256
102
RTVSPost2010Prop51ColorRGB
 90
-16777216
102
RTVSPost2010PropOp51
 70
     0
102
RTVSPost2010Prop52
140
1.0
102
RTVSPost2010PropOp52
 70
     0
102
RTVSPost2010Prop53
 90
        2
102
RTVSPost2010PropOp53
 70
     1
102
RTVSPost2010Prop54
  1
strokes_ogs.tif
102
RTVSPost2010PropOp54
 70
     1
102
RTVSPost2010Prop55
280
     0
102
RTVSPost2010PropOp55
 70
     1
102
RTVSPost2010Prop56
140
1.0
102
RTVSPost2010PropOp56
 70
     1
102
RTVSPost2010Prop57
140
1.0
102
RTVSPost2010PropOp57
 70
     1
  0
XRECORD
  5
151
102
{ACAD_REACTORS
330
150
102
}
330
150
100
AcDbXrecord
280
     1
102
RTVSPost2010Prop28
280
     0
102
RTVSPost2010PropOp28
 70
     1
102
RTVSPost2010Prop29
280
     1
102
RTVSPost2010PropOp29
 70
     1
102
RTVSPost2010Prop30
280
     1
102
RTVSPost2010PropOp30
 70
     1
102
RTVSPost2010Prop31
280
     0
102
RTVSPost2010PropOp31
 70
     1
102
RTVSPost2010Prop32
280
     0
102
RTVSPost2010PropOp32
 70
     1
102
RTVSPost2010Prop33
280
     0
102
RTVSPost2010PropOp33
 70
     1
102
RTVSPost2010Prop34
280
     0
102
RTVSPost2010PropOp34
 70
     1
102
RTVSPost2010Prop35
280
     0
102
RTVSPost2010PropOp35
 70
     1
102
RTVSPost2010Prop36
280
     0
102
RTVSPost2010PropOp36
 70
     1
102
RTVSPost2010Prop37
 90
       50
102
RTVSPost2010PropOp37
 70
     1
102
RTVSPost2010Prop38
140
0.0
102
RTVSPost2010PropOp38
 70
     1
102
RTVSPost2010Prop39
140
1.0
102
RTVSPost2010PropOp39
 70
     1
102
RTVSPost2010Prop40
 90
        0
102
RTVSPost2010PropOp40
 70
     1
102
RTVSPost2010Prop41ColorIndex
 90
       18
102
RTVSPost2010Prop41ColorRGB
 90
        0
102
RTVSPost2010PropOp41
 70
     1
102
RTVSPost2010Prop42
 90
       50
102
RTVSPost2010PropOp42
 70
     1
102
RTVSPost2010Prop43
 90
        3
102
RTVSPost2010PropOp43
 70
     1
102
RTVSPost2010Prop44ColorIndex
 90
        5
102
RTVSPost2010Prop44ColorRGB
 90
      255
102
RTVSPost2010PropOp44
 70
     1
102
RTVSPost2010Prop45
280
     0
102
RTVSPost2010PropOp45
 70
     1
102
RTVSPost2010Prop46
 90
       50
102
RTVSPost2010PropOp46
 70
     1
102
RTVSPost2010Prop47
 90
       50
102
RTVSPost2010PropOp47
 70
     1
102
RTVSPost2010Prop48
 90
       50
102
RTVSPost2010PropOp48
 70
     1
102
RTVSPost2010Prop49
280
     0
102
RTVSPost2010PropOp49
 70
     1
102
RTVSPost2010Prop50
 90
       50
102
RTVSPost2010PropOp50
 70
     1
102
RTVSPost2010Prop51ColorIndex
 90
      256
102
RTVSPost2010Prop51ColorRGB
 90
-16777216
102
RTVSPost2010PropOp51
 70
     0
102
RTVSPost2010Prop52
140
1.0
102
RTVSPost2010PropOp52
 70
     0
102
RTVSPost2010Prop53
 90
        2
102
RTVSPost2010PropOp53
 70
     1
102
RTVSPost2010Prop54
  1
strokes_ogs.tif
102
RTVSPost2010PropOp54
 70
     1
102
RTVSPost2010Prop55
280
     0
102
RTVSPost2010PropOp55
 70
     1
102
RTVSPost2010Prop56
140
1.0
102
RTVSPost2010PropOp56
 70
     1
102
RTVSPost2010Prop57
140
1.0
102
RTVSPost2010PropOp57
 70
     1
  0
XRECORD
  5
143
102
{ACAD_REACTORS
330
142
102
}
330
142
100
AcDbXrecord
280
     1
102
RTVSPost2010Prop28
280
     0
102
RTVSPost2010PropOp28
 70
     1
102
RTVSPost2010Prop29
280
     1
102
RTVSPost2010PropOp29
 70
     1
102
RTVSPost2010Prop30
280
     1
102
RTVSPost2010PropOp30
 70
     1
102
RTVSPost2010Prop31
280
     0
102
RTVSPost2010PropOp31
 70
     1
102
RTVSPost2010Prop32
280
     0
102
RTVSPost2010PropOp32
 70
     1
102
RTVSPost2010Prop33
280
     0
102
RTVSPost2010PropOp33
 70
     1
102
RTVSPost2010Prop34
280
     0
102
RTVSPost2010PropOp34
 70
     1
102
RTVSPost2010Prop35
280
     0
102
RTVSPost2010PropOp35
 70
     1
102
RTVSPost2010Prop36
280
     0
102
RTVSPost2010PropOp36
 70
     1
102
RTVSPost2010Prop37
 90
       50
102
RTVSPost2010PropOp37
 70
     1
102
RTVSPost2010Prop38
140
0.0
102
RTVSPost2010PropOp38
 70
     1
102
RTVSPost2010Prop39
140
1.0
102
RTVSPost2010PropOp39
 70
     1
102
RTVSPost2010Prop40
 90
        0
102
RTVSPost2010PropOp40
 70
     1
102
RTVSPost2010Prop41ColorIndex
 90
       18
102
RTVSPost2010Prop41ColorRGB
 90
        0
102
RTVSPost2010PropOp41
 70
     1
102
RTVSPost2010Prop42
 90
       50
102
RTVSPost2010PropOp42
 70
     1
102
RTVSPost2010Prop43
 90
        3
102
RTVSPost2010PropOp43
 70
     1
102
RTVSPost2010Prop44ColorIndex
 90
        5
102
RTVSPost2010Prop44ColorRGB
 90
      255
102
RTVSPost2010PropOp44
 70
     1
102
RTVSPost2010Prop45
280
     0
102
RTVSPost2010PropOp45
 70
     1
102
RTVSPost2010Prop46
 90
       50
102
RTVSPost2010PropOp46
 70
     1
102
RTVSPost2010Prop47
 90
       50
102
RTVSPost2010PropOp47
 70
     1
102
RTVSPost2010Prop48
 90
       50
102
RTVSPost2010PropOp48
 70
     1
102
RTVSPost2010Prop49
280
     0
102
RTVSPost2010PropOp49
 70
     1
102
RTVSPost2010Prop50
 90
       50
102
RTVSPost2010PropOp50
 70
     1
102
RTVSPost2010Prop51ColorIndex
 90
      256
102
RTVSPost2010Prop51ColorRGB
 90
-16777216
102
RTVSPost2010PropOp51
 70
     0
102
RTVSPost2010Prop52
140
1.0
102
RTVSPost2010PropOp52
 70
     0
102
RTVSPost2010Prop53
 90
        2
102
RTVSPost2010PropOp53
 70
     1
102
RTVSPost2010Prop54
  1
strokes_ogs.tif
102
RTVSPost2010PropOp54
 70
     1
102
RTVSPost2010Prop55
280
     0
102
RTVSPost2010PropOp55
 70
     1
102
RTVSPost2010Prop56
140
1.0
102
RTVSPost2010PropOp56
 70
     1
102
RTVSPost2010Prop57
140
1.0
102
RTVSPost2010PropOp57
 70
     1
  0
XRECORD
  5
147
102
{ACAD_REACTORS
330
146
102
}
330
146
100
AcDbXrecord
280
     1
102
RTVSPost2010Prop28
280
     0
102
RTVSPost2010PropOp28
 70
     1
102
RTVSPost2010Prop29
280
     1
102
RTVSPost2010PropOp29
 70
     1
102
RTVSPost2010Prop30
280
     1
102
RTVSPost2010PropOp30
 70
     1
102
RTVSPost2010Prop31
280
     0
102
RTVSPost2010PropOp31
 70
     1
102
RTVSPost2010Prop32
280
     0
102
RTVSPost2010PropOp32
 70
     1
102
RTVSPost2010Prop33
280
     0
102
RTVSPost2010PropOp33
 70
     1
102
RTVSPost2010Prop34
280
     0
102
RTVSPost2010PropOp34
 70
     1
102
RTVSPost2010Prop35
280
     0
102
RTVSPost2010PropOp35
 70
     1
102
RTVSPost2010Prop36
280
     0
102
RTVSPost2010PropOp36
 70
     1
102
RTVSPost2010Prop37
 90
       50
102
RTVSPost2010PropOp37
 70
     1
102
RTVSPost2010Prop38
140
0.0
102
RTVSPost2010PropOp38
 70
     1
102
RTVSPost2010Prop39
140
1.0
102
RTVSPost2010PropOp39
 70
     1
102
RTVSPost2010Prop40
 90
        0
102
RTVSPost2010PropOp40
 70
     1
102
RTVSPost2010Prop41ColorIndex
 90
       18
102
RTVSPost2010Prop41ColorRGB
 90
        0
102
RTVSPost2010PropOp41
 70
     1
102
RTVSPost2010Prop42
 90
       50
102
RTVSPost2010PropOp42
 70
     1
102
RTVSPost2010Prop43
 90
        3
102
RTVSPost2010PropOp43
 70
     1
102
RTVSPost2010Prop44ColorIndex
 90
        5
102
RTVSPost2010Prop44ColorRGB
 90
      255
102
RTVSPost2010PropOp44
 70
     1
102
RTVSPost2010Prop45
280
     0
102
RTVSPost2010PropOp45
 70
     1
102
RTVSPost2010Prop46
 90
       50
102
RTVSPost2010PropOp46
 70
     1
102
RTVSPost2010Prop47
 90
       50
102
RTVSPost2010PropOp47
 70
     1
102
RTVSPost2010Prop48
 90
       50
102
RTVSPost2010PropOp48
 70
     1
102
RTVSPost2010Prop49
280
     0
102
RTVSPost2010PropOp49
 70
     1
102
RTVSPost2010Prop50
 90
       50
102
RTVSPost2010PropOp50
 70
     1
102
RTVSPost2010Prop51ColorIndex
 90
      256
102
RTVSPost2010Prop51ColorRGB
 90
-16777216
102
RTVSPost2010PropOp51
 70
     0
102
RTVSPost2010Prop52
140
1.0
102
RTVSPost2010PropOp52
 70
     0
102
RTVSPost2010Prop53
 90
        2
102
RTVSPost2010PropOp53
 70
     1
102
RTVSPost2010Prop54
  1
strokes_ogs.tif
102
RTVSPost2010PropOp54
 70
     1
102
RTVSPost2010Prop55
280
     0
102
RTVSPost2010PropOp55
 70
     1
102
RTVSPost2010Prop56
140
1.0
102
RTVSPost2010PropOp56
 70
     1
102
RTVSPost2010Prop57
140
1.0
102
RTVSPost2010PropOp57
 70
     1
  0
XRECORD
  5
161
102
{ACAD_REACTORS
330
160
102
}
330
160
100
AcDbXrecord
280
     1
102
RTVSPost2010Prop28
280
     0
102
RTVSPost2010PropOp28
 70
     0
102
RTVSPost2010Prop29
280
     1
102
RTVSPost2010PropOp29
 70
     0
102
RTVSPost2010Prop30
280
     1
102
RTVSPost2010PropOp30
 70
     0
102
RTVSPost2010Prop31
280
     0
102
RTVSPost2010PropOp31
 70
     0
102
RTVSPost2010Prop32
280
     0
102
RTVSPost2010PropOp32
 70
     0
102
RTVSPost2010Prop33
280
     0
102
RTVSPost2010PropOp33
 70
     0
102
RTVSPost2010Prop34
280
     0
102
RTVSPost2010PropOp34
 70
     0
102
RTVSPost2010Prop35
280
     0
102
RTVSPost2010PropOp35
 70
     0
102
RTVSPost2010Prop36
280
     0
102
RTVSPost2010PropOp36
 70
     0
102
RTVSPost2010Prop37
 90
       50
102
RTVSPost2010PropOp37
 70
     0
102
RTVSPost2010Prop38
140
0.0
102
RTVSPost2010PropOp38
 70
     0
102
RTVSPost2010Prop39
140
1.0
102
RTVSPost2010PropOp39
 70
     0
102
RTVSPost2010Prop40
 90
        0
102
RTVSPost2010PropOp40
 70
     0
102
RTVSPost2010Prop41ColorIndex
 90
       18
102
RTVSPost2010Prop41ColorRGB
 90
        0
102
RTVSPost2010PropOp41
 70
     0
102
RTVSPost2010Prop42
 90
       50
102
RTVSPost2010PropOp42
 70
     0
102
RTVSPost2010Prop43
 90
        3
102
RTVSPost2010PropOp43
 70
     0
102
RTVSPost2010Prop44ColorIndex
 90
        5
102
RTVSPost2010Prop44ColorRGB
 90
      255
102
RTVSPost2010PropOp44
 70
     0
102
RTVSPost2010Prop45
280
     0
102
RTVSPost2010PropOp45
 70
     0
102
RTVSPost2010Prop46
 90
       50
102
RTVSPost2010PropOp46
 70
     0
102
RTVSPost2010Prop47
 90
       50
102
RTVSPost2010PropOp47
 70
     0
102
RTVSPost2010Prop48
 90
       50
102
RTVSPost2010PropOp48
 70
     0
102
RTVSPost2010Prop49
280
     0
102
RTVSPost2010PropOp49
 70
     0
102
RTVSPost2010Prop50
 90
       50
102
RTVSPost2010PropOp50
 70
     0
102
RTVSPost2010Prop51ColorIndex
 90
      256
102
RTVSPost2010Prop51ColorRGB
 90
-16777216
102
RTVSPost2010PropOp51
 70
     0
102
RTVSPost2010Prop52
140
1.0
102
RTVSPost2010PropOp52
 70
     0
102
RTVSPost2010Prop53
 90
        2
102
RTVSPost2010PropOp53
 70
     0
102
RTVSPost2010Prop54
  1
strokes_ogs.tif
102
RTVSPost2010PropOp54
 70
     0
102
RTVSPost2010Prop55
280
     0
102
RTVSPost2010PropOp55
 70
     0
102
RTVSPost2010Prop56
140
1.0
102
RTVSPost2010PropOp56
 70
     0
102
RTVSPost2010Prop57
140
1.0
102
RTVSPost2010PropOp57
 70
     0
  0
XRECORD
  5
14F
102
{ACAD_REACTORS
330
14E
102
}
330
14E
100
AcDbXrecord
280
     1
102
RTVSPost2010Prop28
280
     0
102
RTVSPost2010PropOp28
 70
     1
102
RTVSPost2010Prop29
280
     1
102
RTVSPost2010PropOp29
 70
     1
102
RTVSPost2010Prop30
280
     1
102
RTVSPost2010PropOp30
 70
     1
102
RTVSPost2010Prop31
280
     0
102
RTVSPost2010PropOp31
 70
     1
102
RTVSPost2010Prop32
280
     0
102
RTVSPost2010PropOp32
 70
     1
102
RTVSPost2010Prop33
280
     0
102
RTVSPost2010PropOp33
 70
     1
102
RTVSPost2010Prop34
280
     0
102
RTVSPost2010PropOp34
 70
     1
102
RTVSPost2010Prop35
280
     0
102
RTVSPost2010PropOp35
 70
     1
102
RTVSPost2010Prop36
280
     0
102
RTVSPost2010PropOp36
 70
     1
102
RTVSPost2010Prop37
 90
       50
102
RTVSPost2010PropOp37
 70
     1
102
RTVSPost2010Prop38
140
0.0
102
RTVSPost2010PropOp38
 70
     1
102
RTVSPost2010Prop39
140
1.0
102
RTVSPost2010PropOp39
 70
     1
102
RTVSPost2010Prop40
 90
        0
102
RTVSPost2010PropOp40
 70
     1
102
RTVSPost2010Prop41ColorIndex
 90
       18
102
RTVSPost2010Prop41ColorRGB
 90
        0
102
RTVSPost2010PropOp41
 70
     1
102
RTVSPost2010Prop42
 90
       50
102
RTVSPost2010PropOp42
 70
     1
102
RTVSPost2010Prop43
 90
        3
102
RTVSPost2010PropOp43
 70
     1
102
RTVSPost2010Prop44ColorIndex
 90
        5
102
RTVSPost2010Prop44ColorRGB
 90
      255
102
RTVSPost2010PropOp44
 70
     1
102
RTVSPost2010Prop45
280
     0
102
RTVSPost2010PropOp45
 70
     1
102
RTVSPost2010Prop46
 90
       50
102
RTVSPost2010PropOp46
 70
     1
102
RTVSPost2010Prop47
 90
       50
102
RTVSPost2010PropOp47
 70
     1
102
RTVSPost2010Prop48
 90
       50
102
RTVSPost2010PropOp48
 70
     1
102
RTVSPost2010Prop49
280
     0
102
RTVSPost2010PropOp49
 70
     1
102
RTVSPost2010Prop50
 90
       50
102
RTVSPost2010PropOp50
 70
     1
102
RTVSPost2010Prop51ColorIndex
 90
      256
102
RTVSPost2010Prop51ColorRGB
 90
-16777216
102
RTVSPost2010PropOp51
 70
     0
102
RTVSPost2010Prop52
140
1.0
102
RTVSPost2010PropOp52
 70
     0
102
RTVSPost2010Prop53
 90
        2
102
RTVSPost2010PropOp53
 70
     1
102
RTVSPost2010Prop54
  1
strokes_ogs.tif
102
RTVSPost2010PropOp54
 70
     1
102
RTVSPost2010Prop55
280
     0
102
RTVSPost2010PropOp55
 70
     1
102
RTVSPost2010Prop56
140
1.0
102
RTVSPost2010PropOp56
 70
     1
102
RTVSPost2010Prop57
140
1.0
102
RTVSPost2010PropOp57
 70
     1
  0
XRECORD
  5
133
102
{ACAD_REACTORS
330
132
102
}
330
132
100
AcDbXrecord
280
     1
102
RTVSPost2010Prop28
280
     0
102
RTVSPost2010PropOp28
 70
     1
102
RTVSPost2010Prop29
280
     1
102
RTVSPost2010PropOp29
 70
     1
102
RTVSPost2010Prop30
280
     1
102
RTVSPost2010PropOp30
 70
     1
102
RTVSPost2010Prop31
280
     0
102
RTVSPost2010PropOp31
 70
     1
102
RTVSPost2010Prop32
280
     0
102
RTVSPost2010PropOp32
 70
     1
102
RTVSPost2010Prop33
280
     0
102
RTVSPost2010PropOp33
 70
     1
102
RTVSPost2010Prop34
280
     0
102
RTVSPost2010PropOp34
 70
     1
102
RTVSPost2010Prop35
280
     0
102
RTVSPost2010PropOp35
 70
     1
102
RTVSPost2010Prop36
280
     0
102
RTVSPost2010PropOp36
 70
     1
102
RTVSPost2010Prop37
 90
       50
102
RTVSPost2010PropOp37
 70
     1
102
RTVSPost2010Prop38
140
0.0
102
RTVSPost2010PropOp38
 70
     1
102
RTVSPost2010Prop39
140
1.0
102
RTVSPost2010PropOp39
 70
     1
102
RTVSPost2010Prop40
 90
        0
102
RTVSPost2010PropOp40
 70
     1
102
RTVSPost2010Prop41ColorIndex
 90
       18
102
RTVSPost2010Prop41ColorRGB
 90
        0
102
RTVSPost2010PropOp41
 70
     1
102
RTVSPost2010Prop42
 90
       50
102
RTVSPost2010PropOp42
 70
     1
102
RTVSPost2010Prop43
 90
        3
102
RTVSPost2010PropOp43
 70
     1
102
RTVSPost2010Prop44ColorIndex
 90
        5
102
RTVSPost2010Prop44ColorRGB
 90
      255
102
RTVSPost2010PropOp44
 70
     1
102
RTVSPost2010Prop45
280
     0
102
RTVSPost2010PropOp45
 70
     1
102
RTVSPost2010Prop46
 90
       50
102
RTVSPost2010PropOp46
 70
     1
102
RTVSPost2010Prop47
 90
       50
102
RTVSPost2010PropOp47
 70
     1
102
RTVSPost2010Prop48
 90
       50
102
RTVSPost2010PropOp48
 70
     1
102
RTVSPost2010Prop49
280
     0
102
RTVSPost2010PropOp49
 70
     1
102
RTVSPost2010Prop50
 90
       50
102
RTVSPost2010PropOp50
 70
     1
102
RTVSPost2010Prop51ColorIndex
 90
      256
102
RTVSPost2010Prop51ColorRGB
 90
-16777216
102
RTVSPost2010PropOp51
 70
     0
102
RTVSPost2010Prop52
140
1.0
102
RTVSPost2010PropOp52
 70
     0
102
RTVSPost2010Prop53
 90
        2
102
RTVSPost2010PropOp53
 70
     1
102
RTVSPost2010Prop54
  1
strokes_ogs.tif
102
RTVSPost2010PropOp54
 70
     1
102
RTVSPost2010Prop55
280
     0
102
RTVSPost2010PropOp55
 70
     1
102
RTVSPost2010Prop56
140
1.0
102
RTVSPost2010PropOp56
 70
     1
102
RTVSPost2010Prop57
140
1.0
102
RTVSPost2010PropOp57
 70
     1
  0
XRECORD
  5
135
102
{ACAD_REACTORS
330
134
102
}
330
134
100
AcDbXrecord
280
     1
102
RTVSPost2010Prop28
280
     0
102
RTVSPost2010PropOp28
 70
     1
102
RTVSPost2010Prop29
280
     1
102
RTVSPost2010PropOp29
 70
     1
102
RTVSPost2010Prop30
280
     1
102
RTVSPost2010PropOp30
 70
     1
102
RTVSPost2010Prop31
280
     0
102
RTVSPost2010PropOp31
 70
     1
102
RTVSPost2010Prop32
280
     0
102
RTVSPost2010PropOp32
 70
     1
102
RTVSPost2010Prop33
280
     0
102
RTVSPost2010PropOp33
 70
     1
102
RTVSPost2010Prop34
280
     0
102
RTVSPost2010PropOp34
 70
     1
102
RTVSPost2010Prop35
280
     0
102
RTVSPost2010PropOp35
 70
     1
102
RTVSPost2010Prop36
280
     0
102
RTVSPost2010PropOp36
 70
     1
102
RTVSPost2010Prop37
 90
       50
102
RTVSPost2010PropOp37
 70
     1
102
RTVSPost2010Prop38
140
0.0
102
RTVSPost2010PropOp38
 70
     1
102
RTVSPost2010Prop39
140
1.0
102
RTVSPost2010PropOp39
 70
     1
102
RTVSPost2010Prop40
 90
        0
102
RTVSPost2010PropOp40
 70
     1
102
RTVSPost2010Prop41ColorIndex
 90
       18
102
RTVSPost2010Prop41ColorRGB
 90
        0
102
RTVSPost2010PropOp41
 70
     1
102
RTVSPost2010Prop42
 90
       50
102
RTVSPost2010PropOp42
 70
     1
102
RTVSPost2010Prop43
 90
        3
102
RTVSPost2010PropOp43
 70
     1
102
RTVSPost2010Prop44ColorIndex
 90
        5
102
RTVSPost2010Prop44ColorRGB
 90
      255
102
RTVSPost2010PropOp44
 70
     1
102
RTVSPost2010Prop45
280
     0
102
RTVSPost2010PropOp45
 70
     1
102
RTVSPost2010Prop46
 90
       50
102
RTVSPost2010PropOp46
 70
     1
102
RTVSPost2010Prop47
 90
       50
102
RTVSPost2010PropOp47
 70
     1
102
RTVSPost2010Prop48
 90
       50
102
RTVSPost2010PropOp48
 70
     1
102
RTVSPost2010Prop49
280
     0
102
RTVSPost2010PropOp49
 70
     1
102
RTVSPost2010Prop50
 90
       50
102
RTVSPost2010PropOp50
 70
     1
102
RTVSPost2010Prop51ColorIndex
 90
      256
102
RTVSPost2010Prop51ColorRGB
 90
-16777216
102
RTVSPost2010PropOp51
 70
     0
102
RTVSPost2010Prop52
140
1.0
102
RTVSPost2010PropOp52
 70
     0
102
RTVSPost2010Prop53
 90
        2
102
RTVSPost2010PropOp53
 70
     1
102
RTVSPost2010Prop54
  1
strokes_ogs.tif
102
RTVSPost2010PropOp54
 70
     1
102
RTVSPost2010Prop55
280
     0
102
RTVSPost2010PropOp55
 70
     1
102
RTVSPost2010Prop56
140
1.0
102
RTVSPost2010PropOp56
 70
     1
102
RTVSPost2010Prop57
140
1.0
102
RTVSPost2010PropOp57
 70
     1
  0
XRECORD
  5
137
102
{ACAD_REACTORS
330
136
102
}
330
136
100
AcDbXrecord
280
     1
102
RTVSPost2010Prop28
280
     0
102
RTVSPost2010PropOp28
 70
     1
102
RTVSPost2010Prop29
280
     1
102
RTVSPost2010PropOp29
 70
     1
102
RTVSPost2010Prop30
280
     1
102
RTVSPost2010PropOp30
 70
     1
102
RTVSPost2010Prop31
280
     0
102
RTVSPost2010PropOp31
 70
     1
102
RTVSPost2010Prop32
280
     0
102
RTVSPost2010PropOp32
 70
     1
102
RTVSPost2010Prop33
280
     0
102
RTVSPost2010PropOp33
 70
     1
102
RTVSPost2010Prop34
280
     0
102
RTVSPost2010PropOp34
 70
     1
102
RTVSPost2010Prop35
280
     0
102
RTVSPost2010PropOp35
 70
     1
102
RTVSPost2010Prop36
280
     0
102
RTVSPost2010PropOp36
 70
     1
102
RTVSPost2010Prop37
 90
       50
102
RTVSPost2010PropOp37
 70
     1
102
RTVSPost2010Prop38
140
0.0
102
RTVSPost2010PropOp38
 70
     1
102
RTVSPost2010Prop39
140
1.0
102
RTVSPost2010PropOp39
 70
     1
102
RTVSPost2010Prop40
 90
        0
102
RTVSPost2010PropOp40
 70
     1
102
RTVSPost2010Prop41ColorIndex
 90
       18
102
RTVSPost2010Prop41ColorRGB
 90
        0
102
RTVSPost2010PropOp41
 70
     1
102
RTVSPost2010Prop42
 90
       50
102
RTVSPost2010PropOp42
 70
     1
102
RTVSPost2010Prop43
 90
        3
102
RTVSPost2010PropOp43
 70
     1
102
RTVSPost2010Prop44ColorIndex
 90
        5
102
RTVSPost2010Prop44ColorRGB
 90
      255
102
RTVSPost2010PropOp44
 70
     1
102
RTVSPost2010Prop45
280
     0
102
RTVSPost2010PropOp45
 70
     1
102
RTVSPost2010Prop46
 90
       50
102
RTVSPost2010PropOp46
 70
     1
102
RTVSPost2010Prop47
 90
       50
102
RTVSPost2010PropOp47
 70
     1
102
RTVSPost2010Prop48
 90
       50
102
RTVSPost2010PropOp48
 70
     1
102
RTVSPost2010Prop49
280
     0
102
RTVSPost2010PropOp49
 70
     1
102
RTVSPost2010Prop50
 90
       50
102
RTVSPost2010PropOp50
 70
     1
102
RTVSPost2010Prop51ColorIndex
 90
      256
102
RTVSPost2010Prop51ColorRGB
 90
-16777216
102
RTVSPost2010PropOp51
 70
     0
102
RTVSPost2010Prop52
140
1.0
102
RTVSPost2010PropOp52
 70
     0
102
RTVSPost2010Prop53
 90
        2
102
RTVSPost2010PropOp53
 70
     1
102
RTVSPost2010Prop54
  1
strokes_ogs.tif
102
RTVSPost2010PropOp54
 70
     1
102
RTVSPost2010Prop55
280
     0
102
RTVSPost2010PropOp55
 70
     1
102
RTVSPost2010Prop56
140
1.0
102
RTVSPost2010PropOp56
 70
     1
102
RTVSPost2010Prop57
140
1.0
102
RTVSPost2010PropOp57
 70
     1
  0
XRECORD
  5
139
102
{ACAD_REACTORS
330
138
102
}
330
138
100
AcDbXrecord
280
     1
102
RTVSPost2010Prop28
280
     0
102
RTVSPost2010PropOp28
 70
     1
102
RTVSPost2010Prop29
280
     1
102
RTVSPost2010PropOp29
 70
     1
102
RTVSPost2010Prop30
280
     1
102
RTVSPost2010PropOp30
 70
     1
102
RTVSPost2010Prop31
280
     0
102
RTVSPost2010PropOp31
 70
     1
102
RTVSPost2010Prop32
280
     0
102
RTVSPost2010PropOp32
 70
     1
102
RTVSPost2010Prop33
280
     0
102
RTVSPost2010PropOp33
 70
     1
102
RTVSPost2010Prop34
280
     0
102
RTVSPost2010PropOp34
 70
     1
102
RTVSPost2010Prop35
280
     0
102
RTVSPost2010PropOp35
 70
     1
102
RTVSPost2010Prop36
280
     0
102
RTVSPost2010PropOp36
 70
     1
102
RTVSPost2010Prop37
 90
       50
102
RTVSPost2010PropOp37
 70
     1
102
RTVSPost2010Prop38
140
0.0
102
RTVSPost2010PropOp38
 70
     1
102
RTVSPost2010Prop39
140
1.0
102
RTVSPost2010PropOp39
 70
     1
102
RTVSPost2010Prop40
 90
        0
102
RTVSPost2010PropOp40
 70
     1
102
RTVSPost2010Prop41ColorIndex
 90
       18
102
RTVSPost2010Prop41ColorRGB
 90
        0
102
RTVSPost2010PropOp41
 70
     1
102
RTVSPost2010Prop42
 90
       50
102
RTVSPost2010PropOp42
 70
     1
102
RTVSPost2010Prop43
 90
        3
102
RTVSPost2010PropOp43
 70
     1
102
RTVSPost2010Prop44ColorIndex
 90
        5
102
RTVSPost2010Prop44ColorRGB
 90
      255
102
RTVSPost2010PropOp44
 70
     1
102
RTVSPost2010Prop45
280
     0
102
RTVSPost2010PropOp45
 70
     1
102
RTVSPost2010Prop46
 90
       50
102
RTVSPost2010PropOp46
 70
     1
102
RTVSPost2010Prop47
 90
       50
102
RTVSPost2010PropOp47
 70
     1
102
RTVSPost2010Prop48
 90
       50
102
RTVSPost2010PropOp48
 70
     1
102
RTVSPost2010Prop49
280
     0
102
RTVSPost2010PropOp49
 70
     1
102
RTVSPost2010Prop50
 90
       50
102
RTVSPost2010PropOp50
 70
     1
102
RTVSPost2010Prop51ColorIndex
 90
      256
102
RTVSPost2010Prop51ColorRGB
 90
-16777216
102
RTVSPost2010PropOp51
 70
     0
102
RTVSPost2010Prop52
140
1.0
102
RTVSPost2010PropOp52
 70
     0
102
RTVSPost2010Prop53
 90
        2
102
RTVSPost2010PropOp53
 70
     1
102
RTVSPost2010Prop54
  1
strokes_ogs.tif
102
RTVSPost2010PropOp54
 70
     1
102
RTVSPost2010Prop55
280
     0
102
RTVSPost2010PropOp55
 70
     1
102
RTVSPost2010Prop56
140
1.0
102
RTVSPost2010PropOp56
 70
     1
102
RTVSPost2010Prop57
140
1.0
102
RTVSPost2010PropOp57
 70
     1
  0
XRECORD
  5
141
102
{ACAD_REACTORS
330
140
102
}
330
140
100
AcDbXrecord
280
     1
102
RTVSPost2010Prop28
280
     0
102
RTVSPost2010PropOp28
 70
     1
102
RTVSPost2010Prop29
280
     1
102
RTVSPost2010PropOp29
 70
     1
102
RTVSPost2010Prop30
280
     1
102
RTVSPost2010PropOp30
 70
     1
102
RTVSPost2010Prop31
280
     0
102
RTVSPost2010PropOp31
 70
     1
102
RTVSPost2010Prop32
280
     0
102
RTVSPost2010PropOp32
 70
     1
102
RTVSPost2010Prop33
280
     0
102
RTVSPost2010PropOp33
 70
     1
102
RTVSPost2010Prop34
280
     0
102
RTVSPost2010PropOp34
 70
     1
102
RTVSPost2010Prop35
280
     0
102
RTVSPost2010PropOp35
 70
     1
102
RTVSPost2010Prop36
280
     0
102
RTVSPost2010PropOp36
 70
     1
102
RTVSPost2010Prop37
 90
       50
102
RTVSPost2010PropOp37
 70
     1
102
RTVSPost2010Prop38
140
0.0
102
RTVSPost2010PropOp38
 70
     1
102
RTVSPost2010Prop39
140
1.0
102
RTVSPost2010PropOp39
 70
     1
102
RTVSPost2010Prop40
 90
        0
102
RTVSPost2010PropOp40
 70
     1
102
RTVSPost2010Prop41ColorIndex
 90
       18
102
RTVSPost2010Prop41ColorRGB
 90
        0
102
RTVSPost2010PropOp41
 70
     1
102
RTVSPost2010Prop42
 90
       50
102
RTVSPost2010PropOp42
 70
     1
102
RTVSPost2010Prop43
 90
        3
102
RTVSPost2010PropOp43
 70
     1
102
RTVSPost2010Prop44ColorIndex
 90
        5
102
RTVSPost2010Prop44ColorRGB
 90
      255
102
RTVSPost2010PropOp44
 70
     1
102
RTVSPost2010Prop45
280
     0
102
RTVSPost2010PropOp45
 70
     1
102
RTVSPost2010Prop46
 90
       50
102
RTVSPost2010PropOp46
 70
     1
102
RTVSPost2010Prop47
 90
       50
102
RTVSPost2010PropOp47
 70
     1
102
RTVSPost2010Prop48
 90
       50
102
RTVSPost2010PropOp48
 70
     1
102
RTVSPost2010Prop49
280
     0
102
RTVSPost2010PropOp49
 70
     1
102
RTVSPost2010Prop50
 90
       50
102
RTVSPost2010PropOp50
 70
     1
102
RTVSPost2010Prop51ColorIndex
 90
      256
102
RTVSPost2010Prop51ColorRGB
 90
-16777216
102
RTVSPost2010PropOp51
 70
     0
102
RTVSPost2010Prop52
140
1.0
102
RTVSPost2010PropOp52
 70
     0
102
RTVSPost2010Prop53
 90
        2
102
RTVSPost2010PropOp53
 70
     1
102
RTVSPost2010Prop54
  1
strokes_ogs.tif
102
RTVSPost2010PropOp54
 70
     1
102
RTVSPost2010Prop55
280
     0
102
RTVSPost2010PropOp55
 70
     1
102
RTVSPost2010Prop56
140
1.0
102
RTVSPost2010PropOp56
 70
     1
102
RTVSPost2010Prop57
140
1.0
102
RTVSPost2010PropOp57
 70
     1
  0
XRECORD
  5
15D
102
{ACAD_REACTORS
330
15C
102
}
330
15C
100
AcDbXrecord
280
     1
102
RTVSPost2010Prop28
280
     0
102
RTVSPost2010PropOp28
 70
     0
102
RTVSPost2010Prop29
280
     1
102
RTVSPost2010PropOp29
 70
     0
102
RTVSPost2010Prop30
280
     1
102
RTVSPost2010PropOp30
 70
     0
102
RTVSPost2010Prop31
280
     0
102
RTVSPost2010PropOp31
 70
     0
102
RTVSPost2010Prop32
280
     0
102
RTVSPost2010PropOp32
 70
     0
102
RTVSPost2010Prop33
280
     0
102
RTVSPost2010PropOp33
 70
     0
102
RTVSPost2010Prop34
280
     0
102
RTVSPost2010PropOp34
 70
     0
102
RTVSPost2010Prop35
280
     0
102
RTVSPost2010PropOp35
 70
     0
102
RTVSPost2010Prop36
280
     0
102
RTVSPost2010PropOp36
 70
     0
102
RTVSPost2010Prop37
 90
       50
102
RTVSPost2010PropOp37
 70
     0
102
RTVSPost2010Prop38
140
0.0
102
RTVSPost2010PropOp38
 70
     0
102
RTVSPost2010Prop39
140
1.0
102
RTVSPost2010PropOp39
 70
     0
102
RTVSPost2010Prop40
 90
        0
102
RTVSPost2010PropOp40
 70
     0
102
RTVSPost2010Prop41ColorIndex
 90
       18
102
RTVSPost2010Prop41ColorRGB
 90
        0
102
RTVSPost2010PropOp41
 70
     0
102
RTVSPost2010Prop42
 90
       50
102
RTVSPost2010PropOp42
 70
     0
102
RTVSPost2010Prop43
 90
        3
102
RTVSPost2010PropOp43
 70
     0
102
RTVSPost2010Prop44ColorIndex
 90
        5
102
RTVSPost2010Prop44ColorRGB
 90
      255
102
RTVSPost2010PropOp44
 70
     0
102
RTVSPost2010Prop45
280
     0
102
RTVSPost2010PropOp45
 70
     0
102
RTVSPost2010Prop46
 90
       50
102
RTVSPost2010PropOp46
 70
     0
102
RTVSPost2010Prop47
 90
       50
102
RTVSPost2010PropOp47
 70
     0
102
RTVSPost2010Prop48
 90
       50
102
RTVSPost2010PropOp48
 70
     0
102
RTVSPost2010Prop49
280
     0
102
RTVSPost2010PropOp49
 70
     0
102
RTVSPost2010Prop50
 90
       50
102
RTVSPost2010PropOp50
 70
     0
102
RTVSPost2010Prop51ColorIndex
 90
      256
102
RTVSPost2010Prop51ColorRGB
 90
-16777216
102
RTVSPost2010PropOp51
 70
     0
102
RTVSPost2010Prop52
140
1.0
102
RTVSPost2010PropOp52
 70
     0
102
RTVSPost2010Prop53
 90
        2
102
RTVSPost2010PropOp53
 70
     0
102
RTVSPost2010Prop54
  1
strokes_ogs.tif
102
RTVSPost2010PropOp54
 70
     0
102
RTVSPost2010Prop55
280
     0
102
RTVSPost2010PropOp55
 70
     0
102
RTVSPost2010Prop56
140
1.0
102
RTVSPost2010PropOp56
 70
     0
102
RTVSPost2010Prop57
140
1.0
102
RTVSPost2010PropOp57
 70
     0
  0
XRECORD
  5
14D
102
{ACAD_REACTORS
330
14C
102
}
330
14C
100
AcDbXrecord
280
     1
102
RTVSPost2010Prop28
280
     0
102
RTVSPost2010PropOp28
 70
     1
102
RTVSPost2010Prop29
280
     1
102
RTVSPost2010PropOp29
 70
     1
102
RTVSPost2010Prop30
280
     1
102
RTVSPost2010PropOp30
 70
     1
102
RTVSPost2010Prop31
280
     0
102
RTVSPost2010PropOp31
 70
     1
102
RTVSPost2010Prop32
280
     0
102
RTVSPost2010PropOp32
 70
     1
102
RTVSPost2010Prop33
280
     0
102
RTVSPost2010PropOp33
 70
     1
102
RTVSPost2010Prop34
280
     0
102
RTVSPost2010PropOp34
 70
     1
102
RTVSPost2010Prop35
280
     0
102
RTVSPost2010PropOp35
 70
     1
102
RTVSPost2010Prop36
280
     0
102
RTVSPost2010PropOp36
 70
     1
102
RTVSPost2010Prop37
 90
       50
102
RTVSPost2010PropOp37
 70
     1
102
RTVSPost2010Prop38
140
0.0
102
RTVSPost2010PropOp38
 70
     1
102
RTVSPost2010Prop39
140
1.0
102
RTVSPost2010PropOp39
 70
     1
102
RTVSPost2010Prop40
 90
        0
102
RTVSPost2010PropOp40
 70
     1
102
RTVSPost2010Prop41ColorIndex
 90
       18
102
RTVSPost2010Prop41ColorRGB
 90
        0
102
RTVSPost2010PropOp41
 70
     1
102
RTVSPost2010Prop42
 90
       50
102
RTVSPost2010PropOp42
 70
     1
102
RTVSPost2010Prop43
 90
        3
102
RTVSPost2010PropOp43
 70
     1
102
RTVSPost2010Prop44ColorIndex
 90
        5
102
RTVSPost2010Prop44ColorRGB
 90
      255
102
RTVSPost2010PropOp44
 70
     1
102
RTVSPost2010Prop45
280
     0
102
RTVSPost2010PropOp45
 70
     1
102
RTVSPost2010Prop46
 90
       50
102
RTVSPost2010PropOp46
 70
     1
102
RTVSPost2010Prop47
 90
       50
102
RTVSPost2010PropOp47
 70
     1
102
RTVSPost2010Prop48
 90
       50
102
RTVSPost2010PropOp48
 70
     1
102
RTVSPost2010Prop49
280
     0
102
RTVSPost2010PropOp49
 70
     1
102
RTVSPost2010Prop50
 90
       50
102
RTVSPost2010PropOp50
 70
     1
102
RTVSPost2010Prop51ColorIndex
 90
      256
102
RTVSPost2010Prop51ColorRGB
 90
-16777216
102
RTVSPost2010PropOp51
 70
     0
102
RTVSPost2010Prop52
140
1.0
102
RTVSPost2010PropOp52
 70
     0
102
RTVSPost2010Prop53
 90
        2
102
RTVSPost2010PropOp53
 70
     1
102
RTVSPost2010Prop54
  1
strokes_ogs.tif
102
RTVSPost2010PropOp54
 70
     1
102
RTVSPost2010Prop55
280
     0
102
RTVSPost2010PropOp55
 70
     1
102
RTVSPost2010Prop56
140
1.0
102
RTVSPost2010PropOp56
 70
     1
102
RTVSPost2010Prop57
140
1.0
102
RTVSPost2010PropOp57
 70
     1
  0
XRECORD
  5
15F
102
{ACAD_REACTORS
330
15E
102
}
330
15E
100
AcDbXrecord
280
     1
102
RTVSPost2010Prop28
280
     0
102
RTVSPost2010PropOp28
 70
     0
102
RTVSPost2010Prop29
280
     1
102
RTVSPost2010PropOp29
 70
     0
102
RTVSPost2010Prop30
280
     1
102
RTVSPost2010PropOp30
 70
     0
102
RTVSPost2010Prop31
280
     0
102
RTVSPost2010PropOp31
 70
     0
102
RTVSPost2010Prop32
280
     0
102
RTVSPost2010PropOp32
 70
     0
102
RTVSPost2010Prop33
280
     0
102
RTVSPost2010PropOp33
 70
     0
102
RTVSPost2010Prop34
280
     0
102
RTVSPost2010PropOp34
 70
     0
102
RTVSPost2010Prop35
280
     0
102
RTVSPost2010PropOp35
 70
     0
102
RTVSPost2010Prop36
280
     0
102
RTVSPost2010PropOp36
 70
     0
102
RTVSPost2010Prop37
 90
       50
102
RTVSPost2010PropOp37
 70
     0
102
RTVSPost2010Prop38
140
0.0
102
RTVSPost2010PropOp38
 70
     0
102
RTVSPost2010Prop39
140
1.0
102
RTVSPost2010PropOp39
 70
     0
102
RTVSPost2010Prop40
 90
        0
102
RTVSPost2010PropOp40
 70
     0
102
RTVSPost2010Prop41ColorIndex
 90
       18
102
RTVSPost2010Prop41ColorRGB
 90
        0
102
RTVSPost2010PropOp41
 70
     0
102
RTVSPost2010Prop42
 90
       50
102
RTVSPost2010PropOp42
 70
     0
102
RTVSPost2010Prop43
 90
        3
102
RTVSPost2010PropOp43
 70
     0
102
RTVSPost2010Prop44ColorIndex
 90
        5
102
RTVSPost2010Prop44ColorRGB
 90
      255
102
RTVSPost2010PropOp44
 70
     0
102
RTVSPost2010Prop45
280
     0
102
RTVSPost2010PropOp45
 70
     0
102
RTVSPost2010Prop46
 90
       50
102
RTVSPost2010PropOp46
 70
     0
102
RTVSPost2010Prop47
 90
       50
102
RTVSPost2010PropOp47
 70
     0
102
RTVSPost2010Prop48
 90
       50
102
RTVSPost2010PropOp48
 70
     0
102
RTVSPost2010Prop49
280
     0
102
RTVSPost2010PropOp49
 70
     0
102
RTVSPost2010Prop50
 90
       50
102
RTVSPost2010PropOp50
 70
     0
102
RTVSPost2010Prop51ColorIndex
 90
      256
102
RTVSPost2010Prop51ColorRGB
 90
-16777216
102
RTVSPost2010PropOp51
 70
     0
102
RTVSPost2010Prop52
140
1.0
102
RTVSPost2010PropOp52
 70
     0
102
RTVSPost2010Prop53
 90
        2
102
RTVSPost2010PropOp53
 70
     0
102
RTVSPost2010Prop54
  1
strokes_ogs.tif
102
RTVSPost2010PropOp54
 70
     0
102
RTVSPost2010Prop55
280
     0
102
RTVSPost2010PropOp55
 70
     0
102
RTVSPost2010Prop56
140
1.0
102
RTVSPost2010PropOp56
 70
     0
102
RTVSPost2010Prop57
140
1.0
102
RTVSPost2010PropOp57
 70
     0
  0
XRECORD
  5
145
102
{ACAD_REACTORS
330
144
102
}
330
144
100
AcDbXrecord
280
     1
102
RTVSPost2010Prop28
280
     0
102
RTVSPost2010PropOp28
 70
     1
102
RTVSPost2010Prop29
280
     1
102
RTVSPost2010PropOp29
 70
     1
102
RTVSPost2010Prop30
280
     1
102
RTVSPost2010PropOp30
 70
     1
102
RTVSPost2010Prop31
280
     0
102
RTVSPost2010PropOp31
 70
     1
102
RTVSPost2010Prop32
280
     0
102
RTVSPost2010PropOp32
 70
     1
102
RTVSPost2010Prop33
280
     0
102
RTVSPost2010PropOp33
 70
     1
102
RTVSPost2010Prop34
280
     0
102
RTVSPost2010PropOp34
 70
     1
102
RTVSPost2010Prop35
280
     0
102
RTVSPost2010PropOp35
 70
     1
102
RTVSPost2010Prop36
280
     0
102
RTVSPost2010PropOp36
 70
     1
102
RTVSPost2010Prop37
 90
       50
102
RTVSPost2010PropOp37
 70
     1
102
RTVSPost2010Prop38
140
0.0
102
RTVSPost2010PropOp38
 70
     1
102
RTVSPost2010Prop39
140
1.0
102
RTVSPost2010PropOp39
 70
     1
102
RTVSPost2010Prop40
 90
        0
102
RTVSPost2010PropOp40
 70
     1
102
RTVSPost2010Prop41ColorIndex
 90
       18
102
RTVSPost2010Prop41ColorRGB
 90
        0
102
RTVSPost2010PropOp41
 70
     1
102
RTVSPost2010Prop42
 90
       50
102
RTVSPost2010PropOp42
 70
     1
102
RTVSPost2010Prop43
 90
        3
102
RTVSPost2010PropOp43
 70
     1
102
RTVSPost2010Prop44ColorIndex
 90
        5
102
RTVSPost2010Prop44ColorRGB
 90
      255
102
RTVSPost2010PropOp44
 70
     1
102
RTVSPost2010Prop45
280
     0
102
RTVSPost2010PropOp45
 70
     1
102
RTVSPost2010Prop46
 90
       50
102
RTVSPost2010PropOp46
 70
     1
102
RTVSPost2010Prop47
 90
       50
102
RTVSPost2010PropOp47
 70
     1
102
RTVSPost2010Prop48
 90
       50
102
RTVSPost2010PropOp48
 70
     1
102
RTVSPost2010Prop49
280
     0
102
RTVSPost2010PropOp49
 70
     1
102
RTVSPost2010Prop50
 90
       50
102
RTVSPost2010PropOp50
 70
     1
102
RTVSPost2010Prop51ColorIndex
 90
      256
102
RTVSPost2010Prop51ColorRGB
 90
-16777216
102
RTVSPost2010PropOp51
 70
     0
102
RTVSPost2010Prop52
140
1.0
102
RTVSPost2010PropOp52
 70
     0
102
RTVSPost2010Prop53
 90
        2
102
RTVSPost2010PropOp53
 70
     1
102
RTVSPost2010Prop54
  1
strokes_ogs.tif
102
RTVSPost2010PropOp54
 70
     1
102
RTVSPost2010Prop55
280
     0
102
RTVSPost2010PropOp55
 70
     1
102
RTVSPost2010Prop56
140
1.0
102
RTVSPost2010PropOp56
 70
     1
102
RTVSPost2010Prop57
140
1.0
102
RTVSPost2010PropOp57
 70
     1
  0
XRECORD
  5
15B
102
{ACAD_REACTORS
330
15A
102
}
330
15A
100
AcDbXrecord
280
     1
102
RTVSPost2010Prop28
280
     0
102
RTVSPost2010PropOp28
 70
     1
102
RTVSPost2010Prop29
280
     1
102
RTVSPost2010PropOp29
 70
     1
102
RTVSPost2010Prop30
280
     1
102
RTVSPost2010PropOp30
 70
     1
102
RTVSPost2010Prop31
280
     0
102
RTVSPost2010PropOp31
 70
     1
102
RTVSPost2010Prop32
280
     0
102
RTVSPost2010PropOp32
 70
     1
102
RTVSPost2010Prop33
280
     0
102
RTVSPost2010PropOp33
 70
     1
102
RTVSPost2010Prop34
280
     0
102
RTVSPost2010PropOp34
 70
     1
102
RTVSPost2010Prop35
280
     0
102
RTVSPost2010PropOp35
 70
     1
102
RTVSPost2010Prop36
280
     0
102
RTVSPost2010PropOp36
 70
     1
102
RTVSPost2010Prop37
 90
       50
102
RTVSPost2010PropOp37
 70
     1
102
RTVSPost2010Prop38
140
0.0
102
RTVSPost2010PropOp38
 70
     1
102
RTVSPost2010Prop39
140
1.0
102
RTVSPost2010PropOp39
 70
     1
102
RTVSPost2010Prop40
 90
        0
102
RTVSPost2010PropOp40
 70
     1
102
RTVSPost2010Prop41ColorIndex
 90
       18
102
RTVSPost2010Prop41ColorRGB
 90
        0
102
RTVSPost2010PropOp41
 70
     1
102
RTVSPost2010Prop42
 90
       50
102
RTVSPost2010PropOp42
 70
     1
102
RTVSPost2010Prop43
 90
        3
102
RTVSPost2010PropOp43
 70
     1
102
RTVSPost2010Prop44ColorIndex
 90
        5
102
RTVSPost2010Prop44ColorRGB
 90
      255
102
RTVSPost2010PropOp44
 70
     1
102
RTVSPost2010Prop45
280
     0
102
RTVSPost2010PropOp45
 70
     1
102
RTVSPost2010Prop46
 90
       50
102
RTVSPost2010PropOp46
 70
     1
102
RTVSPost2010Prop47
 90
       50
102
RTVSPost2010PropOp47
 70
     1
102
RTVSPost2010Prop48
 90
       50
102
RTVSPost2010PropOp48
 70
     1
102
RTVSPost2010Prop49
280
     0
102
RTVSPost2010PropOp49
 70
     1
102
RTVSPost2010Prop50
 90
       50
102
RTVSPost2010PropOp50
 70
     1
102
RTVSPost2010Prop51ColorIndex
 90
      256
102
RTVSPost2010Prop51ColorRGB
 90
-16777216
102
RTVSPost2010PropOp51
 70
     0
102
RTVSPost2010Prop52
140
1.0
102
RTVSPost2010PropOp52
 70
     0
102
RTVSPost2010Prop53
 90
        2
102
RTVSPost2010PropOp53
 70
     1
102
RTVSPost2010Prop54
  1
strokes_ogs.tif
102
RTVSPost2010PropOp54
 70
     1
102
RTVSPost2010Prop55
280
     0
102
RTVSPost2010PropOp55
 70
     1
102
RTVSPost2010Prop56
140
1.0
102
RTVSPost2010PropOp56
 70
     1
102
RTVSPost2010Prop57
140
1.0
102
RTVSPost2010PropOp57
 70
     1
  0
XRECORD
  5
159
102
{ACAD_REACTORS
330
158
102
}
330
158
100
AcDbXrecord
280
     1
102
RTVSPost2010Prop28
280
     0
102
RTVSPost2010PropOp28
 70
     1
102
RTVSPost2010Prop29
280
     1
102
RTVSPost2010PropOp29
 70
     1
102
RTVSPost2010Prop30
280
     1
102
RTVSPost2010PropOp30
 70
     1
102
RTVSPost2010Prop31
280
     0
102
RTVSPost2010PropOp31
 70
     1
102
RTVSPost2010Prop32
280
     0
102
RTVSPost2010PropOp32
 70
     1
102
RTVSPost2010Prop33
280
     0
102
RTVSPost2010PropOp33
 70
     1
102
RTVSPost2010Prop34
280
     0
102
RTVSPost2010PropOp34
 70
     1
102
RTVSPost2010Prop35
280
     0
102
RTVSPost2010PropOp35
 70
     1
102
RTVSPost2010Prop36
280
     0
102
RTVSPost2010PropOp36
 70
     1
102
RTVSPost2010Prop37
 90
       50
102
RTVSPost2010PropOp37
 70
     1
102
RTVSPost2010Prop38
140
0.0
102
RTVSPost2010PropOp38
 70
     1
102
RTVSPost2010Prop39
140
1.0
102
RTVSPost2010PropOp39
 70
     1
102
RTVSPost2010Prop40
 90
        0
102
RTVSPost2010PropOp40
 70
     1
102
RTVSPost2010Prop41ColorIndex
 90
       18
102
RTVSPost2010Prop41ColorRGB
 90
        0
102
RTVSPost2010PropOp41
 70
     1
102
RTVSPost2010Prop42
 90
       50
102
RTVSPost2010PropOp42
 70
     1
102
RTVSPost2010Prop43
 90
        3
102
RTVSPost2010PropOp43
 70
     1
102
RTVSPost2010Prop44ColorIndex
 90
        5
102
RTVSPost2010Prop44ColorRGB
 90
      255
102
RTVSPost2010PropOp44
 70
     1
102
RTVSPost2010Prop45
280
     0
102
RTVSPost2010PropOp45
 70
     1
102
RTVSPost2010Prop46
 90
       50
102
RTVSPost2010PropOp46
 70
     1
102
RTVSPost2010Prop47
 90
       50
102
RTVSPost2010PropOp47
 70
     1
102
RTVSPost2010Prop48
 90
       50
102
RTVSPost2010PropOp48
 70
     1
102
RTVSPost2010Prop49
280
     0
102
RTVSPost2010PropOp49
 70
     1
102
RTVSPost2010Prop50
 90
       50
102
RTVSPost2010PropOp50
 70
     1
102
RTVSPost2010Prop51ColorIndex
 90
      256
102
RTVSPost2010Prop51ColorRGB
 90
-16777216
102
RTVSPost2010PropOp51
 70
     0
102
RTVSPost2010Prop52
140
1.0
102
RTVSPost2010PropOp52
 70
     0
102
RTVSPost2010Prop53
 90
        2
102
RTVSPost2010PropOp53
 70
     1
102
RTVSPost2010Prop54
  1
strokes_ogs.tif
102
RTVSPost2010PropOp54
 70
     1
102
RTVSPost2010Prop55
280
     0
102
RTVSPost2010PropOp55
 70
     1
102
RTVSPost2010Prop56
140
1.0
102
RTVSPost2010PropOp56
 70
     1
102
RTVSPost2010Prop57
140
1.0
102
RTVSPost2010PropOp57
 70
     1
  0
XRECORD
  5
153
102
{ACAD_REACTORS
330
152
102
}
330
152
100
AcDbXrecord
280
     1
102
RTVSPost2010Prop28
280
     0
102
RTVSPost2010PropOp28
 70
     1
102
RTVSPost2010Prop29
280
     1
102
RTVSPost2010PropOp29
 70
     1
102
RTVSPost2010Prop30
280
     1
102
RTVSPost2010PropOp30
 70
     1
102
RTVSPost2010Prop31
280
     0
102
RTVSPost2010PropOp31
 70
     1
102
RTVSPost2010Prop32
280
     0
102
RTVSPost2010PropOp32
 70
     1
102
RTVSPost2010Prop33
280
     0
102
RTVSPost2010PropOp33
 70
     1
102
RTVSPost2010Prop34
280
     0
102
RTVSPost2010PropOp34
 70
     1
102
RTVSPost2010Prop35
280
     0
102
RTVSPost2010PropOp35
 70
     1
102
RTVSPost2010Prop36
280
     0
102
RTVSPost2010PropOp36
 70
     1
102
RTVSPost2010Prop37
 90
       50
102
RTVSPost2010PropOp37
 70
     1
102
RTVSPost2010Prop38
140
0.0
102
RTVSPost2010PropOp38
 70
     1
102
RTVSPost2010Prop39
140
1.0
102
RTVSPost2010PropOp39
 70
     1
102
RTVSPost2010Prop40
 90
        0
102
RTVSPost2010PropOp40
 70
     1
102
RTVSPost2010Prop41ColorIndex
 90
       18
102
RTVSPost2010Prop41ColorRGB
 90
        0
102
RTVSPost2010PropOp41
 70
     1
102
RTVSPost2010Prop42
 90
       50
102
RTVSPost2010PropOp42
 70
     1
102
RTVSPost2010Prop43
 90
        3
102
RTVSPost2010PropOp43
 70
     1
102
RTVSPost2010Prop44ColorIndex
 90
        5
102
RTVSPost2010Prop44ColorRGB
 90
      255
102
RTVSPost2010PropOp44
 70
     1
102
RTVSPost2010Prop45
280
     0
102
RTVSPost2010PropOp45
 70
     1
102
RTVSPost2010Prop46
 90
       50
102
RTVSPost2010PropOp46
 70
     1
102
RTVSPost2010Prop47
 90
       50
102
RTVSPost2010PropOp47
 70
     1
102
RTVSPost2010Prop48
 90
       50
102
RTVSPost2010PropOp48
 70
     1
102
RTVSPost2010Prop49
280
     0
102
RTVSPost2010PropOp49
 70
     1
102
RTVSPost2010Prop50
 90
       50
102
RTVSPost2010PropOp50
 70
     1
102
RTVSPost2010Prop51ColorIndex
 90
      256
102
RTVSPost2010Prop51ColorRGB
 90
-16777216
102
RTVSPost2010PropOp51
 70
     0
102
RTVSPost2010Prop52
140
1.0
102
RTVSPost2010PropOp52
 70
     0
102
RTVSPost2010Prop53
 90
        2
102
RTVSPost2010PropOp53
 70
     1
102
RTVSPost2010Prop54
  1
strokes_ogs.tif
102
RTVSPost2010PropOp54
 70
     1
102
RTVSPost2010Prop55
280
     0
102
RTVSPost2010PropOp55
 70
     1
102
RTVSPost2010Prop56
140
1.0
102
RTVSPost2010PropOp56
 70
     1
102
RTVSPost2010Prop57
140
1.0
102
RTVSPost2010PropOp57
 70
     1
  0
XRECORD
  5
155
102
{ACAD_REACTORS
330
154
102
}
330
154
100
AcDbXrecord
280
     1
102
RTVSPost2010Prop28
280
     0
102
RTVSPost2010PropOp28
 70
     1
102
RTVSPost2010Prop29
280
     1
102
RTVSPost2010PropOp29
 70
     1
102
RTVSPost2010Prop30
280
     1
102
RTVSPost2010PropOp30
 70
     1
102
RTVSPost2010Prop31
280
     0
102
RTVSPost2010PropOp31
 70
     1
102
RTVSPost2010Prop32
280
     0
102
RTVSPost2010PropOp32
 70
     1
102
RTVSPost2010Prop33
280
     0
102
RTVSPost2010PropOp33
 70
     1
102
RTVSPost2010Prop34
280
     0
102
RTVSPost2010PropOp34
 70
     1
102
RTVSPost2010Prop35
280
     0
102
RTVSPost2010PropOp35
 70
     1
102
RTVSPost2010Prop36
280
     0
102
RTVSPost2010PropOp36
 70
     1
102
RTVSPost2010Prop37
 90
       50
102
RTVSPost2010PropOp37
 70
     1
102
RTVSPost2010Prop38
140
0.0
102
RTVSPost2010PropOp38
 70
     1
102
RTVSPost2010Prop39
140
1.0
102
RTVSPost2010PropOp39
 70
     1
102
RTVSPost2010Prop40
 90
        0
102
RTVSPost2010PropOp40
 70
     1
102
RTVSPost2010Prop41ColorIndex
 90
       18
102
RTVSPost2010Prop41ColorRGB
 90
        0
102
RTVSPost2010PropOp41
 70
     1
102
RTVSPost2010Prop42
 90
       50
102
RTVSPost2010PropOp42
 70
     1
102
RTVSPost2010Prop43
 90
        3
102
RTVSPost2010PropOp43
 70
     1
102
RTVSPost2010Prop44ColorIndex
 90
        5
102
RTVSPost2010Prop44ColorRGB
 90
      255
102
RTVSPost2010PropOp44
 70
     1
102
RTVSPost2010Prop45
280
     0
102
RTVSPost2010PropOp45
 70
     1
102
RTVSPost2010Prop46
 90
       50
102
RTVSPost2010PropOp46
 70
     1
102
RTVSPost2010Prop47
 90
       50
102
RTVSPost2010PropOp47
 70
     1
102
RTVSPost2010Prop48
 90
       50
102
RTVSPost2010PropOp48
 70
     1
102
RTVSPost2010Prop49
280
     0
102
RTVSPost2010PropOp49
 70
     1
102
RTVSPost2010Prop50
 90
       50
102
RTVSPost2010PropOp50
 70
     1
102
RTVSPost2010Prop51ColorIndex
 90
      256
102
RTVSPost2010Prop51ColorRGB
 90
-16777216
102
RTVSPost2010PropOp51
 70
     0
102
RTVSPost2010Prop52
140
1.0
102
RTVSPost2010PropOp52
 70
     0
102
RTVSPost2010Prop53
 90
        2
102
RTVSPost2010PropOp53
 70
     1
102
RTVSPost2010Prop54
  1
strokes_ogs.tif
102
RTVSPost2010PropOp54
 70
     1
102
RTVSPost2010Prop55
280
     0
102
RTVSPost2010PropOp55
 70
     1
102
RTVSPost2010Prop56
140
1.0
102
RTVSPost2010PropOp56
 70
     1
102
RTVSPost2010Prop57
140
1.0
102
RTVSPost2010PropOp57
 70
     1
  0
XRECORD
  5
14B
102
{ACAD_REACTORS
330
14A
102
}
330
14A
100
AcDbXrecord
280
     1
102
RTVSPost2010Prop28
280
     0
102
RTVSPost2010PropOp28
 70
     1
102
RTVSPost2010Prop29
280
     1
102
RTVSPost2010PropOp29
 70
     1
102
RTVSPost2010Prop30
280
     1
102
RTVSPost2010PropOp30
 70
     1
102
RTVSPost2010Prop31
280
     0
102
RTVSPost2010PropOp31
 70
     1
102
RTVSPost2010Prop32
280
     0
102
RTVSPost2010PropOp32
 70
     1
102
RTVSPost2010Prop33
280
     0
102
RTVSPost2010PropOp33
 70
     1
102
RTVSPost2010Prop34
280
     0
102
RTVSPost2010PropOp34
 70
     1
102
RTVSPost2010Prop35
280
     0
102
RTVSPost2010PropOp35
 70
     1
102
RTVSPost2010Prop36
280
     0
102
RTVSPost2010PropOp36
 70
     1
102
RTVSPost2010Prop37
 90
       50
102
RTVSPost2010PropOp37
 70
     1
102
RTVSPost2010Prop38
140
0.0
102
RTVSPost2010PropOp38
 70
     1
102
RTVSPost2010Prop39
140
1.0
102
RTVSPost2010PropOp39
 70
     1
102
RTVSPost2010Prop40
 90
        0
102
RTVSPost2010PropOp40
 70
     1
102
RTVSPost2010Prop41ColorIndex
 90
       18
102
RTVSPost2010Prop41ColorRGB
 90
        0
102
RTVSPost2010PropOp41
 70
     1
102
RTVSPost2010Prop42
 90
       50
102
RTVSPost2010PropOp42
 70
     1
102
RTVSPost2010Prop43
 90
        3
102
RTVSPost2010PropOp43
 70
     1
102
RTVSPost2010Prop44ColorIndex
 90
        5
102
RTVSPost2010Prop44ColorRGB
 90
      255
102
RTVSPost2010PropOp44
 70
     1
102
RTVSPost2010Prop45
280
     0
102
RTVSPost2010PropOp45
 70
     1
102
RTVSPost2010Prop46
 90
       50
102
RTVSPost2010PropOp46
 70
     1
102
RTVSPost2010Prop47
 90
       50
102
RTVSPost2010PropOp47
 70
     1
102
RTVSPost2010Prop48
 90
       50
102
RTVSPost2010PropOp48
 70
     1
102
RTVSPost2010Prop49
280
     0
102
RTVSPost2010PropOp49
 70
     1
102
RTVSPost2010Prop50
 90
       50
102
RTVSPost2010PropOp50
 70
     1
102
RTVSPost2010Prop51ColorIndex
 90
      256
102
RTVSPost2010Prop51ColorRGB
 90
-16777216
102
RTVSPost2010PropOp51
 70
     0
102
RTVSPost2010Prop52
140
1.0
102
RTVSPost2010PropOp52
 70
     0
102
RTVSPost2010Prop53
 90
        2
102
RTVSPost2010PropOp53
 70
     1
102
RTVSPost2010Prop54
  1
strokes_ogs.tif
102
RTVSPost2010PropOp54
 70
     1
102
RTVSPost2010Prop55
280
     0
102
RTVSPost2010PropOp55
 70
     1
102
RTVSPost2010Prop56
140
1.0
102
RTVSPost2010PropOp56
 70
     1
102
RTVSPost2010Prop57
140
1.0
102
RTVSPost2010PropOp57
 70
     1
  0
XRECORD
  5
13F
102
{ACAD_REACTORS
330
13E
102
}
330
13E
100
AcDbXrecord
280
     1
102
RTVSPost2010Prop28
280
     0
102
RTVSPost2010PropOp28
 70
     1
102
RTVSPost2010Prop29
280
     1
102
RTVSPost2010PropOp29
 70
     1
102
RTVSPost2010Prop30
280
     1
102
RTVSPost2010PropOp30
 70
     1
102
RTVSPost2010Prop31
280
     0
102
RTVSPost2010PropOp31
 70
     1
102
RTVSPost2010Prop32
280
     0
102
RTVSPost2010PropOp32
 70
     1
102
RTVSPost2010Prop33
280
     0
102
RTVSPost2010PropOp33
 70
     1
102
RTVSPost2010Prop34
280
     0
102
RTVSPost2010PropOp34
 70
     1
102
RTVSPost2010Prop35
280
     0
102
RTVSPost2010PropOp35
 70
     1
102
RTVSPost2010Prop36
280
     0
102
RTVSPost2010PropOp36
 70
     1
102
RTVSPost2010Prop37
 90
       50
102
RTVSPost2010PropOp37
 70
     1
102
RTVSPost2010Prop38
140
0.0
102
RTVSPost2010PropOp38
 70
     1
102
RTVSPost2010Prop39
140
1.0
102
RTVSPost2010PropOp39
 70
     1
102
RTVSPost2010Prop40
 90
        0
102
RTVSPost2010PropOp40
 70
     1
102
RTVSPost2010Prop41ColorIndex
 90
       18
102
RTVSPost2010Prop41ColorRGB
 90
        0
102
RTVSPost2010PropOp41
 70
     1
102
RTVSPost2010Prop42
 90
       50
102
RTVSPost2010PropOp42
 70
     1
102
RTVSPost2010Prop43
 90
        3
102
RTVSPost2010PropOp43
 70
     1
102
RTVSPost2010Prop44ColorIndex
 90
        5
102
RTVSPost2010Prop44ColorRGB
 90
      255
102
RTVSPost2010PropOp44
 70
     1
102
RTVSPost2010Prop45
280
     0
102
RTVSPost2010PropOp45
 70
     1
102
RTVSPost2010Prop46
 90
       50
102
RTVSPost2010PropOp46
 70
     1
102
RTVSPost2010Prop47
 90
       50
102
RTVSPost2010PropOp47
 70
     1
102
RTVSPost2010Prop48
 90
       50
102
RTVSPost2010PropOp48
 70
     1
102
RTVSPost2010Prop49
280
     0
102
RTVSPost2010PropOp49
 70
     1
102
RTVSPost2010Prop50
 90
       50
102
RTVSPost2010PropOp50
 70
     1
102
RTVSPost2010Prop51ColorIndex
 90
      256
102
RTVSPost2010Prop51ColorRGB
 90
-16777216
102
RTVSPost2010PropOp51
 70
     0
102
RTVSPost2010Prop52
140
1.0
102
RTVSPost2010PropOp52
 70
     0
102
RTVSPost2010Prop53
 90
        2
102
RTVSPost2010PropOp53
 70
     1
102
RTVSPost2010Prop54
  1
strokes_ogs.tif
102
RTVSPost2010PropOp54
 70
     1
102
RTVSPost2010Prop55
280
     0
102
RTVSPost2010PropOp55
 70
     1
102
RTVSPost2010Prop56
140
1.0
102
RTVSPost2010PropOp56
 70
     1
102
RTVSPost2010Prop57
140
1.0
102
RTVSPost2010PropOp57
 70
     1
  0
XRECORD
  5
157
102
{ACAD_REACTORS
330
156
102
}
330
156
100
AcDbXrecord
280
     1
102
RTVSPost2010Prop28
280
     0
102
RTVSPost2010PropOp28
 70
     1
102
RTVSPost2010Prop29
280
     1
102
RTVSPost2010PropOp29
 70
     1
102
RTVSPost2010Prop30
280
     1
102
RTVSPost2010PropOp30
 70
     1
102
RTVSPost2010Prop31
280
     0
102
RTVSPost2010PropOp31
 70
     1
102
RTVSPost2010Prop32
280
     0
102
RTVSPost2010PropOp32
 70
     1
102
RTVSPost2010Prop33
280
     0
102
RTVSPost2010PropOp33
 70
     1
102
RTVSPost2010Prop34
280
     0
102
RTVSPost2010PropOp34
 70
     1
102
RTVSPost2010Prop35
280
     0
102
RTVSPost2010PropOp35
 70
     1
102
RTVSPost2010Prop36
280
     0
102
RTVSPost2010PropOp36
 70
     1
102
RTVSPost2010Prop37
 90
       50
102
RTVSPost2010PropOp37
 70
     1
102
RTVSPost2010Prop38
140
0.0
102
RTVSPost2010PropOp38
 70
     1
102
RTVSPost2010Prop39
140
1.0
102
RTVSPost2010PropOp39
 70
     1
102
RTVSPost2010Prop40
 90
        0
102
RTVSPost2010PropOp40
 70
     1
102
RTVSPost2010Prop41ColorIndex
 90
       18
102
RTVSPost2010Prop41ColorRGB
 90
        0
102
RTVSPost2010PropOp41
 70
     1
102
RTVSPost2010Prop42
 90
       50
102
RTVSPost2010PropOp42
 70
     1
102
RTVSPost2010Prop43
 90
        3
102
RTVSPost2010PropOp43
 70
     1
102
RTVSPost2010Prop44ColorIndex
 90
        5
102
RTVSPost2010Prop44ColorRGB
 90
      255
102
RTVSPost2010PropOp44
 70
     1
102
RTVSPost2010Prop45
280
     0
102
RTVSPost2010PropOp45
 70
     1
102
RTVSPost2010Prop46
 90
       50
102
RTVSPost2010PropOp46
 70
     1
102
RTVSPost2010Prop47
 90
       50
102
RTVSPost2010PropOp47
 70
     1
102
RTVSPost2010Prop48
 90
       50
102
RTVSPost2010PropOp48
 70
     1
102
RTVSPost2010Prop49
280
     0
102
RTVSPost2010PropOp49
 70
     1
102
RTVSPost2010Prop50
 90
       50
102
RTVSPost2010PropOp50
 70
     1
102
RTVSPost2010Prop51ColorIndex
 90
      256
102
RTVSPost2010Prop51ColorRGB
 90
-16777216
102
RTVSPost2010PropOp51
 70
     0
102
RTVSPost2010Prop52
140
1.0
102
RTVSPost2010PropOp52
 70
     0
102
RTVSPost2010Prop53
 90
        2
102
RTVSPost2010PropOp53
 70
     1
102
RTVSPost2010Prop54
  1
strokes_ogs.tif
102
RTVSPost2010PropOp54
 70
     1
102
RTVSPost2010Prop55
280
     0
102
RTVSPost2010PropOp55
 70
     1
102
RTVSPost2010Prop56
140
1.0
102
RTVSPost2010PropOp56
 70
     1
102
RTVSPost2010Prop57
140
1.0
102
RTVSPost2010PropOp57
 70
     1
  0
ENDSEC
  0
EOF
