  0
SECTION
  2
HEADER
  9
$ACADVER
  1
AC1024
  9
$ACADMAINTVER
 70
   226
  9
$DWGCODEPAGE
  3
ANSI_932
  9
$INSBASE
 10
0.0
 20
0.0
 30
0.0
  9
$EXTMIN
 10
1.000000000000000E+20
 20
1.000000000000000E+20
 30
1.000000000000000E+20
  9
$EXTMAX
 10
-1.000000000000000E+20
 20
-1.000000000000000E+20
 30
-1.000000000000000E+20
  9
$LIMMIN
 10
0.0
 20
0.0
  9
$LIMMAX
 10
12.0
 20
9.0
  9
$ORTHOMODE
 70
     0
  9
$REGENMODE
 70
     1
  9
$FILLMODE
 70
     1
  9
$QTEXTMODE
 70
     0
  9
$MIRRTEXT
 70
     0
  9
$LTSCALE
 40
1.0
  9
$ATTMODE
 70
     1
  9
$TEXTSIZE
 40
0.2
  9
$TRACEWID
 40
0.05
  9
$TEXTSTYLE
  7
Standard
  9
$CLAYER
  8
0
  9
$CELTYPE
  6
ByLayer
  9
$CECOLOR
 62
   256
  9
$CELTSCALE
 40
1.0
  9
$DISPSILH
 70
     0
  9
$DIMSCALE
 40
1.0
  9
$DIMASZ
 40
0.18
  9
$DIMEXO
 40
0.0625
  9
$DIMDLI
 40
0.38
  9
$DIMRND
 40
0.0
  9
$DIMDLE
 40
0.0
  9
$DIMEXE
 40
0.18
  9
$DIMTP
 40
0.0
  9
$DIMTM
 40
0.0
  9
$DIMTXT
 40
0.18
  9
$DIMCEN
 40
0.09
  9
$DIMTSZ
 40
0.0
  9
$DIMTOL
 70
     0
  9
$DIMLIM
 70
     0
  9
$DIMTIH
 70
     1
  9
$DIMTOH
 70
     1
  9
$DIMSE1
 70
     0
  9
$DIMSE2
 70
     0
  9
$DIMTAD
 70
     0
  9
$DIMZIN
 70
     0
  9
$DIMBLK
  1

  9
$DIMASO
 70
     1
  9
$DIMSHO
 70
     1
  9
$DIMPOST
  1

  9
$DIMAPOST
  1

  9
$DIMALT
 70
     0
  9
$DIMALTD
 70
     2
  9
$DIMALTF
 40
25.4
  9
$DIMLFAC
 40
1.0
  9
$DIMTOFL
 70
     0
  9
$DIMTVP
 40
0.0
  9
$DIMTIX
 70
     0
  9
$DIMSOXD
 70
     0
  9
$DIMSAH
 70
     0
  9
$DIMBLK1
  1

  9
$DIMBLK2
  1

  9
$DIMSTYLE
  2
Standard
  9
$DIMCLRD
 70
     0
  9
$DIMCLRE
 70
     0
  9
$DIMCLRT
 70
     0
  9
$DIMTFAC
 40
1.0
  9
$DIMGAP
 40
0.09
  9
$DIMJUST
 70
     0
  9
$DIMSD1
 70
     0
  9
$DIMSD2
 70
     0
  9
$DIMTOLJ
 70
     1
  9
$DIMTZIN
 70
     0
  9
$DIMALTZ
 70
     0
  9
$DIMALTTZ
 70
     0
  9
$DIMUPT
 70
     0
  9
$DIMDEC
 70
     4
  9
$DIMTDEC
 70
     4
  9
$DIMALTU
 70
     2
  9
$DIMALTTD
 70
     2
  9
$DIMTXSTY
  7
Standard
  9
$DIMAUNIT
 70
     0
  9
$DIMADEC
 70
     0
  9
$DIMALTRND
 40
0.0
  9
$DIMAZIN
 70
     0
  9
$DIMDSEP
 70
    46
  9
$DIMATFIT
 70
     3
  9
$DIMFRAC
 70
     0
  9
$DIMLDRBLK
  1

  9
$DIMLUNIT
 70
     2
  9
$DIMLWD
 70
    -2
  9
$DIMLWE
 70
    -2
  9
$DIMTMOVE
 70
     0
  9
$DIMFXL
 40
1.0
  9
$DIMFXLON
 70
     0
  9
$DIMJOGANG
 40
0.7853981633974483
  9
$DIMTFILL
 70
     0
  9
$DIMTFILLCLR
 70
     0
  9
$DIMARCSYM
 70
     0
  9
$DIMLTYPE
  6

  9
$DIMLTEX1
  6

  9
$DIMLTEX2
  6

  9
$DIMTXTDIRECTION
 70
     0
  9
$LUNITS
 70
     2
  9
$LUPREC
 70
     4
  9
$SKETCHINC
 40
0.1
  9
$FILLETRAD
 40
0.0
  9
$AUNITS
 70
     0
  9
$AUPREC
 70
     0
  9
$MENU
  1
.
  9
$ELEVATION
 40
0.0
  9
$PELEVATION
 40
0.0
  9
$THICKNESS
 40
0.0
  9
$LIMCHECK
 70
     0
  9
$CHAMFERA
 40
0.0
  9
$CHAMFERB
 40
0.0
  9
$CHAMFERC
 40
0.0
  9
$CHAMFERD
 40
0.0
  9
$SKPOLY
 70
     0
  9
$TDCREATE
 40
2459569.503483796
  9
$TDUCREATE
 40
2459569.128483797
  9
$TDUPDATE
 40
2459569.503483796
  9
$TDUUPDATE
 40
2459569.128483797
  9
$TDINDWG
 40
0.0000000000
  9
$TDUSRTIMER
 40
0.0000000000
  9
$USRTIMER
 70
     1
  9
$ANGBASE
 50
0.0
  9
$ANGDIR
 70
     0
  9
$PDMODE
 70
     0
  9
$PDSIZE
 40
0.0
  9
$PLINEWID
 40
0.0
  9
$SPLFRAME
 70
     0
  9
$SPLINETYPE
 70
     6
  9
$SPLINESEGS
 70
     8
  9
$HANDSEED
  5
153
  9
$SURFTAB1
 70
     6
  9
$SURFTAB2
 70
     6
  9
$SURFTYPE
 70
     6
  9
$SURFU
 70
     6
  9
$SURFV
 70
     6
  9
$UCSBASE
  2

  9
$UCSNAME
  2

  9
$UCSORG
 10
0.0
 20
0.0
 30
0.0
  9
$UCSXDIR
 10
1.0
 20
0.0
 30
0.0
  9
$UCSYDIR
 10
0.0
 20
1.0
 30
0.0
  9
$UCSORTHOREF
  2

  9
$UCSORTHOVIEW
 70
     0
  9
$UCSORGTOP
 10
0.0
 20
0.0
 30
0.0
  9
$UCSORGBOTTOM
 10
0.0
 20
0.0
 30
0.0
  9
$UCSORGLEFT
 10
0.0
 20
0.0
 30
0.0
  9
$UCSORGRIGHT
 10
0.0
 20
0.0
 30
0.0
  9
$UCSORGFRONT
 10
0.0
 20
0.0
 30
0.0
  9
$UCSORGBACK
 10
0.0
 20
0.0
 30
0.0
  9
$PUCSBASE
  2

  9
$PUCSNAME
  2

  9
$PUCSORG
 10
0.0
 20
0.0
 30
0.0
  9
$PUCSXDIR
 10
1.0
 20
0.0
 30
0.0
  9
$PUCSYDIR
 10
0.0
 20
1.0
 30
0.0
  9
$PUCSORTHOREF
  2

  9
$PUCSORTHOVIEW
 70
     0
  9
$PUCSORGTOP
 10
0.0
 20
0.0
 30
0.0
  9
$PUCSORGBOTTOM
 10
0.0
 20
0.0
 30
0.0
  9
$PUCSORGLEFT
 10
0.0
 20
0.0
 30
0.0
  9
$PUCSORGRIGHT
 10
0.0
 20
0.0
 30
0.0
  9
$PUCSORGFRONT
 10
0.0
 20
0.0
 30
0.0
  9
$PUCSORGBACK
 10
0.0
 20
0.0
 30
0.0
  9
$USERI1
 70
     0
  9
$USERI2
 70
     0
  9
$USERI3
 70
     0
  9
$USERI4
 70
     0
  9
$USERI5
 70
     0
  9
$USERR1
 40
0.0
  9
$USERR2
 40
0.0
  9
$USERR3
 40
0.0
  9
$USERR4
 40
0.0
  9
$USERR5
 40
0.0
  9
$WORLDVIEW
 70
     1
  9
$SHADEDGE
 70
     3
  9
$SHADEDIF
 70
    70
  9
$TILEMODE
 70
     1
  9
$MAXACTVP
 70
    64
  9
$PINSBASE
 10
0.0
 20
0.0
 30
0.0
  9
$PLIMCHECK
 70
     0
  9
$PEXTMIN
 10
1.000000000000000E+20
 20
1.000000000000000E+20
 30
1.000000000000000E+20
  9
$PEXTMAX
 10
-1.000000000000000E+20
 20
-1.000000000000000E+20
 30
-1.000000000000000E+20
  9
$PLIMMIN
 10
0.0
 20
0.0
  9
$PLIMMAX
 10
12.0
 20
9.0
  9
$UNITMODE
 70
     0
  9
$VISRETAIN
 70
     1
  9
$PLINEGEN
 70
     0
  9
$PSLTSCALE
 70
     1
  9
$TREEDEPTH
 70
  3020
  9
$CMLSTYLE
  2
Standard
  9
$CMLJUST
 70
     0
  9
$CMLSCALE
 40
1.0
  9
$PROXYGRAPHICS
 70
     1
  9
$MEASUREMENT
 70
     0
  9
$CELWEIGHT
370
    -1
  9
$ENDCAPS
280
     0
  9
$JOINSTYLE
280
     0
  9
$LWDISPLAY
290
     1
  9
$INSUNITS
 70
     4
  9
$HYPERLINKBASE
  1

  9
$STYLESHEET
  1

  9
$XEDIT
290
     1
  9
$CEPSNTYPE
380
     0
  9
$PSTYLEMODE
290
     1
  9
$FINGERPRINTGUID
  2
{6434630C-F5AD-0A4C-91C2-C8123608DEB5}
  9
$VERSIONGUID
  2
{97489D91-243C-CF49-891F-BF076E2CDC66}
  9
$EXTNAMES
290
     1
  9
$PSVPSCALE
 40
0.0
  9
$OLESTARTUP
290
     0
  9
$SORTENTS
280
   127
  9
$INDEXCTL
280
     0
  9
$HIDETEXT
280
     1
  9
$XCLIPFRAME
280
     2
  9
$HALOGAP
280
     0
  9
$OBSCOLOR
 70
   257
  9
$OBSLTYPE
280
     0
  9
$INTERSECTIONDISPLAY
280
     0
  9
$INTERSECTIONCOLOR
 70
   257
  9
$DIMASSOC
280
     2
  9
$PROJECTNAME
  1

  9
$CAMERADISPLAY
290
     0
  9
$LENSLENGTH
 40
50.0
  9
$CAMERAHEIGHT
 40
0.0
  9
$STEPSPERSEC
 40
2.0
  9
$STEPSIZE
 40
6.0
  9
$3DDWFPREC
 40
2.0
  9
$PSOLWIDTH
 40
0.25
  9
$PSOLHEIGHT
 40
4.0
  9
$LOFTANG1
 40
1.570796326794896
  9
$LOFTANG2
 40
1.570796326794896
  9
$LOFTMAG1
 40
0.0
  9
$LOFTMAG2
 40
0.0
  9
$LOFTPARAM
 70
     7
  9
$LOFTNORMALS
280
     1
  9
$LATITUDE
 40
37.795
  9
$LONGITUDE
 40
-122.394
  9
$NORTHDIRECTION
 40
0.0
  9
$TIMEZONE
 70
 -8000
  9
$LIGHTGLYPHDISPLAY
280
     1
  9
$TILEMODELIGHTSYNCH
280
     1
  9
$CMATERIAL
347
11
  9
$SOLIDHIST
280
     0
  9
$SHOWHIST
280
     1
  9
$DWFFRAME
280
     2
  9
$DGNFRAME
280
     0
  9
$REALWORLDSCALE
290
     1
  9
$INTERFERECOLOR
 62
     1
  9
$INTERFEREOBJVS
345
33
  9
$INTERFEREVPVS
346
30
  9
$CSHADOW
280
     0
  9
$SHADOWPLANELOCATION
 40
0.0
  0
ENDSEC
  0
SECTION
  2
CLASSES
  0
CLASS
  1
ACDBDICTIONARYWDFLT
  2
AcDbDictionaryWithDefault
  3
ObjectDBX Classes
 90
        0
 91
        1
280
     0
281
     0
  0
CLASS
  1
MATERIAL
  2
AcDbMaterial
  3
ObjectDBX Classes
 90
     1153
 91
        3
280
     0
281
     0
  0
CLASS
  1
VISUALSTYLE
  2
AcDbVisualStyle
  3
ObjectDBX Classes
 90
     4095
 91
       24
280
     0
281
     0
  0
CLASS
  1
SCALE
  2
AcDbScale
  3
ObjectDBX Classes
 90
     1153
 91
       17
280
     0
281
     0
  0
CLASS
  1
TABLESTYLE
  2
AcDbTableStyle
  3
ObjectDBX Classes
 90
     4095
 91
        1
280
     0
281
     0
  0
CLASS
  1
MLEADERSTYLE
  2
AcDbMLeaderStyle
  3
ACDB_MLEADERSTYLE_CLASS
 90
     4095
 91
        1
280
     0
281
     0
  0
CLASS
  1
ACDBSECTIONVIEWSTYLE
  2
AcDbSectionViewStyle
  3
ObjectDBX Classes
 90
     1025
 91
        1
280
     0
281
     0
  0
CLASS
  1
ACDBDETAILVIEWSTYLE
  2
AcDbDetailViewStyle
  3
ObjectDBX Classes
 90
     1025
 91
        1
280
     0
281
     0
  0
CLASS
  1
DICTIONARYVAR
  2
AcDbDictionaryVar
  3
ObjectDBX Classes
 90
        0
 91
        5
280
     0
281
     0
  0
CLASS
  1
CELLSTYLEMAP
  2
AcDbCellStyleMap
  3
ObjectDBX Classes
 90
     1152
 91
        1
280
     0
281
     0
  0
ENDSEC
  0
SECTION
  2
TABLES
  0
TABLE
  2
VPORT
  5
8
330
0
100
AcDbSymbolTable
 70
     1
  0
VPORT
  5
57
330
8
100
AcDbSymbolTableRecord
100
AcDbViewportTableRecord
  2
*Active
 70
     0
 10
0.0
 20
0.0
 11
1.0
 21
1.0
 12
0.0
 22
0.0
 13
0.0
 23
0.0
 14
1.0
 24
1.0
 15
0.0
 25
0.0
 16
0.0
 26
0.0
 36
1.0
 17
104.9999999737534
 27
-148.4999999628701
 37
0.0
 40
302.939999924255
 41
0.7070707070707534
 42
50.0
 43
0.0
 44
0.0
 50
0.0
 51
0.0
 71
     0
 72
   100
 73
     1
 74
     0
 75
     1
 76
     0
 77
     0
 78
     0
281
     0
 65
     1
110
0.0
120
0.0
130
0.0
111
1.0
121
0.0
131
0.0
112
0.0
122
1.0
132
0.0
 79
     0
146
0.0
 60
     3
 61
     5
292
     1
282
     1
141
0.0
142
0.0
 63
   250
421
  3355443
  0
ENDTAB
  0
TABLE
  2
LTYPE
  5
5
330
0
100
AcDbSymbolTable
 70
     3
  0
LTYPE
  5
5B
330
5
100
AcDbSymbolTableRecord
100
AcDbLinetypeTableRecord
  2
ByBlock
 70
     0
  3

 72
    65
 73
     0
 40
0.0
  0
LTYPE
  5
5C
330
5
100
AcDbSymbolTableRecord
100
AcDbLinetypeTableRecord
  2
ByLayer
 70
     0
  3

 72
    65
 73
     0
 40
0.0
  0
LTYPE
  5
5D
330
5
100
AcDbSymbolTableRecord
100
AcDbLinetypeTableRecord
  2
Continuous
 70
     0
  3
Solid line
 72
    65
 73
     0
 40
0.0
  0
LTYPE
  5
82
330
5
100
AcDbSymbolTableRecord
100
AcDbLinetypeTableRecord
  2
AI-Linetype-0
 70
     0
  3
Adobe Illustrator Linetype No. 0
 72
    65
 73
     2
 40
1.411111110758333
 49
0.7055555553791667
 74
     0
 49
-0.7055555553791667
 74
     0
  0
LTYPE
  5
84
330
5
100
AcDbSymbolTableRecord
100
AcDbLinetypeTableRecord
  2
AI-Linetype-1
 70
     0
  3
Adobe Illustrator Linetype No. 1
 72
    65
 73
     2
 40
1.411111110758333
 49
0.7055555553791667
 74
     0
 49
-0.7055555553791667
 74
     0
  0
ENDTAB
  0
TABLE
  2
LAYER
  5
2
330
0
100
AcDbSymbolTable
 70
     2
  0
LAYER
  5
54
330
2
100
AcDbSymbolTableRecord
100
AcDbLayerTableRecord
  2
0
 70
     0
 62
     7
  6
Continuous
370
    -3
390
F
347
21
  0
LAYER
  5
78
330
2
100
AcDbSymbolTableRecord
100
AcDbLayerTableRecord
  2
レイヤー 1
 70
     0
 62
     7
  6
Continuous
370
     0
390
F
347
21
  0
ENDTAB
  0
TABLE
  2
STYLE
  5
3
330
0
100
AcDbSymbolTable
 70
     2
  0
STYLE
  5
55
330
3
100
AcDbSymbolTableRecord
100
AcDbTextStyleTableRecord
  2
Standard
 70
     0
 40
0.0
 41
1.0
 50
0.0
 71
     0
 42
0.2
  3
txt
  4

  0
STYLE
  5
5A
330
3
100
AcDbSymbolTableRecord
100
AcDbTextStyleTableRecord
  2
Annotative
 70
     0
 40
0.0
 41
1.0
 50
0.0
 71
     0
 42
0.2
  3
txt
  4

1001
AcadAnnotative
1000
AnnotativeData
1002
{
1070
     1
1070
     1
1002
}
  0
ENDTAB
  0
TABLE
  2
VIEW
  5
6
330
0
100
AcDbSymbolTable
 70
     0
  0
ENDTAB
  0
TABLE
  2
UCS
  5
7
330
0
100
AcDbSymbolTable
 70
     0
  0
ENDTAB
  0
TABLE
  2
APPID
  5
9
330
0
100
AcDbSymbolTable
 70
     2
  0
APPID
  5
56
330
9
100
AcDbSymbolTableRecord
100
AcDbRegAppTableRecord
  2
ACAD
 70
     0
  0
APPID
  5
5E
330
9
100
AcDbSymbolTableRecord
100
AcDbRegAppTableRecord
  2
AcadAnnotative
 70
     0
  0
ENDTAB
  0
TABLE
  2
DIMSTYLE
  5
A
330
0
100
AcDbSymbolTable
 70
     2
100
AcDbDimStyleTable
 71
     0
  0
DIMSTYLE
105
58
330
A
100
AcDbSymbolTableRecord
100
AcDbDimStyleTableRecord
  2
Standard
 70
     0
340
55
  0
DIMSTYLE
105
59
330
A
100
AcDbSymbolTableRecord
100
AcDbDimStyleTableRecord
  2
Annotative
 70
     0
340
55
1001
AcadAnnotative
1000
AnnotativeData
1002
{
1070
     1
1070
     1
1002
}
  0
ENDTAB
  0
TABLE
  2
BLOCK_RECORD
  5
1
330
0
100
AcDbSymbolTable
 70
    16
  0
BLOCK_RECORD
  5
70
330
1
100
AcDbSymbolTableRecord
100
AcDbBlockTableRecord
  2
*Model_Space
340
73
 70
     0
280
     1
281
     0
  0
BLOCK_RECORD
  5
6C
330
1
100
AcDbSymbolTableRecord
100
AcDbBlockTableRecord
  2
*Paper_Space
340
6F
 70
     0
280
     1
281
     0
  0
BLOCK_RECORD
  5
74
330
1
100
AcDbSymbolTableRecord
100
AcDbBlockTableRecord
  2
*Paper_Space0
340
77
 70
     0
280
     1
281
     0
  0
BLOCK_RECORD
  5
8D
330
1
100
AcDbSymbolTableRecord
100
AcDbBlockTableRecord
  2
Block_0
340
0
102
{BLKREFS
331
8E
102
}
 70
     0
280
     1
281
     0
  0
BLOCK_RECORD
  5
93
330
1
100
AcDbSymbolTableRecord
100
AcDbBlockTableRecord
  2
Block_1
340
0
102
{BLKREFS
331
94
102
}
 70
     0
280
     1
281
     0
  0
BLOCK_RECORD
  5
97
330
1
100
AcDbSymbolTableRecord
100
AcDbBlockTableRecord
  2
Block_2
340
0
102
{BLKREFS
331
98
102
}
 70
     0
280
     1
281
     0
  0
BLOCK_RECORD
  5
9F
330
1
100
AcDbSymbolTableRecord
100
AcDbBlockTableRecord
  2
Block_3
340
0
102
{BLKREFS
331
A0
102
}
 70
     0
280
     1
281
     0
  0
BLOCK_RECORD
  5
A7
330
1
100
AcDbSymbolTableRecord
100
AcDbBlockTableRecord
  2
Block_4
340
0
102
{BLKREFS
331
A8
102
}
 70
     0
280
     1
281
     0
  0
BLOCK_RECORD
  5
AB
330
1
100
AcDbSymbolTableRecord
100
AcDbBlockTableRecord
  2
Block_5
340
0
102
{BLKREFS
331
AC
102
}
 70
     0
280
     1
281
     0
  0
BLOCK_RECORD
  5
B6
330
1
100
AcDbSymbolTableRecord
100
AcDbBlockTableRecord
  2
Block_6
340
0
102
{BLKREFS
331
B7
102
}
 70
     0
280
     1
281
     0
  0
BLOCK_RECORD
  5
BE
330
1
100
AcDbSymbolTableRecord
100
AcDbBlockTableRecord
  2
Block_7
340
0
102
{BLKREFS
331
BF
102
}
 70
     0
280
     1
281
     0
  0
BLOCK_RECORD
  5
C2
330
1
100
AcDbSymbolTableRecord
100
AcDbBlockTableRecord
  2
Block_8
340
0
102
{BLKREFS
331
C3
102
}
 70
     0
280
     1
281
     0
  0
BLOCK_RECORD
  5
D1
330
1
100
AcDbSymbolTableRecord
100
AcDbBlockTableRecord
  2
Block_9
340
0
102
{BLKREFS
331
D2
102
}
 70
     0
280
     1
281
     0
  0
BLOCK_RECORD
  5
D8
330
1
100
AcDbSymbolTableRecord
100
AcDbBlockTableRecord
  2
Block_10
340
0
102
{BLKREFS
331
D9
102
}
 70
     0
280
     1
281
     0
  0
BLOCK_RECORD
  5
DE
330
1
100
AcDbSymbolTableRecord
100
AcDbBlockTableRecord
  2
Block_11
340
0
102
{BLKREFS
331
DF
102
}
 70
     0
280
     1
281
     0
  0
BLOCK_RECORD
  5
E2
330
1
100
AcDbSymbolTableRecord
100
AcDbBlockTableRecord
  2
Block_12
340
0
102
{BLKREFS
331
E3
102
}
 70
     0
280
     1
281
     0
  0
BLOCK_RECORD
  5
EE
330
1
100
AcDbSymbolTableRecord
100
AcDbBlockTableRecord
  2
Block_13
340
0
102
{BLKREFS
331
EF
102
}
 70
     0
280
     1
281
     0
  0
BLOCK_RECORD
  5
F2
330
1
100
AcDbSymbolTableRecord
100
AcDbBlockTableRecord
  2
Block_14
340
0
102
{BLKREFS
331
F3
102
}
 70
     0
280
     1
281
     0
  0
ENDTAB
  0
ENDSEC
  0
SECTION
  2
BLOCKS
  0
BLOCK
  5
71
330
70
100
AcDbEntity
  8
0
100
AcDbBlockBegin
  2
*Model_Space
 70
     0
 10
0.0
 20
0.0
 30
0.0
  3
*Model_Space
  1

  0
ENDBLK
  5
72
330
70
100
AcDbEntity
  8
0
100
AcDbBlockEnd
  0
BLOCK
  5
6D
330
6C
100
AcDbEntity
 67
     1
  8
0
100
AcDbBlockBegin
  2
*Paper_Space
 70
     0
 10
0.0
 20
0.0
 30
0.0
  3
*Paper_Space
  1

  0
ENDBLK
  5
6E
330
6C
100
AcDbEntity
 67
     1
  8
0
100
AcDbBlockEnd
  0
BLOCK
  5
75
330
74
100
AcDbEntity
 67
     1
  8
0
100
AcDbBlockBegin
  2
*Paper_Space0
 70
     0
 10
0.0
 20
0.0
 30
0.0
  3
*Paper_Space0
  1

  0
ENDBLK
  5
76
330
74
100
AcDbEntity
 67
     1
  8
0
100
AcDbBlockEnd
  0
BLOCK
  5
8F
330
8D
100
AcDbEntity
  8
0
100
AcDbBlockBegin
  2
Block_0
 70
     0
 10
0.0
 20
0.0
 30
0.0
  3
Block_0
  1

  0
LINE
  5
91
330
8D
100
AcDbEntity
  8
レイヤー 1
 62
    18
420
        0
370
     9
100
AcDbLine
 10
101.2687588137649
 20
-159.4712410626297
 30
0.0
 11
118.2689394491479
 21
-159.4712410626297
 31
0.0
  0
LINE
  5
92
330
8D
100
AcDbEntity
  8
レイヤー 1
 62
    18
420
        0
370
     9
100
AcDbLine
 10
118.2689394491479
 20
-157.311182784404
 30
0.0
 11
118.2689394491479
 21
-160.4717188148831
 31
0.0
  0
INSERT
  5
94
330
8D
100
AcDbEntity
  8
レイヤー 1
100
AcDbBlockReference
  2
Block_1
 10
0.0
 20
0.0
 30
0.0
  0
ENDBLK
  5
90
330
8D
100
AcDbEntity
  8
0
100
AcDbBlockEnd
  0
BLOCK
  5
95
330
93
100
AcDbEntity
  8
0
100
AcDbBlockBegin
  2
Block_1
 70
     0
 10
0.0
 20
0.0
 30
0.0
  3
Block_1
  1

  0
INSERT
  5
98
330
93
100
AcDbEntity
  8
レイヤー 1
100
AcDbBlockReference
  2
Block_2
 10
0.0
 20
0.0
 30
0.0
  0
ENDBLK
  5
96
330
93
100
AcDbEntity
  8
0
100
AcDbBlockEnd
  0
BLOCK
  5
99
330
97
100
AcDbEntity
  8
0
100
AcDbBlockBegin
  2
Block_2
 70
     0
 10
0.0
 20
0.0
 30
0.0
  3
Block_2
  1

  0
SPLINE
  5
9B
330
97
100
AcDbEntity
  8
レイヤー 1
100
AcDbSpline
210
0.0
220
0.0
230
1.0
 70
    11
 71
     3
 72
    26
 73
    22
 74
     0
 42
0.0000000001
 43
0.0000000001
 40
0.0
 40
0.0
 40
0.0
 40
0.0
 40
1.0
 40
1.0
 40
1.0
 40
2.0
 40
2.0
 40
2.0
 40
3.0
 40
3.0
 40
3.0
 40
4.0
 40
4.0
 40
4.0
 40
5.0
 40
5.0
 40
5.0
 40
6.0
 40
6.0
 40
6.0
 40
7.0
 40
7.0
 40
7.0
 40
7.0
 10
109.2346760794622
 20
-158.8254475514395
 30
0.0
 10
109.2346760794622
 20
-158.8254475514395
 30
0.0
 10
109.2346760794622
 20
-157.7212944484169
 30
0.0
 10
109.2346760794622
 20
-157.7212944484169
 30
0.0
 10
109.2346760794622
 20
-157.7212944484169
 30
0.0
 10
108.9532117783172
 20
-157.7212944484169
 30
0.0
 10
108.9532117783172
 20
-157.7212944484169
 30
0.0
 10
108.9532117783172
 20
-157.7212944484169
 30
0.0
 10
108.9532117783172
 20
-157.5731553425511
 30
0.0
 10
108.9532117783172
 20
-157.5731553425511
 30
0.0
 10
109.2363986272048
 20
-157.5583414319646
 30
0.0
 10
109.2760172252851
 20
-157.3953884155122
 30
0.0
 10
109.3011664223275
 20
-157.2810112454019
 30
0.0
 10
109.3011664223275
 20
-157.2810112454019
 30
0.0
 10
109.4258788788935
 20
-157.2810112454019
 30
0.0
 10
109.4258788788935
 20
-157.2810112454019
 30
0.0
 10
109.4258788788935
 20
-157.2810112454019
 30
0.0
 10
109.4258788788935
 20
-158.8254475514395
 30
0.0
 10
109.4258788788935
 20
-158.8254475514395
 30
0.0
 10
109.4258788788935
 20
-158.8254475514395
 30
0.0
 10
109.2346760794622
 20
-158.8254475514395
 30
0.0
 10
109.2346760794622
 20
-158.8254475514395
 30
0.0
  0
HATCH
  5
9C
330
97
100
AcDbEntity
  8
レイヤー 1
 62
    18
420
        0
440
 33554687
100
AcDbHatch
 10
0.0
 20
0.0
 30
0.0
210
0.0
220
0.0
230
1.0
  2
SOLID
 70
     1
 71
     1
 91
        1
 92
        1
 93
        1
 72
     4
 94
        3
 73
     0
 74
     0
 95
       26
 96
       22
 40
0.0
 40
0.0
 40
0.0
 40
0.0
 40
1.0
 40
1.0
 40
1.0
 40
2.0
 40
2.0
 40
2.0
 40
3.0
 40
3.0
 40
3.0
 40
4.0
 40
4.0
 40
4.0
 40
5.0
 40
5.0
 40
5.0
 40
6.0
 40
6.0
 40
6.0
 40
7.0
 40
7.0
 40
7.0
 40
7.0
 10
109.2346760794622
 20
-158.8254475514395
 10
109.2346760794622
 20
-158.8254475514395
 10
109.2346760794622
 20
-157.7212944484169
 10
109.2346760794622
 20
-157.7212944484169
 10
109.2346760794622
 20
-157.7212944484169
 10
108.9532117783172
 20
-157.7212944484169
 10
108.9532117783172
 20
-157.7212944484169
 10
108.9532117783172
 20
-157.7212944484169
 10
108.9532117783172
 20
-157.5731553425511
 10
108.9532117783172
 20
-157.5731553425511
 10
109.2363986272048
 20
-157.5583414319646
 10
109.2760172252851
 20
-157.3953884155122
 10
109.3011664223275
 20
-157.2810112454019
 10
109.3011664223275
 20
-157.2810112454019
 10
109.4258788788935
 20
-157.2810112454019
 10
109.4258788788935
 20
-157.2810112454019
 10
109.4258788788935
 20
-157.2810112454019
 10
109.4258788788935
 20
-158.8254475514395
 10
109.4258788788935
 20
-158.8254475514395
 10
109.4258788788935
 20
-158.8254475514395
 10
109.2346760794622
 20
-158.8254475514395
 10
109.2346760794622
 20
-158.8254475514395
 97
        0
 97
        1
330
9B
 75
     2
 76
     1
 98
        1
 10
0.0
 20
0.0
450
        0
451
        0
460
0.0
461
0.0
452
        0
462
0.0
453
        0
470

  0
SPLINE
  5
9D
330
97
100
AcDbEntity
  8
レイヤー 1
100
AcDbSpline
210
0.0
220
0.0
230
1.0
 70
     9
 71
     3
 72
    26
 73
    22
 74
     0
 42
0.0000000001
 43
0.0000000001
 40
0.0
 40
0.0
 40
0.0
 40
0.0
 40
1.0
 40
1.0
 40
1.0
 40
2.0
 40
2.0
 40
2.0
 40
3.0
 40
3.0
 40
3.0
 40
4.0
 40
4.0
 40
4.0
 40
5.0
 40
5.0
 40
5.0
 40
6.0
 40
6.0
 40
6.0
 40
7.0
 40
7.0
 40
7.0
 40
7.0
 10
110.2020588917203
 20
-158.8254475514395
 30
0.0
 10
110.2020588917203
 20
-158.8254475514395
 30
0.0
 10
110.0001762962847
 20
-158.8254475514395
 30
0.0
 10
110.0001762962847
 20
-158.8254475514395
 30
0.0
 10
110.0218803978417
 20
-158.5164224864126
 30
0.0
 10
110.1858669429396
 20
-157.998280125431
 30
0.0
 10
110.5320990392072
 20
-157.4925401081963
 30
0.0
 10
110.5320990392072
 20
-157.4925401081963
 30
0.0
 10
109.8179307451149
 20
-157.4925401081963
 30
0.0
 10
109.8179307451149
 20
-157.4925401081963
 30
0.0
 10
109.8179307451149
 20
-157.4925401081963
 30
0.0
 10
109.8179307451149
 20
-157.2810112454019
 30
0.0
 10
109.8179307451149
 20
-157.2810112454019
 30
0.0
 10
109.8179307451149
 20
-157.2810112454019
 30
0.0
 10
110.7339816346429
 20
-157.2810112454019
 30
0.0
 10
110.7339816346429
 20
-157.2810112454019
 30
0.0
 10
110.7339816346429
 20
-157.2810112454019
 30
0.0
 10
110.7339816346429
 20
-157.4925401081963
 30
0.0
 10
110.7339816346429
 20
-157.4925401081963
 30
0.0
 10
110.4583739958229
 20
-157.7826171480543
 30
0.0
 10
110.2309976937964
 20
-158.3748290619688
 30
0.0
 10
110.2020588917203
 20
-158.8254475514395
 30
0.0
  0
HATCH
  5
9E
330
97
100
AcDbEntity
  8
レイヤー 1
 62
    18
420
        0
440
 33554687
100
AcDbHatch
 10
0.0
 20
0.0
 30
0.0
210
0.0
220
0.0
230
1.0
  2
SOLID
 70
     1
 71
     1
 91
        1
 92
        1
 93
        1
 72
     4
 94
        3
 73
     0
 74
     0
 95
       26
 96
       22
 40
0.0
 40
0.0
 40
0.0
 40
0.0
 40
1.0
 40
1.0
 40
1.0
 40
2.0
 40
2.0
 40
2.0
 40
3.0
 40
3.0
 40
3.0
 40
4.0
 40
4.0
 40
4.0
 40
5.0
 40
5.0
 40
5.0
 40
6.0
 40
6.0
 40
6.0
 40
7.0
 40
7.0
 40
7.0
 40
7.0
 10
110.2020588917203
 20
-158.8254475514395
 10
110.2020588917203
 20
-158.8254475514395
 10
110.0001762962847
 20
-158.8254475514395
 10
110.0001762962847
 20
-158.8254475514395
 10
110.0218803978417
 20
-158.5164224864126
 10
110.1858669429396
 20
-157.998280125431
 10
110.5320990392072
 20
-157.4925401081963
 10
110.5320990392072
 20
-157.4925401081963
 10
109.8179307451149
 20
-157.4925401081963
 10
109.8179307451149
 20
-157.4925401081963
 10
109.8179307451149
 20
-157.4925401081963
 10
109.8179307451149
 20
-157.2810112454019
 10
109.8179307451149
 20
-157.2810112454019
 10
109.8179307451149
 20
-157.2810112454019
 10
110.7339816346429
 20
-157.2810112454019
 10
110.7339816346429
 20
-157.2810112454019
 10
110.7339816346429
 20
-157.2810112454019
 10
110.7339816346429
 20
-157.4925401081963
 10
110.7339816346429
 20
-157.4925401081963
 10
110.4583739958229
 20
-157.7826171480543
 10
110.2309976937964
 20
-158.3748290619688
 10
110.2020588917203
 20
-158.8254475514395
 97
        0
 97
        1
330
9D
 75
     2
 76
     1
 98
        1
 10
0.0
 20
0.0
450
        0
451
        0
460
0.0
461
0.0
452
        0
462
0.0
453
        0
470

  0
ENDBLK
  5
9A
330
97
100
AcDbEntity
  8
0
100
AcDbBlockEnd
  0
BLOCK
  5
A1
330
9F
100
AcDbEntity
  8
0
100
AcDbBlockBegin
  2
Block_3
 70
     0
 10
0.0
 20
0.0
 30
0.0
  3
Block_3
  1

  0
LINE
  5
A3
330
9F
100
AcDbEntity
  8
レイヤー 1
 62
    18
420
        0
370
     9
100
AcDbLine
 10
91.23663736102159
 20
-141.8716520671882
 30
0.0
 11
91.23663736102159
 21
-140.8711743149347
 31
0.0
  0
LINE
  5
A4
330
9F
100
AcDbEntity
  8
レイヤー 1
 62
    18
420
        0
370
     9
100
AcDbLine
 10
91.23663736102159
 20
-141.8716520671882
 30
0.0
 11
91.23663736102159
 21
-143.9710678469609
 31
0.0
  0
LINE
  5
A5
330
9F
100
AcDbEntity
  8
レイヤー 1
 62
    18
420
        0
370
     9
100
AcDbLine
 10
92.69667871266172
 20
-141.8716520671882
 30
0.0
 11
90.23690044208256
 21
-141.8716520671882
 31
0.0
  0
LINE
  5
A6
330
9F
100
AcDbEntity
  8
レイヤー 1
 62
    18
420
        0
370
     9
100
AcDbLine
 10
92.69667871266172
 20
-142.971295650245
 30
0.0
 11
90.23690044208256
 21
-142.971295650245
 31
0.0
  0
INSERT
  5
A8
330
9F
100
AcDbEntity
  8
レイヤー 1
100
AcDbBlockReference
  2
Block_4
 10
0.0
 20
0.0
 30
0.0
  0
ENDBLK
  5
A2
330
9F
100
AcDbEntity
  8
0
100
AcDbBlockEnd
  0
BLOCK
  5
A9
330
A7
100
AcDbEntity
  8
0
100
AcDbBlockBegin
  2
Block_4
 70
     0
 10
0.0
 20
0.0
 30
0.0
  3
Block_4
  1

  0
INSERT
  5
AC
330
A7
100
AcDbEntity
  8
レイヤー 1
100
AcDbBlockReference
  2
Block_5
 10
0.0
 20
0.0
 30
0.0
  0
ENDBLK
  5
AA
330
A7
100
AcDbEntity
  8
0
100
AcDbBlockEnd
  0
BLOCK
  5
AD
330
AB
100
AcDbEntity
  8
0
100
AcDbBlockBegin
  2
Block_5
 70
     0
 10
0.0
 20
0.0
 30
0.0
  3
Block_5
  1

  0
SPLINE
  5
AF
330
AB
100
AcDbEntity
  8
レイヤー 1
100
AcDbSpline
210
0.0
220
0.0
230
1.0
 70
    11
 71
     3
 72
    26
 73
    22
 74
     0
 42
0.0000000001
 43
0.0000000001
 40
0.0
 40
0.0
 40
0.0
 40
0.0
 40
1.0
 40
1.0
 40
1.0
 40
2.0
 40
2.0
 40
2.0
 40
3.0
 40
3.0
 40
3.0
 40
4.0
 40
4.0
 40
4.0
 40
5.0
 40
5.0
 40
5.0
 40
6.0
 40
6.0
 40
6.0
 40
7.0
 40
7.0
 40
7.0
 40
7.0
 10
90.59033607761284
 20
-141.1462510497829
 30
0.0
 10
90.59033607761284
 20
-141.1462510497829
 30
0.0
 10
89.48618297459026
 20
-141.1462510497829
 30
0.0
 10
89.48618297459026
 20
-141.1462510497829
 30
0.0
 10
89.48618297459026
 20
-141.1462510497829
 30
0.0
 10
89.48618297459026
 20
-141.4277153509278
 30
0.0
 10
89.48618297459026
 20
-141.4277153509278
 30
0.0
 10
89.48618297459026
 20
-141.4277153509278
 30
0.0
 10
89.33804386872452
 20
-141.4277153509278
 30
0.0
 10
89.33804386872452
 20
-141.4277153509278
 30
0.0
 10
89.32322995813795
 20
-141.1445285020402
 30
0.0
 10
89.16027694168562
 20
-141.1049099039598
 30
0.0
 10
89.04589977157533
 20
-141.0797607069175
 30
0.0
 10
89.04589977157533
 20
-141.0797607069175
 30
0.0
 10
89.04589977157533
 20
-140.9550482503515
 30
0.0
 10
89.04589977157533
 20
-140.9550482503515
 30
0.0
 10
89.04589977157533
 20
-140.9550482503515
 30
0.0
 10
90.59033607761284
 20
-140.9550482503515
 30
0.0
 10
90.59033607761284
 20
-140.9550482503515
 30
0.0
 10
90.59033607761284
 20
-140.9550482503515
 30
0.0
 10
90.59033607761284
 20
-141.1462510497829
 30
0.0
 10
90.59033607761284
 20
-141.1462510497829
 30
0.0
  0
HATCH
  5
B0
330
AB
100
AcDbEntity
  8
レイヤー 1
 62
    18
420
        0
440
 33554687
100
AcDbHatch
 10
0.0
 20
0.0
 30
0.0
210
0.0
220
0.0
230
1.0
  2
SOLID
 70
     1
 71
     1
 91
        1
 92
        1
 93
        1
 72
     4
 94
        3
 73
     0
 74
     0
 95
       26
 96
       22
 40
0.0
 40
0.0
 40
0.0
 40
0.0
 40
1.0
 40
1.0
 40
1.0
 40
2.0
 40
2.0
 40
2.0
 40
3.0
 40
3.0
 40
3.0
 40
4.0
 40
4.0
 40
4.0
 40
5.0
 40
5.0
 40
5.0
 40
6.0
 40
6.0
 40
6.0
 40
7.0
 40
7.0
 40
7.0
 40
7.0
 10
90.59033607761284
 20
-141.1462510497829
 10
90.59033607761284
 20
-141.1462510497829
 10
89.48618297459026
 20
-141.1462510497829
 10
89.48618297459026
 20
-141.1462510497829
 10
89.48618297459026
 20
-141.1462510497829
 10
89.48618297459026
 20
-141.4277153509278
 10
89.48618297459026
 20
-141.4277153509278
 10
89.48618297459026
 20
-141.4277153509278
 10
89.33804386872452
 20
-141.4277153509278
 10
89.33804386872452
 20
-141.4277153509278
 10
89.32322995813795
 20
-141.1445285020402
 10
89.16027694168562
 20
-141.1049099039598
 10
89.04589977157533
 20
-141.0797607069175
 10
89.04589977157533
 20
-141.0797607069175
 10
89.04589977157533
 20
-140.9550482503515
 10
89.04589977157533
 20
-140.9550482503515
 10
89.04589977157533
 20
-140.9550482503515
 10
90.59033607761284
 20
-140.9550482503515
 10
90.59033607761284
 20
-140.9550482503515
 10
90.59033607761284
 20
-140.9550482503515
 10
90.59033607761284
 20
-141.1462510497829
 10
90.59033607761284
 20
-141.1462510497829
 97
        0
 97
        1
330
AF
 75
     2
 76
     1
 98
        1
 10
0.0
 20
0.0
450
        0
451
        0
460
0.0
461
0.0
452
        0
462
0.0
453
        0
470

  0
SPLINE
  5
B1
330
AB
100
AcDbEntity
  8
レイヤー 1
100
AcDbSpline
210
0.0
220
0.0
230
1.0
 70
    11
 71
     3
 72
    17
 73
    13
 74
     0
 42
0.0000000001
 43
0.0000000001
 40
0.0
 40
0.0
 40
0.0
 40
0.0
 40
1.0
 40
1.0
 40
1.0
 40
2.0
 40
2.0
 40
2.0
 40
3.0
 40
3.0
 40
3.0
 40
4.0
 40
4.0
 40
4.0
 40
4.0
 10
90.59033607761284
 20
-140.4782470351929
 30
0.0
 10
90.59033607761284
 20
-140.4782470351929
 30
0.0
 10
90.33849959764108
 20
-140.4782470351929
 30
0.0
 10
90.33849959764108
 20
-140.4782470351929
 30
0.0
 10
90.33849959764108
 20
-140.4782470351929
 30
0.0
 10
90.33849959764108
 20
-140.2636175864619
 30
0.0
 10
90.33849959764108
 20
-140.2636175864619
 30
0.0
 10
90.33849959764108
 20
-140.2636175864619
 30
0.0
 10
90.59033607761284
 20
-140.2636175864619
 30
0.0
 10
90.59033607761284
 20
-140.2636175864619
 30
0.0
 10
90.59033607761284
 20
-140.2636175864619
 30
0.0
 10
90.59033607761284
 20
-140.4782470351929
 30
0.0
 10
90.59033607761284
 20
-140.4782470351929
 30
0.0
  0
HATCH
  5
B2
330
AB
100
AcDbEntity
  8
レイヤー 1
 62
    18
420
        0
440
 33554687
100
AcDbHatch
 10
0.0
 20
0.0
 30
0.0
210
0.0
220
0.0
230
1.0
  2
SOLID
 70
     1
 71
     1
 91
        1
 92
        1
 93
        1
 72
     4
 94
        3
 73
     0
 74
     0
 95
       17
 96
       13
 40
0.0
 40
0.0
 40
0.0
 40
0.0
 40
1.0
 40
1.0
 40
1.0
 40
2.0
 40
2.0
 40
2.0
 40
3.0
 40
3.0
 40
3.0
 40
4.0
 40
4.0
 40
4.0
 40
4.0
 10
90.59033607761284
 20
-140.4782470351929
 10
90.59033607761284
 20
-140.4782470351929
 10
90.33849959764108
 20
-140.4782470351929
 10
90.33849959764108
 20
-140.4782470351929
 10
90.33849959764108
 20
-140.4782470351929
 10
90.33849959764108
 20
-140.2636175864619
 10
90.33849959764108
 20
-140.2636175864619
 10
90.33849959764108
 20
-140.2636175864619
 10
90.59033607761284
 20
-140.2636175864619
 10
90.59033607761284
 20
-140.2636175864619
 10
90.59033607761284
 20
-140.2636175864619
 10
90.59033607761284
 20
-140.4782470351929
 10
90.59033607761284
 20
-140.4782470351929
 97
        0
 97
        1
330
B1
 75
     2
 76
     1
 98
        1
 10
0.0
 20
0.0
450
        0
451
        0
460
0.0
461
0.0
452
        0
462
0.0
453
        0
470

  0
SPLINE
  5
B3
330
AB
100
AcDbEntity
  8
レイヤー 1
100
AcDbSpline
210
0.0
220
0.0
230
1.0
 70
     9
 71
     3
 72
    17
 73
    13
 74
     0
 42
0.0000000001
 43
0.0000000001
 40
0.0
 40
0.0
 40
0.0
 40
0.0
 40
1.0
 40
1.0
 40
1.0
 40
2.0
 40
2.0
 40
2.0
 40
3.0
 40
3.0
 40
3.0
 40
4.0
 40
4.0
 40
4.0
 40
4.0
 10
89.18990476285877
 20
-139.6362656985979
 30
0.0
 10
89.18990476285877
 20
-139.8488280900378
 30
0.0
 10
89.47343612129484
 20
-139.8887911976667
 30
0.0
 10
89.81829017936835
 20
-139.8887911976667
 30
0.0
 10
90.137650530851
 20
-139.8887911976667
 30
0.0
 10
90.4463310863294
 20
-139.858129847848
 30
0.0
 10
90.4463310863294
 20
-139.6362656985979
 30
0.0
 10
90.4463310863294
 20
-139.425081345352
 30
0.0
 10
90.16521129473302
 20
-139.383740199529
 30
0.0
 10
89.81829017936835
 20
-139.383740199529
 30
0.0
 10
89.49858531833717
 20
-139.383740199529
 30
0.0
 10
89.18990476285877
 20
-139.4161240970904
 30
0.0
 10
89.18990476285877
 20
-139.6362656985979
 30
0.0
  0
SPLINE
  5
B4
330
AB
100
AcDbEntity
  8
レイヤー 1
100
AcDbSpline
210
0.0
220
0.0
230
1.0
 70
     9
 71
     3
 72
    29
 73
    25
 74
     0
 42
0.0000000001
 43
0.0000000001
 40
0.0
 40
0.0
 40
0.0
 40
0.0
 40
1.0
 40
1.0
 40
1.0
 40
2.0
 40
2.0
 40
2.0
 40
3.0
 40
3.0
 40
3.0
 40
4.0
 40
4.0
 40
4.0
 40
5.0
 40
5.0
 40
5.0
 40
6.0
 40
6.0
 40
6.0
 40
7.0
 40
7.0
 40
7.0
 40
8.0
 40
8.0
 40
8.0
 40
8.0
 10
90.41256915057394
 20
-139.2972683028493
 30
0.0
 10
90.62203095607713
 20
-139.3892523523055
 30
0.0
 10
90.640978981246
 20
-139.5370469486227
 30
0.0
 10
90.640978981246
 20
-139.6362656985979
 30
0.0
 10
90.640978981246
 20
-139.7733804989108
 30
0.0
 10
90.59447019219513
 20
-139.8939588408946
 30
0.0
 10
90.41256915057394
 20
-139.9752630943464
 30
0.0
 10
90.21792125565733
 20
-140.0634575387688
 30
0.0
 10
89.98089868627214
 20
-140.0796494875495
 30
0.0
 10
89.81829017936835
 20
-140.0796494875495
 30
0.0
 10
89.67428518808491
 20
-140.0796494875495
 30
0.0
 10
89.42244870811313
 20
-140.06552459606
 30
0.0
 10
89.22366669861423
 20
-139.9752630943464
 30
0.0
 10
89.020750574533
 20
-139.8832790448903
 30
0.0
 10
88.99732392523331
 20
-139.7461642445773
 30
0.0
 10
88.99732392523331
 20
-139.6362656985979
 30
0.0
 10
88.99732392523331
 20
-139.5008734460275
 30
0.0
 10
89.04176565699303
 20
-139.3782280467526
 30
0.0
 10
89.22366669861423
 20
-139.2972683028493
 30
0.0
 10
89.41624753623969
 20
-139.2125189539122
 30
0.0
 10
89.64465736691176
 20
-139.1925374000977
 30
0.0
 10
89.81829017936835
 20
-139.1925374000977
 30
0.0
 10
89.98951142498526
 20
-139.1925374000977
 30
0.0
 10
90.21998831294848
 20
-139.2107964061695
 30
0.0
 10
90.41256915057394
 20
-139.2972683028493
 30
0.0
  0
HATCH
  5
B5
330
AB
100
AcDbEntity
  8
レイヤー 1
 62
    18
420
        0
440
 33554687
100
AcDbHatch
 10
0.0
 20
0.0
 30
0.0
210
0.0
220
0.0
230
1.0
  2
SOLID
 70
     1
 71
     1
 91
        2
 92
        1
 93
        1
 72
     4
 94
        3
 73
     0
 74
     0
 95
       17
 96
       13
 40
0.0
 40
0.0
 40
0.0
 40
0.0
 40
1.0
 40
1.0
 40
1.0
 40
2.0
 40
2.0
 40
2.0
 40
3.0
 40
3.0
 40
3.0
 40
4.0
 40
4.0
 40
4.0
 40
4.0
 10
89.18990476285877
 20
-139.6362656985979
 10
89.18990476285877
 20
-139.8488280900378
 10
89.47343612129484
 20
-139.8887911976667
 10
89.81829017936835
 20
-139.8887911976667
 10
90.137650530851
 20
-139.8887911976667
 10
90.4463310863294
 20
-139.858129847848
 10
90.4463310863294
 20
-139.6362656985979
 10
90.4463310863294
 20
-139.425081345352
 10
90.16521129473302
 20
-139.383740199529
 10
89.81829017936835
 20
-139.383740199529
 10
89.49858531833717
 20
-139.383740199529
 10
89.18990476285877
 20
-139.4161240970904
 10
89.18990476285877
 20
-139.6362656985979
 97
        0
 97
        1
330
B3
 92
        1
 93
        1
 72
     4
 94
        3
 73
     0
 74
     0
 95
       29
 96
       25
 40
0.0
 40
0.0
 40
0.0
 40
0.0
 40
1.0
 40
1.0
 40
1.0
 40
2.0
 40
2.0
 40
2.0
 40
3.0
 40
3.0
 40
3.0
 40
4.0
 40
4.0
 40
4.0
 40
5.0
 40
5.0
 40
5.0
 40
6.0
 40
6.0
 40
6.0
 40
7.0
 40
7.0
 40
7.0
 40
8.0
 40
8.0
 40
8.0
 40
8.0
 10
90.41256915057394
 20
-139.2972683028493
 10
90.62203095607713
 20
-139.3892523523055
 10
90.640978981246
 20
-139.5370469486227
 10
90.640978981246
 20
-139.6362656985979
 10
90.640978981246
 20
-139.7733804989108
 10
90.59447019219513
 20
-139.8939588408946
 10
90.41256915057394
 20
-139.9752630943464
 10
90.21792125565733
 20
-140.0634575387688
 10
89.98089868627214
 20
-140.0796494875495
 10
89.81829017936835
 20
-140.0796494875495
 10
89.67428518808491
 20
-140.0796494875495
 10
89.42244870811313
 20
-140.06552459606
 10
89.22366669861423
 20
-139.9752630943464
 10
89.020750574533
 20
-139.8832790448903
 10
88.99732392523331
 20
-139.7461642445773
 10
88.99732392523331
 20
-139.6362656985979
 10
88.99732392523331
 20
-139.5008734460275
 10
89.04176565699303
 20
-139.3782280467526
 10
89.22366669861423
 20
-139.2972683028493
 10
89.41624753623969
 20
-139.2125189539122
 10
89.64465736691176
 20
-139.1925374000977
 10
89.81829017936835
 20
-139.1925374000977
 10
89.98951142498526
 20
-139.1925374000977
 10
90.21998831294848
 20
-139.2107964061695
 10
90.41256915057394
 20
-139.2972683028493
 97
        0
 97
        1
330
B4
 75
     2
 76
     1
 98
        1
 10
0.0
 20
0.0
450
        0
451
        0
460
0.0
461
0.0
452
        0
462
0.0
453
        0
470

  0
ENDBLK
  5
AE
330
AB
100
AcDbEntity
  8
0
100
AcDbBlockEnd
  0
BLOCK
  5
B8
330
B6
100
AcDbEntity
  8
0
100
AcDbBlockBegin
  2
Block_6
 70
     0
 10
0.0
 20
0.0
 30
0.0
  3
Block_6
  1

  0
LINE
  5
BA
330
B6
100
AcDbEntity
  8
レイヤー 1
 62
    18
420
        0
370
     9
100
AcDbLine
 10
122.2686985137722
 20
-154.7714650714199
 30
0.0
 11
122.2686985137722
 21
-155.7712372681358
 31
0.0
  0
LINE
  5
BB
330
B6
100
AcDbEntity
  8
レイヤー 1
 62
    18
420
        0
370
     9
100
AcDbLine
 10
122.2686985137722
 20
-154.3718384149485
 30
0.0
 11
122.2686985137722
 21
-154.7714650714199
 31
0.0
  0
LINE
  5
BC
330
B6
100
AcDbEntity
  8
レイヤー 1
 62
    18
420
        0
370
     9
100
AcDbLine
 10
120.808657162132
 20
-154.3718384149485
 30
0.0
 11
123.2684707104881
 21
-154.3718384149485
 31
0.0
  0
LINE
  5
BD
330
B6
100
AcDbEntity
  8
レイヤー 1
 62
    18
420
        0
370
     9
100
AcDbLine
 10
120.808657162132
 20
-154.7714650714199
 30
0.0
 11
123.2684707104881
 21
-154.7714650714199
 31
0.0
  0
INSERT
  5
BF
330
B6
100
AcDbEntity
  8
レイヤー 1
100
AcDbBlockReference
  2
Block_7
 10
0.0
 20
0.0
 30
0.0
  0
ENDBLK
  5
B9
330
B6
100
AcDbEntity
  8
0
100
AcDbBlockEnd
  0
BLOCK
  5
C0
330
BE
100
AcDbEntity
  8
0
100
AcDbBlockBegin
  2
Block_7
 70
     0
 10
0.0
 20
0.0
 30
0.0
  3
Block_7
  1

  0
INSERT
  5
C3
330
BE
100
AcDbEntity
  8
レイヤー 1
100
AcDbBlockReference
  2
Block_8
 10
0.0
 20
0.0
 30
0.0
  0
ENDBLK
  5
C1
330
BE
100
AcDbEntity
  8
0
100
AcDbBlockEnd
  0
BLOCK
  5
C4
330
C2
100
AcDbEntity
  8
0
100
AcDbBlockBegin
  2
Block_8
 70
     0
 10
0.0
 20
0.0
 30
0.0
  3
Block_8
  1

  0
SPLINE
  5
C6
330
C2
100
AcDbEntity
  8
レイヤー 1
100
AcDbSpline
210
0.0
220
0.0
230
1.0
 70
     9
 71
     3
 72
    17
 73
    13
 74
     0
 42
0.0000000001
 43
0.0000000001
 40
0.0
 40
0.0
 40
0.0
 40
0.0
 40
1.0
 40
1.0
 40
1.0
 40
2.0
 40
2.0
 40
2.0
 40
3.0
 40
3.0
 40
3.0
 40
4.0
 40
4.0
 40
4.0
 40
4.0
 10
119.6126817192288
 20
-155.330053672105
 30
0.0
 10
119.6126817192288
 20
-155.5426160635449
 30
0.0
 10
119.8962130776648
 20
-155.5825791711738
 30
0.0
 10
120.2410671357383
 20
-155.5825791711738
 30
0.0
 10
120.560427487221
 20
-155.5825791711738
 30
0.0
 10
120.8691080426994
 20
-155.5519178213551
 30
0.0
 10
120.8691080426994
 20
-155.330053672105
 30
0.0
 10
120.8691080426994
 20
-155.1188693188591
 30
0.0
 10
120.587988251103
 20
-155.0775281730361
 30
0.0
 10
120.2410671357383
 20
-155.0775281730361
 30
0.0
 10
119.9213622747071
 20
-155.0775281730361
 30
0.0
 10
119.6126817192288
 20
-155.1099120705975
 30
0.0
 10
119.6126817192288
 20
-155.330053672105
 30
0.0
  0
SPLINE
  5
C7
330
C2
100
AcDbEntity
  8
レイヤー 1
100
AcDbSpline
210
0.0
220
0.0
230
1.0
 70
     9
 71
     3
 72
    29
 73
    25
 74
     0
 42
0.0000000001
 43
0.0000000001
 40
0.0
 40
0.0
 40
0.0
 40
0.0
 40
1.0
 40
1.0
 40
1.0
 40
2.0
 40
2.0
 40
2.0
 40
3.0
 40
3.0
 40
3.0
 40
4.0
 40
4.0
 40
4.0
 40
5.0
 40
5.0
 40
5.0
 40
6.0
 40
6.0
 40
6.0
 40
7.0
 40
7.0
 40
7.0
 40
8.0
 40
8.0
 40
8.0
 40
8.0
 10
120.8353461069439
 20
-154.9910562763564
 30
0.0
 10
121.0448079124471
 20
-155.0830403258126
 30
0.0
 10
121.063755937616
 20
-155.2308349221298
 30
0.0
 10
121.063755937616
 20
-155.330053672105
 30
0.0
 10
121.063755937616
 20
-155.4671684724179
 30
0.0
 10
121.0172471485651
 20
-155.5877468144016
 30
0.0
 10
120.8353461069439
 20
-155.6690510678536
 30
0.0
 10
120.6406982120273
 20
-155.7572455122759
 30
0.0
 10
120.4040201521906
 20
-155.7734374610566
 30
0.0
 10
120.2410671357383
 20
-155.7734374610566
 30
0.0
 10
120.0970621444549
 20
-155.7734374610566
 30
0.0
 10
119.8452256644831
 20
-155.7593125695671
 30
0.0
 10
119.6464436549842
 20
-155.6690510678536
 30
0.0
 10
119.443527530903
 20
-155.5770670183974
 30
0.0
 10
119.4201008816033
 20
-155.4399522180844
 30
0.0
 10
119.4201008816033
 20
-155.330053672105
 30
0.0
 10
119.4201008816033
 20
-155.1946614195346
 30
0.0
 10
119.464542613363
 20
-155.0720160202598
 30
0.0
 10
119.6464436549842
 20
-154.9910562763564
 30
0.0
 10
119.8390244926097
 20
-154.9063069274192
 30
0.0
 10
120.0674343232817
 20
-154.8863253736048
 30
0.0
 10
120.2410671357383
 20
-154.8863253736048
 30
0.0
 10
120.4122883813552
 20
-154.8863253736048
 30
0.0
 10
120.6427652693184
 20
-154.9045843796766
 30
0.0
 10
120.8353461069439
 20
-154.9910562763564
 30
0.0
  0
HATCH
  5
C8
330
C2
100
AcDbEntity
  8
レイヤー 1
 62
    18
420
        0
440
 33554687
100
AcDbHatch
 10
0.0
 20
0.0
 30
0.0
210
0.0
220
0.0
230
1.0
  2
SOLID
 70
     1
 71
     1
 91
        2
 92
        1
 93
        1
 72
     4
 94
        3
 73
     0
 74
     0
 95
       17
 96
       13
 40
0.0
 40
0.0
 40
0.0
 40
0.0
 40
1.0
 40
1.0
 40
1.0
 40
2.0
 40
2.0
 40
2.0
 40
3.0
 40
3.0
 40
3.0
 40
4.0
 40
4.0
 40
4.0
 40
4.0
 10
119.6126817192288
 20
-155.330053672105
 10
119.6126817192288
 20
-155.5426160635449
 10
119.8962130776648
 20
-155.5825791711738
 10
120.2410671357383
 20
-155.5825791711738
 10
120.560427487221
 20
-155.5825791711738
 10
120.8691080426994
 20
-155.5519178213551
 10
120.8691080426994
 20
-155.330053672105
 10
120.8691080426994
 20
-155.1188693188591
 10
120.587988251103
 20
-155.0775281730361
 10
120.2410671357383
 20
-155.0775281730361
 10
119.9213622747071
 20
-155.0775281730361
 10
119.6126817192288
 20
-155.1099120705975
 10
119.6126817192288
 20
-155.330053672105
 97
        0
 97
        1
330
C6
 92
        1
 93
        1
 72
     4
 94
        3
 73
     0
 74
     0
 95
       29
 96
       25
 40
0.0
 40
0.0
 40
0.0
 40
0.0
 40
1.0
 40
1.0
 40
1.0
 40
2.0
 40
2.0
 40
2.0
 40
3.0
 40
3.0
 40
3.0
 40
4.0
 40
4.0
 40
4.0
 40
5.0
 40
5.0
 40
5.0
 40
6.0
 40
6.0
 40
6.0
 40
7.0
 40
7.0
 40
7.0
 40
8.0
 40
8.0
 40
8.0
 40
8.0
 10
120.8353461069439
 20
-154.9910562763564
 10
121.0448079124471
 20
-155.0830403258126
 10
121.063755937616
 20
-155.2308349221298
 10
121.063755937616
 20
-155.330053672105
 10
121.063755937616
 20
-155.4671684724179
 10
121.0172471485651
 20
-155.5877468144016
 10
120.8353461069439
 20
-155.6690510678536
 10
120.6406982120273
 20
-155.7572455122759
 10
120.4040201521906
 20
-155.7734374610566
 10
120.2410671357383
 20
-155.7734374610566
 10
120.0970621444549
 20
-155.7734374610566
 10
119.8452256644831
 20
-155.7593125695671
 10
119.6464436549842
 20
-155.6690510678536
 10
119.443527530903
 20
-155.5770670183974
 10
119.4201008816033
 20
-155.4399522180844
 10
119.4201008816033
 20
-155.330053672105
 10
119.4201008816033
 20
-155.1946614195346
 10
119.464542613363
 20
-155.0720160202598
 10
119.6464436549842
 20
-154.9910562763564
 10
119.8390244926097
 20
-154.9063069274192
 10
120.0674343232817
 20
-154.8863253736048
 10
120.2410671357383
 20
-154.8863253736048
 10
120.4122883813552
 20
-154.8863253736048
 10
120.6427652693184
 20
-154.9045843796766
 10
120.8353461069439
 20
-154.9910562763564
 97
        0
 97
        1
330
C7
 75
     2
 76
     1
 98
        1
 10
0.0
 20
0.0
450
        0
451
        0
460
0.0
461
0.0
452
        0
462
0.0
453
        0
470

  0
SPLINE
  5
C9
330
C2
100
AcDbEntity
  8
レイヤー 1
100
AcDbSpline
210
0.0
220
0.0
230
1.0
 70
    11
 71
     3
 72
    17
 73
    13
 74
     0
 42
0.0000000001
 43
0.0000000001
 40
0.0
 40
0.0
 40
0.0
 40
0.0
 40
1.0
 40
1.0
 40
1.0
 40
2.0
 40
2.0
 40
2.0
 40
3.0
 40
3.0
 40
3.0
 40
4.0
 40
4.0
 40
4.0
 40
4.0
 10
121.0131130339828
 20
-154.703390803338
 30
0.0
 10
121.0131130339828
 20
-154.703390803338
 30
0.0
 10
120.761276554011
 20
-154.703390803338
 30
0.0
 10
120.761276554011
 20
-154.703390803338
 30
0.0
 10
120.761276554011
 20
-154.703390803338
 30
0.0
 10
120.761276554011
 20
-154.488761354607
 30
0.0
 10
120.761276554011
 20
-154.488761354607
 30
0.0
 10
120.761276554011
 20
-154.488761354607
 30
0.0
 10
121.0131130339828
 20
-154.488761354607
 30
0.0
 10
121.0131130339828
 20
-154.488761354607
 30
0.0
 10
121.0131130339828
 20
-154.488761354607
 30
0.0
 10
121.0131130339828
 20
-154.703390803338
 30
0.0
 10
121.0131130339828
 20
-154.703390803338
 30
0.0
  0
HATCH
  5
CA
330
C2
100
AcDbEntity
  8
レイヤー 1
 62
    18
420
        0
440
 33554687
100
AcDbHatch
 10
0.0
 20
0.0
 30
0.0
210
0.0
220
0.0
230
1.0
  2
SOLID
 70
     1
 71
     1
 91
        1
 92
        1
 93
        1
 72
     4
 94
        3
 73
     0
 74
     0
 95
       17
 96
       13
 40
0.0
 40
0.0
 40
0.0
 40
0.0
 40
1.0
 40
1.0
 40
1.0
 40
2.0
 40
2.0
 40
2.0
 40
3.0
 40
3.0
 40
3.0
 40
4.0
 40
4.0
 40
4.0
 40
4.0
 10
121.0131130339828
 20
-154.703390803338
 10
121.0131130339828
 20
-154.703390803338
 10
120.761276554011
 20
-154.703390803338
 10
120.761276554011
 20
-154.703390803338
 10
120.761276554011
 20
-154.703390803338
 10
120.761276554011
 20
-154.488761354607
 10
120.761276554011
 20
-154.488761354607
 10
120.761276554011
 20
-154.488761354607
 10
121.0131130339828
 20
-154.488761354607
 10
121.0131130339828
 20
-154.488761354607
 10
121.0131130339828
 20
-154.488761354607
 10
121.0131130339828
 20
-154.703390803338
 10
121.0131130339828
 20
-154.703390803338
 97
        0
 97
        1
330
C9
 75
     2
 76
     1
 98
        1
 10
0.0
 20
0.0
450
        0
451
        0
460
0.0
461
0.0
452
        0
462
0.0
453
        0
470

  0
SPLINE
  5
CB
330
C2
100
AcDbEntity
  8
レイヤー 1
100
AcDbSpline
210
0.0
220
0.0
230
1.0
 70
    11
 71
     3
 72
    14
 73
    10
 74
     0
 42
0.0000000001
 43
0.0000000001
 40
0.0
 40
0.0
 40
0.0
 40
0.0
 40
1.0
 40
1.0
 40
1.0
 40
2.0
 40
2.0
 40
2.0
 40
3.0
 40
3.0
 40
3.0
 40
3.0
 10
119.8114637287277
 20
-153.7639132645104
 30
0.0
 10
119.8114637287277
 20
-153.7639132645104
 30
0.0
 10
120.4674099091192
 20
-154.1535535638921
 30
0.0
 10
120.4674099091192
 20
-154.1535535638921
 30
0.0
 10
120.4674099091192
 20
-154.1535535638921
 30
0.0
 10
120.4674099091192
 20
-153.7639132645104
 30
0.0
 10
120.4674099091192
 20
-153.7639132645104
 30
0.0
 10
120.4674099091192
 20
-153.7639132645104
 30
0.0
 10
119.8114637287277
 20
-153.7639132645104
 30
0.0
 10
119.8114637287277
 20
-153.7639132645104
 30
0.0
  0
SPLINE
  5
CC
330
C2
100
AcDbEntity
  8
レイヤー 1
100
AcDbSpline
210
0.0
220
0.0
230
1.0
 70
    11
 71
     3
 72
    38
 73
    34
 74
     0
 42
0.0000000001
 43
0.0000000001
 40
0.0
 40
0.0
 40
0.0
 40
0.0
 40
1.0
 40
1.0
 40
1.0
 40
2.0
 40
2.0
 40
2.0
 40
3.0
 40
3.0
 40
3.0
 40
4.0
 40
4.0
 40
4.0
 40
5.0
 40
5.0
 40
5.0
 40
6.0
 40
6.0
 40
6.0
 40
7.0
 40
7.0
 40
7.0
 40
8.0
 40
8.0
 40
8.0
 40
9.0
 40
9.0
 40
9.0
 40
10.0
 40
10.0
 40
10.0
 40
11.0
 40
11.0
 40
11.0
 40
11.0
 10
120.6661919186182
 20
-153.5782226178554
 30
0.0
 10
120.6661919186182
 20
-153.5782226178554
 30
0.0
 10
121.0131130339828
 20
-153.5782226178554
 30
0.0
 10
121.0131130339828
 20
-153.5782226178554
 30
0.0
 10
121.0131130339828
 20
-153.5782226178554
 30
0.0
 10
121.0131130339828
 20
-153.7639132645104
 30
0.0
 10
121.0131130339828
 20
-153.7639132645104
 30
0.0
 10
121.0131130339828
 20
-153.7639132645104
 30
0.0
 10
120.6661919186182
 20
-153.7639132645104
 30
0.0
 10
120.6661919186182
 20
-153.7639132645104
 30
0.0
 10
120.6661919186182
 20
-153.7639132645104
 30
0.0
 10
120.6661919186182
 20
-154.3230522617664
 30
0.0
 10
120.6661919186182
 20
-154.3230522617664
 30
0.0
 10
120.6661919186182
 20
-154.3230522617664
 30
0.0
 10
120.4419162025284
 20
-154.3230522617664
 30
0.0
 10
120.4419162025284
 20
-154.3230522617664
 30
0.0
 10
120.4419162025284
 20
-154.3230522617664
 30
0.0
 10
119.4686767279453
 20
-153.7442762202445
 30
0.0
 10
119.4686767279453
 20
-153.7442762202445
 30
0.0
 10
119.4686767279453
 20
-153.7442762202445
 30
0.0
 10
119.4686767279453
 20
-153.5782226178554
 30
0.0
 10
119.4686767279453
 20
-153.5782226178554
 30
0.0
 10
119.4686767279453
 20
-153.5782226178554
 30
0.0
 10
120.4674099091192
 20
-153.5782226178554
 30
0.0
 10
120.4674099091192
 20
-153.5782226178554
 30
0.0
 10
120.4674099091192
 20
-153.5782226178554
 30
0.0
 10
120.4674099091192
 20
-153.4014892194621
 30
0.0
 10
120.4674099091192
 20
-153.4014892194621
 30
0.0
 10
120.4674099091192
 20
-153.4014892194621
 30
0.0
 10
120.6661919186182
 20
-153.4014892194621
 30
0.0
 10
120.6661919186182
 20
-153.4014892194621
 30
0.0
 10
120.6661919186182
 20
-153.4014892194621
 30
0.0
 10
120.6661919186182
 20
-153.5782226178554
 30
0.0
 10
120.6661919186182
 20
-153.5782226178554
 30
0.0
  0
HATCH
  5
CD
330
C2
100
AcDbEntity
  8
レイヤー 1
 62
    18
420
        0
440
 33554687
100
AcDbHatch
 10
0.0
 20
0.0
 30
0.0
210
0.0
220
0.0
230
1.0
  2
SOLID
 70
     1
 71
     1
 91
        2
 92
        1
 93
        1
 72
     4
 94
        3
 73
     0
 74
     0
 95
       14
 96
       10
 40
0.0
 40
0.0
 40
0.0
 40
0.0
 40
1.0
 40
1.0
 40
1.0
 40
2.0
 40
2.0
 40
2.0
 40
3.0
 40
3.0
 40
3.0
 40
3.0
 10
119.8114637287277
 20
-153.7639132645104
 10
119.8114637287277
 20
-153.7639132645104
 10
120.4674099091192
 20
-154.1535535638921
 10
120.4674099091192
 20
-154.1535535638921
 10
120.4674099091192
 20
-154.1535535638921
 10
120.4674099091192
 20
-153.7639132645104
 10
120.4674099091192
 20
-153.7639132645104
 10
120.4674099091192
 20
-153.7639132645104
 10
119.8114637287277
 20
-153.7639132645104
 10
119.8114637287277
 20
-153.7639132645104
 97
        0
 97
        1
330
CB
 92
        1
 93
        1
 72
     4
 94
        3
 73
     0
 74
     0
 95
       38
 96
       34
 40
0.0
 40
0.0
 40
0.0
 40
0.0
 40
1.0
 40
1.0
 40
1.0
 40
2.0
 40
2.0
 40
2.0
 40
3.0
 40
3.0
 40
3.0
 40
4.0
 40
4.0
 40
4.0
 40
5.0
 40
5.0
 40
5.0
 40
6.0
 40
6.0
 40
6.0
 40
7.0
 40
7.0
 40
7.0
 40
8.0
 40
8.0
 40
8.0
 40
9.0
 40
9.0
 40
9.0
 40
10.0
 40
10.0
 40
10.0
 40
11.0
 40
11.0
 40
11.0
 40
11.0
 10
120.6661919186182
 20
-153.5782226178554
 10
120.6661919186182
 20
-153.5782226178554
 10
121.0131130339828
 20
-153.5782226178554
 10
121.0131130339828
 20
-153.5782226178554
 10
121.0131130339828
 20
-153.5782226178554
 10
121.0131130339828
 20
-153.7639132645104
 10
121.0131130339828
 20
-153.7639132645104
 10
121.0131130339828
 20
-153.7639132645104
 10
120.6661919186182
 20
-153.7639132645104
 10
120.6661919186182
 20
-153.7639132645104
 10
120.6661919186182
 20
-153.7639132645104
 10
120.6661919186182
 20
-154.3230522617664
 10
120.6661919186182
 20
-154.3230522617664
 10
120.6661919186182
 20
-154.3230522617664
 10
120.4419162025284
 20
-154.3230522617664
 10
120.4419162025284
 20
-154.3230522617664
 10
120.4419162025284
 20
-154.3230522617664
 10
119.4686767279453
 20
-153.7442762202445
 10
119.4686767279453
 20
-153.7442762202445
 10
119.4686767279453
 20
-153.7442762202445
 10
119.4686767279453
 20
-153.5782226178554
 10
119.4686767279453
 20
-153.5782226178554
 10
119.4686767279453
 20
-153.5782226178554
 10
120.4674099091192
 20
-153.5782226178554
 10
120.4674099091192
 20
-153.5782226178554
 10
120.4674099091192
 20
-153.5782226178554
 10
120.4674099091192
 20
-153.4014892194621
 10
120.4674099091192
 20
-153.4014892194621
 10
120.4674099091192
 20
-153.4014892194621
 10
120.6661919186182
 20
-153.4014892194621
 10
120.6661919186182
 20
-153.4014892194621
 10
120.6661919186182
 20
-153.4014892194621
 10
120.6661919186182
 20
-153.5782226178554
 10
120.6661919186182
 20
-153.5782226178554
 97
        0
 97
        1
330
CC
 75
     2
 76
     1
 98
        1
 10
0.0
 20
0.0
450
        0
451
        0
460
0.0
461
0.0
452
        0
462
0.0
453
        0
470

  0
ENDBLK
  5
C5
330
C2
100
AcDbEntity
  8
0
100
AcDbBlockEnd
  0
BLOCK
  5
D3
330
D1
100
AcDbEntity
  8
0
100
AcDbBlockBegin
  2
Block_9
 70
     0
 10
0.0
 20
0.0
 30
0.0
  3
Block_9
  1

  0
SPLINE
  5
D5
330
D1
100
AcDbEntity
  8
レイヤー 1
100
AcDbSpline
210
0.0
220
0.0
230
1.0
 70
     9
 71
     3
 72
    17
 73
    13
 74
     0
 42
0.0000000001
 43
0.0000000001
 40
0.0
 40
0.0
 40
0.0
 40
0.0
 40
1.0
 40
1.0
 40
1.0
 40
2.0
 40
2.0
 40
2.0
 40
3.0
 40
3.0
 40
3.0
 40
4.0
 40
4.0
 40
4.0
 40
4.0
 10
98.29477536605132
 20
-158.0172281505998
 30
0.0
 10
98.07118866905859
 20
-158.0172281505998
 30
0.0
 10
98.03863251672298
 20
-158.2287570133942
 30
0.0
 10
98.03863251672298
 20
-158.3452012407956
 30
0.0
 10
98.03863251672298
 20
-158.5209011105434
 30
0.0
 10
98.1199367701749
 20
-158.6838541269957
 30
0.0
 10
98.27668861475375
 20
-158.6838541269957
 30
0.0
 10
98.37952471498846
 20
-158.6838541269957
 30
0.0
 10
98.52921411382256
 20
-158.6245984846494
 30
0.0
 10
98.52921411382256
 20
-158.3390000689222
 30
0.0
 10
98.52921411382256
 20
-158.1147243528324
 30
0.0
 10
98.41018606480718
 20
-158.0172281505998
 30
0.0
 10
98.29477536605132
 20
-158.0172281505998
 30
0.0
  0
SPLINE
  5
D6
330
D1
100
AcDbEntity
  8
レイヤー 1
100
AcDbSpline
210
0.0
220
0.0
230
1.0
 70
     9
 71
     3
 72
    32
 73
    28
 74
     0
 42
0.0000000001
 43
0.0000000001
 40
0.0
 40
0.0
 40
0.0
 40
0.0
 40
1.0
 40
1.0
 40
1.0
 40
2.0
 40
2.0
 40
2.0
 40
3.0
 40
3.0
 40
3.0
 40
4.0
 40
4.0
 40
4.0
 40
5.0
 40
5.0
 40
5.0
 40
6.0
 40
6.0
 40
6.0
 40
7.0
 40
7.0
 40
7.0
 40
8.0
 40
8.0
 40
8.0
 40
9.0
 40
9.0
 40
9.0
 40
9.0
 10
98.28030596501326
 20
-158.8760904550726
 30
0.0
 10
97.84036727154685
 20
-158.8760904550726
 30
0.0
 10
97.83313257102783
 20
-158.3221191010444
 30
0.0
 10
97.83313257102783
 20
-158.1081786714104
 30
0.0
 10
97.83313257102783
 20
-157.8777017834472
 30
0.0
 10
97.8493245198085
 20
-157.2303683417688
 30
0.0
 10
98.31286211734887
 20
-157.2303683417688
 30
0.0
 10
98.46065671366609
 20
-157.2303683417688
 30
0.0
 10
98.66977400962076
 20
-157.3003037801194
 30
0.0
 10
98.70233016195637
 20
-157.6324109848974
 30
0.0
 10
98.70233016195637
 20
-157.6324109848974
 30
0.0
 10
98.52025686556091
 20
-157.6324109848974
 30
0.0
 10
98.52025686556091
 20
-157.6324109848974
 30
0.0
 10
98.51112736252501
 20
-157.5752223998423
 30
0.0
 10
98.48408336296579
 20
-157.4270832939766
 30
0.0
 10
98.31096731483199
 20
-157.4270832939766
 30
0.0
 10
98.06223142079694
 20
-157.4270832939766
 30
0.0
 10
98.02795272071872
 20
-157.7550563841723
 30
0.0
 10
98.01710066994019
 20
-157.9600395655447
 30
0.0
 10
98.09633786610092
 20
-157.8818358980295
 30
0.0
 10
98.15404321547886
 20
-157.8225802556832
 30
0.0
 10
98.30924476708936
 20
-157.8225802556832
 30
0.0
 10
98.46255151618299
 20
-157.8225802556832
 30
0.0
 10
98.72041691325392
 20
-157.9307562539201
 30
0.0
 10
98.72041691325392
 20
-158.336933011631
 30
0.0
 10
98.72041691325392
 20
-158.6562933631137
 30
0.0
 10
98.55091821537964
 20
-158.8760904550726
 30
0.0
 10
98.28030596501326
 20
-158.8760904550726
 30
0.0
  0
HATCH
  5
D7
330
D1
100
AcDbEntity
  8
レイヤー 1
 62
    18
420
        0
440
 33554687
100
AcDbHatch
 10
0.0
 20
0.0
 30
0.0
210
0.0
220
0.0
230
1.0
  2
SOLID
 70
     1
 71
     1
 91
        2
 92
        1
 93
        1
 72
     4
 94
        3
 73
     0
 74
     0
 95
       17
 96
       13
 40
0.0
 40
0.0
 40
0.0
 40
0.0
 40
1.0
 40
1.0
 40
1.0
 40
2.0
 40
2.0
 40
2.0
 40
3.0
 40
3.0
 40
3.0
 40
4.0
 40
4.0
 40
4.0
 40
4.0
 10
98.29477536605132
 20
-158.0172281505998
 10
98.07118866905859
 20
-158.0172281505998
 10
98.03863251672298
 20
-158.2287570133942
 10
98.03863251672298
 20
-158.3452012407956
 10
98.03863251672298
 20
-158.5209011105434
 10
98.1199367701749
 20
-158.6838541269957
 10
98.27668861475375
 20
-158.6838541269957
 10
98.37952471498846
 20
-158.6838541269957
 10
98.52921411382256
 20
-158.6245984846494
 10
98.52921411382256
 20
-158.3390000689222
 10
98.52921411382256
 20
-158.1147243528324
 10
98.41018606480718
 20
-158.0172281505998
 10
98.29477536605132
 20
-158.0172281505998
 97
        0
 97
        1
330
D5
 92
        1
 93
        1
 72
     4
 94
        3
 73
     0
 74
     0
 95
       32
 96
       28
 40
0.0
 40
0.0
 40
0.0
 40
0.0
 40
1.0
 40
1.0
 40
1.0
 40
2.0
 40
2.0
 40
2.0
 40
3.0
 40
3.0
 40
3.0
 40
4.0
 40
4.0
 40
4.0
 40
5.0
 40
5.0
 40
5.0
 40
6.0
 40
6.0
 40
6.0
 40
7.0
 40
7.0
 40
7.0
 40
8.0
 40
8.0
 40
8.0
 40
9.0
 40
9.0
 40
9.0
 40
9.0
 10
98.28030596501326
 20
-158.8760904550726
 10
97.84036727154685
 20
-158.8760904550726
 10
97.83313257102783
 20
-158.3221191010444
 10
97.83313257102783
 20
-158.1081786714104
 10
97.83313257102783
 20
-157.8777017834472
 10
97.8493245198085
 20
-157.2303683417688
 10
98.31286211734887
 20
-157.2303683417688
 10
98.46065671366609
 20
-157.2303683417688
 10
98.66977400962076
 20
-157.3003037801194
 10
98.70233016195637
 20
-157.6324109848974
 10
98.70233016195637
 20
-157.6324109848974
 10
98.52025686556091
 20
-157.6324109848974
 10
98.52025686556091
 20
-157.6324109848974
 10
98.51112736252501
 20
-157.5752223998423
 10
98.48408336296579
 20
-157.4270832939766
 10
98.31096731483199
 20
-157.4270832939766
 10
98.06223142079694
 20
-157.4270832939766
 10
98.02795272071872
 20
-157.7550563841723
 10
98.01710066994019
 20
-157.9600395655447
 10
98.09633786610092
 20
-157.8818358980295
 10
98.15404321547886
 20
-157.8225802556832
 10
98.30924476708936
 20
-157.8225802556832
 10
98.46255151618299
 20
-157.8225802556832
 10
98.72041691325392
 20
-157.9307562539201
 10
98.72041691325392
 20
-158.336933011631
 10
98.72041691325392
 20
-158.6562933631137
 10
98.55091821537964
 20
-158.8760904550726
 10
98.28030596501326
 20
-158.8760904550726
 97
        0
 97
        1
330
D6
 75
     2
 76
     1
 98
        1
 10
0.0
 20
0.0
450
        0
451
        0
460
0.0
461
0.0
452
        0
462
0.0
453
        0
470

  0
ENDBLK
  5
D4
330
D1
100
AcDbEntity
  8
0
100
AcDbBlockEnd
  0
BLOCK
  5
DA
330
D8
100
AcDbEntity
  8
0
100
AcDbBlockBegin
  2
Block_10
 70
     0
 10
0.0
 20
0.0
 30
0.0
  3
Block_10
  1

  0
LINE
  5
DC
330
D8
100
AcDbEntity
  8
レイヤー 1
 62
    18
420
        0
370
     9
100
AcDbLine
 10
122.2686985137722
 20
-141.8716520671882
 30
0.0
 11
122.2686985137722
 21
-154.3718384149485
 31
0.0
  0
LINE
  5
DD
330
D8
100
AcDbEntity
  8
レイヤー 1
 62
    18
420
        0
370
     9
100
AcDbLine
 10
104.908857289992
 20
-141.8716520671882
 30
0.0
 11
123.2684707104881
 21
-141.8716520671882
 31
0.0
  0
INSERT
  5
DF
330
D8
100
AcDbEntity
  8
レイヤー 1
100
AcDbBlockReference
  2
Block_11
 10
0.0
 20
0.0
 30
0.0
  0
ENDBLK
  5
DB
330
D8
100
AcDbEntity
  8
0
100
AcDbBlockEnd
  0
BLOCK
  5
E0
330
DE
100
AcDbEntity
  8
0
100
AcDbBlockBegin
  2
Block_11
 70
     0
 10
0.0
 20
0.0
 30
0.0
  3
Block_11
  1

  0
INSERT
  5
E3
330
DE
100
AcDbEntity
  8
レイヤー 1
100
AcDbBlockReference
  2
Block_12
 10
0.0
 20
0.0
 30
0.0
  0
ENDBLK
  5
E1
330
DE
100
AcDbEntity
  8
0
100
AcDbBlockEnd
  0
BLOCK
  5
E4
330
E2
100
AcDbEntity
  8
0
100
AcDbBlockBegin
  2
Block_12
 70
     0
 10
0.0
 20
0.0
 30
0.0
  3
Block_12
  1

  0
SPLINE
  5
E6
330
E2
100
AcDbEntity
  8
レイヤー 1
100
AcDbSpline
210
0.0
220
0.0
230
1.0
 70
    11
 71
     3
 72
    26
 73
    22
 74
     0
 42
0.0000000001
 43
0.0000000001
 40
0.0
 40
0.0
 40
0.0
 40
0.0
 40
1.0
 40
1.0
 40
1.0
 40
2.0
 40
2.0
 40
2.0
 40
3.0
 40
3.0
 40
3.0
 40
4.0
 40
4.0
 40
4.0
 40
5.0
 40
5.0
 40
5.0
 40
6.0
 40
6.0
 40
6.0
 40
7.0
 40
7.0
 40
7.0
 40
7.0
 10
121.0131130339828
 20
-149.3972547369562
 30
0.0
 10
121.0131130339828
 20
-149.3972547369562
 30
0.0
 10
119.9089599309602
 20
-149.3972547369562
 30
0.0
 10
119.9089599309602
 20
-149.3972547369562
 30
0.0
 10
119.9089599309602
 20
-149.3972547369562
 30
0.0
 10
119.9089599309602
 20
-149.6787190381011
 30
0.0
 10
119.9089599309602
 20
-149.6787190381011
 30
0.0
 10
119.9089599309602
 20
-149.6787190381011
 30
0.0
 10
119.7608208250945
 20
-149.6787190381011
 30
0.0
 10
119.7608208250945
 20
-149.6787190381011
 30
0.0
 10
119.7460069145079
 20
-149.3955321892136
 30
0.0
 10
119.5830538980556
 20
-149.3559135911332
 30
0.0
 10
119.4686767279453
 20
-149.3307643940909
 30
0.0
 10
119.4686767279453
 20
-149.3307643940909
 30
0.0
 10
119.4686767279453
 20
-149.2060519375248
 30
0.0
 10
119.4686767279453
 20
-149.2060519375248
 30
0.0
 10
119.4686767279453
 20
-149.2060519375248
 30
0.0
 10
121.0131130339828
 20
-149.2060519375248
 30
0.0
 10
121.0131130339828
 20
-149.2060519375248
 30
0.0
 10
121.0131130339828
 20
-149.2060519375248
 30
0.0
 10
121.0131130339828
 20
-149.3972547369562
 30
0.0
 10
121.0131130339828
 20
-149.3972547369562
 30
0.0
  0
HATCH
  5
E7
330
E2
100
AcDbEntity
  8
レイヤー 1
 62
    18
420
        0
440
 33554687
100
AcDbHatch
 10
0.0
 20
0.0
 30
0.0
210
0.0
220
0.0
230
1.0
  2
SOLID
 70
     1
 71
     1
 91
        1
 92
        1
 93
        1
 72
     4
 94
        3
 73
     0
 74
     0
 95
       26
 96
       22
 40
0.0
 40
0.0
 40
0.0
 40
0.0
 40
1.0
 40
1.0
 40
1.0
 40
2.0
 40
2.0
 40
2.0
 40
3.0
 40
3.0
 40
3.0
 40
4.0
 40
4.0
 40
4.0
 40
5.0
 40
5.0
 40
5.0
 40
6.0
 40
6.0
 40
6.0
 40
7.0
 40
7.0
 40
7.0
 40
7.0
 10
121.0131130339828
 20
-149.3972547369562
 10
121.0131130339828
 20
-149.3972547369562
 10
119.9089599309602
 20
-149.3972547369562
 10
119.9089599309602
 20
-149.3972547369562
 10
119.9089599309602
 20
-149.3972547369562
 10
119.9089599309602
 20
-149.6787190381011
 10
119.9089599309602
 20
-149.6787190381011
 10
119.9089599309602
 20
-149.6787190381011
 10
119.7608208250945
 20
-149.6787190381011
 10
119.7608208250945
 20
-149.6787190381011
 10
119.7460069145079
 20
-149.3955321892136
 10
119.5830538980556
 20
-149.3559135911332
 10
119.4686767279453
 20
-149.3307643940909
 10
119.4686767279453
 20
-149.3307643940909
 10
119.4686767279453
 20
-149.2060519375248
 10
119.4686767279453
 20
-149.2060519375248
 10
119.4686767279453
 20
-149.2060519375248
 10
121.0131130339828
 20
-149.2060519375248
 10
121.0131130339828
 20
-149.2060519375248
 10
121.0131130339828
 20
-149.2060519375248
 10
121.0131130339828
 20
-149.3972547369562
 10
121.0131130339828
 20
-149.3972547369562
 97
        0
 97
        1
330
E6
 75
     2
 76
     1
 98
        1
 10
0.0
 20
0.0
450
        0
451
        0
460
0.0
461
0.0
452
        0
462
0.0
453
        0
470

  0
SPLINE
  5
E8
330
E2
100
AcDbEntity
  8
レイヤー 1
100
AcDbSpline
210
0.0
220
0.0
230
1.0
 70
     9
 71
     3
 72
    44
 73
    40
 74
     0
 42
0.0000000001
 43
0.0000000001
 40
0.0
 40
0.0
 40
0.0
 40
0.0
 40
1.0
 40
1.0
 40
1.0
 40
2.0
 40
2.0
 40
2.0
 40
3.0
 40
3.0
 40
3.0
 40
4.0
 40
4.0
 40
4.0
 40
5.0
 40
5.0
 40
5.0
 40
6.0
 40
6.0
 40
6.0
 40
7.0
 40
7.0
 40
7.0
 40
8.0
 40
8.0
 40
8.0
 40
9.0
 40
9.0
 40
9.0
 40
10.0
 40
10.0
 40
10.0
 40
11.0
 40
11.0
 40
11.0
 40
12.0
 40
12.0
 40
12.0
 40
13.0
 40
13.0
 40
13.0
 40
13.0
 10
120.4312364065241
 20
-148.2748426278618
 30
0.0
 10
120.5900553083941
 20
-148.4605332745168
 30
0.0
 10
120.664124861327
 20
-148.5397704706775
 30
0.0
 10
120.8077853430619
 20
-148.5811116165005
 30
0.0
 10
120.8077853430619
 20
-148.5811116165005
 30
0.0
 10
120.8077853430619
 20
-147.9175862260414
 30
0.0
 10
120.8077853430619
 20
-147.9175862260414
 30
0.0
 10
120.8077853430619
 20
-147.9175862260414
 30
0.0
 10
121.0131130339828
 20
-147.9175862260414
 30
0.0
 10
121.0131130339828
 20
-147.9175862260414
 30
0.0
 10
121.0131130339828
 20
-147.9175862260414
 30
0.0
 10
121.0131130339828
 20
-148.794018517489
 30
0.0
 10
121.0131130339828
 20
-148.794018517489
 30
0.0
 10
120.6555121226139
 20
-148.767146772704
 30
0.0
 10
120.5773084550987
 20
-148.7109917162944
 30
0.0
 10
120.2789631860761
 20
-148.3830186260987
 30
0.0
 10
120.0801811765772
 20
-148.1645995723338
 30
0.0
 10
120.0123127955177
 20
-148.1087890254728
 30
0.0
 10
119.8748534856563
 20
-148.1087890254728
 30
0.0
 10
119.7563422009637
 20
-148.1087890254728
 30
0.0
 10
119.6254285725242
 20
-148.1701117251102
 30
0.0
 10
119.6254285725242
 20
-148.3378878752419
 30
0.0
 10
119.6254285725242
 20
-148.559752024492
 30
0.0
 10
119.8559054604874
 20
-148.566986725011
 30
0.0
 10
119.9723496878888
 20
-148.5704318204962
 30
0.0
 10
119.9723496878888
 20
-148.5704318204962
 30
0.0
 10
119.9723496878888
 20
-148.7616346199276
 30
0.0
 10
119.9723496878888
 20
-148.7616346199276
 30
0.0
 10
119.8452256644831
 20
-148.7543999194086
 30
0.0
 10
119.7332600612125
 20
-148.745442671147
 30
0.0
 10
119.6147487765199
 20
-148.6768852709905
 30
0.0
 10
119.4538628173587
 20
-148.5831786737917
 30
0.0
 10
119.4201008816033
 20
-148.4243597719217
 30
0.0
 10
119.4201008816033
 20
-148.3251410219465
 30
0.0
 10
119.4201008816033
 20
-148.0888074716583
 30
0.0
 10
119.6040689805156
 20
-147.912074073265
 30
0.0
 10
119.8769205429474
 20
-147.912074073265
 30
0.0
 10
120.105674883168
 20
-147.912074073265
 30
0.0
 10
120.2048936331432
 20
-148.0112928232402
 30
0.0
 10
120.4312364065241
 20
-148.2748426278618
 30
0.0
  0
HATCH
  5
E9
330
E2
100
AcDbEntity
  8
レイヤー 1
 62
    18
420
        0
440
 33554687
100
AcDbHatch
 10
0.0
 20
0.0
 30
0.0
210
0.0
220
0.0
230
1.0
  2
SOLID
 70
     1
 71
     1
 91
        1
 92
        1
 93
        1
 72
     4
 94
        3
 73
     0
 74
     0
 95
       44
 96
       40
 40
0.0
 40
0.0
 40
0.0
 40
0.0
 40
1.0
 40
1.0
 40
1.0
 40
2.0
 40
2.0
 40
2.0
 40
3.0
 40
3.0
 40
3.0
 40
4.0
 40
4.0
 40
4.0
 40
5.0
 40
5.0
 40
5.0
 40
6.0
 40
6.0
 40
6.0
 40
7.0
 40
7.0
 40
7.0
 40
8.0
 40
8.0
 40
8.0
 40
9.0
 40
9.0
 40
9.0
 40
10.0
 40
10.0
 40
10.0
 40
11.0
 40
11.0
 40
11.0
 40
12.0
 40
12.0
 40
12.0
 40
13.0
 40
13.0
 40
13.0
 40
13.0
 10
120.4312364065241
 20
-148.2748426278618
 10
120.5900553083941
 20
-148.4605332745168
 10
120.664124861327
 20
-148.5397704706775
 10
120.8077853430619
 20
-148.5811116165005
 10
120.8077853430619
 20
-148.5811116165005
 10
120.8077853430619
 20
-147.9175862260414
 10
120.8077853430619
 20
-147.9175862260414
 10
120.8077853430619
 20
-147.9175862260414
 10
121.0131130339828
 20
-147.9175862260414
 10
121.0131130339828
 20
-147.9175862260414
 10
121.0131130339828
 20
-147.9175862260414
 10
121.0131130339828
 20
-148.794018517489
 10
121.0131130339828
 20
-148.794018517489
 10
120.6555121226139
 20
-148.767146772704
 10
120.5773084550987
 20
-148.7109917162944
 10
120.2789631860761
 20
-148.3830186260987
 10
120.0801811765772
 20
-148.1645995723338
 10
120.0123127955177
 20
-148.1087890254728
 10
119.8748534856563
 20
-148.1087890254728
 10
119.7563422009637
 20
-148.1087890254728
 10
119.6254285725242
 20
-148.1701117251102
 10
119.6254285725242
 20
-148.3378878752419
 10
119.6254285725242
 20
-148.559752024492
 10
119.8559054604874
 20
-148.566986725011
 10
119.9723496878888
 20
-148.5704318204962
 10
119.9723496878888
 20
-148.5704318204962
 10
119.9723496878888
 20
-148.7616346199276
 10
119.9723496878888
 20
-148.7616346199276
 10
119.8452256644831
 20
-148.7543999194086
 10
119.7332600612125
 20
-148.745442671147
 10
119.6147487765199
 20
-148.6768852709905
 10
119.4538628173587
 20
-148.5831786737917
 10
119.4201008816033
 20
-148.4243597719217
 10
119.4201008816033
 20
-148.3251410219465
 10
119.4201008816033
 20
-148.0888074716583
 10
119.6040689805156
 20
-147.912074073265
 10
119.8769205429474
 20
-147.912074073265
 10
120.105674883168
 20
-147.912074073265
 10
120.2048936331432
 20
-148.0112928232402
 10
120.4312364065241
 20
-148.2748426278618
 97
        0
 97
        1
330
E8
 75
     2
 76
     1
 98
        1
 10
0.0
 20
0.0
450
        0
451
        0
460
0.0
461
0.0
452
        0
462
0.0
453
        0
470

  0
SPLINE
  5
EA
330
E2
100
AcDbEntity
  8
レイヤー 1
100
AcDbSpline
210
0.0
220
0.0
230
1.0
 70
    11
 71
     3
 72
    17
 73
    13
 74
     0
 42
0.0000000001
 43
0.0000000001
 40
0.0
 40
0.0
 40
0.0
 40
0.0
 40
1.0
 40
1.0
 40
1.0
 40
2.0
 40
2.0
 40
2.0
 40
3.0
 40
3.0
 40
3.0
 40
4.0
 40
4.0
 40
4.0
 40
4.0
 10
121.0131130339828
 20
-147.7274169552556
 30
0.0
 10
121.0131130339828
 20
-147.7274169552556
 30
0.0
 10
120.761276554011
 20
-147.7274169552556
 30
0.0
 10
120.761276554011
 20
-147.7274169552556
 30
0.0
 10
120.761276554011
 20
-147.7274169552556
 30
0.0
 10
120.761276554011
 20
-147.5127875065245
 30
0.0
 10
120.761276554011
 20
-147.5127875065245
 30
0.0
 10
120.761276554011
 20
-147.5127875065245
 30
0.0
 10
121.0131130339828
 20
-147.5127875065245
 30
0.0
 10
121.0131130339828
 20
-147.5127875065245
 30
0.0
 10
121.0131130339828
 20
-147.5127875065245
 30
0.0
 10
121.0131130339828
 20
-147.7274169552556
 30
0.0
 10
121.0131130339828
 20
-147.7274169552556
 30
0.0
  0
HATCH
  5
EB
330
E2
100
AcDbEntity
  8
レイヤー 1
 62
    18
420
        0
440
 33554687
100
AcDbHatch
 10
0.0
 20
0.0
 30
0.0
210
0.0
220
0.0
230
1.0
  2
SOLID
 70
     1
 71
     1
 91
        1
 92
        1
 93
        1
 72
     4
 94
        3
 73
     0
 74
     0
 95
       17
 96
       13
 40
0.0
 40
0.0
 40
0.0
 40
0.0
 40
1.0
 40
1.0
 40
1.0
 40
2.0
 40
2.0
 40
2.0
 40
3.0
 40
3.0
 40
3.0
 40
4.0
 40
4.0
 40
4.0
 40
4.0
 10
121.0131130339828
 20
-147.7274169552556
 10
121.0131130339828
 20
-147.7274169552556
 10
120.761276554011
 20
-147.7274169552556
 10
120.761276554011
 20
-147.7274169552556
 10
120.761276554011
 20
-147.7274169552556
 10
120.761276554011
 20
-147.5127875065245
 10
120.761276554011
 20
-147.5127875065245
 10
120.761276554011
 20
-147.5127875065245
 10
121.0131130339828
 20
-147.5127875065245
 10
121.0131130339828
 20
-147.5127875065245
 10
121.0131130339828
 20
-147.5127875065245
 10
121.0131130339828
 20
-147.7274169552556
 10
121.0131130339828
 20
-147.7274169552556
 97
        0
 97
        1
330
EA
 75
     2
 76
     1
 98
        1
 10
0.0
 20
0.0
450
        0
451
        0
460
0.0
461
0.0
452
        0
462
0.0
453
        0
470

  0
SPLINE
  5
EC
330
E2
100
AcDbEntity
  8
レイヤー 1
100
AcDbSpline
210
0.0
220
0.0
230
1.0
 70
     9
 71
     3
 72
    53
 73
    49
 74
     0
 42
0.0000000001
 43
0.0000000001
 40
0.0
 40
0.0
 40
0.0
 40
0.0
 40
1.0
 40
1.0
 40
1.0
 40
2.0
 40
2.0
 40
2.0
 40
3.0
 40
3.0
 40
3.0
 40
4.0
 40
4.0
 40
4.0
 40
5.0
 40
5.0
 40
5.0
 40
6.0
 40
6.0
 40
6.0
 40
7.0
 40
7.0
 40
7.0
 40
8.0
 40
8.0
 40
8.0
 40
9.0
 40
9.0
 40
9.0
 40
10.0
 40
10.0
 40
10.0
 40
11.0
 40
11.0
 40
11.0
 40
12.0
 40
12.0
 40
12.0
 40
13.0
 40
13.0
 40
13.0
 40
14.0
 40
14.0
 40
14.0
 40
15.0
 40
15.0
 40
15.0
 40
16.0
 40
16.0
 40
16.0
 40
16.0
 10
121.063755937616
 20
-146.9016275674412
 30
0.0
 10
121.063755937616
 20
-146.9684624198551
 30
0.0
 10
121.0468749697383
 20
-147.0549343165349
 30
0.0
 10
120.9834852128097
 20
-147.1414062132146
 30
0.0
 10
120.8735866668302
 20
-147.2892008095318
 30
0.0
 10
120.7423285288422
 20
-147.3074598156037
 30
0.0
 10
120.6344970401538
 20
-147.3236517643844
 30
0.0
 10
120.6344970401538
 20
-147.3236517643844
 30
0.0
 10
120.6344970401538
 20
-147.1341715126956
 30
0.0
 10
120.6344970401538
 20
-147.1341715126956
 30
0.0
 10
120.8332790496528
 20
-147.0873182140962
 30
0.0
 10
120.8629068708259
 20
-146.9791422158594
 30
0.0
 10
120.8629068708259
 20
-146.8999050196986
 30
0.0
 10
120.8629068708259
 20
-146.780704715909
 30
0.0
 10
120.7633436113022
 20
-146.650824616115
 30
0.0
 10
120.5307996660478
 20
-146.650824616115
 30
0.0
 10
120.2748290714938
 20
-146.650824616115
 30
0.0
 10
120.2048936331432
 20
-146.8041313652087
 30
0.0
 10
120.2048936331432
 20
-146.9071397202176
 30
0.0
 10
120.2048936331432
 20
-146.9340114650026
 30
0.0
 10
120.2048936331432
 20
-147.0549343165349
 30
0.0
 10
120.3340847138401
 20
-147.1307264172104
 30
0.0
 10
120.3340847138401
 20
-147.1307264172104
 30
0.0
 10
120.3151366886712
 20
-147.2802435612702
 30
0.0
 10
120.3151366886712
 20
-147.2802435612702
 30
0.0
 10
120.3151366886712
 20
-147.2802435612702
 30
0.0
 10
119.4686767279453
 20
-147.1775797158097
 30
0.0
 10
119.4686767279453
 20
-147.1775797158097
 30
0.0
 10
119.4686767279453
 20
-147.1775797158097
 30
0.0
 10
119.4686767279453
 20
-146.5140543253506
 30
0.0
 10
119.4686767279453
 20
-146.5140543253506
 30
0.0
 10
119.4686767279453
 20
-146.5140543253506
 30
0.0
 10
119.6633246228619
 20
-146.5140543253506
 30
0.0
 10
119.6633246228619
 20
-146.5140543253506
 30
0.0
 10
119.6633246228619
 20
-146.5140543253506
 30
0.0
 10
119.6633246228619
 20
-147.0387423677542
 30
0.0
 10
119.6633246228619
 20
-147.0387423677542
 30
0.0
 10
119.6633246228619
 20
-147.0387423677542
 30
0.0
 10
120.0863823484506
 20
-147.0945529146152
 30
0.0
 10
120.0863823484506
 20
-147.0945529146152
 30
0.0
 10
120.0526204126951
 20
-147.0421874632394
 30
0.0
 10
120.0123127955177
 20
-146.9719075153403
 30
0.0
 10
120.0123127955177
 20
-146.8709662176225
 30
0.0
 10
120.0123127955177
 20
-146.6546142211488
 30
0.0
 10
120.1986924612697
 20
-146.4527316257132
 30
0.0
 10
120.511851640879
 20
-146.4527316257132
 30
0.0
 10
120.8291449350705
 20
-146.4527316257132
 30
0.0
 10
121.063755937616
 20
-146.643589915596
 30
0.0
 10
121.063755937616
 20
-146.9016275674412
 30
0.0
  0
HATCH
  5
ED
330
E2
100
AcDbEntity
  8
レイヤー 1
 62
    18
420
        0
440
 33554687
100
AcDbHatch
 10
0.0
 20
0.0
 30
0.0
210
0.0
220
0.0
230
1.0
  2
SOLID
 70
     1
 71
     1
 91
        1
 92
        1
 93
        1
 72
     4
 94
        3
 73
     0
 74
     0
 95
       53
 96
       49
 40
0.0
 40
0.0
 40
0.0
 40
0.0
 40
1.0
 40
1.0
 40
1.0
 40
2.0
 40
2.0
 40
2.0
 40
3.0
 40
3.0
 40
3.0
 40
4.0
 40
4.0
 40
4.0
 40
5.0
 40
5.0
 40
5.0
 40
6.0
 40
6.0
 40
6.0
 40
7.0
 40
7.0
 40
7.0
 40
8.0
 40
8.0
 40
8.0
 40
9.0
 40
9.0
 40
9.0
 40
10.0
 40
10.0
 40
10.0
 40
11.0
 40
11.0
 40
11.0
 40
12.0
 40
12.0
 40
12.0
 40
13.0
 40
13.0
 40
13.0
 40
14.0
 40
14.0
 40
14.0
 40
15.0
 40
15.0
 40
15.0
 40
16.0
 40
16.0
 40
16.0
 40
16.0
 10
121.063755937616
 20
-146.9016275674412
 10
121.063755937616
 20
-146.9684624198551
 10
121.0468749697383
 20
-147.0549343165349
 10
120.9834852128097
 20
-147.1414062132146
 10
120.8735866668302
 20
-147.2892008095318
 10
120.7423285288422
 20
-147.3074598156037
 10
120.6344970401538
 20
-147.3236517643844
 10
120.6344970401538
 20
-147.3236517643844
 10
120.6344970401538
 20
-147.1341715126956
 10
120.6344970401538
 20
-147.1341715126956
 10
120.8332790496528
 20
-147.0873182140962
 10
120.8629068708259
 20
-146.9791422158594
 10
120.8629068708259
 20
-146.8999050196986
 10
120.8629068708259
 20
-146.780704715909
 10
120.7633436113022
 20
-146.650824616115
 10
120.5307996660478
 20
-146.650824616115
 10
120.2748290714938
 20
-146.650824616115
 10
120.2048936331432
 20
-146.8041313652087
 10
120.2048936331432
 20
-146.9071397202176
 10
120.2048936331432
 20
-146.9340114650026
 10
120.2048936331432
 20
-147.0549343165349
 10
120.3340847138401
 20
-147.1307264172104
 10
120.3340847138401
 20
-147.1307264172104
 10
120.3151366886712
 20
-147.2802435612702
 10
120.3151366886712
 20
-147.2802435612702
 10
120.3151366886712
 20
-147.2802435612702
 10
119.4686767279453
 20
-147.1775797158097
 10
119.4686767279453
 20
-147.1775797158097
 10
119.4686767279453
 20
-147.1775797158097
 10
119.4686767279453
 20
-146.5140543253506
 10
119.4686767279453
 20
-146.5140543253506
 10
119.4686767279453
 20
-146.5140543253506
 10
119.6633246228619
 20
-146.5140543253506
 10
119.6633246228619
 20
-146.5140543253506
 10
119.6633246228619
 20
-146.5140543253506
 10
119.6633246228619
 20
-147.0387423677542
 10
119.6633246228619
 20
-147.0387423677542
 10
119.6633246228619
 20
-147.0387423677542
 10
120.0863823484506
 20
-147.0945529146152
 10
120.0863823484506
 20
-147.0945529146152
 10
120.0526204126951
 20
-147.0421874632394
 10
120.0123127955177
 20
-146.9719075153403
 10
120.0123127955177
 20
-146.8709662176225
 10
120.0123127955177
 20
-146.6546142211488
 10
120.1986924612697
 20
-146.4527316257132
 10
120.511851640879
 20
-146.4527316257132
 10
120.8291449350705
 20
-146.4527316257132
 10
121.063755937616
 20
-146.643589915596
 10
121.063755937616
 20
-146.9016275674412
 97
        0
 97
        1
330
EC
 75
     2
 76
     1
 98
        1
 10
0.0
 20
0.0
450
        0
451
        0
460
0.0
461
0.0
452
        0
462
0.0
453
        0
470

  0
ENDBLK
  5
E5
330
E2
100
AcDbEntity
  8
0
100
AcDbBlockEnd
  0
BLOCK
  5
F0
330
EE
100
AcDbEntity
  8
0
100
AcDbBlockBegin
  2
Block_13
 70
     0
 10
0.0
 20
0.0
 30
0.0
  3
Block_13
  1

  0
INSERT
  5
F3
330
EE
100
AcDbEntity
  8
レイヤー 1
100
AcDbBlockReference
  2
Block_14
 10
0.0
 20
0.0
 30
0.0
  0
ENDBLK
  5
F1
330
EE
100
AcDbEntity
  8
0
100
AcDbBlockEnd
  0
BLOCK
  5
F4
330
F2
100
AcDbEntity
  8
0
100
AcDbBlockBegin
  2
Block_14
 70
     0
 10
0.0
 20
0.0
 30
0.0
  3
Block_14
  1

  0
SPLINE
  5
F6
330
F2
100
AcDbEntity
  8
レイヤー 1
100
AcDbSpline
210
0.0
220
0.0
230
1.0
 70
     9
 71
     3
 72
    59
 73
    55
 74
     0
 42
0.0000000001
 43
0.0000000001
 40
0.0
 40
0.0
 40
0.0
 40
0.0
 40
1.0
 40
1.0
 40
1.0
 40
2.0
 40
2.0
 40
2.0
 40
3.0
 40
3.0
 40
3.0
 40
4.0
 40
4.0
 40
4.0
 40
5.0
 40
5.0
 40
5.0
 40
6.0
 40
6.0
 40
6.0
 40
7.0
 40
7.0
 40
7.0
 40
8.0
 40
8.0
 40
8.0
 40
9.0
 40
9.0
 40
9.0
 40
10.0
 40
10.0
 40
10.0
 40
11.0
 40
11.0
 40
11.0
 40
12.0
 40
12.0
 40
12.0
 40
13.0
 40
13.0
 40
13.0
 40
14.0
 40
14.0
 40
14.0
 40
15.0
 40
15.0
 40
15.0
 40
16.0
 40
16.0
 40
16.0
 40
17.0
 40
17.0
 40
17.0
 40
18.0
 40
18.0
 40
18.0
 40
18.0
 10
91.65676538507192
 20
-145.0171603370096
 30
0.0
 10
91.51431068675684
 20
-145.5037800743011
 30
0.0
 10
91.30157604054266
 20
-146.0262288046393
 30
0.0
 10
90.7911851444029
 20
-146.3435220988308
 30
0.0
 10
90.7911851444029
 20
-146.3435220988308
 30
0.0
 10
90.63081594956452
 20
-146.1912488783827
 30
0.0
 10
90.63081594956452
 20
-146.1912488783827
 30
0.0
 10
90.76775849510321
 20
-146.1214856948064
 30
0.0
 10
90.97704804583214
 20
-146.0114148940527
 30
0.0
 10
91.19150523978893
 20
-145.6813747465657
 30
0.0
 10
91.39356008999884
 20
-145.3683878217308
 30
0.0
 10
91.44230819111511
 20
-145.1124172271767
 30
0.0
 10
91.46573484041482
 20
-144.9854654585453
 30
0.0
 10
91.46573484041482
 20
-144.9854654585453
 30
0.0
 10
90.9138305436778
 20
-144.9854654585453
 30
0.0
 10
90.9138305436778
 20
-144.9854654585453
 30
0.0
 10
90.82546384448113
 20
-145.1461791629322
 30
0.0
 10
90.7227999990207
 20
-145.3132662939668
 30
0.0
 10
90.55864119914854
 20
-145.484659794358
 30
0.0
 10
90.55864119914854
 20
-145.484659794358
 30
0.0
 10
90.41067434805706
 20
-145.3620143950831
 30
0.0
 10
90.41067434805706
 20
-145.3620143950831
 30
0.0
 10
90.46131725169024
 20
-145.3155056060322
 30
0.0
 10
90.58740774645038
 20
-145.2033677479873
 30
0.0
 10
90.72813989702282
 20
-144.953770580081
 30
0.0
 10
90.79307994691978
 20
-144.8352592953884
 30
0.0
 10
90.88144664611645
 20
-144.6659328522884
 30
0.0
 10
90.90297849289926
 20
-144.5432874530134
 30
0.0
 10
90.90297849289926
 20
-144.5432874530134
 30
0.0
 10
91.09969344510702
 20
-144.6447455150541
 30
0.0
 10
91.09969344510702
 20
-144.6447455150541
 30
0.0
 10
91.1122680436282
 20
-144.6511189417018
 30
0.0
 10
91.12484264214934
 20
-144.6595594256407
 30
0.0
 10
91.12484264214934
 20
-144.6743733362272
 30
0.0
 10
91.12484264214934
 20
-144.6955606734615
 30
0.0
 10
91.10313854059226
 20
-144.7083075267569
 30
0.0
 10
91.09607609484752
 20
-144.7103745840481
 30
0.0
 10
91.07264944554781
 20
-144.718815067987
 30
0.0
 10
91.06541474502879
 20
-144.7167480106958
 30
0.0
 10
91.04371064347171
 20
-144.7420694625124
 30
0.0
 10
91.02200654191463
 20
-144.7675631691032
 30
0.0
 10
91.02390134443153
 20
-144.7760036530421
 30
0.0
 10
90.99685734487231
 20
-144.8288858687407
 30
0.0
 10
90.99685734487231
 20
-144.8288858687407
 30
0.0
 10
91.28176674150248
 20
-144.8288858687407
 30
0.0
 10
91.28176674150248
 20
-144.8288858687407
 30
0.0
 10
91.50001354049306
 20
-144.8288858687407
 30
0.0
 10
91.52705754005227
 20
-144.8161390154453
 30
0.0
 10
91.57563338639429
 20
-144.7865111942721
 30
0.0
 10
91.57563338639429
 20
-144.7865111942721
 30
0.0
 10
91.70913083644773
 20
-144.9515312680156
 30
0.0
 10
91.70913083644773
 20
-144.9515312680156
 30
0.0
 10
91.68019203437163
 20
-144.9875325158364
 30
0.0
 10
91.678469486629
 20
-144.9895995731276
 30
0.0
 10
91.65676538507192
 20
-145.0171603370096
 30
0.0
  0
HATCH
  5
F7
330
F2
100
AcDbEntity
  8
レイヤー 1
 62
   250
420
  2299925
440
 33554687
100
AcDbHatch
 10
0.0
 20
0.0
 30
0.0
210
0.0
220
0.0
230
1.0
  2
SOLID
 70
     1
 71
     1
 91
        1
 92
        1
 93
        1
 72
     4
 94
        3
 73
     0
 74
     0
 95
       59
 96
       55
 40
0.0
 40
0.0
 40
0.0
 40
0.0
 40
1.0
 40
1.0
 40
1.0
 40
2.0
 40
2.0
 40
2.0
 40
3.0
 40
3.0
 40
3.0
 40
4.0
 40
4.0
 40
4.0
 40
5.0
 40
5.0
 40
5.0
 40
6.0
 40
6.0
 40
6.0
 40
7.0
 40
7.0
 40
7.0
 40
8.0
 40
8.0
 40
8.0
 40
9.0
 40
9.0
 40
9.0
 40
10.0
 40
10.0
 40
10.0
 40
11.0
 40
11.0
 40
11.0
 40
12.0
 40
12.0
 40
12.0
 40
13.0
 40
13.0
 40
13.0
 40
14.0
 40
14.0
 40
14.0
 40
15.0
 40
15.0
 40
15.0
 40
16.0
 40
16.0
 40
16.0
 40
17.0
 40
17.0
 40
17.0
 40
18.0
 40
18.0
 40
18.0
 40
18.0
 10
91.65676538507192
 20
-145.0171603370096
 10
91.51431068675684
 20
-145.5037800743011
 10
91.30157604054266
 20
-146.0262288046393
 10
90.7911851444029
 20
-146.3435220988308
 10
90.7911851444029
 20
-146.3435220988308
 10
90.63081594956452
 20
-146.1912488783827
 10
90.63081594956452
 20
-146.1912488783827
 10
90.76775849510321
 20
-146.1214856948064
 10
90.97704804583214
 20
-146.0114148940527
 10
91.19150523978893
 20
-145.6813747465657
 10
91.39356008999884
 20
-145.3683878217308
 10
91.44230819111511
 20
-145.1124172271767
 10
91.46573484041482
 20
-144.9854654585453
 10
91.46573484041482
 20
-144.9854654585453
 10
90.9138305436778
 20
-144.9854654585453
 10
90.9138305436778
 20
-144.9854654585453
 10
90.82546384448113
 20
-145.1461791629322
 10
90.7227999990207
 20
-145.3132662939668
 10
90.55864119914854
 20
-145.484659794358
 10
90.55864119914854
 20
-145.484659794358
 10
90.41067434805706
 20
-145.3620143950831
 10
90.41067434805706
 20
-145.3620143950831
 10
90.46131725169024
 20
-145.3155056060322
 10
90.58740774645038
 20
-145.2033677479873
 10
90.72813989702282
 20
-144.953770580081
 10
90.79307994691978
 20
-144.8352592953884
 10
90.88144664611645
 20
-144.6659328522884
 10
90.90297849289926
 20
-144.5432874530134
 10
90.90297849289926
 20
-144.5432874530134
 10
91.09969344510702
 20
-144.6447455150541
 10
91.09969344510702
 20
-144.6447455150541
 10
91.1122680436282
 20
-144.6511189417018
 10
91.12484264214934
 20
-144.6595594256407
 10
91.12484264214934
 20
-144.6743733362272
 10
91.12484264214934
 20
-144.6955606734615
 10
91.10313854059226
 20
-144.7083075267569
 10
91.09607609484752
 20
-144.7103745840481
 10
91.07264944554781
 20
-144.718815067987
 10
91.06541474502879
 20
-144.7167480106958
 10
91.04371064347171
 20
-144.7420694625124
 10
91.02200654191463
 20
-144.7675631691032
 10
91.02390134443153
 20
-144.7760036530421
 10
90.99685734487231
 20
-144.8288858687407
 10
90.99685734487231
 20
-144.8288858687407
 10
91.28176674150248
 20
-144.8288858687407
 10
91.28176674150248
 20
-144.8288858687407
 10
91.50001354049306
 20
-144.8288858687407
 10
91.52705754005227
 20
-144.8161390154453
 10
91.57563338639429
 20
-144.7865111942721
 10
91.57563338639429
 20
-144.7865111942721
 10
91.70913083644773
 20
-144.9515312680156
 10
91.70913083644773
 20
-144.9515312680156
 10
91.68019203437163
 20
-144.9875325158364
 10
91.678469486629
 20
-144.9895995731276
 10
91.65676538507192
 20
-145.0171603370096
 97
        0
 97
        1
330
F6
 75
     2
 76
     1
 98
        1
 10
0.0
 20
0.0
450
        0
451
        0
460
0.0
461
0.0
452
        0
462
0.0
453
        0
470

  0
SPLINE
  5
F8
330
F2
100
AcDbEntity
  8
レイヤー 1
100
AcDbSpline
210
0.0
220
0.0
230
1.0
 70
    11
 71
     3
 72
    17
 73
    13
 74
     0
 42
0.0000000001
 43
0.0000000001
 40
0.0
 40
0.0
 40
0.0
 40
0.0
 40
1.0
 40
1.0
 40
1.0
 40
2.0
 40
2.0
 40
2.0
 40
3.0
 40
3.0
 40
3.0
 40
4.0
 40
4.0
 40
4.0
 40
4.0
 10
93.05495738776057
 20
-144.926209816199
 30
0.0
 10
93.05495738776057
 20
-144.926209816199
 30
0.0
 10
92.16767304553448
 20
-144.926209816199
 30
0.0
 10
92.16767304553448
 20
-144.926209816199
 30
0.0
 10
92.16767304553448
 20
-144.926209816199
 30
0.0
 10
92.16767304553448
 20
-145.8146999418449
 30
0.0
 10
92.16767304553448
 20
-145.8146999418449
 30
0.0
 10
92.16767304553448
 20
-145.8146999418449
 30
0.0
 10
93.05495738776057
 20
-145.8146999418449
 30
0.0
 10
93.05495738776057
 20
-145.8146999418449
 30
0.0
 10
93.05495738776057
 20
-145.8146999418449
 30
0.0
 10
93.05495738776057
 20
-144.926209816199
 30
0.0
 10
93.05495738776057
 20
-144.926209816199
 30
0.0
  0
SPLINE
  5
F9
330
F2
100
AcDbEntity
  8
レイヤー 1
100
AcDbSpline
210
0.0
220
0.0
230
1.0
 70
     9
 71
     3
 72
    53
 73
    49
 74
     0
 42
0.0000000001
 43
0.0000000001
 40
0.0
 40
0.0
 40
0.0
 40
0.0
 40
1.0
 40
1.0
 40
1.0
 40
2.0
 40
2.0
 40
2.0
 40
3.0
 40
3.0
 40
3.0
 40
4.0
 40
4.0
 40
4.0
 40
5.0
 40
5.0
 40
5.0
 40
6.0
 40
6.0
 40
6.0
 40
7.0
 40
7.0
 40
7.0
 40
8.0
 40
8.0
 40
8.0
 40
9.0
 40
9.0
 40
9.0
 40
10.0
 40
10.0
 40
10.0
 40
11.0
 40
11.0
 40
11.0
 40
12.0
 40
12.0
 40
12.0
 40
13.0
 40
13.0
 40
13.0
 40
14.0
 40
14.0
 40
14.0
 40
15.0
 40
15.0
 40
15.0
 40
16.0
 40
16.0
 40
16.0
 40
16.0
 10
93.03514808872039
 20
-146.1299261787453
 30
0.0
 10
93.04238278923941
 20
-146.0854844469856
 30
0.0
 10
93.04238278923941
 20
-146.0770439630467
 30
0.0
 10
93.04772268724155
 20
-146.0029744101138
 30
0.0
 10
93.04772268724155
 20
-146.0029744101138
 30
0.0
 10
92.16956784805136
 20
-146.0029744101138
 30
0.0
 10
92.16956784805136
 20
-146.0029744101138
 30
0.0
 10
92.16956784805136
 20
-146.0346692885781
 30
0.0
 10
92.16956784805136
 20
-146.0897908163421
 30
0.0
 10
92.17318519831087
 20
-146.1256198093887
 30
0.0
 10
92.17318519831087
 20
-146.1256198093887
 30
0.0
 10
91.96751299784144
 20
-146.1256198093887
 30
0.0
 10
91.96751299784144
 20
-146.1256198093887
 30
0.0
 10
91.97302515061785
 20
-146.070670536399
 30
0.0
 10
91.9819823988795
 20
-145.9797200155884
 30
0.0
 10
91.9819823988795
 20
-145.8507011896658
 30
0.0
 10
91.9838772013964
 20
-145.6455457535192
 30
0.0
 10
91.9838772013964
 20
-145.6221191042194
 30
0.0
 10
91.9838772013964
 20
-145.598864709694
 30
0.0
 10
91.9838772013964
 20
-145.598864709694
 30
0.0
 10
91.9838772013964
 20
-145.1589260162276
 30
0.0
 10
91.9838772013964
 20
-145.1589260162276
 30
0.0
 10
91.9838772013964
 20
-145.0932969472336
 30
0.0
 10
91.97836504861999
 20
-144.7696302263944
 30
0.0
 10
91.97474769836048
 20
-144.7146809534046
 30
0.0
 10
92.0812011488547
 20
-144.7272555519258
 30
0.0
 10
92.30668264836429
 20
-144.7315619212824
 30
0.0
 10
92.41847599686066
 20
-144.7315619212824
 30
0.0
 10
92.41847599686066
 20
-144.7315619212824
 30
0.0
 10
92.80604923895127
 20
-144.7315619212824
 30
0.0
 10
92.80604923895127
 20
-144.7315619212824
 30
0.0
 10
92.93420679100256
 20
-144.7315619212824
 30
0.0
 10
93.12523733565965
 20
-144.7294948639912
 30
0.0
 10
93.24977753745145
 20
-144.7210543800524
 30
0.0
 10
93.24254283693242
 20
-144.8309529260318
 30
0.0
 10
93.23892548667291
 20
-145.0805500939382
 30
0.0
 10
93.23892548667291
 20
-145.1990613786308
 30
0.0
 10
93.23892548667291
 20
-145.1990613786308
 30
0.0
 10
93.23892548667291
 20
-145.6179849896371
 30
0.0
 10
93.23892548667291
 20
-145.6179849896371
 30
0.0
 10
93.23892548667291
 20
-145.6603596641057
 30
0.0
 10
93.24426538467504
 20
-145.8422607057269
 30
0.0
 10
93.24426538467504
 20
-145.8803290108389
 30
0.0
 10
93.24616018719193
 20
-146.0305351739958
 30
0.0
 10
93.25339488771097
 20
-146.081178077629
 30
0.0
 10
93.26062958822999
 20
-146.1299261787453
 30
0.0
 10
93.26062958822999
 20
-146.1299261787453
 30
0.0
 10
93.03514808872039
 20
-146.1299261787453
 30
0.0
 10
93.03514808872039
 20
-146.1299261787453
 30
0.0
  0
HATCH
  5
FA
330
F2
100
AcDbEntity
  8
レイヤー 1
 62
   250
420
  2299925
440
 33554687
100
AcDbHatch
 10
0.0
 20
0.0
 30
0.0
210
0.0
220
0.0
230
1.0
  2
SOLID
 70
     1
 71
     1
 91
        2
 92
        1
 93
        1
 72
     4
 94
        3
 73
     0
 74
     0
 95
       17
 96
       13
 40
0.0
 40
0.0
 40
0.0
 40
0.0
 40
1.0
 40
1.0
 40
1.0
 40
2.0
 40
2.0
 40
2.0
 40
3.0
 40
3.0
 40
3.0
 40
4.0
 40
4.0
 40
4.0
 40
4.0
 10
93.05495738776057
 20
-144.926209816199
 10
93.05495738776057
 20
-144.926209816199
 10
92.16767304553448
 20
-144.926209816199
 10
92.16767304553448
 20
-144.926209816199
 10
92.16767304553448
 20
-144.926209816199
 10
92.16767304553448
 20
-145.8146999418449
 10
92.16767304553448
 20
-145.8146999418449
 10
92.16767304553448
 20
-145.8146999418449
 10
93.05495738776057
 20
-145.8146999418449
 10
93.05495738776057
 20
-145.8146999418449
 10
93.05495738776057
 20
-145.8146999418449
 10
93.05495738776057
 20
-144.926209816199
 10
93.05495738776057
 20
-144.926209816199
 97
        0
 97
        1
330
F8
 92
        1
 93
        1
 72
     4
 94
        3
 73
     0
 74
     0
 95
       53
 96
       49
 40
0.0
 40
0.0
 40
0.0
 40
0.0
 40
1.0
 40
1.0
 40
1.0
 40
2.0
 40
2.0
 40
2.0
 40
3.0
 40
3.0
 40
3.0
 40
4.0
 40
4.0
 40
4.0
 40
5.0
 40
5.0
 40
5.0
 40
6.0
 40
6.0
 40
6.0
 40
7.0
 40
7.0
 40
7.0
 40
8.0
 40
8.0
 40
8.0
 40
9.0
 40
9.0
 40
9.0
 40
10.0
 40
10.0
 40
10.0
 40
11.0
 40
11.0
 40
11.0
 40
12.0
 40
12.0
 40
12.0
 40
13.0
 40
13.0
 40
13.0
 40
14.0
 40
14.0
 40
14.0
 40
15.0
 40
15.0
 40
15.0
 40
16.0
 40
16.0
 40
16.0
 40
16.0
 10
93.03514808872039
 20
-146.1299261787453
 10
93.04238278923941
 20
-146.0854844469856
 10
93.04238278923941
 20
-146.0770439630467
 10
93.04772268724155
 20
-146.0029744101138
 10
93.04772268724155
 20
-146.0029744101138
 10
92.16956784805136
 20
-146.0029744101138
 10
92.16956784805136
 20
-146.0029744101138
 10
92.16956784805136
 20
-146.0346692885781
 10
92.16956784805136
 20
-146.0897908163421
 10
92.17318519831087
 20
-146.1256198093887
 10
92.17318519831087
 20
-146.1256198093887
 10
91.96751299784144
 20
-146.1256198093887
 10
91.96751299784144
 20
-146.1256198093887
 10
91.97302515061785
 20
-146.070670536399
 10
91.9819823988795
 20
-145.9797200155884
 10
91.9819823988795
 20
-145.8507011896658
 10
91.9838772013964
 20
-145.6455457535192
 10
91.9838772013964
 20
-145.6221191042194
 10
91.9838772013964
 20
-145.598864709694
 10
91.9838772013964
 20
-145.598864709694
 10
91.9838772013964
 20
-145.1589260162276
 10
91.9838772013964
 20
-145.1589260162276
 10
91.9838772013964
 20
-145.0932969472336
 10
91.97836504861999
 20
-144.7696302263944
 10
91.97474769836048
 20
-144.7146809534046
 10
92.0812011488547
 20
-144.7272555519258
 10
92.30668264836429
 20
-144.7315619212824
 10
92.41847599686066
 20
-144.7315619212824
 10
92.41847599686066
 20
-144.7315619212824
 10
92.80604923895127
 20
-144.7315619212824
 10
92.80604923895127
 20
-144.7315619212824
 10
92.93420679100256
 20
-144.7315619212824
 10
93.12523733565965
 20
-144.7294948639912
 10
93.24977753745145
 20
-144.7210543800524
 10
93.24254283693242
 20
-144.8309529260318
 10
93.23892548667291
 20
-145.0805500939382
 10
93.23892548667291
 20
-145.1990613786308
 10
93.23892548667291
 20
-145.1990613786308
 10
93.23892548667291
 20
-145.6179849896371
 10
93.23892548667291
 20
-145.6179849896371
 10
93.23892548667291
 20
-145.6603596641057
 10
93.24426538467504
 20
-145.8422607057269
 10
93.24426538467504
 20
-145.8803290108389
 10
93.24616018719193
 20
-146.0305351739958
 10
93.25339488771097
 20
-146.081178077629
 10
93.26062958822999
 20
-146.1299261787453
 10
93.26062958822999
 20
-146.1299261787453
 10
93.03514808872039
 20
-146.1299261787453
 10
93.03514808872039
 20
-146.1299261787453
 97
        0
 97
        1
330
F9
 75
     2
 76
     1
 98
        1
 10
0.0
 20
0.0
450
        0
451
        0
460
0.0
461
0.0
452
        0
462
0.0
453
        0
470

  0
SPLINE
  5
FB
330
F2
100
AcDbEntity
  8
レイヤー 1
100
AcDbSpline
210
0.0
220
0.0
230
1.0
 70
     9
 71
     3
 72
    56
 73
    52
 74
     0
 42
0.0000000001
 43
0.0000000001
 40
0.0
 40
0.0
 40
0.0
 40
0.0
 40
1.0
 40
1.0
 40
1.0
 40
2.0
 40
2.0
 40
2.0
 40
3.0
 40
3.0
 40
3.0
 40
4.0
 40
4.0
 40
4.0
 40
5.0
 40
5.0
 40
5.0
 40
6.0
 40
6.0
 40
6.0
 40
7.0
 40
7.0
 40
7.0
 40
8.0
 40
8.0
 40
8.0
 40
9.0
 40
9.0
 40
9.0
 40
10.0
 40
10.0
 40
10.0
 40
11.0
 40
11.0
 40
11.0
 40
12.0
 40
12.0
 40
12.0
 40
13.0
 40
13.0
 40
13.0
 40
14.0
 40
14.0
 40
14.0
 40
15.0
 40
15.0
 40
15.0
 40
16.0
 40
16.0
 40
16.0
 40
17.0
 40
17.0
 40
17.0
 40
17.0
 10
94.74701603534104
 20
-146.1955552477393
 30
0.0
 10
94.58302949024313
 20
-145.8867024374866
 30
0.0
 10
94.36288788873566
 20
-145.6813747465657
 30
0.0
 10
94.28537324031756
 20
-145.615917932346
 30
0.0
 10
94.03474254376563
 20
-145.9543985637718
 30
0.0
 10
93.78772919747321
 20
-146.1066717842198
 30
0.0
 10
93.61823049959893
 20
-146.1996893623216
 30
0.0
 10
93.61823049959893
 20
-146.1996893623216
 30
0.0
 10
93.48301050180287
 20
-146.0114148940527
 30
0.0
 10
93.48301050180287
 20
-146.0114148940527
 30
0.0
 10
93.57137720099952
 20
-145.9754136462318
 30
0.0
 10
93.75345049739499
 20
-145.8992770360078
 30
0.0
 10
93.9517157425711
 20
-145.7132418798043
 30
0.0
 10
94.17719724208071
 20
-145.5015407622357
 30
0.0
 10
94.33584388917646
 20
-145.2138752892174
 30
0.0
 10
94.44057479192805
 20
-144.9008883643824
 30
0.0
 10
94.44057479192805
 20
-144.9008883643824
 30
0.0
 10
94.11949189270277
 20
-144.9008883643824
 30
0.0
 10
94.11949189270277
 20
-144.9008883643824
 30
0.0
 10
93.98961179290884
 20
-144.9008883643824
 30
0.0
 10
93.8111558467729
 20
-144.9050224789647
 30
0.0
 10
93.68317054949589
 20
-144.9241427589078
 30
0.0
 10
93.68317054949589
 20
-144.9241427589078
 30
0.0
 10
93.68317054949589
 20
-144.7126138961135
 30
0.0
 10
93.68317054949589
 20
-144.7126138961135
 30
0.0
 10
93.74087589887381
 20
-144.718815067987
 30
0.0
 10
93.96256779334963
 20
-144.7294948639912
 30
0.0
 10
94.03663734628251
 20
-144.7294948639912
 30
0.0
 10
94.03663734628251
 20
-144.7294948639912
 30
0.0
 10
94.30156518909823
 20
-144.7294948639912
 30
0.0
 10
94.30156518909823
 20
-144.7294948639912
 30
0.0
 10
94.47829858749154
 20
-144.7294948639912
 30
0.0
 10
94.49828014130599
 20
-144.7231214373435
 30
0.0
 10
94.51808944034617
 20
-144.718815067987
 30
0.0
 10
94.55598549068392
 20
-144.7126138961135
 30
0.0
 10
94.58836938824527
 20
-144.6871201895226
 30
0.0
 10
94.60645613954282
 20
-144.6702392216449
 30
0.0
 10
94.60645613954282
 20
-144.6702392216449
 30
0.0
 10
94.739781334822
 20
-144.8436997793272
 30
0.0
 10
94.739781334822
 20
-144.8436997793272
 30
0.0
 10
94.70550263474377
 20
-144.8712605432092
 30
0.0
 10
94.69482283873949
 20
-144.8817680844393
 30
0.0
 10
94.65330943814223
 20
-144.9177693322601
 30
0.0
 10
94.54323863738849
 20
-145.1652994428753
 30
0.0
 10
94.47468123723202
 20
-145.3155056060322
 30
0.0
 10
94.38631453803536
 20
-145.4614053998326
 30
0.0
 10
94.65330943814223
 20
-145.6793076892746
 30
0.0
 10
94.84795733305885
 20
-145.9649061050018
 30
0.0
 10
94.89308808391561
 20
-146.043109772517
 30
0.0
 10
94.89308808391561
 20
-146.043109772517
 30
0.0
 10
94.74701603534104
 20
-146.1955552477393
 30
0.0
 10
94.74701603534104
 20
-146.1955552477393
 30
0.0
  0
HATCH
  5
FC
330
F2
100
AcDbEntity
  8
レイヤー 1
 62
   250
420
  2299925
440
 33554687
100
AcDbHatch
 10
0.0
 20
0.0
 30
0.0
210
0.0
220
0.0
230
1.0
  2
SOLID
 70
     1
 71
     1
 91
        1
 92
        1
 93
        1
 72
     4
 94
        3
 73
     0
 74
     0
 95
       56
 96
       52
 40
0.0
 40
0.0
 40
0.0
 40
0.0
 40
1.0
 40
1.0
 40
1.0
 40
2.0
 40
2.0
 40
2.0
 40
3.0
 40
3.0
 40
3.0
 40
4.0
 40
4.0
 40
4.0
 40
5.0
 40
5.0
 40
5.0
 40
6.0
 40
6.0
 40
6.0
 40
7.0
 40
7.0
 40
7.0
 40
8.0
 40
8.0
 40
8.0
 40
9.0
 40
9.0
 40
9.0
 40
10.0
 40
10.0
 40
10.0
 40
11.0
 40
11.0
 40
11.0
 40
12.0
 40
12.0
 40
12.0
 40
13.0
 40
13.0
 40
13.0
 40
14.0
 40
14.0
 40
14.0
 40
15.0
 40
15.0
 40
15.0
 40
16.0
 40
16.0
 40
16.0
 40
17.0
 40
17.0
 40
17.0
 40
17.0
 10
94.74701603534104
 20
-146.1955552477393
 10
94.58302949024313
 20
-145.8867024374866
 10
94.36288788873566
 20
-145.6813747465657
 10
94.28537324031756
 20
-145.615917932346
 10
94.03474254376563
 20
-145.9543985637718
 10
93.78772919747321
 20
-146.1066717842198
 10
93.61823049959893
 20
-146.1996893623216
 10
93.61823049959893
 20
-146.1996893623216
 10
93.48301050180287
 20
-146.0114148940527
 10
93.48301050180287
 20
-146.0114148940527
 10
93.57137720099952
 20
-145.9754136462318
 10
93.75345049739499
 20
-145.8992770360078
 10
93.9517157425711
 20
-145.7132418798043
 10
94.17719724208071
 20
-145.5015407622357
 10
94.33584388917646
 20
-145.2138752892174
 10
94.44057479192805
 20
-144.9008883643824
 10
94.44057479192805
 20
-144.9008883643824
 10
94.11949189270277
 20
-144.9008883643824
 10
94.11949189270277
 20
-144.9008883643824
 10
93.98961179290884
 20
-144.9008883643824
 10
93.8111558467729
 20
-144.9050224789647
 10
93.68317054949589
 20
-144.9241427589078
 10
93.68317054949589
 20
-144.9241427589078
 10
93.68317054949589
 20
-144.7126138961135
 10
93.68317054949589
 20
-144.7126138961135
 10
93.74087589887381
 20
-144.718815067987
 10
93.96256779334963
 20
-144.7294948639912
 10
94.03663734628251
 20
-144.7294948639912
 10
94.03663734628251
 20
-144.7294948639912
 10
94.30156518909823
 20
-144.7294948639912
 10
94.30156518909823
 20
-144.7294948639912
 10
94.47829858749154
 20
-144.7294948639912
 10
94.49828014130599
 20
-144.7231214373435
 10
94.51808944034617
 20
-144.718815067987
 10
94.55598549068392
 20
-144.7126138961135
 10
94.58836938824527
 20
-144.6871201895226
 10
94.60645613954282
 20
-144.6702392216449
 10
94.60645613954282
 20
-144.6702392216449
 10
94.739781334822
 20
-144.8436997793272
 10
94.739781334822
 20
-144.8436997793272
 10
94.70550263474377
 20
-144.8712605432092
 10
94.69482283873949
 20
-144.8817680844393
 10
94.65330943814223
 20
-144.9177693322601
 10
94.54323863738849
 20
-145.1652994428753
 10
94.47468123723202
 20
-145.3155056060322
 10
94.38631453803536
 20
-145.4614053998326
 10
94.65330943814223
 20
-145.6793076892746
 10
94.84795733305885
 20
-145.9649061050018
 10
94.89308808391561
 20
-146.043109772517
 10
94.89308808391561
 20
-146.043109772517
 10
94.74701603534104
 20
-146.1955552477393
 10
94.74701603534104
 20
-146.1955552477393
 97
        0
 97
        1
330
FB
 75
     2
 76
     1
 98
        1
 10
0.0
 20
0.0
450
        0
451
        0
460
0.0
461
0.0
452
        0
462
0.0
453
        0
470

  0
SPLINE
  5
FD
330
F2
100
AcDbEntity
  8
レイヤー 1
100
AcDbSpline
210
0.0
220
0.0
230
1.0
 70
    11
 71
     3
 72
    17
 73
    13
 74
     0
 42
0.0000000001
 43
0.0000000001
 40
0.0
 40
0.0
 40
0.0
 40
0.0
 40
1.0
 40
1.0
 40
1.0
 40
2.0
 40
2.0
 40
2.0
 40
3.0
 40
3.0
 40
3.0
 40
4.0
 40
4.0
 40
4.0
 40
4.0
 10
96.34881318120795
 20
-145.2181816585739
 30
0.0
 10
96.34881318120795
 20
-145.2181816585739
 30
0.0
 10
95.95745033408356
 20
-145.2181816585739
 30
0.0
 10
95.95745033408356
 20
-145.2181816585739
 30
0.0
 10
95.95745033408356
 20
-145.2181816585739
 30
0.0
 10
95.95745033408356
 20
-145.5270344688265
 30
0.0
 10
95.95745033408356
 20
-145.5270344688265
 30
0.0
 10
95.95745033408356
 20
-145.5270344688265
 30
0.0
 10
96.34881318120795
 20
-145.5270344688265
 30
0.0
 10
96.34881318120795
 20
-145.5270344688265
 30
0.0
 10
96.34881318120795
 20
-145.5270344688265
 30
0.0
 10
96.34881318120795
 20
-145.2181816585739
 30
0.0
 10
96.34881318120795
 20
-145.2181816585739
 30
0.0
  0
SPLINE
  5
FE
330
F2
100
AcDbEntity
  8
レイヤー 1
100
AcDbSpline
210
0.0
220
0.0
230
1.0
 70
    11
 71
     3
 72
    17
 73
    13
 74
     0
 42
0.0000000001
 43
0.0000000001
 40
0.0
 40
0.0
 40
0.0
 40
0.0
 40
1.0
 40
1.0
 40
1.0
 40
2.0
 40
2.0
 40
2.0
 40
3.0
 40
3.0
 40
3.0
 40
4.0
 40
4.0
 40
4.0
 40
4.0
 10
96.34881318120795
 20
-144.7463758318689
 30
0.0
 10
96.34881318120795
 20
-144.7463758318689
 30
0.0
 10
95.95745033408356
 20
-144.7463758318689
 30
0.0
 10
95.95745033408356
 20
-144.7463758318689
 30
0.0
 10
95.95745033408356
 20
-144.7463758318689
 30
0.0
 10
95.95745033408356
 20
-145.050922272765
 30
0.0
 10
95.95745033408356
 20
-145.050922272765
 30
0.0
 10
95.95745033408356
 20
-145.050922272765
 30
0.0
 10
96.34881318120795
 20
-145.050922272765
 30
0.0
 10
96.34881318120795
 20
-145.050922272765
 30
0.0
 10
96.34881318120795
 20
-145.050922272765
 30
0.0
 10
96.34881318120795
 20
-144.7463758318689
 30
0.0
 10
96.34881318120795
 20
-144.7463758318689
 30
0.0
  0
SPLINE
  5
FF
330
F2
100
AcDbEntity
  8
レイヤー 1
100
AcDbSpline
210
0.0
220
0.0
230
1.0
 70
    11
 71
     3
 72
    17
 73
    13
 74
     0
 42
0.0000000001
 43
0.0000000001
 40
0.0
 40
0.0
 40
0.0
 40
0.0
 40
1.0
 40
1.0
 40
1.0
 40
2.0
 40
2.0
 40
2.0
 40
3.0
 40
3.0
 40
3.0
 40
4.0
 40
4.0
 40
4.0
 40
4.0
 10
95.79518633672829
 20
-145.2181816585739
 30
0.0
 10
95.79518633672829
 20
-145.2181816585739
 30
0.0
 10
95.42191024090147
 20
-145.2181816585739
 30
0.0
 10
95.42191024090147
 20
-145.2181816585739
 30
0.0
 10
95.42191024090147
 20
-145.2181816585739
 30
0.0
 10
95.42191024090147
 20
-145.5270344688265
 30
0.0
 10
95.42191024090147
 20
-145.5270344688265
 30
0.0
 10
95.42191024090147
 20
-145.5270344688265
 30
0.0
 10
95.79518633672829
 20
-145.5270344688265
 30
0.0
 10
95.79518633672829
 20
-145.5270344688265
 30
0.0
 10
95.79518633672829
 20
-145.5270344688265
 30
0.0
 10
95.79518633672829
 20
-145.2181816585739
 30
0.0
 10
95.79518633672829
 20
-145.2181816585739
 30
0.0
  0
SPLINE
  5
100
330
F2
100
AcDbEntity
  8
レイヤー 1
100
AcDbSpline
210
0.0
220
0.0
230
1.0
 70
    11
 71
     3
 72
    17
 73
    13
 74
     0
 42
0.0000000001
 43
0.0000000001
 40
0.0
 40
0.0
 40
0.0
 40
0.0
 40
1.0
 40
1.0
 40
1.0
 40
2.0
 40
2.0
 40
2.0
 40
3.0
 40
3.0
 40
3.0
 40
4.0
 40
4.0
 40
4.0
 40
4.0
 10
95.79518633672829
 20
-144.7463758318689
 30
0.0
 10
95.79518633672829
 20
-144.7463758318689
 30
0.0
 10
95.42191024090147
 20
-144.7463758318689
 30
0.0
 10
95.42191024090147
 20
-144.7463758318689
 30
0.0
 10
95.42191024090147
 20
-144.7463758318689
 30
0.0
 10
95.42191024090147
 20
-145.050922272765
 30
0.0
 10
95.42191024090147
 20
-145.050922272765
 30
0.0
 10
95.42191024090147
 20
-145.050922272765
 30
0.0
 10
95.79518633672829
 20
-145.050922272765
 30
0.0
 10
95.79518633672829
 20
-145.050922272765
 30
0.0
 10
95.79518633672829
 20
-145.050922272765
 30
0.0
 10
95.79518633672829
 20
-144.7463758318689
 30
0.0
 10
95.79518633672829
 20
-144.7463758318689
 30
0.0
  0
SPLINE
  5
101
330
F2
100
AcDbEntity
  8
レイヤー 1
100
AcDbSpline
210
0.0
220
0.0
230
1.0
 70
     9
 71
     3
 72
    77
 73
    73
 74
     0
 42
0.0000000001
 43
0.0000000001
 40
0.0
 40
0.0
 40
0.0
 40
0.0
 40
1.0
 40
1.0
 40
1.0
 40
2.0
 40
2.0
 40
2.0
 40
3.0
 40
3.0
 40
3.0
 40
4.0
 40
4.0
 40
4.0
 40
5.0
 40
5.0
 40
5.0
 40
6.0
 40
6.0
 40
6.0
 40
7.0
 40
7.0
 40
7.0
 40
8.0
 40
8.0
 40
8.0
 40
9.0
 40
9.0
 40
9.0
 40
10.0
 40
10.0
 40
10.0
 40
11.0
 40
11.0
 40
11.0
 40
12.0
 40
12.0
 40
12.0
 40
13.0
 40
13.0
 40
13.0
 40
14.0
 40
14.0
 40
14.0
 40
15.0
 40
15.0
 40
15.0
 40
16.0
 40
16.0
 40
16.0
 40
17.0
 40
17.0
 40
17.0
 40
18.0
 40
18.0
 40
18.0
 40
19.0
 40
19.0
 40
19.0
 40
20.0
 40
20.0
 40
20.0
 40
21.0
 40
21.0
 40
21.0
 40
22.0
 40
22.0
 40
22.0
 40
23.0
 40
23.0
 40
23.0
 40
24.0
 40
24.0
 40
24.0
 40
24.0
 10
96.46422387996381
 20
-146.3330145576008
 30
0.0
 10
96.42460528188344
 20
-146.3583360094173
 30
0.0
 10
96.31815183138922
 20
-146.3710828627128
 30
0.0
 10
96.25148923374965
 20
-146.3710828627128
 30
0.0
 10
96.2406371829711
 20
-146.3710828627128
 30
0.0
 10
96.21893308141402
 20
-146.3710828627128
 30
0.0
 10
96.19016653411218
 20
-146.3667764933562
 30
0.0
 10
96.19016653411218
 20
-146.3667764933562
 30
0.0
 10
96.10713973291765
 20
-146.1404337199753
 30
0.0
 10
96.10713973291765
 20
-146.1404337199753
 30
0.0
 10
96.13246118473426
 20
-146.146807146623
 30
0.0
 10
96.18103703107628
 20
-146.1552476305619
 30
0.0
 10
96.28025578105146
 20
-146.1552476305619
 30
0.0
 10
96.34709063346532
 20
-146.1552476305619
 30
0.0
 10
96.34881318120795
 20
-146.1130452108675
 30
0.0
 10
96.34881318120795
 20
-146.0558566258124
 30
0.0
 10
96.34881318120795
 20
-146.0558566258124
 30
0.0
 10
96.34881318120795
 20
-145.7068684531566
 30
0.0
 10
96.34881318120795
 20
-145.7068684531566
 30
0.0
 10
96.34881318120795
 20
-145.7068684531566
 30
0.0
 10
95.95745033408356
 20
-145.7068684531566
 30
0.0
 10
95.95745033408356
 20
-145.7068684531566
 30
0.0
 10
95.95934513660045
 20
-145.8443277630181
 30
0.0
 10
95.96106768434307
 20
-146.043109772517
 30
0.0
 10
95.96657983711947
 20
-146.1764349677961
 30
0.0
 10
95.9683023848621
 20
-146.2039957316781
 30
0.0
 10
95.9683023848621
 20
-146.2484374634379
 30
0.0
 10
95.97915443564064
 20
-146.3097601630753
 30
0.0
 10
95.97915443564064
 20
-146.3097601630753
 30
0.0
 10
95.77348223517121
 20
-146.3097601630753
 30
0.0
 10
95.77348223517121
 20
-146.3097601630753
 30
0.0
 10
95.79518633672829
 20
-146.184875451735
 30
0.0
 10
95.79518633672829
 20
-145.8443277630181
 30
0.0
 10
95.79518633672829
 20
-145.7068684531566
 30
0.0
 10
95.79518633672829
 20
-145.7068684531566
 30
0.0
 10
95.41829289064196
 20
-145.7068684531566
 30
0.0
 10
95.41829289064196
 20
-145.7068684531566
 30
0.0
 10
95.39848359160178
 20
-145.9140909465944
 30
0.0
 10
95.34250078996647
 20
-146.1828083944439
 30
0.0
 10
95.17489689460907
 20
-146.3667764933562
 30
0.0
 10
95.17489689460907
 20
-146.3667764933562
 30
0.0
 10
95.0143554449964
 20
-146.2441310940813
 30
0.0
 10
95.0143554449964
 20
-146.2441310940813
 30
0.0
 10
95.23070744147011
 20
-146.0241617473481
 30
0.0
 10
95.25775144102931
 20
-145.69205454257
 30
0.0
 10
95.25775144102931
 20
-145.3599473377919
 30
0.0
 10
95.25775144102931
 20
-145.3599473377919
 30
0.0
 10
95.25775144102931
 20
-144.9241427589078
 30
0.0
 10
95.25775144102931
 20
-144.9241427589078
 30
0.0
 10
95.25775144102931
 20
-144.888141511087
 30
0.0
 10
95.2560288932867
 20
-144.6554253110583
 30
0.0
 10
95.24879419276766
 20
-144.5537949942435
 30
0.0
 10
95.36782224178304
 20
-144.5644747902477
 30
0.0
 10
95.5733221874782
 20
-144.5644747902477
 30
0.0
 10
95.69596758675309
 20
-144.5644747902477
 30
0.0
 10
95.69596758675309
 20
-144.5644747902477
 30
0.0
 10
96.08733043387749
 20
-144.5644747902477
 30
0.0
 10
96.08733043387749
 20
-144.5644747902477
 30
0.0
 10
96.09990503239863
 20
-144.5644747902477
 30
0.0
 10
96.39756128232422
 20
-144.5644747902477
 30
0.0
 10
96.53278128012027
 20
-144.5537949942435
 30
0.0
 10
96.53088647760339
 20
-144.6066772099421
 30
0.0
 10
96.52554657960125
 20
-144.7675631691032
 30
0.0
 10
96.52554657960125
 20
-144.8183783275107
 30
0.0
 10
96.52554657960125
 20
-144.8183783275107
 30
0.0
 10
96.52554657960125
 20
-145.4254041520117
 30
0.0
 10
96.52554657960125
 20
-145.4254041520117
 30
0.0
 10
96.52554657960125
 20
-145.4445244319548
 30
0.0
 10
96.5345038278629
 20
-146.0157212634092
 30
0.0
 10
96.5345038278629
 20
-146.1278591214541
 30
0.0
 10
96.5345038278629
 20
-146.184875451735
 30
0.0
 10
96.5345038278629
 20
-146.2865057685499
 30
0.0
 10
96.46422387996381
 20
-146.3330145576008
 30
0.0
  0
HATCH
  5
102
330
F2
100
AcDbEntity
  8
レイヤー 1
 62
   250
420
  2299925
440
 33554687
100
AcDbHatch
 10
0.0
 20
0.0
 30
0.0
210
0.0
220
0.0
230
1.0
  2
SOLID
 70
     1
 71
     1
 91
        5
 92
        1
 93
        1
 72
     4
 94
        3
 73
     0
 74
     0
 95
       17
 96
       13
 40
0.0
 40
0.0
 40
0.0
 40
0.0
 40
1.0
 40
1.0
 40
1.0
 40
2.0
 40
2.0
 40
2.0
 40
3.0
 40
3.0
 40
3.0
 40
4.0
 40
4.0
 40
4.0
 40
4.0
 10
96.34881318120795
 20
-145.2181816585739
 10
96.34881318120795
 20
-145.2181816585739
 10
95.95745033408356
 20
-145.2181816585739
 10
95.95745033408356
 20
-145.2181816585739
 10
95.95745033408356
 20
-145.2181816585739
 10
95.95745033408356
 20
-145.5270344688265
 10
95.95745033408356
 20
-145.5270344688265
 10
95.95745033408356
 20
-145.5270344688265
 10
96.34881318120795
 20
-145.5270344688265
 10
96.34881318120795
 20
-145.5270344688265
 10
96.34881318120795
 20
-145.5270344688265
 10
96.34881318120795
 20
-145.2181816585739
 10
96.34881318120795
 20
-145.2181816585739
 97
        0
 97
        1
330
FD
 92
        1
 93
        1
 72
     4
 94
        3
 73
     0
 74
     0
 95
       17
 96
       13
 40
0.0
 40
0.0
 40
0.0
 40
0.0
 40
1.0
 40
1.0
 40
1.0
 40
2.0
 40
2.0
 40
2.0
 40
3.0
 40
3.0
 40
3.0
 40
4.0
 40
4.0
 40
4.0
 40
4.0
 10
96.34881318120795
 20
-144.7463758318689
 10
96.34881318120795
 20
-144.7463758318689
 10
95.95745033408356
 20
-144.7463758318689
 10
95.95745033408356
 20
-144.7463758318689
 10
95.95745033408356
 20
-144.7463758318689
 10
95.95745033408356
 20
-145.050922272765
 10
95.95745033408356
 20
-145.050922272765
 10
95.95745033408356
 20
-145.050922272765
 10
96.34881318120795
 20
-145.050922272765
 10
96.34881318120795
 20
-145.050922272765
 10
96.34881318120795
 20
-145.050922272765
 10
96.34881318120795
 20
-144.7463758318689
 10
96.34881318120795
 20
-144.7463758318689
 97
        0
 97
        1
330
FE
 92
        1
 93
        1
 72
     4
 94
        3
 73
     0
 74
     0
 95
       17
 96
       13
 40
0.0
 40
0.0
 40
0.0
 40
0.0
 40
1.0
 40
1.0
 40
1.0
 40
2.0
 40
2.0
 40
2.0
 40
3.0
 40
3.0
 40
3.0
 40
4.0
 40
4.0
 40
4.0
 40
4.0
 10
95.79518633672829
 20
-145.2181816585739
 10
95.79518633672829
 20
-145.2181816585739
 10
95.42191024090147
 20
-145.2181816585739
 10
95.42191024090147
 20
-145.2181816585739
 10
95.42191024090147
 20
-145.2181816585739
 10
95.42191024090147
 20
-145.5270344688265
 10
95.42191024090147
 20
-145.5270344688265
 10
95.42191024090147
 20
-145.5270344688265
 10
95.79518633672829
 20
-145.5270344688265
 10
95.79518633672829
 20
-145.5270344688265
 10
95.79518633672829
 20
-145.5270344688265
 10
95.79518633672829
 20
-145.2181816585739
 10
95.79518633672829
 20
-145.2181816585739
 97
        0
 97
        1
330
FF
 92
        1
 93
        1
 72
     4
 94
        3
 73
     0
 74
     0
 95
       17
 96
       13
 40
0.0
 40
0.0
 40
0.0
 40
0.0
 40
1.0
 40
1.0
 40
1.0
 40
2.0
 40
2.0
 40
2.0
 40
3.0
 40
3.0
 40
3.0
 40
4.0
 40
4.0
 40
4.0
 40
4.0
 10
95.79518633672829
 20
-144.7463758318689
 10
95.79518633672829
 20
-144.7463758318689
 10
95.42191024090147
 20
-144.7463758318689
 10
95.42191024090147
 20
-144.7463758318689
 10
95.42191024090147
 20
-144.7463758318689
 10
95.42191024090147
 20
-145.050922272765
 10
95.42191024090147
 20
-145.050922272765
 10
95.42191024090147
 20
-145.050922272765
 10
95.79518633672829
 20
-145.050922272765
 10
95.79518633672829
 20
-145.050922272765
 10
95.79518633672829
 20
-145.050922272765
 10
95.79518633672829
 20
-144.7463758318689
 10
95.79518633672829
 20
-144.7463758318689
 97
        0
 97
        1
330
100
 92
        1
 93
        1
 72
     4
 94
        3
 73
     0
 74
     0
 95
       77
 96
       73
 40
0.0
 40
0.0
 40
0.0
 40
0.0
 40
1.0
 40
1.0
 40
1.0
 40
2.0
 40
2.0
 40
2.0
 40
3.0
 40
3.0
 40
3.0
 40
4.0
 40
4.0
 40
4.0
 40
5.0
 40
5.0
 40
5.0
 40
6.0
 40
6.0
 40
6.0
 40
7.0
 40
7.0
 40
7.0
 40
8.0
 40
8.0
 40
8.0
 40
9.0
 40
9.0
 40
9.0
 40
10.0
 40
10.0
 40
10.0
 40
11.0
 40
11.0
 40
11.0
 40
12.0
 40
12.0
 40
12.0
 40
13.0
 40
13.0
 40
13.0
 40
14.0
 40
14.0
 40
14.0
 40
15.0
 40
15.0
 40
15.0
 40
16.0
 40
16.0
 40
16.0
 40
17.0
 40
17.0
 40
17.0
 40
18.0
 40
18.0
 40
18.0
 40
19.0
 40
19.0
 40
19.0
 40
20.0
 40
20.0
 40
20.0
 40
21.0
 40
21.0
 40
21.0
 40
22.0
 40
22.0
 40
22.0
 40
23.0
 40
23.0
 40
23.0
 40
24.0
 40
24.0
 40
24.0
 40
24.0
 10
96.46422387996381
 20
-146.3330145576008
 10
96.42460528188344
 20
-146.3583360094173
 10
96.31815183138922
 20
-146.3710828627128
 10
96.25148923374965
 20
-146.3710828627128
 10
96.2406371829711
 20
-146.3710828627128
 10
96.21893308141402
 20
-146.3710828627128
 10
96.19016653411218
 20
-146.3667764933562
 10
96.19016653411218
 20
-146.3667764933562
 10
96.10713973291765
 20
-146.1404337199753
 10
96.10713973291765
 20
-146.1404337199753
 10
96.13246118473426
 20
-146.146807146623
 10
96.18103703107628
 20
-146.1552476305619
 10
96.28025578105146
 20
-146.1552476305619
 10
96.34709063346532
 20
-146.1552476305619
 10
96.34881318120795
 20
-146.1130452108675
 10
96.34881318120795
 20
-146.0558566258124
 10
96.34881318120795
 20
-146.0558566258124
 10
96.34881318120795
 20
-145.7068684531566
 10
96.34881318120795
 20
-145.7068684531566
 10
96.34881318120795
 20
-145.7068684531566
 10
95.95745033408356
 20
-145.7068684531566
 10
95.95745033408356
 20
-145.7068684531566
 10
95.95934513660045
 20
-145.8443277630181
 10
95.96106768434307
 20
-146.043109772517
 10
95.96657983711947
 20
-146.1764349677961
 10
95.9683023848621
 20
-146.2039957316781
 10
95.9683023848621
 20
-146.2484374634379
 10
95.97915443564064
 20
-146.3097601630753
 10
95.97915443564064
 20
-146.3097601630753
 10
95.77348223517121
 20
-146.3097601630753
 10
95.77348223517121
 20
-146.3097601630753
 10
95.79518633672829
 20
-146.184875451735
 10
95.79518633672829
 20
-145.8443277630181
 10
95.79518633672829
 20
-145.7068684531566
 10
95.79518633672829
 20
-145.7068684531566
 10
95.41829289064196
 20
-145.7068684531566
 10
95.41829289064196
 20
-145.7068684531566
 10
95.39848359160178
 20
-145.9140909465944
 10
95.34250078996647
 20
-146.1828083944439
 10
95.17489689460907
 20
-146.3667764933562
 10
95.17489689460907
 20
-146.3667764933562
 10
95.0143554449964
 20
-146.2441310940813
 10
95.0143554449964
 20
-146.2441310940813
 10
95.23070744147011
 20
-146.0241617473481
 10
95.25775144102931
 20
-145.69205454257
 10
95.25775144102931
 20
-145.3599473377919
 10
95.25775144102931
 20
-145.3599473377919
 10
95.25775144102931
 20
-144.9241427589078
 10
95.25775144102931
 20
-144.9241427589078
 10
95.25775144102931
 20
-144.888141511087
 10
95.2560288932867
 20
-144.6554253110583
 10
95.24879419276766
 20
-144.5537949942435
 10
95.36782224178304
 20
-144.5644747902477
 10
95.5733221874782
 20
-144.5644747902477
 10
95.69596758675309
 20
-144.5644747902477
 10
95.69596758675309
 20
-144.5644747902477
 10
96.08733043387749
 20
-144.5644747902477
 10
96.08733043387749
 20
-144.5644747902477
 10
96.09990503239863
 20
-144.5644747902477
 10
96.39756128232422
 20
-144.5644747902477
 10
96.53278128012027
 20
-144.5537949942435
 10
96.53088647760339
 20
-144.6066772099421
 10
96.52554657960125
 20
-144.7675631691032
 10
96.52554657960125
 20
-144.8183783275107
 10
96.52554657960125
 20
-144.8183783275107
 10
96.52554657960125
 20
-145.4254041520117
 10
96.52554657960125
 20
-145.4254041520117
 10
96.52554657960125
 20
-145.4445244319548
 10
96.5345038278629
 20
-146.0157212634092
 10
96.5345038278629
 20
-146.1278591214541
 10
96.5345038278629
 20
-146.184875451735
 10
96.5345038278629
 20
-146.2865057685499
 10
96.46422387996381
 20
-146.3330145576008
 97
        0
 97
        1
330
101
 75
     2
 76
     1
 98
        1
 10
0.0
 20
0.0
450
        0
451
        0
460
0.0
461
0.0
452
        0
462
0.0
453
        0
470

  0
SPLINE
  5
103
330
F2
100
AcDbEntity
  8
レイヤー 1
100
AcDbSpline
210
0.0
220
0.0
230
1.0
 70
     9
 71
     3
 72
    17
 73
    13
 74
     0
 42
0.0000000001
 43
0.0000000001
 40
0.0
 40
0.0
 40
0.0
 40
0.0
 40
1.0
 40
1.0
 40
1.0
 40
2.0
 40
2.0
 40
2.0
 40
3.0
 40
3.0
 40
3.0
 40
4.0
 40
4.0
 40
4.0
 40
4.0
 10
91.82075193016983
 20
-147.3145222613484
 30
0.0
 10
91.77389863157042
 20
-147.3145222613484
 30
0.0
 10
91.73600258123267
 20
-147.3589639931081
 30
0.0
 10
91.73600258123267
 20
-147.4140855208722
 30
0.0
 10
91.73600258123267
 20
-147.471101851153
 30
0.0
 10
91.77389863157042
 20
-147.5198499522693
 30
0.0
 10
91.82436928042932
 20
-147.5198499522693
 30
0.0
 10
91.87483992928823
 20
-147.5198499522693
 30
0.0
 10
91.90911862936648
 20
-147.4690347938619
 30
0.0
 10
91.90911862936648
 20
-147.4161525781633
 30
0.0
 10
91.90911862936648
 20
-147.3589639931081
 30
0.0
 10
91.86950003128611
 20
-147.3145222613484
 30
0.0
 10
91.82075193016983
 20
-147.3145222613484
 30
0.0
  0
SPLINE
  5
104
330
F2
100
AcDbEntity
  8
レイヤー 1
100
AcDbSpline
210
0.0
220
0.0
230
1.0
 70
    11
 71
     3
 72
    17
 73
    13
 74
     0
 42
0.0000000001
 43
0.0000000001
 40
0.0
 40
0.0
 40
0.0
 40
0.0
 40
1.0
 40
1.0
 40
1.0
 40
2.0
 40
2.0
 40
2.0
 40
3.0
 40
3.0
 40
3.0
 40
4.0
 40
4.0
 40
4.0
 40
4.0
 10
91.82264673268671
 20
-147.6445624088354
 30
0.0
 10
91.71447073444985
 20
-147.6445624088354
 30
0.0
 10
91.62782658299581
 20
-147.5431043467948
 30
0.0
 10
91.62782658299581
 20
-147.4161525781633
 30
0.0
 10
91.62782658299581
 20
-147.2892008095318
 30
0.0
 10
91.71447073444985
 20
-147.1855034354258
 30
0.0
 10
91.82264673268671
 20
-147.1855034354258
 30
0.0
 10
91.93082273092356
 20
-147.1855034354258
 30
0.0
 10
92.01918943012021
 20
-147.2892008095318
 30
0.0
 10
92.01918943012021
 20
-147.4161525781633
 30
0.0
 10
92.01918943012021
 20
-147.5431043467948
 30
0.0
 10
91.93082273092356
 20
-147.6445624088354
 30
0.0
 10
91.82264673268671
 20
-147.6445624088354
 30
0.0
  0
SPLINE
  5
105
330
F2
100
AcDbEntity
  8
レイヤー 1
100
AcDbSpline
210
0.0
220
0.0
230
1.0
 70
     9
 71
     3
 72
    44
 73
    40
 74
     0
 42
0.0000000001
 43
0.0000000001
 40
0.0
 40
0.0
 40
0.0
 40
0.0
 40
1.0
 40
1.0
 40
1.0
 40
2.0
 40
2.0
 40
2.0
 40
3.0
 40
3.0
 40
3.0
 40
4.0
 40
4.0
 40
4.0
 40
5.0
 40
5.0
 40
5.0
 40
6.0
 40
6.0
 40
6.0
 40
7.0
 40
7.0
 40
7.0
 40
8.0
 40
8.0
 40
8.0
 40
9.0
 40
9.0
 40
9.0
 40
10.0
 40
10.0
 40
10.0
 40
11.0
 40
11.0
 40
11.0
 40
12.0
 40
12.0
 40
12.0
 40
13.0
 40
13.0
 40
13.0
 40
13.0
 10
91.64401853177649
 20
-147.8435166731085
 30
0.0
 10
91.54858938683508
 20
-148.2116251257075
 30
0.0
 10
91.50518118372094
 20
-148.3702717728033
 30
0.0
 10
91.33757728836354
 20
-148.6198689407096
 30
0.0
 10
91.1806531890104
 20
-148.8505180834471
 30
0.0
 10
90.97859833880049
 20
-149.0365532396506
 30
0.0
 10
90.740714495544
 20
-149.1299153273008
 30
0.0
 10
90.740714495544
 20
-149.1299153273008
 30
0.0
 10
90.57655569567184
 20
-148.9500813429708
 30
0.0
 10
90.57655569567184
 20
-148.9500813429708
 30
0.0
 10
91.12294783963246
 20
-148.7976358677485
 30
0.0
 10
91.40423988600311
 20
-148.2412529468807
 30
0.0
 10
91.45832788512153
 20
-147.80114199864
 30
0.0
 10
91.45832788512153
 20
-147.80114199864
 30
0.0
 10
90.80548229066669
 20
-147.80114199864
 30
0.0
 10
90.80548229066669
 20
-147.80114199864
 30
0.0
 10
90.72624509450594
 20
-147.80114199864
 30
0.0
 10
90.56932099515281
 20
-147.8054483679965
 30
0.0
 10
90.43582354509938
 20
-147.8243963931654
 30
0.0
 10
90.43582354509938
 20
-147.8243963931654
 30
0.0
 10
90.43582354509938
 20
-147.6044270464322
 30
0.0
 10
90.43582354509938
 20
-147.6044270464322
 30
0.0
 10
90.50989309803226
 20
-147.6256143836665
 30
0.0
 10
90.72435029198905
 20
-147.6256143836665
 30
0.0
 10
90.8090996409262
 20
-147.6256143836665
 30
0.0
 10
90.8090996409262
 20
-147.6256143836665
 30
0.0
 10
91.17703583875089
 20
-147.6256143836665
 30
0.0
 10
91.17703583875089
 20
-147.6256143836665
 30
0.0
 10
91.21303708657174
 20
-147.6256143836665
 30
0.0
 10
91.41319713426476
 20
-147.6233750716011
 30
0.0
 10
91.44575328660037
 20
-147.6171738997276
 30
0.0
 10
91.48175453442123
 20
-147.6108004730799
 30
0.0
 10
91.48364933693811
 20
-147.6085611610145
 30
0.0
 10
91.53584253353965
 20
-147.5684257986114
 30
0.0
 10
91.53584253353965
 20
-147.5684257986114
 30
0.0
 10
91.6963839831523
 20
-147.7229383311248
 30
0.0
 10
91.6963839831523
 20
-147.7229383311248
 30
0.0
 10
91.67106253133571
 20
-147.752566152298
 30
0.0
 10
91.65848793281455
 20
-147.7842610307622
 30
0.0
 10
91.64401853177649
 20
-147.8435166731085
 30
0.0
  0
HATCH
  5
106
330
F2
100
AcDbEntity
  8
レイヤー 1
 62
   250
420
  2299925
440
 33554687
100
AcDbHatch
 10
0.0
 20
0.0
 30
0.0
210
0.0
220
0.0
230
1.0
  2
SOLID
 70
     1
 71
     1
 91
        3
 92
        1
 93
        1
 72
     4
 94
        3
 73
     0
 74
     0
 95
       17
 96
       13
 40
0.0
 40
0.0
 40
0.0
 40
0.0
 40
1.0
 40
1.0
 40
1.0
 40
2.0
 40
2.0
 40
2.0
 40
3.0
 40
3.0
 40
3.0
 40
4.0
 40
4.0
 40
4.0
 40
4.0
 10
91.82075193016983
 20
-147.3145222613484
 10
91.77389863157042
 20
-147.3145222613484
 10
91.73600258123267
 20
-147.3589639931081
 10
91.73600258123267
 20
-147.4140855208722
 10
91.73600258123267
 20
-147.471101851153
 10
91.77389863157042
 20
-147.5198499522693
 10
91.82436928042932
 20
-147.5198499522693
 10
91.87483992928823
 20
-147.5198499522693
 10
91.90911862936648
 20
-147.4690347938619
 10
91.90911862936648
 20
-147.4161525781633
 10
91.90911862936648
 20
-147.3589639931081
 10
91.86950003128611
 20
-147.3145222613484
 10
91.82075193016983
 20
-147.3145222613484
 97
        0
 97
        1
330
103
 92
        1
 93
        1
 72
     4
 94
        3
 73
     0
 74
     0
 95
       17
 96
       13
 40
0.0
 40
0.0
 40
0.0
 40
0.0
 40
1.0
 40
1.0
 40
1.0
 40
2.0
 40
2.0
 40
2.0
 40
3.0
 40
3.0
 40
3.0
 40
4.0
 40
4.0
 40
4.0
 40
4.0
 10
91.82264673268671
 20
-147.6445624088354
 10
91.71447073444985
 20
-147.6445624088354
 10
91.62782658299581
 20
-147.5431043467948
 10
91.62782658299581
 20
-147.4161525781633
 10
91.62782658299581
 20
-147.2892008095318
 10
91.71447073444985
 20
-147.1855034354258
 10
91.82264673268671
 20
-147.1855034354258
 10
91.93082273092356
 20
-147.1855034354258
 10
92.01918943012021
 20
-147.2892008095318
 10
92.01918943012021
 20
-147.4161525781633
 10
92.01918943012021
 20
-147.5431043467948
 10
91.93082273092356
 20
-147.6445624088354
 10
91.82264673268671
 20
-147.6445624088354
 97
        0
 97
        1
330
104
 92
        1
 93
        1
 72
     4
 94
        3
 73
     0
 74
     0
 95
       44
 96
       40
 40
0.0
 40
0.0
 40
0.0
 40
0.0
 40
1.0
 40
1.0
 40
1.0
 40
2.0
 40
2.0
 40
2.0
 40
3.0
 40
3.0
 40
3.0
 40
4.0
 40
4.0
 40
4.0
 40
5.0
 40
5.0
 40
5.0
 40
6.0
 40
6.0
 40
6.0
 40
7.0
 40
7.0
 40
7.0
 40
8.0
 40
8.0
 40
8.0
 40
9.0
 40
9.0
 40
9.0
 40
10.0
 40
10.0
 40
10.0
 40
11.0
 40
11.0
 40
11.0
 40
12.0
 40
12.0
 40
12.0
 40
13.0
 40
13.0
 40
13.0
 40
13.0
 10
91.64401853177649
 20
-147.8435166731085
 10
91.54858938683508
 20
-148.2116251257075
 10
91.50518118372094
 20
-148.3702717728033
 10
91.33757728836354
 20
-148.6198689407096
 10
91.1806531890104
 20
-148.8505180834471
 10
90.97859833880049
 20
-149.0365532396506
 10
90.740714495544
 20
-149.1299153273008
 10
90.740714495544
 20
-149.1299153273008
 10
90.57655569567184
 20
-148.9500813429708
 10
90.57655569567184
 20
-148.9500813429708
 10
91.12294783963246
 20
-148.7976358677485
 10
91.40423988600311
 20
-148.2412529468807
 10
91.45832788512153
 20
-147.80114199864
 10
91.45832788512153
 20
-147.80114199864
 10
90.80548229066669
 20
-147.80114199864
 10
90.80548229066669
 20
-147.80114199864
 10
90.72624509450594
 20
-147.80114199864
 10
90.56932099515281
 20
-147.8054483679965
 10
90.43582354509938
 20
-147.8243963931654
 10
90.43582354509938
 20
-147.8243963931654
 10
90.43582354509938
 20
-147.6044270464322
 10
90.43582354509938
 20
-147.6044270464322
 10
90.50989309803226
 20
-147.6256143836665
 10
90.72435029198905
 20
-147.6256143836665
 10
90.8090996409262
 20
-147.6256143836665
 10
90.8090996409262
 20
-147.6256143836665
 10
91.17703583875089
 20
-147.6256143836665
 10
91.17703583875089
 20
-147.6256143836665
 10
91.21303708657174
 20
-147.6256143836665
 10
91.41319713426476
 20
-147.6233750716011
 10
91.44575328660037
 20
-147.6171738997276
 10
91.48175453442123
 20
-147.6108004730799
 10
91.48364933693811
 20
-147.6085611610145
 10
91.53584253353965
 20
-147.5684257986114
 10
91.53584253353965
 20
-147.5684257986114
 10
91.6963839831523
 20
-147.7229383311248
 10
91.6963839831523
 20
-147.7229383311248
 10
91.67106253133571
 20
-147.752566152298
 10
91.65848793281455
 20
-147.7842610307622
 10
91.64401853177649
 20
-147.8435166731085
 97
        0
 97
        1
330
105
 75
     2
 76
     1
 98
        1
 10
0.0
 20
0.0
450
        0
451
        0
460
0.0
461
0.0
452
        0
462
0.0
453
        0
470

  0
SPLINE
  5
107
330
F2
100
AcDbEntity
  8
レイヤー 1
100
AcDbSpline
210
0.0
220
0.0
230
1.0
 70
     9
 71
     3
 72
    29
 73
    25
 74
     0
 42
0.0000000001
 43
0.0000000001
 40
0.0
 40
0.0
 40
0.0
 40
0.0
 40
1.0
 40
1.0
 40
1.0
 40
2.0
 40
2.0
 40
2.0
 40
3.0
 40
3.0
 40
3.0
 40
4.0
 40
4.0
 40
4.0
 40
5.0
 40
5.0
 40
5.0
 40
6.0
 40
6.0
 40
6.0
 40
7.0
 40
7.0
 40
7.0
 40
8.0
 40
8.0
 40
8.0
 40
8.0
 10
92.9304171859688
 20
-147.526223378917
 30
0.0
 10
92.9304171859688
 20
-147.526223378917
 30
0.0
 10
92.63999563656224
 20
-147.526223378917
 30
0.0
 10
92.63999563656224
 20
-147.526223378917
 30
0.0
 10
92.54267168910393
 20
-147.526223378917
 30
0.0
 10
92.44345293912871
 20
-147.5303574934993
 30
0.0
 10
92.34612899167041
 20
-147.5451714040859
 30
0.0
 10
92.34612899167041
 20
-147.5451714040859
 30
0.0
 10
92.34612899167041
 20
-147.3357095985827
 30
0.0
 10
92.34612899167041
 20
-147.3357095985827
 30
0.0
 10
92.44707028938824
 20
-147.3505235091693
 30
0.0
 10
92.59503714047971
 20
-147.3548298785259
 30
0.0
 10
92.63999563656224
 20
-147.3548298785259
 30
0.0
 10
92.63999563656224
 20
-147.3548298785259
 30
0.0
 10
92.9304171859688
 20
-147.3548298785259
 30
0.0
 10
92.9304171859688
 20
-147.3548298785259
 30
0.0
 10
93.02963593594398
 20
-147.3548298785259
 30
0.0
 10
93.12868243114492
 20
-147.3505235091693
 30
0.0
 10
93.22790118112012
 20
-147.3357095985827
 30
0.0
 10
93.22790118112012
 20
-147.3357095985827
 30
0.0
 10
93.22790118112012
 20
-147.5451714040859
 30
0.0
 10
93.22790118112012
 20
-147.5451714040859
 30
0.0
 10
93.09991588384308
 20
-147.526223378917
 30
0.0
 10
92.94299178448994
 20
-147.526223378917
 30
0.0
 10
92.9304171859688
 20
-147.526223378917
 30
0.0
  0
SPLINE
  5
108
330
F2
100
AcDbEntity
  8
レイヤー 1
100
AcDbSpline
210
0.0
220
0.0
230
1.0
 70
     9
 71
     3
 72
    50
 73
    46
 74
     0
 42
0.0000000001
 43
0.0000000001
 40
0.0
 40
0.0
 40
0.0
 40
0.0
 40
1.0
 40
1.0
 40
1.0
 40
2.0
 40
2.0
 40
2.0
 40
3.0
 40
3.0
 40
3.0
 40
4.0
 40
4.0
 40
4.0
 40
5.0
 40
5.0
 40
5.0
 40
6.0
 40
6.0
 40
6.0
 40
7.0
 40
7.0
 40
7.0
 40
8.0
 40
8.0
 40
8.0
 40
9.0
 40
9.0
 40
9.0
 40
10.0
 40
10.0
 40
10.0
 40
11.0
 40
11.0
 40
11.0
 40
12.0
 40
12.0
 40
12.0
 40
13.0
 40
13.0
 40
13.0
 40
14.0
 40
14.0
 40
14.0
 40
15.0
 40
15.0
 40
15.0
 40
15.0
 10
93.35054658039501
 20
-148.1523694833612
 30
0.0
 10
93.28388398275542
 20
-148.3299641556258
 30
0.0
 10
93.16847328399955
 20
-148.5373589038379
 30
0.0
 10
93.0511677827268
 20
-148.6770575257648
 30
0.0
 10
92.90699053666909
 20
-148.8482787713817
 30
0.0
 10
92.76815318861352
 20
-148.9373344896754
 30
0.0
 10
92.49581839050453
 20
-149.0789279141191
 30
0.0
 10
92.49581839050453
 20
-149.0789279141191
 30
0.0
 10
92.35146888967255
 20
-148.8908257006245
 30
0.0
 10
92.35146888967255
 20
-148.8908257006245
 30
0.0
 10
92.51028779154257
 20
-148.8673990513248
 30
0.0
 10
92.65635984011716
 20
-148.7805826450965
 30
0.0
 10
92.78606768513681
 20
-148.6748182136993
 30
0.0
 10
93.00965438212953
 20
-148.4929171720781
 30
0.0
 10
93.17209063425906
 20
-148.1797579924689
 30
0.0
 10
93.21343178008206
 20
-147.9978569508477
 30
0.0
 10
93.21343178008206
 20
-147.9978569508477
 30
0.0
 10
92.64189043907911
 20
-147.9978569508477
 30
0.0
 10
92.64189043907911
 20
-147.9978569508477
 30
0.0
 10
92.50667044128306
 20
-147.9978569508477
 30
0.0
 10
92.25776229247376
 20
-148.0062974347866
 30
0.0
 10
92.12788219267983
 20
-148.0233506574386
 30
0.0
 10
92.12788219267983
 20
-148.0233506574386
 30
0.0
 10
92.12788219267983
 20
-147.7947685719922
 30
0.0
 10
92.12788219267983
 20
-147.7947685719922
 30
0.0
 10
92.15682099475593
 20
-147.80114199864
 30
0.0
 10
92.17835284153876
 20
-147.8075154252877
 30
0.0
 10
92.22348359239552
 20
-147.8118217946442
 30
0.0
 10
92.31012774384955
 20
-147.8180229665177
 30
0.0
 10
92.47773163920696
 20
-147.8202622785831
 30
0.0
 10
92.54990638962295
 20
-147.8202622785831
 30
0.0
 10
92.54990638962295
 20
-147.8202622785831
 30
0.0
 10
92.9808878348277
 20
-147.8202622785831
 30
0.0
 10
92.9808878348277
 20
-147.8202622785831
 30
0.0
 10
93.03859318420563
 20
-147.8202622785831
 30
0.0
 10
93.16296113122316
 20
-147.8159559092266
 30
0.0
 10
93.21532658259895
 20
-147.8095824825788
 30
0.0
 10
93.27664928223638
 20
-147.80114199864
 30
0.0
 10
93.30007593153609
 20
-147.7863280880534
 30
0.0
 10
93.32884247883793
 20
-147.763073693528
 30
0.0
 10
93.32884247883793
 20
-147.763073693528
 30
0.0
 10
93.46957462941039
 20
-147.9301608245626
 30
0.0
 10
93.46957462941039
 20
-147.9301608245626
 30
0.0
 10
93.41014673228983
 20
-147.9978569508477
 30
0.0
 10
93.37035587943519
 20
-148.1015543249537
 30
0.0
 10
93.35054658039501
 20
-148.1523694833612
 30
0.0
  0
HATCH
  5
109
330
F2
100
AcDbEntity
  8
レイヤー 1
 62
   250
420
  2299925
440
 33554687
100
AcDbHatch
 10
0.0
 20
0.0
 30
0.0
210
0.0
220
0.0
230
1.0
  2
SOLID
 70
     1
 71
     1
 91
        2
 92
        1
 93
        1
 72
     4
 94
        3
 73
     0
 74
     0
 95
       29
 96
       25
 40
0.0
 40
0.0
 40
0.0
 40
0.0
 40
1.0
 40
1.0
 40
1.0
 40
2.0
 40
2.0
 40
2.0
 40
3.0
 40
3.0
 40
3.0
 40
4.0
 40
4.0
 40
4.0
 40
5.0
 40
5.0
 40
5.0
 40
6.0
 40
6.0
 40
6.0
 40
7.0
 40
7.0
 40
7.0
 40
8.0
 40
8.0
 40
8.0
 40
8.0
 10
92.9304171859688
 20
-147.526223378917
 10
92.9304171859688
 20
-147.526223378917
 10
92.63999563656224
 20
-147.526223378917
 10
92.63999563656224
 20
-147.526223378917
 10
92.54267168910393
 20
-147.526223378917
 10
92.44345293912871
 20
-147.5303574934993
 10
92.34612899167041
 20
-147.5451714040859
 10
92.34612899167041
 20
-147.5451714040859
 10
92.34612899167041
 20
-147.3357095985827
 10
92.34612899167041
 20
-147.3357095985827
 10
92.44707028938824
 20
-147.3505235091693
 10
92.59503714047971
 20
-147.3548298785259
 10
92.63999563656224
 20
-147.3548298785259
 10
92.63999563656224
 20
-147.3548298785259
 10
92.9304171859688
 20
-147.3548298785259
 10
92.9304171859688
 20
-147.3548298785259
 10
93.02963593594398
 20
-147.3548298785259
 10
93.12868243114492
 20
-147.3505235091693
 10
93.22790118112012
 20
-147.3357095985827
 10
93.22790118112012
 20
-147.3357095985827
 10
93.22790118112012
 20
-147.5451714040859
 10
93.22790118112012
 20
-147.5451714040859
 10
93.09991588384308
 20
-147.526223378917
 10
92.94299178448994
 20
-147.526223378917
 10
92.9304171859688
 20
-147.526223378917
 97
        0
 97
        1
330
107
 92
        1
 93
        1
 72
     4
 94
        3
 73
     0
 74
     0
 95
       50
 96
       46
 40
0.0
 40
0.0
 40
0.0
 40
0.0
 40
1.0
 40
1.0
 40
1.0
 40
2.0
 40
2.0
 40
2.0
 40
3.0
 40
3.0
 40
3.0
 40
4.0
 40
4.0
 40
4.0
 40
5.0
 40
5.0
 40
5.0
 40
6.0
 40
6.0
 40
6.0
 40
7.0
 40
7.0
 40
7.0
 40
8.0
 40
8.0
 40
8.0
 40
9.0
 40
9.0
 40
9.0
 40
10.0
 40
10.0
 40
10.0
 40
11.0
 40
11.0
 40
11.0
 40
12.0
 40
12.0
 40
12.0
 40
13.0
 40
13.0
 40
13.0
 40
14.0
 40
14.0
 40
14.0
 40
15.0
 40
15.0
 40
15.0
 40
15.0
 10
93.35054658039501
 20
-148.1523694833612
 10
93.28388398275542
 20
-148.3299641556258
 10
93.16847328399955
 20
-148.5373589038379
 10
93.0511677827268
 20
-148.6770575257648
 10
92.90699053666909
 20
-148.8482787713817
 10
92.76815318861352
 20
-148.9373344896754
 10
92.49581839050453
 20
-149.0789279141191
 10
92.49581839050453
 20
-149.0789279141191
 10
92.35146888967255
 20
-148.8908257006245
 10
92.35146888967255
 20
-148.8908257006245
 10
92.51028779154257
 20
-148.8673990513248
 10
92.65635984011716
 20
-148.7805826450965
 10
92.78606768513681
 20
-148.6748182136993
 10
93.00965438212953
 20
-148.4929171720781
 10
93.17209063425906
 20
-148.1797579924689
 10
93.21343178008206
 20
-147.9978569508477
 10
93.21343178008206
 20
-147.9978569508477
 10
92.64189043907911
 20
-147.9978569508477
 10
92.64189043907911
 20
-147.9978569508477
 10
92.50667044128306
 20
-147.9978569508477
 10
92.25776229247376
 20
-148.0062974347866
 10
92.12788219267983
 20
-148.0233506574386
 10
92.12788219267983
 20
-148.0233506574386
 10
92.12788219267983
 20
-147.7947685719922
 10
92.12788219267983
 20
-147.7947685719922
 10
92.15682099475593
 20
-147.80114199864
 10
92.17835284153876
 20
-147.8075154252877
 10
92.22348359239552
 20
-147.8118217946442
 10
92.31012774384955
 20
-147.8180229665177
 10
92.47773163920696
 20
-147.8202622785831
 10
92.54990638962295
 20
-147.8202622785831
 10
92.54990638962295
 20
-147.8202622785831
 10
92.9808878348277
 20
-147.8202622785831
 10
92.9808878348277
 20
-147.8202622785831
 10
93.03859318420563
 20
-147.8202622785831
 10
93.16296113122316
 20
-147.8159559092266
 10
93.21532658259895
 20
-147.8095824825788
 10
93.27664928223638
 20
-147.80114199864
 10
93.30007593153609
 20
-147.7863280880534
 10
93.32884247883793
 20
-147.763073693528
 10
93.32884247883793
 20
-147.763073693528
 10
93.46957462941039
 20
-147.9301608245626
 10
93.46957462941039
 20
-147.9301608245626
 10
93.41014673228983
 20
-147.9978569508477
 10
93.37035587943519
 20
-148.1015543249537
 10
93.35054658039501
 20
-148.1523694833612
 97
        0
 97
        1
330
108
 75
     2
 76
     1
 98
        1
 10
0.0
 20
0.0
450
        0
451
        0
460
0.0
461
0.0
452
        0
462
0.0
453
        0
470

  0
SPLINE
  5
10A
330
F2
100
AcDbEntity
  8
レイヤー 1
100
AcDbSpline
210
0.0
220
0.0
230
1.0
 70
     9
 71
     3
 72
    50
 73
    46
 74
     0
 42
0.0000000001
 43
0.0000000001
 40
0.0
 40
0.0
 40
0.0
 40
0.0
 40
1.0
 40
1.0
 40
1.0
 40
2.0
 40
2.0
 40
2.0
 40
3.0
 40
3.0
 40
3.0
 40
4.0
 40
4.0
 40
4.0
 40
5.0
 40
5.0
 40
5.0
 40
6.0
 40
6.0
 40
6.0
 40
7.0
 40
7.0
 40
7.0
 40
8.0
 40
8.0
 40
8.0
 40
9.0
 40
9.0
 40
9.0
 40
10.0
 40
10.0
 40
10.0
 40
11.0
 40
11.0
 40
11.0
 40
12.0
 40
12.0
 40
12.0
 40
13.0
 40
13.0
 40
13.0
 40
14.0
 40
14.0
 40
14.0
 40
15.0
 40
15.0
 40
15.0
 40
15.0
 10
94.80644393246159
 20
-147.5114094683305
 30
0.0
 10
94.62798798632565
 20
-147.7250053884159
 30
0.0
 10
94.5666652866882
 20
-147.7970078840577
 30
0.0
 10
94.44574243515594
 20
-147.915346913976
 30
0.0
 10
94.44574243515594
 20
-147.915346913976
 30
0.0
 10
94.44574243515594
 20
-148.4824096308481
 30
0.0
 10
94.44574243515594
 20
-148.4824096308481
 30
0.0
 10
94.44574243515594
 20
-148.632615794005
 30
0.0
 10
94.45125458793233
 20
-148.6515638191739
 30
0.0
 10
94.45487193819184
 20
-148.8293307462128
 30
0.0
 10
94.45659448593445
 20
-148.9604166294265
 30
0.0
 10
94.46210663871086
 20
-149.0093369853171
 30
0.0
 10
94.467446536713
 20
-149.0685926276634
 30
0.0
 10
94.467446536713
 20
-149.0685926276634
 30
0.0
 10
94.27452118953901
 20
-149.0685926276634
 30
0.0
 10
94.27452118953901
 20
-149.0685926276634
 30
0.0
 10
94.27813853979852
 20
-149.0241508959037
 30
0.0
 10
94.28175589005803
 20
-148.9772975973043
 30
0.0
 10
94.28175589005803
 20
-148.9690293681397
 30
0.0
 10
94.28175589005803
 20
-148.8887586433333
 30
0.0
 10
94.28537324031756
 20
-148.5373589038379
 30
0.0
 10
94.28537324031756
 20
-148.4653564081961
 30
0.0
 10
94.28537324031756
 20
-148.4653564081961
 30
0.0
 10
94.28537324031756
 20
-148.0591796504852
 30
0.0
 10
94.28537324031756
 20
-148.0591796504852
 30
0.0
 10
94.13017168870705
 20
-148.1840643618255
 30
0.0
 10
93.96429034109226
 20
-148.2941351625792
 30
0.0
 10
93.79117429295845
 20
-148.3807793140333
 30
0.0
 10
93.79117429295845
 20
-148.3807793140333
 30
0.0
 10
93.61805824482464
 20
-148.2179985523552
 30
0.0
 10
93.61805824482464
 20
-148.2179985523552
 30
0.0
 10
93.72261689280199
 20
-148.1819973045344
 30
0.0
 10
93.94086369179257
 20
-148.1079277516015
 30
0.0
 10
94.23490259145863
 20
-147.8519571570474
 30
0.0
 10
94.41869843559672
 20
-147.6933105099517
 30
0.0
 10
94.58285723546888
 20
-147.5050360416828
 30
0.0
 10
94.71273733526279
 20
-147.2848944401753
 30
0.0
 10
94.71273733526279
 20
-147.2848944401753
 30
0.0
 10
94.87672388036068
 20
-147.4288994314587
 30
0.0
 10
94.87672388036068
 20
-147.4288994314587
 30
0.0
 10
94.88757593113922
 20
-147.4394069726888
 30
0.0
 10
94.89481063165824
 20
-147.4542208832753
 30
0.0
 10
94.89481063165824
 20
-147.4669677365707
 30
0.0
 10
94.89481063165824
 20
-147.5071030989739
 30
0.0
 10
94.86242673409689
 20
-147.5071030989739
 30
0.0
 10
94.80644393246159
 20
-147.5114094683305
 30
0.0
  0
HATCH
  5
10B
330
F2
100
AcDbEntity
  8
レイヤー 1
 62
   250
420
  2299925
440
 33554687
100
AcDbHatch
 10
0.0
 20
0.0
 30
0.0
210
0.0
220
0.0
230
1.0
  2
SOLID
 70
     1
 71
     1
 91
        1
 92
        1
 93
        1
 72
     4
 94
        3
 73
     0
 74
     0
 95
       50
 96
       46
 40
0.0
 40
0.0
 40
0.0
 40
0.0
 40
1.0
 40
1.0
 40
1.0
 40
2.0
 40
2.0
 40
2.0
 40
3.0
 40
3.0
 40
3.0
 40
4.0
 40
4.0
 40
4.0
 40
5.0
 40
5.0
 40
5.0
 40
6.0
 40
6.0
 40
6.0
 40
7.0
 40
7.0
 40
7.0
 40
8.0
 40
8.0
 40
8.0
 40
9.0
 40
9.0
 40
9.0
 40
10.0
 40
10.0
 40
10.0
 40
11.0
 40
11.0
 40
11.0
 40
12.0
 40
12.0
 40
12.0
 40
13.0
 40
13.0
 40
13.0
 40
14.0
 40
14.0
 40
14.0
 40
15.0
 40
15.0
 40
15.0
 40
15.0
 10
94.80644393246159
 20
-147.5114094683305
 10
94.62798798632565
 20
-147.7250053884159
 10
94.5666652866882
 20
-147.7970078840577
 10
94.44574243515594
 20
-147.915346913976
 10
94.44574243515594
 20
-147.915346913976
 10
94.44574243515594
 20
-148.4824096308481
 10
94.44574243515594
 20
-148.4824096308481
 10
94.44574243515594
 20
-148.632615794005
 10
94.45125458793233
 20
-148.6515638191739
 10
94.45487193819184
 20
-148.8293307462128
 10
94.45659448593445
 20
-148.9604166294265
 10
94.46210663871086
 20
-149.0093369853171
 10
94.467446536713
 20
-149.0685926276634
 10
94.467446536713
 20
-149.0685926276634
 10
94.27452118953901
 20
-149.0685926276634
 10
94.27452118953901
 20
-149.0685926276634
 10
94.27813853979852
 20
-149.0241508959037
 10
94.28175589005803
 20
-148.9772975973043
 10
94.28175589005803
 20
-148.9690293681397
 10
94.28175589005803
 20
-148.8887586433333
 10
94.28537324031756
 20
-148.5373589038379
 10
94.28537324031756
 20
-148.4653564081961
 10
94.28537324031756
 20
-148.4653564081961
 10
94.28537324031756
 20
-148.0591796504852
 10
94.28537324031756
 20
-148.0591796504852
 10
94.13017168870705
 20
-148.1840643618255
 10
93.96429034109226
 20
-148.2941351625792
 10
93.79117429295845
 20
-148.3807793140333
 10
93.79117429295845
 20
-148.3807793140333
 10
93.61805824482464
 20
-148.2179985523552
 10
93.61805824482464
 20
-148.2179985523552
 10
93.72261689280199
 20
-148.1819973045344
 10
93.94086369179257
 20
-148.1079277516015
 10
94.23490259145863
 20
-147.8519571570474
 10
94.41869843559672
 20
-147.6933105099517
 10
94.58285723546888
 20
-147.5050360416828
 10
94.71273733526279
 20
-147.2848944401753
 10
94.71273733526279
 20
-147.2848944401753
 10
94.87672388036068
 20
-147.4288994314587
 10
94.87672388036068
 20
-147.4288994314587
 10
94.88757593113922
 20
-147.4394069726888
 10
94.89481063165824
 20
-147.4542208832753
 10
94.89481063165824
 20
-147.4669677365707
 10
94.89481063165824
 20
-147.5071030989739
 10
94.86242673409689
 20
-147.5071030989739
 10
94.80644393246159
 20
-147.5114094683305
 97
        0
 97
        1
330
10A
 75
     2
 76
     1
 98
        1
 10
0.0
 20
0.0
450
        0
451
        0
460
0.0
461
0.0
452
        0
462
0.0
453
        0
470

  0
SPLINE
  5
10C
330
F2
100
AcDbEntity
  8
レイヤー 1
100
AcDbSpline
210
0.0
220
0.0
230
1.0
 70
     9
 71
     3
 72
    50
 73
    46
 74
     0
 42
0.0000000001
 43
0.0000000001
 40
0.0
 40
0.0
 40
0.0
 40
0.0
 40
1.0
 40
1.0
 40
1.0
 40
2.0
 40
2.0
 40
2.0
 40
3.0
 40
3.0
 40
3.0
 40
4.0
 40
4.0
 40
4.0
 40
5.0
 40
5.0
 40
5.0
 40
6.0
 40
6.0
 40
6.0
 40
7.0
 40
7.0
 40
7.0
 40
8.0
 40
8.0
 40
8.0
 40
9.0
 40
9.0
 40
9.0
 40
10.0
 40
10.0
 40
10.0
 40
11.0
 40
11.0
 40
11.0
 40
12.0
 40
12.0
 40
12.0
 40
13.0
 40
13.0
 40
13.0
 40
14.0
 40
14.0
 40
14.0
 40
15.0
 40
15.0
 40
15.0
 40
15.0
 10
96.26044648201128
 20
-148.0381645680252
 30
0.0
 10
96.20825328540975
 20
-148.1099948088926
 30
0.0
 10
95.98638913615966
 20
-148.4272881030841
 30
0.0
 10
95.93764103504337
 20
-148.490850114787
 30
0.0
 10
96.00981578545935
 20
-148.5881740622453
 30
0.0
 10
96.05305173379925
 20
-148.6515638191739
 30
0.0
 10
96.10903453543455
 20
-148.7425143399845
 30
0.0
 10
96.10903453543455
 20
-148.7425143399845
 30
0.0
 10
95.95211043608143
 20
-148.8801459046202
 30
0.0
 10
95.95211043608143
 20
-148.8801459046202
 30
0.0
 10
95.83669973732554
 20
-148.6684447870516
 30
0.0
 10
95.69062768875097
 20
-148.4443413257361
 30
0.0
 10
95.43999699219902
 20
-148.2453870614629
 30
0.0
 10
95.43999699219902
 20
-148.2453870614629
 30
0.0
 10
95.56625974173343
 20
-148.0910467837238
 30
0.0
 10
95.56625974173343
 20
-148.0910467837238
 30
0.0
 10
95.65996633893224
 20
-148.17131750853
 30
0.0
 10
95.74833303812889
 20
-148.2602009720495
 30
0.0
 10
95.83135983932342
 20
-148.3554578622167
 30
0.0
 10
95.88906518870135
 20
-148.2793212519927
 30
0.0
 10
96.06218123683516
 20
-148.0359252559597
 30
0.0
 10
96.17569713307414
 20
-147.8075154252877
 30
0.0
 10
96.17569713307414
 20
-147.8075154252877
 30
0.0
 10
95.6022609895543
 20
-147.8075154252877
 30
0.0
 10
95.6022609895543
 20
-147.8075154252877
 30
0.0
 10
95.49580753906008
 20
-147.8075154252877
 30
0.0
 10
95.28135034510327
 20
-147.8159559092266
 30
0.0
 10
95.10272214419307
 20
-147.8264634504566
 30
0.0
 10
95.10272214419307
 20
-147.8264634504566
 30
0.0
 10
95.10272214419307
 20
-147.6064941037233
 30
0.0
 10
95.10272214419307
 20
-147.6064941037233
 30
0.0
 10
95.25964624354619
 20
-147.6256143836665
 30
0.0
 10
95.4346570941969
 20
-147.6297484982488
 30
0.0
 10
95.59502628903528
 20
-147.6297484982488
 30
0.0
 10
95.59502628903528
 20
-147.6297484982488
 30
0.0
 10
96.02428518649741
 20
-147.6297484982488
 30
0.0
 10
96.02428518649741
 20
-147.6297484982488
 30
0.0
 10
96.31281193338708
 20
-147.6297484982488
 30
0.0
 10
96.35070798372483
 20
-147.6149345876622
 30
0.0
 10
96.42098793162393
 20
-147.5747992252591
 30
0.0
 10
96.42098793162393
 20
-147.5747992252591
 30
0.0
 10
96.56344262993901
 20
-147.7334458723548
 30
0.0
 10
96.56344262993901
 20
-147.7334458723548
 30
0.0
 10
96.43356253014509
 20
-147.8054483679965
 30
0.0
 10
96.3109171308702
 20
-147.9682291296746
 30
0.0
 10
96.26044648201128
 20
-148.0381645680252
 30
0.0
  0
HATCH
  5
10D
330
F2
100
AcDbEntity
  8
レイヤー 1
 62
   250
420
  2299925
440
 33554687
100
AcDbHatch
 10
0.0
 20
0.0
 30
0.0
210
0.0
220
0.0
230
1.0
  2
SOLID
 70
     1
 71
     1
 91
        1
 92
        1
 93
        1
 72
     4
 94
        3
 73
     0
 74
     0
 95
       50
 96
       46
 40
0.0
 40
0.0
 40
0.0
 40
0.0
 40
1.0
 40
1.0
 40
1.0
 40
2.0
 40
2.0
 40
2.0
 40
3.0
 40
3.0
 40
3.0
 40
4.0
 40
4.0
 40
4.0
 40
5.0
 40
5.0
 40
5.0
 40
6.0
 40
6.0
 40
6.0
 40
7.0
 40
7.0
 40
7.0
 40
8.0
 40
8.0
 40
8.0
 40
9.0
 40
9.0
 40
9.0
 40
10.0
 40
10.0
 40
10.0
 40
11.0
 40
11.0
 40
11.0
 40
12.0
 40
12.0
 40
12.0
 40
13.0
 40
13.0
 40
13.0
 40
14.0
 40
14.0
 40
14.0
 40
15.0
 40
15.0
 40
15.0
 40
15.0
 10
96.26044648201128
 20
-148.0381645680252
 10
96.20825328540975
 20
-148.1099948088926
 10
95.98638913615966
 20
-148.4272881030841
 10
95.93764103504337
 20
-148.490850114787
 10
96.00981578545935
 20
-148.5881740622453
 10
96.05305173379925
 20
-148.6515638191739
 10
96.10903453543455
 20
-148.7425143399845
 10
96.10903453543455
 20
-148.7425143399845
 10
95.95211043608143
 20
-148.8801459046202
 10
95.95211043608143
 20
-148.8801459046202
 10
95.83669973732554
 20
-148.6684447870516
 10
95.69062768875097
 20
-148.4443413257361
 10
95.43999699219902
 20
-148.2453870614629
 10
95.43999699219902
 20
-148.2453870614629
 10
95.56625974173343
 20
-148.0910467837238
 10
95.56625974173343
 20
-148.0910467837238
 10
95.65996633893224
 20
-148.17131750853
 10
95.74833303812889
 20
-148.2602009720495
 10
95.83135983932342
 20
-148.3554578622167
 10
95.88906518870135
 20
-148.2793212519927
 10
96.06218123683516
 20
-148.0359252559597
 10
96.17569713307414
 20
-147.8075154252877
 10
96.17569713307414
 20
-147.8075154252877
 10
95.6022609895543
 20
-147.8075154252877
 10
95.6022609895543
 20
-147.8075154252877
 10
95.49580753906008
 20
-147.8075154252877
 10
95.28135034510327
 20
-147.8159559092266
 10
95.10272214419307
 20
-147.8264634504566
 10
95.10272214419307
 20
-147.8264634504566
 10
95.10272214419307
 20
-147.6064941037233
 10
95.10272214419307
 20
-147.6064941037233
 10
95.25964624354619
 20
-147.6256143836665
 10
95.4346570941969
 20
-147.6297484982488
 10
95.59502628903528
 20
-147.6297484982488
 10
95.59502628903528
 20
-147.6297484982488
 10
96.02428518649741
 20
-147.6297484982488
 10
96.02428518649741
 20
-147.6297484982488
 10
96.31281193338708
 20
-147.6297484982488
 10
96.35070798372483
 20
-147.6149345876622
 10
96.42098793162393
 20
-147.5747992252591
 10
96.42098793162393
 20
-147.5747992252591
 10
96.56344262993901
 20
-147.7334458723548
 10
96.56344262993901
 20
-147.7334458723548
 10
96.43356253014509
 20
-147.8054483679965
 10
96.3109171308702
 20
-147.9682291296746
 10
96.26044648201128
 20
-148.0381645680252
 97
        0
 97
        1
330
10C
 75
     2
 76
     1
 98
        1
 10
0.0
 20
0.0
450
        0
451
        0
460
0.0
461
0.0
452
        0
462
0.0
453
        0
470

  0
SPLINE
  5
10E
330
F2
100
AcDbEntity
  8
レイヤー 1
100
AcDbSpline
210
0.0
220
0.0
230
1.0
 70
     9
 71
     3
 72
    29
 73
    25
 74
     0
 42
0.0000000001
 43
0.0000000001
 40
0.0
 40
0.0
 40
0.0
 40
0.0
 40
1.0
 40
1.0
 40
1.0
 40
2.0
 40
2.0
 40
2.0
 40
3.0
 40
3.0
 40
3.0
 40
4.0
 40
4.0
 40
4.0
 40
5.0
 40
5.0
 40
5.0
 40
6.0
 40
6.0
 40
6.0
 40
7.0
 40
7.0
 40
7.0
 40
8.0
 40
8.0
 40
8.0
 40
8.0
 10
97.64244653591925
 20
-148.2813883092838
 30
0.0
 10
97.64244653591925
 20
-148.2813883092838
 30
0.0
 10
97.22955184201206
 20
-148.2813883092838
 30
0.0
 10
97.22955184201206
 20
-148.2813883092838
 30
0.0
 10
97.2059529379381
 20
-148.2813883092838
 30
0.0
 10
96.935512942346
 20
-148.2813883092838
 30
0.0
 10
96.75516219369315
 20
-148.3067097611004
 30
0.0
 10
96.75516219369315
 20
-148.3067097611004
 30
0.0
 10
96.75516219369315
 20
-148.0762328731372
 30
0.0
 10
96.75516219369315
 20
-148.0762328731372
 30
0.0
 10
96.89038219148921
 20
-148.0994872676626
 30
0.0
 10
97.05281844361875
 20
-148.1015543249537
 30
0.0
 10
97.22955184201206
 20
-148.1015543249537
 30
0.0
 10
97.22955184201206
 20
-148.1015543249537
 30
0.0
 10
97.64244653591925
 20
-148.1015543249537
 30
0.0
 10
97.64244653591925
 20
-148.1015543249537
 30
0.0
 10
97.80109318301501
 20
-148.1015543249537
 30
0.0
 10
97.95973983011077
 20
-148.0994872676626
 30
0.0
 10
98.1166639294639
 20
-148.0762328731372
 30
0.0
 10
98.1166639294639
 20
-148.0762328731372
 30
0.0
 10
98.1166639294639
 20
-148.3067097611004
 30
0.0
 10
98.1166639294639
 20
-148.3067097611004
 30
0.0
 10
97.95973983011077
 20
-148.2834553665749
 30
0.0
 10
97.74889998641349
 20
-148.2813883092838
 30
0.0
 10
97.64244653591925
 20
-148.2813883092838
 30
0.0
  0
HATCH
  5
10F
330
F2
100
AcDbEntity
  8
レイヤー 1
 62
   250
420
  2299925
440
 33554687
100
AcDbHatch
 10
0.0
 20
0.0
 30
0.0
210
0.0
220
0.0
230
1.0
  2
SOLID
 70
     1
 71
     1
 91
        1
 92
        1
 93
        1
 72
     4
 94
        3
 73
     0
 74
     0
 95
       29
 96
       25
 40
0.0
 40
0.0
 40
0.0
 40
0.0
 40
1.0
 40
1.0
 40
1.0
 40
2.0
 40
2.0
 40
2.0
 40
3.0
 40
3.0
 40
3.0
 40
4.0
 40
4.0
 40
4.0
 40
5.0
 40
5.0
 40
5.0
 40
6.0
 40
6.0
 40
6.0
 40
7.0
 40
7.0
 40
7.0
 40
8.0
 40
8.0
 40
8.0
 40
8.0
 10
97.64244653591925
 20
-148.2813883092838
 10
97.64244653591925
 20
-148.2813883092838
 10
97.22955184201206
 20
-148.2813883092838
 10
97.22955184201206
 20
-148.2813883092838
 10
97.2059529379381
 20
-148.2813883092838
 10
96.935512942346
 20
-148.2813883092838
 10
96.75516219369315
 20
-148.3067097611004
 10
96.75516219369315
 20
-148.3067097611004
 10
96.75516219369315
 20
-148.0762328731372
 10
96.75516219369315
 20
-148.0762328731372
 10
96.89038219148921
 20
-148.0994872676626
 10
97.05281844361875
 20
-148.1015543249537
 10
97.22955184201206
 20
-148.1015543249537
 10
97.22955184201206
 20
-148.1015543249537
 10
97.64244653591925
 20
-148.1015543249537
 10
97.64244653591925
 20
-148.1015543249537
 10
97.80109318301501
 20
-148.1015543249537
 10
97.95973983011077
 20
-148.0994872676626
 10
98.1166639294639
 20
-148.0762328731372
 10
98.1166639294639
 20
-148.0762328731372
 10
98.1166639294639
 20
-148.3067097611004
 10
98.1166639294639
 20
-148.3067097611004
 10
97.95973983011077
 20
-148.2834553665749
 10
97.74889998641349
 20
-148.2813883092838
 10
97.64244653591925
 20
-148.2813883092838
 97
        0
 97
        1
330
10E
 75
     2
 76
     1
 98
        1
 10
0.0
 20
0.0
450
        0
451
        0
460
0.0
461
0.0
452
        0
462
0.0
453
        0
470

  0
SPLINE
  5
110
330
F2
100
AcDbEntity
  8
レイヤー 1
100
AcDbSpline
210
0.0
220
0.0
230
1.0
 70
     9
 71
     3
 72
    20
 73
    16
 74
     0
 42
0.0000000001
 43
0.0000000001
 40
0.0
 40
0.0
 40
0.0
 40
0.0
 40
1.0
 40
1.0
 40
1.0
 40
2.0
 40
2.0
 40
2.0
 40
3.0
 40
3.0
 40
3.0
 40
4.0
 40
4.0
 40
4.0
 40
5.0
 40
5.0
 40
5.0
 40
5.0
 10
99.17379147911281
 20
-148.632615794005
 30
0.0
 10
99.13417288103243
 20
-148.4548488669661
 30
0.0
 10
99.0511460798379
 20
-148.3130831877481
 30
0.0
 10
98.93211803082254
 20
-148.2031846417686
 30
0.0
 10
98.93211803082254
 20
-148.2031846417686
 30
0.0
 10
99.06923283113549
 20
-148.0888074716583
 30
0.0
 10
99.06923283113549
 20
-148.0888074716583
 30
0.0
 10
99.12142602773702
 20
-148.1311821461269
 30
0.0
 10
99.15570472781524
 20
-148.1649440818823
 30
0.0
 10
99.22064477771222
 20
-148.2729478253449
 30
0.0
 10
99.28920217786867
 20
-148.3892197979721
 30
0.0
 10
99.30728892916624
 20
-148.4421020136707
 30
0.0
 10
99.32882077594905
 20
-148.5077310826647
 30
0.0
 10
99.32882077594905
 20
-148.5077310826647
 30
0.0
 10
99.17379147911281
 20
-148.632615794005
 30
0.0
 10
99.17379147911281
 20
-148.632615794005
 30
0.0
  0
SPLINE
  5
111
330
F2
100
AcDbEntity
  8
レイヤー 1
100
AcDbSpline
210
0.0
220
0.0
230
1.0
 70
     9
 71
     3
 72
    77
 73
    73
 74
     0
 42
0.0000000001
 43
0.0000000001
 40
0.0
 40
0.0
 40
0.0
 40
0.0
 40
1.0
 40
1.0
 40
1.0
 40
2.0
 40
2.0
 40
2.0
 40
3.0
 40
3.0
 40
3.0
 40
4.0
 40
4.0
 40
4.0
 40
5.0
 40
5.0
 40
5.0
 40
6.0
 40
6.0
 40
6.0
 40
7.0
 40
7.0
 40
7.0
 40
8.0
 40
8.0
 40
8.0
 40
9.0
 40
9.0
 40
9.0
 40
10.0
 40
10.0
 40
10.0
 40
11.0
 40
11.0
 40
11.0
 40
12.0
 40
12.0
 40
12.0
 40
13.0
 40
13.0
 40
13.0
 40
14.0
 40
14.0
 40
14.0
 40
15.0
 40
15.0
 40
15.0
 40
16.0
 40
16.0
 40
16.0
 40
17.0
 40
17.0
 40
17.0
 40
18.0
 40
18.0
 40
18.0
 40
19.0
 40
19.0
 40
19.0
 40
20.0
 40
20.0
 40
20.0
 40
21.0
 40
21.0
 40
21.0
 40
22.0
 40
22.0
 40
22.0
 40
23.0
 40
23.0
 40
23.0
 40
24.0
 40
24.0
 40
24.0
 40
24.0
 10
99.83025442382716
 20
-147.9069064300371
 30
0.0
 10
99.77065427193235
 20
-147.9027723154549
 30
0.0
 10
99.71294892255441
 20
-147.9027723154549
 30
0.0
 10
99.65524357317647
 20
-147.9027723154549
 30
0.0
 10
99.65524357317647
 20
-147.9027723154549
 30
0.0
 10
99.65524357317647
 20
-148.6770575257648
 30
0.0
 10
99.65524357317647
 20
-148.6770575257648
 30
0.0
 10
99.65524357317647
 20
-148.9414686042577
 30
0.0
 10
99.65352102543384
 20
-148.9710964254308
 30
0.0
 10
99.64800887265745
 20
-149.000724246604
 30
0.0
 10
99.61924232535562
 20
-149.1340494418831
 30
0.0
 10
99.53259817390158
 20
-149.1423176710477
 30
0.0
 10
99.38290877506748
 20
-149.1423176710477
 30
0.0
 10
99.34863007498924
 20
-149.1423176710477
 30
0.0
 10
99.33433292872544
 20
-149.1423176710477
 30
0.0
 10
99.30005422864722
 20
-149.1381835564654
 30
0.0
 10
99.30005422864722
 20
-149.1381835564654
 30
0.0
 10
99.193600778153
 20
-148.8970268724979
 30
0.0
 10
99.193600778153
 20
-148.8970268724979
 30
0.0
 10
99.2928195281282
 20
-148.9287217509622
 30
0.0
 10
99.3630994760273
 20
-148.9287217509622
 30
0.0
 10
99.38290877506748
 20
-148.9287217509622
 30
0.0
 10
99.4425089269623
 20
-148.9287217509622
 30
0.0
 10
99.47127547426413
 20
-148.9118407830845
 30
0.0
 10
99.47489282452364
 20
-148.8546521980294
 30
0.0
 10
99.47489282452364
 20
-148.841905344734
 30
0.0
 10
99.47678762704054
 20
-148.7447536520499
 30
0.0
 10
99.47678762704054
 20
-148.6875650669948
 30
0.0
 10
99.47678762704054
 20
-148.6875650669948
 30
0.0
 10
99.47678762704054
 20
-147.9005330033894
 30
0.0
 10
99.47678762704054
 20
-147.9005330033894
 30
0.0
 10
99.47678762704054
 20
-147.9005330033894
 30
0.0
 10
99.22615693048861
 20
-147.9005330033894
 30
0.0
 10
99.22615693048861
 20
-147.9005330033894
 30
0.0
 10
99.10161672869683
 20
-147.9005330033894
 30
0.0
 10
98.97724878167931
 20
-147.9069064300371
 30
0.0
 10
98.85460338240442
 20
-147.9196532833326
 30
0.0
 10
98.85460338240442
 20
-147.9196532833326
 30
0.0
 10
98.85460338240442
 20
-147.7122585351205
 30
0.0
 10
98.85460338240442
 20
-147.7122585351205
 30
0.0
 10
98.98258867968145
 20
-147.7250053884159
 30
0.0
 10
99.16845158111067
 20
-147.7293117577725
 30
0.0
 10
99.22615693048861
 20
-147.7293117577725
 30
0.0
 10
99.22615693048861
 20
-147.7293117577725
 30
0.0
 10
99.47678762704054
 20
-147.7293117577725
 30
0.0
 10
99.47678762704054
 20
-147.7293117577725
 30
0.0
 10
99.47489282452364
 20
-147.460594309923
 30
0.0
 10
99.47489282452364
 20
-147.384457699699
 30
0.0
 10
99.46765812400462
 20
-147.2363185938332
 30
0.0
 10
99.46765812400462
 20
-147.2363185938332
 30
0.0
 10
99.68779972551208
 20
-147.2743868989453
 30
0.0
 10
99.68779972551208
 20
-147.2743868989453
 30
0.0
 10
99.70037432403325
 20
-147.2764539562364
 30
0.0
 10
99.71294892255441
 20
-147.2828273828841
 30
0.0
 10
99.71294892255441
 20
-147.3040147201184
 30
0.0
 10
99.71294892255441
 20
-147.3231350000616
 30
0.0
 10
99.70760902455227
 20
-147.3252020573527
 30
0.0
 10
99.65886092343598
 20
-147.3589639931081
 30
0.0
 10
99.65524357317647
 20
-147.4373399153976
 30
0.0
 10
99.65524357317647
 20
-147.4521538259842
 30
0.0
 10
99.65524357317647
 20
-147.7293117577725
 30
0.0
 10
99.8066555197532
 20
-147.7250053884159
 30
0.0
 10
99.82301972330814
 20
-147.7250053884159
 30
0.0
 10
99.85178627060998
 20
-147.7206990190594
 30
0.0
 10
99.89502221894987
 20
-147.7165649044771
 30
0.0
 10
99.89863956920938
 20
-147.7144978471859
 30
0.0
 10
99.93653561954712
 20
-147.7122585351205
 30
0.0
 10
99.93653561954712
 20
-147.7122585351205
 30
0.0
 10
99.93653561954712
 20
-147.9196532833326
 30
0.0
 10
99.93653561954712
 20
-147.9196532833326
 30
0.0
 10
99.91138642250479
 20
-147.9175862260414
 30
0.0
 10
99.86453312390541
 20
-147.9089734873283
 30
0.0
 10
99.83025442382716
 20
-147.9069064300371
 30
0.0
  0
SPLINE
  5
112
330
F2
100
AcDbEntity
  8
レイヤー 1
100
AcDbSpline
210
0.0
220
0.0
230
1.0
 70
     9
 71
     3
 72
    53
 73
    49
 74
     0
 42
0.0000000001
 43
0.0000000001
 40
0.0
 40
0.0
 40
0.0
 40
0.0
 40
1.0
 40
1.0
 40
1.0
 40
2.0
 40
2.0
 40
2.0
 40
3.0
 40
3.0
 40
3.0
 40
4.0
 40
4.0
 40
4.0
 40
5.0
 40
5.0
 40
5.0
 40
6.0
 40
6.0
 40
6.0
 40
7.0
 40
7.0
 40
7.0
 40
8.0
 40
8.0
 40
8.0
 40
9.0
 40
9.0
 40
9.0
 40
10.0
 40
10.0
 40
10.0
 40
11.0
 40
11.0
 40
11.0
 40
12.0
 40
12.0
 40
12.0
 40
13.0
 40
13.0
 40
13.0
 40
14.0
 40
14.0
 40
14.0
 40
15.0
 40
15.0
 40
15.0
 40
16.0
 40
16.0
 40
16.0
 40
16.0
 10
98.84926348440227
 20
-147.4077120942244
 30
0.0
 10
98.79155813502434
 20
-147.5599853146725
 30
0.0
 10
98.75538463242921
 20
-147.6381889821877
 30
0.0
 10
98.72300073486787
 20
-147.7058851084728
 30
0.0
 10
98.75900198268872
 20
-147.7270724457071
 30
0.0
 10
98.76261933294824
 20
-147.7293117577725
 30
0.0
 10
98.76261933294824
 20
-147.7439534135848
 30
0.0
 10
98.76261933294824
 20
-147.7567002668803
 30
0.0
 10
98.7338527856464
 20
-147.79063445741
 30
0.0
 10
98.72472328261048
 20
-147.7990749413488
 30
0.0
 10
98.72300073486787
 20
-147.9957898935566
 30
0.0
 10
98.72300073486787
 20
-148.0169772307909
 30
0.0
 10
98.72300073486787
 20
-148.1501301712958
 30
0.0
 10
98.72110593235099
 20
-148.1628770245912
 30
0.0
 10
98.72110593235099
 20
-148.1776909351778
 30
0.0
 10
98.72110593235099
 20
-148.1925048457644
 30
0.0
 10
98.72110593235099
 20
-148.1925048457644
 30
0.0
 10
98.72110593235099
 20
-148.7277004293979
 30
0.0
 10
98.72110593235099
 20
-148.7277004293979
 30
0.0
 10
98.72110593235099
 20
-148.7997029250396
 30
0.0
 10
98.72472328261048
 20
-149.0344861823594
 30
0.0
 10
98.73195798312952
 20
-149.1447292378874
 30
0.0
 10
98.73195798312952
 20
-149.1447292378874
 30
0.0
 10
98.52456323491749
 20
-149.1447292378874
 30
0.0
 10
98.52456323491749
 20
-149.1447292378874
 30
0.0
 10
98.54437253395765
 20
-148.9859103360174
 30
0.0
 10
98.54988468673406
 20
-148.7447536520499
 30
0.0
 10
98.54988468673406
 20
-148.7235663148156
 30
0.0
 10
98.54988468673406
 20
-148.7235663148156
 30
0.0
 10
98.54988468673406
 20
-148.0062974347866
 30
0.0
 10
98.54988468673406
 20
-148.0062974347866
 30
0.0
 10
98.47237003831594
 20
-148.1206746048969
 30
0.0
 10
98.42000458694014
 20
-148.1797579924689
 30
0.0
 10
98.38400333911927
 20
-148.2221326669375
 30
0.0
 10
98.38400333911927
 20
-148.2221326669375
 30
0.0
 10
98.22156708698976
 20
-148.084673357076
 30
0.0
 10
98.22156708698976
 20
-148.084673357076
 30
0.0
 10
98.46151798753741
 20
-147.8688381249251
 30
0.0
 10
98.6255045326353
 20
-147.5599853146725
 30
0.0
 10
98.72110593235099
 20
-147.2235717405378
 30
0.0
 10
98.72110593235099
 20
-147.2235717405378
 30
0.0
 10
98.90869138152282
 20
-147.3377766558739
 30
0.0
 10
98.90869138152282
 20
-147.3377766558739
 30
0.0
 10
98.91954343230137
 20
-147.3441500825216
 30
0.0
 10
98.92677813282039
 20
-147.3484564518781
 30
0.0
 10
98.92677813282039
 20
-147.3632703624647
 30
0.0
 10
98.92677813282039
 20
-147.3885918142813
 30
0.0
 10
98.91230873178235
 20
-147.3928981836379
 30
0.0
 10
98.84926348440227
 20
-147.4077120942244
 30
0.0
  0
HATCH
  5
113
330
F2
100
AcDbEntity
  8
レイヤー 1
 62
   250
420
  2299925
440
 33554687
100
AcDbHatch
 10
0.0
 20
0.0
 30
0.0
210
0.0
220
0.0
230
1.0
  2
SOLID
 70
     1
 71
     1
 91
        3
 92
        1
 93
        1
 72
     4
 94
        3
 73
     0
 74
     0
 95
       20
 96
       16
 40
0.0
 40
0.0
 40
0.0
 40
0.0
 40
1.0
 40
1.0
 40
1.0
 40
2.0
 40
2.0
 40
2.0
 40
3.0
 40
3.0
 40
3.0
 40
4.0
 40
4.0
 40
4.0
 40
5.0
 40
5.0
 40
5.0
 40
5.0
 10
99.17379147911281
 20
-148.632615794005
 10
99.13417288103243
 20
-148.4548488669661
 10
99.0511460798379
 20
-148.3130831877481
 10
98.93211803082254
 20
-148.2031846417686
 10
98.93211803082254
 20
-148.2031846417686
 10
99.06923283113549
 20
-148.0888074716583
 10
99.06923283113549
 20
-148.0888074716583
 10
99.12142602773702
 20
-148.1311821461269
 10
99.15570472781524
 20
-148.1649440818823
 10
99.22064477771222
 20
-148.2729478253449
 10
99.28920217786867
 20
-148.3892197979721
 10
99.30728892916624
 20
-148.4421020136707
 10
99.32882077594905
 20
-148.5077310826647
 10
99.32882077594905
 20
-148.5077310826647
 10
99.17379147911281
 20
-148.632615794005
 10
99.17379147911281
 20
-148.632615794005
 97
        0
 97
        1
330
110
 92
        1
 93
        1
 72
     4
 94
        3
 73
     0
 74
     0
 95
       77
 96
       73
 40
0.0
 40
0.0
 40
0.0
 40
0.0
 40
1.0
 40
1.0
 40
1.0
 40
2.0
 40
2.0
 40
2.0
 40
3.0
 40
3.0
 40
3.0
 40
4.0
 40
4.0
 40
4.0
 40
5.0
 40
5.0
 40
5.0
 40
6.0
 40
6.0
 40
6.0
 40
7.0
 40
7.0
 40
7.0
 40
8.0
 40
8.0
 40
8.0
 40
9.0
 40
9.0
 40
9.0
 40
10.0
 40
10.0
 40
10.0
 40
11.0
 40
11.0
 40
11.0
 40
12.0
 40
12.0
 40
12.0
 40
13.0
 40
13.0
 40
13.0
 40
14.0
 40
14.0
 40
14.0
 40
15.0
 40
15.0
 40
15.0
 40
16.0
 40
16.0
 40
16.0
 40
17.0
 40
17.0
 40
17.0
 40
18.0
 40
18.0
 40
18.0
 40
19.0
 40
19.0
 40
19.0
 40
20.0
 40
20.0
 40
20.0
 40
21.0
 40
21.0
 40
21.0
 40
22.0
 40
22.0
 40
22.0
 40
23.0
 40
23.0
 40
23.0
 40
24.0
 40
24.0
 40
24.0
 40
24.0
 10
99.83025442382716
 20
-147.9069064300371
 10
99.77065427193235
 20
-147.9027723154549
 10
99.71294892255441
 20
-147.9027723154549
 10
99.65524357317647
 20
-147.9027723154549
 10
99.65524357317647
 20
-147.9027723154549
 10
99.65524357317647
 20
-148.6770575257648
 10
99.65524357317647
 20
-148.6770575257648
 10
99.65524357317647
 20
-148.9414686042577
 10
99.65352102543384
 20
-148.9710964254308
 10
99.64800887265745
 20
-149.000724246604
 10
99.61924232535562
 20
-149.1340494418831
 10
99.53259817390158
 20
-149.1423176710477
 10
99.38290877506748
 20
-149.1423176710477
 10
99.34863007498924
 20
-149.1423176710477
 10
99.33433292872544
 20
-149.1423176710477
 10
99.30005422864722
 20
-149.1381835564654
 10
99.30005422864722
 20
-149.1381835564654
 10
99.193600778153
 20
-148.8970268724979
 10
99.193600778153
 20
-148.8970268724979
 10
99.2928195281282
 20
-148.9287217509622
 10
99.3630994760273
 20
-148.9287217509622
 10
99.38290877506748
 20
-148.9287217509622
 10
99.4425089269623
 20
-148.9287217509622
 10
99.47127547426413
 20
-148.9118407830845
 10
99.47489282452364
 20
-148.8546521980294
 10
99.47489282452364
 20
-148.841905344734
 10
99.47678762704054
 20
-148.7447536520499
 10
99.47678762704054
 20
-148.6875650669948
 10
99.47678762704054
 20
-148.6875650669948
 10
99.47678762704054
 20
-147.9005330033894
 10
99.47678762704054
 20
-147.9005330033894
 10
99.47678762704054
 20
-147.9005330033894
 10
99.22615693048861
 20
-147.9005330033894
 10
99.22615693048861
 20
-147.9005330033894
 10
99.10161672869683
 20
-147.9005330033894
 10
98.97724878167931
 20
-147.9069064300371
 10
98.85460338240442
 20
-147.9196532833326
 10
98.85460338240442
 20
-147.9196532833326
 10
98.85460338240442
 20
-147.7122585351205
 10
98.85460338240442
 20
-147.7122585351205
 10
98.98258867968145
 20
-147.7250053884159
 10
99.16845158111067
 20
-147.7293117577725
 10
99.22615693048861
 20
-147.7293117577725
 10
99.22615693048861
 20
-147.7293117577725
 10
99.47678762704054
 20
-147.7293117577725
 10
99.47678762704054
 20
-147.7293117577725
 10
99.47489282452364
 20
-147.460594309923
 10
99.47489282452364
 20
-147.384457699699
 10
99.46765812400462
 20
-147.2363185938332
 10
99.46765812400462
 20
-147.2363185938332
 10
99.68779972551208
 20
-147.2743868989453
 10
99.68779972551208
 20
-147.2743868989453
 10
99.70037432403325
 20
-147.2764539562364
 10
99.71294892255441
 20
-147.2828273828841
 10
99.71294892255441
 20
-147.3040147201184
 10
99.71294892255441
 20
-147.3231350000616
 10
99.70760902455227
 20
-147.3252020573527
 10
99.65886092343598
 20
-147.3589639931081
 10
99.65524357317647
 20
-147.4373399153976
 10
99.65524357317647
 20
-147.4521538259842
 10
99.65524357317647
 20
-147.7293117577725
 10
99.8066555197532
 20
-147.7250053884159
 10
99.82301972330814
 20
-147.7250053884159
 10
99.85178627060998
 20
-147.7206990190594
 10
99.89502221894987
 20
-147.7165649044771
 10
99.89863956920938
 20
-147.7144978471859
 10
99.93653561954712
 20
-147.7122585351205
 10
99.93653561954712
 20
-147.7122585351205
 10
99.93653561954712
 20
-147.9196532833326
 10
99.93653561954712
 20
-147.9196532833326
 10
99.91138642250479
 20
-147.9175862260414
 10
99.86453312390541
 20
-147.9089734873283
 10
99.83025442382716
 20
-147.9069064300371
 97
        0
 97
        1
330
111
 92
        1
 93
        1
 72
     4
 94
        3
 73
     0
 74
     0
 95
       53
 96
       49
 40
0.0
 40
0.0
 40
0.0
 40
0.0
 40
1.0
 40
1.0
 40
1.0
 40
2.0
 40
2.0
 40
2.0
 40
3.0
 40
3.0
 40
3.0
 40
4.0
 40
4.0
 40
4.0
 40
5.0
 40
5.0
 40
5.0
 40
6.0
 40
6.0
 40
6.0
 40
7.0
 40
7.0
 40
7.0
 40
8.0
 40
8.0
 40
8.0
 40
9.0
 40
9.0
 40
9.0
 40
10.0
 40
10.0
 40
10.0
 40
11.0
 40
11.0
 40
11.0
 40
12.0
 40
12.0
 40
12.0
 40
13.0
 40
13.0
 40
13.0
 40
14.0
 40
14.0
 40
14.0
 40
15.0
 40
15.0
 40
15.0
 40
16.0
 40
16.0
 40
16.0
 40
16.0
 10
98.84926348440227
 20
-147.4077120942244
 10
98.79155813502434
 20
-147.5599853146725
 10
98.75538463242921
 20
-147.6381889821877
 10
98.72300073486787
 20
-147.7058851084728
 10
98.75900198268872
 20
-147.7270724457071
 10
98.76261933294824
 20
-147.7293117577725
 10
98.76261933294824
 20
-147.7439534135848
 10
98.76261933294824
 20
-147.7567002668803
 10
98.7338527856464
 20
-147.79063445741
 10
98.72472328261048
 20
-147.7990749413488
 10
98.72300073486787
 20
-147.9957898935566
 10
98.72300073486787
 20
-148.0169772307909
 10
98.72300073486787
 20
-148.1501301712958
 10
98.72110593235099
 20
-148.1628770245912
 10
98.72110593235099
 20
-148.1776909351778
 10
98.72110593235099
 20
-148.1925048457644
 10
98.72110593235099
 20
-148.1925048457644
 10
98.72110593235099
 20
-148.7277004293979
 10
98.72110593235099
 20
-148.7277004293979
 10
98.72110593235099
 20
-148.7997029250396
 10
98.72472328261048
 20
-149.0344861823594
 10
98.73195798312952
 20
-149.1447292378874
 10
98.73195798312952
 20
-149.1447292378874
 10
98.52456323491749
 20
-149.1447292378874
 10
98.52456323491749
 20
-149.1447292378874
 10
98.54437253395765
 20
-148.9859103360174
 10
98.54988468673406
 20
-148.7447536520499
 10
98.54988468673406
 20
-148.7235663148156
 10
98.54988468673406
 20
-148.7235663148156
 10
98.54988468673406
 20
-148.0062974347866
 10
98.54988468673406
 20
-148.0062974347866
 10
98.47237003831594
 20
-148.1206746048969
 10
98.42000458694014
 20
-148.1797579924689
 10
98.38400333911927
 20
-148.2221326669375
 10
98.38400333911927
 20
-148.2221326669375
 10
98.22156708698976
 20
-148.084673357076
 10
98.22156708698976
 20
-148.084673357076
 10
98.46151798753741
 20
-147.8688381249251
 10
98.6255045326353
 20
-147.5599853146725
 10
98.72110593235099
 20
-147.2235717405378
 10
98.72110593235099
 20
-147.2235717405378
 10
98.90869138152282
 20
-147.3377766558739
 10
98.90869138152282
 20
-147.3377766558739
 10
98.91954343230137
 20
-147.3441500825216
 10
98.92677813282039
 20
-147.3484564518781
 10
98.92677813282039
 20
-147.3632703624647
 10
98.92677813282039
 20
-147.3885918142813
 10
98.91230873178235
 20
-147.3928981836379
 10
98.84926348440227
 20
-147.4077120942244
 97
        0
 97
        1
330
112
 75
     2
 76
     1
 98
        1
 10
0.0
 20
0.0
450
        0
451
        0
460
0.0
461
0.0
452
        0
462
0.0
453
        0
470

  0
ENDBLK
  5
F5
330
F2
100
AcDbEntity
  8
0
100
AcDbBlockEnd
  0
ENDSEC
  0
SECTION
  2
ENTITIES
  0
LINE
  5
79
330
70
100
AcDbEntity
  8
レイヤー 1
 62
    18
420
        0
370
    25
100
AcDbLine
 10
95.26878142481969
 20
-141.8716520671882
 30
0.0
 11
102.2687867992637
 21
-141.8716520671882
 31
0.0
  0
LINE
  5
7A
330
70
100
AcDbEntity
  8
レイヤー 1
 62
    18
420
        0
370
    25
100
AcDbLine
 10
101.2687588137649
 20
-142.971295650245
 30
0.0
 11
101.2687588137649
 21
-155.3714819980301
 31
0.0
  0
LINE
  5
7B
330
70
100
AcDbEntity
  8
レイヤー 1
 62
    18
420
        0
370
    25
100
AcDbLine
 10
95.26878142481969
 20
-142.971295650245
 30
0.0
 11
101.2687588137649
 21
-142.971295650245
 31
0.0
  0
LINE
  5
7C
330
70
100
AcDbEntity
  8
レイヤー 1
 62
    18
420
        0
370
    25
100
AcDbLine
 10
95.23674920341468
 20
-141.8716520671882
 30
0.0
 11
95.23674920341468
 21
-142.971295650245
 31
0.0
  0
LINE
  5
7D
330
70
100
AcDbEntity
  8
レイヤー 1
 62
    18
420
        0
370
    25
100
AcDbLine
 10
102.2687867943797
 20
-141.8716520671882
 30
0.0
 11
102.2687867943797
 21
-154.3718384149485
 31
0.0
  0
LINE
  5
7E
330
70
100
AcDbEntity
  8
レイヤー 1
 62
    18
420
        0
370
    25
100
AcDbLine
 10
118.2689394491479
 20
-154.3718384149485
 30
0.0
 11
118.2689394491479
 21
-154.7714650714199
 31
0.0
  0
LINE
  5
7F
330
70
100
AcDbEntity
  8
レイヤー 1
 62
    18
420
        0
370
    25
100
AcDbLine
 10
102.2687867992637
 20
-154.3718384149485
 30
0.0
 11
118.2689394491479
 21
-154.3718384149485
 31
0.0
  0
LINE
  5
80
330
70
100
AcDbEntity
  8
レイヤー 1
 62
    18
420
        0
370
    25
100
AcDbLine
 10
118.2689394491479
 20
-154.7714650714199
 30
0.0
 11
101.2687588137649
 21
-155.3714819980301
 31
0.0
  0
LINE
  5
81
330
70
100
AcDbEntity
  8
レイヤー 1
  6
AI-Linetype-0
 62
   154
420
    23468
370
    25
100
AcDbLine
 10
95.26878142481969
 20
-143.4715345263717
 30
0.0
 11
100.7688727027784
 21
-143.4715345263717
 31
0.0
  0
LINE
  5
83
330
70
100
AcDbEntity
  8
レイヤー 1
  6
AI-Linetype-1
 62
   154
420
    23468
370
    25
100
AcDbLine
 10
100.7688727027784
 20
-143.4715345263717
 30
0.0
 11
100.7688727027784
 21
-154.3718384149485
 31
0.0
  0
CIRCLE
  5
85
330
70
100
AcDbEntity
  8
レイヤー 1
 62
    18
420
        0
370
     9
100
AcDbCircle
 10
122.2686985137722
 20
-141.8716520671882
 30
0.0
 40
0.0999066641178353
  0
SPLINE
  5
86
330
70
100
AcDbEntity
  8
レイヤー 1
 62
    18
420
        0
370
     9
100
AcDbSpline
210
0.0
220
0.0
230
1.0
 70
     9
 71
     3
 72
    17
 73
    13
 74
     0
 42
0.0000000001
 43
0.0000000001
 40
0.0
 40
0.0
 40
0.0
 40
0.0
 40
1.0
 40
1.0
 40
1.0
 40
2.0
 40
2.0
 40
2.0
 40
3.0
 40
3.0
 40
3.0
 40
4.0
 40
4.0
 40
4.0
 40
4.0
 10
122.36860517789
 20
-154.3718384149485
 30
0.0
 10
122.36860517789
 20
-154.3160289719279
 30
0.0
 10
122.3238024012553
 20
-154.2712261952931
 30
0.0
 10
122.2686985137722
 20
-154.2712261952931
 30
0.0
 10
122.2135593485122
 20
-154.2712261952931
 30
0.0
 10
122.1687918496543
 20
-154.3160289719279
 30
0.0
 10
122.1687918496543
 20
-154.3718384149485
 30
0.0
 10
122.1687918496543
 20
-154.4269423024316
 30
0.0
 10
122.2135593485122
 20
-154.4717450790663
 30
0.0
 10
122.2686985137722
 20
-154.4717450790663
 30
0.0
 10
122.3238024012553
 20
-154.4717450790663
 30
0.0
 10
122.36860517789
 20
-154.4269423024316
 30
0.0
 10
122.36860517789
 20
-154.3718384149485
 30
0.0
  0
CIRCLE
  5
87
330
70
100
AcDbEntity
  8
レイヤー 1
 62
    18
420
        0
370
     9
100
AcDbCircle
 10
122.2686985137722
 20
-154.7714650714199
 30
0.0
 40
0.0999066641178353
  0
SPLINE
  5
88
330
70
100
AcDbEntity
  8
レイヤー 1
 62
    18
420
        0
370
     9
100
AcDbSpline
210
0.0
220
0.0
230
1.0
 70
     9
 71
     3
 72
    17
 73
    13
 74
     0
 42
0.0000000001
 43
0.0000000001
 40
0.0
 40
0.0
 40
0.0
 40
0.0
 40
1.0
 40
1.0
 40
1.0
 40
2.0
 40
2.0
 40
2.0
 40
3.0
 40
3.0
 40
3.0
 40
4.0
 40
4.0
 40
4.0
 40
4.0
 10
118.3688461132657
 20
-159.4712410626297
 30
0.0
 10
118.3688461132657
 20
-159.4161371751466
 30
0.0
 10
118.3240433366309
 20
-159.3713343985118
 30
0.0
 10
118.2689394491479
 20
-159.3713343985118
 30
0.0
 10
118.2131300061272
 20
-159.3713343985118
 30
0.0
 10
118.1683272294925
 20
-159.4161371751466
 30
0.0
 10
118.1683272294925
 20
-159.4712410626297
 30
0.0
 10
118.1683272294925
 20
-159.5263802278896
 30
0.0
 10
118.2131300061272
 20
-159.5711477267475
 30
0.0
 10
118.2689394491479
 20
-159.5711477267475
 30
0.0
 10
118.3240433366309
 20
-159.5711477267475
 30
0.0
 10
118.3688461132657
 20
-159.5263802278896
 30
0.0
 10
118.3688461132657
 20
-159.4712410626297
 30
0.0
  0
CIRCLE
  5
89
330
70
100
AcDbEntity
  8
レイヤー 1
 62
    18
420
        0
370
     9
100
AcDbCircle
 10
95.26602975822324
 20
-159.4712410626297
 30
0.0
 40
0.0999066641178353
  0
CIRCLE
  5
8A
330
70
100
AcDbEntity
  8
レイヤー 1
 62
    18
420
        0
370
     9
100
AcDbCircle
 10
91.23663736102159
 20
-141.8716520671882
 30
0.0
 40
0.0999066641178353
  0
SPLINE
  5
8B
330
70
100
AcDbEntity
  8
レイヤー 1
 62
    18
420
        0
370
     9
100
AcDbSpline
210
0.0
220
0.0
230
1.0
 70
     9
 71
     3
 72
    17
 73
    13
 74
     0
 42
0.0000000001
 43
0.0000000001
 40
0.0
 40
0.0
 40
0.0
 40
0.0
 40
1.0
 40
1.0
 40
1.0
 40
2.0
 40
2.0
 40
2.0
 40
3.0
 40
3.0
 40
3.0
 40
4.0
 40
4.0
 40
4.0
 40
4.0
 10
91.33654402513943
 20
-142.971295650245
 30
0.0
 10
91.33654402513943
 20
-142.9161917627619
 30
0.0
 10
91.29177652628156
 20
-142.8713889861272
 30
0.0
 10
91.23663736102159
 20
-142.8713889861272
 30
0.0
 10
91.18153347353851
 20
-142.8713889861272
 30
0.0
 10
91.13673069690376
 20
-142.9161917627619
 30
0.0
 10
91.13673069690376
 20
-142.971295650245
 30
0.0
 10
91.13673069690376
 20
-143.0264348155053
 30
0.0
 10
91.18153347353851
 20
-143.0712375921397
 30
0.0
 10
91.23663736102159
 20
-143.0712375921397
 30
0.0
 10
91.29177652628156
 20
-143.0712375921397
 30
0.0
 10
91.33654402513943
 20
-143.0264348155053
 30
0.0
 10
91.33654402513943
 20
-142.971295650245
 30
0.0
  0
SPLINE
  5
8C
330
70
100
AcDbEntity
  8
レイヤー 1
 62
    18
420
        0
370
     9
100
AcDbSpline
210
0.0
220
0.0
230
1.0
 70
     9
 71
     3
 72
    17
 73
    13
 74
     0
 42
0.0000000001
 43
0.0000000001
 40
0.0
 40
0.0
 40
0.0
 40
0.0
 40
1.0
 40
1.0
 40
1.0
 40
2.0
 40
2.0
 40
2.0
 40
3.0
 40
3.0
 40
3.0
 40
4.0
 40
4.0
 40
4.0
 40
4.0
 10
101.3690146025231
 20
-159.4712410626297
 30
0.0
 10
101.3690146025231
 20
-159.4161371751466
 30
0.0
 10
101.3242471036652
 20
-159.3713343985118
 30
0.0
 10
101.2687588137649
 20
-159.3713343985118
 30
0.0
 10
101.2136512731534
 20
-159.3713343985118
 30
0.0
 10
101.1688484965187
 20
-159.4161371751466
 30
0.0
 10
101.1688484965187
 20
-159.4712410626297
 30
0.0
 10
101.1688484965187
 20
-159.5263802278896
 30
0.0
 10
101.2136512731534
 20
-159.5711477267475
 30
0.0
 10
101.2687588137649
 20
-159.5711477267475
 30
0.0
 10
101.3242471036652
 20
-159.5711477267475
 30
0.0
 10
101.3690146025231
 20
-159.5263802278896
 30
0.0
 10
101.3690146025231
 20
-159.4712410626297
 30
0.0
  0
INSERT
  5
8E
330
70
100
AcDbEntity
  8
レイヤー 1
100
AcDbBlockReference
  2
Block_0
 10
0.0
 20
0.0
 30
0.0
  0
INSERT
  5
A0
330
70
100
AcDbEntity
  8
レイヤー 1
100
AcDbBlockReference
  2
Block_3
 10
0.0
 20
0.0
 30
0.0
  0
INSERT
  5
B7
330
70
100
AcDbEntity
  8
レイヤー 1
100
AcDbBlockReference
  2
Block_6
 10
0.0
 20
0.0
 30
0.0
  0
LINE
  5
CE
330
70
100
AcDbEntity
  8
レイヤー 1
 62
    18
420
        0
370
     9
100
AcDbLine
 10
95.26878142481969
 20
-159.4712410626297
 30
0.0
 11
101.2687588137649
 21
-159.4712410626297
 31
0.0
  0
LINE
  5
CF
330
70
100
AcDbEntity
  8
レイヤー 1
 62
    18
420
        0
370
     9
100
AcDbLine
 10
95.26602975822324
 20
-149.7450521440988
 30
0.0
 11
95.26602975822324
 21
-160.4717188148831
 31
0.0
  0
LINE
  5
D0
330
70
100
AcDbEntity
  8
レイヤー 1
 62
    18
420
        0
370
     9
100
AcDbLine
 10
101.2687588137649
 20
-158.0112349887664
 30
0.0
 11
101.2687588137649
 21
-160.4717188148831
 31
0.0
  0
INSERT
  5
D2
330
70
100
AcDbEntity
  8
レイヤー 1
100
AcDbBlockReference
  2
Block_9
 10
0.0
 20
0.0
 30
0.0
  0
INSERT
  5
D9
330
70
100
AcDbEntity
  8
レイヤー 1
100
AcDbBlockReference
  2
Block_10
 10
0.0
 20
0.0
 30
0.0
  0
INSERT
  5
EF
330
70
100
AcDbEntity
  8
レイヤー 1
100
AcDbBlockReference
  2
Block_13
 10
0.0
 20
0.0
 30
0.0
  0
ENDSEC
  0
SECTION
  2
OBJECTS
  0
DICTIONARY
  5
C
330
0
100
AcDbDictionary
281
     1
  3
ACAD_COLOR
350
63
  3
ACAD_DETAILVIEWSTYLE
350
6A
  3
ACAD_GROUP
350
D
  3
ACAD_LAYOUT
350
62
  3
ACAD_MATERIAL
350
10
  3
ACAD_MLEADERSTYLE
350
66
  3
ACAD_MLINESTYLE
350
5F
  3
ACAD_PLOTSETTINGS
350
61
  3
ACAD_PLOTSTYLENAME
350
E
  3
ACAD_SCALELIST
350
42
  3
ACAD_SECTIONVIEWSTYLE
350
68
  3
ACAD_TABLESTYLE
350
64
  3
ACAD_VISUALSTYLE
350
29
  3
ACDB_RECOMPOSE_DATA
350
11C
  3
AcDbVariableDictionary
350
114
  0
DICTIONARY
  5
63
102
{ACAD_REACTORS
330
C
102
}
330
C
100
AcDbDictionary
281
     1
  0
DICTIONARY
  5
6A
102
{ACAD_REACTORS
330
C
102
}
330
C
100
AcDbDictionary
281
     1
  3
Imperial24
350
6B
  0
DICTIONARY
  5
D
102
{ACAD_REACTORS
330
C
102
}
330
C
100
AcDbDictionary
281
     1
  0
DICTIONARY
  5
62
102
{ACAD_REACTORS
330
C
102
}
330
C
100
AcDbDictionary
281
     1
  3
Layout1
350
6F
  3
Layout2
350
77
  3
Model
350
73
  0
DICTIONARY
  5
10
102
{ACAD_REACTORS
330
C
102
}
330
C
100
AcDbDictionary
281
     1
  3
ByBlock
350
19
  3
ByLayer
350
11
  3
Global
350
21
  0
DICTIONARY
  5
66
102
{ACAD_REACTORS
330
C
102
}
330
C
100
AcDbDictionary
281
     1
  3
Standard
350
67
  0
DICTIONARY
  5
5F
102
{ACAD_REACTORS
330
C
102
}
330
C
100
AcDbDictionary
281
     1
  3
Standard
350
60
  0
DICTIONARY
  5
61
102
{ACAD_REACTORS
330
C
102
}
330
C
100
AcDbDictionary
281
     1
  0
ACDBDICTIONARYWDFLT
  5
E
102
{ACAD_REACTORS
330
C
102
}
330
C
100
AcDbDictionary
281
     1
  3
Normal
350
F
100
AcDbDictionaryWithDefault
340
F
  0
DICTIONARY
  5
42
102
{ACAD_REACTORS
330
C
102
}
330
C
100
AcDbDictionary
281
     1
  3
A0
350
43
  3
A1
350
44
  3
A2
350
45
  3
A3
350
46
  3
A4
350
47
  3
A5
350
48
  3
A6
350
49
  3
A7
350
4A
  3
A8
350
4B
  3
A9
350
4C
  3
B0
350
4D
  3
B1
350
4E
  3
B2
350
4F
  3
B3
350
50
  3
B4
350
51
  3
B5
350
52
  3
B6
350
53
  0
DICTIONARY
  5
68
102
{ACAD_REACTORS
330
C
102
}
330
C
100
AcDbDictionary
281
     1
  3
Imperial24
350
69
  0
DICTIONARY
  5
64
102
{ACAD_REACTORS
330
C
102
}
330
C
100
AcDbDictionary
281
     1
  3
Standard
350
65
  0
DICTIONARY
  5
29
102
{ACAD_REACTORS
330
C
102
}
330
C
100
AcDbDictionary
281
     1
  3
2dWireframe
350
2F
  3
Basic
350
2E
  3
Brighten
350
35
  3
ColorChange
350
39
  3
Conceptual
350
32
  3
Dim
350
34
  3
EdgeColorOff
350
41
  3
Facepattern
350
38
  3
Flat
350
2A
  3
FlatWithEdges
350
2B
  3
Gouraud
350
2C
  3
GouraudWithEdges
350
2D
  3
Hidden
350
31
  3
JitterOff
350
3F
  3
Linepattern
350
37
  3
OverhangOff
350
40
  3
Realistic
350
33
  3
Shaded
350
3E
  3
Shaded with edges
350
3D
  3
Shades of Gray
350
3A
  3
Sketchy
350
3B
  3
Thicken
350
36
  3
Wireframe
350
30
  3
X-Ray
350
3C
  0
XRECORD
  5
11C
102
{ACAD_REACTORS
330
C
102
}
330
C
100
AcDbXrecord
280
     1
 90
        1
330
65
  0
DICTIONARY
  5
114
102
{ACAD_REACTORS
330
C
102
}
330
C
100
AcDbDictionary
281
     1
  3
CANNOSCALE
350
119
  3
CMLEADERSTYLE
350
116
  3
CTABLESTYLE
350
115
  3
CVIEWDETAILSTYLE
350
117
  3
CVIEWSECTIONSTYLE
350
118
  0
ACDBDETAILVIEWSTYLE
  5
6B
102
{ACAD_XDICTIONARY
360
151
102
}
102
{ACAD_REACTORS
330
6A
102
}
330
6A
100
AcDbModelDocViewStyle
 70
     0
  3
Imperial24
290
     0
100
AcDbDetailViewStyle
 70
     0
 71
     0
 90
        3
 71
     1
340
55
 62
   256
 40
0.24
340
0
 62
   256
 40
0.24
300

 40
0.36
280
     3
 71
     2
340
5D
 90
       25
 62
   256
 71
     3
340
55
 62
   256
 40
0.24
 90
        1
 40
0.75
 90
        1
300
%<\AcVar ViewType \f "%tc1">% %<\AcVar ViewDetailId>%\PSCALE %<\AcVar ViewScale \f "%sn">%
 71
     4
340
5D
 90
       25
 62
   256
340
5D
 90
       25
 62
   256
280
     0
  0
LAYOUT
  5
6F
102
{ACAD_REACTORS
330
62
102
}
330
62
100
AcDbPlotSettings
  1

  2

  4

  6

 40
0.0
 41
0.0
 42
0.0
 43
0.0
 44
0.0
 45
0.0
 46
0.0
 47
0.0
 48
0.0
 49
0.0
140
0.0
141
0.0
142
1.0
143
1.0
 70
   688
 72
     0
 73
     0
 74
     5
  7

 75
    16
147
1.0
 76
     0
 77
     2
 78
   300
148
0.0
149
0.0
100
AcDbLayout
  1
Layout1
 70
     1
 71
     1
 10
0.0
 20
0.0
 11
12.0
 21
9.0
 12
0.0
 22
0.0
 32
0.0
 14
0.0
 24
0.0
 34
0.0
 15
0.0
 25
0.0
 35
0.0
146
0.0
 13
0.0
 23
0.0
 33
0.0
 16
1.0
 26
0.0
 36
0.0
 17
0.0
 27
1.0
 37
0.0
 76
     0
330
6C
  0
LAYOUT
  5
77
102
{ACAD_REACTORS
330
62
102
}
330
62
100
AcDbPlotSettings
  1

  2

  4

  6

 40
0.0
 41
0.0
 42
0.0
 43
0.0
 44
0.0
 45
0.0
 46
0.0
 47
0.0
 48
0.0
 49
0.0
140
0.0
141
0.0
142
1.0
143
1.0
 70
   688
 72
     0
 73
     0
 74
     5
  7

 75
    16
147
1.0
 76
     0
 77
     2
 78
   300
148
0.0
149
0.0
100
AcDbLayout
  1
Layout2
 70
     1
 71
     2
 10
0.0
 20
0.0
 11
12.0
 21
9.0
 12
0.0
 22
0.0
 32
0.0
 14
0.0
 24
0.0
 34
0.0
 15
0.0
 25
0.0
 35
0.0
146
0.0
 13
0.0
 23
0.0
 33
0.0
 16
1.0
 26
0.0
 36
0.0
 17
0.0
 27
1.0
 37
0.0
 76
     0
330
74
  0
LAYOUT
  5
73
102
{ACAD_REACTORS
330
62
102
}
330
62
100
AcDbPlotSettings
  1

  2

  4

  6

 40
0.0
 41
0.0
 42
0.0
 43
0.0
 44
0.0
 45
0.0
 46
0.0
 47
0.0
 48
0.0
 49
0.0
140
0.0
141
0.0
142
1.0
143
1.0
 70
  1712
 72
     0
 73
     0
 74
     0
  7

 75
     0
147
1.0
 76
     0
 77
     2
 78
   300
148
0.0
149
0.0
100
AcDbLayout
  1
Model
 70
     1
 71
     0
 10
0.0
 20
0.0
 11
12.0
 21
9.0
 12
0.0
 22
0.0
 32
0.0
 14
0.0
 24
0.0
 34
0.0
 15
0.0
 25
0.0
 35
0.0
146
0.0
 13
0.0
 23
0.0
 33
0.0
 16
1.0
 26
0.0
 36
0.0
 17
0.0
 27
1.0
 37
0.0
 76
     0
330
70
  0
MATERIAL
  5
19
102
{ACAD_XDICTIONARY
360
1A
102
}
102
{ACAD_REACTORS
330
10
102
}
330
10
100
AcDbMaterial
  1
ByBlock
 72
     0
 43
0.0208333333333333
 43
0.0
 43
0.0
 43
0.0
 43
0.0
 43
0.0208333333333333
 43
0.0
 43
0.0
 43
0.0
 43
0.0
 43
1.0
 43
0.0
 43
0.0
 43
0.0
 43
0.0
 43
1.0
 77
     0
 47
0.0208333333333333
 47
0.0
 47
0.0
 47
0.0
 47
0.0
 47
0.0208333333333333
 47
0.0
 47
0.0
 47
0.0
 47
0.0
 47
1.0
 47
0.0
 47
0.0
 47
0.0
 47
0.0
 47
1.0
171
     0
 49
0.0208333333333333
 49
0.0
 49
0.0
 49
0.0
 49
0.0
 49
0.0208333333333333
 49
0.0
 49
0.0
 49
0.0
 49
0.0
 49
1.0
 49
0.0
 49
0.0
 49
0.0
 49
0.0
 49
1.0
175
     0
142
0.0208333333333333
142
0.0
142
0.0
142
0.0
142
0.0
142
0.0208333333333333
142
0.0
142
0.0
142
0.0
142
0.0
142
1.0
142
0.0
142
0.0
142
0.0
142
0.0
142
1.0
179
     0
144
0.0208333333333333
144
0.0
144
0.0
144
0.0
144
0.0
144
0.0208333333333333
144
0.0
144
0.0
144
0.0
144
0.0
144
1.0
144
0.0
144
0.0
144
0.0
144
0.0
144
1.0
147
0.0208333333333333
147
0.0
147
0.0
147
0.0
147
0.0
147
0.0208333333333333
147
0.0
147
0.0
147
0.0
147
0.0
147
1.0
147
0.0
147
0.0
147
0.0
147
0.0
147
1.0
  0
MATERIAL
  5
11
102
{ACAD_XDICTIONARY
360
12
102
}
102
{ACAD_REACTORS
330
10
102
}
330
10
100
AcDbMaterial
  1
ByLayer
 72
     0
 43
0.0208333333333333
 43
0.0
 43
0.0
 43
0.0
 43
0.0
 43
0.0208333333333333
 43
0.0
 43
0.0
 43
0.0
 43
0.0
 43
1.0
 43
0.0
 43
0.0
 43
0.0
 43
0.0
 43
1.0
 77
     0
 47
0.0208333333333333
 47
0.0
 47
0.0
 47
0.0
 47
0.0
 47
0.0208333333333333
 47
0.0
 47
0.0
 47
0.0
 47
0.0
 47
1.0
 47
0.0
 47
0.0
 47
0.0
 47
0.0
 47
1.0
171
     0
 49
0.0208333333333333
 49
0.0
 49
0.0
 49
0.0
 49
0.0
 49
0.0208333333333333
 49
0.0
 49
0.0
 49
0.0
 49
0.0
 49
1.0
 49
0.0
 49
0.0
 49
0.0
 49
0.0
 49
1.0
175
     0
142
0.0208333333333333
142
0.0
142
0.0
142
0.0
142
0.0
142
0.0208333333333333
142
0.0
142
0.0
142
0.0
142
0.0
142
1.0
142
0.0
142
0.0
142
0.0
142
0.0
142
1.0
179
     0
144
0.0208333333333333
144
0.0
144
0.0
144
0.0
144
0.0
144
0.0208333333333333
144
0.0
144
0.0
144
0.0
144
0.0
144
1.0
144
0.0
144
0.0
144
0.0
144
0.0
144
1.0
147
0.0208333333333333
147
0.0
147
0.0
147
0.0
147
0.0
147
0.0208333333333333
147
0.0
147
0.0
147
0.0
147
0.0
147
1.0
147
0.0
147
0.0
147
0.0
147
0.0
147
1.0
  0
MATERIAL
  5
21
102
{ACAD_XDICTIONARY
360
22
102
}
102
{ACAD_REACTORS
330
10
102
}
330
10
100
AcDbMaterial
  1
Global
 72
     0
 43
0.0208333333333333
 43
0.0
 43
0.0
 43
0.0
 43
0.0
 43
0.0208333333333333
 43
0.0
 43
0.0
 43
0.0
 43
0.0
 43
1.0
 43
0.0
 43
0.0
 43
0.0
 43
0.0
 43
1.0
 77
     0
 47
0.0208333333333333
 47
0.0
 47
0.0
 47
0.0
 47
0.0
 47
0.0208333333333333
 47
0.0
 47
0.0
 47
0.0
 47
0.0
 47
1.0
 47
0.0
 47
0.0
 47
0.0
 47
0.0
 47
1.0
171
     0
 49
0.0208333333333333
 49
0.0
 49
0.0
 49
0.0
 49
0.0
 49
0.0208333333333333
 49
0.0
 49
0.0
 49
0.0
 49
0.0
 49
1.0
 49
0.0
 49
0.0
 49
0.0
 49
0.0
 49
1.0
175
     0
142
0.0208333333333333
142
0.0
142
0.0
142
0.0
142
0.0
142
0.0208333333333333
142
0.0
142
0.0
142
0.0
142
0.0
142
1.0
142
0.0
142
0.0
142
0.0
142
0.0
142
1.0
179
     0
144
0.0208333333333333
144
0.0
144
0.0
144
0.0
144
0.0
144
0.0208333333333333
144
0.0
144
0.0
144
0.0
144
0.0
144
1.0
144
0.0
144
0.0
144
0.0
144
0.0
144
1.0
147
0.0208333333333333
147
0.0
147
0.0
147
0.0
147
0.0
147
0.0208333333333333
147
0.0
147
0.0
147
0.0
147
0.0
147
1.0
147
0.0
147
0.0
147
0.0
147
0.0
147
1.0
  0
MLEADERSTYLE
  5
67
102
{ACAD_XDICTIONARY
360
14D
102
}
102
{ACAD_REACTORS
330
66
102
}
330
66
100
AcDbMLeaderStyle
179
     2
170
     2
171
     1
172
     0
 90
        2
 40
0.0
 41
0.0
173
     1
 91
-1056964608
340
5B
 92
       -2
290
     1
 42
0.09
291
     1
 43
0.36
  3
Standard
 44
0.18
300

342
55
174
     1
178
     6
175
     1
176
     0
 93
-1056964608
 45
0.18
292
     0
297
     0
 46
0.18
 94
-1056964608
 47
1.0
 49
1.0
140
1.0
293
     1
141
0.0
294
     1
177
     0
142
1.0
295
     0
296
     0
143
0.125
271
     0
272
     9
273
     9
  0
MLINESTYLE
  5
60
102
{ACAD_REACTORS
330
5F
102
}
330
5F
100
AcDbMlineStyle
  2
STANDARD
 70
     0
  3

 62
   256
 51
90.0
 52
90.0
 71
     2
 49
0.5
 62
   256
  6
BYLAYER
 49
-0.5
 62
   256
  6
BYLAYER
  0
ACDBPLACEHOLDER
  5
F
102
{ACAD_REACTORS
330
E
102
}
330
E
  0
SCALE
  5
43
102
{ACAD_REACTORS
330
42
102
}
330
42
100
AcDbScale
 70
     0
300
1:1
140
1.0
141
1.0
290
     1
  0
SCALE
  5
44
102
{ACAD_REACTORS
330
42
102
}
330
42
100
AcDbScale
 70
     0
300
1/128" = 1'-0"
140
0.0078125
141
12.0
290
     0
  0
SCALE
  5
45
102
{ACAD_REACTORS
330
42
102
}
330
42
100
AcDbScale
 70
     0
300
1/64" = 1'-0"
140
0.015625
141
12.0
290
     0
  0
SCALE
  5
46
102
{ACAD_REACTORS
330
42
102
}
330
42
100
AcDbScale
 70
     0
300
1/32" = 1'-0"
140
0.03125
141
12.0
290
     0
  0
SCALE
  5
47
102
{ACAD_REACTORS
330
42
102
}
330
42
100
AcDbScale
 70
     0
300
1/16" = 1'-0"
140
0.0625
141
12.0
290
     0
  0
SCALE
  5
48
102
{ACAD_REACTORS
330
42
102
}
330
42
100
AcDbScale
 70
     0
300
3/32" = 1'-0"
140
0.09375
141
12.0
290
     0
  0
SCALE
  5
49
102
{ACAD_REACTORS
330
42
102
}
330
42
100
AcDbScale
 70
     0
300
1/8" = 1'-0"
140
0.125
141
12.0
290
     0
  0
SCALE
  5
4A
102
{ACAD_REACTORS
330
42
102
}
330
42
100
AcDbScale
 70
     0
300
3/16" = 1'-0"
140
0.1875
141
12.0
290
     0
  0
SCALE
  5
4B
102
{ACAD_REACTORS
330
42
102
}
330
42
100
AcDbScale
 70
     0
300
1/4" = 1'-0"
140
0.25
141
12.0
290
     0
  0
SCALE
  5
4C
102
{ACAD_REACTORS
330
42
102
}
330
42
100
AcDbScale
 70
     0
300
3/8" = 1'-0"
140
0.375
141
12.0
290
     0
  0
SCALE
  5
4D
102
{ACAD_REACTORS
330
42
102
}
330
42
100
AcDbScale
 70
     0
300
1/2" = 1'-0"
140
0.5
141
12.0
290
     0
  0
SCALE
  5
4E
102
{ACAD_REACTORS
330
42
102
}
330
42
100
AcDbScale
 70
     0
300
3/4" = 1'-0"
140
0.75
141
12.0
290
     0
  0
SCALE
  5
4F
102
{ACAD_REACTORS
330
42
102
}
330
42
100
AcDbScale
 70
     0
300
1" = 1'-0"
140
1.0
141
12.0
290
     0
  0
SCALE
  5
50
102
{ACAD_REACTORS
330
42
102
}
330
42
100
AcDbScale
 70
     0
300
1-1/2" = 1'-0"
140
1.5
141
12.0
290
     0
  0
SCALE
  5
51
102
{ACAD_REACTORS
330
42
102
}
330
42
100
AcDbScale
 70
     0
300
3" = 1'-0"
140
3.0
141
12.0
290
     0
  0
SCALE
  5
52
102
{ACAD_REACTORS
330
42
102
}
330
42
100
AcDbScale
 70
     0
300
6" = 1'-0"
140
6.0
141
12.0
290
     0
  0
SCALE
  5
53
102
{ACAD_REACTORS
330
42
102
}
330
42
100
AcDbScale
 70
     0
300
1'-0" = 1'-0"
140
12.0
141
12.0
290
     0
  0
ACDBSECTIONVIEWSTYLE
  5
69
102
{ACAD_XDICTIONARY
360
14F
102
}
102
{ACAD_REACTORS
330
68
102
}
330
68
100
AcDbModelDocViewStyle
 70
     0
  3
Imperial24
290
     0
100
AcDbSectionViewStyle
 70
     0
 71
     0
 90
       78
 71
     1
340
55
 62
   256
 40
0.24
340
0
340
0
 62
   256
 40
0.24
300
I, O, Q, S, X, Z
 40
0.48
 90
        3
 40
0.18
 90
        1
 71
     2
340
5D
 90
       25
 62
   256
340
5D
 90
       50
 62
   256
 40
0.24
 40
0.0
 40
0.24
 71
     3
340
55
 62
   256
 40
0.24
 90
        1
 40
0.75
 90
        1
300
%<\AcVar ViewType \f "%tc1">% %<\AcVar ViewSectionStartId>%-%<\AcVar ViewSectionEndId>%\PSCALE %<\AcVar ViewScale \f "%sn">%
 71
     4
 62
   256
 62
   257
300
ANSI31
 40
1.0
 90
        0
290
     0
290
     0
 90
        6
 40
0.0
 40
1.570796326794896
 40
0.2617993877991494
 40
1.308996938995747
 40
-0.2617993877991494
 40
1.832595714594046
  0
TABLESTYLE
  5
65
102
{ACAD_XDICTIONARY
360
11A
102
}
102
{ACAD_REACTORS
330
64
102
}
330
64
100
AcDbTableStyle
280
     0
  3
Standard
 70
     0
 71
     0
 40
0.06
 41
0.06
280
     0
281
     0
  7
Standard
140
0.18
170
     2
 62
     0
 63
     7
283
     0
 90
      512
 91
        0
  1

274
    -2
284
     1
 64
     0
275
    -2
285
     1
 65
     0
276
    -2
286
     1
 66
     0
277
    -2
287
     1
 67
     0
278
    -2
288
     1
 68
     0
279
    -2
289
     1
 69
     0
  7
Standard
140
0.25
170
     5
 62
     0
 63
     7
283
     0
 90
      512
 91
        0
  1

274
    -2
284
     1
 64
     0
275
    -2
285
     1
 65
     0
276
    -2
286
     1
 66
     0
277
    -2
287
     1
 67
     0
278
    -2
288
     1
 68
     0
279
    -2
289
     1
 69
     0
  7
Standard
140
0.18
170
     5
 62
     0
 63
     7
283
     0
 90
      512
 91
        0
  1

274
    -2
284
     1
 64
     0
275
    -2
285
     1
 65
     0
276
    -2
286
     1
 66
     0
277
    -2
287
     1
 67
     0
278
    -2
288
     1
 68
     0
279
    -2
289
     1
 69
     0
  0
VISUALSTYLE
  5
2F
102
{ACAD_XDICTIONARY
360
127
102
}
102
{ACAD_REACTORS
330
29
102
}
330
29
100
AcDbVisualStyle
  2
2dWireframe
 70
     4
177
     2
291
     0
 71
     0
176
     1
 72
     2
176
     1
 73
     0
176
     1
 90
        0
176
     1
 40
0.6
176
     1
 41
30.0
176
     1
 63
     7
421
 16777215
176
     1
 74
     1
176
     1
 91
        4
176
     1
 64
     7
176
     1
 65
   257
176
     1
 75
     1
176
     1
175
     1
176
     1
 42
1.0
176
     1
 92
        0
176
     1
 66
   257
176
     1
 43
1.0
176
     1
 76
     1
176
     1
 77
     6
176
     1
 78
     2
176
     1
 67
     7
176
     1
 79
     5
176
     1
170
     0
176
     1
171
     0
176
     1
290
     0
176
     1
 93
        1
176
     1
 44
0.0
176
     1
173
     0
176
     1
1001
ACAD
1000
AcDbSavedByObjectVersion
1070
     0
  0
VISUALSTYLE
  5
2E
102
{ACAD_XDICTIONARY
360
125
102
}
102
{ACAD_REACTORS
330
29
102
}
330
29
100
AcDbVisualStyle
  2
Basic
 70
     7
177
     2
291
     1
 71
     1
176
     1
 72
     0
176
     1
 73
     1
176
     1
 90
        0
176
     1
 40
0.6
176
     1
 41
30.0
176
     1
 63
     7
421
 16777215
176
     1
 74
     0
176
     1
 91
        4
176
     1
 64
     7
176
     1
 65
   257
176
     1
 75
     1
176
     1
175
     1
176
     1
 42
1.0
176
     1
 92
        8
176
     1
 66
     7
176
     1
 43
1.0
176
     1
 76
     1
176
     1
 77
     6
176
     1
 78
     2
176
     1
 67
     7
176
     1
 79
     5
176
     1
170
     0
176
     1
171
     0
176
     1
290
     0
176
     1
 93
        1
176
     1
 44
0.0
176
     1
173
     0
176
     1
1001
ACAD
1000
AcDbSavedByObjectVersion
1070
     0
  0
VISUALSTYLE
  5
35
102
{ACAD_XDICTIONARY
360
133
102
}
102
{ACAD_REACTORS
330
29
102
}
330
29
100
AcDbVisualStyle
  2
Brighten
 70
    12
177
     2
291
     1
 71
     2
176
     1
 72
     2
176
     1
 73
     0
176
     1
 90
        0
176
     1
 40
0.6
176
     1
 41
30.0
176
     1
 63
     7
421
 16777215
176
     1
 74
     1
176
     1
 91
        4
176
     1
 64
     7
176
     1
 65
   257
176
     1
 75
     1
176
     1
175
     1
176
     1
 42
1.0
176
     1
 92
        8
176
     1
 66
     7
176
     1
 43
1.0
176
     1
 76
     1
176
     1
 77
     6
176
     1
 78
     2
176
     1
 67
     7
176
     1
 79
     5
176
     1
170
     0
176
     1
171
     0
176
     1
290
     0
176
     1
 93
        1
176
     1
 44
50.0
176
     1
173
     0
176
     1
1001
ACAD
1000
AcDbSavedByObjectVersion
1070
     0
  0
VISUALSTYLE
  5
39
102
{ACAD_XDICTIONARY
360
13B
102
}
102
{ACAD_REACTORS
330
29
102
}
330
29
100
AcDbVisualStyle
  2
ColorChange
 70
    16
177
     2
291
     1
 71
     2
176
     1
 72
     2
176
     1
 73
     3
176
     1
 90
        0
176
     1
 40
0.6
176
     1
 41
30.0
176
     1
 63
     8
421
  8421504
176
     1
 74
     1
176
     1
 91
        4
176
     1
 64
     7
176
     1
 65
   257
176
     1
 75
     1
176
     1
175
     1
176
     1
 42
1.0
176
     1
 92
        8
176
     1
 66
     8
424
  8421504
176
     1
 43
1.0
176
     1
 76
     1
176
     1
 77
     6
176
     1
 78
     2
176
     1
 67
     7
176
     1
 79
     5
176
     1
170
     0
176
     1
171
     0
176
     1
290
     0
176
     1
 93
        1
176
     1
 44
0.0
176
     1
173
     0
176
     1
1001
ACAD
1000
AcDbSavedByObjectVersion
1070
     0
  0
VISUALSTYLE
  5
32
102
{ACAD_XDICTIONARY
360
12D
102
}
102
{ACAD_REACTORS
330
29
102
}
330
29
100
AcDbVisualStyle
  2
Conceptual
 70
     9
177
     2
291
     0
 71
     3
176
     1
 72
     2
176
     1
 73
     0
176
     1
 90
        0
176
     1
 40
0.6
176
     1
 41
30.0
176
     1
 63
     7
421
 16777215
176
     1
 74
     2
176
     1
 91
        2
176
     1
 64
     7
176
     1
 65
   257
176
     1
 75
     1
176
     1
175
     1
176
     1
 42
179.0
176
     1
 92
        8
176
     1
 66
     7
176
     1
 43
1.0
176
     1
 76
     1
176
     1
 77
     6
176
     1
 78
     2
176
     1
 67
     7
176
     1
 79
     3
176
     1
170
     0
176
     1
171
     0
176
     1
290
     0
176
     1
 93
        1
176
     1
 44
0.0
176
     1
173
     0
176
     1
1001
ACAD
1000
AcDbSavedByObjectVersion
1070
     0
  0
VISUALSTYLE
  5
34
102
{ACAD_XDICTIONARY
360
131
102
}
102
{ACAD_REACTORS
330
29
102
}
330
29
100
AcDbVisualStyle
  2
Dim
 70
    11
177
     2
291
     1
 71
     2
176
     1
 72
     2
176
     1
 73
     0
176
     1
 90
        0
176
     1
 40
0.6
176
     1
 41
30.0
176
     1
 63
     7
421
 16777215
176
     1
 74
     1
176
     1
 91
        4
176
     1
 64
     7
176
     1
 65
   257
176
     1
 75
     1
176
     1
175
     1
176
     1
 42
1.0
176
     1
 92
        8
176
     1
 66
     7
176
     1
 43
1.0
176
     1
 76
     1
176
     1
 77
     6
176
     1
 78
     2
176
     1
 67
     7
176
     1
 79
     5
176
     1
170
     0
176
     1
171
     0
176
     1
290
     0
176
     1
 93
        1
176
     1
 44
-50.0
176
     1
173
     0
176
     1
1001
ACAD
1000
AcDbSavedByObjectVersion
1070
     0
  0
VISUALSTYLE
  5
41
102
{ACAD_XDICTIONARY
360
14B
102
}
102
{ACAD_REACTORS
330
29
102
}
330
29
100
AcDbVisualStyle
  2
EdgeColorOff
 70
    22
177
     2
291
     1
 71
     2
176
     0
 72
     2
176
     0
 73
     0
176
     0
 90
        0
176
     0
 40
0.6
176
     0
 41
30.0
176
     0
 63
     7
421
 16777215
176
     0
 74
     1
176
     0
 91
        4
176
     0
 64
     7
176
     0
 65
   257
176
     0
 75
     1
176
     0
175
     1
176
     0
 42
1.0
176
     0
 92
        8
176
     2
 66
     7
176
     0
 43
1.0
176
     0
 76
     1
176
     0
 77
     6
176
     0
 78
     2
176
     0
 67
     7
176
     0
 79
     5
176
     0
170
     0
176
     0
171
     0
176
     0
290
     0
176
     0
 93
        1
176
     0
 44
0.0
176
     0
173
     0
176
     0
1001
ACAD
1000
AcDbSavedByObjectVersion
1070
     0
  0
VISUALSTYLE
  5
38
102
{ACAD_XDICTIONARY
360
139
102
}
102
{ACAD_REACTORS
330
29
102
}
330
29
100
AcDbVisualStyle
  2
Facepattern
 70
    15
177
     2
291
     1
 71
     2
176
     1
 72
     2
176
     1
 73
     0
176
     1
 90
        0
176
     1
 40
0.6
176
     1
 41
30.0
176
     1
 63
     7
421
 16777215
176
     1
 74
     1
176
     1
 91
        4
176
     1
 64
     7
176
     1
 65
   257
176
     1
 75
     1
176
     1
175
     1
176
     1
 42
1.0
176
     1
 92
        8
176
     1
 66
     7
176
     1
 43
1.0
176
     1
 76
     1
176
     1
 77
     6
176
     1
 78
     2
176
     1
 67
     7
176
     1
 79
     5
176
     1
170
     0
176
     1
171
     0
176
     1
290
     0
176
     1
 93
        1
176
     1
 44
0.0
176
     1
173
     0
176
     1
1001
ACAD
1000
AcDbSavedByObjectVersion
1070
     0
  0
VISUALSTYLE
  5
2A
102
{ACAD_XDICTIONARY
360
11D
102
}
102
{ACAD_REACTORS
330
29
102
}
330
29
100
AcDbVisualStyle
  2
Flat
 70
     0
177
     2
291
     1
 71
     2
176
     1
 72
     1
176
     1
 73
     1
176
     1
 90
        2
176
     1
 40
0.6
176
     1
 41
30.0
176
     1
 63
     7
421
 16777215
176
     1
 74
     0
176
     1
 91
        0
176
     1
 64
     7
176
     1
 65
   257
176
     1
 75
     1
176
     1
175
     1
176
     1
 42
1.0
176
     1
 92
        8
176
     1
 66
     7
176
     1
 43
1.0
176
     1
 76
     1
176
     1
 77
     6
176
     1
 78
     2
176
     1
 67
     7
176
     1
 79
     5
176
     1
170
     0
176
     1
171
     0
176
     1
290
     0
176
     1
 93
       13
176
     1
 44
0.0
176
     1
173
     0
176
     1
1001
ACAD
1000
AcDbSavedByObjectVersion
1070
     0
  0
VISUALSTYLE
  5
2B
102
{ACAD_XDICTIONARY
360
11F
102
}
102
{ACAD_REACTORS
330
29
102
}
330
29
100
AcDbVisualStyle
  2
FlatWithEdges
 70
     1
177
     2
291
     1
 71
     2
176
     1
 72
     1
176
     1
 73
     1
176
     1
 90
        2
176
     1
 40
0.6
176
     1
 41
30.0
176
     1
 63
     7
421
 16777215
176
     1
 74
     1
176
     1
 91
        0
176
     1
 64
     7
176
     1
 65
   257
176
     1
 75
     1
176
     1
175
     1
176
     1
 42
1.0
176
     1
 92
        0
176
     1
 66
   257
176
     1
 43
1.0
176
     1
 76
     1
176
     1
 77
     6
176
     1
 78
     2
176
     1
 67
     7
176
     1
 79
     5
176
     1
170
     0
176
     1
171
     0
176
     1
290
     0
176
     1
 93
       13
176
     1
 44
0.0
176
     1
173
     0
176
     1
1001
ACAD
1000
AcDbSavedByObjectVersion
1070
     0
  0
VISUALSTYLE
  5
2C
102
{ACAD_XDICTIONARY
360
121
102
}
102
{ACAD_REACTORS
330
29
102
}
330
29
100
AcDbVisualStyle
  2
Gouraud
 70
     2
177
     2
291
     1
 71
     2
176
     1
 72
     2
176
     1
 73
     1
176
     1
 90
        2
176
     1
 40
0.6
176
     1
 41
30.0
176
     1
 63
     7
421
 16777215
176
     1
 74
     0
176
     1
 91
        0
176
     1
 64
     7
176
     1
 65
   257
176
     1
 75
     1
176
     1
175
     1
176
     1
 42
1.0
176
     1
 92
        0
176
     1
 66
     7
176
     1
 43
1.0
176
     1
 76
     1
176
     1
 77
     6
176
     1
 78
     2
176
     1
 67
     7
176
     1
 79
     5
176
     1
170
     0
176
     1
171
     0
176
     1
290
     0
176
     1
 93
       13
176
     1
 44
0.0
176
     1
173
     0
176
     1
1001
ACAD
1000
AcDbSavedByObjectVersion
1070
     0
  0
VISUALSTYLE
  5
2D
102
{ACAD_XDICTIONARY
360
123
102
}
102
{ACAD_REACTORS
330
29
102
}
330
29
100
AcDbVisualStyle
  2
GouraudWithEdges
 70
     3
177
     2
291
     1
 71
     2
176
     1
 72
     2
176
     1
 73
     1
176
     1
 90
        2
176
     1
 40
0.6
176
     1
 41
30.0
176
     1
 63
     7
421
 16777215
176
     1
 74
     1
176
     1
 91
        0
176
     1
 64
     7
176
     1
 65
   257
176
     1
 75
     1
176
     1
175
     1
176
     1
 42
1.0
176
     1
 92
        0
176
     1
 66
   257
176
     1
 43
1.0
176
     1
 76
     1
176
     1
 77
     6
176
     1
 78
     2
176
     1
 67
     7
176
     1
 79
     5
176
     1
170
     0
176
     1
171
     0
176
     1
290
     0
176
     1
 93
       13
176
     1
 44
0.0
176
     1
173
     0
176
     1
1001
ACAD
1000
AcDbSavedByObjectVersion
1070
     0
  0
VISUALSTYLE
  5
31
102
{ACAD_XDICTIONARY
360
12B
102
}
102
{ACAD_REACTORS
330
29
102
}
330
29
100
AcDbVisualStyle
  2
Hidden
 70
     6
177
     2
291
     0
 71
     1
176
     1
 72
     2
176
     1
 73
     2
176
     1
 90
        0
176
     1
 40
0.6
176
     1
 41
30.0
176
     1
 63
     7
421
 16777215
176
     1
 74
     2
176
     1
 91
        2
176
     1
 64
     7
176
     1
 65
   257
176
     1
 75
     2
176
     1
175
     1
176
     1
 42
40.0
176
     1
 92
        0
176
     1
 66
   257
176
     1
 43
1.0
176
     1
 76
     1
176
     1
 77
     6
176
     1
 78
     2
176
     1
 67
     7
176
     1
 79
     3
176
     1
170
     0
176
     1
171
     0
176
     1
290
     0
176
     1
 93
        1
176
     1
 44
0.0
176
     1
173
     0
176
     1
1001
ACAD
1000
AcDbSavedByObjectVersion
1070
     0
  0
VISUALSTYLE
  5
3F
102
{ACAD_XDICTIONARY
360
147
102
}
102
{ACAD_REACTORS
330
29
102
}
330
29
100
AcDbVisualStyle
  2
JitterOff
 70
    20
177
     2
291
     1
 71
     2
176
     0
 72
     2
176
     0
 73
     0
176
     0
 90
        0
176
     0
 40
0.6
176
     0
 41
30.0
176
     0
 63
     7
421
 16777215
176
     0
 74
     1
176
     0
 91
        4
176
     0
 64
     7
176
     0
 65
   257
176
     0
 75
     1
176
     0
175
     1
176
     0
 42
1.0
176
     0
 92
       10
176
     2
 66
     7
176
     0
 43
1.0
176
     0
 76
     1
176
     0
 77
     6
176
     0
 78
     2
176
     0
 67
     7
176
     0
 79
     5
176
     0
170
     0
176
     0
171
     0
176
     0
290
     0
176
     0
 93
        1
176
     0
 44
0.0
176
     0
173
     0
176
     0
1001
ACAD
1000
AcDbSavedByObjectVersion
1070
     0
  0
VISUALSTYLE
  5
37
102
{ACAD_XDICTIONARY
360
137
102
}
102
{ACAD_REACTORS
330
29
102
}
330
29
100
AcDbVisualStyle
  2
Linepattern
 70
    14
177
     2
291
     1
 71
     2
176
     1
 72
     2
176
     1
 73
     0
176
     1
 90
        0
176
     1
 40
0.6
176
     1
 41
30.0
176
     1
 63
     7
421
 16777215
176
     1
 74
     1
176
     1
 91
        4
176
     1
 64
     7
176
     1
 65
   257
176
     1
 75
     7
176
     1
175
     7
176
     1
 42
1.0
176
     1
 92
        8
176
     1
 66
     7
176
     1
 43
1.0
176
     1
 76
     1
176
     1
 77
     6
176
     1
 78
     2
176
     1
 67
     7
176
     1
 79
     5
176
     1
170
     0
176
     1
171
     0
176
     1
290
     0
176
     1
 93
        1
176
     1
 44
0.0
176
     1
173
     0
176
     1
1001
ACAD
1000
AcDbSavedByObjectVersion
1070
     0
  0
VISUALSTYLE
  5
40
102
{ACAD_XDICTIONARY
360
149
102
}
102
{ACAD_REACTORS
330
29
102
}
330
29
100
AcDbVisualStyle
  2
OverhangOff
 70
    21
177
     2
291
     1
 71
     2
176
     0
 72
     2
176
     0
 73
     0
176
     0
 90
        0
176
     0
 40
0.6
176
     0
 41
30.0
176
     0
 63
     7
421
 16777215
176
     0
 74
     1
176
     0
 91
        4
176
     0
 64
     7
176
     0
 65
   257
176
     0
 75
     1
176
     0
175
     1
176
     0
 42
1.0
176
     0
 92
        9
176
     2
 66
     7
176
     0
 43
1.0
176
     0
 76
     1
176
     0
 77
     6
176
     0
 78
     2
176
     0
 67
     7
176
     0
 79
     5
176
     0
170
     0
176
     0
171
     0
176
     0
290
     0
176
     0
 93
        1
176
     0
 44
0.0
176
     0
173
     0
176
     0
1001
ACAD
1000
AcDbSavedByObjectVersion
1070
     0
  0
VISUALSTYLE
  5
33
102
{ACAD_XDICTIONARY
360
12F
102
}
102
{ACAD_REACTORS
330
29
102
}
330
29
100
AcDbVisualStyle
  2
Realistic
 70
     8
177
     2
291
     0
 71
     2
176
     1
 72
     3
176
     1
 73
     0
176
     1
 90
        2
176
     1
 40
0.6
176
     1
 41
30.0
176
     1
 63
     7
421
 16777215
176
     1
 74
     0
176
     1
 91
        0
176
     1
 64
     7
176
     1
 65
   257
176
     1
 75
     1
176
     1
175
     1
176
     1
 42
1.0
176
     1
 92
        8
176
     1
 66
   257
176
     1
 43
1.0
176
     1
 76
     1
176
     1
 77
     6
176
     1
 78
     2
176
     1
 67
     7
176
     1
 79
     3
176
     1
170
     0
176
     1
171
     0
176
     1
290
     0
176
     1
 93
       13
176
     1
 44
0.0
176
     1
173
     0
176
     1
1001
ACAD
1000
AcDbSavedByObjectVersion
1070
     0
  0
VISUALSTYLE
  5
3E
102
{ACAD_XDICTIONARY
360
145
102
}
102
{ACAD_REACTORS
330
29
102
}
330
29
100
AcDbVisualStyle
  2
Shaded
 70
    27
177
     2
291
     0
 71
     2
176
     1
 72
     2
176
     1
 73
     1
176
     1
 90
        2
176
     1
 40
0.6
176
     1
 41
30.0
176
     1
 63
     7
421
 16777215
176
     1
 74
     0
176
     1
 91
        4
176
     1
 64
     7
176
     1
 65
   257
176
     1
 75
     1
176
     1
175
     1
176
     1
 42
1.0
176
     1
 92
        8
176
     1
 66
   257
176
     1
 43
1.0
176
     1
 76
     1
176
     1
 77
     6
176
     1
 78
     2
176
     1
 67
     8
425
  7895160
176
     1
 79
     3
176
     1
170
     0
176
     1
171
     0
176
     1
290
     0
176
     1
 93
        5
176
     1
 44
0.0
176
     1
173
     0
176
     1
1001
ACAD
1000
AcDbSavedByObjectVersion
1070
     0
  0
VISUALSTYLE
  5
3D
102
{ACAD_XDICTIONARY
360
143
102
}
102
{ACAD_REACTORS
330
29
102
}
330
29
100
AcDbVisualStyle
  2
Shaded with edges
 70
    26
177
     2
291
     0
 71
     2
176
     1
 72
     2
176
     1
 73
     1
176
     1
 90
        2
176
     1
 40
0.6
176
     1
 41
30.0
176
     1
 63
     7
421
 16777215
176
     1
 74
     1
176
     1
 91
        2
176
     1
 64
     7
176
     1
 65
   257
176
     1
 75
     2
176
     1
175
     1
176
     1
 42
1.0
176
     1
 92
        8
176
     1
 66
   257
176
     1
 43
1.0
176
     1
 76
     1
176
     1
 77
     6
176
     1
 78
     2
176
     1
 67
     7
176
     1
 79
     3
176
     1
170
     0
176
     1
171
     0
176
     1
290
     0
176
     1
 93
        5
176
     1
 44
0.0
176
     1
173
     0
176
     1
1001
ACAD
1000
AcDbSavedByObjectVersion
1070
     0
  0
VISUALSTYLE
  5
3A
102
{ACAD_XDICTIONARY
360
13D
102
}
102
{ACAD_REACTORS
330
29
102
}
330
29
100
AcDbVisualStyle
  2
Shades of Gray
 70
    23
177
     2
291
     0
 71
     2
176
     1
 72
     2
176
     1
 73
     3
176
     1
 90
        0
176
     1
 40
0.6
176
     1
 41
30.0
176
     1
 63
     7
421
 16777215
176
     1
 74
     2
176
     1
 91
        2
176
     1
 64
     7
176
     1
 65
     7
176
     1
 75
     1
176
     1
175
     1
176
     1
 42
40.0
176
     1
 92
        8
176
     1
 66
     7
176
     1
 43
1.0
176
     1
 76
     1
176
     1
 77
     6
176
     1
 78
     2
176
     1
 67
     7
176
     1
 79
     3
176
     1
170
     0
176
     1
171
     0
176
     1
290
     0
176
     1
 93
        1
176
     1
 44
0.0
176
     1
173
     0
176
     1
1001
ACAD
1000
AcDbSavedByObjectVersion
1070
     0
  0
VISUALSTYLE
  5
3B
102
{ACAD_XDICTIONARY
360
13F
102
}
102
{ACAD_REACTORS
330
29
102
}
330
29
100
AcDbVisualStyle
  2
Sketchy
 70
    24
177
     2
291
     0
 71
     1
176
     1
 72
     2
176
     1
 73
     2
176
     1
 90
        0
176
     1
 40
0.6
176
     1
 41
30.0
176
     1
 63
     7
421
 16777215
176
     1
 74
     2
176
     1
 91
        2
176
     1
 64
     7
176
     1
 65
     7
176
     1
 75
     1
176
     1
175
     1
176
     1
 42
40.0
176
     1
 92
       11
176
     1
 66
     7
176
     1
 43
1.0
176
     1
 76
     1
176
     1
 77
     6
176
     1
 78
     2
176
     1
 67
     7
176
     1
 79
     6
176
     1
170
     0
176
     1
171
     0
176
     1
290
     0
176
     1
 93
        1
176
     1
 44
0.0
176
     1
173
     0
176
     1
1001
ACAD
1000
AcDbSavedByObjectVersion
1070
     0
  0
VISUALSTYLE
  5
36
102
{ACAD_XDICTIONARY
360
135
102
}
102
{ACAD_REACTORS
330
29
102
}
330
29
100
AcDbVisualStyle
  2
Thicken
 70
    13
177
     2
291
     1
 71
     2
176
     1
 72
     2
176
     1
 73
     0
176
     1
 90
        0
176
     1
 40
0.6
176
     1
 41
30.0
176
     1
 63
     7
421
 16777215
176
     1
 74
     1
176
     1
 91
        4
176
     1
 64
     7
176
     1
 65
   257
176
     1
 75
     1
176
     1
175
     1
176
     1
 42
1.0
176
     1
 92
       12
176
     1
 66
     7
176
     1
 43
1.0
176
     1
 76
     1
176
     1
 77
     6
176
     1
 78
     2
176
     1
 67
     7
176
     1
 79
     5
176
     1
170
     0
176
     1
171
     0
176
     1
290
     0
176
     1
 93
        1
176
     1
 44
0.0
176
     1
173
     0
176
     1
1001
ACAD
1000
AcDbSavedByObjectVersion
1070
     0
  0
VISUALSTYLE
  5
30
102
{ACAD_XDICTIONARY
360
129
102
}
102
{ACAD_REACTORS
330
29
102
}
330
29
100
AcDbVisualStyle
  2
Wireframe
 70
     5
177
     2
291
     0
 71
     0
176
     1
 72
     2
176
     1
 73
     0
176
     1
 90
        0
176
     1
 40
0.6
176
     1
 41
30.0
176
     1
 63
     7
421
 16777215
176
     1
 74
     1
176
     1
 91
        4
176
     1
 64
     7
176
     1
 65
   257
176
     1
 75
     1
176
     1
175
     1
176
     1
 42
1.0
176
     1
 92
        0
176
     1
 66
   257
176
     1
 43
1.0
176
     1
 76
     1
176
     1
 77
     6
176
     1
 78
     2
176
     1
 67
     7
176
     1
 79
     3
176
     1
170
     0
176
     1
171
     0
176
     1
290
     0
176
     1
 93
        1
176
     1
 44
0.0
176
     1
173
     0
176
     1
1001
ACAD
1000
AcDbSavedByObjectVersion
1070
     0
  0
VISUALSTYLE
  5
3C
102
{ACAD_XDICTIONARY
360
141
102
}
102
{ACAD_REACTORS
330
29
102
}
330
29
100
AcDbVisualStyle
  2
X-Ray
 70
    25
177
     2
291
     0
 71
     2
176
     1
 72
     2
176
     1
 73
     1
176
     1
 90
        1
176
     1
 40
0.5
176
     1
 41
30.0
176
     1
 63
     7
421
 16777215
176
     1
 74
     1
176
     1
 91
        0
176
     1
 64
     7
176
     1
 65
   257
176
     1
 75
     1
176
     1
175
     1
176
     1
 42
1.0
176
     1
 92
        8
176
     1
 66
     7
176
     1
 43
1.0
176
     1
 76
     1
176
     1
 77
     6
176
     1
 78
     2
176
     1
 67
     7
176
     1
 79
     3
176
     1
170
     0
176
     1
171
     0
176
     1
290
     0
176
     1
 93
       13
176
     1
 44
0.0
176
     1
173
     0
176
     1
1001
ACAD
1000
AcDbSavedByObjectVersion
1070
     0
  0
DICTIONARYVAR
  5
119
102
{ACAD_REACTORS
330
114
102
}
330
114
100
DictionaryVariables
280
     0
  1
1:1
  0
DICTIONARYVAR
  5
116
102
{ACAD_REACTORS
330
114
102
}
330
114
100
DictionaryVariables
280
     0
  1
STANDARD
  0
DICTIONARYVAR
  5
115
102
{ACAD_REACTORS
330
114
102
}
330
114
100
DictionaryVariables
280
     0
  1
STANDARD
  0
DICTIONARYVAR
  5
117
102
{ACAD_REACTORS
330
114
102
}
330
114
100
DictionaryVariables
280
     0
  1
Imperial24
  0
DICTIONARYVAR
  5
118
102
{ACAD_REACTORS
330
114
102
}
330
114
100
DictionaryVariables
280
     0
  1
Imperial24
  0
DICTIONARY
  5
151
330
6B
100
AcDbDictionary
280
     1
281
     1
  3
ACAD_XREC_ROUNDTRIP
360
152
  0
DICTIONARY
  5
1A
330
19
100
AcDbDictionary
280
     1
281
     1
  3
BUMPTILE
360
1C
  3
DIFFUSETILE
360
1B
  3
OPACITYTILE
360
1F
  3
REFLECTIONTILE
360
1E
  3
REFRACTIONTILE
360
20
  3
SPECULARTILE
360
1D
  0
DICTIONARY
  5
12
330
11
100
AcDbDictionary
280
     1
281
     1
  3
BUMPTILE
360
14
  3
DIFFUSETILE
360
13
  3
OPACITYTILE
360
17
  3
REFLECTIONTILE
360
16
  3
REFRACTIONTILE
360
18
  3
SPECULARTILE
360
15
  0
DICTIONARY
  5
22
330
21
100
AcDbDictionary
280
     1
281
     1
  3
BUMPTILE
360
24
  3
DIFFUSETILE
360
23
  3
OPACITYTILE
360
27
  3
REFLECTIONTILE
360
26
  3
REFRACTIONTILE
360
28
  3
SPECULARTILE
360
25
  0
DICTIONARY
  5
14D
330
67
100
AcDbDictionary
280
     1
281
     1
  3
ACAD_XREC_ROUNDTRIP
360
14E
  0
DICTIONARY
  5
14F
330
69
100
AcDbDictionary
280
     1
281
     1
  3
ACAD_XREC_ROUNDTRIP
360
150
  0
DICTIONARY
  5
11A
330
65
100
AcDbDictionary
280
     1
281
     1
  3
ACAD_ROUNDTRIP_2008_TABLESTYLE_CELLSTYLEMAP
360
11B
  0
DICTIONARY
  5
127
330
2F
100
AcDbDictionary
280
     1
281
     1
  3
ACAD_XREC_ROUNDTRIP
360
128
  0
DICTIONARY
  5
125
330
2E
100
AcDbDictionary
280
     1
281
     1
  3
ACAD_XREC_ROUNDTRIP
360
126
  0
DICTIONARY
  5
133
330
35
100
AcDbDictionary
280
     1
281
     1
  3
ACAD_XREC_ROUNDTRIP
360
134
  0
DICTIONARY
  5
13B
330
39
100
AcDbDictionary
280
     1
281
     1
  3
ACAD_XREC_ROUNDTRIP
360
13C
  0
DICTIONARY
  5
12D
330
32
100
AcDbDictionary
280
     1
281
     1
  3
ACAD_XREC_ROUNDTRIP
360
12E
  0
DICTIONARY
  5
131
330
34
100
AcDbDictionary
280
     1
281
     1
  3
ACAD_XREC_ROUNDTRIP
360
132
  0
DICTIONARY
  5
14B
330
41
100
AcDbDictionary
280
     1
281
     1
  3
ACAD_XREC_ROUNDTRIP
360
14C
  0
DICTIONARY
  5
139
330
38
100
AcDbDictionary
280
     1
281
     1
  3
ACAD_XREC_ROUNDTRIP
360
13A
  0
DICTIONARY
  5
11D
330
2A
100
AcDbDictionary
280
     1
281
     1
  3
ACAD_XREC_ROUNDTRIP
360
11E
  0
DICTIONARY
  5
11F
330
2B
100
AcDbDictionary
280
     1
281
     1
  3
ACAD_XREC_ROUNDTRIP
360
120
  0
DICTIONARY
  5
121
330
2C
100
AcDbDictionary
280
     1
281
     1
  3
ACAD_XREC_ROUNDTRIP
360
122
  0
DICTIONARY
  5
123
330
2D
100
AcDbDictionary
280
     1
281
     1
  3
ACAD_XREC_ROUNDTRIP
360
124
  0
DICTIONARY
  5
12B
330
31
100
AcDbDictionary
280
     1
281
     1
  3
ACAD_XREC_ROUNDTRIP
360
12C
  0
DICTIONARY
  5
147
330
3F
100
AcDbDictionary
280
     1
281
     1
  3
ACAD_XREC_ROUNDTRIP
360
148
  0
DICTIONARY
  5
137
330
37
100
AcDbDictionary
280
     1
281
     1
  3
ACAD_XREC_ROUNDTRIP
360
138
  0
DICTIONARY
  5
149
330
40
100
AcDbDictionary
280
     1
281
     1
  3
ACAD_XREC_ROUNDTRIP
360
14A
  0
DICTIONARY
  5
12F
330
33
100
AcDbDictionary
280
     1
281
     1
  3
ACAD_XREC_ROUNDTRIP
360
130
  0
DICTIONARY
  5
145
330
3E
100
AcDbDictionary
280
     1
281
     1
  3
ACAD_XREC_ROUNDTRIP
360
146
  0
DICTIONARY
  5
143
330
3D
100
AcDbDictionary
280
     1
281
     1
  3
ACAD_XREC_ROUNDTRIP
360
144
  0
DICTIONARY
  5
13D
330
3A
100
AcDbDictionary
280
     1
281
     1
  3
ACAD_XREC_ROUNDTRIP
360
13E
  0
DICTIONARY
  5
13F
330
3B
100
AcDbDictionary
280
     1
281
     1
  3
ACAD_XREC_ROUNDTRIP
360
140
  0
DICTIONARY
  5
135
330
36
100
AcDbDictionary
280
     1
281
     1
  3
ACAD_XREC_ROUNDTRIP
360
136
  0
DICTIONARY
  5
129
330
30
100
AcDbDictionary
280
     1
281
     1
  3
ACAD_XREC_ROUNDTRIP
360
12A
  0
DICTIONARY
  5
141
330
3C
100
AcDbDictionary
280
     1
281
     1
  3
ACAD_XREC_ROUNDTRIP
360
142
  0
XRECORD
  5
152
102
{ACAD_REACTORS
330
151
102
}
330
151
100
AcDbXrecord
280
     1
102
DISPLAYNAME
  1
Imperial24
102
FLAGS
 90
        0
  0
XRECORD
  5
1C
102
{ACAD_REACTORS
330
1A
102
}
330
1A
100
AcDbXrecord
280
     1
270
     1
271
     1
  0
XRECORD
  5
1B
102
{ACAD_REACTORS
330
1A
102
}
330
1A
100
AcDbXrecord
280
     1
270
     1
271
     1
  0
XRECORD
  5
1F
102
{ACAD_REACTORS
330
1A
102
}
330
1A
100
AcDbXrecord
280
     1
270
     1
271
     1
  0
XRECORD
  5
1E
102
{ACAD_REACTORS
330
1A
102
}
330
1A
100
AcDbXrecord
280
     1
270
     1
271
     1
  0
XRECORD
  5
20
102
{ACAD_REACTORS
330
1A
102
}
330
1A
100
AcDbXrecord
280
     1
270
     1
271
     1
  0
XRECORD
  5
1D
102
{ACAD_REACTORS
330
1A
102
}
330
1A
100
AcDbXrecord
280
     1
270
     1
271
     1
  0
XRECORD
  5
14
102
{ACAD_REACTORS
330
12
102
}
330
12
100
AcDbXrecord
280
     1
270
     1
271
     1
  0
XRECORD
  5
13
102
{ACAD_REACTORS
330
12
102
}
330
12
100
AcDbXrecord
280
     1
270
     1
271
     1
  0
XRECORD
  5
17
102
{ACAD_REACTORS
330
12
102
}
330
12
100
AcDbXrecord
280
     1
270
     1
271
     1
  0
XRECORD
  5
16
102
{ACAD_REACTORS
330
12
102
}
330
12
100
AcDbXrecord
280
     1
270
     1
271
     1
  0
XRECORD
  5
18
102
{ACAD_REACTORS
330
12
102
}
330
12
100
AcDbXrecord
280
     1
270
     1
271
     1
  0
XRECORD
  5
15
102
{ACAD_REACTORS
330
12
102
}
330
12
100
AcDbXrecord
280
     1
270
     1
271
     1
  0
XRECORD
  5
24
102
{ACAD_REACTORS
330
22
102
}
330
22
100
AcDbXrecord
280
     1
270
     1
271
     1
  0
XRECORD
  5
23
102
{ACAD_REACTORS
330
22
102
}
330
22
100
AcDbXrecord
280
     1
270
     1
271
     1
  0
XRECORD
  5
27
102
{ACAD_REACTORS
330
22
102
}
330
22
100
AcDbXrecord
280
     1
270
     1
271
     1
  0
XRECORD
  5
26
102
{ACAD_REACTORS
330
22
102
}
330
22
100
AcDbXrecord
280
     1
270
     1
271
     1
  0
XRECORD
  5
28
102
{ACAD_REACTORS
330
22
102
}
330
22
100
AcDbXrecord
280
     1
270
     1
271
     1
  0
XRECORD
  5
25
102
{ACAD_REACTORS
330
22
102
}
330
22
100
AcDbXrecord
280
     1
270
     1
271
     1
  0
XRECORD
  5
14E
102
{ACAD_REACTORS
330
14D
102
}
330
14D
100
AcDbXrecord
280
     1
102
ACAD_ROUNDTRIP_2012_MLEADER_STYLE
298
     1
  0
XRECORD
  5
150
102
{ACAD_REACTORS
330
14F
102
}
330
14F
100
AcDbXrecord
280
     1
102
DISPLAYNAME
  1
Imperial24
102
FLAGS
 90
        0
  0
CELLSTYLEMAP
  5
11B
102
{ACAD_REACTORS
330
11A
102
}
330
11A
100
AcDbCellStyleMap
 90
        3
300
CELLSTYLE
  1
TABLEFORMAT_BEGIN
 90
        5
170
     1
 91
        0
 92
    32768
 62
   257
 93
        1
300
CONTENTFORMAT
  1
CONTENTFORMAT_BEGIN
 90
        0
 91
        0
 92
      512
 93
        0
300

 40
0.0
140
1.0
 94
        5
 62
     0
340
55
144
0.25
309
CONTENTFORMAT_END
171
     0
 94
        0
309
TABLEFORMAT_END
  1
CELLSTYLE_BEGIN
 90
        1
 91
        1
300
_TITLE
309
CELLSTYLE_END
300
CELLSTYLE
  1
TABLEFORMAT_BEGIN
 90
        5
170
     1
 91
        0
 92
        0
 62
   257
 93
        1
300
CONTENTFORMAT
  1
CONTENTFORMAT_BEGIN
 90
        0
 91
        0
 92
      512
 93
        0
300

 40
0.0
140
1.0
 94
        5
 62
     0
340
55
144
0.18
309
CONTENTFORMAT_END
171
     0
 94
        0
309
TABLEFORMAT_END
  1
CELLSTYLE_BEGIN
 90
        2
 91
        1
300
_HEADER
309
CELLSTYLE_END
300
CELLSTYLE
  1
TABLEFORMAT_BEGIN
 90
        5
170
     1
 91
        0
 92
        0
 62
   257
 93
        1
300
CONTENTFORMAT
  1
CONTENTFORMAT_BEGIN
 90
        0
 91
        0
 92
      512
 93
        0
300

 40
0.0
140
1.0
 94
        2
 62
     0
340
55
144
0.18
309
CONTENTFORMAT_END
171
     0
 94
        0
309
TABLEFORMAT_END
  1
CELLSTYLE_BEGIN
 90
        3
 91
        2
300
_DATA
309
CELLSTYLE_END
  0
XRECORD
  5
128
102
{ACAD_REACTORS
330
127
102
}
330
127
100
AcDbXrecord
280
     1
102
RTVSPost2010Prop28
280
     1
102
RTVSPost2010PropOp28
 70
     1
102
RTVSPost2010Prop29
280
     1
102
RTVSPost2010PropOp29
 70
     1
102
RTVSPost2010Prop30
280
     0
102
RTVSPost2010PropOp30
 70
     1
102
RTVSPost2010Prop31
280
     0
102
RTVSPost2010PropOp31
 70
     1
102
RTVSPost2010Prop32
280
     0
102
RTVSPost2010PropOp32
 70
     1
102
RTVSPost2010Prop33
280
     0
102
RTVSPost2010PropOp33
 70
     1
102
RTVSPost2010Prop34
280
     0
102
RTVSPost2010PropOp34
 70
     1
102
RTVSPost2010Prop35
280
     0
102
RTVSPost2010PropOp35
 70
     1
102
RTVSPost2010Prop36
280
     0
102
RTVSPost2010PropOp36
 70
     1
102
RTVSPost2010Prop37
 90
       50
102
RTVSPost2010PropOp37
 70
     1
102
RTVSPost2010Prop38
140
0.0
102
RTVSPost2010PropOp38
 70
     1
102
RTVSPost2010Prop39
140
1.0
102
RTVSPost2010PropOp39
 70
     1
102
RTVSPost2010Prop40
 90
        0
102
RTVSPost2010PropOp40
 70
     1
102
RTVSPost2010Prop41ColorIndex
 90
       18
102
RTVSPost2010Prop41ColorRGB
 90
        0
102
RTVSPost2010PropOp41
 70
     1
102
RTVSPost2010Prop42
 90
       50
102
RTVSPost2010PropOp42
 70
     1
102
RTVSPost2010Prop43
 90
        3
102
RTVSPost2010PropOp43
 70
     1
102
RTVSPost2010Prop44ColorIndex
 90
        5
102
RTVSPost2010Prop44ColorRGB
 90
      255
102
RTVSPost2010PropOp44
 70
     1
102
RTVSPost2010Prop45
280
     0
102
RTVSPost2010PropOp45
 70
     1
102
RTVSPost2010Prop46
 90
       50
102
RTVSPost2010PropOp46
 70
     1
102
RTVSPost2010Prop47
 90
       50
102
RTVSPost2010PropOp47
 70
     1
102
RTVSPost2010Prop48
 90
       50
102
RTVSPost2010PropOp48
 70
     1
102
RTVSPost2010Prop49
280
     0
102
RTVSPost2010PropOp49
 70
     1
102
RTVSPost2010Prop50
 90
       50
102
RTVSPost2010PropOp50
 70
     1
102
RTVSPost2010Prop51ColorIndex
 90
      256
102
RTVSPost2010Prop51ColorRGB
 90
-16777216
102
RTVSPost2010PropOp51
 70
     0
102
RTVSPost2010Prop52
140
1.0
102
RTVSPost2010PropOp52
 70
     0
102
RTVSPost2010Prop53
 90
        2
102
RTVSPost2010PropOp53
 70
     1
102
RTVSPost2010Prop54
  1
strokes_ogs.tif
102
RTVSPost2010PropOp54
 70
     1
102
RTVSPost2010Prop55
280
     0
102
RTVSPost2010PropOp55
 70
     1
102
RTVSPost2010Prop56
140
1.0
102
RTVSPost2010PropOp56
 70
     1
102
RTVSPost2010Prop57
140
1.0
102
RTVSPost2010PropOp57
 70
     1
  0
XRECORD
  5
126
102
{ACAD_REACTORS
330
125
102
}
330
125
100
AcDbXrecord
280
     1
102
RTVSPost2010Prop28
280
     0
102
RTVSPost2010PropOp28
 70
     1
102
RTVSPost2010Prop29
280
     1
102
RTVSPost2010PropOp29
 70
     1
102
RTVSPost2010Prop30
280
     1
102
RTVSPost2010PropOp30
 70
     1
102
RTVSPost2010Prop31
280
     0
102
RTVSPost2010PropOp31
 70
     1
102
RTVSPost2010Prop32
280
     0
102
RTVSPost2010PropOp32
 70
     1
102
RTVSPost2010Prop33
280
     0
102
RTVSPost2010PropOp33
 70
     1
102
RTVSPost2010Prop34
280
     0
102
RTVSPost2010PropOp34
 70
     1
102
RTVSPost2010Prop35
280
     0
102
RTVSPost2010PropOp35
 70
     1
102
RTVSPost2010Prop36
280
     0
102
RTVSPost2010PropOp36
 70
     1
102
RTVSPost2010Prop37
 90
       50
102
RTVSPost2010PropOp37
 70
     1
102
RTVSPost2010Prop38
140
0.0
102
RTVSPost2010PropOp38
 70
     1
102
RTVSPost2010Prop39
140
1.0
102
RTVSPost2010PropOp39
 70
     1
102
RTVSPost2010Prop40
 90
        0
102
RTVSPost2010PropOp40
 70
     1
102
RTVSPost2010Prop41ColorIndex
 90
       18
102
RTVSPost2010Prop41ColorRGB
 90
        0
102
RTVSPost2010PropOp41
 70
     1
102
RTVSPost2010Prop42
 90
       50
102
RTVSPost2010PropOp42
 70
     1
102
RTVSPost2010Prop43
 90
        3
102
RTVSPost2010PropOp43
 70
     1
102
RTVSPost2010Prop44ColorIndex
 90
        5
102
RTVSPost2010Prop44ColorRGB
 90
      255
102
RTVSPost2010PropOp44
 70
     1
102
RTVSPost2010Prop45
280
     0
102
RTVSPost2010PropOp45
 70
     1
102
RTVSPost2010Prop46
 90
       50
102
RTVSPost2010PropOp46
 70
     1
102
RTVSPost2010Prop47
 90
       50
102
RTVSPost2010PropOp47
 70
     1
102
RTVSPost2010Prop48
 90
       50
102
RTVSPost2010PropOp48
 70
     1
102
RTVSPost2010Prop49
280
     0
102
RTVSPost2010PropOp49
 70
     1
102
RTVSPost2010Prop50
 90
       50
102
RTVSPost2010PropOp50
 70
     1
102
RTVSPost2010Prop51ColorIndex
 90
      256
102
RTVSPost2010Prop51ColorRGB
 90
-16777216
102
RTVSPost2010PropOp51
 70
     0
102
RTVSPost2010Prop52
140
1.0
102
RTVSPost2010PropOp52
 70
     0
102
RTVSPost2010Prop53
 90
        2
102
RTVSPost2010PropOp53
 70
     1
102
RTVSPost2010Prop54
  1
strokes_ogs.tif
102
RTVSPost2010PropOp54
 70
     1
102
RTVSPost2010Prop55
280
     0
102
RTVSPost2010PropOp55
 70
     1
102
RTVSPost2010Prop56
140
1.0
102
RTVSPost2010PropOp56
 70
     1
102
RTVSPost2010Prop57
140
1.0
102
RTVSPost2010PropOp57
 70
     1
  0
XRECORD
  5
134
102
{ACAD_REACTORS
330
133
102
}
330
133
100
AcDbXrecord
280
     1
102
RTVSPost2010Prop28
280
     0
102
RTVSPost2010PropOp28
 70
     1
102
RTVSPost2010Prop29
280
     1
102
RTVSPost2010PropOp29
 70
     1
102
RTVSPost2010Prop30
280
     1
102
RTVSPost2010PropOp30
 70
     1
102
RTVSPost2010Prop31
280
     0
102
RTVSPost2010PropOp31
 70
     1
102
RTVSPost2010Prop32
280
     0
102
RTVSPost2010PropOp32
 70
     1
102
RTVSPost2010Prop33
280
     0
102
RTVSPost2010PropOp33
 70
     1
102
RTVSPost2010Prop34
280
     0
102
RTVSPost2010PropOp34
 70
     1
102
RTVSPost2010Prop35
280
     0
102
RTVSPost2010PropOp35
 70
     1
102
RTVSPost2010Prop36
280
     0
102
RTVSPost2010PropOp36
 70
     1
102
RTVSPost2010Prop37
 90
       50
102
RTVSPost2010PropOp37
 70
     1
102
RTVSPost2010Prop38
140
0.0
102
RTVSPost2010PropOp38
 70
     1
102
RTVSPost2010Prop39
140
1.0
102
RTVSPost2010PropOp39
 70
     1
102
RTVSPost2010Prop40
 90
        0
102
RTVSPost2010PropOp40
 70
     1
102
RTVSPost2010Prop41ColorIndex
 90
       18
102
RTVSPost2010Prop41ColorRGB
 90
        0
102
RTVSPost2010PropOp41
 70
     1
102
RTVSPost2010Prop42
 90
       50
102
RTVSPost2010PropOp42
 70
     1
102
RTVSPost2010Prop43
 90
        3
102
RTVSPost2010PropOp43
 70
     1
102
RTVSPost2010Prop44ColorIndex
 90
        5
102
RTVSPost2010Prop44ColorRGB
 90
      255
102
RTVSPost2010PropOp44
 70
     1
102
RTVSPost2010Prop45
280
     0
102
RTVSPost2010PropOp45
 70
     1
102
RTVSPost2010Prop46
 90
       50
102
RTVSPost2010PropOp46
 70
     1
102
RTVSPost2010Prop47
 90
       50
102
RTVSPost2010PropOp47
 70
     1
102
RTVSPost2010Prop48
 90
       50
102
RTVSPost2010PropOp48
 70
     1
102
RTVSPost2010Prop49
280
     0
102
RTVSPost2010PropOp49
 70
     1
102
RTVSPost2010Prop50
 90
       50
102
RTVSPost2010PropOp50
 70
     1
102
RTVSPost2010Prop51ColorIndex
 90
      256
102
RTVSPost2010Prop51ColorRGB
 90
-16777216
102
RTVSPost2010PropOp51
 70
     0
102
RTVSPost2010Prop52
140
1.0
102
RTVSPost2010PropOp52
 70
     0
102
RTVSPost2010Prop53
 90
        2
102
RTVSPost2010PropOp53
 70
     1
102
RTVSPost2010Prop54
  1
strokes_ogs.tif
102
RTVSPost2010PropOp54
 70
     1
102
RTVSPost2010Prop55
280
     0
102
RTVSPost2010PropOp55
 70
     1
102
RTVSPost2010Prop56
140
1.0
102
RTVSPost2010PropOp56
 70
     1
102
RTVSPost2010Prop57
140
1.0
102
RTVSPost2010PropOp57
 70
     1
  0
XRECORD
  5
13C
102
{ACAD_REACTORS
330
13B
102
}
330
13B
100
AcDbXrecord
280
     1
102
RTVSPost2010Prop28
280
     0
102
RTVSPost2010PropOp28
 70
     1
102
RTVSPost2010Prop29
280
     1
102
RTVSPost2010PropOp29
 70
     1
102
RTVSPost2010Prop30
280
     1
102
RTVSPost2010PropOp30
 70
     1
102
RTVSPost2010Prop31
280
     0
102
RTVSPost2010PropOp31
 70
     1
102
RTVSPost2010Prop32
280
     0
102
RTVSPost2010PropOp32
 70
     1
102
RTVSPost2010Prop33
280
     0
102
RTVSPost2010PropOp33
 70
     1
102
RTVSPost2010Prop34
280
     0
102
RTVSPost2010PropOp34
 70
     1
102
RTVSPost2010Prop35
280
     0
102
RTVSPost2010PropOp35
 70
     1
102
RTVSPost2010Prop36
280
     0
102
RTVSPost2010PropOp36
 70
     1
102
RTVSPost2010Prop37
 90
       50
102
RTVSPost2010PropOp37
 70
     1
102
RTVSPost2010Prop38
140
0.0
102
RTVSPost2010PropOp38
 70
     1
102
RTVSPost2010Prop39
140
1.0
102
RTVSPost2010PropOp39
 70
     1
102
RTVSPost2010Prop40
 90
        0
102
RTVSPost2010PropOp40
 70
     1
102
RTVSPost2010Prop41ColorIndex
 90
       18
102
RTVSPost2010Prop41ColorRGB
 90
        0
102
RTVSPost2010PropOp41
 70
     1
102
RTVSPost2010Prop42
 90
       50
102
RTVSPost2010PropOp42
 70
     1
102
RTVSPost2010Prop43
 90
        3
102
RTVSPost2010PropOp43
 70
     1
102
RTVSPost2010Prop44ColorIndex
 90
        5
102
RTVSPost2010Prop44ColorRGB
 90
      255
102
RTVSPost2010PropOp44
 70
     1
102
RTVSPost2010Prop45
280
     0
102
RTVSPost2010PropOp45
 70
     1
102
RTVSPost2010Prop46
 90
       50
102
RTVSPost2010PropOp46
 70
     1
102
RTVSPost2010Prop47
 90
       50
102
RTVSPost2010PropOp47
 70
     1
102
RTVSPost2010Prop48
 90
       50
102
RTVSPost2010PropOp48
 70
     1
102
RTVSPost2010Prop49
280
     0
102
RTVSPost2010PropOp49
 70
     1
102
RTVSPost2010Prop50
 90
       50
102
RTVSPost2010PropOp50
 70
     1
102
RTVSPost2010Prop51ColorIndex
 90
      256
102
RTVSPost2010Prop51ColorRGB
 90
-16777216
102
RTVSPost2010PropOp51
 70
     0
102
RTVSPost2010Prop52
140
1.0
102
RTVSPost2010PropOp52
 70
     0
102
RTVSPost2010Prop53
 90
        2
102
RTVSPost2010PropOp53
 70
     1
102
RTVSPost2010Prop54
  1
strokes_ogs.tif
102
RTVSPost2010PropOp54
 70
     1
102
RTVSPost2010Prop55
280
     0
102
RTVSPost2010PropOp55
 70
     1
102
RTVSPost2010Prop56
140
1.0
102
RTVSPost2010PropOp56
 70
     1
102
RTVSPost2010Prop57
140
1.0
102
RTVSPost2010PropOp57
 70
     1
  0
XRECORD
  5
12E
102
{ACAD_REACTORS
330
12D
102
}
330
12D
100
AcDbXrecord
280
     1
102
RTVSPost2010Prop28
280
     0
102
RTVSPost2010PropOp28
 70
     1
102
RTVSPost2010Prop29
280
     1
102
RTVSPost2010PropOp29
 70
     1
102
RTVSPost2010Prop30
280
     1
102
RTVSPost2010PropOp30
 70
     1
102
RTVSPost2010Prop31
280
     0
102
RTVSPost2010PropOp31
 70
     1
102
RTVSPost2010Prop32
280
     0
102
RTVSPost2010PropOp32
 70
     1
102
RTVSPost2010Prop33
280
     0
102
RTVSPost2010PropOp33
 70
     1
102
RTVSPost2010Prop34
280
     0
102
RTVSPost2010PropOp34
 70
     1
102
RTVSPost2010Prop35
280
     0
102
RTVSPost2010PropOp35
 70
     1
102
RTVSPost2010Prop36
280
     0
102
RTVSPost2010PropOp36
 70
     1
102
RTVSPost2010Prop37
 90
       50
102
RTVSPost2010PropOp37
 70
     1
102
RTVSPost2010Prop38
140
0.0
102
RTVSPost2010PropOp38
 70
     1
102
RTVSPost2010Prop39
140
1.0
102
RTVSPost2010PropOp39
 70
     1
102
RTVSPost2010Prop40
 90
        0
102
RTVSPost2010PropOp40
 70
     1
102
RTVSPost2010Prop41ColorIndex
 90
       18
102
RTVSPost2010Prop41ColorRGB
 90
        0
102
RTVSPost2010PropOp41
 70
     1
102
RTVSPost2010Prop42
 90
       50
102
RTVSPost2010PropOp42
 70
     1
102
RTVSPost2010Prop43
 90
        3
102
RTVSPost2010PropOp43
 70
     1
102
RTVSPost2010Prop44ColorIndex
 90
        5
102
RTVSPost2010Prop44ColorRGB
 90
      255
102
RTVSPost2010PropOp44
 70
     1
102
RTVSPost2010Prop45
280
     0
102
RTVSPost2010PropOp45
 70
     1
102
RTVSPost2010Prop46
 90
       50
102
RTVSPost2010PropOp46
 70
     1
102
RTVSPost2010Prop47
 90
       50
102
RTVSPost2010PropOp47
 70
     1
102
RTVSPost2010Prop48
 90
       50
102
RTVSPost2010PropOp48
 70
     1
102
RTVSPost2010Prop49
280
     0
102
RTVSPost2010PropOp49
 70
     1
102
RTVSPost2010Prop50
 90
       50
102
RTVSPost2010PropOp50
 70
     1
102
RTVSPost2010Prop51ColorIndex
 90
      256
102
RTVSPost2010Prop51ColorRGB
 90
-16777216
102
RTVSPost2010PropOp51
 70
     0
102
RTVSPost2010Prop52
140
1.0
102
RTVSPost2010PropOp52
 70
     0
102
RTVSPost2010Prop53
 90
        2
102
RTVSPost2010PropOp53
 70
     1
102
RTVSPost2010Prop54
  1
strokes_ogs.tif
102
RTVSPost2010PropOp54
 70
     1
102
RTVSPost2010Prop55
280
     0
102
RTVSPost2010PropOp55
 70
     1
102
RTVSPost2010Prop56
140
1.0
102
RTVSPost2010PropOp56
 70
     1
102
RTVSPost2010Prop57
140
1.0
102
RTVSPost2010PropOp57
 70
     1
  0
XRECORD
  5
132
102
{ACAD_REACTORS
330
131
102
}
330
131
100
AcDbXrecord
280
     1
102
RTVSPost2010Prop28
280
     0
102
RTVSPost2010PropOp28
 70
     1
102
RTVSPost2010Prop29
280
     1
102
RTVSPost2010PropOp29
 70
     1
102
RTVSPost2010Prop30
280
     1
102
RTVSPost2010PropOp30
 70
     1
102
RTVSPost2010Prop31
280
     0
102
RTVSPost2010PropOp31
 70
     1
102
RTVSPost2010Prop32
280
     0
102
RTVSPost2010PropOp32
 70
     1
102
RTVSPost2010Prop33
280
     0
102
RTVSPost2010PropOp33
 70
     1
102
RTVSPost2010Prop34
280
     0
102
RTVSPost2010PropOp34
 70
     1
102
RTVSPost2010Prop35
280
     0
102
RTVSPost2010PropOp35
 70
     1
102
RTVSPost2010Prop36
280
     0
102
RTVSPost2010PropOp36
 70
     1
102
RTVSPost2010Prop37
 90
       50
102
RTVSPost2010PropOp37
 70
     1
102
RTVSPost2010Prop38
140
0.0
102
RTVSPost2010PropOp38
 70
     1
102
RTVSPost2010Prop39
140
1.0
102
RTVSPost2010PropOp39
 70
     1
102
RTVSPost2010Prop40
 90
        0
102
RTVSPost2010PropOp40
 70
     1
102
RTVSPost2010Prop41ColorIndex
 90
       18
102
RTVSPost2010Prop41ColorRGB
 90
        0
102
RTVSPost2010PropOp41
 70
     1
102
RTVSPost2010Prop42
 90
       50
102
RTVSPost2010PropOp42
 70
     1
102
RTVSPost2010Prop43
 90
        3
102
RTVSPost2010PropOp43
 70
     1
102
RTVSPost2010Prop44ColorIndex
 90
        5
102
RTVSPost2010Prop44ColorRGB
 90
      255
102
RTVSPost2010PropOp44
 70
     1
102
RTVSPost2010Prop45
280
     0
102
RTVSPost2010PropOp45
 70
     1
102
RTVSPost2010Prop46
 90
       50
102
RTVSPost2010PropOp46
 70
     1
102
RTVSPost2010Prop47
 90
       50
102
RTVSPost2010PropOp47
 70
     1
102
RTVSPost2010Prop48
 90
       50
102
RTVSPost2010PropOp48
 70
     1
102
RTVSPost2010Prop49
280
     0
102
RTVSPost2010PropOp49
 70
     1
102
RTVSPost2010Prop50
 90
       50
102
RTVSPost2010PropOp50
 70
     1
102
RTVSPost2010Prop51ColorIndex
 90
      256
102
RTVSPost2010Prop51ColorRGB
 90
-16777216
102
RTVSPost2010PropOp51
 70
     0
102
RTVSPost2010Prop52
140
1.0
102
RTVSPost2010PropOp52
 70
     0
102
RTVSPost2010Prop53
 90
        2
102
RTVSPost2010PropOp53
 70
     1
102
RTVSPost2010Prop54
  1
strokes_ogs.tif
102
RTVSPost2010PropOp54
 70
     1
102
RTVSPost2010Prop55
280
     0
102
RTVSPost2010PropOp55
 70
     1
102
RTVSPost2010Prop56
140
1.0
102
RTVSPost2010PropOp56
 70
     1
102
RTVSPost2010Prop57
140
1.0
102
RTVSPost2010PropOp57
 70
     1
  0
XRECORD
  5
14C
102
{ACAD_REACTORS
330
14B
102
}
330
14B
100
AcDbXrecord
280
     1
102
RTVSPost2010Prop28
280
     0
102
RTVSPost2010PropOp28
 70
     0
102
RTVSPost2010Prop29
280
     1
102
RTVSPost2010PropOp29
 70
     0
102
RTVSPost2010Prop30
280
     1
102
RTVSPost2010PropOp30
 70
     0
102
RTVSPost2010Prop31
280
     0
102
RTVSPost2010PropOp31
 70
     0
102
RTVSPost2010Prop32
280
     0
102
RTVSPost2010PropOp32
 70
     0
102
RTVSPost2010Prop33
280
     0
102
RTVSPost2010PropOp33
 70
     0
102
RTVSPost2010Prop34
280
     0
102
RTVSPost2010PropOp34
 70
     0
102
RTVSPost2010Prop35
280
     0
102
RTVSPost2010PropOp35
 70
     0
102
RTVSPost2010Prop36
280
     0
102
RTVSPost2010PropOp36
 70
     0
102
RTVSPost2010Prop37
 90
       50
102
RTVSPost2010PropOp37
 70
     0
102
RTVSPost2010Prop38
140
0.0
102
RTVSPost2010PropOp38
 70
     0
102
RTVSPost2010Prop39
140
1.0
102
RTVSPost2010PropOp39
 70
     0
102
RTVSPost2010Prop40
 90
        0
102
RTVSPost2010PropOp40
 70
     0
102
RTVSPost2010Prop41ColorIndex
 90
       18
102
RTVSPost2010Prop41ColorRGB
 90
        0
102
RTVSPost2010PropOp41
 70
     0
102
RTVSPost2010Prop42
 90
       50
102
RTVSPost2010PropOp42
 70
     0
102
RTVSPost2010Prop43
 90
        3
102
RTVSPost2010PropOp43
 70
     0
102
RTVSPost2010Prop44ColorIndex
 90
        5
102
RTVSPost2010Prop44ColorRGB
 90
      255
102
RTVSPost2010PropOp44
 70
     0
102
RTVSPost2010Prop45
280
     0
102
RTVSPost2010PropOp45
 70
     0
102
RTVSPost2010Prop46
 90
       50
102
RTVSPost2010PropOp46
 70
     0
102
RTVSPost2010Prop47
 90
       50
102
RTVSPost2010PropOp47
 70
     0
102
RTVSPost2010Prop48
 90
       50
102
RTVSPost2010PropOp48
 70
     0
102
RTVSPost2010Prop49
280
     0
102
RTVSPost2010PropOp49
 70
     0
102
RTVSPost2010Prop50
 90
       50
102
RTVSPost2010PropOp50
 70
     0
102
RTVSPost2010Prop51ColorIndex
 90
      256
102
RTVSPost2010Prop51ColorRGB
 90
-16777216
102
RTVSPost2010PropOp51
 70
     0
102
RTVSPost2010Prop52
140
1.0
102
RTVSPost2010PropOp52
 70
     0
102
RTVSPost2010Prop53
 90
        2
102
RTVSPost2010PropOp53
 70
     0
102
RTVSPost2010Prop54
  1
strokes_ogs.tif
102
RTVSPost2010PropOp54
 70
     0
102
RTVSPost2010Prop55
280
     0
102
RTVSPost2010PropOp55
 70
     0
102
RTVSPost2010Prop56
140
1.0
102
RTVSPost2010PropOp56
 70
     0
102
RTVSPost2010Prop57
140
1.0
102
RTVSPost2010PropOp57
 70
     0
  0
XRECORD
  5
13A
102
{ACAD_REACTORS
330
139
102
}
330
139
100
AcDbXrecord
280
     1
102
RTVSPost2010Prop28
280
     0
102
RTVSPost2010PropOp28
 70
     1
102
RTVSPost2010Prop29
280
     1
102
RTVSPost2010PropOp29
 70
     1
102
RTVSPost2010Prop30
280
     1
102
RTVSPost2010PropOp30
 70
     1
102
RTVSPost2010Prop31
280
     0
102
RTVSPost2010PropOp31
 70
     1
102
RTVSPost2010Prop32
280
     0
102
RTVSPost2010PropOp32
 70
     1
102
RTVSPost2010Prop33
280
     0
102
RTVSPost2010PropOp33
 70
     1
102
RTVSPost2010Prop34
280
     0
102
RTVSPost2010PropOp34
 70
     1
102
RTVSPost2010Prop35
280
     0
102
RTVSPost2010PropOp35
 70
     1
102
RTVSPost2010Prop36
280
     0
102
RTVSPost2010PropOp36
 70
     1
102
RTVSPost2010Prop37
 90
       50
102
RTVSPost2010PropOp37
 70
     1
102
RTVSPost2010Prop38
140
0.0
102
RTVSPost2010PropOp38
 70
     1
102
RTVSPost2010Prop39
140
1.0
102
RTVSPost2010PropOp39
 70
     1
102
RTVSPost2010Prop40
 90
        0
102
RTVSPost2010PropOp40
 70
     1
102
RTVSPost2010Prop41ColorIndex
 90
       18
102
RTVSPost2010Prop41ColorRGB
 90
        0
102
RTVSPost2010PropOp41
 70
     1
102
RTVSPost2010Prop42
 90
       50
102
RTVSPost2010PropOp42
 70
     1
102
RTVSPost2010Prop43
 90
        3
102
RTVSPost2010PropOp43
 70
     1
102
RTVSPost2010Prop44ColorIndex
 90
        5
102
RTVSPost2010Prop44ColorRGB
 90
      255
102
RTVSPost2010PropOp44
 70
     1
102
RTVSPost2010Prop45
280
     0
102
RTVSPost2010PropOp45
 70
     1
102
RTVSPost2010Prop46
 90
       50
102
RTVSPost2010PropOp46
 70
     1
102
RTVSPost2010Prop47
 90
       50
102
RTVSPost2010PropOp47
 70
     1
102
RTVSPost2010Prop48
 90
       50
102
RTVSPost2010PropOp48
 70
     1
102
RTVSPost2010Prop49
280
     0
102
RTVSPost2010PropOp49
 70
     1
102
RTVSPost2010Prop50
 90
       50
102
RTVSPost2010PropOp50
 70
     1
102
RTVSPost2010Prop51ColorIndex
 90
      256
102
RTVSPost2010Prop51ColorRGB
 90
-16777216
102
RTVSPost2010PropOp51
 70
     0
102
RTVSPost2010Prop52
140
1.0
102
RTVSPost2010PropOp52
 70
     0
102
RTVSPost2010Prop53
 90
        2
102
RTVSPost2010PropOp53
 70
     1
102
RTVSPost2010Prop54
  1
strokes_ogs.tif
102
RTVSPost2010PropOp54
 70
     1
102
RTVSPost2010Prop55
280
     0
102
RTVSPost2010PropOp55
 70
     1
102
RTVSPost2010Prop56
140
1.0
102
RTVSPost2010PropOp56
 70
     1
102
RTVSPost2010Prop57
140
1.0
102
RTVSPost2010PropOp57
 70
     1
  0
XRECORD
  5
11E
102
{ACAD_REACTORS
330
11D
102
}
330
11D
100
AcDbXrecord
280
     1
102
RTVSPost2010Prop28
280
     0
102
RTVSPost2010PropOp28
 70
     1
102
RTVSPost2010Prop29
280
     1
102
RTVSPost2010PropOp29
 70
     1
102
RTVSPost2010Prop30
280
     1
102
RTVSPost2010PropOp30
 70
     1
102
RTVSPost2010Prop31
280
     0
102
RTVSPost2010PropOp31
 70
     1
102
RTVSPost2010Prop32
280
     0
102
RTVSPost2010PropOp32
 70
     1
102
RTVSPost2010Prop33
280
     0
102
RTVSPost2010PropOp33
 70
     1
102
RTVSPost2010Prop34
280
     0
102
RTVSPost2010PropOp34
 70
     1
102
RTVSPost2010Prop35
280
     0
102
RTVSPost2010PropOp35
 70
     1
102
RTVSPost2010Prop36
280
     0
102
RTVSPost2010PropOp36
 70
     1
102
RTVSPost2010Prop37
 90
       50
102
RTVSPost2010PropOp37
 70
     1
102
RTVSPost2010Prop38
140
0.0
102
RTVSPost2010PropOp38
 70
     1
102
RTVSPost2010Prop39
140
1.0
102
RTVSPost2010PropOp39
 70
     1
102
RTVSPost2010Prop40
 90
        0
102
RTVSPost2010PropOp40
 70
     1
102
RTVSPost2010Prop41ColorIndex
 90
       18
102
RTVSPost2010Prop41ColorRGB
 90
        0
102
RTVSPost2010PropOp41
 70
     1
102
RTVSPost2010Prop42
 90
       50
102
RTVSPost2010PropOp42
 70
     1
102
RTVSPost2010Prop43
 90
        3
102
RTVSPost2010PropOp43
 70
     1
102
RTVSPost2010Prop44ColorIndex
 90
        5
102
RTVSPost2010Prop44ColorRGB
 90
      255
102
RTVSPost2010PropOp44
 70
     1
102
RTVSPost2010Prop45
280
     0
102
RTVSPost2010PropOp45
 70
     1
102
RTVSPost2010Prop46
 90
       50
102
RTVSPost2010PropOp46
 70
     1
102
RTVSPost2010Prop47
 90
       50
102
RTVSPost2010PropOp47
 70
     1
102
RTVSPost2010Prop48
 90
       50
102
RTVSPost2010PropOp48
 70
     1
102
RTVSPost2010Prop49
280
     0
102
RTVSPost2010PropOp49
 70
     1
102
RTVSPost2010Prop50
 90
       50
102
RTVSPost2010PropOp50
 70
     1
102
RTVSPost2010Prop51ColorIndex
 90
      256
102
RTVSPost2010Prop51ColorRGB
 90
-16777216
102
RTVSPost2010PropOp51
 70
     0
102
RTVSPost2010Prop52
140
1.0
102
RTVSPost2010PropOp52
 70
     0
102
RTVSPost2010Prop53
 90
        2
102
RTVSPost2010PropOp53
 70
     1
102
RTVSPost2010Prop54
  1
strokes_ogs.tif
102
RTVSPost2010PropOp54
 70
     1
102
RTVSPost2010Prop55
280
     0
102
RTVSPost2010PropOp55
 70
     1
102
RTVSPost2010Prop56
140
1.0
102
RTVSPost2010PropOp56
 70
     1
102
RTVSPost2010Prop57
140
1.0
102
RTVSPost2010PropOp57
 70
     1
  0
XRECORD
  5
120
102
{ACAD_REACTORS
330
11F
102
}
330
11F
100
AcDbXrecord
280
     1
102
RTVSPost2010Prop28
280
     0
102
RTVSPost2010PropOp28
 70
     1
102
RTVSPost2010Prop29
280
     1
102
RTVSPost2010PropOp29
 70
     1
102
RTVSPost2010Prop30
280
     1
102
RTVSPost2010PropOp30
 70
     1
102
RTVSPost2010Prop31
280
     0
102
RTVSPost2010PropOp31
 70
     1
102
RTVSPost2010Prop32
280
     0
102
RTVSPost2010PropOp32
 70
     1
102
RTVSPost2010Prop33
280
     0
102
RTVSPost2010PropOp33
 70
     1
102
RTVSPost2010Prop34
280
     0
102
RTVSPost2010PropOp34
 70
     1
102
RTVSPost2010Prop35
280
     0
102
RTVSPost2010PropOp35
 70
     1
102
RTVSPost2010Prop36
280
     0
102
RTVSPost2010PropOp36
 70
     1
102
RTVSPost2010Prop37
 90
       50
102
RTVSPost2010PropOp37
 70
     1
102
RTVSPost2010Prop38
140
0.0
102
RTVSPost2010PropOp38
 70
     1
102
RTVSPost2010Prop39
140
1.0
102
RTVSPost2010PropOp39
 70
     1
102
RTVSPost2010Prop40
 90
        0
102
RTVSPost2010PropOp40
 70
     1
102
RTVSPost2010Prop41ColorIndex
 90
       18
102
RTVSPost2010Prop41ColorRGB
 90
        0
102
RTVSPost2010PropOp41
 70
     1
102
RTVSPost2010Prop42
 90
       50
102
RTVSPost2010PropOp42
 70
     1
102
RTVSPost2010Prop43
 90
        3
102
RTVSPost2010PropOp43
 70
     1
102
RTVSPost2010Prop44ColorIndex
 90
        5
102
RTVSPost2010Prop44ColorRGB
 90
      255
102
RTVSPost2010PropOp44
 70
     1
102
RTVSPost2010Prop45
280
     0
102
RTVSPost2010PropOp45
 70
     1
102
RTVSPost2010Prop46
 90
       50
102
RTVSPost2010PropOp46
 70
     1
102
RTVSPost2010Prop47
 90
       50
102
RTVSPost2010PropOp47
 70
     1
102
RTVSPost2010Prop48
 90
       50
102
RTVSPost2010PropOp48
 70
     1
102
RTVSPost2010Prop49
280
     0
102
RTVSPost2010PropOp49
 70
     1
102
RTVSPost2010Prop50
 90
       50
102
RTVSPost2010PropOp50
 70
     1
102
RTVSPost2010Prop51ColorIndex
 90
      256
102
RTVSPost2010Prop51ColorRGB
 90
-16777216
102
RTVSPost2010PropOp51
 70
     0
102
RTVSPost2010Prop52
140
1.0
102
RTVSPost2010PropOp52
 70
     0
102
RTVSPost2010Prop53
 90
        2
102
RTVSPost2010PropOp53
 70
     1
102
RTVSPost2010Prop54
  1
strokes_ogs.tif
102
RTVSPost2010PropOp54
 70
     1
102
RTVSPost2010Prop55
280
     0
102
RTVSPost2010PropOp55
 70
     1
102
RTVSPost2010Prop56
140
1.0
102
RTVSPost2010PropOp56
 70
     1
102
RTVSPost2010Prop57
140
1.0
102
RTVSPost2010PropOp57
 70
     1
  0
XRECORD
  5
122
102
{ACAD_REACTORS
330
121
102
}
330
121
100
AcDbXrecord
280
     1
102
RTVSPost2010Prop28
280
     0
102
RTVSPost2010PropOp28
 70
     1
102
RTVSPost2010Prop29
280
     1
102
RTVSPost2010PropOp29
 70
     1
102
RTVSPost2010Prop30
280
     1
102
RTVSPost2010PropOp30
 70
     1
102
RTVSPost2010Prop31
280
     0
102
RTVSPost2010PropOp31
 70
     1
102
RTVSPost2010Prop32
280
     0
102
RTVSPost2010PropOp32
 70
     1
102
RTVSPost2010Prop33
280
     0
102
RTVSPost2010PropOp33
 70
     1
102
RTVSPost2010Prop34
280
     0
102
RTVSPost2010PropOp34
 70
     1
102
RTVSPost2010Prop35
280
     0
102
RTVSPost2010PropOp35
 70
     1
102
RTVSPost2010Prop36
280
     0
102
RTVSPost2010PropOp36
 70
     1
102
RTVSPost2010Prop37
 90
       50
102
RTVSPost2010PropOp37
 70
     1
102
RTVSPost2010Prop38
140
0.0
102
RTVSPost2010PropOp38
 70
     1
102
RTVSPost2010Prop39
140
1.0
102
RTVSPost2010PropOp39
 70
     1
102
RTVSPost2010Prop40
 90
        0
102
RTVSPost2010PropOp40
 70
     1
102
RTVSPost2010Prop41ColorIndex
 90
       18
102
RTVSPost2010Prop41ColorRGB
 90
        0
102
RTVSPost2010PropOp41
 70
     1
102
RTVSPost2010Prop42
 90
       50
102
RTVSPost2010PropOp42
 70
     1
102
RTVSPost2010Prop43
 90
        3
102
RTVSPost2010PropOp43
 70
     1
102
RTVSPost2010Prop44ColorIndex
 90
        5
102
RTVSPost2010Prop44ColorRGB
 90
      255
102
RTVSPost2010PropOp44
 70
     1
102
RTVSPost2010Prop45
280
     0
102
RTVSPost2010PropOp45
 70
     1
102
RTVSPost2010Prop46
 90
       50
102
RTVSPost2010PropOp46
 70
     1
102
RTVSPost2010Prop47
 90
       50
102
RTVSPost2010PropOp47
 70
     1
102
RTVSPost2010Prop48
 90
       50
102
RTVSPost2010PropOp48
 70
     1
102
RTVSPost2010Prop49
280
     0
102
RTVSPost2010PropOp49
 70
     1
102
RTVSPost2010Prop50
 90
       50
102
RTVSPost2010PropOp50
 70
     1
102
RTVSPost2010Prop51ColorIndex
 90
      256
102
RTVSPost2010Prop51ColorRGB
 90
-16777216
102
RTVSPost2010PropOp51
 70
     0
102
RTVSPost2010Prop52
140
1.0
102
RTVSPost2010PropOp52
 70
     0
102
RTVSPost2010Prop53
 90
        2
102
RTVSPost2010PropOp53
 70
     1
102
RTVSPost2010Prop54
  1
strokes_ogs.tif
102
RTVSPost2010PropOp54
 70
     1
102
RTVSPost2010Prop55
280
     0
102
RTVSPost2010PropOp55
 70
     1
102
RTVSPost2010Prop56
140
1.0
102
RTVSPost2010PropOp56
 70
     1
102
RTVSPost2010Prop57
140
1.0
102
RTVSPost2010PropOp57
 70
     1
  0
XRECORD
  5
124
102
{ACAD_REACTORS
330
123
102
}
330
123
100
AcDbXrecord
280
     1
102
RTVSPost2010Prop28
280
     0
102
RTVSPost2010PropOp28
 70
     1
102
RTVSPost2010Prop29
280
     1
102
RTVSPost2010PropOp29
 70
     1
102
RTVSPost2010Prop30
280
     1
102
RTVSPost2010PropOp30
 70
     1
102
RTVSPost2010Prop31
280
     0
102
RTVSPost2010PropOp31
 70
     1
102
RTVSPost2010Prop32
280
     0
102
RTVSPost2010PropOp32
 70
     1
102
RTVSPost2010Prop33
280
     0
102
RTVSPost2010PropOp33
 70
     1
102
RTVSPost2010Prop34
280
     0
102
RTVSPost2010PropOp34
 70
     1
102
RTVSPost2010Prop35
280
     0
102
RTVSPost2010PropOp35
 70
     1
102
RTVSPost2010Prop36
280
     0
102
RTVSPost2010PropOp36
 70
     1
102
RTVSPost2010Prop37
 90
       50
102
RTVSPost2010PropOp37
 70
     1
102
RTVSPost2010Prop38
140
0.0
102
RTVSPost2010PropOp38
 70
     1
102
RTVSPost2010Prop39
140
1.0
102
RTVSPost2010PropOp39
 70
     1
102
RTVSPost2010Prop40
 90
        0
102
RTVSPost2010PropOp40
 70
     1
102
RTVSPost2010Prop41ColorIndex
 90
       18
102
RTVSPost2010Prop41ColorRGB
 90
        0
102
RTVSPost2010PropOp41
 70
     1
102
RTVSPost2010Prop42
 90
       50
102
RTVSPost2010PropOp42
 70
     1
102
RTVSPost2010Prop43
 90
        3
102
RTVSPost2010PropOp43
 70
     1
102
RTVSPost2010Prop44ColorIndex
 90
        5
102
RTVSPost2010Prop44ColorRGB
 90
      255
102
RTVSPost2010PropOp44
 70
     1
102
RTVSPost2010Prop45
280
     0
102
RTVSPost2010PropOp45
 70
     1
102
RTVSPost2010Prop46
 90
       50
102
RTVSPost2010PropOp46
 70
     1
102
RTVSPost2010Prop47
 90
       50
102
RTVSPost2010PropOp47
 70
     1
102
RTVSPost2010Prop48
 90
       50
102
RTVSPost2010PropOp48
 70
     1
102
RTVSPost2010Prop49
280
     0
102
RTVSPost2010PropOp49
 70
     1
102
RTVSPost2010Prop50
 90
       50
102
RTVSPost2010PropOp50
 70
     1
102
RTVSPost2010Prop51ColorIndex
 90
      256
102
RTVSPost2010Prop51ColorRGB
 90
-16777216
102
RTVSPost2010PropOp51
 70
     0
102
RTVSPost2010Prop52
140
1.0
102
RTVSPost2010PropOp52
 70
     0
102
RTVSPost2010Prop53
 90
        2
102
RTVSPost2010PropOp53
 70
     1
102
RTVSPost2010Prop54
  1
strokes_ogs.tif
102
RTVSPost2010PropOp54
 70
     1
102
RTVSPost2010Prop55
280
     0
102
RTVSPost2010PropOp55
 70
     1
102
RTVSPost2010Prop56
140
1.0
102
RTVSPost2010PropOp56
 70
     1
102
RTVSPost2010Prop57
140
1.0
102
RTVSPost2010PropOp57
 70
     1
  0
XRECORD
  5
12C
102
{ACAD_REACTORS
330
12B
102
}
330
12B
100
AcDbXrecord
280
     1
102
RTVSPost2010Prop28
280
     0
102
RTVSPost2010PropOp28
 70
     1
102
RTVSPost2010Prop29
280
     1
102
RTVSPost2010PropOp29
 70
     1
102
RTVSPost2010Prop30
280
     1
102
RTVSPost2010PropOp30
 70
     1
102
RTVSPost2010Prop31
280
     0
102
RTVSPost2010PropOp31
 70
     1
102
RTVSPost2010Prop32
280
     0
102
RTVSPost2010PropOp32
 70
     1
102
RTVSPost2010Prop33
280
     0
102
RTVSPost2010PropOp33
 70
     1
102
RTVSPost2010Prop34
280
     0
102
RTVSPost2010PropOp34
 70
     1
102
RTVSPost2010Prop35
280
     0
102
RTVSPost2010PropOp35
 70
     1
102
RTVSPost2010Prop36
280
     0
102
RTVSPost2010PropOp36
 70
     1
102
RTVSPost2010Prop37
 90
       50
102
RTVSPost2010PropOp37
 70
     1
102
RTVSPost2010Prop38
140
0.0
102
RTVSPost2010PropOp38
 70
     1
102
RTVSPost2010Prop39
140
1.0
102
RTVSPost2010PropOp39
 70
     1
102
RTVSPost2010Prop40
 90
        0
102
RTVSPost2010PropOp40
 70
     1
102
RTVSPost2010Prop41ColorIndex
 90
       18
102
RTVSPost2010Prop41ColorRGB
 90
        0
102
RTVSPost2010PropOp41
 70
     1
102
RTVSPost2010Prop42
 90
       50
102
RTVSPost2010PropOp42
 70
     1
102
RTVSPost2010Prop43
 90
        3
102
RTVSPost2010PropOp43
 70
     1
102
RTVSPost2010Prop44ColorIndex
 90
        5
102
RTVSPost2010Prop44ColorRGB
 90
      255
102
RTVSPost2010PropOp44
 70
     1
102
RTVSPost2010Prop45
280
     0
102
RTVSPost2010PropOp45
 70
     1
102
RTVSPost2010Prop46
 90
       50
102
RTVSPost2010PropOp46
 70
     1
102
RTVSPost2010Prop47
 90
       50
102
RTVSPost2010PropOp47
 70
     1
102
RTVSPost2010Prop48
 90
       50
102
RTVSPost2010PropOp48
 70
     1
102
RTVSPost2010Prop49
280
     0
102
RTVSPost2010PropOp49
 70
     1
102
RTVSPost2010Prop50
 90
       50
102
RTVSPost2010PropOp50
 70
     1
102
RTVSPost2010Prop51ColorIndex
 90
      256
102
RTVSPost2010Prop51ColorRGB
 90
-16777216
102
RTVSPost2010PropOp51
 70
     0
102
RTVSPost2010Prop52
140
1.0
102
RTVSPost2010PropOp52
 70
     0
102
RTVSPost2010Prop53
 90
        2
102
RTVSPost2010PropOp53
 70
     1
102
RTVSPost2010Prop54
  1
strokes_ogs.tif
102
RTVSPost2010PropOp54
 70
     1
102
RTVSPost2010Prop55
280
     0
102
RTVSPost2010PropOp55
 70
     1
102
RTVSPost2010Prop56
140
1.0
102
RTVSPost2010PropOp56
 70
     1
102
RTVSPost2010Prop57
140
1.0
102
RTVSPost2010PropOp57
 70
     1
  0
XRECORD
  5
148
102
{ACAD_REACTORS
330
147
102
}
330
147
100
AcDbXrecord
280
     1
102
RTVSPost2010Prop28
280
     0
102
RTVSPost2010PropOp28
 70
     0
102
RTVSPost2010Prop29
280
     1
102
RTVSPost2010PropOp29
 70
     0
102
RTVSPost2010Prop30
280
     1
102
RTVSPost2010PropOp30
 70
     0
102
RTVSPost2010Prop31
280
     0
102
RTVSPost2010PropOp31
 70
     0
102
RTVSPost2010Prop32
280
     0
102
RTVSPost2010PropOp32
 70
     0
102
RTVSPost2010Prop33
280
     0
102
RTVSPost2010PropOp33
 70
     0
102
RTVSPost2010Prop34
280
     0
102
RTVSPost2010PropOp34
 70
     0
102
RTVSPost2010Prop35
280
     0
102
RTVSPost2010PropOp35
 70
     0
102
RTVSPost2010Prop36
280
     0
102
RTVSPost2010PropOp36
 70
     0
102
RTVSPost2010Prop37
 90
       50
102
RTVSPost2010PropOp37
 70
     0
102
RTVSPost2010Prop38
140
0.0
102
RTVSPost2010PropOp38
 70
     0
102
RTVSPost2010Prop39
140
1.0
102
RTVSPost2010PropOp39
 70
     0
102
RTVSPost2010Prop40
 90
        0
102
RTVSPost2010PropOp40
 70
     0
102
RTVSPost2010Prop41ColorIndex
 90
       18
102
RTVSPost2010Prop41ColorRGB
 90
        0
102
RTVSPost2010PropOp41
 70
     0
102
RTVSPost2010Prop42
 90
       50
102
RTVSPost2010PropOp42
 70
     0
102
RTVSPost2010Prop43
 90
        3
102
RTVSPost2010PropOp43
 70
     0
102
RTVSPost2010Prop44ColorIndex
 90
        5
102
RTVSPost2010Prop44ColorRGB
 90
      255
102
RTVSPost2010PropOp44
 70
     0
102
RTVSPost2010Prop45
280
     0
102
RTVSPost2010PropOp45
 70
     0
102
RTVSPost2010Prop46
 90
       50
102
RTVSPost2010PropOp46
 70
     0
102
RTVSPost2010Prop47
 90
       50
102
RTVSPost2010PropOp47
 70
     0
102
RTVSPost2010Prop48
 90
       50
102
RTVSPost2010PropOp48
 70
     0
102
RTVSPost2010Prop49
280
     0
102
RTVSPost2010PropOp49
 70
     0
102
RTVSPost2010Prop50
 90
       50
102
RTVSPost2010PropOp50
 70
     0
102
RTVSPost2010Prop51ColorIndex
 90
      256
102
RTVSPost2010Prop51ColorRGB
 90
-16777216
102
RTVSPost2010PropOp51
 70
     0
102
RTVSPost2010Prop52
140
1.0
102
RTVSPost2010PropOp52
 70
     0
102
RTVSPost2010Prop53
 90
        2
102
RTVSPost2010PropOp53
 70
     0
102
RTVSPost2010Prop54
  1
strokes_ogs.tif
102
RTVSPost2010PropOp54
 70
     0
102
RTVSPost2010Prop55
280
     0
102
RTVSPost2010PropOp55
 70
     0
102
RTVSPost2010Prop56
140
1.0
102
RTVSPost2010PropOp56
 70
     0
102
RTVSPost2010Prop57
140
1.0
102
RTVSPost2010PropOp57
 70
     0
  0
XRECORD
  5
138
102
{ACAD_REACTORS
330
137
102
}
330
137
100
AcDbXrecord
280
     1
102
RTVSPost2010Prop28
280
     0
102
RTVSPost2010PropOp28
 70
     1
102
RTVSPost2010Prop29
280
     1
102
RTVSPost2010PropOp29
 70
     1
102
RTVSPost2010Prop30
280
     1
102
RTVSPost2010PropOp30
 70
     1
102
RTVSPost2010Prop31
280
     0
102
RTVSPost2010PropOp31
 70
     1
102
RTVSPost2010Prop32
280
     0
102
RTVSPost2010PropOp32
 70
     1
102
RTVSPost2010Prop33
280
     0
102
RTVSPost2010PropOp33
 70
     1
102
RTVSPost2010Prop34
280
     0
102
RTVSPost2010PropOp34
 70
     1
102
RTVSPost2010Prop35
280
     0
102
RTVSPost2010PropOp35
 70
     1
102
RTVSPost2010Prop36
280
     0
102
RTVSPost2010PropOp36
 70
     1
102
RTVSPost2010Prop37
 90
       50
102
RTVSPost2010PropOp37
 70
     1
102
RTVSPost2010Prop38
140
0.0
102
RTVSPost2010PropOp38
 70
     1
102
RTVSPost2010Prop39
140
1.0
102
RTVSPost2010PropOp39
 70
     1
102
RTVSPost2010Prop40
 90
        0
102
RTVSPost2010PropOp40
 70
     1
102
RTVSPost2010Prop41ColorIndex
 90
       18
102
RTVSPost2010Prop41ColorRGB
 90
        0
102
RTVSPost2010PropOp41
 70
     1
102
RTVSPost2010Prop42
 90
       50
102
RTVSPost2010PropOp42
 70
     1
102
RTVSPost2010Prop43
 90
        3
102
RTVSPost2010PropOp43
 70
     1
102
RTVSPost2010Prop44ColorIndex
 90
        5
102
RTVSPost2010Prop44ColorRGB
 90
      255
102
RTVSPost2010PropOp44
 70
     1
102
RTVSPost2010Prop45
280
     0
102
RTVSPost2010PropOp45
 70
     1
102
RTVSPost2010Prop46
 90
       50
102
RTVSPost2010PropOp46
 70
     1
102
RTVSPost2010Prop47
 90
       50
102
RTVSPost2010PropOp47
 70
     1
102
RTVSPost2010Prop48
 90
       50
102
RTVSPost2010PropOp48
 70
     1
102
RTVSPost2010Prop49
280
     0
102
RTVSPost2010PropOp49
 70
     1
102
RTVSPost2010Prop50
 90
       50
102
RTVSPost2010PropOp50
 70
     1
102
RTVSPost2010Prop51ColorIndex
 90
      256
102
RTVSPost2010Prop51ColorRGB
 90
-16777216
102
RTVSPost2010PropOp51
 70
     0
102
RTVSPost2010Prop52
140
1.0
102
RTVSPost2010PropOp52
 70
     0
102
RTVSPost2010Prop53
 90
        2
102
RTVSPost2010PropOp53
 70
     1
102
RTVSPost2010Prop54
  1
strokes_ogs.tif
102
RTVSPost2010PropOp54
 70
     1
102
RTVSPost2010Prop55
280
     0
102
RTVSPost2010PropOp55
 70
     1
102
RTVSPost2010Prop56
140
1.0
102
RTVSPost2010PropOp56
 70
     1
102
RTVSPost2010Prop57
140
1.0
102
RTVSPost2010PropOp57
 70
     1
  0
XRECORD
  5
14A
102
{ACAD_REACTORS
330
149
102
}
330
149
100
AcDbXrecord
280
     1
102
RTVSPost2010Prop28
280
     0
102
RTVSPost2010PropOp28
 70
     0
102
RTVSPost2010Prop29
280
     1
102
RTVSPost2010PropOp29
 70
     0
102
RTVSPost2010Prop30
280
     1
102
RTVSPost2010PropOp30
 70
     0
102
RTVSPost2010Prop31
280
     0
102
RTVSPost2010PropOp31
 70
     0
102
RTVSPost2010Prop32
280
     0
102
RTVSPost2010PropOp32
 70
     0
102
RTVSPost2010Prop33
280
     0
102
RTVSPost2010PropOp33
 70
     0
102
RTVSPost2010Prop34
280
     0
102
RTVSPost2010PropOp34
 70
     0
102
RTVSPost2010Prop35
280
     0
102
RTVSPost2010PropOp35
 70
     0
102
RTVSPost2010Prop36
280
     0
102
RTVSPost2010PropOp36
 70
     0
102
RTVSPost2010Prop37
 90
       50
102
RTVSPost2010PropOp37
 70
     0
102
RTVSPost2010Prop38
140
0.0
102
RTVSPost2010PropOp38
 70
     0
102
RTVSPost2010Prop39
140
1.0
102
RTVSPost2010PropOp39
 70
     0
102
RTVSPost2010Prop40
 90
        0
102
RTVSPost2010PropOp40
 70
     0
102
RTVSPost2010Prop41ColorIndex
 90
       18
102
RTVSPost2010Prop41ColorRGB
 90
        0
102
RTVSPost2010PropOp41
 70
     0
102
RTVSPost2010Prop42
 90
       50
102
RTVSPost2010PropOp42
 70
     0
102
RTVSPost2010Prop43
 90
        3
102
RTVSPost2010PropOp43
 70
     0
102
RTVSPost2010Prop44ColorIndex
 90
        5
102
RTVSPost2010Prop44ColorRGB
 90
      255
102
RTVSPost2010PropOp44
 70
     0
102
RTVSPost2010Prop45
280
     0
102
RTVSPost2010PropOp45
 70
     0
102
RTVSPost2010Prop46
 90
       50
102
RTVSPost2010PropOp46
 70
     0
102
RTVSPost2010Prop47
 90
       50
102
RTVSPost2010PropOp47
 70
     0
102
RTVSPost2010Prop48
 90
       50
102
RTVSPost2010PropOp48
 70
     0
102
RTVSPost2010Prop49
280
     0
102
RTVSPost2010PropOp49
 70
     0
102
RTVSPost2010Prop50
 90
       50
102
RTVSPost2010PropOp50
 70
     0
102
RTVSPost2010Prop51ColorIndex
 90
      256
102
RTVSPost2010Prop51ColorRGB
 90
-16777216
102
RTVSPost2010PropOp51
 70
     0
102
RTVSPost2010Prop52
140
1.0
102
RTVSPost2010PropOp52
 70
     0
102
RTVSPost2010Prop53
 90
        2
102
RTVSPost2010PropOp53
 70
     0
102
RTVSPost2010Prop54
  1
strokes_ogs.tif
102
RTVSPost2010PropOp54
 70
     0
102
RTVSPost2010Prop55
280
     0
102
RTVSPost2010PropOp55
 70
     0
102
RTVSPost2010Prop56
140
1.0
102
RTVSPost2010PropOp56
 70
     0
102
RTVSPost2010Prop57
140
1.0
102
RTVSPost2010PropOp57
 70
     0
  0
XRECORD
  5
130
102
{ACAD_REACTORS
330
12F
102
}
330
12F
100
AcDbXrecord
280
     1
102
RTVSPost2010Prop28
280
     0
102
RTVSPost2010PropOp28
 70
     1
102
RTVSPost2010Prop29
280
     1
102
RTVSPost2010PropOp29
 70
     1
102
RTVSPost2010Prop30
280
     1
102
RTVSPost2010PropOp30
 70
     1
102
RTVSPost2010Prop31
280
     0
102
RTVSPost2010PropOp31
 70
     1
102
RTVSPost2010Prop32
280
     0
102
RTVSPost2010PropOp32
 70
     1
102
RTVSPost2010Prop33
280
     0
102
RTVSPost2010PropOp33
 70
     1
102
RTVSPost2010Prop34
280
     0
102
RTVSPost2010PropOp34
 70
     1
102
RTVSPost2010Prop35
280
     0
102
RTVSPost2010PropOp35
 70
     1
102
RTVSPost2010Prop36
280
     0
102
RTVSPost2010PropOp36
 70
     1
102
RTVSPost2010Prop37
 90
       50
102
RTVSPost2010PropOp37
 70
     1
102
RTVSPost2010Prop38
140
0.0
102
RTVSPost2010PropOp38
 70
     1
102
RTVSPost2010Prop39
140
1.0
102
RTVSPost2010PropOp39
 70
     1
102
RTVSPost2010Prop40
 90
        0
102
RTVSPost2010PropOp40
 70
     1
102
RTVSPost2010Prop41ColorIndex
 90
       18
102
RTVSPost2010Prop41ColorRGB
 90
        0
102
RTVSPost2010PropOp41
 70
     1
102
RTVSPost2010Prop42
 90
       50
102
RTVSPost2010PropOp42
 70
     1
102
RTVSPost2010Prop43
 90
        3
102
RTVSPost2010PropOp43
 70
     1
102
RTVSPost2010Prop44ColorIndex
 90
        5
102
RTVSPost2010Prop44ColorRGB
 90
      255
102
RTVSPost2010PropOp44
 70
     1
102
RTVSPost2010Prop45
280
     0
102
RTVSPost2010PropOp45
 70
     1
102
RTVSPost2010Prop46
 90
       50
102
RTVSPost2010PropOp46
 70
     1
102
RTVSPost2010Prop47
 90
       50
102
RTVSPost2010PropOp47
 70
     1
102
RTVSPost2010Prop48
 90
       50
102
RTVSPost2010PropOp48
 70
     1
102
RTVSPost2010Prop49
280
     0
102
RTVSPost2010PropOp49
 70
     1
102
RTVSPost2010Prop50
 90
       50
102
RTVSPost2010PropOp50
 70
     1
102
RTVSPost2010Prop51ColorIndex
 90
      256
102
RTVSPost2010Prop51ColorRGB
 90
-16777216
102
RTVSPost2010PropOp51
 70
     0
102
RTVSPost2010Prop52
140
1.0
102
RTVSPost2010PropOp52
 70
     0
102
RTVSPost2010Prop53
 90
        2
102
RTVSPost2010PropOp53
 70
     1
102
RTVSPost2010Prop54
  1
strokes_ogs.tif
102
RTVSPost2010PropOp54
 70
     1
102
RTVSPost2010Prop55
280
     0
102
RTVSPost2010PropOp55
 70
     1
102
RTVSPost2010Prop56
140
1.0
102
RTVSPost2010PropOp56
 70
     1
102
RTVSPost2010Prop57
140
1.0
102
RTVSPost2010PropOp57
 70
     1
  0
XRECORD
  5
146
102
{ACAD_REACTORS
330
145
102
}
330
145
100
AcDbXrecord
280
     1
102
RTVSPost2010Prop28
280
     0
102
RTVSPost2010PropOp28
 70
     1
102
RTVSPost2010Prop29
280
     1
102
RTVSPost2010PropOp29
 70
     1
102
RTVSPost2010Prop30
280
     1
102
RTVSPost2010PropOp30
 70
     1
102
RTVSPost2010Prop31
280
     0
102
RTVSPost2010PropOp31
 70
     1
102
RTVSPost2010Prop32
280
     0
102
RTVSPost2010PropOp32
 70
     1
102
RTVSPost2010Prop33
280
     0
102
RTVSPost2010PropOp33
 70
     1
102
RTVSPost2010Prop34
280
     0
102
RTVSPost2010PropOp34
 70
     1
102
RTVSPost2010Prop35
280
     0
102
RTVSPost2010PropOp35
 70
     1
102
RTVSPost2010Prop36
280
     0
102
RTVSPost2010PropOp36
 70
     1
102
RTVSPost2010Prop37
 90
       50
102
RTVSPost2010PropOp37
 70
     1
102
RTVSPost2010Prop38
140
0.0
102
RTVSPost2010PropOp38
 70
     1
102
RTVSPost2010Prop39
140
1.0
102
RTVSPost2010PropOp39
 70
     1
102
RTVSPost2010Prop40
 90
        0
102
RTVSPost2010PropOp40
 70
     1
102
RTVSPost2010Prop41ColorIndex
 90
       18
102
RTVSPost2010Prop41ColorRGB
 90
        0
102
RTVSPost2010PropOp41
 70
     1
102
RTVSPost2010Prop42
 90
       50
102
RTVSPost2010PropOp42
 70
     1
102
RTVSPost2010Prop43
 90
        3
102
RTVSPost2010PropOp43
 70
     1
102
RTVSPost2010Prop44ColorIndex
 90
        5
102
RTVSPost2010Prop44ColorRGB
 90
      255
102
RTVSPost2010PropOp44
 70
     1
102
RTVSPost2010Prop45
280
     0
102
RTVSPost2010PropOp45
 70
     1
102
RTVSPost2010Prop46
 90
       50
102
RTVSPost2010PropOp46
 70
     1
102
RTVSPost2010Prop47
 90
       50
102
RTVSPost2010PropOp47
 70
     1
102
RTVSPost2010Prop48
 90
       50
102
RTVSPost2010PropOp48
 70
     1
102
RTVSPost2010Prop49
280
     0
102
RTVSPost2010PropOp49
 70
     1
102
RTVSPost2010Prop50
 90
       50
102
RTVSPost2010PropOp50
 70
     1
102
RTVSPost2010Prop51ColorIndex
 90
      256
102
RTVSPost2010Prop51ColorRGB
 90
-16777216
102
RTVSPost2010PropOp51
 70
     0
102
RTVSPost2010Prop52
140
1.0
102
RTVSPost2010PropOp52
 70
     0
102
RTVSPost2010Prop53
 90
        2
102
RTVSPost2010PropOp53
 70
     1
102
RTVSPost2010Prop54
  1
strokes_ogs.tif
102
RTVSPost2010PropOp54
 70
     1
102
RTVSPost2010Prop55
280
     0
102
RTVSPost2010PropOp55
 70
     1
102
RTVSPost2010Prop56
140
1.0
102
RTVSPost2010PropOp56
 70
     1
102
RTVSPost2010Prop57
140
1.0
102
RTVSPost2010PropOp57
 70
     1
  0
XRECORD
  5
144
102
{ACAD_REACTORS
330
143
102
}
330
143
100
AcDbXrecord
280
     1
102
RTVSPost2010Prop28
280
     0
102
RTVSPost2010PropOp28
 70
     1
102
RTVSPost2010Prop29
280
     1
102
RTVSPost2010PropOp29
 70
     1
102
RTVSPost2010Prop30
280
     1
102
RTVSPost2010PropOp30
 70
     1
102
RTVSPost2010Prop31
280
     0
102
RTVSPost2010PropOp31
 70
     1
102
RTVSPost2010Prop32
280
     0
102
RTVSPost2010PropOp32
 70
     1
102
RTVSPost2010Prop33
280
     0
102
RTVSPost2010PropOp33
 70
     1
102
RTVSPost2010Prop34
280
     0
102
RTVSPost2010PropOp34
 70
     1
102
RTVSPost2010Prop35
280
     0
102
RTVSPost2010PropOp35
 70
     1
102
RTVSPost2010Prop36
280
     0
102
RTVSPost2010PropOp36
 70
     1
102
RTVSPost2010Prop37
 90
       50
102
RTVSPost2010PropOp37
 70
     1
102
RTVSPost2010Prop38
140
0.0
102
RTVSPost2010PropOp38
 70
     1
102
RTVSPost2010Prop39
140
1.0
102
RTVSPost2010PropOp39
 70
     1
102
RTVSPost2010Prop40
 90
        0
102
RTVSPost2010PropOp40
 70
     1
102
RTVSPost2010Prop41ColorIndex
 90
       18
102
RTVSPost2010Prop41ColorRGB
 90
        0
102
RTVSPost2010PropOp41
 70
     1
102
RTVSPost2010Prop42
 90
       50
102
RTVSPost2010PropOp42
 70
     1
102
RTVSPost2010Prop43
 90
        3
102
RTVSPost2010PropOp43
 70
     1
102
RTVSPost2010Prop44ColorIndex
 90
        5
102
RTVSPost2010Prop44ColorRGB
 90
      255
102
RTVSPost2010PropOp44
 70
     1
102
RTVSPost2010Prop45
280
     0
102
RTVSPost2010PropOp45
 70
     1
102
RTVSPost2010Prop46
 90
       50
102
RTVSPost2010PropOp46
 70
     1
102
RTVSPost2010Prop47
 90
       50
102
RTVSPost2010PropOp47
 70
     1
102
RTVSPost2010Prop48
 90
       50
102
RTVSPost2010PropOp48
 70
     1
102
RTVSPost2010Prop49
280
     0
102
RTVSPost2010PropOp49
 70
     1
102
RTVSPost2010Prop50
 90
       50
102
RTVSPost2010PropOp50
 70
     1
102
RTVSPost2010Prop51ColorIndex
 90
      256
102
RTVSPost2010Prop51ColorRGB
 90
-16777216
102
RTVSPost2010PropOp51
 70
     0
102
RTVSPost2010Prop52
140
1.0
102
RTVSPost2010PropOp52
 70
     0
102
RTVSPost2010Prop53
 90
        2
102
RTVSPost2010PropOp53
 70
     1
102
RTVSPost2010Prop54
  1
strokes_ogs.tif
102
RTVSPost2010PropOp54
 70
     1
102
RTVSPost2010Prop55
280
     0
102
RTVSPost2010PropOp55
 70
     1
102
RTVSPost2010Prop56
140
1.0
102
RTVSPost2010PropOp56
 70
     1
102
RTVSPost2010Prop57
140
1.0
102
RTVSPost2010PropOp57
 70
     1
  0
XRECORD
  5
13E
102
{ACAD_REACTORS
330
13D
102
}
330
13D
100
AcDbXrecord
280
     1
102
RTVSPost2010Prop28
280
     0
102
RTVSPost2010PropOp28
 70
     1
102
RTVSPost2010Prop29
280
     1
102
RTVSPost2010PropOp29
 70
     1
102
RTVSPost2010Prop30
280
     1
102
RTVSPost2010PropOp30
 70
     1
102
RTVSPost2010Prop31
280
     0
102
RTVSPost2010PropOp31
 70
     1
102
RTVSPost2010Prop32
280
     0
102
RTVSPost2010PropOp32
 70
     1
102
RTVSPost2010Prop33
280
     0
102
RTVSPost2010PropOp33
 70
     1
102
RTVSPost2010Prop34
280
     0
102
RTVSPost2010PropOp34
 70
     1
102
RTVSPost2010Prop35
280
     0
102
RTVSPost2010PropOp35
 70
     1
102
RTVSPost2010Prop36
280
     0
102
RTVSPost2010PropOp36
 70
     1
102
RTVSPost2010Prop37
 90
       50
102
RTVSPost2010PropOp37
 70
     1
102
RTVSPost2010Prop38
140
0.0
102
RTVSPost2010PropOp38
 70
     1
102
RTVSPost2010Prop39
140
1.0
102
RTVSPost2010PropOp39
 70
     1
102
RTVSPost2010Prop40
 90
        0
102
RTVSPost2010PropOp40
 70
     1
102
RTVSPost2010Prop41ColorIndex
 90
       18
102
RTVSPost2010Prop41ColorRGB
 90
        0
102
RTVSPost2010PropOp41
 70
     1
102
RTVSPost2010Prop42
 90
       50
102
RTVSPost2010PropOp42
 70
     1
102
RTVSPost2010Prop43
 90
        3
102
RTVSPost2010PropOp43
 70
     1
102
RTVSPost2010Prop44ColorIndex
 90
        5
102
RTVSPost2010Prop44ColorRGB
 90
      255
102
RTVSPost2010PropOp44
 70
     1
102
RTVSPost2010Prop45
280
     0
102
RTVSPost2010PropOp45
 70
     1
102
RTVSPost2010Prop46
 90
       50
102
RTVSPost2010PropOp46
 70
     1
102
RTVSPost2010Prop47
 90
       50
102
RTVSPost2010PropOp47
 70
     1
102
RTVSPost2010Prop48
 90
       50
102
RTVSPost2010PropOp48
 70
     1
102
RTVSPost2010Prop49
280
     0
102
RTVSPost2010PropOp49
 70
     1
102
RTVSPost2010Prop50
 90
       50
102
RTVSPost2010PropOp50
 70
     1
102
RTVSPost2010Prop51ColorIndex
 90
      256
102
RTVSPost2010Prop51ColorRGB
 90
-16777216
102
RTVSPost2010PropOp51
 70
     0
102
RTVSPost2010Prop52
140
1.0
102
RTVSPost2010PropOp52
 70
     0
102
RTVSPost2010Prop53
 90
        2
102
RTVSPost2010PropOp53
 70
     1
102
RTVSPost2010Prop54
  1
strokes_ogs.tif
102
RTVSPost2010PropOp54
 70
     1
102
RTVSPost2010Prop55
280
     0
102
RTVSPost2010PropOp55
 70
     1
102
RTVSPost2010Prop56
140
1.0
102
RTVSPost2010PropOp56
 70
     1
102
RTVSPost2010Prop57
140
1.0
102
RTVSPost2010PropOp57
 70
     1
  0
XRECORD
  5
140
102
{ACAD_REACTORS
330
13F
102
}
330
13F
100
AcDbXrecord
280
     1
102
RTVSPost2010Prop28
280
     0
102
RTVSPost2010PropOp28
 70
     1
102
RTVSPost2010Prop29
280
     1
102
RTVSPost2010PropOp29
 70
     1
102
RTVSPost2010Prop30
280
     1
102
RTVSPost2010PropOp30
 70
     1
102
RTVSPost2010Prop31
280
     0
102
RTVSPost2010PropOp31
 70
     1
102
RTVSPost2010Prop32
280
     0
102
RTVSPost2010PropOp32
 70
     1
102
RTVSPost2010Prop33
280
     0
102
RTVSPost2010PropOp33
 70
     1
102
RTVSPost2010Prop34
280
     0
102
RTVSPost2010PropOp34
 70
     1
102
RTVSPost2010Prop35
280
     0
102
RTVSPost2010PropOp35
 70
     1
102
RTVSPost2010Prop36
280
     0
102
RTVSPost2010PropOp36
 70
     1
102
RTVSPost2010Prop37
 90
       50
102
RTVSPost2010PropOp37
 70
     1
102
RTVSPost2010Prop38
140
0.0
102
RTVSPost2010PropOp38
 70
     1
102
RTVSPost2010Prop39
140
1.0
102
RTVSPost2010PropOp39
 70
     1
102
RTVSPost2010Prop40
 90
        0
102
RTVSPost2010PropOp40
 70
     1
102
RTVSPost2010Prop41ColorIndex
 90
       18
102
RTVSPost2010Prop41ColorRGB
 90
        0
102
RTVSPost2010PropOp41
 70
     1
102
RTVSPost2010Prop42
 90
       50
102
RTVSPost2010PropOp42
 70
     1
102
RTVSPost2010Prop43
 90
        3
102
RTVSPost2010PropOp43
 70
     1
102
RTVSPost2010Prop44ColorIndex
 90
        5
102
RTVSPost2010Prop44ColorRGB
 90
      255
102
RTVSPost2010PropOp44
 70
     1
102
RTVSPost2010Prop45
280
     0
102
RTVSPost2010PropOp45
 70
     1
102
RTVSPost2010Prop46
 90
       50
102
RTVSPost2010PropOp46
 70
     1
102
RTVSPost2010Prop47
 90
       50
102
RTVSPost2010PropOp47
 70
     1
102
RTVSPost2010Prop48
 90
       50
102
RTVSPost2010PropOp48
 70
     1
102
RTVSPost2010Prop49
280
     0
102
RTVSPost2010PropOp49
 70
     1
102
RTVSPost2010Prop50
 90
       50
102
RTVSPost2010PropOp50
 70
     1
102
RTVSPost2010Prop51ColorIndex
 90
      256
102
RTVSPost2010Prop51ColorRGB
 90
-16777216
102
RTVSPost2010PropOp51
 70
     0
102
RTVSPost2010Prop52
140
1.0
102
RTVSPost2010PropOp52
 70
     0
102
RTVSPost2010Prop53
 90
        2
102
RTVSPost2010PropOp53
 70
     1
102
RTVSPost2010Prop54
  1
strokes_ogs.tif
102
RTVSPost2010PropOp54
 70
     1
102
RTVSPost2010Prop55
280
     0
102
RTVSPost2010PropOp55
 70
     1
102
RTVSPost2010Prop56
140
1.0
102
RTVSPost2010PropOp56
 70
     1
102
RTVSPost2010Prop57
140
1.0
102
RTVSPost2010PropOp57
 70
     1
  0
XRECORD
  5
136
102
{ACAD_REACTORS
330
135
102
}
330
135
100
AcDbXrecord
280
     1
102
RTVSPost2010Prop28
280
     0
102
RTVSPost2010PropOp28
 70
     1
102
RTVSPost2010Prop29
280
     1
102
RTVSPost2010PropOp29
 70
     1
102
RTVSPost2010Prop30
280
     1
102
RTVSPost2010PropOp30
 70
     1
102
RTVSPost2010Prop31
280
     0
102
RTVSPost2010PropOp31
 70
     1
102
RTVSPost2010Prop32
280
     0
102
RTVSPost2010PropOp32
 70
     1
102
RTVSPost2010Prop33
280
     0
102
RTVSPost2010PropOp33
 70
     1
102
RTVSPost2010Prop34
280
     0
102
RTVSPost2010PropOp34
 70
     1
102
RTVSPost2010Prop35
280
     0
102
RTVSPost2010PropOp35
 70
     1
102
RTVSPost2010Prop36
280
     0
102
RTVSPost2010PropOp36
 70
     1
102
RTVSPost2010Prop37
 90
       50
102
RTVSPost2010PropOp37
 70
     1
102
RTVSPost2010Prop38
140
0.0
102
RTVSPost2010PropOp38
 70
     1
102
RTVSPost2010Prop39
140
1.0
102
RTVSPost2010PropOp39
 70
     1
102
RTVSPost2010Prop40
 90
        0
102
RTVSPost2010PropOp40
 70
     1
102
RTVSPost2010Prop41ColorIndex
 90
       18
102
RTVSPost2010Prop41ColorRGB
 90
        0
102
RTVSPost2010PropOp41
 70
     1
102
RTVSPost2010Prop42
 90
       50
102
RTVSPost2010PropOp42
 70
     1
102
RTVSPost2010Prop43
 90
        3
102
RTVSPost2010PropOp43
 70
     1
102
RTVSPost2010Prop44ColorIndex
 90
        5
102
RTVSPost2010Prop44ColorRGB
 90
      255
102
RTVSPost2010PropOp44
 70
     1
102
RTVSPost2010Prop45
280
     0
102
RTVSPost2010PropOp45
 70
     1
102
RTVSPost2010Prop46
 90
       50
102
RTVSPost2010PropOp46
 70
     1
102
RTVSPost2010Prop47
 90
       50
102
RTVSPost2010PropOp47
 70
     1
102
RTVSPost2010Prop48
 90
       50
102
RTVSPost2010PropOp48
 70
     1
102
RTVSPost2010Prop49
280
     0
102
RTVSPost2010PropOp49
 70
     1
102
RTVSPost2010Prop50
 90
       50
102
RTVSPost2010PropOp50
 70
     1
102
RTVSPost2010Prop51ColorIndex
 90
      256
102
RTVSPost2010Prop51ColorRGB
 90
-16777216
102
RTVSPost2010PropOp51
 70
     0
102
RTVSPost2010Prop52
140
1.0
102
RTVSPost2010PropOp52
 70
     0
102
RTVSPost2010Prop53
 90
        2
102
RTVSPost2010PropOp53
 70
     1
102
RTVSPost2010Prop54
  1
strokes_ogs.tif
102
RTVSPost2010PropOp54
 70
     1
102
RTVSPost2010Prop55
280
     0
102
RTVSPost2010PropOp55
 70
     1
102
RTVSPost2010Prop56
140
1.0
102
RTVSPost2010PropOp56
 70
     1
102
RTVSPost2010Prop57
140
1.0
102
RTVSPost2010PropOp57
 70
     1
  0
XRECORD
  5
12A
102
{ACAD_REACTORS
330
129
102
}
330
129
100
AcDbXrecord
280
     1
102
RTVSPost2010Prop28
280
     0
102
RTVSPost2010PropOp28
 70
     1
102
RTVSPost2010Prop29
280
     1
102
RTVSPost2010PropOp29
 70
     1
102
RTVSPost2010Prop30
280
     1
102
RTVSPost2010PropOp30
 70
     1
102
RTVSPost2010Prop31
280
     0
102
RTVSPost2010PropOp31
 70
     1
102
RTVSPost2010Prop32
280
     0
102
RTVSPost2010PropOp32
 70
     1
102
RTVSPost2010Prop33
280
     0
102
RTVSPost2010PropOp33
 70
     1
102
RTVSPost2010Prop34
280
     0
102
RTVSPost2010PropOp34
 70
     1
102
RTVSPost2010Prop35
280
     0
102
RTVSPost2010PropOp35
 70
     1
102
RTVSPost2010Prop36
280
     0
102
RTVSPost2010PropOp36
 70
     1
102
RTVSPost2010Prop37
 90
       50
102
RTVSPost2010PropOp37
 70
     1
102
RTVSPost2010Prop38
140
0.0
102
RTVSPost2010PropOp38
 70
     1
102
RTVSPost2010Prop39
140
1.0
102
RTVSPost2010PropOp39
 70
     1
102
RTVSPost2010Prop40
 90
        0
102
RTVSPost2010PropOp40
 70
     1
102
RTVSPost2010Prop41ColorIndex
 90
       18
102
RTVSPost2010Prop41ColorRGB
 90
        0
102
RTVSPost2010PropOp41
 70
     1
102
RTVSPost2010Prop42
 90
       50
102
RTVSPost2010PropOp42
 70
     1
102
RTVSPost2010Prop43
 90
        3
102
RTVSPost2010PropOp43
 70
     1
102
RTVSPost2010Prop44ColorIndex
 90
        5
102
RTVSPost2010Prop44ColorRGB
 90
      255
102
RTVSPost2010PropOp44
 70
     1
102
RTVSPost2010Prop45
280
     0
102
RTVSPost2010PropOp45
 70
     1
102
RTVSPost2010Prop46
 90
       50
102
RTVSPost2010PropOp46
 70
     1
102
RTVSPost2010Prop47
 90
       50
102
RTVSPost2010PropOp47
 70
     1
102
RTVSPost2010Prop48
 90
       50
102
RTVSPost2010PropOp48
 70
     1
102
RTVSPost2010Prop49
280
     0
102
RTVSPost2010PropOp49
 70
     1
102
RTVSPost2010Prop50
 90
       50
102
RTVSPost2010PropOp50
 70
     1
102
RTVSPost2010Prop51ColorIndex
 90
      256
102
RTVSPost2010Prop51ColorRGB
 90
-16777216
102
RTVSPost2010PropOp51
 70
     0
102
RTVSPost2010Prop52
140
1.0
102
RTVSPost2010PropOp52
 70
     0
102
RTVSPost2010Prop53
 90
        2
102
RTVSPost2010PropOp53
 70
     1
102
RTVSPost2010Prop54
  1
strokes_ogs.tif
102
RTVSPost2010PropOp54
 70
     1
102
RTVSPost2010Prop55
280
     0
102
RTVSPost2010PropOp55
 70
     1
102
RTVSPost2010Prop56
140
1.0
102
RTVSPost2010PropOp56
 70
     1
102
RTVSPost2010Prop57
140
1.0
102
RTVSPost2010PropOp57
 70
     1
  0
XRECORD
  5
142
102
{ACAD_REACTORS
330
141
102
}
330
141
100
AcDbXrecord
280
     1
102
RTVSPost2010Prop28
280
     0
102
RTVSPost2010PropOp28
 70
     1
102
RTVSPost2010Prop29
280
     1
102
RTVSPost2010PropOp29
 70
     1
102
RTVSPost2010Prop30
280
     1
102
RTVSPost2010PropOp30
 70
     1
102
RTVSPost2010Prop31
280
     0
102
RTVSPost2010PropOp31
 70
     1
102
RTVSPost2010Prop32
280
     0
102
RTVSPost2010PropOp32
 70
     1
102
RTVSPost2010Prop33
280
     0
102
RTVSPost2010PropOp33
 70
     1
102
RTVSPost2010Prop34
280
     0
102
RTVSPost2010PropOp34
 70
     1
102
RTVSPost2010Prop35
280
     0
102
RTVSPost2010PropOp35
 70
     1
102
RTVSPost2010Prop36
280
     0
102
RTVSPost2010PropOp36
 70
     1
102
RTVSPost2010Prop37
 90
       50
102
RTVSPost2010PropOp37
 70
     1
102
RTVSPost2010Prop38
140
0.0
102
RTVSPost2010PropOp38
 70
     1
102
RTVSPost2010Prop39
140
1.0
102
RTVSPost2010PropOp39
 70
     1
102
RTVSPost2010Prop40
 90
        0
102
RTVSPost2010PropOp40
 70
     1
102
RTVSPost2010Prop41ColorIndex
 90
       18
102
RTVSPost2010Prop41ColorRGB
 90
        0
102
RTVSPost2010PropOp41
 70
     1
102
RTVSPost2010Prop42
 90
       50
102
RTVSPost2010PropOp42
 70
     1
102
RTVSPost2010Prop43
 90
        3
102
RTVSPost2010PropOp43
 70
     1
102
RTVSPost2010Prop44ColorIndex
 90
        5
102
RTVSPost2010Prop44ColorRGB
 90
      255
102
RTVSPost2010PropOp44
 70
     1
102
RTVSPost2010Prop45
280
     0
102
RTVSPost2010PropOp45
 70
     1
102
RTVSPost2010Prop46
 90
       50
102
RTVSPost2010PropOp46
 70
     1
102
RTVSPost2010Prop47
 90
       50
102
RTVSPost2010PropOp47
 70
     1
102
RTVSPost2010Prop48
 90
       50
102
RTVSPost2010PropOp48
 70
     1
102
RTVSPost2010Prop49
280
     0
102
RTVSPost2010PropOp49
 70
     1
102
RTVSPost2010Prop50
 90
       50
102
RTVSPost2010PropOp50
 70
     1
102
RTVSPost2010Prop51ColorIndex
 90
      256
102
RTVSPost2010Prop51ColorRGB
 90
-16777216
102
RTVSPost2010PropOp51
 70
     0
102
RTVSPost2010Prop52
140
1.0
102
RTVSPost2010PropOp52
 70
     0
102
RTVSPost2010Prop53
 90
        2
102
RTVSPost2010PropOp53
 70
     1
102
RTVSPost2010Prop54
  1
strokes_ogs.tif
102
RTVSPost2010PropOp54
 70
     1
102
RTVSPost2010Prop55
280
     0
102
RTVSPost2010PropOp55
 70
     1
102
RTVSPost2010Prop56
140
1.0
102
RTVSPost2010PropOp56
 70
     1
102
RTVSPost2010Prop57
140
1.0
102
RTVSPost2010PropOp57
 70
     1
  0
ENDSEC
  0
EOF
