  0
SECTION
  2
HEADER
  9
$ACADVER
  1
AC1024
  9
$ACADMAINTVER
 70
   226
  9
$DWGCODEPAGE
  3
ANSI_932
  9
$INSBASE
 10
0.0
 20
0.0
 30
0.0
  9
$EXTMIN
 10
1.000000000000000E+20
 20
1.000000000000000E+20
 30
1.000000000000000E+20
  9
$EXTMAX
 10
-1.000000000000000E+20
 20
-1.000000000000000E+20
 30
-1.000000000000000E+20
  9
$LIMMIN
 10
0.0
 20
0.0
  9
$LIMMAX
 10
12.0
 20
9.0
  9
$ORTHOMODE
 70
     0
  9
$REGENMODE
 70
     1
  9
$FILLMODE
 70
     1
  9
$QTEXTMODE
 70
     0
  9
$MIRRTEXT
 70
     0
  9
$LTSCALE
 40
1.0
  9
$ATTMODE
 70
     1
  9
$TEXTSIZE
 40
0.2
  9
$TRACEWID
 40
0.05
  9
$TEXTSTYLE
  7
Standard
  9
$CLAYER
  8
0
  9
$CELTYPE
  6
ByLayer
  9
$CECOLOR
 62
   256
  9
$CELTSCALE
 40
1.0
  9
$DISPSILH
 70
     0
  9
$DIMSCALE
 40
1.0
  9
$DIMASZ
 40
0.18
  9
$DIMEXO
 40
0.0625
  9
$DIMDLI
 40
0.38
  9
$DIMRND
 40
0.0
  9
$DIMDLE
 40
0.0
  9
$DIMEXE
 40
0.18
  9
$DIMTP
 40
0.0
  9
$DIMTM
 40
0.0
  9
$DIMTXT
 40
0.18
  9
$DIMCEN
 40
0.09
  9
$DIMTSZ
 40
0.0
  9
$DIMTOL
 70
     0
  9
$DIMLIM
 70
     0
  9
$DIMTIH
 70
     1
  9
$DIMTOH
 70
     1
  9
$DIMSE1
 70
     0
  9
$DIMSE2
 70
     0
  9
$DIMTAD
 70
     0
  9
$DIMZIN
 70
     0
  9
$DIMBLK
  1

  9
$DIMASO
 70
     1
  9
$DIMSHO
 70
     1
  9
$DIMPOST
  1

  9
$DIMAPOST
  1

  9
$DIMALT
 70
     0
  9
$DIMALTD
 70
     2
  9
$DIMALTF
 40
25.4
  9
$DIMLFAC
 40
1.0
  9
$DIMTOFL
 70
     0
  9
$DIMTVP
 40
0.0
  9
$DIMTIX
 70
     0
  9
$DIMSOXD
 70
     0
  9
$DIMSAH
 70
     0
  9
$DIMBLK1
  1

  9
$DIMBLK2
  1

  9
$DIMSTYLE
  2
Standard
  9
$DIMCLRD
 70
     0
  9
$DIMCLRE
 70
     0
  9
$DIMCLRT
 70
     0
  9
$DIMTFAC
 40
1.0
  9
$DIMGAP
 40
0.09
  9
$DIMJUST
 70
     0
  9
$DIMSD1
 70
     0
  9
$DIMSD2
 70
     0
  9
$DIMTOLJ
 70
     1
  9
$DIMTZIN
 70
     0
  9
$DIMALTZ
 70
     0
  9
$DIMALTTZ
 70
     0
  9
$DIMUPT
 70
     0
  9
$DIMDEC
 70
     4
  9
$DIMTDEC
 70
     4
  9
$DIMALTU
 70
     2
  9
$DIMALTTD
 70
     2
  9
$DIMTXSTY
  7
Standard
  9
$DIMAUNIT
 70
     0
  9
$DIMADEC
 70
     0
  9
$DIMALTRND
 40
0.0
  9
$DIMAZIN
 70
     0
  9
$DIMDSEP
 70
    46
  9
$DIMATFIT
 70
     3
  9
$DIMFRAC
 70
     0
  9
$DIMLDRBLK
  1

  9
$DIMLUNIT
 70
     2
  9
$DIMLWD
 70
    -2
  9
$DIMLWE
 70
    -2
  9
$DIMTMOVE
 70
     0
  9
$DIMFXL
 40
1.0
  9
$DIMFXLON
 70
     0
  9
$DIMJOGANG
 40
0.7853981633974483
  9
$DIMTFILL
 70
     0
  9
$DIMTFILLCLR
 70
     0
  9
$DIMARCSYM
 70
     0
  9
$DIMLTYPE
  6

  9
$DIMLTEX1
  6

  9
$DIMLTEX2
  6

  9
$DIMTXTDIRECTION
 70
     0
  9
$LUNITS
 70
     2
  9
$LUPREC
 70
     4
  9
$SKETCHINC
 40
0.1
  9
$FILLETRAD
 40
0.0
  9
$AUNITS
 70
     0
  9
$AUPREC
 70
     0
  9
$MENU
  1
.
  9
$ELEVATION
 40
0.0
  9
$PELEVATION
 40
0.0
  9
$THICKNESS
 40
0.0
  9
$LIMCHECK
 70
     0
  9
$CHAMFERA
 40
0.0
  9
$CHAMFERB
 40
0.0
  9
$CHAMFERC
 40
0.0
  9
$CHAMFERD
 40
0.0
  9
$SKPOLY
 70
     0
  9
$TDCREATE
 40
2459569.503472222
  9
$TDUCREATE
 40
2459569.128472222
  9
$TDUPDATE
 40
2459569.503472222
  9
$TDUUPDATE
 40
2459569.128472222
  9
$TDINDWG
 40
0.0000115741
  9
$TDUSRTIMER
 40
0.0000115741
  9
$USRTIMER
 70
     1
  9
$ANGBASE
 50
0.0
  9
$ANGDIR
 70
     0
  9
$PDMODE
 70
     0
  9
$PDSIZE
 40
0.0
  9
$PLINEWID
 40
0.0
  9
$SPLFRAME
 70
     0
  9
$SPLINETYPE
 70
     6
  9
$SPLINESEGS
 70
     8
  9
$HANDSEED
  5
163
  9
$SURFTAB1
 70
     6
  9
$SURFTAB2
 70
     6
  9
$SURFTYPE
 70
     6
  9
$SURFU
 70
     6
  9
$SURFV
 70
     6
  9
$UCSBASE
  2

  9
$UCSNAME
  2

  9
$UCSORG
 10
0.0
 20
0.0
 30
0.0
  9
$UCSXDIR
 10
1.0
 20
0.0
 30
0.0
  9
$UCSYDIR
 10
0.0
 20
1.0
 30
0.0
  9
$UCSORTHOREF
  2

  9
$UCSORTHOVIEW
 70
     0
  9
$UCSORGTOP
 10
0.0
 20
0.0
 30
0.0
  9
$UCSORGBOTTOM
 10
0.0
 20
0.0
 30
0.0
  9
$UCSORGLEFT
 10
0.0
 20
0.0
 30
0.0
  9
$UCSORGRIGHT
 10
0.0
 20
0.0
 30
0.0
  9
$UCSORGFRONT
 10
0.0
 20
0.0
 30
0.0
  9
$UCSORGBACK
 10
0.0
 20
0.0
 30
0.0
  9
$PUCSBASE
  2

  9
$PUCSNAME
  2

  9
$PUCSORG
 10
0.0
 20
0.0
 30
0.0
  9
$PUCSXDIR
 10
1.0
 20
0.0
 30
0.0
  9
$PUCSYDIR
 10
0.0
 20
1.0
 30
0.0
  9
$PUCSORTHOREF
  2

  9
$PUCSORTHOVIEW
 70
     0
  9
$PUCSORGTOP
 10
0.0
 20
0.0
 30
0.0
  9
$PUCSORGBOTTOM
 10
0.0
 20
0.0
 30
0.0
  9
$PUCSORGLEFT
 10
0.0
 20
0.0
 30
0.0
  9
$PUCSORGRIGHT
 10
0.0
 20
0.0
 30
0.0
  9
$PUCSORGFRONT
 10
0.0
 20
0.0
 30
0.0
  9
$PUCSORGBACK
 10
0.0
 20
0.0
 30
0.0
  9
$USERI1
 70
     0
  9
$USERI2
 70
     0
  9
$USERI3
 70
     0
  9
$USERI4
 70
     0
  9
$USERI5
 70
     0
  9
$USERR1
 40
0.0
  9
$USERR2
 40
0.0
  9
$USERR3
 40
0.0
  9
$USERR4
 40
0.0
  9
$USERR5
 40
0.0
  9
$WORLDVIEW
 70
     1
  9
$SHADEDGE
 70
     3
  9
$SHADEDIF
 70
    70
  9
$TILEMODE
 70
     1
  9
$MAXACTVP
 70
    64
  9
$PINSBASE
 10
0.0
 20
0.0
 30
0.0
  9
$PLIMCHECK
 70
     0
  9
$PEXTMIN
 10
1.000000000000000E+20
 20
1.000000000000000E+20
 30
1.000000000000000E+20
  9
$PEXTMAX
 10
-1.000000000000000E+20
 20
-1.000000000000000E+20
 30
-1.000000000000000E+20
  9
$PLIMMIN
 10
0.0
 20
0.0
  9
$PLIMMAX
 10
12.0
 20
9.0
  9
$UNITMODE
 70
     0
  9
$VISRETAIN
 70
     1
  9
$PLINEGEN
 70
     0
  9
$PSLTSCALE
 70
     1
  9
$TREEDEPTH
 70
  3020
  9
$CMLSTYLE
  2
Standard
  9
$CMLJUST
 70
     0
  9
$CMLSCALE
 40
1.0
  9
$PROXYGRAPHICS
 70
     1
  9
$MEASUREMENT
 70
     0
  9
$CELWEIGHT
370
    -1
  9
$ENDCAPS
280
     0
  9
$JOINSTYLE
280
     0
  9
$LWDISPLAY
290
     1
  9
$INSUNITS
 70
     4
  9
$HYPERLINKBASE
  1

  9
$STYLESHEET
  1

  9
$XEDIT
290
     1
  9
$CEPSNTYPE
380
     0
  9
$PSTYLEMODE
290
     1
  9
$FINGERPRINTGUID
  2
{1EC4A608-3D18-754E-8E75-BCC8D94868EB}
  9
$VERSIONGUID
  2
{A6A7F6F6-AEF1-334F-8FE3-79E2F6FA9AD5}
  9
$EXTNAMES
290
     1
  9
$PSVPSCALE
 40
0.0
  9
$OLESTARTUP
290
     0
  9
$SORTENTS
280
   127
  9
$INDEXCTL
280
     0
  9
$HIDETEXT
280
     1
  9
$XCLIPFRAME
280
     2
  9
$HALOGAP
280
     0
  9
$OBSCOLOR
 70
   257
  9
$OBSLTYPE
280
     0
  9
$INTERSECTIONDISPLAY
280
     0
  9
$INTERSECTIONCOLOR
 70
   257
  9
$DIMASSOC
280
     2
  9
$PROJECTNAME
  1

  9
$CAMERADISPLAY
290
     0
  9
$LENSLENGTH
 40
50.0
  9
$CAMERAHEIGHT
 40
0.0
  9
$STEPSPERSEC
 40
2.0
  9
$STEPSIZE
 40
6.0
  9
$3DDWFPREC
 40
2.0
  9
$PSOLWIDTH
 40
0.25
  9
$PSOLHEIGHT
 40
4.0
  9
$LOFTANG1
 40
1.570796326794896
  9
$LOFTANG2
 40
1.570796326794896
  9
$LOFTMAG1
 40
0.0
  9
$LOFTMAG2
 40
0.0
  9
$LOFTPARAM
 70
     7
  9
$LOFTNORMALS
280
     1
  9
$LATITUDE
 40
37.795
  9
$LONGITUDE
 40
-122.394
  9
$NORTHDIRECTION
 40
0.0
  9
$TIMEZONE
 70
 -8000
  9
$LIGHTGLYPHDISPLAY
280
     1
  9
$TILEMODELIGHTSYNCH
280
     1
  9
$CMATERIAL
347
11
  9
$SOLIDHIST
280
     0
  9
$SHOWHIST
280
     1
  9
$DWFFRAME
280
     2
  9
$DGNFRAME
280
     0
  9
$REALWORLDSCALE
290
     1
  9
$INTERFERECOLOR
 62
     1
  9
$INTERFEREOBJVS
345
33
  9
$INTERFEREVPVS
346
30
  9
$CSHADOW
280
     0
  9
$SHADOWPLANELOCATION
 40
0.0
  0
ENDSEC
  0
SECTION
  2
CLASSES
  0
CLASS
  1
ACDBDICTIONARYWDFLT
  2
AcDbDictionaryWithDefault
  3
ObjectDBX Classes
 90
        0
 91
        1
280
     0
281
     0
  0
CLASS
  1
MATERIAL
  2
AcDbMaterial
  3
ObjectDBX Classes
 90
     1153
 91
        3
280
     0
281
     0
  0
CLASS
  1
VISUALSTYLE
  2
AcDbVisualStyle
  3
ObjectDBX Classes
 90
     4095
 91
       24
280
     0
281
     0
  0
CLASS
  1
SCALE
  2
AcDbScale
  3
ObjectDBX Classes
 90
     1153
 91
       17
280
     0
281
     0
  0
CLASS
  1
TABLESTYLE
  2
AcDbTableStyle
  3
ObjectDBX Classes
 90
     4095
 91
        1
280
     0
281
     0
  0
CLASS
  1
MLEADERSTYLE
  2
AcDbMLeaderStyle
  3
ACDB_MLEADERSTYLE_CLASS
 90
     4095
 91
        1
280
     0
281
     0
  0
CLASS
  1
ACDBSECTIONVIEWSTYLE
  2
AcDbSectionViewStyle
  3
ObjectDBX Classes
 90
     1025
 91
        1
280
     0
281
     0
  0
CLASS
  1
ACDBDETAILVIEWSTYLE
  2
AcDbDetailViewStyle
  3
ObjectDBX Classes
 90
     1025
 91
        1
280
     0
281
     0
  0
CLASS
  1
DICTIONARYVAR
  2
AcDbDictionaryVar
  3
ObjectDBX Classes
 90
        0
 91
        5
280
     0
281
     0
  0
CLASS
  1
CELLSTYLEMAP
  2
AcDbCellStyleMap
  3
ObjectDBX Classes
 90
     1152
 91
        1
280
     0
281
     0
  0
ENDSEC
  0
SECTION
  2
TABLES
  0
TABLE
  2
VPORT
  5
8
330
0
100
AcDbSymbolTable
 70
     1
  0
VPORT
  5
57
330
8
100
AcDbSymbolTableRecord
100
AcDbViewportTableRecord
  2
*Active
 70
     0
 10
0.0
 20
0.0
 11
1.0
 21
1.0
 12
0.0
 22
0.0
 13
0.0
 23
0.0
 14
1.0
 24
1.0
 15
0.0
 25
0.0
 16
0.0
 26
0.0
 36
1.0
 17
104.9999999737534
 27
-148.4999999628701
 37
0.0
 40
302.939999924255
 41
0.7070707070707534
 42
50.0
 43
0.0
 44
0.0
 50
0.0
 51
0.0
 71
     0
 72
   100
 73
     1
 74
     0
 75
     1
 76
     0
 77
     0
 78
     0
281
     0
 65
     1
110
0.0
120
0.0
130
0.0
111
1.0
121
0.0
131
0.0
112
0.0
122
1.0
132
0.0
 79
     0
146
0.0
 60
     3
 61
     5
292
     1
282
     1
141
0.0
142
0.0
 63
   250
421
  3355443
  0
ENDTAB
  0
TABLE
  2
LTYPE
  5
5
330
0
100
AcDbSymbolTable
 70
     3
  0
LTYPE
  5
5B
330
5
100
AcDbSymbolTableRecord
100
AcDbLinetypeTableRecord
  2
ByBlock
 70
     0
  3

 72
    65
 73
     0
 40
0.0
  0
LTYPE
  5
5C
330
5
100
AcDbSymbolTableRecord
100
AcDbLinetypeTableRecord
  2
ByLayer
 70
     0
  3

 72
    65
 73
     0
 40
0.0
  0
LTYPE
  5
5D
330
5
100
AcDbSymbolTableRecord
100
AcDbLinetypeTableRecord
  2
Continuous
 70
     0
  3
Solid line
 72
    65
 73
     0
 40
0.0
  0
LTYPE
  5
86
330
5
100
AcDbSymbolTableRecord
100
AcDbLinetypeTableRecord
  2
AI-Linetype-0
 70
     0
  3
Adobe Illustrator Linetype No. 0
 72
    65
 73
     2
 40
1.411111110758333
 49
0.7055555553791667
 74
     0
 49
-0.7055555553791667
 74
     0
  0
LTYPE
  5
88
330
5
100
AcDbSymbolTableRecord
100
AcDbLinetypeTableRecord
  2
AI-Linetype-1
 70
     0
  3
Adobe Illustrator Linetype No. 1
 72
    65
 73
     2
 40
1.411111110758333
 49
0.7055555553791667
 74
     0
 49
-0.7055555553791667
 74
     0
  0
ENDTAB
  0
TABLE
  2
LAYER
  5
2
330
0
100
AcDbSymbolTable
 70
     2
  0
LAYER
  5
54
330
2
100
AcDbSymbolTableRecord
100
AcDbLayerTableRecord
  2
0
 70
     0
 62
     7
  6
Continuous
370
    -3
390
F
347
21
  0
LAYER
  5
78
330
2
100
AcDbSymbolTableRecord
100
AcDbLayerTableRecord
  2
レイヤー 1
 70
     0
 62
     7
  6
Continuous
370
     0
390
F
347
21
  0
ENDTAB
  0
TABLE
  2
STYLE
  5
3
330
0
100
AcDbSymbolTable
 70
     2
  0
STYLE
  5
55
330
3
100
AcDbSymbolTableRecord
100
AcDbTextStyleTableRecord
  2
Standard
 70
     0
 40
0.0
 41
1.0
 50
0.0
 71
     0
 42
0.2
  3
txt
  4

  0
STYLE
  5
5A
330
3
100
AcDbSymbolTableRecord
100
AcDbTextStyleTableRecord
  2
Annotative
 70
     0
 40
0.0
 41
1.0
 50
0.0
 71
     0
 42
0.2
  3
txt
  4

1001
AcadAnnotative
1000
AnnotativeData
1002
{
1070
     1
1070
     1
1002
}
  0
ENDTAB
  0
TABLE
  2
VIEW
  5
6
330
0
100
AcDbSymbolTable
 70
     0
  0
ENDTAB
  0
TABLE
  2
UCS
  5
7
330
0
100
AcDbSymbolTable
 70
     0
  0
ENDTAB
  0
TABLE
  2
APPID
  5
9
330
0
100
AcDbSymbolTable
 70
     2
  0
APPID
  5
56
330
9
100
AcDbSymbolTableRecord
100
AcDbRegAppTableRecord
  2
ACAD
 70
     0
  0
APPID
  5
5E
330
9
100
AcDbSymbolTableRecord
100
AcDbRegAppTableRecord
  2
AcadAnnotative
 70
     0
  0
ENDTAB
  0
TABLE
  2
DIMSTYLE
  5
A
330
0
100
AcDbSymbolTable
 70
     2
100
AcDbDimStyleTable
 71
     0
  0
DIMSTYLE
105
58
330
A
100
AcDbSymbolTableRecord
100
AcDbDimStyleTableRecord
  2
Standard
 70
     0
340
55
  0
DIMSTYLE
105
59
330
A
100
AcDbSymbolTableRecord
100
AcDbDimStyleTableRecord
  2
Annotative
 70
     0
340
55
1001
AcadAnnotative
1000
AnnotativeData
1002
{
1070
     1
1070
     1
1002
}
  0
ENDTAB
  0
TABLE
  2
BLOCK_RECORD
  5
1
330
0
100
AcDbSymbolTable
 70
    20
  0
BLOCK_RECORD
  5
70
330
1
100
AcDbSymbolTableRecord
100
AcDbBlockTableRecord
  2
*Model_Space
340
73
 70
     0
280
     1
281
     0
  0
BLOCK_RECORD
  5
6C
330
1
100
AcDbSymbolTableRecord
100
AcDbBlockTableRecord
  2
*Paper_Space
340
6F
 70
     0
280
     1
281
     0
  0
BLOCK_RECORD
  5
74
330
1
100
AcDbSymbolTableRecord
100
AcDbBlockTableRecord
  2
*Paper_Space0
340
77
 70
     0
280
     1
281
     0
  0
BLOCK_RECORD
  5
79
330
1
100
AcDbSymbolTableRecord
100
AcDbBlockTableRecord
  2
Block_0
340
0
102
{BLKREFS
331
7A
102
}
 70
     0
280
     1
281
     0
  0
BLOCK_RECORD
  5
91
330
1
100
AcDbSymbolTableRecord
100
AcDbBlockTableRecord
  2
Block_1
340
0
102
{BLKREFS
331
92
102
}
 70
     0
280
     1
281
     0
  0
BLOCK_RECORD
  5
97
330
1
100
AcDbSymbolTableRecord
100
AcDbBlockTableRecord
  2
Block_2
340
0
102
{BLKREFS
331
98
102
}
 70
     0
280
     1
281
     0
  0
BLOCK_RECORD
  5
9B
330
1
100
AcDbSymbolTableRecord
100
AcDbBlockTableRecord
  2
Block_3
340
0
102
{BLKREFS
331
9C
102
}
 70
     0
280
     1
281
     0
  0
BLOCK_RECORD
  5
A3
330
1
100
AcDbSymbolTableRecord
100
AcDbBlockTableRecord
  2
Block_4
340
0
102
{BLKREFS
331
A4
102
}
 70
     0
280
     1
281
     0
  0
BLOCK_RECORD
  5
AB
330
1
100
AcDbSymbolTableRecord
100
AcDbBlockTableRecord
  2
Block_5
340
0
102
{BLKREFS
331
AC
102
}
 70
     0
280
     1
281
     0
  0
BLOCK_RECORD
  5
AF
330
1
100
AcDbSymbolTableRecord
100
AcDbBlockTableRecord
  2
Block_6
340
0
102
{BLKREFS
331
B0
102
}
 70
     0
280
     1
281
     0
  0
BLOCK_RECORD
  5
B9
330
1
100
AcDbSymbolTableRecord
100
AcDbBlockTableRecord
  2
Block_7
340
0
102
{BLKREFS
331
BA
102
}
 70
     0
280
     1
281
     0
  0
BLOCK_RECORD
  5
C1
330
1
100
AcDbSymbolTableRecord
100
AcDbBlockTableRecord
  2
Block_8
340
0
102
{BLKREFS
331
C2
102
}
 70
     0
280
     1
281
     0
  0
BLOCK_RECORD
  5
C5
330
1
100
AcDbSymbolTableRecord
100
AcDbBlockTableRecord
  2
Block_9
340
0
102
{BLKREFS
331
C6
102
}
 70
     0
280
     1
281
     0
  0
BLOCK_RECORD
  5
D4
330
1
100
AcDbSymbolTableRecord
100
AcDbBlockTableRecord
  2
Block_10
340
0
102
{BLKREFS
331
D5
102
}
 70
     0
280
     1
281
     0
  0
BLOCK_RECORD
  5
D8
330
1
100
AcDbSymbolTableRecord
100
AcDbBlockTableRecord
  2
Block_11
340
0
102
{BLKREFS
331
D9
102
}
 70
     0
280
     1
281
     0
  0
BLOCK_RECORD
  5
E1
330
1
100
AcDbSymbolTableRecord
100
AcDbBlockTableRecord
  2
Block_12
340
0
102
{BLKREFS
331
E2
102
}
 70
     0
280
     1
281
     0
  0
BLOCK_RECORD
  5
E7
330
1
100
AcDbSymbolTableRecord
100
AcDbBlockTableRecord
  2
Block_13
340
0
102
{BLKREFS
331
E8
102
}
 70
     0
280
     1
281
     0
  0
BLOCK_RECORD
  5
EB
330
1
100
AcDbSymbolTableRecord
100
AcDbBlockTableRecord
  2
Block_14
340
0
102
{BLKREFS
331
EC
102
}
 70
     0
280
     1
281
     0
  0
BLOCK_RECORD
  5
F6
330
1
100
AcDbSymbolTableRecord
100
AcDbBlockTableRecord
  2
Block_15
340
0
102
{BLKREFS
331
F7
102
}
 70
     0
280
     1
281
     0
  0
BLOCK_RECORD
  5
FA
330
1
100
AcDbSymbolTableRecord
100
AcDbBlockTableRecord
  2
Block_16
340
0
102
{BLKREFS
331
FB
102
}
 70
     0
280
     1
281
     0
  0
BLOCK_RECORD
  5
10B
330
1
100
AcDbSymbolTableRecord
100
AcDbBlockTableRecord
  2
Block_17
340
0
102
{BLKREFS
331
10C
102
}
 70
     0
280
     1
281
     0
  0
BLOCK_RECORD
  5
10F
330
1
100
AcDbSymbolTableRecord
100
AcDbBlockTableRecord
  2
Block_18
340
0
102
{BLKREFS
331
110
102
}
 70
     0
280
     1
281
     0
  0
ENDTAB
  0
ENDSEC
  0
SECTION
  2
BLOCKS
  0
BLOCK
  5
71
330
70
100
AcDbEntity
  8
0
100
AcDbBlockBegin
  2
*Model_Space
 70
     0
 10
0.0
 20
0.0
 30
0.0
  3
*Model_Space
  1

  0
ENDBLK
  5
72
330
70
100
AcDbEntity
  8
0
100
AcDbBlockEnd
  0
BLOCK
  5
6D
330
6C
100
AcDbEntity
 67
     1
  8
0
100
AcDbBlockBegin
  2
*Paper_Space
 70
     0
 10
0.0
 20
0.0
 30
0.0
  3
*Paper_Space
  1

  0
ENDBLK
  5
6E
330
6C
100
AcDbEntity
 67
     1
  8
0
100
AcDbBlockEnd
  0
BLOCK
  5
75
330
74
100
AcDbEntity
 67
     1
  8
0
100
AcDbBlockBegin
  2
*Paper_Space0
 70
     0
 10
0.0
 20
0.0
 30
0.0
  3
*Paper_Space0
  1

  0
ENDBLK
  5
76
330
74
100
AcDbEntity
 67
     1
  8
0
100
AcDbBlockEnd
  0
BLOCK
  5
7B
330
79
100
AcDbEntity
  8
0
100
AcDbBlockBegin
  2
Block_0
 70
     0
 10
0.0
 20
0.0
 30
0.0
  3
Block_0
  1

  0
LINE
  5
7D
330
79
100
AcDbEntity
  8
レイヤー 1
 62
    18
420
        0
370
    25
100
AcDbLine
 10
93.27183053301387
 20
-143.6214160685216
 30
0.0
 11
104.3714185831731
 21
-143.6214160685216
 31
0.0
  0
LINE
  5
7E
330
79
100
AcDbEntity
  8
レイヤー 1
 62
    18
420
        0
370
    25
100
AcDbLine
 10
103.2717397223393
 20
-144.7210949293554
 30
0.0
 11
103.2717397223393
 21
-154.2216119091992
 31
0.0
  0
LINE
  5
7F
330
79
100
AcDbEntity
  8
レイヤー 1
 62
    18
420
        0
370
    25
100
AcDbLine
 10
93.27147775524508
 20
-144.7210949293554
 30
0.0
 11
103.2717397223393
 21
-144.7210949293554
 31
0.0
  0
LINE
  5
80
330
79
100
AcDbEntity
  8
レイヤー 1
 62
    18
420
        0
370
    25
100
AcDbLine
 10
93.24152692267587
 20
-143.6214160685216
 30
0.0
 11
93.24152692267587
 21
-144.7210949293554
 31
0.0
  0
LINE
  5
81
330
79
100
AcDbEntity
  8
レイヤー 1
 62
    18
420
        0
370
    25
100
AcDbLine
 10
104.3714185831731
 20
-143.6214160685216
 30
0.0
 11
104.3714185831731
 21
-153.1219330483655
 31
0.0
  0
LINE
  5
82
330
79
100
AcDbEntity
  8
レイヤー 1
 62
    18
420
        0
370
    25
100
AcDbLine
 10
120.2719269536543
 20
-153.1219330483655
 30
0.0
 11
120.2719269536543
 21
-153.5215949826137
 31
0.0
  0
LINE
  5
83
330
79
100
AcDbEntity
  8
レイヤー 1
 62
    18
420
        0
370
    25
100
AcDbLine
 10
104.3714185831731
 20
-153.1219330483655
 30
0.0
 11
120.2719269536543
 21
-153.1219330483655
 31
0.0
  0
LINE
  5
84
330
79
100
AcDbEntity
  8
レイヤー 1
 62
    18
420
        0
370
    25
100
AcDbLine
 10
120.2719269536543
 20
-153.5215949826137
 30
0.0
 11
103.2717397223393
 21
-154.2216119091992
 31
0.0
  0
LINE
  5
85
330
79
100
AcDbEntity
  8
レイヤー 1
  6
AI-Linetype-0
 62
   154
420
    23468
370
    25
100
AcDbLine
 10
93.27183053301387
 20
-145.221651305474
 30
0.0
 11
102.7715008462126
 21
-145.221651305474
 31
0.0
  0
LINE
  5
87
330
79
100
AcDbEntity
  8
レイヤー 1
  6
AI-Linetype-1
 62
   154
420
    23468
370
    25
100
AcDbLine
 10
102.7715008462126
 20
-145.221651305474
 30
0.0
 11
102.7715008462126
 21
-153.1219330483655
 31
0.0
  0
SPLINE
  5
89
330
79
100
AcDbEntity
  8
レイヤー 1
 62
    18
420
        0
370
     9
100
AcDbSpline
210
0.0
220
0.0
230
1.0
 70
     9
 71
     3
 72
    17
 73
    13
 74
     0
 42
0.0000000001
 43
0.0000000001
 40
0.0
 40
0.0
 40
0.0
 40
0.0
 40
1.0
 40
1.0
 40
1.0
 40
2.0
 40
2.0
 40
2.0
 40
3.0
 40
3.0
 40
3.0
 40
4.0
 40
4.0
 40
4.0
 40
4.0
 10
124.3715897395929
 20
-143.6214160685216
 30
0.0
 10
124.3715897395929
 20
-143.5662769032617
 30
0.0
 10
124.3267869629581
 20
-143.5215094044038
 30
0.0
 10
124.271683075475
 20
-143.5215094044038
 30
0.0
 10
124.2165439102151
 20
-143.5215094044038
 30
0.0
 10
124.1717411335803
 20
-143.5662769032617
 30
0.0
 10
124.1717411335803
 20
-143.6214160685216
 30
0.0
 10
124.1717411335803
 20
-143.6765199560047
 30
0.0
 10
124.2165439102151
 20
-143.7213227326395
 30
0.0
 10
124.271683075475
 20
-143.7213227326395
 30
0.0
 10
124.3267869629581
 20
-143.7213227326395
 30
0.0
 10
124.3715897395929
 20
-143.6765199560047
 30
0.0
 10
124.3715897395929
 20
-143.6214160685216
 30
0.0
  0
SPLINE
  5
8A
330
79
100
AcDbEntity
  8
レイヤー 1
 62
    18
420
        0
370
     9
100
AcDbSpline
210
0.0
220
0.0
230
1.0
 70
     9
 71
     3
 72
    17
 73
    13
 74
     0
 42
0.0000000001
 43
0.0000000001
 40
0.0
 40
0.0
 40
0.0
 40
0.0
 40
1.0
 40
1.0
 40
1.0
 40
2.0
 40
2.0
 40
2.0
 40
3.0
 40
3.0
 40
3.0
 40
4.0
 40
4.0
 40
4.0
 40
4.0
 10
124.3715897395929
 20
-153.1219330483655
 30
0.0
 10
124.3715897395929
 20
-153.0661210323858
 30
0.0
 10
124.3267869629581
 20
-153.021356106487
 30
0.0
 10
124.271683075475
 20
-153.021356106487
 30
0.0
 10
124.2165439102151
 20
-153.021356106487
 30
0.0
 10
124.1717411335803
 20
-153.0661210323858
 30
0.0
 10
124.1717411335803
 20
-153.1219330483655
 30
0.0
 10
124.1717411335803
 20
-153.1770722136255
 30
0.0
 10
124.2165439102151
 20
-153.2218397124833
 30
0.0
 10
124.271683075475
 20
-153.2218397124833
 30
0.0
 10
124.3267869629581
 20
-153.2218397124833
 30
0.0
 10
124.3715897395929
 20
-153.1770722136255
 30
0.0
 10
124.3715897395929
 20
-153.1219330483655
 30
0.0
  0
SPLINE
  5
8B
330
79
100
AcDbEntity
  8
レイヤー 1
 62
    18
420
        0
370
     9
100
AcDbSpline
210
0.0
220
0.0
230
1.0
 70
     9
 71
     3
 72
    17
 73
    13
 74
     0
 42
0.0000000001
 43
0.0000000001
 40
0.0
 40
0.0
 40
0.0
 40
0.0
 40
1.0
 40
1.0
 40
1.0
 40
2.0
 40
2.0
 40
2.0
 40
3.0
 40
3.0
 40
3.0
 40
4.0
 40
4.0
 40
4.0
 40
4.0
 10
124.3715897395929
 20
-153.5215949826137
 30
0.0
 10
124.3715897395929
 20
-153.4664558173538
 30
0.0
 10
124.3267869629581
 20
-153.4216883184959
 30
0.0
 10
124.271683075475
 20
-153.4216883184959
 30
0.0
 10
124.2165439102151
 20
-153.4216883184959
 30
0.0
 10
124.1717411335803
 20
-153.4664558173538
 30
0.0
 10
124.1717411335803
 20
-153.5215949826137
 30
0.0
 10
124.1717411335803
 20
-153.5766988700968
 30
0.0
 10
124.2165439102151
 20
-153.6215016467316
 30
0.0
 10
124.271683075475
 20
-153.6215016467316
 30
0.0
 10
124.3267869629581
 20
-153.6215016467316
 30
0.0
 10
124.3715897395929
 20
-153.5766988700968
 30
0.0
 10
124.3715897395929
 20
-153.5215949826137
 30
0.0
  0
SPLINE
  5
8C
330
79
100
AcDbEntity
  8
レイヤー 1
 62
    18
420
        0
370
     9
100
AcDbSpline
210
0.0
220
0.0
230
1.0
 70
     9
 71
     3
 72
    17
 73
    13
 74
     0
 42
0.0000000001
 43
0.0000000001
 40
0.0
 40
0.0
 40
0.0
 40
0.0
 40
1.0
 40
1.0
 40
1.0
 40
2.0
 40
2.0
 40
2.0
 40
3.0
 40
3.0
 40
3.0
 40
4.0
 40
4.0
 40
4.0
 40
4.0
 10
120.3718306749686
 20
-158.2213709738236
 30
0.0
 10
120.3718306749686
 20
-158.1662670863405
 30
0.0
 10
120.3270278983338
 20
-158.1214643097057
 30
0.0
 10
120.2719269536543
 20
-158.1214643097057
 30
0.0
 10
120.2161145678301
 20
-158.1214643097057
 30
0.0
 10
120.1713117911953
 20
-158.1662670863405
 30
0.0
 10
120.1713117911953
 20
-158.2213709738236
 30
0.0
 10
120.1713117911953
 20
-158.2765101390835
 30
0.0
 10
120.2161145678301
 20
-158.3212776379414
 30
0.0
 10
120.2719269536543
 20
-158.3212776379414
 30
0.0
 10
120.3270278983338
 20
-158.3212776379414
 30
0.0
 10
120.3718306749686
 20
-158.2765101390835
 30
0.0
 10
120.3718306749686
 20
-158.2213709738236
 30
0.0
  0
CIRCLE
  5
8D
330
79
100
AcDbEntity
  8
レイヤー 1
 62
    18
420
        0
370
     9
100
AcDbCircle
 10
93.23394220064713
 20
-158.2213709738236
 30
0.0
 40
0.0999066641178353
  0
SPLINE
  5
8E
330
79
100
AcDbEntity
  8
レイヤー 1
 62
    18
420
        0
370
     9
100
AcDbSpline
210
0.0
220
0.0
230
1.0
 70
     9
 71
     3
 72
    17
 73
    13
 74
     0
 42
0.0000000001
 43
0.0000000001
 40
0.0
 40
0.0
 40
0.0
 40
0.0
 40
1.0
 40
1.0
 40
1.0
 40
2.0
 40
2.0
 40
2.0
 40
3.0
 40
3.0
 40
3.0
 40
4.0
 40
4.0
 40
4.0
 40
4.0
 10
89.25312730220619
 20
-143.6214160685216
 30
0.0
 10
89.25312730220619
 20
-143.5662769032617
 30
0.0
 10
89.2083598033483
 20
-143.5215094044038
 30
0.0
 10
89.15322063808835
 20
-143.5215094044038
 30
0.0
 10
89.0977639728365
 20
-143.5215094044038
 30
0.0
 10
89.05296119620173
 20
-143.5662769032617
 30
0.0
 10
89.05296119620173
 20
-143.6214160685216
 30
0.0
 10
89.05296119620173
 20
-143.6765199560047
 30
0.0
 10
89.0977639728365
 20
-143.7213227326395
 30
0.0
 10
89.15322063808835
 20
-143.7213227326395
 30
0.0
 10
89.2083598033483
 20
-143.7213227326395
 30
0.0
 10
89.25312730220619
 20
-143.6765199560047
 30
0.0
 10
89.25312730220619
 20
-143.6214160685216
 30
0.0
  0
SPLINE
  5
8F
330
79
100
AcDbEntity
  8
レイヤー 1
 62
    18
420
        0
370
     9
100
AcDbSpline
210
0.0
220
0.0
230
1.0
 70
     9
 71
     3
 72
    17
 73
    13
 74
     0
 42
0.0000000001
 43
0.0000000001
 40
0.0
 40
0.0
 40
0.0
 40
0.0
 40
1.0
 40
1.0
 40
1.0
 40
2.0
 40
2.0
 40
2.0
 40
3.0
 40
3.0
 40
3.0
 40
4.0
 40
4.0
 40
4.0
 40
4.0
 10
89.25312730220619
 20
-144.7210949293554
 30
0.0
 10
89.25312730220619
 20
-144.6659557640955
 30
0.0
 10
89.2083598033483
 20
-144.6211882652375
 30
0.0
 10
89.15322063808835
 20
-144.6211882652375
 30
0.0
 10
89.0977639728365
 20
-144.6211882652375
 30
0.0
 10
89.05296119620173
 20
-144.6659557640955
 30
0.0
 10
89.05296119620173
 20
-144.7210949293554
 30
0.0
 10
89.05296119620173
 20
-144.7761960344577
 30
0.0
 10
89.0977639728365
 20
-144.8209988122245
 30
0.0
 10
89.15322063808835
 20
-144.8209988122245
 30
0.0
 10
89.2083598033483
 20
-144.8209988122245
 30
0.0
 10
89.25312730220619
 20
-144.7761960344577
 30
0.0
 10
89.25312730220619
 20
-144.7210949293554
 30
0.0
  0
CIRCLE
  5
90
330
79
100
AcDbEntity
  8
レイヤー 1
 62
    18
420
        0
370
     9
100
AcDbCircle
 10
103.2717397223394
 20
-158.2213709738236
 30
0.0
 40
0.099906664117715
  0
INSERT
  5
92
330
79
100
AcDbEntity
  8
レイヤー 1
100
AcDbBlockReference
  2
Block_1
 10
0.0
 20
0.0
 30
0.0
  0
INSERT
  5
A4
330
79
100
AcDbEntity
  8
レイヤー 1
100
AcDbBlockReference
  2
Block_4
 10
0.0
 20
0.0
 30
0.0
  0
INSERT
  5
BA
330
79
100
AcDbEntity
  8
レイヤー 1
100
AcDbBlockReference
  2
Block_7
 10
0.0
 20
0.0
 30
0.0
  0
LINE
  5
D1
330
79
100
AcDbEntity
  8
レイヤー 1
 62
    18
420
        0
370
     9
100
AcDbLine
 10
93.27147775524508
 20
-158.2213709738236
 30
0.0
 11
103.2717397223393
 21
-158.2213709738236
 31
0.0
  0
LINE
  5
D2
330
79
100
AcDbEntity
  8
レイヤー 1
 62
    18
420
        0
370
     9
100
AcDbLine
 10
93.23394220064713
 20
-151.2618356968688
 30
0.0
 11
93.23394220064713
 21
-159.221848726077
 31
0.0
  0
LINE
  5
D3
330
79
100
AcDbEntity
  8
レイヤー 1
 62
    18
420
        0
370
     9
100
AcDbLine
 10
103.2717397223393
 20
-156.7613296221834
 30
0.0
 11
103.2717397223393
 21
-159.221848726077
 31
0.0
  0
INSERT
  5
D5
330
79
100
AcDbEntity
  8
レイヤー 1
100
AcDbBlockReference
  2
Block_10
 10
0.0
 20
0.0
 30
0.0
  0
INSERT
  5
E2
330
79
100
AcDbEntity
  8
レイヤー 1
100
AcDbBlockReference
  2
Block_12
 10
0.0
 20
0.0
 30
0.0
  0
ENDBLK
  5
7C
330
79
100
AcDbEntity
  8
0
100
AcDbBlockEnd
  0
BLOCK
  5
93
330
91
100
AcDbEntity
  8
0
100
AcDbBlockBegin
  2
Block_1
 70
     0
 10
0.0
 20
0.0
 30
0.0
  3
Block_1
  1

  0
LINE
  5
95
330
91
100
AcDbEntity
  8
レイヤー 1
 62
    18
420
        0
370
     9
100
AcDbLine
 10
103.2717397223393
 20
-158.2213709738236
 30
0.0
 11
120.2719269536543
 21
-158.2213709738236
 31
0.0
  0
LINE
  5
96
330
91
100
AcDbEntity
  8
レイヤー 1
 62
    18
420
        0
370
     9
100
AcDbLine
 10
120.2719269536543
 20
-156.0613126955979
 30
0.0
 11
120.2719269536543
 21
-159.221848726077
 31
0.0
  0
INSERT
  5
98
330
91
100
AcDbEntity
  8
レイヤー 1
100
AcDbBlockReference
  2
Block_2
 10
0.0
 20
0.0
 30
0.0
  0
ENDBLK
  5
94
330
91
100
AcDbEntity
  8
0
100
AcDbBlockEnd
  0
BLOCK
  5
99
330
97
100
AcDbEntity
  8
0
100
AcDbBlockBegin
  2
Block_2
 70
     0
 10
0.0
 20
0.0
 30
0.0
  3
Block_2
  1

  0
INSERT
  5
9C
330
97
100
AcDbEntity
  8
レイヤー 1
100
AcDbBlockReference
  2
Block_3
 10
0.0
 20
0.0
 30
0.0
  0
ENDBLK
  5
9A
330
97
100
AcDbEntity
  8
0
100
AcDbBlockEnd
  0
BLOCK
  5
9D
330
9B
100
AcDbEntity
  8
0
100
AcDbBlockBegin
  2
Block_3
 70
     0
 10
0.0
 20
0.0
 30
0.0
  3
Block_3
  1

  0
SPLINE
  5
9F
330
9B
100
AcDbEntity
  8
レイヤー 1
100
AcDbSpline
210
0.0
220
0.0
230
1.0
 70
    11
 71
     3
 72
    26
 73
    22
 74
     0
 42
0.0000000001
 43
0.0000000001
 40
0.0
 40
0.0
 40
0.0
 40
0.0
 40
1.0
 40
1.0
 40
1.0
 40
2.0
 40
2.0
 40
2.0
 40
3.0
 40
3.0
 40
3.0
 40
4.0
 40
4.0
 40
4.0
 40
5.0
 40
5.0
 40
5.0
 40
6.0
 40
6.0
 40
6.0
 40
7.0
 40
7.0
 40
7.0
 40
7.0
 10
111.2297308749703
 20
-157.5755669093908
 30
0.0
 10
111.2297308749703
 20
-157.5755669093908
 30
0.0
 10
111.2297308749703
 20
-156.4714138063683
 30
0.0
 10
111.2297308749703
 20
-156.4714138063683
 30
0.0
 10
111.2297308749703
 20
-156.4714138063683
 30
0.0
 10
110.9482665738254
 20
-156.4714138063683
 30
0.0
 10
110.9482665738254
 20
-156.4714138063683
 30
0.0
 10
110.9482665738254
 20
-156.4714138063683
 30
0.0
 10
110.9482665738254
 20
-156.3232747005025
 30
0.0
 10
110.9482665738254
 20
-156.3232747005025
 30
0.0
 10
111.2314534227129
 20
-156.3084607899159
 30
0.0
 10
111.2710720207933
 20
-156.1455077734636
 30
0.0
 10
111.2962212178356
 20
-156.0311306033533
 30
0.0
 10
111.2962212178356
 20
-156.0311306033533
 30
0.0
 10
111.4209336744017
 20
-156.0311306033533
 30
0.0
 10
111.4209336744017
 20
-156.0311306033533
 30
0.0
 10
111.4209336744017
 20
-156.0311306033533
 30
0.0
 10
111.4209336744017
 20
-157.5755669093908
 30
0.0
 10
111.4209336744017
 20
-157.5755669093908
 30
0.0
 10
111.4209336744017
 20
-157.5755669093908
 30
0.0
 10
111.2297308749703
 20
-157.5755669093908
 30
0.0
 10
111.2297308749703
 20
-157.5755669093908
 30
0.0
  0
HATCH
  5
A0
330
9B
100
AcDbEntity
  8
レイヤー 1
 62
    18
420
        0
440
 33554687
100
AcDbHatch
 10
0.0
 20
0.0
 30
0.0
210
0.0
220
0.0
230
1.0
  2
SOLID
 70
     1
 71
     1
 91
        1
 92
        1
 93
        1
 72
     4
 94
        3
 73
     0
 74
     0
 95
       26
 96
       22
 40
0.0
 40
0.0
 40
0.0
 40
0.0
 40
1.0
 40
1.0
 40
1.0
 40
2.0
 40
2.0
 40
2.0
 40
3.0
 40
3.0
 40
3.0
 40
4.0
 40
4.0
 40
4.0
 40
5.0
 40
5.0
 40
5.0
 40
6.0
 40
6.0
 40
6.0
 40
7.0
 40
7.0
 40
7.0
 40
7.0
 10
111.2297308749703
 20
-157.5755669093908
 10
111.2297308749703
 20
-157.5755669093908
 10
111.2297308749703
 20
-156.4714138063683
 10
111.2297308749703
 20
-156.4714138063683
 10
111.2297308749703
 20
-156.4714138063683
 10
110.9482665738254
 20
-156.4714138063683
 10
110.9482665738254
 20
-156.4714138063683
 10
110.9482665738254
 20
-156.4714138063683
 10
110.9482665738254
 20
-156.3232747005025
 10
110.9482665738254
 20
-156.3232747005025
 10
111.2314534227129
 20
-156.3084607899159
 10
111.2710720207933
 20
-156.1455077734636
 10
111.2962212178356
 20
-156.0311306033533
 10
111.2962212178356
 20
-156.0311306033533
 10
111.4209336744017
 20
-156.0311306033533
 10
111.4209336744017
 20
-156.0311306033533
 10
111.4209336744017
 20
-156.0311306033533
 10
111.4209336744017
 20
-157.5755669093908
 10
111.4209336744017
 20
-157.5755669093908
 10
111.4209336744017
 20
-157.5755669093908
 10
111.2297308749703
 20
-157.5755669093908
 10
111.2297308749703
 20
-157.5755669093908
 97
        0
 97
        1
330
9F
 75
     2
 76
     1
 98
        1
 10
0.0
 20
0.0
450
        0
451
        0
460
0.0
461
0.0
452
        0
462
0.0
453
        0
470

  0
SPLINE
  5
A1
330
9B
100
AcDbEntity
  8
レイヤー 1
100
AcDbSpline
210
0.0
220
0.0
230
1.0
 70
     9
 71
     3
 72
    26
 73
    22
 74
     0
 42
0.0000000001
 43
0.0000000001
 40
0.0
 40
0.0
 40
0.0
 40
0.0
 40
1.0
 40
1.0
 40
1.0
 40
2.0
 40
2.0
 40
2.0
 40
3.0
 40
3.0
 40
3.0
 40
4.0
 40
4.0
 40
4.0
 40
5.0
 40
5.0
 40
5.0
 40
6.0
 40
6.0
 40
6.0
 40
7.0
 40
7.0
 40
7.0
 40
7.0
 10
112.1971136872285
 20
-157.5755669093908
 30
0.0
 10
112.1971136872285
 20
-157.5755669093908
 30
0.0
 10
111.9952310917928
 20
-157.5755669093908
 30
0.0
 10
111.9952310917928
 20
-157.5755669093908
 30
0.0
 10
112.0169351933499
 20
-157.2665418443639
 30
0.0
 10
112.1809217384478
 20
-156.7483994833823
 30
0.0
 10
112.5271538347154
 20
-156.2426594661476
 30
0.0
 10
112.5271538347154
 20
-156.2426594661476
 30
0.0
 10
111.8129855406231
 20
-156.2426594661476
 30
0.0
 10
111.8129855406231
 20
-156.2426594661476
 30
0.0
 10
111.8129855406231
 20
-156.2426594661476
 30
0.0
 10
111.8129855406231
 20
-156.0311306033533
 30
0.0
 10
111.8129855406231
 20
-156.0311306033533
 30
0.0
 10
111.8129855406231
 20
-156.0311306033533
 30
0.0
 10
112.7290364301511
 20
-156.0311306033533
 30
0.0
 10
112.7290364301511
 20
-156.0311306033533
 30
0.0
 10
112.7290364301511
 20
-156.0311306033533
 30
0.0
 10
112.7290364301511
 20
-156.2426594661476
 30
0.0
 10
112.7290364301511
 20
-156.2426594661476
 30
0.0
 10
112.4534287913311
 20
-156.5327365060057
 30
0.0
 10
112.2260524893046
 20
-157.1249484199201
 30
0.0
 10
112.1971136872285
 20
-157.5755669093908
 30
0.0
  0
HATCH
  5
A2
330
9B
100
AcDbEntity
  8
レイヤー 1
 62
    18
420
        0
440
 33554687
100
AcDbHatch
 10
0.0
 20
0.0
 30
0.0
210
0.0
220
0.0
230
1.0
  2
SOLID
 70
     1
 71
     1
 91
        1
 92
        1
 93
        1
 72
     4
 94
        3
 73
     0
 74
     0
 95
       26
 96
       22
 40
0.0
 40
0.0
 40
0.0
 40
0.0
 40
1.0
 40
1.0
 40
1.0
 40
2.0
 40
2.0
 40
2.0
 40
3.0
 40
3.0
 40
3.0
 40
4.0
 40
4.0
 40
4.0
 40
5.0
 40
5.0
 40
5.0
 40
6.0
 40
6.0
 40
6.0
 40
7.0
 40
7.0
 40
7.0
 40
7.0
 10
112.1971136872285
 20
-157.5755669093908
 10
112.1971136872285
 20
-157.5755669093908
 10
111.9952310917928
 20
-157.5755669093908
 10
111.9952310917928
 20
-157.5755669093908
 10
112.0169351933499
 20
-157.2665418443639
 10
112.1809217384478
 20
-156.7483994833823
 10
112.5271538347154
 20
-156.2426594661476
 10
112.5271538347154
 20
-156.2426594661476
 10
111.8129855406231
 20
-156.2426594661476
 10
111.8129855406231
 20
-156.2426594661476
 10
111.8129855406231
 20
-156.2426594661476
 10
111.8129855406231
 20
-156.0311306033533
 10
111.8129855406231
 20
-156.0311306033533
 10
111.8129855406231
 20
-156.0311306033533
 10
112.7290364301511
 20
-156.0311306033533
 10
112.7290364301511
 20
-156.0311306033533
 10
112.7290364301511
 20
-156.0311306033533
 10
112.7290364301511
 20
-156.2426594661476
 10
112.7290364301511
 20
-156.2426594661476
 10
112.4534287913311
 20
-156.5327365060057
 10
112.2260524893046
 20
-157.1249484199201
 10
112.1971136872285
 20
-157.5755669093908
 97
        0
 97
        1
330
A1
 75
     2
 76
     1
 98
        1
 10
0.0
 20
0.0
450
        0
451
        0
460
0.0
461
0.0
452
        0
462
0.0
453
        0
470

  0
ENDBLK
  5
9E
330
9B
100
AcDbEntity
  8
0
100
AcDbBlockEnd
  0
BLOCK
  5
A5
330
A3
100
AcDbEntity
  8
0
100
AcDbBlockBegin
  2
Block_4
 70
     0
 10
0.0
 20
0.0
 30
0.0
  3
Block_4
  1

  0
LINE
  5
A7
330
A3
100
AcDbEntity
  8
レイヤー 1
 62
    18
420
        0
370
     9
100
AcDbLine
 10
89.15322063808835
 20
-143.6214160685216
 30
0.0
 11
89.15322063808835
 21
-142.6209383162682
 31
0.0
  0
LINE
  5
A8
330
A3
100
AcDbEntity
  8
レイヤー 1
 62
    18
420
        0
370
     9
100
AcDbLine
 10
89.15322063808835
 20
-143.6214160685216
 30
0.0
 11
89.15322063808835
 21
-145.7211846260632
 31
0.0
  0
LINE
  5
A9
330
A3
100
AcDbEntity
  8
レイヤー 1
 62
    18
420
        0
370
     9
100
AcDbLine
 10
90.6129092119597
 20
-143.6214160685216
 30
0.0
 11
88.15313094138053
 21
-143.6214160685216
 31
0.0
  0
LINE
  5
AA
330
A3
100
AcDbEntity
  8
レイヤー 1
 62
    18
420
        0
370
     9
100
AcDbLine
 10
90.6129092119597
 20
-144.7210949293554
 30
0.0
 11
88.15313094138053
 21
-144.7210949293554
 31
0.0
  0
INSERT
  5
AC
330
A3
100
AcDbEntity
  8
レイヤー 1
100
AcDbBlockReference
  2
Block_5
 10
0.0
 20
0.0
 30
0.0
  0
ENDBLK
  5
A6
330
A3
100
AcDbEntity
  8
0
100
AcDbBlockEnd
  0
BLOCK
  5
AD
330
AB
100
AcDbEntity
  8
0
100
AcDbBlockBegin
  2
Block_5
 70
     0
 10
0.0
 20
0.0
 30
0.0
  3
Block_5
  1

  0
INSERT
  5
B0
330
AB
100
AcDbEntity
  8
レイヤー 1
100
AcDbBlockReference
  2
Block_6
 10
0.0
 20
0.0
 30
0.0
  0
ENDBLK
  5
AE
330
AB
100
AcDbEntity
  8
0
100
AcDbBlockEnd
  0
BLOCK
  5
B1
330
AF
100
AcDbEntity
  8
0
100
AcDbBlockBegin
  2
Block_6
 70
     0
 10
0.0
 20
0.0
 30
0.0
  3
Block_6
  1

  0
SPLINE
  5
B3
330
AF
100
AcDbEntity
  8
レイヤー 1
100
AcDbSpline
210
0.0
220
0.0
230
1.0
 70
    11
 71
     3
 72
    26
 73
    22
 74
     0
 42
0.0000000001
 43
0.0000000001
 40
0.0
 40
0.0
 40
0.0
 40
0.0
 40
1.0
 40
1.0
 40
1.0
 40
2.0
 40
2.0
 40
2.0
 40
3.0
 40
3.0
 40
3.0
 40
4.0
 40
4.0
 40
4.0
 40
5.0
 40
5.0
 40
5.0
 40
6.0
 40
6.0
 40
6.0
 40
7.0
 40
7.0
 40
7.0
 40
7.0
 10
88.50708683768226
 20
-142.3961316918315
 30
0.0
 10
88.50708683768226
 20
-142.3961316918315
 30
0.0
 10
87.40293373465968
 20
-142.3961316918315
 30
0.0
 10
87.40293373465968
 20
-142.3961316918315
 30
0.0
 10
87.40293373465968
 20
-142.3961316918315
 30
0.0
 10
87.40293373465968
 20
-142.6775959929764
 30
0.0
 10
87.40293373465968
 20
-142.6775959929764
 30
0.0
 10
87.40293373465968
 20
-142.6775959929764
 30
0.0
 10
87.25479462879395
 20
-142.6775959929764
 30
0.0
 10
87.25479462879395
 20
-142.6775959929764
 30
0.0
 10
87.23998071820735
 20
-142.3944091440889
 30
0.0
 10
87.07702770175506
 20
-142.3547905460085
 30
0.0
 10
86.96265053164475
 20
-142.3296413489662
 30
0.0
 10
86.96265053164475
 20
-142.3296413489662
 30
0.0
 10
86.96265053164475
 20
-142.2049288924001
 30
0.0
 10
86.96265053164475
 20
-142.2049288924001
 30
0.0
 10
86.96265053164475
 20
-142.2049288924001
 30
0.0
 10
88.50708683768226
 20
-142.2049288924001
 30
0.0
 10
88.50708683768226
 20
-142.2049288924001
 30
0.0
 10
88.50708683768226
 20
-142.2049288924001
 30
0.0
 10
88.50708683768226
 20
-142.3961316918315
 30
0.0
 10
88.50708683768226
 20
-142.3961316918315
 30
0.0
  0
HATCH
  5
B4
330
AF
100
AcDbEntity
  8
レイヤー 1
 62
    18
420
        0
440
 33554687
100
AcDbHatch
 10
0.0
 20
0.0
 30
0.0
210
0.0
220
0.0
230
1.0
  2
SOLID
 70
     1
 71
     1
 91
        1
 92
        1
 93
        1
 72
     4
 94
        3
 73
     0
 74
     0
 95
       26
 96
       22
 40
0.0
 40
0.0
 40
0.0
 40
0.0
 40
1.0
 40
1.0
 40
1.0
 40
2.0
 40
2.0
 40
2.0
 40
3.0
 40
3.0
 40
3.0
 40
4.0
 40
4.0
 40
4.0
 40
5.0
 40
5.0
 40
5.0
 40
6.0
 40
6.0
 40
6.0
 40
7.0
 40
7.0
 40
7.0
 40
7.0
 10
88.50708683768226
 20
-142.3961316918315
 10
88.50708683768226
 20
-142.3961316918315
 10
87.40293373465968
 20
-142.3961316918315
 10
87.40293373465968
 20
-142.3961316918315
 10
87.40293373465968
 20
-142.3961316918315
 10
87.40293373465968
 20
-142.6775959929764
 10
87.40293373465968
 20
-142.6775959929764
 10
87.40293373465968
 20
-142.6775959929764
 10
87.25479462879395
 20
-142.6775959929764
 10
87.25479462879395
 20
-142.6775959929764
 10
87.23998071820735
 20
-142.3944091440889
 10
87.07702770175506
 20
-142.3547905460085
 10
86.96265053164475
 20
-142.3296413489662
 10
86.96265053164475
 20
-142.3296413489662
 10
86.96265053164475
 20
-142.2049288924001
 10
86.96265053164475
 20
-142.2049288924001
 10
86.96265053164475
 20
-142.2049288924001
 10
88.50708683768226
 20
-142.2049288924001
 10
88.50708683768226
 20
-142.2049288924001
 10
88.50708683768226
 20
-142.2049288924001
 10
88.50708683768226
 20
-142.3961316918315
 10
88.50708683768226
 20
-142.3961316918315
 97
        0
 97
        1
330
B3
 75
     2
 76
     1
 98
        1
 10
0.0
 20
0.0
450
        0
451
        0
460
0.0
461
0.0
452
        0
462
0.0
453
        0
470

  0
SPLINE
  5
B5
330
AF
100
AcDbEntity
  8
レイヤー 1
100
AcDbSpline
210
0.0
220
0.0
230
1.0
 70
    11
 71
     3
 72
    17
 73
    13
 74
     0
 42
0.0000000001
 43
0.0000000001
 40
0.0
 40
0.0
 40
0.0
 40
0.0
 40
1.0
 40
1.0
 40
1.0
 40
2.0
 40
2.0
 40
2.0
 40
3.0
 40
3.0
 40
3.0
 40
4.0
 40
4.0
 40
4.0
 40
4.0
 10
88.50708683768226
 20
-141.7281276772416
 30
0.0
 10
88.50708683768226
 20
-141.7281276772416
 30
0.0
 10
88.25525035771049
 20
-141.7281276772416
 30
0.0
 10
88.25525035771049
 20
-141.7281276772416
 30
0.0
 10
88.25525035771049
 20
-141.7281276772416
 30
0.0
 10
88.25525035771049
 20
-141.5134982285105
 30
0.0
 10
88.25525035771049
 20
-141.5134982285105
 30
0.0
 10
88.25525035771049
 20
-141.5134982285105
 30
0.0
 10
88.50708683768226
 20
-141.5134982285105
 30
0.0
 10
88.50708683768226
 20
-141.5134982285105
 30
0.0
 10
88.50708683768226
 20
-141.5134982285105
 30
0.0
 10
88.50708683768226
 20
-141.7281276772416
 30
0.0
 10
88.50708683768226
 20
-141.7281276772416
 30
0.0
  0
HATCH
  5
B6
330
AF
100
AcDbEntity
  8
レイヤー 1
 62
    18
420
        0
440
 33554687
100
AcDbHatch
 10
0.0
 20
0.0
 30
0.0
210
0.0
220
0.0
230
1.0
  2
SOLID
 70
     1
 71
     1
 91
        1
 92
        1
 93
        1
 72
     4
 94
        3
 73
     0
 74
     0
 95
       17
 96
       13
 40
0.0
 40
0.0
 40
0.0
 40
0.0
 40
1.0
 40
1.0
 40
1.0
 40
2.0
 40
2.0
 40
2.0
 40
3.0
 40
3.0
 40
3.0
 40
4.0
 40
4.0
 40
4.0
 40
4.0
 10
88.50708683768226
 20
-141.7281276772416
 10
88.50708683768226
 20
-141.7281276772416
 10
88.25525035771049
 20
-141.7281276772416
 10
88.25525035771049
 20
-141.7281276772416
 10
88.25525035771049
 20
-141.7281276772416
 10
88.25525035771049
 20
-141.5134982285105
 10
88.25525035771049
 20
-141.5134982285105
 10
88.25525035771049
 20
-141.5134982285105
 10
88.50708683768226
 20
-141.5134982285105
 10
88.50708683768226
 20
-141.5134982285105
 10
88.50708683768226
 20
-141.5134982285105
 10
88.50708683768226
 20
-141.7281276772416
 10
88.50708683768226
 20
-141.7281276772416
 97
        0
 97
        1
330
B5
 75
     2
 76
     1
 98
        1
 10
0.0
 20
0.0
450
        0
451
        0
460
0.0
461
0.0
452
        0
462
0.0
453
        0
470

  0
SPLINE
  5
B7
330
AF
100
AcDbEntity
  8
レイヤー 1
100
AcDbSpline
210
0.0
220
0.0
230
1.0
 70
    11
 71
     3
 72
    26
 73
    22
 74
     0
 42
0.0000000001
 43
0.0000000001
 40
0.0
 40
0.0
 40
0.0
 40
0.0
 40
1.0
 40
1.0
 40
1.0
 40
2.0
 40
2.0
 40
2.0
 40
3.0
 40
3.0
 40
3.0
 40
4.0
 40
4.0
 40
4.0
 40
5.0
 40
5.0
 40
5.0
 40
6.0
 40
6.0
 40
6.0
 40
7.0
 40
7.0
 40
7.0
 40
7.0
 10
88.50708683768226
 20
-140.9274874864695
 30
0.0
 10
88.50708683768226
 20
-140.9274874864695
 30
0.0
 10
87.40293373465968
 20
-140.9274874864695
 30
0.0
 10
87.40293373465968
 20
-140.9274874864695
 30
0.0
 10
87.40293373465968
 20
-140.9274874864695
 30
0.0
 10
87.40293373465968
 20
-141.2089517876144
 30
0.0
 10
87.40293373465968
 20
-141.2089517876144
 30
0.0
 10
87.40293373465968
 20
-141.2089517876144
 30
0.0
 10
87.25479462879395
 20
-141.2089517876144
 30
0.0
 10
87.25479462879395
 20
-141.2089517876144
 30
0.0
 10
87.23998071820735
 20
-140.9257649387269
 30
0.0
 10
87.07702770175506
 20
-140.8861463406465
 30
0.0
 10
86.96265053164475
 20
-140.8609971436042
 30
0.0
 10
86.96265053164475
 20
-140.8609971436042
 30
0.0
 10
86.96265053164475
 20
-140.7362846870381
 30
0.0
 10
86.96265053164475
 20
-140.7362846870381
 30
0.0
 10
86.96265053164475
 20
-140.7362846870381
 30
0.0
 10
88.50708683768226
 20
-140.7362846870381
 30
0.0
 10
88.50708683768226
 20
-140.7362846870381
 30
0.0
 10
88.50708683768226
 20
-140.7362846870381
 30
0.0
 10
88.50708683768226
 20
-140.9274874864695
 30
0.0
 10
88.50708683768226
 20
-140.9274874864695
 30
0.0
  0
HATCH
  5
B8
330
AF
100
AcDbEntity
  8
レイヤー 1
 62
    18
420
        0
440
 33554687
100
AcDbHatch
 10
0.0
 20
0.0
 30
0.0
210
0.0
220
0.0
230
1.0
  2
SOLID
 70
     1
 71
     1
 91
        1
 92
        1
 93
        1
 72
     4
 94
        3
 73
     0
 74
     0
 95
       26
 96
       22
 40
0.0
 40
0.0
 40
0.0
 40
0.0
 40
1.0
 40
1.0
 40
1.0
 40
2.0
 40
2.0
 40
2.0
 40
3.0
 40
3.0
 40
3.0
 40
4.0
 40
4.0
 40
4.0
 40
5.0
 40
5.0
 40
5.0
 40
6.0
 40
6.0
 40
6.0
 40
7.0
 40
7.0
 40
7.0
 40
7.0
 10
88.50708683768226
 20
-140.9274874864695
 10
88.50708683768226
 20
-140.9274874864695
 10
87.40293373465968
 20
-140.9274874864695
 10
87.40293373465968
 20
-140.9274874864695
 10
87.40293373465968
 20
-140.9274874864695
 10
87.40293373465968
 20
-141.2089517876144
 10
87.40293373465968
 20
-141.2089517876144
 10
87.40293373465968
 20
-141.2089517876144
 10
87.25479462879395
 20
-141.2089517876144
 10
87.25479462879395
 20
-141.2089517876144
 10
87.23998071820735
 20
-140.9257649387269
 10
87.07702770175506
 20
-140.8861463406465
 10
86.96265053164475
 20
-140.8609971436042
 10
86.96265053164475
 20
-140.8609971436042
 10
86.96265053164475
 20
-140.7362846870381
 10
86.96265053164475
 20
-140.7362846870381
 10
86.96265053164475
 20
-140.7362846870381
 10
88.50708683768226
 20
-140.7362846870381
 10
88.50708683768226
 20
-140.7362846870381
 10
88.50708683768226
 20
-140.7362846870381
 10
88.50708683768226
 20
-140.9274874864695
 10
88.50708683768226
 20
-140.9274874864695
 97
        0
 97
        1
330
B7
 75
     2
 76
     1
 98
        1
 10
0.0
 20
0.0
450
        0
451
        0
460
0.0
461
0.0
452
        0
462
0.0
453
        0
470

  0
ENDBLK
  5
B2
330
AF
100
AcDbEntity
  8
0
100
AcDbBlockEnd
  0
BLOCK
  5
BB
330
B9
100
AcDbEntity
  8
0
100
AcDbBlockBegin
  2
Block_7
 70
     0
 10
0.0
 20
0.0
 30
0.0
  3
Block_7
  1

  0
LINE
  5
BD
330
B9
100
AcDbEntity
  8
レイヤー 1
 62
    18
420
        0
370
     9
100
AcDbLine
 10
124.271683075475
 20
-153.5215949826137
 30
0.0
 11
124.271683075475
 21
-154.5213293653554
 31
0.0
  0
LINE
  5
BE
330
B9
100
AcDbEntity
  8
レイヤー 1
 62
    18
420
        0
370
     9
100
AcDbLine
 10
124.271683075475
 20
-153.1219330483655
 30
0.0
 11
124.271683075475
 21
-153.5215949826137
 31
0.0
  0
LINE
  5
BF
330
B9
100
AcDbEntity
  8
レイヤー 1
 62
    18
420
        0
370
     9
100
AcDbLine
 10
122.8116417238349
 20
-153.1219330483655
 30
0.0
 11
125.2714199944141
 21
-153.1219330483655
 31
0.0
  0
LINE
  5
C0
330
B9
100
AcDbEntity
  8
レイヤー 1
 62
    18
420
        0
370
     9
100
AcDbLine
 10
122.8116417238349
 20
-153.5215949826137
 30
0.0
 11
125.2714199944141
 21
-153.5215949826137
 31
0.0
  0
INSERT
  5
C2
330
B9
100
AcDbEntity
  8
レイヤー 1
100
AcDbBlockReference
  2
Block_8
 10
0.0
 20
0.0
 30
0.0
  0
ENDBLK
  5
BC
330
B9
100
AcDbEntity
  8
0
100
AcDbBlockEnd
  0
BLOCK
  5
C3
330
C1
100
AcDbEntity
  8
0
100
AcDbBlockBegin
  2
Block_8
 70
     0
 10
0.0
 20
0.0
 30
0.0
  3
Block_8
  1

  0
INSERT
  5
C6
330
C1
100
AcDbEntity
  8
レイヤー 1
100
AcDbBlockReference
  2
Block_9
 10
0.0
 20
0.0
 30
0.0
  0
ENDBLK
  5
C4
330
C1
100
AcDbEntity
  8
0
100
AcDbBlockEnd
  0
BLOCK
  5
C7
330
C5
100
AcDbEntity
  8
0
100
AcDbBlockBegin
  2
Block_9
 70
     0
 10
0.0
 20
0.0
 30
0.0
  3
Block_9
  1

  0
SPLINE
  5
C9
330
C5
100
AcDbEntity
  8
レイヤー 1
100
AcDbSpline
210
0.0
220
0.0
230
1.0
 70
     9
 71
     3
 72
    17
 73
    13
 74
     0
 42
0.0000000001
 43
0.0000000001
 40
0.0
 40
0.0
 40
0.0
 40
0.0
 40
1.0
 40
1.0
 40
1.0
 40
2.0
 40
2.0
 40
2.0
 40
3.0
 40
3.0
 40
3.0
 40
4.0
 40
4.0
 40
4.0
 40
4.0
 10
121.6962754687079
 20
-154.1683674744787
 30
0.0
 10
121.6962754687079
 20
-154.3809298659186
 30
0.0
 10
121.9798068271439
 20
-154.4208929735475
 30
0.0
 10
122.3246608852174
 20
-154.4208929735475
 30
0.0
 10
122.6440212367001
 20
-154.4208929735475
 30
0.0
 10
122.9527017921785
 20
-154.3902316237288
 30
0.0
 10
122.9527017921785
 20
-154.1683674744787
 30
0.0
 10
122.9527017921785
 20
-153.9571831212329
 30
0.0
 10
122.6715820005821
 20
-153.9158419754099
 30
0.0
 10
122.3246608852174
 20
-153.9158419754099
 30
0.0
 10
122.0049560241863
 20
-153.9158419754099
 30
0.0
 10
121.6962754687079
 20
-153.9482258729712
 30
0.0
 10
121.6962754687079
 20
-154.1683674744787
 30
0.0
  0
SPLINE
  5
CA
330
C5
100
AcDbEntity
  8
レイヤー 1
100
AcDbSpline
210
0.0
220
0.0
230
1.0
 70
     9
 71
     3
 72
    29
 73
    25
 74
     0
 42
0.0000000001
 43
0.0000000001
 40
0.0
 40
0.0
 40
0.0
 40
0.0
 40
1.0
 40
1.0
 40
1.0
 40
2.0
 40
2.0
 40
2.0
 40
3.0
 40
3.0
 40
3.0
 40
4.0
 40
4.0
 40
4.0
 40
5.0
 40
5.0
 40
5.0
 40
6.0
 40
6.0
 40
6.0
 40
7.0
 40
7.0
 40
7.0
 40
8.0
 40
8.0
 40
8.0
 40
8.0
 10
122.918939856423
 20
-153.8293700787301
 30
0.0
 10
123.1284016619262
 20
-153.9213541281863
 30
0.0
 10
123.1473496870951
 20
-154.0691487245035
 30
0.0
 10
123.1473496870951
 20
-154.1683674744787
 30
0.0
 10
123.1473496870951
 20
-154.3054822747917
 30
0.0
 10
123.1008408980442
 20
-154.4260606167754
 30
0.0
 10
122.918939856423
 20
-154.5073648702273
 30
0.0
 10
122.7242919615064
 20
-154.5955593146497
 30
0.0
 10
122.4876139016698
 20
-154.6117512634304
 30
0.0
 10
122.3246608852174
 20
-154.6117512634304
 30
0.0
 10
122.180655893934
 20
-154.6117512634304
 30
0.0
 10
121.9288194139622
 20
-154.5976263719409
 30
0.0
 10
121.7300374044633
 20
-154.5073648702273
 30
0.0
 10
121.5271212803821
 20
-154.4153808207711
 30
0.0
 10
121.5036946310824
 20
-154.2782660204582
 30
0.0
 10
121.5036946310824
 20
-154.1683674744787
 30
0.0
 10
121.5036946310824
 20
-154.0329752219084
 30
0.0
 10
121.5481363628421
 20
-153.9103298226335
 30
0.0
 10
121.7300374044633
 20
-153.8293700787301
 30
0.0
 10
121.9226182420888
 20
-153.744620729793
 30
0.0
 10
122.1510280727608
 20
-153.7246391759786
 30
0.0
 10
122.3246608852174
 20
-153.7246391759786
 30
0.0
 10
122.4958821308343
 20
-153.7246391759786
 30
0.0
 10
122.7263590187976
 20
-153.7428981820504
 30
0.0
 10
122.918939856423
 20
-153.8293700787301
 30
0.0
  0
HATCH
  5
CB
330
C5
100
AcDbEntity
  8
レイヤー 1
 62
    18
420
        0
440
 33554687
100
AcDbHatch
 10
0.0
 20
0.0
 30
0.0
210
0.0
220
0.0
230
1.0
  2
SOLID
 70
     1
 71
     1
 91
        2
 92
        1
 93
        1
 72
     4
 94
        3
 73
     0
 74
     0
 95
       17
 96
       13
 40
0.0
 40
0.0
 40
0.0
 40
0.0
 40
1.0
 40
1.0
 40
1.0
 40
2.0
 40
2.0
 40
2.0
 40
3.0
 40
3.0
 40
3.0
 40
4.0
 40
4.0
 40
4.0
 40
4.0
 10
121.6962754687079
 20
-154.1683674744787
 10
121.6962754687079
 20
-154.3809298659186
 10
121.9798068271439
 20
-154.4208929735475
 10
122.3246608852174
 20
-154.4208929735475
 10
122.6440212367001
 20
-154.4208929735475
 10
122.9527017921785
 20
-154.3902316237288
 10
122.9527017921785
 20
-154.1683674744787
 10
122.9527017921785
 20
-153.9571831212329
 10
122.6715820005821
 20
-153.9158419754099
 10
122.3246608852174
 20
-153.9158419754099
 10
122.0049560241863
 20
-153.9158419754099
 10
121.6962754687079
 20
-153.9482258729712
 10
121.6962754687079
 20
-154.1683674744787
 97
        0
 97
        1
330
C9
 92
        1
 93
        1
 72
     4
 94
        3
 73
     0
 74
     0
 95
       29
 96
       25
 40
0.0
 40
0.0
 40
0.0
 40
0.0
 40
1.0
 40
1.0
 40
1.0
 40
2.0
 40
2.0
 40
2.0
 40
3.0
 40
3.0
 40
3.0
 40
4.0
 40
4.0
 40
4.0
 40
5.0
 40
5.0
 40
5.0
 40
6.0
 40
6.0
 40
6.0
 40
7.0
 40
7.0
 40
7.0
 40
8.0
 40
8.0
 40
8.0
 40
8.0
 10
122.918939856423
 20
-153.8293700787301
 10
123.1284016619262
 20
-153.9213541281863
 10
123.1473496870951
 20
-154.0691487245035
 10
123.1473496870951
 20
-154.1683674744787
 10
123.1473496870951
 20
-154.3054822747917
 10
123.1008408980442
 20
-154.4260606167754
 10
122.918939856423
 20
-154.5073648702273
 10
122.7242919615064
 20
-154.5955593146497
 10
122.4876139016698
 20
-154.6117512634304
 10
122.3246608852174
 20
-154.6117512634304
 10
122.180655893934
 20
-154.6117512634304
 10
121.9288194139622
 20
-154.5976263719409
 10
121.7300374044633
 20
-154.5073648702273
 10
121.5271212803821
 20
-154.4153808207711
 10
121.5036946310824
 20
-154.2782660204582
 10
121.5036946310824
 20
-154.1683674744787
 10
121.5036946310824
 20
-154.0329752219084
 10
121.5481363628421
 20
-153.9103298226335
 10
121.7300374044633
 20
-153.8293700787301
 10
121.9226182420888
 20
-153.744620729793
 10
122.1510280727608
 20
-153.7246391759786
 10
122.3246608852174
 20
-153.7246391759786
 10
122.4958821308343
 20
-153.7246391759786
 10
122.7263590187976
 20
-153.7428981820504
 10
122.918939856423
 20
-153.8293700787301
 97
        0
 97
        1
330
CA
 75
     2
 76
     1
 98
        1
 10
0.0
 20
0.0
450
        0
451
        0
460
0.0
461
0.0
452
        0
462
0.0
453
        0
470

  0
SPLINE
  5
CC
330
C5
100
AcDbEntity
  8
レイヤー 1
100
AcDbSpline
210
0.0
220
0.0
230
1.0
 70
    11
 71
     3
 72
    17
 73
    13
 74
     0
 42
0.0000000001
 43
0.0000000001
 40
0.0
 40
0.0
 40
0.0
 40
0.0
 40
1.0
 40
1.0
 40
1.0
 40
2.0
 40
2.0
 40
2.0
 40
3.0
 40
3.0
 40
3.0
 40
4.0
 40
4.0
 40
4.0
 40
4.0
 10
123.0967067834619
 20
-153.5417046057118
 30
0.0
 10
123.0967067834619
 20
-153.5417046057118
 30
0.0
 10
122.8448703034902
 20
-153.5417046057118
 30
0.0
 10
122.8448703034902
 20
-153.5417046057118
 30
0.0
 10
122.8448703034902
 20
-153.5417046057118
 30
0.0
 10
122.8448703034902
 20
-153.3270751569807
 30
0.0
 10
122.8448703034902
 20
-153.3270751569807
 30
0.0
 10
122.8448703034902
 20
-153.3270751569807
 30
0.0
 10
123.0967067834619
 20
-153.3270751569807
 30
0.0
 10
123.0967067834619
 20
-153.3270751569807
 30
0.0
 10
123.0967067834619
 20
-153.3270751569807
 30
0.0
 10
123.0967067834619
 20
-153.5417046057118
 30
0.0
 10
123.0967067834619
 20
-153.5417046057118
 30
0.0
  0
HATCH
  5
CD
330
C5
100
AcDbEntity
  8
レイヤー 1
 62
    18
420
        0
440
 33554687
100
AcDbHatch
 10
0.0
 20
0.0
 30
0.0
210
0.0
220
0.0
230
1.0
  2
SOLID
 70
     1
 71
     1
 91
        1
 92
        1
 93
        1
 72
     4
 94
        3
 73
     0
 74
     0
 95
       17
 96
       13
 40
0.0
 40
0.0
 40
0.0
 40
0.0
 40
1.0
 40
1.0
 40
1.0
 40
2.0
 40
2.0
 40
2.0
 40
3.0
 40
3.0
 40
3.0
 40
4.0
 40
4.0
 40
4.0
 40
4.0
 10
123.0967067834619
 20
-153.5417046057118
 10
123.0967067834619
 20
-153.5417046057118
 10
122.8448703034902
 20
-153.5417046057118
 10
122.8448703034902
 20
-153.5417046057118
 10
122.8448703034902
 20
-153.5417046057118
 10
122.8448703034902
 20
-153.3270751569807
 10
122.8448703034902
 20
-153.3270751569807
 10
122.8448703034902
 20
-153.3270751569807
 10
123.0967067834619
 20
-153.3270751569807
 10
123.0967067834619
 20
-153.3270751569807
 10
123.0967067834619
 20
-153.3270751569807
 10
123.0967067834619
 20
-153.5417046057118
 10
123.0967067834619
 20
-153.5417046057118
 97
        0
 97
        1
330
CC
 75
     2
 76
     1
 98
        1
 10
0.0
 20
0.0
450
        0
451
        0
460
0.0
461
0.0
452
        0
462
0.0
453
        0
470

  0
SPLINE
  5
CE
330
C5
100
AcDbEntity
  8
レイヤー 1
100
AcDbSpline
210
0.0
220
0.0
230
1.0
 70
    11
 71
     3
 72
    14
 73
    10
 74
     0
 42
0.0000000001
 43
0.0000000001
 40
0.0
 40
0.0
 40
0.0
 40
0.0
 40
1.0
 40
1.0
 40
1.0
 40
2.0
 40
2.0
 40
2.0
 40
3.0
 40
3.0
 40
3.0
 40
3.0
 10
121.8950574782068
 20
-152.6022270668842
 30
0.0
 10
121.8950574782068
 20
-152.6022270668842
 30
0.0
 10
122.5510036585983
 20
-152.9918673662659
 30
0.0
 10
122.5510036585983
 20
-152.9918673662659
 30
0.0
 10
122.5510036585983
 20
-152.9918673662659
 30
0.0
 10
122.5510036585983
 20
-152.6022270668842
 30
0.0
 10
122.5510036585983
 20
-152.6022270668842
 30
0.0
 10
122.5510036585983
 20
-152.6022270668842
 30
0.0
 10
121.8950574782068
 20
-152.6022270668842
 30
0.0
 10
121.8950574782068
 20
-152.6022270668842
 30
0.0
  0
SPLINE
  5
CF
330
C5
100
AcDbEntity
  8
レイヤー 1
100
AcDbSpline
210
0.0
220
0.0
230
1.0
 70
    11
 71
     3
 72
    38
 73
    34
 74
     0
 42
0.0000000001
 43
0.0000000001
 40
0.0
 40
0.0
 40
0.0
 40
0.0
 40
1.0
 40
1.0
 40
1.0
 40
2.0
 40
2.0
 40
2.0
 40
3.0
 40
3.0
 40
3.0
 40
4.0
 40
4.0
 40
4.0
 40
5.0
 40
5.0
 40
5.0
 40
6.0
 40
6.0
 40
6.0
 40
7.0
 40
7.0
 40
7.0
 40
8.0
 40
8.0
 40
8.0
 40
9.0
 40
9.0
 40
9.0
 40
10.0
 40
10.0
 40
10.0
 40
11.0
 40
11.0
 40
11.0
 40
11.0
 10
122.7497856680972
 20
-152.4165364202292
 30
0.0
 10
122.7497856680972
 20
-152.4165364202292
 30
0.0
 10
123.0967067834619
 20
-152.4165364202292
 30
0.0
 10
123.0967067834619
 20
-152.4165364202292
 30
0.0
 10
123.0967067834619
 20
-152.4165364202292
 30
0.0
 10
123.0967067834619
 20
-152.6022270668842
 30
0.0
 10
123.0967067834619
 20
-152.6022270668842
 30
0.0
 10
123.0967067834619
 20
-152.6022270668842
 30
0.0
 10
122.7497856680972
 20
-152.6022270668842
 30
0.0
 10
122.7497856680972
 20
-152.6022270668842
 30
0.0
 10
122.7497856680972
 20
-152.6022270668842
 30
0.0
 10
122.7497856680972
 20
-153.1613660641402
 30
0.0
 10
122.7497856680972
 20
-153.1613660641402
 30
0.0
 10
122.7497856680972
 20
-153.1613660641402
 30
0.0
 10
122.5255099520075
 20
-153.1613660641402
 30
0.0
 10
122.5255099520075
 20
-153.1613660641402
 30
0.0
 10
122.5255099520075
 20
-153.1613660641402
 30
0.0
 10
121.5522704774244
 20
-152.5825900226182
 30
0.0
 10
121.5522704774244
 20
-152.5825900226182
 30
0.0
 10
121.5522704774244
 20
-152.5825900226182
 30
0.0
 10
121.5522704774244
 20
-152.4165364202292
 30
0.0
 10
121.5522704774244
 20
-152.4165364202292
 30
0.0
 10
121.5522704774244
 20
-152.4165364202292
 30
0.0
 10
122.5510036585983
 20
-152.4165364202292
 30
0.0
 10
122.5510036585983
 20
-152.4165364202292
 30
0.0
 10
122.5510036585983
 20
-152.4165364202292
 30
0.0
 10
122.5510036585983
 20
-152.2398030218359
 30
0.0
 10
122.5510036585983
 20
-152.2398030218359
 30
0.0
 10
122.5510036585983
 20
-152.2398030218359
 30
0.0
 10
122.7497856680972
 20
-152.2398030218359
 30
0.0
 10
122.7497856680972
 20
-152.2398030218359
 30
0.0
 10
122.7497856680972
 20
-152.2398030218359
 30
0.0
 10
122.7497856680972
 20
-152.4165364202292
 30
0.0
 10
122.7497856680972
 20
-152.4165364202292
 30
0.0
  0
HATCH
  5
D0
330
C5
100
AcDbEntity
  8
レイヤー 1
 62
    18
420
        0
440
 33554687
100
AcDbHatch
 10
0.0
 20
0.0
 30
0.0
210
0.0
220
0.0
230
1.0
  2
SOLID
 70
     1
 71
     1
 91
        2
 92
        1
 93
        1
 72
     4
 94
        3
 73
     0
 74
     0
 95
       14
 96
       10
 40
0.0
 40
0.0
 40
0.0
 40
0.0
 40
1.0
 40
1.0
 40
1.0
 40
2.0
 40
2.0
 40
2.0
 40
3.0
 40
3.0
 40
3.0
 40
3.0
 10
121.8950574782068
 20
-152.6022270668842
 10
121.8950574782068
 20
-152.6022270668842
 10
122.5510036585983
 20
-152.9918673662659
 10
122.5510036585983
 20
-152.9918673662659
 10
122.5510036585983
 20
-152.9918673662659
 10
122.5510036585983
 20
-152.6022270668842
 10
122.5510036585983
 20
-152.6022270668842
 10
122.5510036585983
 20
-152.6022270668842
 10
121.8950574782068
 20
-152.6022270668842
 10
121.8950574782068
 20
-152.6022270668842
 97
        0
 97
        1
330
CE
 92
        1
 93
        1
 72
     4
 94
        3
 73
     0
 74
     0
 95
       38
 96
       34
 40
0.0
 40
0.0
 40
0.0
 40
0.0
 40
1.0
 40
1.0
 40
1.0
 40
2.0
 40
2.0
 40
2.0
 40
3.0
 40
3.0
 40
3.0
 40
4.0
 40
4.0
 40
4.0
 40
5.0
 40
5.0
 40
5.0
 40
6.0
 40
6.0
 40
6.0
 40
7.0
 40
7.0
 40
7.0
 40
8.0
 40
8.0
 40
8.0
 40
9.0
 40
9.0
 40
9.0
 40
10.0
 40
10.0
 40
10.0
 40
11.0
 40
11.0
 40
11.0
 40
11.0
 10
122.7497856680972
 20
-152.4165364202292
 10
122.7497856680972
 20
-152.4165364202292
 10
123.0967067834619
 20
-152.4165364202292
 10
123.0967067834619
 20
-152.4165364202292
 10
123.0967067834619
 20
-152.4165364202292
 10
123.0967067834619
 20
-152.6022270668842
 10
123.0967067834619
 20
-152.6022270668842
 10
123.0967067834619
 20
-152.6022270668842
 10
122.7497856680972
 20
-152.6022270668842
 10
122.7497856680972
 20
-152.6022270668842
 10
122.7497856680972
 20
-152.6022270668842
 10
122.7497856680972
 20
-153.1613660641402
 10
122.7497856680972
 20
-153.1613660641402
 10
122.7497856680972
 20
-153.1613660641402
 10
122.5255099520075
 20
-153.1613660641402
 10
122.5255099520075
 20
-153.1613660641402
 10
122.5255099520075
 20
-153.1613660641402
 10
121.5522704774244
 20
-152.5825900226182
 10
121.5522704774244
 20
-152.5825900226182
 10
121.5522704774244
 20
-152.5825900226182
 10
121.5522704774244
 20
-152.4165364202292
 10
121.5522704774244
 20
-152.4165364202292
 10
121.5522704774244
 20
-152.4165364202292
 10
122.5510036585983
 20
-152.4165364202292
 10
122.5510036585983
 20
-152.4165364202292
 10
122.5510036585983
 20
-152.4165364202292
 10
122.5510036585983
 20
-152.2398030218359
 10
122.5510036585983
 20
-152.2398030218359
 10
122.5510036585983
 20
-152.2398030218359
 10
122.7497856680972
 20
-152.2398030218359
 10
122.7497856680972
 20
-152.2398030218359
 10
122.7497856680972
 20
-152.2398030218359
 10
122.7497856680972
 20
-152.4165364202292
 10
122.7497856680972
 20
-152.4165364202292
 97
        0
 97
        1
330
CF
 75
     2
 76
     1
 98
        1
 10
0.0
 20
0.0
450
        0
451
        0
460
0.0
461
0.0
452
        0
462
0.0
453
        0
470

  0
ENDBLK
  5
C8
330
C5
100
AcDbEntity
  8
0
100
AcDbBlockEnd
  0
BLOCK
  5
D6
330
D4
100
AcDbEntity
  8
0
100
AcDbBlockBegin
  2
Block_10
 70
     0
 10
0.0
 20
0.0
 30
0.0
  3
Block_10
  1

  0
INSERT
  5
D9
330
D4
100
AcDbEntity
  8
レイヤー 1
100
AcDbBlockReference
  2
Block_11
 10
0.0
 20
0.0
 30
0.0
  0
ENDBLK
  5
D7
330
D4
100
AcDbEntity
  8
0
100
AcDbBlockEnd
  0
BLOCK
  5
DA
330
D8
100
AcDbEntity
  8
0
100
AcDbBlockBegin
  2
Block_11
 70
     0
 10
0.0
 20
0.0
 30
0.0
  3
Block_11
  1

  0
SPLINE
  5
DC
330
D8
100
AcDbEntity
  8
レイヤー 1
100
AcDbSpline
210
0.0
220
0.0
230
1.0
 70
    11
 71
     3
 72
    26
 73
    22
 74
     0
 42
0.0000000001
 43
0.0000000001
 40
0.0
 40
0.0
 40
0.0
 40
0.0
 40
1.0
 40
1.0
 40
1.0
 40
2.0
 40
2.0
 40
2.0
 40
3.0
 40
3.0
 40
3.0
 40
4.0
 40
4.0
 40
4.0
 40
5.0
 40
5.0
 40
5.0
 40
6.0
 40
6.0
 40
6.0
 40
7.0
 40
7.0
 40
7.0
 40
7.0
 10
97.72960745169607
 20
-157.5755669093908
 30
0.0
 10
97.72960745169607
 20
-157.5755669093908
 30
0.0
 10
97.72960745169607
 20
-156.4714138063683
 30
0.0
 10
97.72960745169607
 20
-156.4714138063683
 30
0.0
 10
97.72960745169607
 20
-156.4714138063683
 30
0.0
 10
97.44814315055116
 20
-156.4714138063683
 30
0.0
 10
97.44814315055116
 20
-156.4714138063683
 30
0.0
 10
97.44814315055116
 20
-156.4714138063683
 30
0.0
 10
97.44814315055116
 20
-156.3232747005025
 30
0.0
 10
97.44814315055116
 20
-156.3232747005025
 30
0.0
 10
97.7313299994387
 20
-156.3084607899159
 30
0.0
 10
97.77094859751906
 20
-156.1455077734636
 30
0.0
 10
97.79627004933566
 20
-156.0311306033533
 30
0.0
 10
97.79627004933566
 20
-156.0311306033533
 30
0.0
 10
97.92063799635318
 20
-156.0311306033533
 30
0.0
 10
97.92063799635318
 20
-156.0311306033533
 30
0.0
 10
97.92063799635318
 20
-156.0311306033533
 30
0.0
 10
97.92063799635318
 20
-157.5755669093908
 30
0.0
 10
97.92063799635318
 20
-157.5755669093908
 30
0.0
 10
97.92063799635318
 20
-157.5755669093908
 30
0.0
 10
97.72960745169607
 20
-157.5755669093908
 30
0.0
 10
97.72960745169607
 20
-157.5755669093908
 30
0.0
  0
HATCH
  5
DD
330
D8
100
AcDbEntity
  8
レイヤー 1
 62
    18
420
        0
440
 33554687
100
AcDbHatch
 10
0.0
 20
0.0
 30
0.0
210
0.0
220
0.0
230
1.0
  2
SOLID
 70
     1
 71
     1
 91
        1
 92
        1
 93
        1
 72
     4
 94
        3
 73
     0
 74
     0
 95
       26
 96
       22
 40
0.0
 40
0.0
 40
0.0
 40
0.0
 40
1.0
 40
1.0
 40
1.0
 40
2.0
 40
2.0
 40
2.0
 40
3.0
 40
3.0
 40
3.0
 40
4.0
 40
4.0
 40
4.0
 40
5.0
 40
5.0
 40
5.0
 40
6.0
 40
6.0
 40
6.0
 40
7.0
 40
7.0
 40
7.0
 40
7.0
 10
97.72960745169607
 20
-157.5755669093908
 10
97.72960745169607
 20
-157.5755669093908
 10
97.72960745169607
 20
-156.4714138063683
 10
97.72960745169607
 20
-156.4714138063683
 10
97.72960745169607
 20
-156.4714138063683
 10
97.44814315055116
 20
-156.4714138063683
 10
97.44814315055116
 20
-156.4714138063683
 10
97.44814315055116
 20
-156.4714138063683
 10
97.44814315055116
 20
-156.3232747005025
 10
97.44814315055116
 20
-156.3232747005025
 10
97.7313299994387
 20
-156.3084607899159
 10
97.77094859751906
 20
-156.1455077734636
 10
97.79627004933566
 20
-156.0311306033533
 10
97.79627004933566
 20
-156.0311306033533
 10
97.92063799635318
 20
-156.0311306033533
 10
97.92063799635318
 20
-156.0311306033533
 10
97.92063799635318
 20
-156.0311306033533
 10
97.92063799635318
 20
-157.5755669093908
 10
97.92063799635318
 20
-157.5755669093908
 10
97.92063799635318
 20
-157.5755669093908
 10
97.72960745169607
 20
-157.5755669093908
 10
97.72960745169607
 20
-157.5755669093908
 97
        0
 97
        1
330
DC
 75
     2
 76
     1
 98
        1
 10
0.0
 20
0.0
450
        0
451
        0
460
0.0
461
0.0
452
        0
462
0.0
453
        0
470

  0
SPLINE
  5
DE
330
D8
100
AcDbEntity
  8
レイヤー 1
100
AcDbSpline
210
0.0
220
0.0
230
1.0
 70
     9
 71
     3
 72
    17
 73
    13
 74
     0
 42
0.0000000001
 43
0.0000000001
 40
0.0
 40
0.0
 40
0.0
 40
0.0
 40
1.0
 40
1.0
 40
1.0
 40
2.0
 40
2.0
 40
2.0
 40
3.0
 40
3.0
 40
3.0
 40
4.0
 40
4.0
 40
4.0
 40
4.0
 10
98.77278236462972
 20
-156.1751355946368
 30
0.0
 10
98.56004771841554
 20
-156.1751355946368
 30
0.0
 10
98.52042912033518
 20
-156.4586669530728
 30
0.0
 10
98.52042912033518
 20
-156.8035210111463
 30
0.0
 10
98.52042912033518
 20
-157.122881362629
 30
0.0
 10
98.55109047015389
 20
-157.4315619181074
 30
0.0
 10
98.77278236462972
 20
-157.4315619181074
 30
0.0
 10
98.98379446310128
 20
-157.4315619181074
 30
0.0
 10
99.02530786369855
 20
-157.150442126511
 30
0.0
 10
99.02530786369855
 20
-156.8035210111463
 30
0.0
 10
99.02530786369855
 20
-156.4838161501151
 30
0.0
 10
98.99292396613718
 20
-156.1751355946368
 30
0.0
 10
98.77278236462972
 20
-156.1751355946368
 30
0.0
  0
SPLINE
  5
DF
330
D8
100
AcDbEntity
  8
レイヤー 1
100
AcDbSpline
210
0.0
220
0.0
230
1.0
 70
     9
 71
     3
 72
    29
 73
    25
 74
     0
 42
0.0000000001
 43
0.0000000001
 40
0.0
 40
0.0
 40
0.0
 40
0.0
 40
1.0
 40
1.0
 40
1.0
 40
2.0
 40
2.0
 40
2.0
 40
3.0
 40
3.0
 40
3.0
 40
4.0
 40
4.0
 40
4.0
 40
5.0
 40
5.0
 40
5.0
 40
6.0
 40
6.0
 40
6.0
 40
7.0
 40
7.0
 40
7.0
 40
8.0
 40
8.0
 40
8.0
 40
8.0
 10
99.11177976037832
 20
-157.3977999823519
 30
0.0
 10
99.0199679656964
 20
-157.6072617878551
 30
0.0
 10
98.87200111460494
 20
-157.626209813024
 30
0.0
 10
98.77278236462972
 20
-157.626209813024
 30
0.0
 10
98.63583981909105
 20
-157.626209813024
 30
0.0
 10
98.51491696755878
 20
-157.5797010239731
 30
0.0
 10
98.43378496888114
 20
-157.3977999823519
 30
0.0
 10
98.34541826968449
 20
-157.2031520874353
 30
0.0
 10
98.32922632090381
 20
-156.9664740275987
 30
0.0
 10
98.32922632090381
 20
-156.8035210111463
 30
0.0
 10
98.32922632090381
 20
-156.6595160198629
 30
0.0
 10
98.34369572194185
 20
-156.4076795398911
 30
0.0
 10
98.43378496888114
 20
-156.2088975303922
 30
0.0
 10
98.52576901833732
 20
-156.005981406311
 30
0.0
 10
98.66288381865025
 20
-155.9825547570113
 30
0.0
 10
98.77278236462972
 20
-155.9825547570113
 30
0.0
 10
98.90800236242577
 20
-155.9825547570113
 30
0.0
 10
99.03064776170069
 20
-156.026996488771
 30
0.0
 10
99.11177976037832
 20
-156.2088975303922
 30
0.0
 10
99.19652910931546
 20
-156.4014783680177
 30
0.0
 10
99.21651066312991
 20
-156.6298881986897
 30
0.0
 10
99.21651066312991
 20
-156.8035210111463
 30
0.0
 10
99.21651066312991
 20
-156.9747422567633
 30
0.0
 10
99.19842391183236
 20
-157.2052191447264
 30
0.0
 10
99.11177976037832
 20
-157.3977999823519
 30
0.0
  0
HATCH
  5
E0
330
D8
100
AcDbEntity
  8
レイヤー 1
 62
    18
420
        0
440
 33554687
100
AcDbHatch
 10
0.0
 20
0.0
 30
0.0
210
0.0
220
0.0
230
1.0
  2
SOLID
 70
     1
 71
     1
 91
        2
 92
        1
 93
        1
 72
     4
 94
        3
 73
     0
 74
     0
 95
       17
 96
       13
 40
0.0
 40
0.0
 40
0.0
 40
0.0
 40
1.0
 40
1.0
 40
1.0
 40
2.0
 40
2.0
 40
2.0
 40
3.0
 40
3.0
 40
3.0
 40
4.0
 40
4.0
 40
4.0
 40
4.0
 10
98.77278236462972
 20
-156.1751355946368
 10
98.56004771841554
 20
-156.1751355946368
 10
98.52042912033518
 20
-156.4586669530728
 10
98.52042912033518
 20
-156.8035210111463
 10
98.52042912033518
 20
-157.122881362629
 10
98.55109047015389
 20
-157.4315619181074
 10
98.77278236462972
 20
-157.4315619181074
 10
98.98379446310128
 20
-157.4315619181074
 10
99.02530786369855
 20
-157.150442126511
 10
99.02530786369855
 20
-156.8035210111463
 10
99.02530786369855
 20
-156.4838161501151
 10
98.99292396613718
 20
-156.1751355946368
 10
98.77278236462972
 20
-156.1751355946368
 97
        0
 97
        1
330
DE
 92
        1
 93
        1
 72
     4
 94
        3
 73
     0
 74
     0
 95
       29
 96
       25
 40
0.0
 40
0.0
 40
0.0
 40
0.0
 40
1.0
 40
1.0
 40
1.0
 40
2.0
 40
2.0
 40
2.0
 40
3.0
 40
3.0
 40
3.0
 40
4.0
 40
4.0
 40
4.0
 40
5.0
 40
5.0
 40
5.0
 40
6.0
 40
6.0
 40
6.0
 40
7.0
 40
7.0
 40
7.0
 40
8.0
 40
8.0
 40
8.0
 40
8.0
 10
99.11177976037832
 20
-157.3977999823519
 10
99.0199679656964
 20
-157.6072617878551
 10
98.87200111460494
 20
-157.626209813024
 10
98.77278236462972
 20
-157.626209813024
 10
98.63583981909105
 20
-157.626209813024
 10
98.51491696755878
 20
-157.5797010239731
 10
98.43378496888114
 20
-157.3977999823519
 10
98.34541826968449
 20
-157.2031520874353
 10
98.32922632090381
 20
-156.9664740275987
 10
98.32922632090381
 20
-156.8035210111463
 10
98.32922632090381
 20
-156.6595160198629
 10
98.34369572194185
 20
-156.4076795398911
 10
98.43378496888114
 20
-156.2088975303922
 10
98.52576901833732
 20
-156.005981406311
 10
98.66288381865025
 20
-155.9825547570113
 10
98.77278236462972
 20
-155.9825547570113
 10
98.90800236242577
 20
-155.9825547570113
 10
99.03064776170069
 20
-156.026996488771
 10
99.11177976037832
 20
-156.2088975303922
 10
99.19652910931546
 20
-156.4014783680177
 10
99.21651066312991
 20
-156.6298881986897
 10
99.21651066312991
 20
-156.8035210111463
 10
99.21651066312991
 20
-156.9747422567633
 10
99.19842391183236
 20
-157.2052191447264
 10
99.11177976037832
 20
-157.3977999823519
 97
        0
 97
        1
330
DF
 75
     2
 76
     1
 98
        1
 10
0.0
 20
0.0
450
        0
451
        0
460
0.0
461
0.0
452
        0
462
0.0
453
        0
470

  0
ENDBLK
  5
DB
330
D8
100
AcDbEntity
  8
0
100
AcDbBlockEnd
  0
BLOCK
  5
E3
330
E1
100
AcDbEntity
  8
0
100
AcDbBlockBegin
  2
Block_12
 70
     0
 10
0.0
 20
0.0
 30
0.0
  3
Block_12
  1

  0
LINE
  5
E5
330
E1
100
AcDbEntity
  8
レイヤー 1
 62
    18
420
        0
370
     9
100
AcDbLine
 10
124.271683075475
 20
-143.6214160685216
 30
0.0
 11
124.271683075475
 21
-153.1219330483655
 31
0.0
  0
LINE
  5
E6
330
E1
100
AcDbEntity
  8
レイヤー 1
 62
    18
420
        0
370
     9
100
AcDbLine
 10
106.9118418516948
 20
-143.6214160685216
 30
0.0
 11
125.2714199944141
 21
-143.6214160685216
 31
0.0
  0
INSERT
  5
E8
330
E1
100
AcDbEntity
  8
レイヤー 1
100
AcDbBlockReference
  2
Block_13
 10
0.0
 20
0.0
 30
0.0
  0
ENDBLK
  5
E4
330
E1
100
AcDbEntity
  8
0
100
AcDbBlockEnd
  0
BLOCK
  5
E9
330
E7
100
AcDbEntity
  8
0
100
AcDbBlockBegin
  2
Block_13
 70
     0
 10
0.0
 20
0.0
 30
0.0
  3
Block_13
  1

  0
INSERT
  5
EC
330
E7
100
AcDbEntity
  8
レイヤー 1
100
AcDbBlockReference
  2
Block_14
 10
0.0
 20
0.0
 30
0.0
  0
ENDBLK
  5
EA
330
E7
100
AcDbEntity
  8
0
100
AcDbBlockEnd
  0
BLOCK
  5
ED
330
EB
100
AcDbEntity
  8
0
100
AcDbBlockBegin
  2
Block_14
 70
     0
 10
0.0
 20
0.0
 30
0.0
  3
Block_14
  1

  0
SPLINE
  5
EF
330
EB
100
AcDbEntity
  8
レイヤー 1
100
AcDbSpline
210
0.0
220
0.0
230
1.0
 70
     9
 71
     3
 72
    17
 73
    13
 74
     0
 42
0.0000000001
 43
0.0000000001
 40
0.0
 40
0.0
 40
0.0
 40
0.0
 40
1.0
 40
1.0
 40
1.0
 40
2.0
 40
2.0
 40
2.0
 40
3.0
 40
3.0
 40
3.0
 40
4.0
 40
4.0
 40
4.0
 40
4.0
 10
121.6962754687079
 20
-149.1950276319721
 30
0.0
 10
121.6962754687079
 20
-149.2959689296899
 30
0.0
 10
121.753464053763
 20
-149.4458305832982
 30
0.0
 10
122.0390624694902
 20
-149.4458305832982
 30
0.0
 10
122.2654052428711
 20
-149.4458305832982
 30
0.0
 10
122.360489878264
 20
-149.3266302795086
 30
0.0
 10
122.360489878264
 20
-149.2112195807527
 30
0.0
 10
122.360489878264
 20
-148.98763288376
 30
0.0
 10
122.1510280727608
 20
-148.9552489861987
 30
0.0
 10
122.0345838453594
 20
-148.9552489861987
 30
0.0
 10
121.8592284851602
 20
-148.9552489861987
 30
0.0
 10
121.6962754687079
 20
-149.036208730102
 30
0.0
 10
121.6962754687079
 20
-149.1950276319721
 30
0.0
  0
SPLINE
  5
F0
330
EB
100
AcDbEntity
  8
レイヤー 1
100
AcDbSpline
210
0.0
220
0.0
230
1.0
 70
     9
 71
     3
 72
    32
 73
    28
 74
     0
 42
0.0000000001
 43
0.0000000001
 40
0.0
 40
0.0
 40
0.0
 40
0.0
 40
1.0
 40
1.0
 40
1.0
 40
2.0
 40
2.0
 40
2.0
 40
3.0
 40
3.0
 40
3.0
 40
4.0
 40
4.0
 40
4.0
 40
5.0
 40
5.0
 40
5.0
 40
6.0
 40
6.0
 40
6.0
 40
7.0
 40
7.0
 40
7.0
 40
8.0
 40
8.0
 40
8.0
 40
9.0
 40
9.0
 40
9.0
 40
9.0
 10
123.1473496870951
 20
-149.2294785868246
 30
0.0
 10
123.1473496870951
 20
-149.3772731831418
 30
0.0
 10
123.077758758293
 20
-149.5863904790964
 30
0.0
 10
122.745651553515
 20
-149.6187743766578
 30
0.0
 10
122.745651553515
 20
-149.6187743766578
 30
0.0
 10
122.745651553515
 20
-149.4365288254881
 30
0.0
 10
122.745651553515
 20
-149.4365288254881
 30
0.0
 10
122.8049071958613
 20
-149.4275715772264
 30
0.0
 10
122.9527017921785
 20
-149.4006998324415
 30
0.0
 10
122.9527017921785
 20
-149.2274115295334
 30
0.0
 10
122.9527017921785
 20
-148.9786756354984
 30
0.0
 10
122.6226616446915
 20
-148.946291737937
 30
0.0
 10
122.4176784633192
 20
-148.9352674323842
 30
0.0
 10
122.4979491881255
 20
-149.0127820808023
 30
0.0
 10
122.5551377731806
 20
-149.0706596849545
 30
0.0
 10
122.5551377731806
 20
-149.2256889817908
 30
0.0
 10
122.5551377731806
 20
-149.3789957308844
 30
0.0
 10
122.4493733417835
 20
-149.6370333827296
 30
0.0
 10
122.0431965840725
 20
-149.6370333827296
 30
0.0
 10
121.7238362325899
 20
-149.6370333827296
 30
0.0
 10
121.5036946310824
 20
-149.4671901753068
 30
0.0
 10
121.5036946310824
 20
-149.1967501797147
 30
0.0
 10
121.5036946310824
 20
-148.7585340339909
 30
0.0
 10
122.0580104946591
 20
-148.7495767857293
 30
0.0
 10
122.2716064147446
 20
-148.7495767857293
 30
0.0
 10
122.5020833027078
 20
-148.7495767857293
 30
0.0
 10
123.1473496870951
 20
-148.7657687345099
 30
0.0
 10
123.1473496870951
 20
-149.2294785868246
 30
0.0
  0
HATCH
  5
F1
330
EB
100
AcDbEntity
  8
レイヤー 1
 62
    18
420
        0
440
 33554687
100
AcDbHatch
 10
0.0
 20
0.0
 30
0.0
210
0.0
220
0.0
230
1.0
  2
SOLID
 70
     1
 71
     1
 91
        2
 92
        1
 93
        1
 72
     4
 94
        3
 73
     0
 74
     0
 95
       17
 96
       13
 40
0.0
 40
0.0
 40
0.0
 40
0.0
 40
1.0
 40
1.0
 40
1.0
 40
2.0
 40
2.0
 40
2.0
 40
3.0
 40
3.0
 40
3.0
 40
4.0
 40
4.0
 40
4.0
 40
4.0
 10
121.6962754687079
 20
-149.1950276319721
 10
121.6962754687079
 20
-149.2959689296899
 10
121.753464053763
 20
-149.4458305832982
 10
122.0390624694902
 20
-149.4458305832982
 10
122.2654052428711
 20
-149.4458305832982
 10
122.360489878264
 20
-149.3266302795086
 10
122.360489878264
 20
-149.2112195807527
 10
122.360489878264
 20
-148.98763288376
 10
122.1510280727608
 20
-148.9552489861987
 10
122.0345838453594
 20
-148.9552489861987
 10
121.8592284851602
 20
-148.9552489861987
 10
121.6962754687079
 20
-149.036208730102
 10
121.6962754687079
 20
-149.1950276319721
 97
        0
 97
        1
330
EF
 92
        1
 93
        1
 72
     4
 94
        3
 73
     0
 74
     0
 95
       32
 96
       28
 40
0.0
 40
0.0
 40
0.0
 40
0.0
 40
1.0
 40
1.0
 40
1.0
 40
2.0
 40
2.0
 40
2.0
 40
3.0
 40
3.0
 40
3.0
 40
4.0
 40
4.0
 40
4.0
 40
5.0
 40
5.0
 40
5.0
 40
6.0
 40
6.0
 40
6.0
 40
7.0
 40
7.0
 40
7.0
 40
8.0
 40
8.0
 40
8.0
 40
9.0
 40
9.0
 40
9.0
 40
9.0
 10
123.1473496870951
 20
-149.2294785868246
 10
123.1473496870951
 20
-149.3772731831418
 10
123.077758758293
 20
-149.5863904790964
 10
122.745651553515
 20
-149.6187743766578
 10
122.745651553515
 20
-149.6187743766578
 10
122.745651553515
 20
-149.4365288254881
 10
122.745651553515
 20
-149.4365288254881
 10
122.8049071958613
 20
-149.4275715772264
 10
122.9527017921785
 20
-149.4006998324415
 10
122.9527017921785
 20
-149.2274115295334
 10
122.9527017921785
 20
-148.9786756354984
 10
122.6226616446915
 20
-148.946291737937
 10
122.4176784633192
 20
-148.9352674323842
 10
122.4979491881255
 20
-149.0127820808023
 10
122.5551377731806
 20
-149.0706596849545
 10
122.5551377731806
 20
-149.2256889817908
 10
122.5551377731806
 20
-149.3789957308844
 10
122.4493733417835
 20
-149.6370333827296
 10
122.0431965840725
 20
-149.6370333827296
 10
121.7238362325899
 20
-149.6370333827296
 10
121.5036946310824
 20
-149.4671901753068
 10
121.5036946310824
 20
-149.1967501797147
 10
121.5036946310824
 20
-148.7585340339909
 10
122.0580104946591
 20
-148.7495767857293
 10
122.2716064147446
 20
-148.7495767857293
 10
122.5020833027078
 20
-148.7495767857293
 10
123.1473496870951
 20
-148.7657687345099
 10
123.1473496870951
 20
-149.2294785868246
 97
        0
 97
        1
330
F0
 75
     2
 76
     1
 98
        1
 10
0.0
 20
0.0
450
        0
451
        0
460
0.0
461
0.0
452
        0
462
0.0
453
        0
470

  0
SPLINE
  5
F2
330
EB
100
AcDbEntity
  8
レイヤー 1
100
AcDbSpline
210
0.0
220
0.0
230
1.0
 70
    11
 71
     3
 72
    17
 73
    13
 74
     0
 42
0.0000000001
 43
0.0000000001
 40
0.0
 40
0.0
 40
0.0
 40
0.0
 40
1.0
 40
1.0
 40
1.0
 40
2.0
 40
2.0
 40
2.0
 40
3.0
 40
3.0
 40
3.0
 40
4.0
 40
4.0
 40
4.0
 40
4.0
 10
123.0967067834619
 20
-148.5666422154625
 30
0.0
 10
123.0967067834619
 20
-148.5666422154625
 30
0.0
 10
122.8448703034902
 20
-148.5666422154625
 30
0.0
 10
122.8448703034902
 20
-148.5666422154625
 30
0.0
 10
122.8448703034902
 20
-148.5666422154625
 30
0.0
 10
122.8448703034902
 20
-148.3520127667314
 30
0.0
 10
122.8448703034902
 20
-148.3520127667314
 30
0.0
 10
122.8448703034902
 20
-148.3520127667314
 30
0.0
 10
123.0967067834619
 20
-148.3520127667314
 30
0.0
 10
123.0967067834619
 20
-148.3520127667314
 30
0.0
 10
123.0967067834619
 20
-148.3520127667314
 30
0.0
 10
123.0967067834619
 20
-148.5666422154625
 30
0.0
 10
123.0967067834619
 20
-148.5666422154625
 30
0.0
  0
HATCH
  5
F3
330
EB
100
AcDbEntity
  8
レイヤー 1
 62
    18
420
        0
440
 33554687
100
AcDbHatch
 10
0.0
 20
0.0
 30
0.0
210
0.0
220
0.0
230
1.0
  2
SOLID
 70
     1
 71
     1
 91
        1
 92
        1
 93
        1
 72
     4
 94
        3
 73
     0
 74
     0
 95
       17
 96
       13
 40
0.0
 40
0.0
 40
0.0
 40
0.0
 40
1.0
 40
1.0
 40
1.0
 40
2.0
 40
2.0
 40
2.0
 40
3.0
 40
3.0
 40
3.0
 40
4.0
 40
4.0
 40
4.0
 40
4.0
 10
123.0967067834619
 20
-148.5666422154625
 10
123.0967067834619
 20
-148.5666422154625
 10
122.8448703034902
 20
-148.5666422154625
 10
122.8448703034902
 20
-148.5666422154625
 10
122.8448703034902
 20
-148.5666422154625
 10
122.8448703034902
 20
-148.3520127667314
 10
122.8448703034902
 20
-148.3520127667314
 10
122.8448703034902
 20
-148.3520127667314
 10
123.0967067834619
 20
-148.3520127667314
 10
123.0967067834619
 20
-148.3520127667314
 10
123.0967067834619
 20
-148.3520127667314
 10
123.0967067834619
 20
-148.5666422154625
 10
123.0967067834619
 20
-148.5666422154625
 97
        0
 97
        1
330
F2
 75
     2
 76
     1
 98
        1
 10
0.0
 20
0.0
450
        0
451
        0
460
0.0
461
0.0
452
        0
462
0.0
453
        0
470

  0
SPLINE
  5
F4
330
EB
100
AcDbEntity
  8
レイヤー 1
100
AcDbSpline
210
0.0
220
0.0
230
1.0
 70
     9
 71
     3
 72
    53
 73
    49
 74
     0
 42
0.0000000001
 43
0.0000000001
 40
0.0
 40
0.0
 40
0.0
 40
0.0
 40
1.0
 40
1.0
 40
1.0
 40
2.0
 40
2.0
 40
2.0
 40
3.0
 40
3.0
 40
3.0
 40
4.0
 40
4.0
 40
4.0
 40
5.0
 40
5.0
 40
5.0
 40
6.0
 40
6.0
 40
6.0
 40
7.0
 40
7.0
 40
7.0
 40
8.0
 40
8.0
 40
8.0
 40
9.0
 40
9.0
 40
9.0
 40
10.0
 40
10.0
 40
10.0
 40
11.0
 40
11.0
 40
11.0
 40
12.0
 40
12.0
 40
12.0
 40
13.0
 40
13.0
 40
13.0
 40
14.0
 40
14.0
 40
14.0
 40
15.0
 40
15.0
 40
15.0
 40
16.0
 40
16.0
 40
16.0
 40
16.0
 10
123.1473496870951
 20
-147.7408528276481
 30
0.0
 10
123.1473496870951
 20
-147.807687680062
 30
0.0
 10
123.1304687192174
 20
-147.8941595767417
 30
0.0
 10
123.0670789622888
 20
-147.9806314734215
 30
0.0
 10
122.9571804163093
 20
-148.1284260697387
 30
0.0
 10
122.8259222783213
 20
-148.1466850758105
 30
0.0
 10
122.718090789633
 20
-148.1628770245912
 30
0.0
 10
122.718090789633
 20
-148.1628770245912
 30
0.0
 10
122.718090789633
 20
-147.9733967729025
 30
0.0
 10
122.718090789633
 20
-147.9733967729025
 30
0.0
 10
122.9168727991319
 20
-147.9265434743031
 30
0.0
 10
122.946500620305
 20
-147.8183674760662
 30
0.0
 10
122.946500620305
 20
-147.7391302799055
 30
0.0
 10
122.946500620305
 20
-147.6199299761158
 30
0.0
 10
122.8469373607813
 20
-147.4900498763219
 30
0.0
 10
122.6143934155269
 20
-147.4900498763219
 30
0.0
 10
122.3584228209729
 20
-147.4900498763219
 30
0.0
 10
122.2884873826223
 20
-147.6433566254155
 30
0.0
 10
122.2884873826223
 20
-147.7463649804245
 30
0.0
 10
122.2884873826223
 20
-147.7732367252095
 30
0.0
 10
122.2884873826223
 20
-147.8941595767417
 30
0.0
 10
122.4176784633192
 20
-147.9699516774172
 30
0.0
 10
122.4176784633192
 20
-147.9699516774172
 30
0.0
 10
122.3987304381503
 20
-148.1194688214771
 30
0.0
 10
122.3987304381503
 20
-148.1194688214771
 30
0.0
 10
122.3987304381503
 20
-148.1194688214771
 30
0.0
 10
121.5522704774244
 20
-148.0168049760166
 30
0.0
 10
121.5522704774244
 20
-148.0168049760166
 30
0.0
 10
121.5522704774244
 20
-148.0168049760166
 30
0.0
 10
121.5522704774244
 20
-147.3532795855575
 30
0.0
 10
121.5522704774244
 20
-147.3532795855575
 30
0.0
 10
121.5522704774244
 20
-147.3532795855575
 30
0.0
 10
121.746918372341
 20
-147.3532795855575
 30
0.0
 10
121.746918372341
 20
-147.3532795855575
 30
0.0
 10
121.746918372341
 20
-147.3532795855575
 30
0.0
 10
121.746918372341
 20
-147.8779676279611
 30
0.0
 10
121.746918372341
 20
-147.8779676279611
 30
0.0
 10
121.746918372341
 20
-147.8779676279611
 30
0.0
 10
122.1699760979297
 20
-147.9337781748221
 30
0.0
 10
122.1699760979297
 20
-147.9337781748221
 30
0.0
 10
122.1362141621743
 20
-147.8814127234463
 30
0.0
 10
122.0959065449968
 20
-147.8111327755472
 30
0.0
 10
122.0959065449968
 20
-147.7101914778294
 30
0.0
 10
122.0959065449968
 20
-147.4938394813557
 30
0.0
 10
122.2822862107489
 20
-147.2919568859201
 30
0.0
 10
122.5954453903581
 20
-147.2919568859201
 30
0.0
 10
122.9127386845496
 20
-147.2919568859201
 30
0.0
 10
123.1473496870951
 20
-147.4828151758029
 30
0.0
 10
123.1473496870951
 20
-147.7408528276481
 30
0.0
  0
HATCH
  5
F5
330
EB
100
AcDbEntity
  8
レイヤー 1
 62
    18
420
        0
440
 33554687
100
AcDbHatch
 10
0.0
 20
0.0
 30
0.0
210
0.0
220
0.0
230
1.0
  2
SOLID
 70
     1
 71
     1
 91
        1
 92
        1
 93
        1
 72
     4
 94
        3
 73
     0
 74
     0
 95
       53
 96
       49
 40
0.0
 40
0.0
 40
0.0
 40
0.0
 40
1.0
 40
1.0
 40
1.0
 40
2.0
 40
2.0
 40
2.0
 40
3.0
 40
3.0
 40
3.0
 40
4.0
 40
4.0
 40
4.0
 40
5.0
 40
5.0
 40
5.0
 40
6.0
 40
6.0
 40
6.0
 40
7.0
 40
7.0
 40
7.0
 40
8.0
 40
8.0
 40
8.0
 40
9.0
 40
9.0
 40
9.0
 40
10.0
 40
10.0
 40
10.0
 40
11.0
 40
11.0
 40
11.0
 40
12.0
 40
12.0
 40
12.0
 40
13.0
 40
13.0
 40
13.0
 40
14.0
 40
14.0
 40
14.0
 40
15.0
 40
15.0
 40
15.0
 40
16.0
 40
16.0
 40
16.0
 40
16.0
 10
123.1473496870951
 20
-147.7408528276481
 10
123.1473496870951
 20
-147.807687680062
 10
123.1304687192174
 20
-147.8941595767417
 10
123.0670789622888
 20
-147.9806314734215
 10
122.9571804163093
 20
-148.1284260697387
 10
122.8259222783213
 20
-148.1466850758105
 10
122.718090789633
 20
-148.1628770245912
 10
122.718090789633
 20
-148.1628770245912
 10
122.718090789633
 20
-147.9733967729025
 10
122.718090789633
 20
-147.9733967729025
 10
122.9168727991319
 20
-147.9265434743031
 10
122.946500620305
 20
-147.8183674760662
 10
122.946500620305
 20
-147.7391302799055
 10
122.946500620305
 20
-147.6199299761158
 10
122.8469373607813
 20
-147.4900498763219
 10
122.6143934155269
 20
-147.4900498763219
 10
122.3584228209729
 20
-147.4900498763219
 10
122.2884873826223
 20
-147.6433566254155
 10
122.2884873826223
 20
-147.7463649804245
 10
122.2884873826223
 20
-147.7732367252095
 10
122.2884873826223
 20
-147.8941595767417
 10
122.4176784633192
 20
-147.9699516774172
 10
122.4176784633192
 20
-147.9699516774172
 10
122.3987304381503
 20
-148.1194688214771
 10
122.3987304381503
 20
-148.1194688214771
 10
122.3987304381503
 20
-148.1194688214771
 10
121.5522704774244
 20
-148.0168049760166
 10
121.5522704774244
 20
-148.0168049760166
 10
121.5522704774244
 20
-148.0168049760166
 10
121.5522704774244
 20
-147.3532795855575
 10
121.5522704774244
 20
-147.3532795855575
 10
121.5522704774244
 20
-147.3532795855575
 10
121.746918372341
 20
-147.3532795855575
 10
121.746918372341
 20
-147.3532795855575
 10
121.746918372341
 20
-147.3532795855575
 10
121.746918372341
 20
-147.8779676279611
 10
121.746918372341
 20
-147.8779676279611
 10
121.746918372341
 20
-147.8779676279611
 10
122.1699760979297
 20
-147.9337781748221
 10
122.1699760979297
 20
-147.9337781748221
 10
122.1362141621743
 20
-147.8814127234463
 10
122.0959065449968
 20
-147.8111327755472
 10
122.0959065449968
 20
-147.7101914778294
 10
122.0959065449968
 20
-147.4938394813557
 10
122.2822862107489
 20
-147.2919568859201
 10
122.5954453903581
 20
-147.2919568859201
 10
122.9127386845496
 20
-147.2919568859201
 10
123.1473496870951
 20
-147.4828151758029
 10
123.1473496870951
 20
-147.7408528276481
 97
        0
 97
        1
330
F4
 75
     2
 76
     1
 98
        1
 10
0.0
 20
0.0
450
        0
451
        0
460
0.0
461
0.0
452
        0
462
0.0
453
        0
470

  0
ENDBLK
  5
EE
330
EB
100
AcDbEntity
  8
0
100
AcDbBlockEnd
  0
BLOCK
  5
F8
330
F6
100
AcDbEntity
  8
0
100
AcDbBlockBegin
  2
Block_15
 70
     0
 10
0.0
 20
0.0
 30
0.0
  3
Block_15
  1

  0
INSERT
  5
FB
330
F6
100
AcDbEntity
  8
レイヤー 1
100
AcDbBlockReference
  2
Block_16
 10
0.0
 20
0.0
 30
0.0
  0
ENDBLK
  5
F9
330
F6
100
AcDbEntity
  8
0
100
AcDbBlockEnd
  0
BLOCK
  5
FC
330
FA
100
AcDbEntity
  8
0
100
AcDbBlockBegin
  2
Block_16
 70
     0
 10
0.0
 20
0.0
 30
0.0
  3
Block_16
  1

  0
SPLINE
  5
FE
330
FA
100
AcDbEntity
  8
レイヤー 1
100
AcDbSpline
210
0.0
220
0.0
230
1.0
 70
     9
 71
     3
 72
    59
 73
    55
 74
     0
 42
0.0000000001
 43
0.0000000001
 40
0.0
 40
0.0
 40
0.0
 40
0.0
 40
1.0
 40
1.0
 40
1.0
 40
2.0
 40
2.0
 40
2.0
 40
3.0
 40
3.0
 40
3.0
 40
4.0
 40
4.0
 40
4.0
 40
5.0
 40
5.0
 40
5.0
 40
6.0
 40
6.0
 40
6.0
 40
7.0
 40
7.0
 40
7.0
 40
8.0
 40
8.0
 40
8.0
 40
9.0
 40
9.0
 40
9.0
 40
10.0
 40
10.0
 40
10.0
 40
11.0
 40
11.0
 40
11.0
 40
12.0
 40
12.0
 40
12.0
 40
13.0
 40
13.0
 40
13.0
 40
14.0
 40
14.0
 40
14.0
 40
15.0
 40
15.0
 40
15.0
 40
16.0
 40
16.0
 40
16.0
 40
17.0
 40
17.0
 40
17.0
 40
18.0
 40
18.0
 40
18.0
 40
18.0
 10
93.66835663890929
 20
-146.7403970987315
 30
0.0
 10
93.52590194059422
 20
-147.2270168360231
 30
0.0
 10
93.31316729438006
 20
-147.7494655663612
 30
0.0
 10
92.80277639824028
 20
-148.0667588605527
 30
0.0
 10
92.80277639824028
 20
-148.0667588605527
 30
0.0
 10
92.6424072034019
 20
-147.9144856401047
 30
0.0
 10
92.6424072034019
 20
-147.9144856401047
 30
0.0
 10
92.77934974894058
 20
-147.8447224565284
 30
0.0
 10
92.98863929966952
 20
-147.7346516557747
 30
0.0
 10
93.20309649362632
 20
-147.4046115082877
 30
0.0
 10
93.40515134383622
 20
-147.0916245834528
 30
0.0
 10
93.4538994449525
 20
-146.8356539888987
 30
0.0
 10
93.4773260942522
 20
-146.7087022202672
 30
0.0
 10
93.4773260942522
 20
-146.7087022202672
 30
0.0
 10
92.92542179751517
 20
-146.7087022202672
 30
0.0
 10
92.92542179751517
 20
-146.7087022202672
 30
0.0
 10
92.83705509831852
 20
-146.8694159246542
 30
0.0
 10
92.73439125285808
 20
-147.0365030556888
 30
0.0
 10
92.57023245298592
 20
-147.20789655608
 30
0.0
 10
92.57023245298592
 20
-147.20789655608
 30
0.0
 10
92.42226560189443
 20
-147.085251156805
 30
0.0
 10
92.42226560189443
 20
-147.085251156805
 30
0.0
 10
92.47290850552762
 20
-147.0387423677542
 30
0.0
 10
92.59899900028775
 20
-146.9266045097093
 30
0.0
 10
92.7397311508602
 20
-146.677007341803
 30
0.0
 10
92.80467120075718
 20
-146.5584960571104
 30
0.0
 10
92.89303789995383
 20
-146.3891696140103
 30
0.0
 10
92.91456974673664
 20
-146.2665242147354
 30
0.0
 10
92.91456974673664
 20
-146.2665242147354
 30
0.0
 10
93.11128469894439
 20
-146.367982276776
 30
0.0
 10
93.11128469894439
 20
-146.367982276776
 30
0.0
 10
93.12385929746557
 20
-146.3743557034238
 30
0.0
 10
93.13643389598672
 20
-146.3827961873626
 30
0.0
 10
93.13643389598672
 20
-146.3976100979492
 30
0.0
 10
93.13643389598672
 20
-146.4187974351835
 30
0.0
 10
93.11472979442966
 20
-146.4315442884789
 30
0.0
 10
93.1076673486849
 20
-146.4336113457701
 30
0.0
 10
93.08406844461094
 20
-146.4420518297089
 30
0.0
 10
93.07700599886617
 20
-146.4399847724178
 30
0.0
 10
93.05530189730909
 20
-146.4653062242344
 30
0.0
 10
93.03359779575201
 20
-146.4907999308252
 30
0.0
 10
93.0354925982689
 20
-146.4992404147641
 30
0.0
 10
93.00844859870968
 20
-146.5521226304626
 30
0.0
 10
93.00844859870968
 20
-146.5521226304626
 30
0.0
 10
93.29335799533986
 20
-146.5521226304626
 30
0.0
 10
93.29335799533986
 20
-146.5521226304626
 30
0.0
 10
93.51160479433044
 20
-146.5521226304626
 30
0.0
 10
93.53864879388964
 20
-146.5393757771672
 30
0.0
 10
93.58722464023166
 20
-146.5097479559941
 30
0.0
 10
93.58722464023166
 20
-146.5097479559941
 30
0.0
 10
93.72072209028511
 20
-146.6747680297376
 30
0.0
 10
93.72072209028511
 20
-146.6747680297376
 30
0.0
 10
93.691783288209
 20
-146.7107692775584
 30
0.0
 10
93.69006074046637
 20
-146.7128363348496
 30
0.0
 10
93.66835663890929
 20
-146.7403970987315
 30
0.0
  0
HATCH
  5
FF
330
FA
100
AcDbEntity
  8
レイヤー 1
 62
   250
420
  2299925
440
 33554687
100
AcDbHatch
 10
0.0
 20
0.0
 30
0.0
210
0.0
220
0.0
230
1.0
  2
SOLID
 70
     1
 71
     1
 91
        1
 92
        1
 93
        1
 72
     4
 94
        3
 73
     0
 74
     0
 95
       59
 96
       55
 40
0.0
 40
0.0
 40
0.0
 40
0.0
 40
1.0
 40
1.0
 40
1.0
 40
2.0
 40
2.0
 40
2.0
 40
3.0
 40
3.0
 40
3.0
 40
4.0
 40
4.0
 40
4.0
 40
5.0
 40
5.0
 40
5.0
 40
6.0
 40
6.0
 40
6.0
 40
7.0
 40
7.0
 40
7.0
 40
8.0
 40
8.0
 40
8.0
 40
9.0
 40
9.0
 40
9.0
 40
10.0
 40
10.0
 40
10.0
 40
11.0
 40
11.0
 40
11.0
 40
12.0
 40
12.0
 40
12.0
 40
13.0
 40
13.0
 40
13.0
 40
14.0
 40
14.0
 40
14.0
 40
15.0
 40
15.0
 40
15.0
 40
16.0
 40
16.0
 40
16.0
 40
17.0
 40
17.0
 40
17.0
 40
18.0
 40
18.0
 40
18.0
 40
18.0
 10
93.66835663890929
 20
-146.7403970987315
 10
93.52590194059422
 20
-147.2270168360231
 10
93.31316729438006
 20
-147.7494655663612
 10
92.80277639824028
 20
-148.0667588605527
 10
92.80277639824028
 20
-148.0667588605527
 10
92.6424072034019
 20
-147.9144856401047
 10
92.6424072034019
 20
-147.9144856401047
 10
92.77934974894058
 20
-147.8447224565284
 10
92.98863929966952
 20
-147.7346516557747
 10
93.20309649362632
 20
-147.4046115082877
 10
93.40515134383622
 20
-147.0916245834528
 10
93.4538994449525
 20
-146.8356539888987
 10
93.4773260942522
 20
-146.7087022202672
 10
93.4773260942522
 20
-146.7087022202672
 10
92.92542179751517
 20
-146.7087022202672
 10
92.92542179751517
 20
-146.7087022202672
 10
92.83705509831852
 20
-146.8694159246542
 10
92.73439125285808
 20
-147.0365030556888
 10
92.57023245298592
 20
-147.20789655608
 10
92.57023245298592
 20
-147.20789655608
 10
92.42226560189443
 20
-147.085251156805
 10
92.42226560189443
 20
-147.085251156805
 10
92.47290850552762
 20
-147.0387423677542
 10
92.59899900028775
 20
-146.9266045097093
 10
92.7397311508602
 20
-146.677007341803
 10
92.80467120075718
 20
-146.5584960571104
 10
92.89303789995383
 20
-146.3891696140103
 10
92.91456974673664
 20
-146.2665242147354
 10
92.91456974673664
 20
-146.2665242147354
 10
93.11128469894439
 20
-146.367982276776
 10
93.11128469894439
 20
-146.367982276776
 10
93.12385929746557
 20
-146.3743557034238
 10
93.13643389598672
 20
-146.3827961873626
 10
93.13643389598672
 20
-146.3976100979492
 10
93.13643389598672
 20
-146.4187974351835
 10
93.11472979442966
 20
-146.4315442884789
 10
93.1076673486849
 20
-146.4336113457701
 10
93.08406844461094
 20
-146.4420518297089
 10
93.07700599886617
 20
-146.4399847724178
 10
93.05530189730909
 20
-146.4653062242344
 10
93.03359779575201
 20
-146.4907999308252
 10
93.0354925982689
 20
-146.4992404147641
 10
93.00844859870968
 20
-146.5521226304626
 10
93.00844859870968
 20
-146.5521226304626
 10
93.29335799533986
 20
-146.5521226304626
 10
93.29335799533986
 20
-146.5521226304626
 10
93.51160479433044
 20
-146.5521226304626
 10
93.53864879388964
 20
-146.5393757771672
 10
93.58722464023166
 20
-146.5097479559941
 10
93.58722464023166
 20
-146.5097479559941
 10
93.72072209028511
 20
-146.6747680297376
 10
93.72072209028511
 20
-146.6747680297376
 10
93.691783288209
 20
-146.7107692775584
 10
93.69006074046637
 20
-146.7128363348496
 10
93.66835663890929
 20
-146.7403970987315
 97
        0
 97
        1
330
FE
 75
     2
 76
     1
 98
        1
 10
0.0
 20
0.0
450
        0
451
        0
460
0.0
461
0.0
452
        0
462
0.0
453
        0
470

  0
SPLINE
  5
100
330
FA
100
AcDbEntity
  8
レイヤー 1
100
AcDbSpline
210
0.0
220
0.0
230
1.0
 70
    11
 71
     3
 72
    17
 73
    13
 74
     0
 42
0.0000000001
 43
0.0000000001
 40
0.0
 40
0.0
 40
0.0
 40
0.0
 40
1.0
 40
1.0
 40
1.0
 40
2.0
 40
2.0
 40
2.0
 40
3.0
 40
3.0
 40
3.0
 40
4.0
 40
4.0
 40
4.0
 40
4.0
 10
95.06637638682368
 20
-146.6494465779209
 30
0.0
 10
95.06637638682368
 20
-146.6494465779209
 30
0.0
 10
94.17909204459759
 20
-146.6494465779209
 30
0.0
 10
94.17909204459759
 20
-146.6494465779209
 30
0.0
 10
94.17909204459759
 20
-146.6494465779209
 30
0.0
 10
94.17909204459759
 20
-147.5379367035669
 30
0.0
 10
94.17909204459759
 20
-147.5379367035669
 30
0.0
 10
94.17909204459759
 20
-147.5379367035669
 30
0.0
 10
95.06637638682368
 20
-147.5379367035669
 30
0.0
 10
95.06637638682368
 20
-147.5379367035669
 30
0.0
 10
95.06637638682368
 20
-147.5379367035669
 30
0.0
 10
95.06637638682368
 20
-146.6494465779209
 30
0.0
 10
95.06637638682368
 20
-146.6494465779209
 30
0.0
  0
SPLINE
  5
101
330
FA
100
AcDbEntity
  8
レイヤー 1
100
AcDbSpline
210
0.0
220
0.0
230
1.0
 70
     9
 71
     3
 72
    53
 73
    49
 74
     0
 42
0.0000000001
 43
0.0000000001
 40
0.0
 40
0.0
 40
0.0
 40
0.0
 40
1.0
 40
1.0
 40
1.0
 40
2.0
 40
2.0
 40
2.0
 40
3.0
 40
3.0
 40
3.0
 40
4.0
 40
4.0
 40
4.0
 40
5.0
 40
5.0
 40
5.0
 40
6.0
 40
6.0
 40
6.0
 40
7.0
 40
7.0
 40
7.0
 40
8.0
 40
8.0
 40
8.0
 40
9.0
 40
9.0
 40
9.0
 40
10.0
 40
10.0
 40
10.0
 40
11.0
 40
11.0
 40
11.0
 40
12.0
 40
12.0
 40
12.0
 40
13.0
 40
13.0
 40
13.0
 40
14.0
 40
14.0
 40
14.0
 40
15.0
 40
15.0
 40
15.0
 40
16.0
 40
16.0
 40
16.0
 40
16.0
 10
95.0465670877835
 20
-147.8531629404673
 30
0.0
 10
95.05380178830252
 20
-147.8087212087075
 30
0.0
 10
95.05380178830252
 20
-147.8002807247687
 30
0.0
 10
95.05914168630466
 20
-147.7262111718358
 30
0.0
 10
95.05914168630466
 20
-147.7262111718358
 30
0.0
 10
94.18098684711448
 20
-147.7262111718358
 30
0.0
 10
94.18098684711448
 20
-147.7262111718358
 30
0.0
 10
94.18098684711448
 20
-147.7579060503001
 30
0.0
 10
94.18098684711448
 20
-147.8130275780641
 30
0.0
 10
94.18460419737398
 20
-147.8488565711107
 30
0.0
 10
94.18460419737398
 20
-147.8488565711107
 30
0.0
 10
93.97893199690457
 20
-147.8488565711107
 30
0.0
 10
93.97893199690457
 20
-147.8488565711107
 30
0.0
 10
93.98444414968098
 20
-147.793907298121
 30
0.0
 10
93.99340139794261
 20
-147.7029567773104
 30
0.0
 10
93.99340139794261
 20
-147.5739379513877
 30
0.0
 10
93.99529620045951
 20
-147.3687825152411
 30
0.0
 10
93.99529620045951
 20
-147.3453558659414
 30
0.0
 10
93.99529620045951
 20
-147.322101471416
 30
0.0
 10
93.99529620045951
 20
-147.322101471416
 30
0.0
 10
93.99529620045951
 20
-146.8821627779496
 30
0.0
 10
93.99529620045951
 20
-146.8821627779496
 30
0.0
 10
93.99529620045951
 20
-146.8165337089556
 30
0.0
 10
93.98978404768312
 20
-146.4928669881163
 30
0.0
 10
93.98616669742359
 20
-146.4379177151266
 30
0.0
 10
94.09262014791783
 20
-146.4504923136478
 30
0.0
 10
94.31810164742742
 20
-146.4547986830043
 30
0.0
 10
94.42989499592377
 20
-146.4547986830043
 30
0.0
 10
94.42989499592377
 20
-146.4547986830043
 30
0.0
 10
94.81746823801438
 20
-146.4547986830043
 30
0.0
 10
94.81746823801438
 20
-146.4547986830043
 30
0.0
 10
94.94562579006567
 20
-146.4547986830043
 30
0.0
 10
95.13665633472278
 20
-146.4527316257132
 30
0.0
 10
95.26119653651456
 20
-146.4442911417743
 30
0.0
 10
95.25396183599553
 20
-146.5541896877538
 30
0.0
 10
95.25034448573604
 20
-146.8037868556602
 30
0.0
 10
95.25034448573604
 20
-146.9222981403528
 30
0.0
 10
95.25034448573604
 20
-146.9222981403528
 30
0.0
 10
95.25034448573604
 20
-147.3412217513591
 30
0.0
 10
95.25034448573604
 20
-147.3412217513591
 30
0.0
 10
95.25034448573604
 20
-147.3835964258277
 30
0.0
 10
95.25568438373817
 20
-147.5654974674489
 30
0.0
 10
95.25568438373817
 20
-147.6035657725609
 30
0.0
 10
95.25757918625506
 20
-147.7537719357178
 30
0.0
 10
95.26481388677408
 20
-147.804414839351
 30
0.0
 10
95.2720485872931
 20
-147.8531629404673
 30
0.0
 10
95.2720485872931
 20
-147.8531629404673
 30
0.0
 10
95.0465670877835
 20
-147.8531629404673
 30
0.0
 10
95.0465670877835
 20
-147.8531629404673
 30
0.0
  0
HATCH
  5
102
330
FA
100
AcDbEntity
  8
レイヤー 1
 62
   250
420
  2299925
440
 33554687
100
AcDbHatch
 10
0.0
 20
0.0
 30
0.0
210
0.0
220
0.0
230
1.0
  2
SOLID
 70
     1
 71
     1
 91
        2
 92
        1
 93
        1
 72
     4
 94
        3
 73
     0
 74
     0
 95
       17
 96
       13
 40
0.0
 40
0.0
 40
0.0
 40
0.0
 40
1.0
 40
1.0
 40
1.0
 40
2.0
 40
2.0
 40
2.0
 40
3.0
 40
3.0
 40
3.0
 40
4.0
 40
4.0
 40
4.0
 40
4.0
 10
95.06637638682368
 20
-146.6494465779209
 10
95.06637638682368
 20
-146.6494465779209
 10
94.17909204459759
 20
-146.6494465779209
 10
94.17909204459759
 20
-146.6494465779209
 10
94.17909204459759
 20
-146.6494465779209
 10
94.17909204459759
 20
-147.5379367035669
 10
94.17909204459759
 20
-147.5379367035669
 10
94.17909204459759
 20
-147.5379367035669
 10
95.06637638682368
 20
-147.5379367035669
 10
95.06637638682368
 20
-147.5379367035669
 10
95.06637638682368
 20
-147.5379367035669
 10
95.06637638682368
 20
-146.6494465779209
 10
95.06637638682368
 20
-146.6494465779209
 97
        0
 97
        1
330
100
 92
        1
 93
        1
 72
     4
 94
        3
 73
     0
 74
     0
 95
       53
 96
       49
 40
0.0
 40
0.0
 40
0.0
 40
0.0
 40
1.0
 40
1.0
 40
1.0
 40
2.0
 40
2.0
 40
2.0
 40
3.0
 40
3.0
 40
3.0
 40
4.0
 40
4.0
 40
4.0
 40
5.0
 40
5.0
 40
5.0
 40
6.0
 40
6.0
 40
6.0
 40
7.0
 40
7.0
 40
7.0
 40
8.0
 40
8.0
 40
8.0
 40
9.0
 40
9.0
 40
9.0
 40
10.0
 40
10.0
 40
10.0
 40
11.0
 40
11.0
 40
11.0
 40
12.0
 40
12.0
 40
12.0
 40
13.0
 40
13.0
 40
13.0
 40
14.0
 40
14.0
 40
14.0
 40
15.0
 40
15.0
 40
15.0
 40
16.0
 40
16.0
 40
16.0
 40
16.0
 10
95.0465670877835
 20
-147.8531629404673
 10
95.05380178830252
 20
-147.8087212087075
 10
95.05380178830252
 20
-147.8002807247687
 10
95.05914168630466
 20
-147.7262111718358
 10
95.05914168630466
 20
-147.7262111718358
 10
94.18098684711448
 20
-147.7262111718358
 10
94.18098684711448
 20
-147.7262111718358
 10
94.18098684711448
 20
-147.7579060503001
 10
94.18098684711448
 20
-147.8130275780641
 10
94.18460419737398
 20
-147.8488565711107
 10
94.18460419737398
 20
-147.8488565711107
 10
93.97893199690457
 20
-147.8488565711107
 10
93.97893199690457
 20
-147.8488565711107
 10
93.98444414968098
 20
-147.793907298121
 10
93.99340139794261
 20
-147.7029567773104
 10
93.99340139794261
 20
-147.5739379513877
 10
93.99529620045951
 20
-147.3687825152411
 10
93.99529620045951
 20
-147.3453558659414
 10
93.99529620045951
 20
-147.322101471416
 10
93.99529620045951
 20
-147.322101471416
 10
93.99529620045951
 20
-146.8821627779496
 10
93.99529620045951
 20
-146.8821627779496
 10
93.99529620045951
 20
-146.8165337089556
 10
93.98978404768312
 20
-146.4928669881163
 10
93.98616669742359
 20
-146.4379177151266
 10
94.09262014791783
 20
-146.4504923136478
 10
94.31810164742742
 20
-146.4547986830043
 10
94.42989499592377
 20
-146.4547986830043
 10
94.42989499592377
 20
-146.4547986830043
 10
94.81746823801438
 20
-146.4547986830043
 10
94.81746823801438
 20
-146.4547986830043
 10
94.94562579006567
 20
-146.4547986830043
 10
95.13665633472278
 20
-146.4527316257132
 10
95.26119653651456
 20
-146.4442911417743
 10
95.25396183599553
 20
-146.5541896877538
 10
95.25034448573604
 20
-146.8037868556602
 10
95.25034448573604
 20
-146.9222981403528
 10
95.25034448573604
 20
-146.9222981403528
 10
95.25034448573604
 20
-147.3412217513591
 10
95.25034448573604
 20
-147.3412217513591
 10
95.25034448573604
 20
-147.3835964258277
 10
95.25568438373817
 20
-147.5654974674489
 10
95.25568438373817
 20
-147.6035657725609
 10
95.25757918625506
 20
-147.7537719357178
 10
95.26481388677408
 20
-147.804414839351
 10
95.2720485872931
 20
-147.8531629404673
 10
95.2720485872931
 20
-147.8531629404673
 10
95.0465670877835
 20
-147.8531629404673
 10
95.0465670877835
 20
-147.8531629404673
 97
        0
 97
        1
330
101
 75
     2
 76
     1
 98
        1
 10
0.0
 20
0.0
450
        0
451
        0
460
0.0
461
0.0
452
        0
462
0.0
453
        0
470

  0
SPLINE
  5
103
330
FA
100
AcDbEntity
  8
レイヤー 1
100
AcDbSpline
210
0.0
220
0.0
230
1.0
 70
     9
 71
     3
 72
    56
 73
    52
 74
     0
 42
0.0000000001
 43
0.0000000001
 40
0.0
 40
0.0
 40
0.0
 40
0.0
 40
1.0
 40
1.0
 40
1.0
 40
2.0
 40
2.0
 40
2.0
 40
3.0
 40
3.0
 40
3.0
 40
4.0
 40
4.0
 40
4.0
 40
5.0
 40
5.0
 40
5.0
 40
6.0
 40
6.0
 40
6.0
 40
7.0
 40
7.0
 40
7.0
 40
8.0
 40
8.0
 40
8.0
 40
9.0
 40
9.0
 40
9.0
 40
10.0
 40
10.0
 40
10.0
 40
11.0
 40
11.0
 40
11.0
 40
12.0
 40
12.0
 40
12.0
 40
13.0
 40
13.0
 40
13.0
 40
14.0
 40
14.0
 40
14.0
 40
15.0
 40
15.0
 40
15.0
 40
16.0
 40
16.0
 40
16.0
 40
17.0
 40
17.0
 40
17.0
 40
17.0
 10
96.75843503440415
 20
-147.9187920094612
 30
0.0
 10
96.59444848930625
 20
-147.6099391992086
 30
0.0
 10
96.37430688779879
 20
-147.4046115082877
 30
0.0
 10
96.29679223938067
 20
-147.339154694068
 30
0.0
 10
96.04616154282874
 20
-147.6776353254938
 30
0.0
 10
95.79914819653632
 20
-147.8299085459418
 30
0.0
 10
95.62964949866204
 20
-147.9229261240436
 30
0.0
 10
95.62964949866204
 20
-147.9229261240436
 30
0.0
 10
95.49442950086598
 20
-147.7346516557747
 30
0.0
 10
95.49442950086598
 20
-147.7346516557747
 30
0.0
 10
95.58279620006265
 20
-147.6986504079538
 30
0.0
 10
95.7648694964581
 20
-147.6225137977298
 30
0.0
 10
95.96313474163421
 20
-147.4364786415263
 30
0.0
 10
96.18861624114382
 20
-147.2247775239577
 30
0.0
 10
96.34726288823959
 20
-146.9371120509393
 30
0.0
 10
96.45199379099118
 20
-146.6241251261044
 30
0.0
 10
96.45199379099118
 20
-146.6241251261044
 30
0.0
 10
96.1309108917659
 20
-146.6241251261044
 30
0.0
 10
96.1309108917659
 20
-146.6241251261044
 30
0.0
 10
96.00103079197197
 20
-146.6241251261044
 30
0.0
 10
95.82257484583603
 20
-146.6282592406867
 30
0.0
 10
95.694589548559
 20
-146.6473795206298
 30
0.0
 10
95.694589548559
 20
-146.6473795206298
 30
0.0
 10
95.694589548559
 20
-146.4358506578355
 30
0.0
 10
95.694589548559
 20
-146.4358506578355
 30
0.0
 10
95.75229489793693
 20
-146.4420518297089
 30
0.0
 10
95.97398679241276
 20
-146.4527316257132
 30
0.0
 10
96.04805634534564
 20
-146.4527316257132
 30
0.0
 10
96.04805634534564
 20
-146.4527316257132
 30
0.0
 10
96.31298418816134
 20
-146.4527316257132
 30
0.0
 10
96.31298418816134
 20
-146.4527316257132
 30
0.0
 10
96.48971758655466
 20
-146.4527316257132
 30
0.0
 10
96.50969914036911
 20
-146.4463581990655
 30
0.0
 10
96.5295084394093
 20
-146.4420518297089
 30
0.0
 10
96.56740448974705
 20
-146.4358506578355
 30
0.0
 10
96.5997883873084
 20
-146.4103569512446
 30
0.0
 10
96.61787513860595
 20
-146.3934759833669
 30
0.0
 10
96.61787513860595
 20
-146.3934759833669
 30
0.0
 10
96.75120033388513
 20
-146.5669365410492
 30
0.0
 10
96.75120033388513
 20
-146.5669365410492
 30
0.0
 10
96.7169216338069
 20
-146.5944973049312
 30
0.0
 10
96.70624183780262
 20
-146.6050048461612
 30
0.0
 10
96.66472843720535
 20
-146.6410060939821
 30
0.0
 10
96.55465763645162
 20
-146.8885362045973
 30
0.0
 10
96.48610023629515
 20
-147.0387423677542
 30
0.0
 10
96.39773353709848
 20
-147.1846421615545
 30
0.0
 10
96.66472843720535
 20
-147.4025444509966
 30
0.0
 10
96.85937633212198
 20
-147.6881428667238
 30
0.0
 10
96.90450708297873
 20
-147.766346534239
 30
0.0
 10
96.90450708297873
 20
-147.766346534239
 30
0.0
 10
96.75843503440415
 20
-147.9187920094612
 30
0.0
 10
96.75843503440415
 20
-147.9187920094612
 30
0.0
  0
HATCH
  5
104
330
FA
100
AcDbEntity
  8
レイヤー 1
 62
   250
420
  2299925
440
 33554687
100
AcDbHatch
 10
0.0
 20
0.0
 30
0.0
210
0.0
220
0.0
230
1.0
  2
SOLID
 70
     1
 71
     1
 91
        1
 92
        1
 93
        1
 72
     4
 94
        3
 73
     0
 74
     0
 95
       56
 96
       52
 40
0.0
 40
0.0
 40
0.0
 40
0.0
 40
1.0
 40
1.0
 40
1.0
 40
2.0
 40
2.0
 40
2.0
 40
3.0
 40
3.0
 40
3.0
 40
4.0
 40
4.0
 40
4.0
 40
5.0
 40
5.0
 40
5.0
 40
6.0
 40
6.0
 40
6.0
 40
7.0
 40
7.0
 40
7.0
 40
8.0
 40
8.0
 40
8.0
 40
9.0
 40
9.0
 40
9.0
 40
10.0
 40
10.0
 40
10.0
 40
11.0
 40
11.0
 40
11.0
 40
12.0
 40
12.0
 40
12.0
 40
13.0
 40
13.0
 40
13.0
 40
14.0
 40
14.0
 40
14.0
 40
15.0
 40
15.0
 40
15.0
 40
16.0
 40
16.0
 40
16.0
 40
17.0
 40
17.0
 40
17.0
 40
17.0
 10
96.75843503440415
 20
-147.9187920094612
 10
96.59444848930625
 20
-147.6099391992086
 10
96.37430688779879
 20
-147.4046115082877
 10
96.29679223938067
 20
-147.339154694068
 10
96.04616154282874
 20
-147.6776353254938
 10
95.79914819653632
 20
-147.8299085459418
 10
95.62964949866204
 20
-147.9229261240436
 10
95.62964949866204
 20
-147.9229261240436
 10
95.49442950086598
 20
-147.7346516557747
 10
95.49442950086598
 20
-147.7346516557747
 10
95.58279620006265
 20
-147.6986504079538
 10
95.7648694964581
 20
-147.6225137977298
 10
95.96313474163421
 20
-147.4364786415263
 10
96.18861624114382
 20
-147.2247775239577
 10
96.34726288823959
 20
-146.9371120509393
 10
96.45199379099118
 20
-146.6241251261044
 10
96.45199379099118
 20
-146.6241251261044
 10
96.1309108917659
 20
-146.6241251261044
 10
96.1309108917659
 20
-146.6241251261044
 10
96.00103079197197
 20
-146.6241251261044
 10
95.82257484583603
 20
-146.6282592406867
 10
95.694589548559
 20
-146.6473795206298
 10
95.694589548559
 20
-146.6473795206298
 10
95.694589548559
 20
-146.4358506578355
 10
95.694589548559
 20
-146.4358506578355
 10
95.75229489793693
 20
-146.4420518297089
 10
95.97398679241276
 20
-146.4527316257132
 10
96.04805634534564
 20
-146.4527316257132
 10
96.04805634534564
 20
-146.4527316257132
 10
96.31298418816134
 20
-146.4527316257132
 10
96.31298418816134
 20
-146.4527316257132
 10
96.48971758655466
 20
-146.4527316257132
 10
96.50969914036911
 20
-146.4463581990655
 10
96.5295084394093
 20
-146.4420518297089
 10
96.56740448974705
 20
-146.4358506578355
 10
96.5997883873084
 20
-146.4103569512446
 10
96.61787513860595
 20
-146.3934759833669
 10
96.61787513860595
 20
-146.3934759833669
 10
96.75120033388513
 20
-146.5669365410492
 10
96.75120033388513
 20
-146.5669365410492
 10
96.7169216338069
 20
-146.5944973049312
 10
96.70624183780262
 20
-146.6050048461612
 10
96.66472843720535
 20
-146.6410060939821
 10
96.55465763645162
 20
-146.8885362045973
 10
96.48610023629515
 20
-147.0387423677542
 10
96.39773353709848
 20
-147.1846421615545
 10
96.66472843720535
 20
-147.4025444509966
 10
96.85937633212198
 20
-147.6881428667238
 10
96.90450708297873
 20
-147.766346534239
 10
96.90450708297873
 20
-147.766346534239
 10
96.75843503440415
 20
-147.9187920094612
 10
96.75843503440415
 20
-147.9187920094612
 97
        0
 97
        1
330
103
 75
     2
 76
     1
 98
        1
 10
0.0
 20
0.0
450
        0
451
        0
460
0.0
461
0.0
452
        0
462
0.0
453
        0
470

  0
SPLINE
  5
105
330
FA
100
AcDbEntity
  8
レイヤー 1
100
AcDbSpline
210
0.0
220
0.0
230
1.0
 70
    11
 71
     3
 72
    17
 73
    13
 74
     0
 42
0.0000000001
 43
0.0000000001
 40
0.0
 40
0.0
 40
0.0
 40
0.0
 40
1.0
 40
1.0
 40
1.0
 40
2.0
 40
2.0
 40
2.0
 40
3.0
 40
3.0
 40
3.0
 40
4.0
 40
4.0
 40
4.0
 40
4.0
 10
98.36040443504533
 20
-146.9414184202959
 30
0.0
 10
98.36040443504533
 20
-146.9414184202959
 30
0.0
 10
97.96904158792095
 20
-146.9414184202959
 30
0.0
 10
97.96904158792095
 20
-146.9414184202959
 30
0.0
 10
97.96904158792095
 20
-146.9414184202959
 30
0.0
 10
97.96904158792095
 20
-147.2502712305485
 30
0.0
 10
97.96904158792095
 20
-147.2502712305485
 30
0.0
 10
97.96904158792095
 20
-147.2502712305485
 30
0.0
 10
98.36040443504533
 20
-147.2502712305485
 30
0.0
 10
98.36040443504533
 20
-147.2502712305485
 30
0.0
 10
98.36040443504533
 20
-147.2502712305485
 30
0.0
 10
98.36040443504533
 20
-146.9414184202959
 30
0.0
 10
98.36040443504533
 20
-146.9414184202959
 30
0.0
  0
SPLINE
  5
106
330
FA
100
AcDbEntity
  8
レイヤー 1
100
AcDbSpline
210
0.0
220
0.0
230
1.0
 70
    11
 71
     3
 72
    17
 73
    13
 74
     0
 42
0.0000000001
 43
0.0000000001
 40
0.0
 40
0.0
 40
0.0
 40
0.0
 40
1.0
 40
1.0
 40
1.0
 40
2.0
 40
2.0
 40
2.0
 40
3.0
 40
3.0
 40
3.0
 40
4.0
 40
4.0
 40
4.0
 40
4.0
 10
98.36040443504533
 20
-146.4696125935909
 30
0.0
 10
98.36040443504533
 20
-146.4696125935909
 30
0.0
 10
97.96904158792095
 20
-146.4696125935909
 30
0.0
 10
97.96904158792095
 20
-146.4696125935909
 30
0.0
 10
97.96904158792095
 20
-146.4696125935909
 30
0.0
 10
97.96904158792095
 20
-146.774159034487
 30
0.0
 10
97.96904158792095
 20
-146.774159034487
 30
0.0
 10
97.96904158792095
 20
-146.774159034487
 30
0.0
 10
98.36040443504533
 20
-146.774159034487
 30
0.0
 10
98.36040443504533
 20
-146.774159034487
 30
0.0
 10
98.36040443504533
 20
-146.774159034487
 30
0.0
 10
98.36040443504533
 20
-146.4696125935909
 30
0.0
 10
98.36040443504533
 20
-146.4696125935909
 30
0.0
  0
SPLINE
  5
107
330
FA
100
AcDbEntity
  8
レイヤー 1
100
AcDbSpline
210
0.0
220
0.0
230
1.0
 70
    11
 71
     3
 72
    17
 73
    13
 74
     0
 42
0.0000000001
 43
0.0000000001
 40
0.0
 40
0.0
 40
0.0
 40
0.0
 40
1.0
 40
1.0
 40
1.0
 40
2.0
 40
2.0
 40
2.0
 40
3.0
 40
3.0
 40
3.0
 40
4.0
 40
4.0
 40
4.0
 40
4.0
 10
97.80677759056567
 20
-146.9414184202959
 30
0.0
 10
97.80677759056567
 20
-146.9414184202959
 30
0.0
 10
97.43350149473885
 20
-146.9414184202959
 30
0.0
 10
97.43350149473885
 20
-146.9414184202959
 30
0.0
 10
97.43350149473885
 20
-146.9414184202959
 30
0.0
 10
97.43350149473885
 20
-147.2502712305485
 30
0.0
 10
97.43350149473885
 20
-147.2502712305485
 30
0.0
 10
97.43350149473885
 20
-147.2502712305485
 30
0.0
 10
97.80677759056567
 20
-147.2502712305485
 30
0.0
 10
97.80677759056567
 20
-147.2502712305485
 30
0.0
 10
97.80677759056567
 20
-147.2502712305485
 30
0.0
 10
97.80677759056567
 20
-146.9414184202959
 30
0.0
 10
97.80677759056567
 20
-146.9414184202959
 30
0.0
  0
SPLINE
  5
108
330
FA
100
AcDbEntity
  8
レイヤー 1
100
AcDbSpline
210
0.0
220
0.0
230
1.0
 70
    11
 71
     3
 72
    17
 73
    13
 74
     0
 42
0.0000000001
 43
0.0000000001
 40
0.0
 40
0.0
 40
0.0
 40
0.0
 40
1.0
 40
1.0
 40
1.0
 40
2.0
 40
2.0
 40
2.0
 40
3.0
 40
3.0
 40
3.0
 40
4.0
 40
4.0
 40
4.0
 40
4.0
 10
97.80677759056567
 20
-146.4696125935909
 30
0.0
 10
97.80677759056567
 20
-146.4696125935909
 30
0.0
 10
97.43350149473885
 20
-146.4696125935909
 30
0.0
 10
97.43350149473885
 20
-146.4696125935909
 30
0.0
 10
97.43350149473885
 20
-146.4696125935909
 30
0.0
 10
97.43350149473885
 20
-146.774159034487
 30
0.0
 10
97.43350149473885
 20
-146.774159034487
 30
0.0
 10
97.43350149473885
 20
-146.774159034487
 30
0.0
 10
97.80677759056567
 20
-146.774159034487
 30
0.0
 10
97.80677759056567
 20
-146.774159034487
 30
0.0
 10
97.80677759056567
 20
-146.774159034487
 30
0.0
 10
97.80677759056567
 20
-146.4696125935909
 30
0.0
 10
97.80677759056567
 20
-146.4696125935909
 30
0.0
  0
SPLINE
  5
109
330
FA
100
AcDbEntity
  8
レイヤー 1
100
AcDbSpline
210
0.0
220
0.0
230
1.0
 70
     9
 71
     3
 72
    77
 73
    73
 74
     0
 42
0.0000000001
 43
0.0000000001
 40
0.0
 40
0.0
 40
0.0
 40
0.0
 40
1.0
 40
1.0
 40
1.0
 40
2.0
 40
2.0
 40
2.0
 40
3.0
 40
3.0
 40
3.0
 40
4.0
 40
4.0
 40
4.0
 40
5.0
 40
5.0
 40
5.0
 40
6.0
 40
6.0
 40
6.0
 40
7.0
 40
7.0
 40
7.0
 40
8.0
 40
8.0
 40
8.0
 40
9.0
 40
9.0
 40
9.0
 40
10.0
 40
10.0
 40
10.0
 40
11.0
 40
11.0
 40
11.0
 40
12.0
 40
12.0
 40
12.0
 40
13.0
 40
13.0
 40
13.0
 40
14.0
 40
14.0
 40
14.0
 40
15.0
 40
15.0
 40
15.0
 40
16.0
 40
16.0
 40
16.0
 40
17.0
 40
17.0
 40
17.0
 40
18.0
 40
18.0
 40
18.0
 40
19.0
 40
19.0
 40
19.0
 40
20.0
 40
20.0
 40
20.0
 40
21.0
 40
21.0
 40
21.0
 40
22.0
 40
22.0
 40
22.0
 40
23.0
 40
23.0
 40
23.0
 40
24.0
 40
24.0
 40
24.0
 40
24.0
 10
98.4758151338012
 20
-148.0562513193227
 30
0.0
 10
98.43619653572082
 20
-148.0815727711393
 30
0.0
 10
98.32974308522659
 20
-148.0943196244347
 30
0.0
 10
98.26308048758702
 20
-148.0943196244347
 30
0.0
 10
98.25222843680847
 20
-148.0943196244347
 30
0.0
 10
98.23052433525141
 20
-148.0943196244347
 30
0.0
 10
98.20175778794956
 20
-148.0900132550782
 30
0.0
 10
98.20175778794956
 20
-148.0900132550782
 30
0.0
 10
98.11873098675505
 20
-147.8636704816973
 30
0.0
 10
98.11873098675505
 20
-147.8636704816973
 30
0.0
 10
98.14405243857164
 20
-147.870043908345
 30
0.0
 10
98.19262828491366
 20
-147.8784843922838
 30
0.0
 10
98.29184703488884
 20
-147.8784843922838
 30
0.0
 10
98.3586818873027
 20
-147.8784843922838
 30
0.0
 10
98.36040443504533
 20
-147.8362819725895
 30
0.0
 10
98.36040443504533
 20
-147.7790933875344
 30
0.0
 10
98.36040443504533
 20
-147.7790933875344
 30
0.0
 10
98.36040443504533
 20
-147.4301052148786
 30
0.0
 10
98.36040443504533
 20
-147.4301052148786
 30
0.0
 10
98.36040443504533
 20
-147.4301052148786
 30
0.0
 10
97.96904158792095
 20
-147.4301052148786
 30
0.0
 10
97.96904158792095
 20
-147.4301052148786
 30
0.0
 10
97.97093639043783
 20
-147.56756452474
 30
0.0
 10
97.97265893818044
 20
-147.766346534239
 30
0.0
 10
97.97817109095685
 20
-147.8996717295181
 30
0.0
 10
97.97989363869948
 20
-147.9272324934001
 30
0.0
 10
97.97989363869948
 20
-147.9716742251598
 30
0.0
 10
97.99074568947801
 20
-148.0329969247973
 30
0.0
 10
97.99074568947801
 20
-148.0329969247973
 30
0.0
 10
97.78507348900859
 20
-148.0329969247973
 30
0.0
 10
97.78507348900859
 20
-148.0329969247973
 30
0.0
 10
97.80677759056567
 20
-147.908112213457
 30
0.0
 10
97.80677759056567
 20
-147.56756452474
 30
0.0
 10
97.80677759056567
 20
-147.4301052148786
 30
0.0
 10
97.80677759056567
 20
-147.4301052148786
 30
0.0
 10
97.42988414447935
 20
-147.4301052148786
 30
0.0
 10
97.42988414447935
 20
-147.4301052148786
 30
0.0
 10
97.41007484543915
 20
-147.6373277083164
 30
0.0
 10
97.35409204380385
 20
-147.9060451561658
 30
0.0
 10
97.18648814844645
 20
-148.0900132550782
 30
0.0
 10
97.18648814844645
 20
-148.0900132550782
 30
0.0
 10
97.0259466988338
 20
-147.9673678558033
 30
0.0
 10
97.0259466988338
 20
-147.9673678558033
 30
0.0
 10
97.24229869530748
 20
-147.7473985090701
 30
0.0
 10
97.26934269486669
 20
-147.415291304292
 30
0.0
 10
97.26934269486669
 20
-147.0831840995139
 30
0.0
 10
97.26934269486669
 20
-147.0831840995139
 30
0.0
 10
97.26934269486669
 20
-146.6473795206298
 30
0.0
 10
97.26934269486669
 20
-146.6473795206298
 30
0.0
 10
97.26934269486669
 20
-146.6113782728089
 30
0.0
 10
97.26762014712408
 20
-146.3786620727803
 30
0.0
 10
97.26038544660504
 20
-146.2770317559655
 30
0.0
 10
97.37941349562042
 20
-146.2877115519697
 30
0.0
 10
97.58491344131558
 20
-146.2877115519697
 30
0.0
 10
97.70755884059049
 20
-146.2877115519697
 30
0.0
 10
97.70755884059049
 20
-146.2877115519697
 30
0.0
 10
98.09892168771487
 20
-146.2877115519697
 30
0.0
 10
98.09892168771487
 20
-146.2877115519697
 30
0.0
 10
98.11149628623603
 20
-146.2877115519697
 30
0.0
 10
98.40915253616159
 20
-146.2877115519697
 30
0.0
 10
98.54437253395765
 20
-146.2770317559655
 30
0.0
 10
98.54247773144077
 20
-146.3299139716641
 30
0.0
 10
98.53713783343863
 20
-146.4907999308252
 30
0.0
 10
98.53713783343863
 20
-146.5416150892326
 30
0.0
 10
98.53713783343863
 20
-146.5416150892326
 30
0.0
 10
98.53713783343863
 20
-147.1486409137337
 30
0.0
 10
98.53713783343863
 20
-147.1486409137337
 30
0.0
 10
98.53713783343863
 20
-147.1677611936768
 30
0.0
 10
98.54609508170028
 20
-147.7389580251312
 30
0.0
 10
98.54609508170028
 20
-147.8510958831761
 30
0.0
 10
98.54609508170028
 20
-147.908112213457
 30
0.0
 10
98.54609508170028
 20
-148.0097425302718
 30
0.0
 10
98.4758151338012
 20
-148.0562513193227
 30
0.0
  0
HATCH
  5
10A
330
FA
100
AcDbEntity
  8
レイヤー 1
 62
   250
420
  2299925
440
 33554687
100
AcDbHatch
 10
0.0
 20
0.0
 30
0.0
210
0.0
220
0.0
230
1.0
  2
SOLID
 70
     1
 71
     1
 91
        5
 92
        1
 93
        1
 72
     4
 94
        3
 73
     0
 74
     0
 95
       17
 96
       13
 40
0.0
 40
0.0
 40
0.0
 40
0.0
 40
1.0
 40
1.0
 40
1.0
 40
2.0
 40
2.0
 40
2.0
 40
3.0
 40
3.0
 40
3.0
 40
4.0
 40
4.0
 40
4.0
 40
4.0
 10
98.36040443504533
 20
-146.9414184202959
 10
98.36040443504533
 20
-146.9414184202959
 10
97.96904158792095
 20
-146.9414184202959
 10
97.96904158792095
 20
-146.9414184202959
 10
97.96904158792095
 20
-146.9414184202959
 10
97.96904158792095
 20
-147.2502712305485
 10
97.96904158792095
 20
-147.2502712305485
 10
97.96904158792095
 20
-147.2502712305485
 10
98.36040443504533
 20
-147.2502712305485
 10
98.36040443504533
 20
-147.2502712305485
 10
98.36040443504533
 20
-147.2502712305485
 10
98.36040443504533
 20
-146.9414184202959
 10
98.36040443504533
 20
-146.9414184202959
 97
        0
 97
        1
330
105
 92
        1
 93
        1
 72
     4
 94
        3
 73
     0
 74
     0
 95
       17
 96
       13
 40
0.0
 40
0.0
 40
0.0
 40
0.0
 40
1.0
 40
1.0
 40
1.0
 40
2.0
 40
2.0
 40
2.0
 40
3.0
 40
3.0
 40
3.0
 40
4.0
 40
4.0
 40
4.0
 40
4.0
 10
98.36040443504533
 20
-146.4696125935909
 10
98.36040443504533
 20
-146.4696125935909
 10
97.96904158792095
 20
-146.4696125935909
 10
97.96904158792095
 20
-146.4696125935909
 10
97.96904158792095
 20
-146.4696125935909
 10
97.96904158792095
 20
-146.774159034487
 10
97.96904158792095
 20
-146.774159034487
 10
97.96904158792095
 20
-146.774159034487
 10
98.36040443504533
 20
-146.774159034487
 10
98.36040443504533
 20
-146.774159034487
 10
98.36040443504533
 20
-146.774159034487
 10
98.36040443504533
 20
-146.4696125935909
 10
98.36040443504533
 20
-146.4696125935909
 97
        0
 97
        1
330
106
 92
        1
 93
        1
 72
     4
 94
        3
 73
     0
 74
     0
 95
       17
 96
       13
 40
0.0
 40
0.0
 40
0.0
 40
0.0
 40
1.0
 40
1.0
 40
1.0
 40
2.0
 40
2.0
 40
2.0
 40
3.0
 40
3.0
 40
3.0
 40
4.0
 40
4.0
 40
4.0
 40
4.0
 10
97.80677759056567
 20
-146.9414184202959
 10
97.80677759056567
 20
-146.9414184202959
 10
97.43350149473885
 20
-146.9414184202959
 10
97.43350149473885
 20
-146.9414184202959
 10
97.43350149473885
 20
-146.9414184202959
 10
97.43350149473885
 20
-147.2502712305485
 10
97.43350149473885
 20
-147.2502712305485
 10
97.43350149473885
 20
-147.2502712305485
 10
97.80677759056567
 20
-147.2502712305485
 10
97.80677759056567
 20
-147.2502712305485
 10
97.80677759056567
 20
-147.2502712305485
 10
97.80677759056567
 20
-146.9414184202959
 10
97.80677759056567
 20
-146.9414184202959
 97
        0
 97
        1
330
107
 92
        1
 93
        1
 72
     4
 94
        3
 73
     0
 74
     0
 95
       17
 96
       13
 40
0.0
 40
0.0
 40
0.0
 40
0.0
 40
1.0
 40
1.0
 40
1.0
 40
2.0
 40
2.0
 40
2.0
 40
3.0
 40
3.0
 40
3.0
 40
4.0
 40
4.0
 40
4.0
 40
4.0
 10
97.80677759056567
 20
-146.4696125935909
 10
97.80677759056567
 20
-146.4696125935909
 10
97.43350149473885
 20
-146.4696125935909
 10
97.43350149473885
 20
-146.4696125935909
 10
97.43350149473885
 20
-146.4696125935909
 10
97.43350149473885
 20
-146.774159034487
 10
97.43350149473885
 20
-146.774159034487
 10
97.43350149473885
 20
-146.774159034487
 10
97.80677759056567
 20
-146.774159034487
 10
97.80677759056567
 20
-146.774159034487
 10
97.80677759056567
 20
-146.774159034487
 10
97.80677759056567
 20
-146.4696125935909
 10
97.80677759056567
 20
-146.4696125935909
 97
        0
 97
        1
330
108
 92
        1
 93
        1
 72
     4
 94
        3
 73
     0
 74
     0
 95
       77
 96
       73
 40
0.0
 40
0.0
 40
0.0
 40
0.0
 40
1.0
 40
1.0
 40
1.0
 40
2.0
 40
2.0
 40
2.0
 40
3.0
 40
3.0
 40
3.0
 40
4.0
 40
4.0
 40
4.0
 40
5.0
 40
5.0
 40
5.0
 40
6.0
 40
6.0
 40
6.0
 40
7.0
 40
7.0
 40
7.0
 40
8.0
 40
8.0
 40
8.0
 40
9.0
 40
9.0
 40
9.0
 40
10.0
 40
10.0
 40
10.0
 40
11.0
 40
11.0
 40
11.0
 40
12.0
 40
12.0
 40
12.0
 40
13.0
 40
13.0
 40
13.0
 40
14.0
 40
14.0
 40
14.0
 40
15.0
 40
15.0
 40
15.0
 40
16.0
 40
16.0
 40
16.0
 40
17.0
 40
17.0
 40
17.0
 40
18.0
 40
18.0
 40
18.0
 40
19.0
 40
19.0
 40
19.0
 40
20.0
 40
20.0
 40
20.0
 40
21.0
 40
21.0
 40
21.0
 40
22.0
 40
22.0
 40
22.0
 40
23.0
 40
23.0
 40
23.0
 40
24.0
 40
24.0
 40
24.0
 40
24.0
 10
98.4758151338012
 20
-148.0562513193227
 10
98.43619653572082
 20
-148.0815727711393
 10
98.32974308522659
 20
-148.0943196244347
 10
98.26308048758702
 20
-148.0943196244347
 10
98.25222843680847
 20
-148.0943196244347
 10
98.23052433525141
 20
-148.0943196244347
 10
98.20175778794956
 20
-148.0900132550782
 10
98.20175778794956
 20
-148.0900132550782
 10
98.11873098675505
 20
-147.8636704816973
 10
98.11873098675505
 20
-147.8636704816973
 10
98.14405243857164
 20
-147.870043908345
 10
98.19262828491366
 20
-147.8784843922838
 10
98.29184703488884
 20
-147.8784843922838
 10
98.3586818873027
 20
-147.8784843922838
 10
98.36040443504533
 20
-147.8362819725895
 10
98.36040443504533
 20
-147.7790933875344
 10
98.36040443504533
 20
-147.7790933875344
 10
98.36040443504533
 20
-147.4301052148786
 10
98.36040443504533
 20
-147.4301052148786
 10
98.36040443504533
 20
-147.4301052148786
 10
97.96904158792095
 20
-147.4301052148786
 10
97.96904158792095
 20
-147.4301052148786
 10
97.97093639043783
 20
-147.56756452474
 10
97.97265893818044
 20
-147.766346534239
 10
97.97817109095685
 20
-147.8996717295181
 10
97.97989363869948
 20
-147.9272324934001
 10
97.97989363869948
 20
-147.9716742251598
 10
97.99074568947801
 20
-148.0329969247973
 10
97.99074568947801
 20
-148.0329969247973
 10
97.78507348900859
 20
-148.0329969247973
 10
97.78507348900859
 20
-148.0329969247973
 10
97.80677759056567
 20
-147.908112213457
 10
97.80677759056567
 20
-147.56756452474
 10
97.80677759056567
 20
-147.4301052148786
 10
97.80677759056567
 20
-147.4301052148786
 10
97.42988414447935
 20
-147.4301052148786
 10
97.42988414447935
 20
-147.4301052148786
 10
97.41007484543915
 20
-147.6373277083164
 10
97.35409204380385
 20
-147.9060451561658
 10
97.18648814844645
 20
-148.0900132550782
 10
97.18648814844645
 20
-148.0900132550782
 10
97.0259466988338
 20
-147.9673678558033
 10
97.0259466988338
 20
-147.9673678558033
 10
97.24229869530748
 20
-147.7473985090701
 10
97.26934269486669
 20
-147.415291304292
 10
97.26934269486669
 20
-147.0831840995139
 10
97.26934269486669
 20
-147.0831840995139
 10
97.26934269486669
 20
-146.6473795206298
 10
97.26934269486669
 20
-146.6473795206298
 10
97.26934269486669
 20
-146.6113782728089
 10
97.26762014712408
 20
-146.3786620727803
 10
97.26038544660504
 20
-146.2770317559655
 10
97.37941349562042
 20
-146.2877115519697
 10
97.58491344131558
 20
-146.2877115519697
 10
97.70755884059049
 20
-146.2877115519697
 10
97.70755884059049
 20
-146.2877115519697
 10
98.09892168771487
 20
-146.2877115519697
 10
98.09892168771487
 20
-146.2877115519697
 10
98.11149628623603
 20
-146.2877115519697
 10
98.40915253616159
 20
-146.2877115519697
 10
98.54437253395765
 20
-146.2770317559655
 10
98.54247773144077
 20
-146.3299139716641
 10
98.53713783343863
 20
-146.4907999308252
 10
98.53713783343863
 20
-146.5416150892326
 10
98.53713783343863
 20
-146.5416150892326
 10
98.53713783343863
 20
-147.1486409137337
 10
98.53713783343863
 20
-147.1486409137337
 10
98.53713783343863
 20
-147.1677611936768
 10
98.54609508170028
 20
-147.7389580251312
 10
98.54609508170028
 20
-147.8510958831761
 10
98.54609508170028
 20
-147.908112213457
 10
98.54609508170028
 20
-148.0097425302718
 10
98.4758151338012
 20
-148.0562513193227
 97
        0
 97
        1
330
109
 75
     2
 76
     1
 98
        1
 10
0.0
 20
0.0
450
        0
451
        0
460
0.0
461
0.0
452
        0
462
0.0
453
        0
470

  0
ENDBLK
  5
FD
330
FA
100
AcDbEntity
  8
0
100
AcDbBlockEnd
  0
BLOCK
  5
10D
330
10B
100
AcDbEntity
  8
0
100
AcDbBlockBegin
  2
Block_17
 70
     0
 10
0.0
 20
0.0
 30
0.0
  3
Block_17
  1

  0
INSERT
  5
110
330
10B
100
AcDbEntity
  8
レイヤー 1
100
AcDbBlockReference
  2
Block_18
 10
0.0
 20
0.0
 30
0.0
  0
ENDBLK
  5
10E
330
10B
100
AcDbEntity
  8
0
100
AcDbBlockEnd
  0
BLOCK
  5
111
330
10F
100
AcDbEntity
  8
0
100
AcDbBlockBegin
  2
Block_18
 70
     0
 10
0.0
 20
0.0
 30
0.0
  3
Block_18
  1

  0
SPLINE
  5
113
330
10F
100
AcDbEntity
  8
レイヤー 1
100
AcDbSpline
210
0.0
220
0.0
230
1.0
 70
     9
 71
     3
 72
    17
 73
    13
 74
     0
 42
0.0000000001
 43
0.0000000001
 40
0.0
 40
0.0
 40
0.0
 40
0.0
 40
1.0
 40
1.0
 40
1.0
 40
2.0
 40
2.0
 40
2.0
 40
3.0
 40
3.0
 40
3.0
 40
4.0
 40
4.0
 40
4.0
 40
4.0
 10
93.8323431840072
 20
-148.8270914341474
 30
0.0
 10
93.7854898854078
 20
-148.8270914341474
 30
0.0
 10
93.74759383507004
 20
-148.8715331659071
 30
0.0
 10
93.74759383507004
 20
-148.9266546936711
 30
0.0
 10
93.74759383507004
 20
-148.9834987691777
 30
0.0
 10
93.7854898854078
 20
-149.0324191250683
 30
0.0
 10
93.8359605342667
 20
-149.0324191250683
 30
0.0
 10
93.88643118312563
 20
-149.0324191250683
 30
0.0
 10
93.92070988320385
 20
-148.9814317118866
 30
0.0
 10
93.92070988320385
 20
-148.9287217509622
 30
0.0
 10
93.92070988320385
 20
-148.8715331659071
 30
0.0
 10
93.88109128512347
 20
-148.8270914341474
 30
0.0
 10
93.8323431840072
 20
-148.8270914341474
 30
0.0
  0
SPLINE
  5
114
330
10F
100
AcDbEntity
  8
レイヤー 1
100
AcDbSpline
210
0.0
220
0.0
230
1.0
 70
    11
 71
     3
 72
    17
 73
    13
 74
     0
 42
0.0000000001
 43
0.0000000001
 40
0.0
 40
0.0
 40
0.0
 40
0.0
 40
1.0
 40
1.0
 40
1.0
 40
2.0
 40
2.0
 40
2.0
 40
3.0
 40
3.0
 40
3.0
 40
4.0
 40
4.0
 40
4.0
 40
4.0
 10
93.83423798652408
 20
-149.1571315816343
 30
0.0
 10
93.72606198828725
 20
-149.1571315816343
 30
0.0
 10
93.63941783683321
 20
-149.0555012648195
 30
0.0
 10
93.63941783683321
 20
-148.9287217509622
 30
0.0
 10
93.63941783683321
 20
-148.8017699823308
 30
0.0
 10
93.72606198828725
 20
-148.6980726082248
 30
0.0
 10
93.83423798652408
 20
-148.6980726082248
 30
0.0
 10
93.94241398476093
 20
-148.6980726082248
 30
0.0
 10
94.03078068395759
 20
-148.8017699823308
 30
0.0
 10
94.03078068395759
 20
-148.9287217509622
 30
0.0
 10
94.03078068395759
 20
-149.0555012648195
 30
0.0
 10
93.94241398476093
 20
-149.1571315816343
 30
0.0
 10
93.83423798652408
 20
-149.1571315816343
 30
0.0
  0
SPLINE
  5
115
330
10F
100
AcDbEntity
  8
レイヤー 1
100
AcDbSpline
210
0.0
220
0.0
230
1.0
 70
     9
 71
     3
 72
    44
 73
    40
 74
     0
 42
0.0000000001
 43
0.0000000001
 40
0.0
 40
0.0
 40
0.0
 40
0.0
 40
1.0
 40
1.0
 40
1.0
 40
2.0
 40
2.0
 40
2.0
 40
3.0
 40
3.0
 40
3.0
 40
4.0
 40
4.0
 40
4.0
 40
5.0
 40
5.0
 40
5.0
 40
6.0
 40
6.0
 40
6.0
 40
7.0
 40
7.0
 40
7.0
 40
8.0
 40
8.0
 40
8.0
 40
9.0
 40
9.0
 40
9.0
 40
10.0
 40
10.0
 40
10.0
 40
11.0
 40
11.0
 40
11.0
 40
12.0
 40
12.0
 40
12.0
 40
13.0
 40
13.0
 40
13.0
 40
13.0
 10
93.65560978561388
 20
-149.3559135911332
 30
0.0
 10
93.56018064067246
 20
-149.7241942985064
 30
0.0
 10
93.51677243755831
 20
-149.8826686908279
 30
0.0
 10
93.34916854220089
 20
-150.1324381135085
 30
0.0
 10
93.19224444284778
 20
-150.3629150014718
 30
0.0
 10
92.99018959263788
 20
-150.5492946672238
 30
0.0
 10
92.75230574938138
 20
-150.6423122453255
 30
0.0
 10
92.75230574938138
 20
-150.6423122453255
 30
0.0
 10
92.58814694950922
 20
-150.4624782609955
 30
0.0
 10
92.58814694950922
 20
-150.4624782609955
 30
0.0
 10
93.13453909346984
 20
-150.3102050405474
 30
0.0
 10
93.41583113984048
 20
-149.7538221196796
 30
0.0
 10
93.46991913895891
 20
-149.3135389166647
 30
0.0
 10
93.46991913895891
 20
-149.3135389166647
 30
0.0
 10
92.81707354450407
 20
-149.3135389166647
 30
0.0
 10
92.81707354450407
 20
-149.3135389166647
 30
0.0
 10
92.73783634834332
 20
-149.3135389166647
 30
0.0
 10
92.58091224899018
 20
-149.3180175407955
 30
0.0
 10
92.44741479893676
 20
-149.3369655659643
 30
0.0
 10
92.44741479893676
 20
-149.3369655659643
 30
0.0
 10
92.44741479893676
 20
-149.1168239644569
 30
0.0
 10
92.44741479893676
 20
-149.1168239644569
 30
0.0
 10
92.52148435186963
 20
-149.1381835564654
 30
0.0
 10
92.73594154582644
 20
-149.1381835564654
 30
0.0
 10
92.82069089476358
 20
-149.1381835564654
 30
0.0
 10
92.82069089476358
 20
-149.1381835564654
 30
0.0
 10
93.18862709258826
 20
-149.1381835564654
 30
0.0
 10
93.18862709258826
 20
-149.1381835564654
 30
0.0
 10
93.22462834040912
 20
-149.1381835564654
 30
0.0
 10
93.42478838810214
 20
-149.1357719896258
 30
0.0
 10
93.45734454043775
 20
-149.1295708177523
 30
0.0
 10
93.4933457882586
 20
-149.1233696458789
 30
0.0
 10
93.4952405907755
 20
-149.1213025885877
 30
0.0
 10
93.54743378737703
 20
-149.0809949714103
 30
0.0
 10
93.54743378737703
 20
-149.0809949714103
 30
0.0
 10
93.70797523698968
 20
-149.2353352491495
 30
0.0
 10
93.70797523698968
 20
-149.2353352491495
 30
0.0
 10
93.68265378517309
 20
-149.2649630703226
 30
0.0
 10
93.67007918665192
 20
-149.2966579487869
 30
0.0
 10
93.65560978561388
 20
-149.3559135911332
 30
0.0
  0
HATCH
  5
116
330
10F
100
AcDbEntity
  8
レイヤー 1
 62
   250
420
  2299925
440
 33554687
100
AcDbHatch
 10
0.0
 20
0.0
 30
0.0
210
0.0
220
0.0
230
1.0
  2
SOLID
 70
     1
 71
     1
 91
        3
 92
        1
 93
        1
 72
     4
 94
        3
 73
     0
 74
     0
 95
       17
 96
       13
 40
0.0
 40
0.0
 40
0.0
 40
0.0
 40
1.0
 40
1.0
 40
1.0
 40
2.0
 40
2.0
 40
2.0
 40
3.0
 40
3.0
 40
3.0
 40
4.0
 40
4.0
 40
4.0
 40
4.0
 10
93.8323431840072
 20
-148.8270914341474
 10
93.7854898854078
 20
-148.8270914341474
 10
93.74759383507004
 20
-148.8715331659071
 10
93.74759383507004
 20
-148.9266546936711
 10
93.74759383507004
 20
-148.9834987691777
 10
93.7854898854078
 20
-149.0324191250683
 10
93.8359605342667
 20
-149.0324191250683
 10
93.88643118312563
 20
-149.0324191250683
 10
93.92070988320385
 20
-148.9814317118866
 10
93.92070988320385
 20
-148.9287217509622
 10
93.92070988320385
 20
-148.8715331659071
 10
93.88109128512347
 20
-148.8270914341474
 10
93.8323431840072
 20
-148.8270914341474
 97
        0
 97
        1
330
113
 92
        1
 93
        1
 72
     4
 94
        3
 73
     0
 74
     0
 95
       17
 96
       13
 40
0.0
 40
0.0
 40
0.0
 40
0.0
 40
1.0
 40
1.0
 40
1.0
 40
2.0
 40
2.0
 40
2.0
 40
3.0
 40
3.0
 40
3.0
 40
4.0
 40
4.0
 40
4.0
 40
4.0
 10
93.83423798652408
 20
-149.1571315816343
 10
93.72606198828725
 20
-149.1571315816343
 10
93.63941783683321
 20
-149.0555012648195
 10
93.63941783683321
 20
-148.9287217509622
 10
93.63941783683321
 20
-148.8017699823308
 10
93.72606198828725
 20
-148.6980726082248
 10
93.83423798652408
 20
-148.6980726082248
 10
93.94241398476093
 20
-148.6980726082248
 10
94.03078068395759
 20
-148.8017699823308
 10
94.03078068395759
 20
-148.9287217509622
 10
94.03078068395759
 20
-149.0555012648195
 10
93.94241398476093
 20
-149.1571315816343
 10
93.83423798652408
 20
-149.1571315816343
 97
        0
 97
        1
330
114
 92
        1
 93
        1
 72
     4
 94
        3
 73
     0
 74
     0
 95
       44
 96
       40
 40
0.0
 40
0.0
 40
0.0
 40
0.0
 40
1.0
 40
1.0
 40
1.0
 40
2.0
 40
2.0
 40
2.0
 40
3.0
 40
3.0
 40
3.0
 40
4.0
 40
4.0
 40
4.0
 40
5.0
 40
5.0
 40
5.0
 40
6.0
 40
6.0
 40
6.0
 40
7.0
 40
7.0
 40
7.0
 40
8.0
 40
8.0
 40
8.0
 40
9.0
 40
9.0
 40
9.0
 40
10.0
 40
10.0
 40
10.0
 40
11.0
 40
11.0
 40
11.0
 40
12.0
 40
12.0
 40
12.0
 40
13.0
 40
13.0
 40
13.0
 40
13.0
 10
93.65560978561388
 20
-149.3559135911332
 10
93.56018064067246
 20
-149.7241942985064
 10
93.51677243755831
 20
-149.8826686908279
 10
93.34916854220089
 20
-150.1324381135085
 10
93.19224444284778
 20
-150.3629150014718
 10
92.99018959263788
 20
-150.5492946672238
 10
92.75230574938138
 20
-150.6423122453255
 10
92.75230574938138
 20
-150.6423122453255
 10
92.58814694950922
 20
-150.4624782609955
 10
92.58814694950922
 20
-150.4624782609955
 10
93.13453909346984
 20
-150.3102050405474
 10
93.41583113984048
 20
-149.7538221196796
 10
93.46991913895891
 20
-149.3135389166647
 10
93.46991913895891
 20
-149.3135389166647
 10
92.81707354450407
 20
-149.3135389166647
 10
92.81707354450407
 20
-149.3135389166647
 10
92.73783634834332
 20
-149.3135389166647
 10
92.58091224899018
 20
-149.3180175407955
 10
92.44741479893676
 20
-149.3369655659643
 10
92.44741479893676
 20
-149.3369655659643
 10
92.44741479893676
 20
-149.1168239644569
 10
92.44741479893676
 20
-149.1168239644569
 10
92.52148435186963
 20
-149.1381835564654
 10
92.73594154582644
 20
-149.1381835564654
 10
92.82069089476358
 20
-149.1381835564654
 10
92.82069089476358
 20
-149.1381835564654
 10
93.18862709258826
 20
-149.1381835564654
 10
93.18862709258826
 20
-149.1381835564654
 10
93.22462834040912
 20
-149.1381835564654
 10
93.42478838810214
 20
-149.1357719896258
 10
93.45734454043775
 20
-149.1295708177523
 10
93.4933457882586
 20
-149.1233696458789
 10
93.4952405907755
 20
-149.1213025885877
 10
93.54743378737703
 20
-149.0809949714103
 10
93.54743378737703
 20
-149.0809949714103
 10
93.70797523698968
 20
-149.2353352491495
 10
93.70797523698968
 20
-149.2353352491495
 10
93.68265378517309
 20
-149.2649630703226
 10
93.67007918665192
 20
-149.2966579487869
 10
93.65560978561388
 20
-149.3559135911332
 97
        0
 97
        1
330
115
 75
     2
 76
     1
 98
        1
 10
0.0
 20
0.0
450
        0
451
        0
460
0.0
461
0.0
452
        0
462
0.0
453
        0
470

  0
SPLINE
  5
117
330
10F
100
AcDbEntity
  8
レイヤー 1
100
AcDbSpline
210
0.0
220
0.0
230
1.0
 70
     9
 71
     3
 72
    29
 73
    25
 74
     0
 42
0.0000000001
 43
0.0000000001
 40
0.0
 40
0.0
 40
0.0
 40
0.0
 40
1.0
 40
1.0
 40
1.0
 40
2.0
 40
2.0
 40
2.0
 40
3.0
 40
3.0
 40
3.0
 40
4.0
 40
4.0
 40
4.0
 40
5.0
 40
5.0
 40
5.0
 40
6.0
 40
6.0
 40
6.0
 40
7.0
 40
7.0
 40
7.0
 40
8.0
 40
8.0
 40
8.0
 40
8.0
 10
94.94183618503191
 20
-149.0386202969417
 30
0.0
 10
94.94183618503191
 20
-149.0386202969417
 30
0.0
 10
94.65141463562535
 20
-149.0386202969417
 30
0.0
 10
94.65141463562535
 20
-149.0386202969417
 30
0.0
 10
94.55409068816704
 20
-149.0386202969417
 30
0.0
 10
94.45487193819184
 20
-149.042754411524
 30
0.0
 10
94.35754799073354
 20
-149.0575683221106
 30
0.0
 10
94.35754799073354
 20
-149.0575683221106
 30
0.0
 10
94.35754799073354
 20
-148.8482787713817
 30
0.0
 10
94.35754799073354
 20
-148.8482787713817
 30
0.0
 10
94.45848928845135
 20
-148.8630926819682
 30
0.0
 10
94.60645613954282
 20
-148.8673990513248
 30
0.0
 10
94.65141463562535
 20
-148.8673990513248
 30
0.0
 10
94.65141463562535
 20
-148.8673990513248
 30
0.0
 10
94.94183618503191
 20
-148.8673990513248
 30
0.0
 10
94.94183618503191
 20
-148.8673990513248
 30
0.0
 10
95.04105493500709
 20
-148.8673990513248
 30
0.0
 10
95.14010143020803
 20
-148.8630926819682
 30
0.0
 10
95.23932018018323
 20
-148.8482787713817
 30
0.0
 10
95.23932018018323
 20
-148.8482787713817
 30
0.0
 10
95.23932018018323
 20
-149.0575683221106
 30
0.0
 10
95.23932018018323
 20
-149.0575683221106
 30
0.0
 10
95.11133488290619
 20
-149.0386202969417
 30
0.0
 10
94.95441078355307
 20
-149.0386202969417
 30
0.0
 10
94.94183618503191
 20
-149.0386202969417
 30
0.0
  0
SPLINE
  5
118
330
10F
100
AcDbEntity
  8
レイヤー 1
100
AcDbSpline
210
0.0
220
0.0
230
1.0
 70
     9
 71
     3
 72
    50
 73
    46
 74
     0
 42
0.0000000001
 43
0.0000000001
 40
0.0
 40
0.0
 40
0.0
 40
0.0
 40
1.0
 40
1.0
 40
1.0
 40
2.0
 40
2.0
 40
2.0
 40
3.0
 40
3.0
 40
3.0
 40
4.0
 40
4.0
 40
4.0
 40
5.0
 40
5.0
 40
5.0
 40
6.0
 40
6.0
 40
6.0
 40
7.0
 40
7.0
 40
7.0
 40
8.0
 40
8.0
 40
8.0
 40
9.0
 40
9.0
 40
9.0
 40
10.0
 40
10.0
 40
10.0
 40
11.0
 40
11.0
 40
11.0
 40
12.0
 40
12.0
 40
12.0
 40
13.0
 40
13.0
 40
13.0
 40
14.0
 40
14.0
 40
14.0
 40
15.0
 40
15.0
 40
15.0
 40
15.0
 10
95.36196557945812
 20
-149.6649386561601
 30
0.0
 10
95.29530298181853
 20
-149.8423610736505
 30
0.0
 10
95.17989228306268
 20
-150.0497558218626
 30
0.0
 10
95.06258678178992
 20
-150.1896266985637
 30
0.0
 10
94.91840953573221
 20
-150.3608479441806
 30
0.0
 10
94.77957218767663
 20
-150.4497314077001
 30
0.0
 10
94.50723738956764
 20
-150.5913248321438
 30
0.0
 10
94.50723738956764
 20
-150.5913248321438
 30
0.0
 10
94.36288788873566
 20
-150.4032226186492
 30
0.0
 10
94.36288788873566
 20
-150.4032226186492
 30
0.0
 10
94.5217067906057
 20
-150.3797959693495
 30
0.0
 10
94.66777883918028
 20
-150.2933240726697
 30
0.0
 10
94.79748668419993
 20
-150.1875596412725
 30
0.0
 10
95.02107338119264
 20
-150.0053140901028
 30
0.0
 10
95.18350963332219
 20
-149.6921549104936
 30
0.0
 10
95.22485077914518
 20
-149.5102538688724
 30
0.0
 10
95.22485077914518
 20
-149.5102538688724
 30
0.0
 10
94.65330943814223
 20
-149.5102538688724
 30
0.0
 10
94.65330943814223
 20
-149.5102538688724
 30
0.0
 10
94.51808944034617
 20
-149.5102538688724
 30
0.0
 10
94.26918129153689
 20
-149.5188666075855
 30
0.0
 10
94.13930119174295
 20
-149.5357475754633
 30
0.0
 10
94.13930119174295
 20
-149.5357475754633
 30
0.0
 10
94.13930119174295
 20
-149.3073377447912
 30
0.0
 10
94.13930119174295
 20
-149.3073377447912
 30
0.0
 10
94.16823999381906
 20
-149.3135389166647
 30
0.0
 10
94.18977184060187
 20
-149.3200845980866
 30
0.0
 10
94.23490259145863
 20
-149.3242187126689
 30
0.0
 10
94.32154674291266
 20
-149.3304198845424
 30
0.0
 10
94.48915063827007
 20
-149.3328314513821
 30
0.0
 10
94.56132538868606
 20
-149.3328314513821
 30
0.0
 10
94.56132538868606
 20
-149.3328314513821
 30
0.0
 10
94.99230683389082
 20
-149.3328314513821
 30
0.0
 10
94.99230683389082
 20
-149.3328314513821
 30
0.0
 10
95.05001218326874
 20
-149.3328314513821
 30
0.0
 10
95.17438013028627
 20
-149.3283528272512
 30
0.0
 10
95.22674558166206
 20
-149.3221516553778
 30
0.0
 10
95.28806828129951
 20
-149.3135389166647
 30
0.0
 10
95.3114949305992
 20
-149.2987250060781
 30
0.0
 10
95.34026147790106
 20
-149.2756428663269
 30
0.0
 10
95.34026147790106
 20
-149.2756428663269
 30
0.0
 10
95.4809936284735
 20
-149.4427299973615
 30
0.0
 10
95.4809936284735
 20
-149.4427299973615
 30
0.0
 10
95.42156573135294
 20
-149.5102538688724
 30
0.0
 10
95.3817748784983
 20
-149.6139512429784
 30
0.0
 10
95.36196557945812
 20
-149.6649386561601
 30
0.0
  0
HATCH
  5
119
330
10F
100
AcDbEntity
  8
レイヤー 1
 62
   250
420
  2299925
440
 33554687
100
AcDbHatch
 10
0.0
 20
0.0
 30
0.0
210
0.0
220
0.0
230
1.0
  2
SOLID
 70
     1
 71
     1
 91
        2
 92
        1
 93
        1
 72
     4
 94
        3
 73
     0
 74
     0
 95
       29
 96
       25
 40
0.0
 40
0.0
 40
0.0
 40
0.0
 40
1.0
 40
1.0
 40
1.0
 40
2.0
 40
2.0
 40
2.0
 40
3.0
 40
3.0
 40
3.0
 40
4.0
 40
4.0
 40
4.0
 40
5.0
 40
5.0
 40
5.0
 40
6.0
 40
6.0
 40
6.0
 40
7.0
 40
7.0
 40
7.0
 40
8.0
 40
8.0
 40
8.0
 40
8.0
 10
94.94183618503191
 20
-149.0386202969417
 10
94.94183618503191
 20
-149.0386202969417
 10
94.65141463562535
 20
-149.0386202969417
 10
94.65141463562535
 20
-149.0386202969417
 10
94.55409068816704
 20
-149.0386202969417
 10
94.45487193819184
 20
-149.042754411524
 10
94.35754799073354
 20
-149.0575683221106
 10
94.35754799073354
 20
-149.0575683221106
 10
94.35754799073354
 20
-148.8482787713817
 10
94.35754799073354
 20
-148.8482787713817
 10
94.45848928845135
 20
-148.8630926819682
 10
94.60645613954282
 20
-148.8673990513248
 10
94.65141463562535
 20
-148.8673990513248
 10
94.65141463562535
 20
-148.8673990513248
 10
94.94183618503191
 20
-148.8673990513248
 10
94.94183618503191
 20
-148.8673990513248
 10
95.04105493500709
 20
-148.8673990513248
 10
95.14010143020803
 20
-148.8630926819682
 10
95.23932018018323
 20
-148.8482787713817
 10
95.23932018018323
 20
-148.8482787713817
 10
95.23932018018323
 20
-149.0575683221106
 10
95.23932018018323
 20
-149.0575683221106
 10
95.11133488290619
 20
-149.0386202969417
 10
94.95441078355307
 20
-149.0386202969417
 10
94.94183618503191
 20
-149.0386202969417
 97
        0
 97
        1
330
117
 92
        1
 93
        1
 72
     4
 94
        3
 73
     0
 74
     0
 95
       50
 96
       46
 40
0.0
 40
0.0
 40
0.0
 40
0.0
 40
1.0
 40
1.0
 40
1.0
 40
2.0
 40
2.0
 40
2.0
 40
3.0
 40
3.0
 40
3.0
 40
4.0
 40
4.0
 40
4.0
 40
5.0
 40
5.0
 40
5.0
 40
6.0
 40
6.0
 40
6.0
 40
7.0
 40
7.0
 40
7.0
 40
8.0
 40
8.0
 40
8.0
 40
9.0
 40
9.0
 40
9.0
 40
10.0
 40
10.0
 40
10.0
 40
11.0
 40
11.0
 40
11.0
 40
12.0
 40
12.0
 40
12.0
 40
13.0
 40
13.0
 40
13.0
 40
14.0
 40
14.0
 40
14.0
 40
15.0
 40
15.0
 40
15.0
 40
15.0
 10
95.36196557945812
 20
-149.6649386561601
 10
95.29530298181853
 20
-149.8423610736505
 10
95.17989228306268
 20
-150.0497558218626
 10
95.06258678178992
 20
-150.1896266985637
 10
94.91840953573221
 20
-150.3608479441806
 10
94.77957218767663
 20
-150.4497314077001
 10
94.50723738956764
 20
-150.5913248321438
 10
94.50723738956764
 20
-150.5913248321438
 10
94.36288788873566
 20
-150.4032226186492
 10
94.36288788873566
 20
-150.4032226186492
 10
94.5217067906057
 20
-150.3797959693495
 10
94.66777883918028
 20
-150.2933240726697
 10
94.79748668419993
 20
-150.1875596412725
 10
95.02107338119264
 20
-150.0053140901028
 10
95.18350963332219
 20
-149.6921549104936
 10
95.22485077914518
 20
-149.5102538688724
 10
95.22485077914518
 20
-149.5102538688724
 10
94.65330943814223
 20
-149.5102538688724
 10
94.65330943814223
 20
-149.5102538688724
 10
94.51808944034617
 20
-149.5102538688724
 10
94.26918129153689
 20
-149.5188666075855
 10
94.13930119174295
 20
-149.5357475754633
 10
94.13930119174295
 20
-149.5357475754633
 10
94.13930119174295
 20
-149.3073377447912
 10
94.13930119174295
 20
-149.3073377447912
 10
94.16823999381906
 20
-149.3135389166647
 10
94.18977184060187
 20
-149.3200845980866
 10
94.23490259145863
 20
-149.3242187126689
 10
94.32154674291266
 20
-149.3304198845424
 10
94.48915063827007
 20
-149.3328314513821
 10
94.56132538868606
 20
-149.3328314513821
 10
94.56132538868606
 20
-149.3328314513821
 10
94.99230683389082
 20
-149.3328314513821
 10
94.99230683389082
 20
-149.3328314513821
 10
95.05001218326874
 20
-149.3328314513821
 10
95.17438013028627
 20
-149.3283528272512
 10
95.22674558166206
 20
-149.3221516553778
 10
95.28806828129951
 20
-149.3135389166647
 10
95.3114949305992
 20
-149.2987250060781
 10
95.34026147790106
 20
-149.2756428663269
 10
95.34026147790106
 20
-149.2756428663269
 10
95.4809936284735
 20
-149.4427299973615
 10
95.4809936284735
 20
-149.4427299973615
 10
95.42156573135294
 20
-149.5102538688724
 10
95.3817748784983
 20
-149.6139512429784
 10
95.36196557945812
 20
-149.6649386561601
 97
        0
 97
        1
330
118
 75
     2
 76
     1
 98
        1
 10
0.0
 20
0.0
450
        0
451
        0
460
0.0
461
0.0
452
        0
462
0.0
453
        0
470

  0
SPLINE
  5
11A
330
10F
100
AcDbEntity
  8
レイヤー 1
100
AcDbSpline
210
0.0
220
0.0
230
1.0
 70
     9
 71
     3
 72
    50
 73
    46
 74
     0
 42
0.0000000001
 43
0.0000000001
 40
0.0
 40
0.0
 40
0.0
 40
0.0
 40
1.0
 40
1.0
 40
1.0
 40
2.0
 40
2.0
 40
2.0
 40
3.0
 40
3.0
 40
3.0
 40
4.0
 40
4.0
 40
4.0
 40
5.0
 40
5.0
 40
5.0
 40
6.0
 40
6.0
 40
6.0
 40
7.0
 40
7.0
 40
7.0
 40
8.0
 40
8.0
 40
8.0
 40
9.0
 40
9.0
 40
9.0
 40
10.0
 40
10.0
 40
10.0
 40
11.0
 40
11.0
 40
11.0
 40
12.0
 40
12.0
 40
12.0
 40
13.0
 40
13.0
 40
13.0
 40
14.0
 40
14.0
 40
14.0
 40
15.0
 40
15.0
 40
15.0
 40
15.0
 10
96.81769067675045
 20
-149.0238063863551
 30
0.0
 10
96.63923473061451
 20
-149.2374023064406
 30
0.0
 10
96.57791203097707
 20
-149.3094048020824
 30
0.0
 10
96.45698917944478
 20
-149.427916086775
 30
0.0
 10
96.45698917944478
 20
-149.427916086775
 30
0.0
 10
96.45698917944478
 20
-149.9949788036471
 30
0.0
 10
96.45698917944478
 20
-149.9949788036471
 30
0.0
 10
96.45698917944478
 20
-150.145184966804
 30
0.0
 10
96.46250133222117
 20
-150.1641329919728
 30
0.0
 10
96.4661186824807
 20
-150.3418999190117
 30
0.0
 10
96.46784123022333
 20
-150.4731580569998
 30
0.0
 10
96.47335338299972
 20
-150.5217339033418
 30
0.0
 10
96.47869328100185
 20
-150.5809895456881
 30
0.0
 10
96.47869328100185
 20
-150.5809895456881
 30
0.0
 10
96.28576793382787
 20
-150.5809895456881
 30
0.0
 10
96.28576793382787
 20
-150.5809895456881
 30
0.0
 10
96.28938528408738
 20
-150.5365478139284
 30
0.0
 10
96.29300263434689
 20
-150.4900390248775
 30
0.0
 10
96.29300263434689
 20
-150.4814262861644
 30
0.0
 10
96.29300263434689
 20
-150.401155561358
 30
0.0
 10
96.2966199846064
 20
-150.0497558218626
 30
0.0
 10
96.2966199846064
 20
-149.9777533262208
 30
0.0
 10
96.2966199846064
 20
-149.9777533262208
 30
0.0
 10
96.2966199846064
 20
-149.5715765685099
 30
0.0
 10
96.2966199846064
 20
-149.5715765685099
 30
0.0
 10
96.14141843299591
 20
-149.6966335346244
 30
0.0
 10
95.97553708538113
 20
-149.8065320806039
 30
0.0
 10
95.80242103724732
 20
-149.8933484868322
 30
0.0
 10
95.80242103724732
 20
-149.8933484868322
 30
0.0
 10
95.62930498911351
 20
-149.7303954703799
 30
0.0
 10
95.62930498911351
 20
-149.7303954703799
 30
0.0
 10
95.7340358918651
 20
-149.6945664773333
 30
0.0
 10
95.95211043608143
 20
-149.6204969244004
 30
0.0
 10
96.24614933574749
 20
-149.3645263298463
 30
0.0
 10
96.42994517988558
 20
-149.2057074279763
 30
0.0
 10
96.59410397975774
 20
-149.0176052144817
 30
0.0
 10
96.72398407955164
 20
-148.7974636129742
 30
0.0
 10
96.72398407955164
 20
-148.7974636129742
 30
0.0
 10
96.88814287942379
 20
-148.9414686042577
 30
0.0
 10
96.88814287942379
 20
-148.9414686042577
 30
0.0
 10
96.89882267542808
 20
-148.9518038907134
 30
0.0
 10
96.9060573759471
 20
-148.9666178013
 30
0.0
 10
96.9060573759471
 20
-148.9793646545954
 30
0.0
 10
96.9060573759471
 20
-149.0196722717728
 30
0.0
 10
96.87367347838575
 20
-149.0196722717728
 30
0.0
 10
96.81769067675045
 20
-149.0238063863551
 30
0.0
  0
HATCH
  5
11B
330
10F
100
AcDbEntity
  8
レイヤー 1
 62
   250
420
  2299925
440
 33554687
100
AcDbHatch
 10
0.0
 20
0.0
 30
0.0
210
0.0
220
0.0
230
1.0
  2
SOLID
 70
     1
 71
     1
 91
        1
 92
        1
 93
        1
 72
     4
 94
        3
 73
     0
 74
     0
 95
       50
 96
       46
 40
0.0
 40
0.0
 40
0.0
 40
0.0
 40
1.0
 40
1.0
 40
1.0
 40
2.0
 40
2.0
 40
2.0
 40
3.0
 40
3.0
 40
3.0
 40
4.0
 40
4.0
 40
4.0
 40
5.0
 40
5.0
 40
5.0
 40
6.0
 40
6.0
 40
6.0
 40
7.0
 40
7.0
 40
7.0
 40
8.0
 40
8.0
 40
8.0
 40
9.0
 40
9.0
 40
9.0
 40
10.0
 40
10.0
 40
10.0
 40
11.0
 40
11.0
 40
11.0
 40
12.0
 40
12.0
 40
12.0
 40
13.0
 40
13.0
 40
13.0
 40
14.0
 40
14.0
 40
14.0
 40
15.0
 40
15.0
 40
15.0
 40
15.0
 10
96.81769067675045
 20
-149.0238063863551
 10
96.63923473061451
 20
-149.2374023064406
 10
96.57791203097707
 20
-149.3094048020824
 10
96.45698917944478
 20
-149.427916086775
 10
96.45698917944478
 20
-149.427916086775
 10
96.45698917944478
 20
-149.9949788036471
 10
96.45698917944478
 20
-149.9949788036471
 10
96.45698917944478
 20
-150.145184966804
 10
96.46250133222117
 20
-150.1641329919728
 10
96.4661186824807
 20
-150.3418999190117
 10
96.46784123022333
 20
-150.4731580569998
 10
96.47335338299972
 20
-150.5217339033418
 10
96.47869328100185
 20
-150.5809895456881
 10
96.47869328100185
 20
-150.5809895456881
 10
96.28576793382787
 20
-150.5809895456881
 10
96.28576793382787
 20
-150.5809895456881
 10
96.28938528408738
 20
-150.5365478139284
 10
96.29300263434689
 20
-150.4900390248775
 10
96.29300263434689
 20
-150.4814262861644
 10
96.29300263434689
 20
-150.401155561358
 10
96.2966199846064
 20
-150.0497558218626
 10
96.2966199846064
 20
-149.9777533262208
 10
96.2966199846064
 20
-149.9777533262208
 10
96.2966199846064
 20
-149.5715765685099
 10
96.2966199846064
 20
-149.5715765685099
 10
96.14141843299591
 20
-149.6966335346244
 10
95.97553708538113
 20
-149.8065320806039
 10
95.80242103724732
 20
-149.8933484868322
 10
95.80242103724732
 20
-149.8933484868322
 10
95.62930498911351
 20
-149.7303954703799
 10
95.62930498911351
 20
-149.7303954703799
 10
95.7340358918651
 20
-149.6945664773333
 10
95.95211043608143
 20
-149.6204969244004
 10
96.24614933574749
 20
-149.3645263298463
 10
96.42994517988558
 20
-149.2057074279763
 10
96.59410397975774
 20
-149.0176052144817
 10
96.72398407955164
 20
-148.7974636129742
 10
96.72398407955164
 20
-148.7974636129742
 10
96.88814287942379
 20
-148.9414686042577
 10
96.88814287942379
 20
-148.9414686042577
 10
96.89882267542808
 20
-148.9518038907134
 10
96.9060573759471
 20
-148.9666178013
 10
96.9060573759471
 20
-148.9793646545954
 10
96.9060573759471
 20
-149.0196722717728
 10
96.87367347838575
 20
-149.0196722717728
 10
96.81769067675045
 20
-149.0238063863551
 97
        0
 97
        1
330
11A
 75
     2
 76
     1
 98
        1
 10
0.0
 20
0.0
450
        0
451
        0
460
0.0
461
0.0
452
        0
462
0.0
453
        0
470

  0
SPLINE
  5
11C
330
10F
100
AcDbEntity
  8
レイヤー 1
100
AcDbSpline
210
0.0
220
0.0
230
1.0
 70
     9
 71
     3
 72
    50
 73
    46
 74
     0
 42
0.0000000001
 43
0.0000000001
 40
0.0
 40
0.0
 40
0.0
 40
0.0
 40
1.0
 40
1.0
 40
1.0
 40
2.0
 40
2.0
 40
2.0
 40
3.0
 40
3.0
 40
3.0
 40
4.0
 40
4.0
 40
4.0
 40
5.0
 40
5.0
 40
5.0
 40
6.0
 40
6.0
 40
6.0
 40
7.0
 40
7.0
 40
7.0
 40
8.0
 40
8.0
 40
8.0
 40
9.0
 40
9.0
 40
9.0
 40
10.0
 40
10.0
 40
10.0
 40
11.0
 40
11.0
 40
11.0
 40
12.0
 40
12.0
 40
12.0
 40
13.0
 40
13.0
 40
13.0
 40
14.0
 40
14.0
 40
14.0
 40
15.0
 40
15.0
 40
15.0
 40
15.0
 10
98.27186548107441
 20
-149.5505614860499
 30
0.0
 10
98.21967228447286
 20
-149.6225639816916
 30
0.0
 10
97.99780813522277
 20
-149.9398572758831
 30
0.0
 10
97.9490600341065
 20
-150.0032470328117
 30
0.0
 10
98.02123478452248
 20
-150.1007432350442
 30
0.0
 10
98.06447073286236
 20
-150.1641329919728
 30
0.0
 10
98.12045353449768
 20
-150.2550835127834
 30
0.0
 10
98.12045353449768
 20
-150.2550835127834
 30
0.0
 10
97.96352943514454
 20
-150.3925428226449
 30
0.0
 10
97.96352943514454
 20
-150.3925428226449
 30
0.0
 10
97.84811873638867
 20
-150.1810139598506
 30
0.0
 10
97.70204668781408
 20
-149.9567382437608
 30
0.0
 10
97.45141599126215
 20
-149.7579562342619
 30
0.0
 10
97.45141599126215
 20
-149.7579562342619
 30
0.0
 10
97.57767874079656
 20
-149.6036159565227
 30
0.0
 10
97.57767874079656
 20
-149.6036159565227
 30
0.0
 10
97.67138533799535
 20
-149.683886681329
 30
0.0
 10
97.75975203719202
 20
-149.7727701448485
 30
0.0
 10
97.84277883838655
 20
-149.8678547802414
 30
0.0
 10
97.90048418776446
 20
-149.7917181700174
 30
0.0
 10
98.07360023589827
 20
-149.5484944287587
 30
0.0
 10
98.18711613213725
 20
-149.3200845980866
 30
0.0
 10
98.18711613213725
 20
-149.3200845980866
 30
0.0
 10
97.61367998861743
 20
-149.3200845980866
 30
0.0
 10
97.61367998861743
 20
-149.3200845980866
 30
0.0
 10
97.50722653812319
 20
-149.3200845980866
 30
0.0
 10
97.2927693441664
 20
-149.3283528272512
 30
0.0
 10
97.1141411432562
 20
-149.3390326232555
 30
0.0
 10
97.1141411432562
 20
-149.3390326232555
 30
0.0
 10
97.1141411432562
 20
-149.118891021748
 30
0.0
 10
97.1141411432562
 20
-149.118891021748
 30
0.0
 10
97.27106524260932
 20
-149.1381835564654
 30
0.0
 10
97.44607609326003
 20
-149.1423176710477
 30
0.0
 10
97.60644528809841
 20
-149.1423176710477
 30
0.0
 10
97.60644528809841
 20
-149.1423176710477
 30
0.0
 10
98.03570418556052
 20
-149.1423176710477
 30
0.0
 10
98.03570418556052
 20
-149.1423176710477
 30
0.0
 10
98.32423093245019
 20
-149.1423176710477
 30
0.0
 10
98.36212698278794
 20
-149.1275037604612
 30
0.0
 10
98.43240693068704
 20
-149.0871961432837
 30
0.0
 10
98.43240693068704
 20
-149.0871961432837
 30
0.0
 10
98.57486162900213
 20
-149.2460150451537
 30
0.0
 10
98.57486162900213
 20
-149.2460150451537
 30
0.0
 10
98.4449815292082
 20
-149.3180175407955
 30
0.0
 10
98.32233612993331
 20
-149.4806260476993
 30
0.0
 10
98.27186548107441
 20
-149.5505614860499
 30
0.0
  0
HATCH
  5
11D
330
10F
100
AcDbEntity
  8
レイヤー 1
 62
   250
420
  2299925
440
 33554687
100
AcDbHatch
 10
0.0
 20
0.0
 30
0.0
210
0.0
220
0.0
230
1.0
  2
SOLID
 70
     1
 71
     1
 91
        1
 92
        1
 93
        1
 72
     4
 94
        3
 73
     0
 74
     0
 95
       50
 96
       46
 40
0.0
 40
0.0
 40
0.0
 40
0.0
 40
1.0
 40
1.0
 40
1.0
 40
2.0
 40
2.0
 40
2.0
 40
3.0
 40
3.0
 40
3.0
 40
4.0
 40
4.0
 40
4.0
 40
5.0
 40
5.0
 40
5.0
 40
6.0
 40
6.0
 40
6.0
 40
7.0
 40
7.0
 40
7.0
 40
8.0
 40
8.0
 40
8.0
 40
9.0
 40
9.0
 40
9.0
 40
10.0
 40
10.0
 40
10.0
 40
11.0
 40
11.0
 40
11.0
 40
12.0
 40
12.0
 40
12.0
 40
13.0
 40
13.0
 40
13.0
 40
14.0
 40
14.0
 40
14.0
 40
15.0
 40
15.0
 40
15.0
 40
15.0
 10
98.27186548107441
 20
-149.5505614860499
 10
98.21967228447286
 20
-149.6225639816916
 10
97.99780813522277
 20
-149.9398572758831
 10
97.9490600341065
 20
-150.0032470328117
 10
98.02123478452248
 20
-150.1007432350442
 10
98.06447073286236
 20
-150.1641329919728
 10
98.12045353449768
 20
-150.2550835127834
 10
98.12045353449768
 20
-150.2550835127834
 10
97.96352943514454
 20
-150.3925428226449
 10
97.96352943514454
 20
-150.3925428226449
 10
97.84811873638867
 20
-150.1810139598506
 10
97.70204668781408
 20
-149.9567382437608
 10
97.45141599126215
 20
-149.7579562342619
 10
97.45141599126215
 20
-149.7579562342619
 10
97.57767874079656
 20
-149.6036159565227
 10
97.57767874079656
 20
-149.6036159565227
 10
97.67138533799535
 20
-149.683886681329
 10
97.75975203719202
 20
-149.7727701448485
 10
97.84277883838655
 20
-149.8678547802414
 10
97.90048418776446
 20
-149.7917181700174
 10
98.07360023589827
 20
-149.5484944287587
 10
98.18711613213725
 20
-149.3200845980866
 10
98.18711613213725
 20
-149.3200845980866
 10
97.61367998861743
 20
-149.3200845980866
 10
97.61367998861743
 20
-149.3200845980866
 10
97.50722653812319
 20
-149.3200845980866
 10
97.2927693441664
 20
-149.3283528272512
 10
97.1141411432562
 20
-149.3390326232555
 10
97.1141411432562
 20
-149.3390326232555
 10
97.1141411432562
 20
-149.118891021748
 10
97.1141411432562
 20
-149.118891021748
 10
97.27106524260932
 20
-149.1381835564654
 10
97.44607609326003
 20
-149.1423176710477
 10
97.60644528809841
 20
-149.1423176710477
 10
97.60644528809841
 20
-149.1423176710477
 10
98.03570418556052
 20
-149.1423176710477
 10
98.03570418556052
 20
-149.1423176710477
 10
98.32423093245019
 20
-149.1423176710477
 10
98.36212698278794
 20
-149.1275037604612
 10
98.43240693068704
 20
-149.0871961432837
 10
98.43240693068704
 20
-149.0871961432837
 10
98.57486162900213
 20
-149.2460150451537
 10
98.57486162900213
 20
-149.2460150451537
 10
98.4449815292082
 20
-149.3180175407955
 10
98.32233612993331
 20
-149.4806260476993
 10
98.27186548107441
 20
-149.5505614860499
 97
        0
 97
        1
330
11C
 75
     2
 76
     1
 98
        1
 10
0.0
 20
0.0
450
        0
451
        0
460
0.0
461
0.0
452
        0
462
0.0
453
        0
470

  0
SPLINE
  5
11E
330
10F
100
AcDbEntity
  8
レイヤー 1
100
AcDbSpline
210
0.0
220
0.0
230
1.0
 70
     9
 71
     3
 72
    29
 73
    25
 74
     0
 42
0.0000000001
 43
0.0000000001
 40
0.0
 40
0.0
 40
0.0
 40
0.0
 40
1.0
 40
1.0
 40
1.0
 40
2.0
 40
2.0
 40
2.0
 40
3.0
 40
3.0
 40
3.0
 40
4.0
 40
4.0
 40
4.0
 40
5.0
 40
5.0
 40
5.0
 40
6.0
 40
6.0
 40
6.0
 40
7.0
 40
7.0
 40
7.0
 40
8.0
 40
8.0
 40
8.0
 40
8.0
 10
99.65369328020811
 20
-149.7937852273085
 30
0.0
 10
99.65369328020811
 20
-149.7937852273085
 30
0.0
 10
99.24079858630092
 20
-149.7937852273085
 30
0.0
 10
99.24079858630092
 20
-149.7937852273085
 30
0.0
 10
99.21719968222696
 20
-149.7937852273085
 30
0.0
 10
98.94675968663484
 20
-149.7937852273085
 30
0.0
 10
98.76640893798201
 20
-149.8192789338993
 30
0.0
 10
98.76640893798201
 20
-149.8192789338993
 30
0.0
 10
98.76640893798201
 20
-149.5888020459361
 30
0.0
 10
98.76640893798201
 20
-149.5888020459361
 30
0.0
 10
98.90162893577807
 20
-149.6118841856873
 30
0.0
 10
99.0640651879076
 20
-149.6139512429784
 30
0.0
 10
99.24079858630092
 20
-149.6139512429784
 30
0.0
 10
99.24079858630092
 20
-149.6139512429784
 30
0.0
 10
99.65369328020811
 20
-149.6139512429784
 30
0.0
 10
99.65369328020811
 20
-149.6139512429784
 30
0.0
 10
99.81233992730388
 20
-149.6139512429784
 30
0.0
 10
99.97098657439963
 20
-149.6118841856873
 30
0.0
 10
100.1279106737527
 20
-149.5888020459361
 30
0.0
 10
100.1279106737527
 20
-149.5888020459361
 30
0.0
 10
100.1279106737527
 20
-149.8192789338993
 30
0.0
 10
100.1279106737527
 20
-149.8192789338993
 30
0.0
 10
99.97098657439963
 20
-149.7958522845996
 30
0.0
 10
99.76014673070233
 20
-149.7937852273085
 30
0.0
 10
99.65369328020811
 20
-149.7937852273085
 30
0.0
  0
HATCH
  5
11F
330
10F
100
AcDbEntity
  8
レイヤー 1
 62
   250
420
  2299925
440
 33554687
100
AcDbHatch
 10
0.0
 20
0.0
 30
0.0
210
0.0
220
0.0
230
1.0
  2
SOLID
 70
     1
 71
     1
 91
        1
 92
        1
 93
        1
 72
     4
 94
        3
 73
     0
 74
     0
 95
       29
 96
       25
 40
0.0
 40
0.0
 40
0.0
 40
0.0
 40
1.0
 40
1.0
 40
1.0
 40
2.0
 40
2.0
 40
2.0
 40
3.0
 40
3.0
 40
3.0
 40
4.0
 40
4.0
 40
4.0
 40
5.0
 40
5.0
 40
5.0
 40
6.0
 40
6.0
 40
6.0
 40
7.0
 40
7.0
 40
7.0
 40
8.0
 40
8.0
 40
8.0
 40
8.0
 10
99.65369328020811
 20
-149.7937852273085
 10
99.65369328020811
 20
-149.7937852273085
 10
99.24079858630092
 20
-149.7937852273085
 10
99.24079858630092
 20
-149.7937852273085
 10
99.21719968222696
 20
-149.7937852273085
 10
98.94675968663484
 20
-149.7937852273085
 10
98.76640893798201
 20
-149.8192789338993
 10
98.76640893798201
 20
-149.8192789338993
 10
98.76640893798201
 20
-149.5888020459361
 10
98.76640893798201
 20
-149.5888020459361
 10
98.90162893577807
 20
-149.6118841856873
 10
99.0640651879076
 20
-149.6139512429784
 10
99.24079858630092
 20
-149.6139512429784
 10
99.24079858630092
 20
-149.6139512429784
 10
99.65369328020811
 20
-149.6139512429784
 10
99.65369328020811
 20
-149.6139512429784
 10
99.81233992730388
 20
-149.6139512429784
 10
99.97098657439963
 20
-149.6118841856873
 10
100.1279106737527
 20
-149.5888020459361
 10
100.1279106737527
 20
-149.5888020459361
 10
100.1279106737527
 20
-149.8192789338993
 10
100.1279106737527
 20
-149.8192789338993
 10
99.97098657439963
 20
-149.7958522845996
 10
99.76014673070233
 20
-149.7937852273085
 10
99.65369328020811
 20
-149.7937852273085
 97
        0
 97
        1
330
11E
 75
     2
 76
     1
 98
        1
 10
0.0
 20
0.0
450
        0
451
        0
460
0.0
461
0.0
452
        0
462
0.0
453
        0
470

  0
SPLINE
  5
120
330
10F
100
AcDbEntity
  8
レイヤー 1
100
AcDbSpline
210
0.0
220
0.0
230
1.0
 70
     9
 71
     3
 72
    20
 73
    16
 74
     0
 42
0.0000000001
 43
0.0000000001
 40
0.0
 40
0.0
 40
0.0
 40
0.0
 40
1.0
 40
1.0
 40
1.0
 40
2.0
 40
2.0
 40
2.0
 40
3.0
 40
3.0
 40
3.0
 40
4.0
 40
4.0
 40
4.0
 40
5.0
 40
5.0
 40
5.0
 40
5.0
 10
101.1850382234016
 20
-150.145184966804
 30
0.0
 10
101.1454196253213
 20
-149.9674180397651
 30
0.0
 10
101.0623928241267
 20
-149.8254801057728
 30
0.0
 10
100.9433647751114
 20
-149.7155815597933
 30
0.0
 10
100.9433647751114
 20
-149.7155815597933
 30
0.0
 10
101.0804795754243
 20
-149.601204389683
 30
0.0
 10
101.0804795754243
 20
-149.601204389683
 30
0.0
 10
101.1326727720258
 20
-149.6435790641516
 30
0.0
 10
101.1669514721041
 20
-149.6773409999071
 30
0.0
 10
101.231891522001
 20
-149.7855169981439
 30
0.0
 10
101.3004489221575
 20
-149.9016167159968
 30
0.0
 10
101.3185356734551
 20
-149.9546711864697
 30
0.0
 10
101.3400675202379
 20
-150.0201280006894
 30
0.0
 10
101.3400675202379
 20
-150.0201280006894
 30
0.0
 10
101.1850382234016
 20
-150.145184966804
 30
0.0
 10
101.1850382234016
 20
-150.145184966804
 30
0.0
  0
SPLINE
  5
121
330
10F
100
AcDbEntity
  8
レイヤー 1
100
AcDbSpline
210
0.0
220
0.0
230
1.0
 70
     9
 71
     3
 72
    77
 73
    73
 74
     0
 42
0.0000000001
 43
0.0000000001
 40
0.0
 40
0.0
 40
0.0
 40
0.0
 40
1.0
 40
1.0
 40
1.0
 40
2.0
 40
2.0
 40
2.0
 40
3.0
 40
3.0
 40
3.0
 40
4.0
 40
4.0
 40
4.0
 40
5.0
 40
5.0
 40
5.0
 40
6.0
 40
6.0
 40
6.0
 40
7.0
 40
7.0
 40
7.0
 40
8.0
 40
8.0
 40
8.0
 40
9.0
 40
9.0
 40
9.0
 40
10.0
 40
10.0
 40
10.0
 40
11.0
 40
11.0
 40
11.0
 40
12.0
 40
12.0
 40
12.0
 40
13.0
 40
13.0
 40
13.0
 40
14.0
 40
14.0
 40
14.0
 40
15.0
 40
15.0
 40
15.0
 40
16.0
 40
16.0
 40
16.0
 40
17.0
 40
17.0
 40
17.0
 40
18.0
 40
18.0
 40
18.0
 40
19.0
 40
19.0
 40
19.0
 40
20.0
 40
20.0
 40
20.0
 40
21.0
 40
21.0
 40
21.0
 40
22.0
 40
22.0
 40
22.0
 40
23.0
 40
23.0
 40
23.0
 40
24.0
 40
24.0
 40
24.0
 40
24.0
 10
101.841501168116
 20
-149.4193033480618
 30
0.0
 10
101.7819010162212
 20
-149.4151692334795
 30
0.0
 10
101.7241956668432
 20
-149.4151692334795
 30
0.0
 10
101.6664903174653
 20
-149.4151692334795
 30
0.0
 10
101.6664903174653
 20
-149.4151692334795
 30
0.0
 10
101.6664903174653
 20
-150.1896266985637
 30
0.0
 10
101.6664903174653
 20
-150.1896266985637
 30
0.0
 10
101.6664903174653
 20
-150.4538655222823
 30
0.0
 10
101.6647677697227
 20
-150.4834933434555
 30
0.0
 10
101.6592556169463
 20
-150.5131211646286
 30
0.0
 10
101.6304890696444
 20
-150.6464463599078
 30
0.0
 10
101.5438449181904
 20
-150.655059098621
 30
0.0
 10
101.3941555193563
 20
-150.655059098621
 30
0.0
 10
101.3598768192781
 20
-150.655059098621
 30
0.0
 10
101.3455796730143
 20
-150.655059098621
 30
0.0
 10
101.311300972936
 20
-150.6505804744901
 30
0.0
 10
101.311300972936
 20
-150.6505804744901
 30
0.0
 10
101.2048475224418
 20
-150.4094237905226
 30
0.0
 10
101.2048475224418
 20
-150.4094237905226
 30
0.0
 10
101.304066272417
 20
-150.4414631785355
 30
0.0
 10
101.3743462203161
 20
-150.4414631785355
 30
0.0
 10
101.3941555193563
 20
-150.4414631785355
 30
0.0
 10
101.4537556712511
 20
-150.4414631785355
 30
0.0
 10
101.482522218553
 20
-150.4242377011092
 30
0.0
 10
101.4861395688125
 20
-150.3673936256026
 30
0.0
 10
101.4861395688125
 20
-150.3546467723072
 30
0.0
 10
101.4880343713294
 20
-150.2571505700746
 30
0.0
 10
101.4880343713294
 20
-150.1999619850194
 30
0.0
 10
101.4880343713294
 20
-150.1999619850194
 30
0.0
 10
101.4880343713294
 20
-149.4131021761884
 30
0.0
 10
101.4880343713294
 20
-149.4131021761884
 30
0.0
 10
101.4880343713294
 20
-149.4131021761884
 30
0.0
 10
101.2374036747774
 20
-149.4131021761884
 30
0.0
 10
101.2374036747774
 20
-149.4131021761884
 30
0.0
 10
101.1128634729857
 20
-149.4131021761884
 30
0.0
 10
100.9884955259681
 20
-149.4193033480618
 30
0.0
 10
100.8658501266932
 20
-149.4320502013573
 30
0.0
 10
100.8658501266932
 20
-149.4320502013573
 30
0.0
 10
100.8658501266932
 20
-149.2246554531452
 30
0.0
 10
100.8658501266932
 20
-149.2246554531452
 30
0.0
 10
100.9938354239703
 20
-149.2374023064406
 30
0.0
 10
101.1796983253995
 20
-149.2418809305715
 30
0.0
 10
101.2374036747774
 20
-149.2418809305715
 30
0.0
 10
101.2374036747774
 20
-149.2418809305715
 30
0.0
 10
101.4880343713294
 20
-149.2418809305715
 30
0.0
 10
101.4880343713294
 20
-149.2418809305715
 30
0.0
 10
101.4861395688125
 20
-148.973163482722
 30
0.0
 10
101.4861395688125
 20
-148.8970268724979
 30
0.0
 10
101.4789048682934
 20
-148.7488877666322
 30
0.0
 10
101.4789048682934
 20
-148.7488877666322
 30
0.0
 10
101.6990464698009
 20
-148.7869560717442
 30
0.0
 10
101.6990464698009
 20
-148.7869560717442
 30
0.0
 10
101.7116210683221
 20
-148.7890231290354
 30
0.0
 10
101.7241956668432
 20
-148.7953965556831
 30
0.0
 10
101.7241956668432
 20
-148.8165838929174
 30
0.0
 10
101.7241956668432
 20
-148.8357041728605
 30
0.0
 10
101.7188557688411
 20
-148.8377712301516
 30
0.0
 10
101.6701076677248
 20
-148.8715331659071
 30
0.0
 10
101.6664903174653
 20
-148.9497368334223
 30
0.0
 10
101.6664903174653
 20
-148.9645507440088
 30
0.0
 10
101.6664903174653
 20
-149.2418809305715
 30
0.0
 10
101.8180745188163
 20
-149.2374023064406
 30
0.0
 10
101.834266467597
 20
-149.2374023064406
 30
0.0
 10
101.8630330148988
 20
-149.2332681918583
 30
0.0
 10
101.9062689632387
 20
-149.229134077276
 30
0.0
 10
101.9098863134982
 20
-149.2270670199849
 30
0.0
 10
101.9477823638359
 20
-149.2246554531452
 30
0.0
 10
101.9477823638359
 20
-149.2246554531452
 30
0.0
 10
101.9477823638359
 20
-149.4320502013573
 30
0.0
 10
101.9477823638359
 20
-149.4320502013573
 30
0.0
 10
101.9226331667936
 20
-149.4299831440661
 30
0.0
 10
101.87560761342
 20
-149.421370405353
 30
0.0
 10
101.841501168116
 20
-149.4193033480618
 30
0.0
  0
SPLINE
  5
122
330
10F
100
AcDbEntity
  8
レイヤー 1
100
AcDbSpline
210
0.0
220
0.0
230
1.0
 70
     9
 71
     3
 72
    53
 73
    49
 74
     0
 42
0.0000000001
 43
0.0000000001
 40
0.0
 40
0.0
 40
0.0
 40
0.0
 40
1.0
 40
1.0
 40
1.0
 40
2.0
 40
2.0
 40
2.0
 40
3.0
 40
3.0
 40
3.0
 40
4.0
 40
4.0
 40
4.0
 40
5.0
 40
5.0
 40
5.0
 40
6.0
 40
6.0
 40
6.0
 40
7.0
 40
7.0
 40
7.0
 40
8.0
 40
8.0
 40
8.0
 40
9.0
 40
9.0
 40
9.0
 40
10.0
 40
10.0
 40
10.0
 40
11.0
 40
11.0
 40
11.0
 40
12.0
 40
12.0
 40
12.0
 40
13.0
 40
13.0
 40
13.0
 40
14.0
 40
14.0
 40
14.0
 40
15.0
 40
15.0
 40
15.0
 40
16.0
 40
16.0
 40
16.0
 40
16.0
 10
100.8605102286911
 20
-148.9201090122491
 30
0.0
 10
100.8028048793132
 20
-149.0723822326972
 30
0.0
 10
100.766631376718
 20
-149.1505859002123
 30
0.0
 10
100.7342474791567
 20
-149.2184542812718
 30
0.0
 10
100.7702487269776
 20
-149.2394693637318
 30
0.0
 10
100.7738660772371
 20
-149.2418809305715
 30
0.0
 10
100.7738660772371
 20
-149.256694841158
 30
0.0
 10
100.7738660772371
 20
-149.2690971849049
 30
0.0
 10
100.7450995299352
 20
-149.3032036302089
 30
0.0
 10
100.7359700268993
 20
-149.3114718593735
 30
0.0
 10
100.7342474791567
 20
-149.5081868115813
 30
0.0
 10
100.7342474791567
 20
-149.5295464035898
 30
0.0
 10
100.7342474791567
 20
-149.662871598869
 30
0.0
 10
100.7323526766398
 20
-149.6752739426159
 30
0.0
 10
100.7323526766398
 20
-149.6900878532025
 30
0.0
 10
100.7323526766398
 20
-149.704901763789
 30
0.0
 10
100.7323526766398
 20
-149.704901763789
 30
0.0
 10
100.7323526766398
 20
-150.2402696021969
 30
0.0
 10
100.7323526766398
 20
-150.2402696021969
 30
0.0
 10
100.7323526766398
 20
-150.3122720978386
 30
0.0
 10
100.7359700268993
 20
-150.5472276099326
 30
0.0
 10
100.7432047274184
 20
-150.6571261559121
 30
0.0
 10
100.7432047274184
 20
-150.6571261559121
 30
0.0
 10
100.5358099792063
 20
-150.6571261559121
 30
0.0
 10
100.5358099792063
 20
-150.6571261559121
 30
0.0
 10
100.5556192782465
 20
-150.4983072540421
 30
0.0
 10
100.5611314310229
 20
-150.2571505700746
 30
0.0
 10
100.5611314310229
 20
-150.2361354876146
 30
0.0
 10
100.5611314310229
 20
-150.2361354876146
 30
0.0
 10
100.5611314310229
 20
-149.5188666075855
 30
0.0
 10
100.5611314310229
 20
-149.5188666075855
 30
0.0
 10
100.4836167826048
 20
-149.6332437776958
 30
0.0
 10
100.431251331229
 20
-149.6921549104936
 30
0.0
 10
100.3952500834081
 20
-149.7345295849622
 30
0.0
 10
100.3952500834081
 20
-149.7345295849622
 30
0.0
 10
100.2328138312786
 20
-149.5970702751007
 30
0.0
 10
100.2328138312786
 20
-149.5970702751007
 30
0.0
 10
100.4727647318262
 20
-149.3814072977241
 30
0.0
 10
100.6367512769241
 20
-149.0723822326972
 30
0.0
 10
100.7323526766398
 20
-148.7361409133368
 30
0.0
 10
100.7323526766398
 20
-148.7361409133368
 30
0.0
 10
100.9199381258117
 20
-148.8505180834471
 30
0.0
 10
100.9199381258117
 20
-148.8505180834471
 30
0.0
 10
100.9307901765902
 20
-148.8567192553205
 30
0.0
 10
100.9380248771092
 20
-148.8610256246771
 30
0.0
 10
100.9380248771092
 20
-148.8756672804894
 30
0.0
 10
100.9380248771092
 20
-148.9011609870802
 30
0.0
 10
100.9235554760712
 20
-148.9052951016625
 30
0.0
 10
100.8605102286911
 20
-148.9201090122491
 30
0.0
  0
HATCH
  5
123
330
10F
100
AcDbEntity
  8
レイヤー 1
 62
   250
420
  2299925
440
 33554687
100
AcDbHatch
 10
0.0
 20
0.0
 30
0.0
210
0.0
220
0.0
230
1.0
  2
SOLID
 70
     1
 71
     1
 91
        3
 92
        1
 93
        1
 72
     4
 94
        3
 73
     0
 74
     0
 95
       20
 96
       16
 40
0.0
 40
0.0
 40
0.0
 40
0.0
 40
1.0
 40
1.0
 40
1.0
 40
2.0
 40
2.0
 40
2.0
 40
3.0
 40
3.0
 40
3.0
 40
4.0
 40
4.0
 40
4.0
 40
5.0
 40
5.0
 40
5.0
 40
5.0
 10
101.1850382234016
 20
-150.145184966804
 10
101.1454196253213
 20
-149.9674180397651
 10
101.0623928241267
 20
-149.8254801057728
 10
100.9433647751114
 20
-149.7155815597933
 10
100.9433647751114
 20
-149.7155815597933
 10
101.0804795754243
 20
-149.601204389683
 10
101.0804795754243
 20
-149.601204389683
 10
101.1326727720258
 20
-149.6435790641516
 10
101.1669514721041
 20
-149.6773409999071
 10
101.231891522001
 20
-149.7855169981439
 10
101.3004489221575
 20
-149.9016167159968
 10
101.3185356734551
 20
-149.9546711864697
 10
101.3400675202379
 20
-150.0201280006894
 10
101.3400675202379
 20
-150.0201280006894
 10
101.1850382234016
 20
-150.145184966804
 10
101.1850382234016
 20
-150.145184966804
 97
        0
 97
        1
330
120
 92
        1
 93
        1
 72
     4
 94
        3
 73
     0
 74
     0
 95
       77
 96
       73
 40
0.0
 40
0.0
 40
0.0
 40
0.0
 40
1.0
 40
1.0
 40
1.0
 40
2.0
 40
2.0
 40
2.0
 40
3.0
 40
3.0
 40
3.0
 40
4.0
 40
4.0
 40
4.0
 40
5.0
 40
5.0
 40
5.0
 40
6.0
 40
6.0
 40
6.0
 40
7.0
 40
7.0
 40
7.0
 40
8.0
 40
8.0
 40
8.0
 40
9.0
 40
9.0
 40
9.0
 40
10.0
 40
10.0
 40
10.0
 40
11.0
 40
11.0
 40
11.0
 40
12.0
 40
12.0
 40
12.0
 40
13.0
 40
13.0
 40
13.0
 40
14.0
 40
14.0
 40
14.0
 40
15.0
 40
15.0
 40
15.0
 40
16.0
 40
16.0
 40
16.0
 40
17.0
 40
17.0
 40
17.0
 40
18.0
 40
18.0
 40
18.0
 40
19.0
 40
19.0
 40
19.0
 40
20.0
 40
20.0
 40
20.0
 40
21.0
 40
21.0
 40
21.0
 40
22.0
 40
22.0
 40
22.0
 40
23.0
 40
23.0
 40
23.0
 40
24.0
 40
24.0
 40
24.0
 40
24.0
 10
101.841501168116
 20
-149.4193033480618
 10
101.7819010162212
 20
-149.4151692334795
 10
101.7241956668432
 20
-149.4151692334795
 10
101.6664903174653
 20
-149.4151692334795
 10
101.6664903174653
 20
-149.4151692334795
 10
101.6664903174653
 20
-150.1896266985637
 10
101.6664903174653
 20
-150.1896266985637
 10
101.6664903174653
 20
-150.4538655222823
 10
101.6647677697227
 20
-150.4834933434555
 10
101.6592556169463
 20
-150.5131211646286
 10
101.6304890696444
 20
-150.6464463599078
 10
101.5438449181904
 20
-150.655059098621
 10
101.3941555193563
 20
-150.655059098621
 10
101.3598768192781
 20
-150.655059098621
 10
101.3455796730143
 20
-150.655059098621
 10
101.311300972936
 20
-150.6505804744901
 10
101.311300972936
 20
-150.6505804744901
 10
101.2048475224418
 20
-150.4094237905226
 10
101.2048475224418
 20
-150.4094237905226
 10
101.304066272417
 20
-150.4414631785355
 10
101.3743462203161
 20
-150.4414631785355
 10
101.3941555193563
 20
-150.4414631785355
 10
101.4537556712511
 20
-150.4414631785355
 10
101.482522218553
 20
-150.4242377011092
 10
101.4861395688125
 20
-150.3673936256026
 10
101.4861395688125
 20
-150.3546467723072
 10
101.4880343713294
 20
-150.2571505700746
 10
101.4880343713294
 20
-150.1999619850194
 10
101.4880343713294
 20
-150.1999619850194
 10
101.4880343713294
 20
-149.4131021761884
 10
101.4880343713294
 20
-149.4131021761884
 10
101.4880343713294
 20
-149.4131021761884
 10
101.2374036747774
 20
-149.4131021761884
 10
101.2374036747774
 20
-149.4131021761884
 10
101.1128634729857
 20
-149.4131021761884
 10
100.9884955259681
 20
-149.4193033480618
 10
100.8658501266932
 20
-149.4320502013573
 10
100.8658501266932
 20
-149.4320502013573
 10
100.8658501266932
 20
-149.2246554531452
 10
100.8658501266932
 20
-149.2246554531452
 10
100.9938354239703
 20
-149.2374023064406
 10
101.1796983253995
 20
-149.2418809305715
 10
101.2374036747774
 20
-149.2418809305715
 10
101.2374036747774
 20
-149.2418809305715
 10
101.4880343713294
 20
-149.2418809305715
 10
101.4880343713294
 20
-149.2418809305715
 10
101.4861395688125
 20
-148.973163482722
 10
101.4861395688125
 20
-148.8970268724979
 10
101.4789048682934
 20
-148.7488877666322
 10
101.4789048682934
 20
-148.7488877666322
 10
101.6990464698009
 20
-148.7869560717442
 10
101.6990464698009
 20
-148.7869560717442
 10
101.7116210683221
 20
-148.7890231290354
 10
101.7241956668432
 20
-148.7953965556831
 10
101.7241956668432
 20
-148.8165838929174
 10
101.7241956668432
 20
-148.8357041728605
 10
101.7188557688411
 20
-148.8377712301516
 10
101.6701076677248
 20
-148.8715331659071
 10
101.6664903174653
 20
-148.9497368334223
 10
101.6664903174653
 20
-148.9645507440088
 10
101.6664903174653
 20
-149.2418809305715
 10
101.8180745188163
 20
-149.2374023064406
 10
101.834266467597
 20
-149.2374023064406
 10
101.8630330148988
 20
-149.2332681918583
 10
101.9062689632387
 20
-149.229134077276
 10
101.9098863134982
 20
-149.2270670199849
 10
101.9477823638359
 20
-149.2246554531452
 10
101.9477823638359
 20
-149.2246554531452
 10
101.9477823638359
 20
-149.4320502013573
 10
101.9477823638359
 20
-149.4320502013573
 10
101.9226331667936
 20
-149.4299831440661
 10
101.87560761342
 20
-149.421370405353
 10
101.841501168116
 20
-149.4193033480618
 97
        0
 97
        1
330
121
 92
        1
 93
        1
 72
     4
 94
        3
 73
     0
 74
     0
 95
       53
 96
       49
 40
0.0
 40
0.0
 40
0.0
 40
0.0
 40
1.0
 40
1.0
 40
1.0
 40
2.0
 40
2.0
 40
2.0
 40
3.0
 40
3.0
 40
3.0
 40
4.0
 40
4.0
 40
4.0
 40
5.0
 40
5.0
 40
5.0
 40
6.0
 40
6.0
 40
6.0
 40
7.0
 40
7.0
 40
7.0
 40
8.0
 40
8.0
 40
8.0
 40
9.0
 40
9.0
 40
9.0
 40
10.0
 40
10.0
 40
10.0
 40
11.0
 40
11.0
 40
11.0
 40
12.0
 40
12.0
 40
12.0
 40
13.0
 40
13.0
 40
13.0
 40
14.0
 40
14.0
 40
14.0
 40
15.0
 40
15.0
 40
15.0
 40
16.0
 40
16.0
 40
16.0
 40
16.0
 10
100.8605102286911
 20
-148.9201090122491
 10
100.8028048793132
 20
-149.0723822326972
 10
100.766631376718
 20
-149.1505859002123
 10
100.7342474791567
 20
-149.2184542812718
 10
100.7702487269776
 20
-149.2394693637318
 10
100.7738660772371
 20
-149.2418809305715
 10
100.7738660772371
 20
-149.256694841158
 10
100.7738660772371
 20
-149.2690971849049
 10
100.7450995299352
 20
-149.3032036302089
 10
100.7359700268993
 20
-149.3114718593735
 10
100.7342474791567
 20
-149.5081868115813
 10
100.7342474791567
 20
-149.5295464035898
 10
100.7342474791567
 20
-149.662871598869
 10
100.7323526766398
 20
-149.6752739426159
 10
100.7323526766398
 20
-149.6900878532025
 10
100.7323526766398
 20
-149.704901763789
 10
100.7323526766398
 20
-149.704901763789
 10
100.7323526766398
 20
-150.2402696021969
 10
100.7323526766398
 20
-150.2402696021969
 10
100.7323526766398
 20
-150.3122720978386
 10
100.7359700268993
 20
-150.5472276099326
 10
100.7432047274184
 20
-150.6571261559121
 10
100.7432047274184
 20
-150.6571261559121
 10
100.5358099792063
 20
-150.6571261559121
 10
100.5358099792063
 20
-150.6571261559121
 10
100.5556192782465
 20
-150.4983072540421
 10
100.5611314310229
 20
-150.2571505700746
 10
100.5611314310229
 20
-150.2361354876146
 10
100.5611314310229
 20
-150.2361354876146
 10
100.5611314310229
 20
-149.5188666075855
 10
100.5611314310229
 20
-149.5188666075855
 10
100.4836167826048
 20
-149.6332437776958
 10
100.431251331229
 20
-149.6921549104936
 10
100.3952500834081
 20
-149.7345295849622
 10
100.3952500834081
 20
-149.7345295849622
 10
100.2328138312786
 20
-149.5970702751007
 10
100.2328138312786
 20
-149.5970702751007
 10
100.4727647318262
 20
-149.3814072977241
 10
100.6367512769241
 20
-149.0723822326972
 10
100.7323526766398
 20
-148.7361409133368
 10
100.7323526766398
 20
-148.7361409133368
 10
100.9199381258117
 20
-148.8505180834471
 10
100.9199381258117
 20
-148.8505180834471
 10
100.9307901765902
 20
-148.8567192553205
 10
100.9380248771092
 20
-148.8610256246771
 10
100.9380248771092
 20
-148.8756672804894
 10
100.9380248771092
 20
-148.9011609870802
 10
100.9235554760712
 20
-148.9052951016625
 10
100.8605102286911
 20
-148.9201090122491
 97
        0
 97
        1
330
122
 75
     2
 76
     1
 98
        1
 10
0.0
 20
0.0
450
        0
451
        0
460
0.0
461
0.0
452
        0
462
0.0
453
        0
470

  0
ENDBLK
  5
112
330
10F
100
AcDbEntity
  8
0
100
AcDbBlockEnd
  0
ENDSEC
  0
SECTION
  2
ENTITIES
  0
INSERT
  5
7A
330
70
100
AcDbEntity
  8
レイヤー 1
100
AcDbBlockReference
  2
Block_0
 10
0.0
 20
0.0
 30
0.0
  0
INSERT
  5
F7
330
70
100
AcDbEntity
  8
レイヤー 1
100
AcDbBlockReference
  2
Block_15
 10
0.0
 20
0.0
 30
0.0
  0
INSERT
  5
10C
330
70
100
AcDbEntity
  8
レイヤー 1
100
AcDbBlockReference
  2
Block_17
 10
0.0
 20
0.0
 30
0.0
  0
ENDSEC
  0
SECTION
  2
OBJECTS
  0
DICTIONARY
  5
C
330
0
100
AcDbDictionary
281
     1
  3
ACAD_COLOR
350
63
  3
ACAD_DETAILVIEWSTYLE
350
6A
  3
ACAD_GROUP
350
D
  3
ACAD_LAYOUT
350
62
  3
ACAD_MATERIAL
350
10
  3
ACAD_MLEADERSTYLE
350
66
  3
ACAD_MLINESTYLE
350
5F
  3
ACAD_PLOTSETTINGS
350
61
  3
ACAD_PLOTSTYLENAME
350
E
  3
ACAD_SCALELIST
350
42
  3
ACAD_SECTIONVIEWSTYLE
350
68
  3
ACAD_TABLESTYLE
350
64
  3
ACAD_VISUALSTYLE
350
29
  3
ACDB_RECOMPOSE_DATA
350
12C
  3
AcDbVariableDictionary
350
124
  0
DICTIONARY
  5
63
102
{ACAD_REACTORS
330
C
102
}
330
C
100
AcDbDictionary
281
     1
  0
DICTIONARY
  5
6A
102
{ACAD_REACTORS
330
C
102
}
330
C
100
AcDbDictionary
281
     1
  3
Imperial24
350
6B
  0
DICTIONARY
  5
D
102
{ACAD_REACTORS
330
C
102
}
330
C
100
AcDbDictionary
281
     1
  0
DICTIONARY
  5
62
102
{ACAD_REACTORS
330
C
102
}
330
C
100
AcDbDictionary
281
     1
  3
Layout1
350
6F
  3
Layout2
350
77
  3
Model
350
73
  0
DICTIONARY
  5
10
102
{ACAD_REACTORS
330
C
102
}
330
C
100
AcDbDictionary
281
     1
  3
ByBlock
350
19
  3
ByLayer
350
11
  3
Global
350
21
  0
DICTIONARY
  5
66
102
{ACAD_REACTORS
330
C
102
}
330
C
100
AcDbDictionary
281
     1
  3
Standard
350
67
  0
DICTIONARY
  5
5F
102
{ACAD_REACTORS
330
C
102
}
330
C
100
AcDbDictionary
281
     1
  3
Standard
350
60
  0
DICTIONARY
  5
61
102
{ACAD_REACTORS
330
C
102
}
330
C
100
AcDbDictionary
281
     1
  0
ACDBDICTIONARYWDFLT
  5
E
102
{ACAD_REACTORS
330
C
102
}
330
C
100
AcDbDictionary
281
     1
  3
Normal
350
F
100
AcDbDictionaryWithDefault
340
F
  0
DICTIONARY
  5
42
102
{ACAD_REACTORS
330
C
102
}
330
C
100
AcDbDictionary
281
     1
  3
A0
350
43
  3
A1
350
44
  3
A2
350
45
  3
A3
350
46
  3
A4
350
47
  3
A5
350
48
  3
A6
350
49
  3
A7
350
4A
  3
A8
350
4B
  3
A9
350
4C
  3
B0
350
4D
  3
B1
350
4E
  3
B2
350
4F
  3
B3
350
50
  3
B4
350
51
  3
B5
350
52
  3
B6
350
53
  0
DICTIONARY
  5
68
102
{ACAD_REACTORS
330
C
102
}
330
C
100
AcDbDictionary
281
     1
  3
Imperial24
350
69
  0
DICTIONARY
  5
64
102
{ACAD_REACTORS
330
C
102
}
330
C
100
AcDbDictionary
281
     1
  3
Standard
350
65
  0
DICTIONARY
  5
29
102
{ACAD_REACTORS
330
C
102
}
330
C
100
AcDbDictionary
281
     1
  3
2dWireframe
350
2F
  3
Basic
350
2E
  3
Brighten
350
35
  3
ColorChange
350
39
  3
Conceptual
350
32
  3
Dim
350
34
  3
EdgeColorOff
350
41
  3
Facepattern
350
38
  3
Flat
350
2A
  3
FlatWithEdges
350
2B
  3
Gouraud
350
2C
  3
GouraudWithEdges
350
2D
  3
Hidden
350
31
  3
JitterOff
350
3F
  3
Linepattern
350
37
  3
OverhangOff
350
40
  3
Realistic
350
33
  3
Shaded
350
3E
  3
Shaded with edges
350
3D
  3
Shades of Gray
350
3A
  3
Sketchy
350
3B
  3
Thicken
350
36
  3
Wireframe
350
30
  3
X-Ray
350
3C
  0
XRECORD
  5
12C
102
{ACAD_REACTORS
330
C
102
}
330
C
100
AcDbXrecord
280
     1
 90
        1
330
65
  0
DICTIONARY
  5
124
102
{ACAD_REACTORS
330
C
102
}
330
C
100
AcDbDictionary
281
     1
  3
CANNOSCALE
350
129
  3
CMLEADERSTYLE
350
126
  3
CTABLESTYLE
350
125
  3
CVIEWDETAILSTYLE
350
127
  3
CVIEWSECTIONSTYLE
350
128
  0
ACDBDETAILVIEWSTYLE
  5
6B
102
{ACAD_XDICTIONARY
360
161
102
}
102
{ACAD_REACTORS
330
6A
102
}
330
6A
100
AcDbModelDocViewStyle
 70
     0
  3
Imperial24
290
     0
100
AcDbDetailViewStyle
 70
     0
 71
     0
 90
        3
 71
     1
340
55
 62
   256
 40
0.24
340
0
 62
   256
 40
0.24
300

 40
0.36
280
     3
 71
     2
340
5D
 90
       25
 62
   256
 71
     3
340
55
 62
   256
 40
0.24
 90
        1
 40
0.75
 90
        1
300
%<\AcVar ViewType \f "%tc1">% %<\AcVar ViewDetailId>%\PSCALE %<\AcVar ViewScale \f "%sn">%
 71
     4
340
5D
 90
       25
 62
   256
340
5D
 90
       25
 62
   256
280
     0
  0
LAYOUT
  5
6F
102
{ACAD_REACTORS
330
62
102
}
330
62
100
AcDbPlotSettings
  1

  2

  4

  6

 40
0.0
 41
0.0
 42
0.0
 43
0.0
 44
0.0
 45
0.0
 46
0.0
 47
0.0
 48
0.0
 49
0.0
140
0.0
141
0.0
142
1.0
143
1.0
 70
   688
 72
     0
 73
     0
 74
     5
  7

 75
    16
147
1.0
 76
     0
 77
     2
 78
   300
148
0.0
149
0.0
100
AcDbLayout
  1
Layout1
 70
     1
 71
     1
 10
0.0
 20
0.0
 11
12.0
 21
9.0
 12
0.0
 22
0.0
 32
0.0
 14
0.0
 24
0.0
 34
0.0
 15
0.0
 25
0.0
 35
0.0
146
0.0
 13
0.0
 23
0.0
 33
0.0
 16
1.0
 26
0.0
 36
0.0
 17
0.0
 27
1.0
 37
0.0
 76
     0
330
6C
  0
LAYOUT
  5
77
102
{ACAD_REACTORS
330
62
102
}
330
62
100
AcDbPlotSettings
  1

  2

  4

  6

 40
0.0
 41
0.0
 42
0.0
 43
0.0
 44
0.0
 45
0.0
 46
0.0
 47
0.0
 48
0.0
 49
0.0
140
0.0
141
0.0
142
1.0
143
1.0
 70
   688
 72
     0
 73
     0
 74
     5
  7

 75
    16
147
1.0
 76
     0
 77
     2
 78
   300
148
0.0
149
0.0
100
AcDbLayout
  1
Layout2
 70
     1
 71
     2
 10
0.0
 20
0.0
 11
12.0
 21
9.0
 12
0.0
 22
0.0
 32
0.0
 14
0.0
 24
0.0
 34
0.0
 15
0.0
 25
0.0
 35
0.0
146
0.0
 13
0.0
 23
0.0
 33
0.0
 16
1.0
 26
0.0
 36
0.0
 17
0.0
 27
1.0
 37
0.0
 76
     0
330
74
  0
LAYOUT
  5
73
102
{ACAD_REACTORS
330
62
102
}
330
62
100
AcDbPlotSettings
  1

  2

  4

  6

 40
0.0
 41
0.0
 42
0.0
 43
0.0
 44
0.0
 45
0.0
 46
0.0
 47
0.0
 48
0.0
 49
0.0
140
0.0
141
0.0
142
1.0
143
1.0
 70
  1712
 72
     0
 73
     0
 74
     0
  7

 75
     0
147
1.0
 76
     0
 77
     2
 78
   300
148
0.0
149
0.0
100
AcDbLayout
  1
Model
 70
     1
 71
     0
 10
0.0
 20
0.0
 11
12.0
 21
9.0
 12
0.0
 22
0.0
 32
0.0
 14
0.0
 24
0.0
 34
0.0
 15
0.0
 25
0.0
 35
0.0
146
0.0
 13
0.0
 23
0.0
 33
0.0
 16
1.0
 26
0.0
 36
0.0
 17
0.0
 27
1.0
 37
0.0
 76
     0
330
70
  0
MATERIAL
  5
19
102
{ACAD_XDICTIONARY
360
1A
102
}
102
{ACAD_REACTORS
330
10
102
}
330
10
100
AcDbMaterial
  1
ByBlock
 72
     0
 43
0.0208333333333333
 43
0.0
 43
0.0
 43
0.0
 43
0.0
 43
0.0208333333333333
 43
0.0
 43
0.0
 43
0.0
 43
0.0
 43
1.0
 43
0.0
 43
0.0
 43
0.0
 43
0.0
 43
1.0
 77
     0
 47
0.0208333333333333
 47
0.0
 47
0.0
 47
0.0
 47
0.0
 47
0.0208333333333333
 47
0.0
 47
0.0
 47
0.0
 47
0.0
 47
1.0
 47
0.0
 47
0.0
 47
0.0
 47
0.0
 47
1.0
171
     0
 49
0.0208333333333333
 49
0.0
 49
0.0
 49
0.0
 49
0.0
 49
0.0208333333333333
 49
0.0
 49
0.0
 49
0.0
 49
0.0
 49
1.0
 49
0.0
 49
0.0
 49
0.0
 49
0.0
 49
1.0
175
     0
142
0.0208333333333333
142
0.0
142
0.0
142
0.0
142
0.0
142
0.0208333333333333
142
0.0
142
0.0
142
0.0
142
0.0
142
1.0
142
0.0
142
0.0
142
0.0
142
0.0
142
1.0
179
     0
144
0.0208333333333333
144
0.0
144
0.0
144
0.0
144
0.0
144
0.0208333333333333
144
0.0
144
0.0
144
0.0
144
0.0
144
1.0
144
0.0
144
0.0
144
0.0
144
0.0
144
1.0
147
0.0208333333333333
147
0.0
147
0.0
147
0.0
147
0.0
147
0.0208333333333333
147
0.0
147
0.0
147
0.0
147
0.0
147
1.0
147
0.0
147
0.0
147
0.0
147
0.0
147
1.0
  0
MATERIAL
  5
11
102
{ACAD_XDICTIONARY
360
12
102
}
102
{ACAD_REACTORS
330
10
102
}
330
10
100
AcDbMaterial
  1
ByLayer
 72
     0
 43
0.0208333333333333
 43
0.0
 43
0.0
 43
0.0
 43
0.0
 43
0.0208333333333333
 43
0.0
 43
0.0
 43
0.0
 43
0.0
 43
1.0
 43
0.0
 43
0.0
 43
0.0
 43
0.0
 43
1.0
 77
     0
 47
0.0208333333333333
 47
0.0
 47
0.0
 47
0.0
 47
0.0
 47
0.0208333333333333
 47
0.0
 47
0.0
 47
0.0
 47
0.0
 47
1.0
 47
0.0
 47
0.0
 47
0.0
 47
0.0
 47
1.0
171
     0
 49
0.0208333333333333
 49
0.0
 49
0.0
 49
0.0
 49
0.0
 49
0.0208333333333333
 49
0.0
 49
0.0
 49
0.0
 49
0.0
 49
1.0
 49
0.0
 49
0.0
 49
0.0
 49
0.0
 49
1.0
175
     0
142
0.0208333333333333
142
0.0
142
0.0
142
0.0
142
0.0
142
0.0208333333333333
142
0.0
142
0.0
142
0.0
142
0.0
142
1.0
142
0.0
142
0.0
142
0.0
142
0.0
142
1.0
179
     0
144
0.0208333333333333
144
0.0
144
0.0
144
0.0
144
0.0
144
0.0208333333333333
144
0.0
144
0.0
144
0.0
144
0.0
144
1.0
144
0.0
144
0.0
144
0.0
144
0.0
144
1.0
147
0.0208333333333333
147
0.0
147
0.0
147
0.0
147
0.0
147
0.0208333333333333
147
0.0
147
0.0
147
0.0
147
0.0
147
1.0
147
0.0
147
0.0
147
0.0
147
0.0
147
1.0
  0
MATERIAL
  5
21
102
{ACAD_XDICTIONARY
360
22
102
}
102
{ACAD_REACTORS
330
10
102
}
330
10
100
AcDbMaterial
  1
Global
 72
     0
 43
0.0208333333333333
 43
0.0
 43
0.0
 43
0.0
 43
0.0
 43
0.0208333333333333
 43
0.0
 43
0.0
 43
0.0
 43
0.0
 43
1.0
 43
0.0
 43
0.0
 43
0.0
 43
0.0
 43
1.0
 77
     0
 47
0.0208333333333333
 47
0.0
 47
0.0
 47
0.0
 47
0.0
 47
0.0208333333333333
 47
0.0
 47
0.0
 47
0.0
 47
0.0
 47
1.0
 47
0.0
 47
0.0
 47
0.0
 47
0.0
 47
1.0
171
     0
 49
0.0208333333333333
 49
0.0
 49
0.0
 49
0.0
 49
0.0
 49
0.0208333333333333
 49
0.0
 49
0.0
 49
0.0
 49
0.0
 49
1.0
 49
0.0
 49
0.0
 49
0.0
 49
0.0
 49
1.0
175
     0
142
0.0208333333333333
142
0.0
142
0.0
142
0.0
142
0.0
142
0.0208333333333333
142
0.0
142
0.0
142
0.0
142
0.0
142
1.0
142
0.0
142
0.0
142
0.0
142
0.0
142
1.0
179
     0
144
0.0208333333333333
144
0.0
144
0.0
144
0.0
144
0.0
144
0.0208333333333333
144
0.0
144
0.0
144
0.0
144
0.0
144
1.0
144
0.0
144
0.0
144
0.0
144
0.0
144
1.0
147
0.0208333333333333
147
0.0
147
0.0
147
0.0
147
0.0
147
0.0208333333333333
147
0.0
147
0.0
147
0.0
147
0.0
147
1.0
147
0.0
147
0.0
147
0.0
147
0.0
147
1.0
  0
MLEADERSTYLE
  5
67
102
{ACAD_XDICTIONARY
360
15D
102
}
102
{ACAD_REACTORS
330
66
102
}
330
66
100
AcDbMLeaderStyle
179
     2
170
     2
171
     1
172
     0
 90
        2
 40
0.0
 41
0.0
173
     1
 91
-1056964608
340
5B
 92
       -2
290
     1
 42
0.09
291
     1
 43
0.36
  3
Standard
 44
0.18
300

342
55
174
     1
178
     6
175
     1
176
     0
 93
-1056964608
 45
0.18
292
     0
297
     0
 46
0.18
 94
-1056964608
 47
1.0
 49
1.0
140
1.0
293
     1
141
0.0
294
     1
177
     0
142
1.0
295
     0
296
     0
143
0.125
271
     0
272
     9
273
     9
  0
MLINESTYLE
  5
60
102
{ACAD_REACTORS
330
5F
102
}
330
5F
100
AcDbMlineStyle
  2
STANDARD
 70
     0
  3

 62
   256
 51
90.0
 52
90.0
 71
     2
 49
0.5
 62
   256
  6
BYLAYER
 49
-0.5
 62
   256
  6
BYLAYER
  0
ACDBPLACEHOLDER
  5
F
102
{ACAD_REACTORS
330
E
102
}
330
E
  0
SCALE
  5
43
102
{ACAD_REACTORS
330
42
102
}
330
42
100
AcDbScale
 70
     0
300
1:1
140
1.0
141
1.0
290
     1
  0
SCALE
  5
44
102
{ACAD_REACTORS
330
42
102
}
330
42
100
AcDbScale
 70
     0
300
1/128" = 1'-0"
140
0.0078125
141
12.0
290
     0
  0
SCALE
  5
45
102
{ACAD_REACTORS
330
42
102
}
330
42
100
AcDbScale
 70
     0
300
1/64" = 1'-0"
140
0.015625
141
12.0
290
     0
  0
SCALE
  5
46
102
{ACAD_REACTORS
330
42
102
}
330
42
100
AcDbScale
 70
     0
300
1/32" = 1'-0"
140
0.03125
141
12.0
290
     0
  0
SCALE
  5
47
102
{ACAD_REACTORS
330
42
102
}
330
42
100
AcDbScale
 70
     0
300
1/16" = 1'-0"
140
0.0625
141
12.0
290
     0
  0
SCALE
  5
48
102
{ACAD_REACTORS
330
42
102
}
330
42
100
AcDbScale
 70
     0
300
3/32" = 1'-0"
140
0.09375
141
12.0
290
     0
  0
SCALE
  5
49
102
{ACAD_REACTORS
330
42
102
}
330
42
100
AcDbScale
 70
     0
300
1/8" = 1'-0"
140
0.125
141
12.0
290
     0
  0
SCALE
  5
4A
102
{ACAD_REACTORS
330
42
102
}
330
42
100
AcDbScale
 70
     0
300
3/16" = 1'-0"
140
0.1875
141
12.0
290
     0
  0
SCALE
  5
4B
102
{ACAD_REACTORS
330
42
102
}
330
42
100
AcDbScale
 70
     0
300
1/4" = 1'-0"
140
0.25
141
12.0
290
     0
  0
SCALE
  5
4C
102
{ACAD_REACTORS
330
42
102
}
330
42
100
AcDbScale
 70
     0
300
3/8" = 1'-0"
140
0.375
141
12.0
290
     0
  0
SCALE
  5
4D
102
{ACAD_REACTORS
330
42
102
}
330
42
100
AcDbScale
 70
     0
300
1/2" = 1'-0"
140
0.5
141
12.0
290
     0
  0
SCALE
  5
4E
102
{ACAD_REACTORS
330
42
102
}
330
42
100
AcDbScale
 70
     0
300
3/4" = 1'-0"
140
0.75
141
12.0
290
     0
  0
SCALE
  5
4F
102
{ACAD_REACTORS
330
42
102
}
330
42
100
AcDbScale
 70
     0
300
1" = 1'-0"
140
1.0
141
12.0
290
     0
  0
SCALE
  5
50
102
{ACAD_REACTORS
330
42
102
}
330
42
100
AcDbScale
 70
     0
300
1-1/2" = 1'-0"
140
1.5
141
12.0
290
     0
  0
SCALE
  5
51
102
{ACAD_REACTORS
330
42
102
}
330
42
100
AcDbScale
 70
     0
300
3" = 1'-0"
140
3.0
141
12.0
290
     0
  0
SCALE
  5
52
102
{ACAD_REACTORS
330
42
102
}
330
42
100
AcDbScale
 70
     0
300
6" = 1'-0"
140
6.0
141
12.0
290
     0
  0
SCALE
  5
53
102
{ACAD_REACTORS
330
42
102
}
330
42
100
AcDbScale
 70
     0
300
1'-0" = 1'-0"
140
12.0
141
12.0
290
     0
  0
ACDBSECTIONVIEWSTYLE
  5
69
102
{ACAD_XDICTIONARY
360
15F
102
}
102
{ACAD_REACTORS
330
68
102
}
330
68
100
AcDbModelDocViewStyle
 70
     0
  3
Imperial24
290
     0
100
AcDbSectionViewStyle
 70
     0
 71
     0
 90
       78
 71
     1
340
55
 62
   256
 40
0.24
340
0
340
0
 62
   256
 40
0.24
300
I, O, Q, S, X, Z
 40
0.48
 90
        3
 40
0.18
 90
        1
 71
     2
340
5D
 90
       25
 62
   256
340
5D
 90
       50
 62
   256
 40
0.24
 40
0.0
 40
0.24
 71
     3
340
55
 62
   256
 40
0.24
 90
        1
 40
0.75
 90
        1
300
%<\AcVar ViewType \f "%tc1">% %<\AcVar ViewSectionStartId>%-%<\AcVar ViewSectionEndId>%\PSCALE %<\AcVar ViewScale \f "%sn">%
 71
     4
 62
   256
 62
   257
300
ANSI31
 40
1.0
 90
        0
290
     0
290
     0
 90
        6
 40
0.0
 40
1.570796326794896
 40
0.2617993877991494
 40
1.308996938995747
 40
-0.2617993877991494
 40
1.832595714594046
  0
TABLESTYLE
  5
65
102
{ACAD_XDICTIONARY
360
12A
102
}
102
{ACAD_REACTORS
330
64
102
}
330
64
100
AcDbTableStyle
280
     0
  3
Standard
 70
     0
 71
     0
 40
0.06
 41
0.06
280
     0
281
     0
  7
Standard
140
0.18
170
     2
 62
     0
 63
     7
283
     0
 90
      512
 91
        0
  1

274
    -2
284
     1
 64
     0
275
    -2
285
     1
 65
     0
276
    -2
286
     1
 66
     0
277
    -2
287
     1
 67
     0
278
    -2
288
     1
 68
     0
279
    -2
289
     1
 69
     0
  7
Standard
140
0.25
170
     5
 62
     0
 63
     7
283
     0
 90
      512
 91
        0
  1

274
    -2
284
     1
 64
     0
275
    -2
285
     1
 65
     0
276
    -2
286
     1
 66
     0
277
    -2
287
     1
 67
     0
278
    -2
288
     1
 68
     0
279
    -2
289
     1
 69
     0
  7
Standard
140
0.18
170
     5
 62
     0
 63
     7
283
     0
 90
      512
 91
        0
  1

274
    -2
284
     1
 64
     0
275
    -2
285
     1
 65
     0
276
    -2
286
     1
 66
     0
277
    -2
287
     1
 67
     0
278
    -2
288
     1
 68
     0
279
    -2
289
     1
 69
     0
  0
VISUALSTYLE
  5
2F
102
{ACAD_XDICTIONARY
360
137
102
}
102
{ACAD_REACTORS
330
29
102
}
330
29
100
AcDbVisualStyle
  2
2dWireframe
 70
     4
177
     2
291
     0
 71
     0
176
     1
 72
     2
176
     1
 73
     0
176
     1
 90
        0
176
     1
 40
0.6
176
     1
 41
30.0
176
     1
 63
     7
421
 16777215
176
     1
 74
     1
176
     1
 91
        4
176
     1
 64
     7
176
     1
 65
   257
176
     1
 75
     1
176
     1
175
     1
176
     1
 42
1.0
176
     1
 92
        0
176
     1
 66
   257
176
     1
 43
1.0
176
     1
 76
     1
176
     1
 77
     6
176
     1
 78
     2
176
     1
 67
     7
176
     1
 79
     5
176
     1
170
     0
176
     1
171
     0
176
     1
290
     0
176
     1
 93
        1
176
     1
 44
0.0
176
     1
173
     0
176
     1
1001
ACAD
1000
AcDbSavedByObjectVersion
1070
     0
  0
VISUALSTYLE
  5
2E
102
{ACAD_XDICTIONARY
360
135
102
}
102
{ACAD_REACTORS
330
29
102
}
330
29
100
AcDbVisualStyle
  2
Basic
 70
     7
177
     2
291
     1
 71
     1
176
     1
 72
     0
176
     1
 73
     1
176
     1
 90
        0
176
     1
 40
0.6
176
     1
 41
30.0
176
     1
 63
     7
421
 16777215
176
     1
 74
     0
176
     1
 91
        4
176
     1
 64
     7
176
     1
 65
   257
176
     1
 75
     1
176
     1
175
     1
176
     1
 42
1.0
176
     1
 92
        8
176
     1
 66
     7
176
     1
 43
1.0
176
     1
 76
     1
176
     1
 77
     6
176
     1
 78
     2
176
     1
 67
     7
176
     1
 79
     5
176
     1
170
     0
176
     1
171
     0
176
     1
290
     0
176
     1
 93
        1
176
     1
 44
0.0
176
     1
173
     0
176
     1
1001
ACAD
1000
AcDbSavedByObjectVersion
1070
     0
  0
VISUALSTYLE
  5
35
102
{ACAD_XDICTIONARY
360
143
102
}
102
{ACAD_REACTORS
330
29
102
}
330
29
100
AcDbVisualStyle
  2
Brighten
 70
    12
177
     2
291
     1
 71
     2
176
     1
 72
     2
176
     1
 73
     0
176
     1
 90
        0
176
     1
 40
0.6
176
     1
 41
30.0
176
     1
 63
     7
421
 16777215
176
     1
 74
     1
176
     1
 91
        4
176
     1
 64
     7
176
     1
 65
   257
176
     1
 75
     1
176
     1
175
     1
176
     1
 42
1.0
176
     1
 92
        8
176
     1
 66
     7
176
     1
 43
1.0
176
     1
 76
     1
176
     1
 77
     6
176
     1
 78
     2
176
     1
 67
     7
176
     1
 79
     5
176
     1
170
     0
176
     1
171
     0
176
     1
290
     0
176
     1
 93
        1
176
     1
 44
50.0
176
     1
173
     0
176
     1
1001
ACAD
1000
AcDbSavedByObjectVersion
1070
     0
  0
VISUALSTYLE
  5
39
102
{ACAD_XDICTIONARY
360
14B
102
}
102
{ACAD_REACTORS
330
29
102
}
330
29
100
AcDbVisualStyle
  2
ColorChange
 70
    16
177
     2
291
     1
 71
     2
176
     1
 72
     2
176
     1
 73
     3
176
     1
 90
        0
176
     1
 40
0.6
176
     1
 41
30.0
176
     1
 63
     8
421
  8421504
176
     1
 74
     1
176
     1
 91
        4
176
     1
 64
     7
176
     1
 65
   257
176
     1
 75
     1
176
     1
175
     1
176
     1
 42
1.0
176
     1
 92
        8
176
     1
 66
     8
424
  8421504
176
     1
 43
1.0
176
     1
 76
     1
176
     1
 77
     6
176
     1
 78
     2
176
     1
 67
     7
176
     1
 79
     5
176
     1
170
     0
176
     1
171
     0
176
     1
290
     0
176
     1
 93
        1
176
     1
 44
0.0
176
     1
173
     0
176
     1
1001
ACAD
1000
AcDbSavedByObjectVersion
1070
     0
  0
VISUALSTYLE
  5
32
102
{ACAD_XDICTIONARY
360
13D
102
}
102
{ACAD_REACTORS
330
29
102
}
330
29
100
AcDbVisualStyle
  2
Conceptual
 70
     9
177
     2
291
     0
 71
     3
176
     1
 72
     2
176
     1
 73
     0
176
     1
 90
        0
176
     1
 40
0.6
176
     1
 41
30.0
176
     1
 63
     7
421
 16777215
176
     1
 74
     2
176
     1
 91
        2
176
     1
 64
     7
176
     1
 65
   257
176
     1
 75
     1
176
     1
175
     1
176
     1
 42
179.0
176
     1
 92
        8
176
     1
 66
     7
176
     1
 43
1.0
176
     1
 76
     1
176
     1
 77
     6
176
     1
 78
     2
176
     1
 67
     7
176
     1
 79
     3
176
     1
170
     0
176
     1
171
     0
176
     1
290
     0
176
     1
 93
        1
176
     1
 44
0.0
176
     1
173
     0
176
     1
1001
ACAD
1000
AcDbSavedByObjectVersion
1070
     0
  0
VISUALSTYLE
  5
34
102
{ACAD_XDICTIONARY
360
141
102
}
102
{ACAD_REACTORS
330
29
102
}
330
29
100
AcDbVisualStyle
  2
Dim
 70
    11
177
     2
291
     1
 71
     2
176
     1
 72
     2
176
     1
 73
     0
176
     1
 90
        0
176
     1
 40
0.6
176
     1
 41
30.0
176
     1
 63
     7
421
 16777215
176
     1
 74
     1
176
     1
 91
        4
176
     1
 64
     7
176
     1
 65
   257
176
     1
 75
     1
176
     1
175
     1
176
     1
 42
1.0
176
     1
 92
        8
176
     1
 66
     7
176
     1
 43
1.0
176
     1
 76
     1
176
     1
 77
     6
176
     1
 78
     2
176
     1
 67
     7
176
     1
 79
     5
176
     1
170
     0
176
     1
171
     0
176
     1
290
     0
176
     1
 93
        1
176
     1
 44
-50.0
176
     1
173
     0
176
     1
1001
ACAD
1000
AcDbSavedByObjectVersion
1070
     0
  0
VISUALSTYLE
  5
41
102
{ACAD_XDICTIONARY
360
15B
102
}
102
{ACAD_REACTORS
330
29
102
}
330
29
100
AcDbVisualStyle
  2
EdgeColorOff
 70
    22
177
     2
291
     1
 71
     2
176
     0
 72
     2
176
     0
 73
     0
176
     0
 90
        0
176
     0
 40
0.6
176
     0
 41
30.0
176
     0
 63
     7
421
 16777215
176
     0
 74
     1
176
     0
 91
        4
176
     0
 64
     7
176
     0
 65
   257
176
     0
 75
     1
176
     0
175
     1
176
     0
 42
1.0
176
     0
 92
        8
176
     2
 66
     7
176
     0
 43
1.0
176
     0
 76
     1
176
     0
 77
     6
176
     0
 78
     2
176
     0
 67
     7
176
     0
 79
     5
176
     0
170
     0
176
     0
171
     0
176
     0
290
     0
176
     0
 93
        1
176
     0
 44
0.0
176
     0
173
     0
176
     0
1001
ACAD
1000
AcDbSavedByObjectVersion
1070
     0
  0
VISUALSTYLE
  5
38
102
{ACAD_XDICTIONARY
360
149
102
}
102
{ACAD_REACTORS
330
29
102
}
330
29
100
AcDbVisualStyle
  2
Facepattern
 70
    15
177
     2
291
     1
 71
     2
176
     1
 72
     2
176
     1
 73
     0
176
     1
 90
        0
176
     1
 40
0.6
176
     1
 41
30.0
176
     1
 63
     7
421
 16777215
176
     1
 74
     1
176
     1
 91
        4
176
     1
 64
     7
176
     1
 65
   257
176
     1
 75
     1
176
     1
175
     1
176
     1
 42
1.0
176
     1
 92
        8
176
     1
 66
     7
176
     1
 43
1.0
176
     1
 76
     1
176
     1
 77
     6
176
     1
 78
     2
176
     1
 67
     7
176
     1
 79
     5
176
     1
170
     0
176
     1
171
     0
176
     1
290
     0
176
     1
 93
        1
176
     1
 44
0.0
176
     1
173
     0
176
     1
1001
ACAD
1000
AcDbSavedByObjectVersion
1070
     0
  0
VISUALSTYLE
  5
2A
102
{ACAD_XDICTIONARY
360
12D
102
}
102
{ACAD_REACTORS
330
29
102
}
330
29
100
AcDbVisualStyle
  2
Flat
 70
     0
177
     2
291
     1
 71
     2
176
     1
 72
     1
176
     1
 73
     1
176
     1
 90
        2
176
     1
 40
0.6
176
     1
 41
30.0
176
     1
 63
     7
421
 16777215
176
     1
 74
     0
176
     1
 91
        0
176
     1
 64
     7
176
     1
 65
   257
176
     1
 75
     1
176
     1
175
     1
176
     1
 42
1.0
176
     1
 92
        8
176
     1
 66
     7
176
     1
 43
1.0
176
     1
 76
     1
176
     1
 77
     6
176
     1
 78
     2
176
     1
 67
     7
176
     1
 79
     5
176
     1
170
     0
176
     1
171
     0
176
     1
290
     0
176
     1
 93
       13
176
     1
 44
0.0
176
     1
173
     0
176
     1
1001
ACAD
1000
AcDbSavedByObjectVersion
1070
     0
  0
VISUALSTYLE
  5
2B
102
{ACAD_XDICTIONARY
360
12F
102
}
102
{ACAD_REACTORS
330
29
102
}
330
29
100
AcDbVisualStyle
  2
FlatWithEdges
 70
     1
177
     2
291
     1
 71
     2
176
     1
 72
     1
176
     1
 73
     1
176
     1
 90
        2
176
     1
 40
0.6
176
     1
 41
30.0
176
     1
 63
     7
421
 16777215
176
     1
 74
     1
176
     1
 91
        0
176
     1
 64
     7
176
     1
 65
   257
176
     1
 75
     1
176
     1
175
     1
176
     1
 42
1.0
176
     1
 92
        0
176
     1
 66
   257
176
     1
 43
1.0
176
     1
 76
     1
176
     1
 77
     6
176
     1
 78
     2
176
     1
 67
     7
176
     1
 79
     5
176
     1
170
     0
176
     1
171
     0
176
     1
290
     0
176
     1
 93
       13
176
     1
 44
0.0
176
     1
173
     0
176
     1
1001
ACAD
1000
AcDbSavedByObjectVersion
1070
     0
  0
VISUALSTYLE
  5
2C
102
{ACAD_XDICTIONARY
360
131
102
}
102
{ACAD_REACTORS
330
29
102
}
330
29
100
AcDbVisualStyle
  2
Gouraud
 70
     2
177
     2
291
     1
 71
     2
176
     1
 72
     2
176
     1
 73
     1
176
     1
 90
        2
176
     1
 40
0.6
176
     1
 41
30.0
176
     1
 63
     7
421
 16777215
176
     1
 74
     0
176
     1
 91
        0
176
     1
 64
     7
176
     1
 65
   257
176
     1
 75
     1
176
     1
175
     1
176
     1
 42
1.0
176
     1
 92
        0
176
     1
 66
     7
176
     1
 43
1.0
176
     1
 76
     1
176
     1
 77
     6
176
     1
 78
     2
176
     1
 67
     7
176
     1
 79
     5
176
     1
170
     0
176
     1
171
     0
176
     1
290
     0
176
     1
 93
       13
176
     1
 44
0.0
176
     1
173
     0
176
     1
1001
ACAD
1000
AcDbSavedByObjectVersion
1070
     0
  0
VISUALSTYLE
  5
2D
102
{ACAD_XDICTIONARY
360
133
102
}
102
{ACAD_REACTORS
330
29
102
}
330
29
100
AcDbVisualStyle
  2
GouraudWithEdges
 70
     3
177
     2
291
     1
 71
     2
176
     1
 72
     2
176
     1
 73
     1
176
     1
 90
        2
176
     1
 40
0.6
176
     1
 41
30.0
176
     1
 63
     7
421
 16777215
176
     1
 74
     1
176
     1
 91
        0
176
     1
 64
     7
176
     1
 65
   257
176
     1
 75
     1
176
     1
175
     1
176
     1
 42
1.0
176
     1
 92
        0
176
     1
 66
   257
176
     1
 43
1.0
176
     1
 76
     1
176
     1
 77
     6
176
     1
 78
     2
176
     1
 67
     7
176
     1
 79
     5
176
     1
170
     0
176
     1
171
     0
176
     1
290
     0
176
     1
 93
       13
176
     1
 44
0.0
176
     1
173
     0
176
     1
1001
ACAD
1000
AcDbSavedByObjectVersion
1070
     0
  0
VISUALSTYLE
  5
31
102
{ACAD_XDICTIONARY
360
13B
102
}
102
{ACAD_REACTORS
330
29
102
}
330
29
100
AcDbVisualStyle
  2
Hidden
 70
     6
177
     2
291
     0
 71
     1
176
     1
 72
     2
176
     1
 73
     2
176
     1
 90
        0
176
     1
 40
0.6
176
     1
 41
30.0
176
     1
 63
     7
421
 16777215
176
     1
 74
     2
176
     1
 91
        2
176
     1
 64
     7
176
     1
 65
   257
176
     1
 75
     2
176
     1
175
     1
176
     1
 42
40.0
176
     1
 92
        0
176
     1
 66
   257
176
     1
 43
1.0
176
     1
 76
     1
176
     1
 77
     6
176
     1
 78
     2
176
     1
 67
     7
176
     1
 79
     3
176
     1
170
     0
176
     1
171
     0
176
     1
290
     0
176
     1
 93
        1
176
     1
 44
0.0
176
     1
173
     0
176
     1
1001
ACAD
1000
AcDbSavedByObjectVersion
1070
     0
  0
VISUALSTYLE
  5
3F
102
{ACAD_XDICTIONARY
360
157
102
}
102
{ACAD_REACTORS
330
29
102
}
330
29
100
AcDbVisualStyle
  2
JitterOff
 70
    20
177
     2
291
     1
 71
     2
176
     0
 72
     2
176
     0
 73
     0
176
     0
 90
        0
176
     0
 40
0.6
176
     0
 41
30.0
176
     0
 63
     7
421
 16777215
176
     0
 74
     1
176
     0
 91
        4
176
     0
 64
     7
176
     0
 65
   257
176
     0
 75
     1
176
     0
175
     1
176
     0
 42
1.0
176
     0
 92
       10
176
     2
 66
     7
176
     0
 43
1.0
176
     0
 76
     1
176
     0
 77
     6
176
     0
 78
     2
176
     0
 67
     7
176
     0
 79
     5
176
     0
170
     0
176
     0
171
     0
176
     0
290
     0
176
     0
 93
        1
176
     0
 44
0.0
176
     0
173
     0
176
     0
1001
ACAD
1000
AcDbSavedByObjectVersion
1070
     0
  0
VISUALSTYLE
  5
37
102
{ACAD_XDICTIONARY
360
147
102
}
102
{ACAD_REACTORS
330
29
102
}
330
29
100
AcDbVisualStyle
  2
Linepattern
 70
    14
177
     2
291
     1
 71
     2
176
     1
 72
     2
176
     1
 73
     0
176
     1
 90
        0
176
     1
 40
0.6
176
     1
 41
30.0
176
     1
 63
     7
421
 16777215
176
     1
 74
     1
176
     1
 91
        4
176
     1
 64
     7
176
     1
 65
   257
176
     1
 75
     7
176
     1
175
     7
176
     1
 42
1.0
176
     1
 92
        8
176
     1
 66
     7
176
     1
 43
1.0
176
     1
 76
     1
176
     1
 77
     6
176
     1
 78
     2
176
     1
 67
     7
176
     1
 79
     5
176
     1
170
     0
176
     1
171
     0
176
     1
290
     0
176
     1
 93
        1
176
     1
 44
0.0
176
     1
173
     0
176
     1
1001
ACAD
1000
AcDbSavedByObjectVersion
1070
     0
  0
VISUALSTYLE
  5
40
102
{ACAD_XDICTIONARY
360
159
102
}
102
{ACAD_REACTORS
330
29
102
}
330
29
100
AcDbVisualStyle
  2
OverhangOff
 70
    21
177
     2
291
     1
 71
     2
176
     0
 72
     2
176
     0
 73
     0
176
     0
 90
        0
176
     0
 40
0.6
176
     0
 41
30.0
176
     0
 63
     7
421
 16777215
176
     0
 74
     1
176
     0
 91
        4
176
     0
 64
     7
176
     0
 65
   257
176
     0
 75
     1
176
     0
175
     1
176
     0
 42
1.0
176
     0
 92
        9
176
     2
 66
     7
176
     0
 43
1.0
176
     0
 76
     1
176
     0
 77
     6
176
     0
 78
     2
176
     0
 67
     7
176
     0
 79
     5
176
     0
170
     0
176
     0
171
     0
176
     0
290
     0
176
     0
 93
        1
176
     0
 44
0.0
176
     0
173
     0
176
     0
1001
ACAD
1000
AcDbSavedByObjectVersion
1070
     0
  0
VISUALSTYLE
  5
33
102
{ACAD_XDICTIONARY
360
13F
102
}
102
{ACAD_REACTORS
330
29
102
}
330
29
100
AcDbVisualStyle
  2
Realistic
 70
     8
177
     2
291
     0
 71
     2
176
     1
 72
     3
176
     1
 73
     0
176
     1
 90
        2
176
     1
 40
0.6
176
     1
 41
30.0
176
     1
 63
     7
421
 16777215
176
     1
 74
     0
176
     1
 91
        0
176
     1
 64
     7
176
     1
 65
   257
176
     1
 75
     1
176
     1
175
     1
176
     1
 42
1.0
176
     1
 92
        8
176
     1
 66
   257
176
     1
 43
1.0
176
     1
 76
     1
176
     1
 77
     6
176
     1
 78
     2
176
     1
 67
     7
176
     1
 79
     3
176
     1
170
     0
176
     1
171
     0
176
     1
290
     0
176
     1
 93
       13
176
     1
 44
0.0
176
     1
173
     0
176
     1
1001
ACAD
1000
AcDbSavedByObjectVersion
1070
     0
  0
VISUALSTYLE
  5
3E
102
{ACAD_XDICTIONARY
360
155
102
}
102
{ACAD_REACTORS
330
29
102
}
330
29
100
AcDbVisualStyle
  2
Shaded
 70
    27
177
     2
291
     0
 71
     2
176
     1
 72
     2
176
     1
 73
     1
176
     1
 90
        2
176
     1
 40
0.6
176
     1
 41
30.0
176
     1
 63
     7
421
 16777215
176
     1
 74
     0
176
     1
 91
        4
176
     1
 64
     7
176
     1
 65
   257
176
     1
 75
     1
176
     1
175
     1
176
     1
 42
1.0
176
     1
 92
        8
176
     1
 66
   257
176
     1
 43
1.0
176
     1
 76
     1
176
     1
 77
     6
176
     1
 78
     2
176
     1
 67
     8
425
  7895160
176
     1
 79
     3
176
     1
170
     0
176
     1
171
     0
176
     1
290
     0
176
     1
 93
        5
176
     1
 44
0.0
176
     1
173
     0
176
     1
1001
ACAD
1000
AcDbSavedByObjectVersion
1070
     0
  0
VISUALSTYLE
  5
3D
102
{ACAD_XDICTIONARY
360
153
102
}
102
{ACAD_REACTORS
330
29
102
}
330
29
100
AcDbVisualStyle
  2
Shaded with edges
 70
    26
177
     2
291
     0
 71
     2
176
     1
 72
     2
176
     1
 73
     1
176
     1
 90
        2
176
     1
 40
0.6
176
     1
 41
30.0
176
     1
 63
     7
421
 16777215
176
     1
 74
     1
176
     1
 91
        2
176
     1
 64
     7
176
     1
 65
   257
176
     1
 75
     2
176
     1
175
     1
176
     1
 42
1.0
176
     1
 92
        8
176
     1
 66
   257
176
     1
 43
1.0
176
     1
 76
     1
176
     1
 77
     6
176
     1
 78
     2
176
     1
 67
     7
176
     1
 79
     3
176
     1
170
     0
176
     1
171
     0
176
     1
290
     0
176
     1
 93
        5
176
     1
 44
0.0
176
     1
173
     0
176
     1
1001
ACAD
1000
AcDbSavedByObjectVersion
1070
     0
  0
VISUALSTYLE
  5
3A
102
{ACAD_XDICTIONARY
360
14D
102
}
102
{ACAD_REACTORS
330
29
102
}
330
29
100
AcDbVisualStyle
  2
Shades of Gray
 70
    23
177
     2
291
     0
 71
     2
176
     1
 72
     2
176
     1
 73
     3
176
     1
 90
        0
176
     1
 40
0.6
176
     1
 41
30.0
176
     1
 63
     7
421
 16777215
176
     1
 74
     2
176
     1
 91
        2
176
     1
 64
     7
176
     1
 65
     7
176
     1
 75
     1
176
     1
175
     1
176
     1
 42
40.0
176
     1
 92
        8
176
     1
 66
     7
176
     1
 43
1.0
176
     1
 76
     1
176
     1
 77
     6
176
     1
 78
     2
176
     1
 67
     7
176
     1
 79
     3
176
     1
170
     0
176
     1
171
     0
176
     1
290
     0
176
     1
 93
        1
176
     1
 44
0.0
176
     1
173
     0
176
     1
1001
ACAD
1000
AcDbSavedByObjectVersion
1070
     0
  0
VISUALSTYLE
  5
3B
102
{ACAD_XDICTIONARY
360
14F
102
}
102
{ACAD_REACTORS
330
29
102
}
330
29
100
AcDbVisualStyle
  2
Sketchy
 70
    24
177
     2
291
     0
 71
     1
176
     1
 72
     2
176
     1
 73
     2
176
     1
 90
        0
176
     1
 40
0.6
176
     1
 41
30.0
176
     1
 63
     7
421
 16777215
176
     1
 74
     2
176
     1
 91
        2
176
     1
 64
     7
176
     1
 65
     7
176
     1
 75
     1
176
     1
175
     1
176
     1
 42
40.0
176
     1
 92
       11
176
     1
 66
     7
176
     1
 43
1.0
176
     1
 76
     1
176
     1
 77
     6
176
     1
 78
     2
176
     1
 67
     7
176
     1
 79
     6
176
     1
170
     0
176
     1
171
     0
176
     1
290
     0
176
     1
 93
        1
176
     1
 44
0.0
176
     1
173
     0
176
     1
1001
ACAD
1000
AcDbSavedByObjectVersion
1070
     0
  0
VISUALSTYLE
  5
36
102
{ACAD_XDICTIONARY
360
145
102
}
102
{ACAD_REACTORS
330
29
102
}
330
29
100
AcDbVisualStyle
  2
Thicken
 70
    13
177
     2
291
     1
 71
     2
176
     1
 72
     2
176
     1
 73
     0
176
     1
 90
        0
176
     1
 40
0.6
176
     1
 41
30.0
176
     1
 63
     7
421
 16777215
176
     1
 74
     1
176
     1
 91
        4
176
     1
 64
     7
176
     1
 65
   257
176
     1
 75
     1
176
     1
175
     1
176
     1
 42
1.0
176
     1
 92
       12
176
     1
 66
     7
176
     1
 43
1.0
176
     1
 76
     1
176
     1
 77
     6
176
     1
 78
     2
176
     1
 67
     7
176
     1
 79
     5
176
     1
170
     0
176
     1
171
     0
176
     1
290
     0
176
     1
 93
        1
176
     1
 44
0.0
176
     1
173
     0
176
     1
1001
ACAD
1000
AcDbSavedByObjectVersion
1070
     0
  0
VISUALSTYLE
  5
30
102
{ACAD_XDICTIONARY
360
139
102
}
102
{ACAD_REACTORS
330
29
102
}
330
29
100
AcDbVisualStyle
  2
Wireframe
 70
     5
177
     2
291
     0
 71
     0
176
     1
 72
     2
176
     1
 73
     0
176
     1
 90
        0
176
     1
 40
0.6
176
     1
 41
30.0
176
     1
 63
     7
421
 16777215
176
     1
 74
     1
176
     1
 91
        4
176
     1
 64
     7
176
     1
 65
   257
176
     1
 75
     1
176
     1
175
     1
176
     1
 42
1.0
176
     1
 92
        0
176
     1
 66
   257
176
     1
 43
1.0
176
     1
 76
     1
176
     1
 77
     6
176
     1
 78
     2
176
     1
 67
     7
176
     1
 79
     3
176
     1
170
     0
176
     1
171
     0
176
     1
290
     0
176
     1
 93
        1
176
     1
 44
0.0
176
     1
173
     0
176
     1
1001
ACAD
1000
AcDbSavedByObjectVersion
1070
     0
  0
VISUALSTYLE
  5
3C
102
{ACAD_XDICTIONARY
360
151
102
}
102
{ACAD_REACTORS
330
29
102
}
330
29
100
AcDbVisualStyle
  2
X-Ray
 70
    25
177
     2
291
     0
 71
     2
176
     1
 72
     2
176
     1
 73
     1
176
     1
 90
        1
176
     1
 40
0.5
176
     1
 41
30.0
176
     1
 63
     7
421
 16777215
176
     1
 74
     1
176
     1
 91
        0
176
     1
 64
     7
176
     1
 65
   257
176
     1
 75
     1
176
     1
175
     1
176
     1
 42
1.0
176
     1
 92
        8
176
     1
 66
     7
176
     1
 43
1.0
176
     1
 76
     1
176
     1
 77
     6
176
     1
 78
     2
176
     1
 67
     7
176
     1
 79
     3
176
     1
170
     0
176
     1
171
     0
176
     1
290
     0
176
     1
 93
       13
176
     1
 44
0.0
176
     1
173
     0
176
     1
1001
ACAD
1000
AcDbSavedByObjectVersion
1070
     0
  0
DICTIONARYVAR
  5
129
102
{ACAD_REACTORS
330
124
102
}
330
124
100
DictionaryVariables
280
     0
  1
1:1
  0
DICTIONARYVAR
  5
126
102
{ACAD_REACTORS
330
124
102
}
330
124
100
DictionaryVariables
280
     0
  1
STANDARD
  0
DICTIONARYVAR
  5
125
102
{ACAD_REACTORS
330
124
102
}
330
124
100
DictionaryVariables
280
     0
  1
STANDARD
  0
DICTIONARYVAR
  5
127
102
{ACAD_REACTORS
330
124
102
}
330
124
100
DictionaryVariables
280
     0
  1
Imperial24
  0
DICTIONARYVAR
  5
128
102
{ACAD_REACTORS
330
124
102
}
330
124
100
DictionaryVariables
280
     0
  1
Imperial24
  0
DICTIONARY
  5
161
330
6B
100
AcDbDictionary
280
     1
281
     1
  3
ACAD_XREC_ROUNDTRIP
360
162
  0
DICTIONARY
  5
1A
330
19
100
AcDbDictionary
280
     1
281
     1
  3
BUMPTILE
360
1C
  3
DIFFUSETILE
360
1B
  3
OPACITYTILE
360
1F
  3
REFLECTIONTILE
360
1E
  3
REFRACTIONTILE
360
20
  3
SPECULARTILE
360
1D
  0
DICTIONARY
  5
12
330
11
100
AcDbDictionary
280
     1
281
     1
  3
BUMPTILE
360
14
  3
DIFFUSETILE
360
13
  3
OPACITYTILE
360
17
  3
REFLECTIONTILE
360
16
  3
REFRACTIONTILE
360
18
  3
SPECULARTILE
360
15
  0
DICTIONARY
  5
22
330
21
100
AcDbDictionary
280
     1
281
     1
  3
BUMPTILE
360
24
  3
DIFFUSETILE
360
23
  3
OPACITYTILE
360
27
  3
REFLECTIONTILE
360
26
  3
REFRACTIONTILE
360
28
  3
SPECULARTILE
360
25
  0
DICTIONARY
  5
15D
330
67
100
AcDbDictionary
280
     1
281
     1
  3
ACAD_XREC_ROUNDTRIP
360
15E
  0
DICTIONARY
  5
15F
330
69
100
AcDbDictionary
280
     1
281
     1
  3
ACAD_XREC_ROUNDTRIP
360
160
  0
DICTIONARY
  5
12A
330
65
100
AcDbDictionary
280
     1
281
     1
  3
ACAD_ROUNDTRIP_2008_TABLESTYLE_CELLSTYLEMAP
360
12B
  0
DICTIONARY
  5
137
330
2F
100
AcDbDictionary
280
     1
281
     1
  3
ACAD_XREC_ROUNDTRIP
360
138
  0
DICTIONARY
  5
135
330
2E
100
AcDbDictionary
280
     1
281
     1
  3
ACAD_XREC_ROUNDTRIP
360
136
  0
DICTIONARY
  5
143
330
35
100
AcDbDictionary
280
     1
281
     1
  3
ACAD_XREC_ROUNDTRIP
360
144
  0
DICTIONARY
  5
14B
330
39
100
AcDbDictionary
280
     1
281
     1
  3
ACAD_XREC_ROUNDTRIP
360
14C
  0
DICTIONARY
  5
13D
330
32
100
AcDbDictionary
280
     1
281
     1
  3
ACAD_XREC_ROUNDTRIP
360
13E
  0
DICTIONARY
  5
141
330
34
100
AcDbDictionary
280
     1
281
     1
  3
ACAD_XREC_ROUNDTRIP
360
142
  0
DICTIONARY
  5
15B
330
41
100
AcDbDictionary
280
     1
281
     1
  3
ACAD_XREC_ROUNDTRIP
360
15C
  0
DICTIONARY
  5
149
330
38
100
AcDbDictionary
280
     1
281
     1
  3
ACAD_XREC_ROUNDTRIP
360
14A
  0
DICTIONARY
  5
12D
330
2A
100
AcDbDictionary
280
     1
281
     1
  3
ACAD_XREC_ROUNDTRIP
360
12E
  0
DICTIONARY
  5
12F
330
2B
100
AcDbDictionary
280
     1
281
     1
  3
ACAD_XREC_ROUNDTRIP
360
130
  0
DICTIONARY
  5
131
330
2C
100
AcDbDictionary
280
     1
281
     1
  3
ACAD_XREC_ROUNDTRIP
360
132
  0
DICTIONARY
  5
133
330
2D
100
AcDbDictionary
280
     1
281
     1
  3
ACAD_XREC_ROUNDTRIP
360
134
  0
DICTIONARY
  5
13B
330
31
100
AcDbDictionary
280
     1
281
     1
  3
ACAD_XREC_ROUNDTRIP
360
13C
  0
DICTIONARY
  5
157
330
3F
100
AcDbDictionary
280
     1
281
     1
  3
ACAD_XREC_ROUNDTRIP
360
158
  0
DICTIONARY
  5
147
330
37
100
AcDbDictionary
280
     1
281
     1
  3
ACAD_XREC_ROUNDTRIP
360
148
  0
DICTIONARY
  5
159
330
40
100
AcDbDictionary
280
     1
281
     1
  3
ACAD_XREC_ROUNDTRIP
360
15A
  0
DICTIONARY
  5
13F
330
33
100
AcDbDictionary
280
     1
281
     1
  3
ACAD_XREC_ROUNDTRIP
360
140
  0
DICTIONARY
  5
155
330
3E
100
AcDbDictionary
280
     1
281
     1
  3
ACAD_XREC_ROUNDTRIP
360
156
  0
DICTIONARY
  5
153
330
3D
100
AcDbDictionary
280
     1
281
     1
  3
ACAD_XREC_ROUNDTRIP
360
154
  0
DICTIONARY
  5
14D
330
3A
100
AcDbDictionary
280
     1
281
     1
  3
ACAD_XREC_ROUNDTRIP
360
14E
  0
DICTIONARY
  5
14F
330
3B
100
AcDbDictionary
280
     1
281
     1
  3
ACAD_XREC_ROUNDTRIP
360
150
  0
DICTIONARY
  5
145
330
36
100
AcDbDictionary
280
     1
281
     1
  3
ACAD_XREC_ROUNDTRIP
360
146
  0
DICTIONARY
  5
139
330
30
100
AcDbDictionary
280
     1
281
     1
  3
ACAD_XREC_ROUNDTRIP
360
13A
  0
DICTIONARY
  5
151
330
3C
100
AcDbDictionary
280
     1
281
     1
  3
ACAD_XREC_ROUNDTRIP
360
152
  0
XRECORD
  5
162
102
{ACAD_REACTORS
330
161
102
}
330
161
100
AcDbXrecord
280
     1
102
DISPLAYNAME
  1
Imperial24
102
FLAGS
 90
        0
  0
XRECORD
  5
1C
102
{ACAD_REACTORS
330
1A
102
}
330
1A
100
AcDbXrecord
280
     1
270
     1
271
     1
  0
XRECORD
  5
1B
102
{ACAD_REACTORS
330
1A
102
}
330
1A
100
AcDbXrecord
280
     1
270
     1
271
     1
  0
XRECORD
  5
1F
102
{ACAD_REACTORS
330
1A
102
}
330
1A
100
AcDbXrecord
280
     1
270
     1
271
     1
  0
XRECORD
  5
1E
102
{ACAD_REACTORS
330
1A
102
}
330
1A
100
AcDbXrecord
280
     1
270
     1
271
     1
  0
XRECORD
  5
20
102
{ACAD_REACTORS
330
1A
102
}
330
1A
100
AcDbXrecord
280
     1
270
     1
271
     1
  0
XRECORD
  5
1D
102
{ACAD_REACTORS
330
1A
102
}
330
1A
100
AcDbXrecord
280
     1
270
     1
271
     1
  0
XRECORD
  5
14
102
{ACAD_REACTORS
330
12
102
}
330
12
100
AcDbXrecord
280
     1
270
     1
271
     1
  0
XRECORD
  5
13
102
{ACAD_REACTORS
330
12
102
}
330
12
100
AcDbXrecord
280
     1
270
     1
271
     1
  0
XRECORD
  5
17
102
{ACAD_REACTORS
330
12
102
}
330
12
100
AcDbXrecord
280
     1
270
     1
271
     1
  0
XRECORD
  5
16
102
{ACAD_REACTORS
330
12
102
}
330
12
100
AcDbXrecord
280
     1
270
     1
271
     1
  0
XRECORD
  5
18
102
{ACAD_REACTORS
330
12
102
}
330
12
100
AcDbXrecord
280
     1
270
     1
271
     1
  0
XRECORD
  5
15
102
{ACAD_REACTORS
330
12
102
}
330
12
100
AcDbXrecord
280
     1
270
     1
271
     1
  0
XRECORD
  5
24
102
{ACAD_REACTORS
330
22
102
}
330
22
100
AcDbXrecord
280
     1
270
     1
271
     1
  0
XRECORD
  5
23
102
{ACAD_REACTORS
330
22
102
}
330
22
100
AcDbXrecord
280
     1
270
     1
271
     1
  0
XRECORD
  5
27
102
{ACAD_REACTORS
330
22
102
}
330
22
100
AcDbXrecord
280
     1
270
     1
271
     1
  0
XRECORD
  5
26
102
{ACAD_REACTORS
330
22
102
}
330
22
100
AcDbXrecord
280
     1
270
     1
271
     1
  0
XRECORD
  5
28
102
{ACAD_REACTORS
330
22
102
}
330
22
100
AcDbXrecord
280
     1
270
     1
271
     1
  0
XRECORD
  5
25
102
{ACAD_REACTORS
330
22
102
}
330
22
100
AcDbXrecord
280
     1
270
     1
271
     1
  0
XRECORD
  5
15E
102
{ACAD_REACTORS
330
15D
102
}
330
15D
100
AcDbXrecord
280
     1
102
ACAD_ROUNDTRIP_2012_MLEADER_STYLE
298
     1
  0
XRECORD
  5
160
102
{ACAD_REACTORS
330
15F
102
}
330
15F
100
AcDbXrecord
280
     1
102
DISPLAYNAME
  1
Imperial24
102
FLAGS
 90
        0
  0
CELLSTYLEMAP
  5
12B
102
{ACAD_REACTORS
330
12A
102
}
330
12A
100
AcDbCellStyleMap
 90
        3
300
CELLSTYLE
  1
TABLEFORMAT_BEGIN
 90
        5
170
     1
 91
        0
 92
    32768
 62
   257
 93
        1
300
CONTENTFORMAT
  1
CONTENTFORMAT_BEGIN
 90
        0
 91
        0
 92
      512
 93
        0
300

 40
0.0
140
1.0
 94
        5
 62
     0
340
55
144
0.25
309
CONTENTFORMAT_END
171
     0
 94
        0
309
TABLEFORMAT_END
  1
CELLSTYLE_BEGIN
 90
        1
 91
        1
300
_TITLE
309
CELLSTYLE_END
300
CELLSTYLE
  1
TABLEFORMAT_BEGIN
 90
        5
170
     1
 91
        0
 92
        0
 62
   257
 93
        1
300
CONTENTFORMAT
  1
CONTENTFORMAT_BEGIN
 90
        0
 91
        0
 92
      512
 93
        0
300

 40
0.0
140
1.0
 94
        5
 62
     0
340
55
144
0.18
309
CONTENTFORMAT_END
171
     0
 94
        0
309
TABLEFORMAT_END
  1
CELLSTYLE_BEGIN
 90
        2
 91
        1
300
_HEADER
309
CELLSTYLE_END
300
CELLSTYLE
  1
TABLEFORMAT_BEGIN
 90
        5
170
     1
 91
        0
 92
        0
 62
   257
 93
        1
300
CONTENTFORMAT
  1
CONTENTFORMAT_BEGIN
 90
        0
 91
        0
 92
      512
 93
        0
300

 40
0.0
140
1.0
 94
        2
 62
     0
340
55
144
0.18
309
CONTENTFORMAT_END
171
     0
 94
        0
309
TABLEFORMAT_END
  1
CELLSTYLE_BEGIN
 90
        3
 91
        2
300
_DATA
309
CELLSTYLE_END
  0
XRECORD
  5
138
102
{ACAD_REACTORS
330
137
102
}
330
137
100
AcDbXrecord
280
     1
102
RTVSPost2010Prop28
280
     1
102
RTVSPost2010PropOp28
 70
     1
102
RTVSPost2010Prop29
280
     1
102
RTVSPost2010PropOp29
 70
     1
102
RTVSPost2010Prop30
280
     0
102
RTVSPost2010PropOp30
 70
     1
102
RTVSPost2010Prop31
280
     0
102
RTVSPost2010PropOp31
 70
     1
102
RTVSPost2010Prop32
280
     0
102
RTVSPost2010PropOp32
 70
     1
102
RTVSPost2010Prop33
280
     0
102
RTVSPost2010PropOp33
 70
     1
102
RTVSPost2010Prop34
280
     0
102
RTVSPost2010PropOp34
 70
     1
102
RTVSPost2010Prop35
280
     0
102
RTVSPost2010PropOp35
 70
     1
102
RTVSPost2010Prop36
280
     0
102
RTVSPost2010PropOp36
 70
     1
102
RTVSPost2010Prop37
 90
       50
102
RTVSPost2010PropOp37
 70
     1
102
RTVSPost2010Prop38
140
0.0
102
RTVSPost2010PropOp38
 70
     1
102
RTVSPost2010Prop39
140
1.0
102
RTVSPost2010PropOp39
 70
     1
102
RTVSPost2010Prop40
 90
        0
102
RTVSPost2010PropOp40
 70
     1
102
RTVSPost2010Prop41ColorIndex
 90
       18
102
RTVSPost2010Prop41ColorRGB
 90
        0
102
RTVSPost2010PropOp41
 70
     1
102
RTVSPost2010Prop42
 90
       50
102
RTVSPost2010PropOp42
 70
     1
102
RTVSPost2010Prop43
 90
        3
102
RTVSPost2010PropOp43
 70
     1
102
RTVSPost2010Prop44ColorIndex
 90
        5
102
RTVSPost2010Prop44ColorRGB
 90
      255
102
RTVSPost2010PropOp44
 70
     1
102
RTVSPost2010Prop45
280
     0
102
RTVSPost2010PropOp45
 70
     1
102
RTVSPost2010Prop46
 90
       50
102
RTVSPost2010PropOp46
 70
     1
102
RTVSPost2010Prop47
 90
       50
102
RTVSPost2010PropOp47
 70
     1
102
RTVSPost2010Prop48
 90
       50
102
RTVSPost2010PropOp48
 70
     1
102
RTVSPost2010Prop49
280
     0
102
RTVSPost2010PropOp49
 70
     1
102
RTVSPost2010Prop50
 90
       50
102
RTVSPost2010PropOp50
 70
     1
102
RTVSPost2010Prop51ColorIndex
 90
      256
102
RTVSPost2010Prop51ColorRGB
 90
-16777216
102
RTVSPost2010PropOp51
 70
     0
102
RTVSPost2010Prop52
140
1.0
102
RTVSPost2010PropOp52
 70
     0
102
RTVSPost2010Prop53
 90
        2
102
RTVSPost2010PropOp53
 70
     1
102
RTVSPost2010Prop54
  1
strokes_ogs.tif
102
RTVSPost2010PropOp54
 70
     1
102
RTVSPost2010Prop55
280
     0
102
RTVSPost2010PropOp55
 70
     1
102
RTVSPost2010Prop56
140
1.0
102
RTVSPost2010PropOp56
 70
     1
102
RTVSPost2010Prop57
140
1.0
102
RTVSPost2010PropOp57
 70
     1
  0
XRECORD
  5
136
102
{ACAD_REACTORS
330
135
102
}
330
135
100
AcDbXrecord
280
     1
102
RTVSPost2010Prop28
280
     0
102
RTVSPost2010PropOp28
 70
     1
102
RTVSPost2010Prop29
280
     1
102
RTVSPost2010PropOp29
 70
     1
102
RTVSPost2010Prop30
280
     1
102
RTVSPost2010PropOp30
 70
     1
102
RTVSPost2010Prop31
280
     0
102
RTVSPost2010PropOp31
 70
     1
102
RTVSPost2010Prop32
280
     0
102
RTVSPost2010PropOp32
 70
     1
102
RTVSPost2010Prop33
280
     0
102
RTVSPost2010PropOp33
 70
     1
102
RTVSPost2010Prop34
280
     0
102
RTVSPost2010PropOp34
 70
     1
102
RTVSPost2010Prop35
280
     0
102
RTVSPost2010PropOp35
 70
     1
102
RTVSPost2010Prop36
280
     0
102
RTVSPost2010PropOp36
 70
     1
102
RTVSPost2010Prop37
 90
       50
102
RTVSPost2010PropOp37
 70
     1
102
RTVSPost2010Prop38
140
0.0
102
RTVSPost2010PropOp38
 70
     1
102
RTVSPost2010Prop39
140
1.0
102
RTVSPost2010PropOp39
 70
     1
102
RTVSPost2010Prop40
 90
        0
102
RTVSPost2010PropOp40
 70
     1
102
RTVSPost2010Prop41ColorIndex
 90
       18
102
RTVSPost2010Prop41ColorRGB
 90
        0
102
RTVSPost2010PropOp41
 70
     1
102
RTVSPost2010Prop42
 90
       50
102
RTVSPost2010PropOp42
 70
     1
102
RTVSPost2010Prop43
 90
        3
102
RTVSPost2010PropOp43
 70
     1
102
RTVSPost2010Prop44ColorIndex
 90
        5
102
RTVSPost2010Prop44ColorRGB
 90
      255
102
RTVSPost2010PropOp44
 70
     1
102
RTVSPost2010Prop45
280
     0
102
RTVSPost2010PropOp45
 70
     1
102
RTVSPost2010Prop46
 90
       50
102
RTVSPost2010PropOp46
 70
     1
102
RTVSPost2010Prop47
 90
       50
102
RTVSPost2010PropOp47
 70
     1
102
RTVSPost2010Prop48
 90
       50
102
RTVSPost2010PropOp48
 70
     1
102
RTVSPost2010Prop49
280
     0
102
RTVSPost2010PropOp49
 70
     1
102
RTVSPost2010Prop50
 90
       50
102
RTVSPost2010PropOp50
 70
     1
102
RTVSPost2010Prop51ColorIndex
 90
      256
102
RTVSPost2010Prop51ColorRGB
 90
-16777216
102
RTVSPost2010PropOp51
 70
     0
102
RTVSPost2010Prop52
140
1.0
102
RTVSPost2010PropOp52
 70
     0
102
RTVSPost2010Prop53
 90
        2
102
RTVSPost2010PropOp53
 70
     1
102
RTVSPost2010Prop54
  1
strokes_ogs.tif
102
RTVSPost2010PropOp54
 70
     1
102
RTVSPost2010Prop55
280
     0
102
RTVSPost2010PropOp55
 70
     1
102
RTVSPost2010Prop56
140
1.0
102
RTVSPost2010PropOp56
 70
     1
102
RTVSPost2010Prop57
140
1.0
102
RTVSPost2010PropOp57
 70
     1
  0
XRECORD
  5
144
102
{ACAD_REACTORS
330
143
102
}
330
143
100
AcDbXrecord
280
     1
102
RTVSPost2010Prop28
280
     0
102
RTVSPost2010PropOp28
 70
     1
102
RTVSPost2010Prop29
280
     1
102
RTVSPost2010PropOp29
 70
     1
102
RTVSPost2010Prop30
280
     1
102
RTVSPost2010PropOp30
 70
     1
102
RTVSPost2010Prop31
280
     0
102
RTVSPost2010PropOp31
 70
     1
102
RTVSPost2010Prop32
280
     0
102
RTVSPost2010PropOp32
 70
     1
102
RTVSPost2010Prop33
280
     0
102
RTVSPost2010PropOp33
 70
     1
102
RTVSPost2010Prop34
280
     0
102
RTVSPost2010PropOp34
 70
     1
102
RTVSPost2010Prop35
280
     0
102
RTVSPost2010PropOp35
 70
     1
102
RTVSPost2010Prop36
280
     0
102
RTVSPost2010PropOp36
 70
     1
102
RTVSPost2010Prop37
 90
       50
102
RTVSPost2010PropOp37
 70
     1
102
RTVSPost2010Prop38
140
0.0
102
RTVSPost2010PropOp38
 70
     1
102
RTVSPost2010Prop39
140
1.0
102
RTVSPost2010PropOp39
 70
     1
102
RTVSPost2010Prop40
 90
        0
102
RTVSPost2010PropOp40
 70
     1
102
RTVSPost2010Prop41ColorIndex
 90
       18
102
RTVSPost2010Prop41ColorRGB
 90
        0
102
RTVSPost2010PropOp41
 70
     1
102
RTVSPost2010Prop42
 90
       50
102
RTVSPost2010PropOp42
 70
     1
102
RTVSPost2010Prop43
 90
        3
102
RTVSPost2010PropOp43
 70
     1
102
RTVSPost2010Prop44ColorIndex
 90
        5
102
RTVSPost2010Prop44ColorRGB
 90
      255
102
RTVSPost2010PropOp44
 70
     1
102
RTVSPost2010Prop45
280
     0
102
RTVSPost2010PropOp45
 70
     1
102
RTVSPost2010Prop46
 90
       50
102
RTVSPost2010PropOp46
 70
     1
102
RTVSPost2010Prop47
 90
       50
102
RTVSPost2010PropOp47
 70
     1
102
RTVSPost2010Prop48
 90
       50
102
RTVSPost2010PropOp48
 70
     1
102
RTVSPost2010Prop49
280
     0
102
RTVSPost2010PropOp49
 70
     1
102
RTVSPost2010Prop50
 90
       50
102
RTVSPost2010PropOp50
 70
     1
102
RTVSPost2010Prop51ColorIndex
 90
      256
102
RTVSPost2010Prop51ColorRGB
 90
-16777216
102
RTVSPost2010PropOp51
 70
     0
102
RTVSPost2010Prop52
140
1.0
102
RTVSPost2010PropOp52
 70
     0
102
RTVSPost2010Prop53
 90
        2
102
RTVSPost2010PropOp53
 70
     1
102
RTVSPost2010Prop54
  1
strokes_ogs.tif
102
RTVSPost2010PropOp54
 70
     1
102
RTVSPost2010Prop55
280
     0
102
RTVSPost2010PropOp55
 70
     1
102
RTVSPost2010Prop56
140
1.0
102
RTVSPost2010PropOp56
 70
     1
102
RTVSPost2010Prop57
140
1.0
102
RTVSPost2010PropOp57
 70
     1
  0
XRECORD
  5
14C
102
{ACAD_REACTORS
330
14B
102
}
330
14B
100
AcDbXrecord
280
     1
102
RTVSPost2010Prop28
280
     0
102
RTVSPost2010PropOp28
 70
     1
102
RTVSPost2010Prop29
280
     1
102
RTVSPost2010PropOp29
 70
     1
102
RTVSPost2010Prop30
280
     1
102
RTVSPost2010PropOp30
 70
     1
102
RTVSPost2010Prop31
280
     0
102
RTVSPost2010PropOp31
 70
     1
102
RTVSPost2010Prop32
280
     0
102
RTVSPost2010PropOp32
 70
     1
102
RTVSPost2010Prop33
280
     0
102
RTVSPost2010PropOp33
 70
     1
102
RTVSPost2010Prop34
280
     0
102
RTVSPost2010PropOp34
 70
     1
102
RTVSPost2010Prop35
280
     0
102
RTVSPost2010PropOp35
 70
     1
102
RTVSPost2010Prop36
280
     0
102
RTVSPost2010PropOp36
 70
     1
102
RTVSPost2010Prop37
 90
       50
102
RTVSPost2010PropOp37
 70
     1
102
RTVSPost2010Prop38
140
0.0
102
RTVSPost2010PropOp38
 70
     1
102
RTVSPost2010Prop39
140
1.0
102
RTVSPost2010PropOp39
 70
     1
102
RTVSPost2010Prop40
 90
        0
102
RTVSPost2010PropOp40
 70
     1
102
RTVSPost2010Prop41ColorIndex
 90
       18
102
RTVSPost2010Prop41ColorRGB
 90
        0
102
RTVSPost2010PropOp41
 70
     1
102
RTVSPost2010Prop42
 90
       50
102
RTVSPost2010PropOp42
 70
     1
102
RTVSPost2010Prop43
 90
        3
102
RTVSPost2010PropOp43
 70
     1
102
RTVSPost2010Prop44ColorIndex
 90
        5
102
RTVSPost2010Prop44ColorRGB
 90
      255
102
RTVSPost2010PropOp44
 70
     1
102
RTVSPost2010Prop45
280
     0
102
RTVSPost2010PropOp45
 70
     1
102
RTVSPost2010Prop46
 90
       50
102
RTVSPost2010PropOp46
 70
     1
102
RTVSPost2010Prop47
 90
       50
102
RTVSPost2010PropOp47
 70
     1
102
RTVSPost2010Prop48
 90
       50
102
RTVSPost2010PropOp48
 70
     1
102
RTVSPost2010Prop49
280
     0
102
RTVSPost2010PropOp49
 70
     1
102
RTVSPost2010Prop50
 90
       50
102
RTVSPost2010PropOp50
 70
     1
102
RTVSPost2010Prop51ColorIndex
 90
      256
102
RTVSPost2010Prop51ColorRGB
 90
-16777216
102
RTVSPost2010PropOp51
 70
     0
102
RTVSPost2010Prop52
140
1.0
102
RTVSPost2010PropOp52
 70
     0
102
RTVSPost2010Prop53
 90
        2
102
RTVSPost2010PropOp53
 70
     1
102
RTVSPost2010Prop54
  1
strokes_ogs.tif
102
RTVSPost2010PropOp54
 70
     1
102
RTVSPost2010Prop55
280
     0
102
RTVSPost2010PropOp55
 70
     1
102
RTVSPost2010Prop56
140
1.0
102
RTVSPost2010PropOp56
 70
     1
102
RTVSPost2010Prop57
140
1.0
102
RTVSPost2010PropOp57
 70
     1
  0
XRECORD
  5
13E
102
{ACAD_REACTORS
330
13D
102
}
330
13D
100
AcDbXrecord
280
     1
102
RTVSPost2010Prop28
280
     0
102
RTVSPost2010PropOp28
 70
     1
102
RTVSPost2010Prop29
280
     1
102
RTVSPost2010PropOp29
 70
     1
102
RTVSPost2010Prop30
280
     1
102
RTVSPost2010PropOp30
 70
     1
102
RTVSPost2010Prop31
280
     0
102
RTVSPost2010PropOp31
 70
     1
102
RTVSPost2010Prop32
280
     0
102
RTVSPost2010PropOp32
 70
     1
102
RTVSPost2010Prop33
280
     0
102
RTVSPost2010PropOp33
 70
     1
102
RTVSPost2010Prop34
280
     0
102
RTVSPost2010PropOp34
 70
     1
102
RTVSPost2010Prop35
280
     0
102
RTVSPost2010PropOp35
 70
     1
102
RTVSPost2010Prop36
280
     0
102
RTVSPost2010PropOp36
 70
     1
102
RTVSPost2010Prop37
 90
       50
102
RTVSPost2010PropOp37
 70
     1
102
RTVSPost2010Prop38
140
0.0
102
RTVSPost2010PropOp38
 70
     1
102
RTVSPost2010Prop39
140
1.0
102
RTVSPost2010PropOp39
 70
     1
102
RTVSPost2010Prop40
 90
        0
102
RTVSPost2010PropOp40
 70
     1
102
RTVSPost2010Prop41ColorIndex
 90
       18
102
RTVSPost2010Prop41ColorRGB
 90
        0
102
RTVSPost2010PropOp41
 70
     1
102
RTVSPost2010Prop42
 90
       50
102
RTVSPost2010PropOp42
 70
     1
102
RTVSPost2010Prop43
 90
        3
102
RTVSPost2010PropOp43
 70
     1
102
RTVSPost2010Prop44ColorIndex
 90
        5
102
RTVSPost2010Prop44ColorRGB
 90
      255
102
RTVSPost2010PropOp44
 70
     1
102
RTVSPost2010Prop45
280
     0
102
RTVSPost2010PropOp45
 70
     1
102
RTVSPost2010Prop46
 90
       50
102
RTVSPost2010PropOp46
 70
     1
102
RTVSPost2010Prop47
 90
       50
102
RTVSPost2010PropOp47
 70
     1
102
RTVSPost2010Prop48
 90
       50
102
RTVSPost2010PropOp48
 70
     1
102
RTVSPost2010Prop49
280
     0
102
RTVSPost2010PropOp49
 70
     1
102
RTVSPost2010Prop50
 90
       50
102
RTVSPost2010PropOp50
 70
     1
102
RTVSPost2010Prop51ColorIndex
 90
      256
102
RTVSPost2010Prop51ColorRGB
 90
-16777216
102
RTVSPost2010PropOp51
 70
     0
102
RTVSPost2010Prop52
140
1.0
102
RTVSPost2010PropOp52
 70
     0
102
RTVSPost2010Prop53
 90
        2
102
RTVSPost2010PropOp53
 70
     1
102
RTVSPost2010Prop54
  1
strokes_ogs.tif
102
RTVSPost2010PropOp54
 70
     1
102
RTVSPost2010Prop55
280
     0
102
RTVSPost2010PropOp55
 70
     1
102
RTVSPost2010Prop56
140
1.0
102
RTVSPost2010PropOp56
 70
     1
102
RTVSPost2010Prop57
140
1.0
102
RTVSPost2010PropOp57
 70
     1
  0
XRECORD
  5
142
102
{ACAD_REACTORS
330
141
102
}
330
141
100
AcDbXrecord
280
     1
102
RTVSPost2010Prop28
280
     0
102
RTVSPost2010PropOp28
 70
     1
102
RTVSPost2010Prop29
280
     1
102
RTVSPost2010PropOp29
 70
     1
102
RTVSPost2010Prop30
280
     1
102
RTVSPost2010PropOp30
 70
     1
102
RTVSPost2010Prop31
280
     0
102
RTVSPost2010PropOp31
 70
     1
102
RTVSPost2010Prop32
280
     0
102
RTVSPost2010PropOp32
 70
     1
102
RTVSPost2010Prop33
280
     0
102
RTVSPost2010PropOp33
 70
     1
102
RTVSPost2010Prop34
280
     0
102
RTVSPost2010PropOp34
 70
     1
102
RTVSPost2010Prop35
280
     0
102
RTVSPost2010PropOp35
 70
     1
102
RTVSPost2010Prop36
280
     0
102
RTVSPost2010PropOp36
 70
     1
102
RTVSPost2010Prop37
 90
       50
102
RTVSPost2010PropOp37
 70
     1
102
RTVSPost2010Prop38
140
0.0
102
RTVSPost2010PropOp38
 70
     1
102
RTVSPost2010Prop39
140
1.0
102
RTVSPost2010PropOp39
 70
     1
102
RTVSPost2010Prop40
 90
        0
102
RTVSPost2010PropOp40
 70
     1
102
RTVSPost2010Prop41ColorIndex
 90
       18
102
RTVSPost2010Prop41ColorRGB
 90
        0
102
RTVSPost2010PropOp41
 70
     1
102
RTVSPost2010Prop42
 90
       50
102
RTVSPost2010PropOp42
 70
     1
102
RTVSPost2010Prop43
 90
        3
102
RTVSPost2010PropOp43
 70
     1
102
RTVSPost2010Prop44ColorIndex
 90
        5
102
RTVSPost2010Prop44ColorRGB
 90
      255
102
RTVSPost2010PropOp44
 70
     1
102
RTVSPost2010Prop45
280
     0
102
RTVSPost2010PropOp45
 70
     1
102
RTVSPost2010Prop46
 90
       50
102
RTVSPost2010PropOp46
 70
     1
102
RTVSPost2010Prop47
 90
       50
102
RTVSPost2010PropOp47
 70
     1
102
RTVSPost2010Prop48
 90
       50
102
RTVSPost2010PropOp48
 70
     1
102
RTVSPost2010Prop49
280
     0
102
RTVSPost2010PropOp49
 70
     1
102
RTVSPost2010Prop50
 90
       50
102
RTVSPost2010PropOp50
 70
     1
102
RTVSPost2010Prop51ColorIndex
 90
      256
102
RTVSPost2010Prop51ColorRGB
 90
-16777216
102
RTVSPost2010PropOp51
 70
     0
102
RTVSPost2010Prop52
140
1.0
102
RTVSPost2010PropOp52
 70
     0
102
RTVSPost2010Prop53
 90
        2
102
RTVSPost2010PropOp53
 70
     1
102
RTVSPost2010Prop54
  1
strokes_ogs.tif
102
RTVSPost2010PropOp54
 70
     1
102
RTVSPost2010Prop55
280
     0
102
RTVSPost2010PropOp55
 70
     1
102
RTVSPost2010Prop56
140
1.0
102
RTVSPost2010PropOp56
 70
     1
102
RTVSPost2010Prop57
140
1.0
102
RTVSPost2010PropOp57
 70
     1
  0
XRECORD
  5
15C
102
{ACAD_REACTORS
330
15B
102
}
330
15B
100
AcDbXrecord
280
     1
102
RTVSPost2010Prop28
280
     0
102
RTVSPost2010PropOp28
 70
     0
102
RTVSPost2010Prop29
280
     1
102
RTVSPost2010PropOp29
 70
     0
102
RTVSPost2010Prop30
280
     1
102
RTVSPost2010PropOp30
 70
     0
102
RTVSPost2010Prop31
280
     0
102
RTVSPost2010PropOp31
 70
     0
102
RTVSPost2010Prop32
280
     0
102
RTVSPost2010PropOp32
 70
     0
102
RTVSPost2010Prop33
280
     0
102
RTVSPost2010PropOp33
 70
     0
102
RTVSPost2010Prop34
280
     0
102
RTVSPost2010PropOp34
 70
     0
102
RTVSPost2010Prop35
280
     0
102
RTVSPost2010PropOp35
 70
     0
102
RTVSPost2010Prop36
280
     0
102
RTVSPost2010PropOp36
 70
     0
102
RTVSPost2010Prop37
 90
       50
102
RTVSPost2010PropOp37
 70
     0
102
RTVSPost2010Prop38
140
0.0
102
RTVSPost2010PropOp38
 70
     0
102
RTVSPost2010Prop39
140
1.0
102
RTVSPost2010PropOp39
 70
     0
102
RTVSPost2010Prop40
 90
        0
102
RTVSPost2010PropOp40
 70
     0
102
RTVSPost2010Prop41ColorIndex
 90
       18
102
RTVSPost2010Prop41ColorRGB
 90
        0
102
RTVSPost2010PropOp41
 70
     0
102
RTVSPost2010Prop42
 90
       50
102
RTVSPost2010PropOp42
 70
     0
102
RTVSPost2010Prop43
 90
        3
102
RTVSPost2010PropOp43
 70
     0
102
RTVSPost2010Prop44ColorIndex
 90
        5
102
RTVSPost2010Prop44ColorRGB
 90
      255
102
RTVSPost2010PropOp44
 70
     0
102
RTVSPost2010Prop45
280
     0
102
RTVSPost2010PropOp45
 70
     0
102
RTVSPost2010Prop46
 90
       50
102
RTVSPost2010PropOp46
 70
     0
102
RTVSPost2010Prop47
 90
       50
102
RTVSPost2010PropOp47
 70
     0
102
RTVSPost2010Prop48
 90
       50
102
RTVSPost2010PropOp48
 70
     0
102
RTVSPost2010Prop49
280
     0
102
RTVSPost2010PropOp49
 70
     0
102
RTVSPost2010Prop50
 90
       50
102
RTVSPost2010PropOp50
 70
     0
102
RTVSPost2010Prop51ColorIndex
 90
      256
102
RTVSPost2010Prop51ColorRGB
 90
-16777216
102
RTVSPost2010PropOp51
 70
     0
102
RTVSPost2010Prop52
140
1.0
102
RTVSPost2010PropOp52
 70
     0
102
RTVSPost2010Prop53
 90
        2
102
RTVSPost2010PropOp53
 70
     0
102
RTVSPost2010Prop54
  1
strokes_ogs.tif
102
RTVSPost2010PropOp54
 70
     0
102
RTVSPost2010Prop55
280
     0
102
RTVSPost2010PropOp55
 70
     0
102
RTVSPost2010Prop56
140
1.0
102
RTVSPost2010PropOp56
 70
     0
102
RTVSPost2010Prop57
140
1.0
102
RTVSPost2010PropOp57
 70
     0
  0
XRECORD
  5
14A
102
{ACAD_REACTORS
330
149
102
}
330
149
100
AcDbXrecord
280
     1
102
RTVSPost2010Prop28
280
     0
102
RTVSPost2010PropOp28
 70
     1
102
RTVSPost2010Prop29
280
     1
102
RTVSPost2010PropOp29
 70
     1
102
RTVSPost2010Prop30
280
     1
102
RTVSPost2010PropOp30
 70
     1
102
RTVSPost2010Prop31
280
     0
102
RTVSPost2010PropOp31
 70
     1
102
RTVSPost2010Prop32
280
     0
102
RTVSPost2010PropOp32
 70
     1
102
RTVSPost2010Prop33
280
     0
102
RTVSPost2010PropOp33
 70
     1
102
RTVSPost2010Prop34
280
     0
102
RTVSPost2010PropOp34
 70
     1
102
RTVSPost2010Prop35
280
     0
102
RTVSPost2010PropOp35
 70
     1
102
RTVSPost2010Prop36
280
     0
102
RTVSPost2010PropOp36
 70
     1
102
RTVSPost2010Prop37
 90
       50
102
RTVSPost2010PropOp37
 70
     1
102
RTVSPost2010Prop38
140
0.0
102
RTVSPost2010PropOp38
 70
     1
102
RTVSPost2010Prop39
140
1.0
102
RTVSPost2010PropOp39
 70
     1
102
RTVSPost2010Prop40
 90
        0
102
RTVSPost2010PropOp40
 70
     1
102
RTVSPost2010Prop41ColorIndex
 90
       18
102
RTVSPost2010Prop41ColorRGB
 90
        0
102
RTVSPost2010PropOp41
 70
     1
102
RTVSPost2010Prop42
 90
       50
102
RTVSPost2010PropOp42
 70
     1
102
RTVSPost2010Prop43
 90
        3
102
RTVSPost2010PropOp43
 70
     1
102
RTVSPost2010Prop44ColorIndex
 90
        5
102
RTVSPost2010Prop44ColorRGB
 90
      255
102
RTVSPost2010PropOp44
 70
     1
102
RTVSPost2010Prop45
280
     0
102
RTVSPost2010PropOp45
 70
     1
102
RTVSPost2010Prop46
 90
       50
102
RTVSPost2010PropOp46
 70
     1
102
RTVSPost2010Prop47
 90
       50
102
RTVSPost2010PropOp47
 70
     1
102
RTVSPost2010Prop48
 90
       50
102
RTVSPost2010PropOp48
 70
     1
102
RTVSPost2010Prop49
280
     0
102
RTVSPost2010PropOp49
 70
     1
102
RTVSPost2010Prop50
 90
       50
102
RTVSPost2010PropOp50
 70
     1
102
RTVSPost2010Prop51ColorIndex
 90
      256
102
RTVSPost2010Prop51ColorRGB
 90
-16777216
102
RTVSPost2010PropOp51
 70
     0
102
RTVSPost2010Prop52
140
1.0
102
RTVSPost2010PropOp52
 70
     0
102
RTVSPost2010Prop53
 90
        2
102
RTVSPost2010PropOp53
 70
     1
102
RTVSPost2010Prop54
  1
strokes_ogs.tif
102
RTVSPost2010PropOp54
 70
     1
102
RTVSPost2010Prop55
280
     0
102
RTVSPost2010PropOp55
 70
     1
102
RTVSPost2010Prop56
140
1.0
102
RTVSPost2010PropOp56
 70
     1
102
RTVSPost2010Prop57
140
1.0
102
RTVSPost2010PropOp57
 70
     1
  0
XRECORD
  5
12E
102
{ACAD_REACTORS
330
12D
102
}
330
12D
100
AcDbXrecord
280
     1
102
RTVSPost2010Prop28
280
     0
102
RTVSPost2010PropOp28
 70
     1
102
RTVSPost2010Prop29
280
     1
102
RTVSPost2010PropOp29
 70
     1
102
RTVSPost2010Prop30
280
     1
102
RTVSPost2010PropOp30
 70
     1
102
RTVSPost2010Prop31
280
     0
102
RTVSPost2010PropOp31
 70
     1
102
RTVSPost2010Prop32
280
     0
102
RTVSPost2010PropOp32
 70
     1
102
RTVSPost2010Prop33
280
     0
102
RTVSPost2010PropOp33
 70
     1
102
RTVSPost2010Prop34
280
     0
102
RTVSPost2010PropOp34
 70
     1
102
RTVSPost2010Prop35
280
     0
102
RTVSPost2010PropOp35
 70
     1
102
RTVSPost2010Prop36
280
     0
102
RTVSPost2010PropOp36
 70
     1
102
RTVSPost2010Prop37
 90
       50
102
RTVSPost2010PropOp37
 70
     1
102
RTVSPost2010Prop38
140
0.0
102
RTVSPost2010PropOp38
 70
     1
102
RTVSPost2010Prop39
140
1.0
102
RTVSPost2010PropOp39
 70
     1
102
RTVSPost2010Prop40
 90
        0
102
RTVSPost2010PropOp40
 70
     1
102
RTVSPost2010Prop41ColorIndex
 90
       18
102
RTVSPost2010Prop41ColorRGB
 90
        0
102
RTVSPost2010PropOp41
 70
     1
102
RTVSPost2010Prop42
 90
       50
102
RTVSPost2010PropOp42
 70
     1
102
RTVSPost2010Prop43
 90
        3
102
RTVSPost2010PropOp43
 70
     1
102
RTVSPost2010Prop44ColorIndex
 90
        5
102
RTVSPost2010Prop44ColorRGB
 90
      255
102
RTVSPost2010PropOp44
 70
     1
102
RTVSPost2010Prop45
280
     0
102
RTVSPost2010PropOp45
 70
     1
102
RTVSPost2010Prop46
 90
       50
102
RTVSPost2010PropOp46
 70
     1
102
RTVSPost2010Prop47
 90
       50
102
RTVSPost2010PropOp47
 70
     1
102
RTVSPost2010Prop48
 90
       50
102
RTVSPost2010PropOp48
 70
     1
102
RTVSPost2010Prop49
280
     0
102
RTVSPost2010PropOp49
 70
     1
102
RTVSPost2010Prop50
 90
       50
102
RTVSPost2010PropOp50
 70
     1
102
RTVSPost2010Prop51ColorIndex
 90
      256
102
RTVSPost2010Prop51ColorRGB
 90
-16777216
102
RTVSPost2010PropOp51
 70
     0
102
RTVSPost2010Prop52
140
1.0
102
RTVSPost2010PropOp52
 70
     0
102
RTVSPost2010Prop53
 90
        2
102
RTVSPost2010PropOp53
 70
     1
102
RTVSPost2010Prop54
  1
strokes_ogs.tif
102
RTVSPost2010PropOp54
 70
     1
102
RTVSPost2010Prop55
280
     0
102
RTVSPost2010PropOp55
 70
     1
102
RTVSPost2010Prop56
140
1.0
102
RTVSPost2010PropOp56
 70
     1
102
RTVSPost2010Prop57
140
1.0
102
RTVSPost2010PropOp57
 70
     1
  0
XRECORD
  5
130
102
{ACAD_REACTORS
330
12F
102
}
330
12F
100
AcDbXrecord
280
     1
102
RTVSPost2010Prop28
280
     0
102
RTVSPost2010PropOp28
 70
     1
102
RTVSPost2010Prop29
280
     1
102
RTVSPost2010PropOp29
 70
     1
102
RTVSPost2010Prop30
280
     1
102
RTVSPost2010PropOp30
 70
     1
102
RTVSPost2010Prop31
280
     0
102
RTVSPost2010PropOp31
 70
     1
102
RTVSPost2010Prop32
280
     0
102
RTVSPost2010PropOp32
 70
     1
102
RTVSPost2010Prop33
280
     0
102
RTVSPost2010PropOp33
 70
     1
102
RTVSPost2010Prop34
280
     0
102
RTVSPost2010PropOp34
 70
     1
102
RTVSPost2010Prop35
280
     0
102
RTVSPost2010PropOp35
 70
     1
102
RTVSPost2010Prop36
280
     0
102
RTVSPost2010PropOp36
 70
     1
102
RTVSPost2010Prop37
 90
       50
102
RTVSPost2010PropOp37
 70
     1
102
RTVSPost2010Prop38
140
0.0
102
RTVSPost2010PropOp38
 70
     1
102
RTVSPost2010Prop39
140
1.0
102
RTVSPost2010PropOp39
 70
     1
102
RTVSPost2010Prop40
 90
        0
102
RTVSPost2010PropOp40
 70
     1
102
RTVSPost2010Prop41ColorIndex
 90
       18
102
RTVSPost2010Prop41ColorRGB
 90
        0
102
RTVSPost2010PropOp41
 70
     1
102
RTVSPost2010Prop42
 90
       50
102
RTVSPost2010PropOp42
 70
     1
102
RTVSPost2010Prop43
 90
        3
102
RTVSPost2010PropOp43
 70
     1
102
RTVSPost2010Prop44ColorIndex
 90
        5
102
RTVSPost2010Prop44ColorRGB
 90
      255
102
RTVSPost2010PropOp44
 70
     1
102
RTVSPost2010Prop45
280
     0
102
RTVSPost2010PropOp45
 70
     1
102
RTVSPost2010Prop46
 90
       50
102
RTVSPost2010PropOp46
 70
     1
102
RTVSPost2010Prop47
 90
       50
102
RTVSPost2010PropOp47
 70
     1
102
RTVSPost2010Prop48
 90
       50
102
RTVSPost2010PropOp48
 70
     1
102
RTVSPost2010Prop49
280
     0
102
RTVSPost2010PropOp49
 70
     1
102
RTVSPost2010Prop50
 90
       50
102
RTVSPost2010PropOp50
 70
     1
102
RTVSPost2010Prop51ColorIndex
 90
      256
102
RTVSPost2010Prop51ColorRGB
 90
-16777216
102
RTVSPost2010PropOp51
 70
     0
102
RTVSPost2010Prop52
140
1.0
102
RTVSPost2010PropOp52
 70
     0
102
RTVSPost2010Prop53
 90
        2
102
RTVSPost2010PropOp53
 70
     1
102
RTVSPost2010Prop54
  1
strokes_ogs.tif
102
RTVSPost2010PropOp54
 70
     1
102
RTVSPost2010Prop55
280
     0
102
RTVSPost2010PropOp55
 70
     1
102
RTVSPost2010Prop56
140
1.0
102
RTVSPost2010PropOp56
 70
     1
102
RTVSPost2010Prop57
140
1.0
102
RTVSPost2010PropOp57
 70
     1
  0
XRECORD
  5
132
102
{ACAD_REACTORS
330
131
102
}
330
131
100
AcDbXrecord
280
     1
102
RTVSPost2010Prop28
280
     0
102
RTVSPost2010PropOp28
 70
     1
102
RTVSPost2010Prop29
280
     1
102
RTVSPost2010PropOp29
 70
     1
102
RTVSPost2010Prop30
280
     1
102
RTVSPost2010PropOp30
 70
     1
102
RTVSPost2010Prop31
280
     0
102
RTVSPost2010PropOp31
 70
     1
102
RTVSPost2010Prop32
280
     0
102
RTVSPost2010PropOp32
 70
     1
102
RTVSPost2010Prop33
280
     0
102
RTVSPost2010PropOp33
 70
     1
102
RTVSPost2010Prop34
280
     0
102
RTVSPost2010PropOp34
 70
     1
102
RTVSPost2010Prop35
280
     0
102
RTVSPost2010PropOp35
 70
     1
102
RTVSPost2010Prop36
280
     0
102
RTVSPost2010PropOp36
 70
     1
102
RTVSPost2010Prop37
 90
       50
102
RTVSPost2010PropOp37
 70
     1
102
RTVSPost2010Prop38
140
0.0
102
RTVSPost2010PropOp38
 70
     1
102
RTVSPost2010Prop39
140
1.0
102
RTVSPost2010PropOp39
 70
     1
102
RTVSPost2010Prop40
 90
        0
102
RTVSPost2010PropOp40
 70
     1
102
RTVSPost2010Prop41ColorIndex
 90
       18
102
RTVSPost2010Prop41ColorRGB
 90
        0
102
RTVSPost2010PropOp41
 70
     1
102
RTVSPost2010Prop42
 90
       50
102
RTVSPost2010PropOp42
 70
     1
102
RTVSPost2010Prop43
 90
        3
102
RTVSPost2010PropOp43
 70
     1
102
RTVSPost2010Prop44ColorIndex
 90
        5
102
RTVSPost2010Prop44ColorRGB
 90
      255
102
RTVSPost2010PropOp44
 70
     1
102
RTVSPost2010Prop45
280
     0
102
RTVSPost2010PropOp45
 70
     1
102
RTVSPost2010Prop46
 90
       50
102
RTVSPost2010PropOp46
 70
     1
102
RTVSPost2010Prop47
 90
       50
102
RTVSPost2010PropOp47
 70
     1
102
RTVSPost2010Prop48
 90
       50
102
RTVSPost2010PropOp48
 70
     1
102
RTVSPost2010Prop49
280
     0
102
RTVSPost2010PropOp49
 70
     1
102
RTVSPost2010Prop50
 90
       50
102
RTVSPost2010PropOp50
 70
     1
102
RTVSPost2010Prop51ColorIndex
 90
      256
102
RTVSPost2010Prop51ColorRGB
 90
-16777216
102
RTVSPost2010PropOp51
 70
     0
102
RTVSPost2010Prop52
140
1.0
102
RTVSPost2010PropOp52
 70
     0
102
RTVSPost2010Prop53
 90
        2
102
RTVSPost2010PropOp53
 70
     1
102
RTVSPost2010Prop54
  1
strokes_ogs.tif
102
RTVSPost2010PropOp54
 70
     1
102
RTVSPost2010Prop55
280
     0
102
RTVSPost2010PropOp55
 70
     1
102
RTVSPost2010Prop56
140
1.0
102
RTVSPost2010PropOp56
 70
     1
102
RTVSPost2010Prop57
140
1.0
102
RTVSPost2010PropOp57
 70
     1
  0
XRECORD
  5
134
102
{ACAD_REACTORS
330
133
102
}
330
133
100
AcDbXrecord
280
     1
102
RTVSPost2010Prop28
280
     0
102
RTVSPost2010PropOp28
 70
     1
102
RTVSPost2010Prop29
280
     1
102
RTVSPost2010PropOp29
 70
     1
102
RTVSPost2010Prop30
280
     1
102
RTVSPost2010PropOp30
 70
     1
102
RTVSPost2010Prop31
280
     0
102
RTVSPost2010PropOp31
 70
     1
102
RTVSPost2010Prop32
280
     0
102
RTVSPost2010PropOp32
 70
     1
102
RTVSPost2010Prop33
280
     0
102
RTVSPost2010PropOp33
 70
     1
102
RTVSPost2010Prop34
280
     0
102
RTVSPost2010PropOp34
 70
     1
102
RTVSPost2010Prop35
280
     0
102
RTVSPost2010PropOp35
 70
     1
102
RTVSPost2010Prop36
280
     0
102
RTVSPost2010PropOp36
 70
     1
102
RTVSPost2010Prop37
 90
       50
102
RTVSPost2010PropOp37
 70
     1
102
RTVSPost2010Prop38
140
0.0
102
RTVSPost2010PropOp38
 70
     1
102
RTVSPost2010Prop39
140
1.0
102
RTVSPost2010PropOp39
 70
     1
102
RTVSPost2010Prop40
 90
        0
102
RTVSPost2010PropOp40
 70
     1
102
RTVSPost2010Prop41ColorIndex
 90
       18
102
RTVSPost2010Prop41ColorRGB
 90
        0
102
RTVSPost2010PropOp41
 70
     1
102
RTVSPost2010Prop42
 90
       50
102
RTVSPost2010PropOp42
 70
     1
102
RTVSPost2010Prop43
 90
        3
102
RTVSPost2010PropOp43
 70
     1
102
RTVSPost2010Prop44ColorIndex
 90
        5
102
RTVSPost2010Prop44ColorRGB
 90
      255
102
RTVSPost2010PropOp44
 70
     1
102
RTVSPost2010Prop45
280
     0
102
RTVSPost2010PropOp45
 70
     1
102
RTVSPost2010Prop46
 90
       50
102
RTVSPost2010PropOp46
 70
     1
102
RTVSPost2010Prop47
 90
       50
102
RTVSPost2010PropOp47
 70
     1
102
RTVSPost2010Prop48
 90
       50
102
RTVSPost2010PropOp48
 70
     1
102
RTVSPost2010Prop49
280
     0
102
RTVSPost2010PropOp49
 70
     1
102
RTVSPost2010Prop50
 90
       50
102
RTVSPost2010PropOp50
 70
     1
102
RTVSPost2010Prop51ColorIndex
 90
      256
102
RTVSPost2010Prop51ColorRGB
 90
-16777216
102
RTVSPost2010PropOp51
 70
     0
102
RTVSPost2010Prop52
140
1.0
102
RTVSPost2010PropOp52
 70
     0
102
RTVSPost2010Prop53
 90
        2
102
RTVSPost2010PropOp53
 70
     1
102
RTVSPost2010Prop54
  1
strokes_ogs.tif
102
RTVSPost2010PropOp54
 70
     1
102
RTVSPost2010Prop55
280
     0
102
RTVSPost2010PropOp55
 70
     1
102
RTVSPost2010Prop56
140
1.0
102
RTVSPost2010PropOp56
 70
     1
102
RTVSPost2010Prop57
140
1.0
102
RTVSPost2010PropOp57
 70
     1
  0
XRECORD
  5
13C
102
{ACAD_REACTORS
330
13B
102
}
330
13B
100
AcDbXrecord
280
     1
102
RTVSPost2010Prop28
280
     0
102
RTVSPost2010PropOp28
 70
     1
102
RTVSPost2010Prop29
280
     1
102
RTVSPost2010PropOp29
 70
     1
102
RTVSPost2010Prop30
280
     1
102
RTVSPost2010PropOp30
 70
     1
102
RTVSPost2010Prop31
280
     0
102
RTVSPost2010PropOp31
 70
     1
102
RTVSPost2010Prop32
280
     0
102
RTVSPost2010PropOp32
 70
     1
102
RTVSPost2010Prop33
280
     0
102
RTVSPost2010PropOp33
 70
     1
102
RTVSPost2010Prop34
280
     0
102
RTVSPost2010PropOp34
 70
     1
102
RTVSPost2010Prop35
280
     0
102
RTVSPost2010PropOp35
 70
     1
102
RTVSPost2010Prop36
280
     0
102
RTVSPost2010PropOp36
 70
     1
102
RTVSPost2010Prop37
 90
       50
102
RTVSPost2010PropOp37
 70
     1
102
RTVSPost2010Prop38
140
0.0
102
RTVSPost2010PropOp38
 70
     1
102
RTVSPost2010Prop39
140
1.0
102
RTVSPost2010PropOp39
 70
     1
102
RTVSPost2010Prop40
 90
        0
102
RTVSPost2010PropOp40
 70
     1
102
RTVSPost2010Prop41ColorIndex
 90
       18
102
RTVSPost2010Prop41ColorRGB
 90
        0
102
RTVSPost2010PropOp41
 70
     1
102
RTVSPost2010Prop42
 90
       50
102
RTVSPost2010PropOp42
 70
     1
102
RTVSPost2010Prop43
 90
        3
102
RTVSPost2010PropOp43
 70
     1
102
RTVSPost2010Prop44ColorIndex
 90
        5
102
RTVSPost2010Prop44ColorRGB
 90
      255
102
RTVSPost2010PropOp44
 70
     1
102
RTVSPost2010Prop45
280
     0
102
RTVSPost2010PropOp45
 70
     1
102
RTVSPost2010Prop46
 90
       50
102
RTVSPost2010PropOp46
 70
     1
102
RTVSPost2010Prop47
 90
       50
102
RTVSPost2010PropOp47
 70
     1
102
RTVSPost2010Prop48
 90
       50
102
RTVSPost2010PropOp48
 70
     1
102
RTVSPost2010Prop49
280
     0
102
RTVSPost2010PropOp49
 70
     1
102
RTVSPost2010Prop50
 90
       50
102
RTVSPost2010PropOp50
 70
     1
102
RTVSPost2010Prop51ColorIndex
 90
      256
102
RTVSPost2010Prop51ColorRGB
 90
-16777216
102
RTVSPost2010PropOp51
 70
     0
102
RTVSPost2010Prop52
140
1.0
102
RTVSPost2010PropOp52
 70
     0
102
RTVSPost2010Prop53
 90
        2
102
RTVSPost2010PropOp53
 70
     1
102
RTVSPost2010Prop54
  1
strokes_ogs.tif
102
RTVSPost2010PropOp54
 70
     1
102
RTVSPost2010Prop55
280
     0
102
RTVSPost2010PropOp55
 70
     1
102
RTVSPost2010Prop56
140
1.0
102
RTVSPost2010PropOp56
 70
     1
102
RTVSPost2010Prop57
140
1.0
102
RTVSPost2010PropOp57
 70
     1
  0
XRECORD
  5
158
102
{ACAD_REACTORS
330
157
102
}
330
157
100
AcDbXrecord
280
     1
102
RTVSPost2010Prop28
280
     0
102
RTVSPost2010PropOp28
 70
     0
102
RTVSPost2010Prop29
280
     1
102
RTVSPost2010PropOp29
 70
     0
102
RTVSPost2010Prop30
280
     1
102
RTVSPost2010PropOp30
 70
     0
102
RTVSPost2010Prop31
280
     0
102
RTVSPost2010PropOp31
 70
     0
102
RTVSPost2010Prop32
280
     0
102
RTVSPost2010PropOp32
 70
     0
102
RTVSPost2010Prop33
280
     0
102
RTVSPost2010PropOp33
 70
     0
102
RTVSPost2010Prop34
280
     0
102
RTVSPost2010PropOp34
 70
     0
102
RTVSPost2010Prop35
280
     0
102
RTVSPost2010PropOp35
 70
     0
102
RTVSPost2010Prop36
280
     0
102
RTVSPost2010PropOp36
 70
     0
102
RTVSPost2010Prop37
 90
       50
102
RTVSPost2010PropOp37
 70
     0
102
RTVSPost2010Prop38
140
0.0
102
RTVSPost2010PropOp38
 70
     0
102
RTVSPost2010Prop39
140
1.0
102
RTVSPost2010PropOp39
 70
     0
102
RTVSPost2010Prop40
 90
        0
102
RTVSPost2010PropOp40
 70
     0
102
RTVSPost2010Prop41ColorIndex
 90
       18
102
RTVSPost2010Prop41ColorRGB
 90
        0
102
RTVSPost2010PropOp41
 70
     0
102
RTVSPost2010Prop42
 90
       50
102
RTVSPost2010PropOp42
 70
     0
102
RTVSPost2010Prop43
 90
        3
102
RTVSPost2010PropOp43
 70
     0
102
RTVSPost2010Prop44ColorIndex
 90
        5
102
RTVSPost2010Prop44ColorRGB
 90
      255
102
RTVSPost2010PropOp44
 70
     0
102
RTVSPost2010Prop45
280
     0
102
RTVSPost2010PropOp45
 70
     0
102
RTVSPost2010Prop46
 90
       50
102
RTVSPost2010PropOp46
 70
     0
102
RTVSPost2010Prop47
 90
       50
102
RTVSPost2010PropOp47
 70
     0
102
RTVSPost2010Prop48
 90
       50
102
RTVSPost2010PropOp48
 70
     0
102
RTVSPost2010Prop49
280
     0
102
RTVSPost2010PropOp49
 70
     0
102
RTVSPost2010Prop50
 90
       50
102
RTVSPost2010PropOp50
 70
     0
102
RTVSPost2010Prop51ColorIndex
 90
      256
102
RTVSPost2010Prop51ColorRGB
 90
-16777216
102
RTVSPost2010PropOp51
 70
     0
102
RTVSPost2010Prop52
140
1.0
102
RTVSPost2010PropOp52
 70
     0
102
RTVSPost2010Prop53
 90
        2
102
RTVSPost2010PropOp53
 70
     0
102
RTVSPost2010Prop54
  1
strokes_ogs.tif
102
RTVSPost2010PropOp54
 70
     0
102
RTVSPost2010Prop55
280
     0
102
RTVSPost2010PropOp55
 70
     0
102
RTVSPost2010Prop56
140
1.0
102
RTVSPost2010PropOp56
 70
     0
102
RTVSPost2010Prop57
140
1.0
102
RTVSPost2010PropOp57
 70
     0
  0
XRECORD
  5
148
102
{ACAD_REACTORS
330
147
102
}
330
147
100
AcDbXrecord
280
     1
102
RTVSPost2010Prop28
280
     0
102
RTVSPost2010PropOp28
 70
     1
102
RTVSPost2010Prop29
280
     1
102
RTVSPost2010PropOp29
 70
     1
102
RTVSPost2010Prop30
280
     1
102
RTVSPost2010PropOp30
 70
     1
102
RTVSPost2010Prop31
280
     0
102
RTVSPost2010PropOp31
 70
     1
102
RTVSPost2010Prop32
280
     0
102
RTVSPost2010PropOp32
 70
     1
102
RTVSPost2010Prop33
280
     0
102
RTVSPost2010PropOp33
 70
     1
102
RTVSPost2010Prop34
280
     0
102
RTVSPost2010PropOp34
 70
     1
102
RTVSPost2010Prop35
280
     0
102
RTVSPost2010PropOp35
 70
     1
102
RTVSPost2010Prop36
280
     0
102
RTVSPost2010PropOp36
 70
     1
102
RTVSPost2010Prop37
 90
       50
102
RTVSPost2010PropOp37
 70
     1
102
RTVSPost2010Prop38
140
0.0
102
RTVSPost2010PropOp38
 70
     1
102
RTVSPost2010Prop39
140
1.0
102
RTVSPost2010PropOp39
 70
     1
102
RTVSPost2010Prop40
 90
        0
102
RTVSPost2010PropOp40
 70
     1
102
RTVSPost2010Prop41ColorIndex
 90
       18
102
RTVSPost2010Prop41ColorRGB
 90
        0
102
RTVSPost2010PropOp41
 70
     1
102
RTVSPost2010Prop42
 90
       50
102
RTVSPost2010PropOp42
 70
     1
102
RTVSPost2010Prop43
 90
        3
102
RTVSPost2010PropOp43
 70
     1
102
RTVSPost2010Prop44ColorIndex
 90
        5
102
RTVSPost2010Prop44ColorRGB
 90
      255
102
RTVSPost2010PropOp44
 70
     1
102
RTVSPost2010Prop45
280
     0
102
RTVSPost2010PropOp45
 70
     1
102
RTVSPost2010Prop46
 90
       50
102
RTVSPost2010PropOp46
 70
     1
102
RTVSPost2010Prop47
 90
       50
102
RTVSPost2010PropOp47
 70
     1
102
RTVSPost2010Prop48
 90
       50
102
RTVSPost2010PropOp48
 70
     1
102
RTVSPost2010Prop49
280
     0
102
RTVSPost2010PropOp49
 70
     1
102
RTVSPost2010Prop50
 90
       50
102
RTVSPost2010PropOp50
 70
     1
102
RTVSPost2010Prop51ColorIndex
 90
      256
102
RTVSPost2010Prop51ColorRGB
 90
-16777216
102
RTVSPost2010PropOp51
 70
     0
102
RTVSPost2010Prop52
140
1.0
102
RTVSPost2010PropOp52
 70
     0
102
RTVSPost2010Prop53
 90
        2
102
RTVSPost2010PropOp53
 70
     1
102
RTVSPost2010Prop54
  1
strokes_ogs.tif
102
RTVSPost2010PropOp54
 70
     1
102
RTVSPost2010Prop55
280
     0
102
RTVSPost2010PropOp55
 70
     1
102
RTVSPost2010Prop56
140
1.0
102
RTVSPost2010PropOp56
 70
     1
102
RTVSPost2010Prop57
140
1.0
102
RTVSPost2010PropOp57
 70
     1
  0
XRECORD
  5
15A
102
{ACAD_REACTORS
330
159
102
}
330
159
100
AcDbXrecord
280
     1
102
RTVSPost2010Prop28
280
     0
102
RTVSPost2010PropOp28
 70
     0
102
RTVSPost2010Prop29
280
     1
102
RTVSPost2010PropOp29
 70
     0
102
RTVSPost2010Prop30
280
     1
102
RTVSPost2010PropOp30
 70
     0
102
RTVSPost2010Prop31
280
     0
102
RTVSPost2010PropOp31
 70
     0
102
RTVSPost2010Prop32
280
     0
102
RTVSPost2010PropOp32
 70
     0
102
RTVSPost2010Prop33
280
     0
102
RTVSPost2010PropOp33
 70
     0
102
RTVSPost2010Prop34
280
     0
102
RTVSPost2010PropOp34
 70
     0
102
RTVSPost2010Prop35
280
     0
102
RTVSPost2010PropOp35
 70
     0
102
RTVSPost2010Prop36
280
     0
102
RTVSPost2010PropOp36
 70
     0
102
RTVSPost2010Prop37
 90
       50
102
RTVSPost2010PropOp37
 70
     0
102
RTVSPost2010Prop38
140
0.0
102
RTVSPost2010PropOp38
 70
     0
102
RTVSPost2010Prop39
140
1.0
102
RTVSPost2010PropOp39
 70
     0
102
RTVSPost2010Prop40
 90
        0
102
RTVSPost2010PropOp40
 70
     0
102
RTVSPost2010Prop41ColorIndex
 90
       18
102
RTVSPost2010Prop41ColorRGB
 90
        0
102
RTVSPost2010PropOp41
 70
     0
102
RTVSPost2010Prop42
 90
       50
102
RTVSPost2010PropOp42
 70
     0
102
RTVSPost2010Prop43
 90
        3
102
RTVSPost2010PropOp43
 70
     0
102
RTVSPost2010Prop44ColorIndex
 90
        5
102
RTVSPost2010Prop44ColorRGB
 90
      255
102
RTVSPost2010PropOp44
 70
     0
102
RTVSPost2010Prop45
280
     0
102
RTVSPost2010PropOp45
 70
     0
102
RTVSPost2010Prop46
 90
       50
102
RTVSPost2010PropOp46
 70
     0
102
RTVSPost2010Prop47
 90
       50
102
RTVSPost2010PropOp47
 70
     0
102
RTVSPost2010Prop48
 90
       50
102
RTVSPost2010PropOp48
 70
     0
102
RTVSPost2010Prop49
280
     0
102
RTVSPost2010PropOp49
 70
     0
102
RTVSPost2010Prop50
 90
       50
102
RTVSPost2010PropOp50
 70
     0
102
RTVSPost2010Prop51ColorIndex
 90
      256
102
RTVSPost2010Prop51ColorRGB
 90
-16777216
102
RTVSPost2010PropOp51
 70
     0
102
RTVSPost2010Prop52
140
1.0
102
RTVSPost2010PropOp52
 70
     0
102
RTVSPost2010Prop53
 90
        2
102
RTVSPost2010PropOp53
 70
     0
102
RTVSPost2010Prop54
  1
strokes_ogs.tif
102
RTVSPost2010PropOp54
 70
     0
102
RTVSPost2010Prop55
280
     0
102
RTVSPost2010PropOp55
 70
     0
102
RTVSPost2010Prop56
140
1.0
102
RTVSPost2010PropOp56
 70
     0
102
RTVSPost2010Prop57
140
1.0
102
RTVSPost2010PropOp57
 70
     0
  0
XRECORD
  5
140
102
{ACAD_REACTORS
330
13F
102
}
330
13F
100
AcDbXrecord
280
     1
102
RTVSPost2010Prop28
280
     0
102
RTVSPost2010PropOp28
 70
     1
102
RTVSPost2010Prop29
280
     1
102
RTVSPost2010PropOp29
 70
     1
102
RTVSPost2010Prop30
280
     1
102
RTVSPost2010PropOp30
 70
     1
102
RTVSPost2010Prop31
280
     0
102
RTVSPost2010PropOp31
 70
     1
102
RTVSPost2010Prop32
280
     0
102
RTVSPost2010PropOp32
 70
     1
102
RTVSPost2010Prop33
280
     0
102
RTVSPost2010PropOp33
 70
     1
102
RTVSPost2010Prop34
280
     0
102
RTVSPost2010PropOp34
 70
     1
102
RTVSPost2010Prop35
280
     0
102
RTVSPost2010PropOp35
 70
     1
102
RTVSPost2010Prop36
280
     0
102
RTVSPost2010PropOp36
 70
     1
102
RTVSPost2010Prop37
 90
       50
102
RTVSPost2010PropOp37
 70
     1
102
RTVSPost2010Prop38
140
0.0
102
RTVSPost2010PropOp38
 70
     1
102
RTVSPost2010Prop39
140
1.0
102
RTVSPost2010PropOp39
 70
     1
102
RTVSPost2010Prop40
 90
        0
102
RTVSPost2010PropOp40
 70
     1
102
RTVSPost2010Prop41ColorIndex
 90
       18
102
RTVSPost2010Prop41ColorRGB
 90
        0
102
RTVSPost2010PropOp41
 70
     1
102
RTVSPost2010Prop42
 90
       50
102
RTVSPost2010PropOp42
 70
     1
102
RTVSPost2010Prop43
 90
        3
102
RTVSPost2010PropOp43
 70
     1
102
RTVSPost2010Prop44ColorIndex
 90
        5
102
RTVSPost2010Prop44ColorRGB
 90
      255
102
RTVSPost2010PropOp44
 70
     1
102
RTVSPost2010Prop45
280
     0
102
RTVSPost2010PropOp45
 70
     1
102
RTVSPost2010Prop46
 90
       50
102
RTVSPost2010PropOp46
 70
     1
102
RTVSPost2010Prop47
 90
       50
102
RTVSPost2010PropOp47
 70
     1
102
RTVSPost2010Prop48
 90
       50
102
RTVSPost2010PropOp48
 70
     1
102
RTVSPost2010Prop49
280
     0
102
RTVSPost2010PropOp49
 70
     1
102
RTVSPost2010Prop50
 90
       50
102
RTVSPost2010PropOp50
 70
     1
102
RTVSPost2010Prop51ColorIndex
 90
      256
102
RTVSPost2010Prop51ColorRGB
 90
-16777216
102
RTVSPost2010PropOp51
 70
     0
102
RTVSPost2010Prop52
140
1.0
102
RTVSPost2010PropOp52
 70
     0
102
RTVSPost2010Prop53
 90
        2
102
RTVSPost2010PropOp53
 70
     1
102
RTVSPost2010Prop54
  1
strokes_ogs.tif
102
RTVSPost2010PropOp54
 70
     1
102
RTVSPost2010Prop55
280
     0
102
RTVSPost2010PropOp55
 70
     1
102
RTVSPost2010Prop56
140
1.0
102
RTVSPost2010PropOp56
 70
     1
102
RTVSPost2010Prop57
140
1.0
102
RTVSPost2010PropOp57
 70
     1
  0
XRECORD
  5
156
102
{ACAD_REACTORS
330
155
102
}
330
155
100
AcDbXrecord
280
     1
102
RTVSPost2010Prop28
280
     0
102
RTVSPost2010PropOp28
 70
     1
102
RTVSPost2010Prop29
280
     1
102
RTVSPost2010PropOp29
 70
     1
102
RTVSPost2010Prop30
280
     1
102
RTVSPost2010PropOp30
 70
     1
102
RTVSPost2010Prop31
280
     0
102
RTVSPost2010PropOp31
 70
     1
102
RTVSPost2010Prop32
280
     0
102
RTVSPost2010PropOp32
 70
     1
102
RTVSPost2010Prop33
280
     0
102
RTVSPost2010PropOp33
 70
     1
102
RTVSPost2010Prop34
280
     0
102
RTVSPost2010PropOp34
 70
     1
102
RTVSPost2010Prop35
280
     0
102
RTVSPost2010PropOp35
 70
     1
102
RTVSPost2010Prop36
280
     0
102
RTVSPost2010PropOp36
 70
     1
102
RTVSPost2010Prop37
 90
       50
102
RTVSPost2010PropOp37
 70
     1
102
RTVSPost2010Prop38
140
0.0
102
RTVSPost2010PropOp38
 70
     1
102
RTVSPost2010Prop39
140
1.0
102
RTVSPost2010PropOp39
 70
     1
102
RTVSPost2010Prop40
 90
        0
102
RTVSPost2010PropOp40
 70
     1
102
RTVSPost2010Prop41ColorIndex
 90
       18
102
RTVSPost2010Prop41ColorRGB
 90
        0
102
RTVSPost2010PropOp41
 70
     1
102
RTVSPost2010Prop42
 90
       50
102
RTVSPost2010PropOp42
 70
     1
102
RTVSPost2010Prop43
 90
        3
102
RTVSPost2010PropOp43
 70
     1
102
RTVSPost2010Prop44ColorIndex
 90
        5
102
RTVSPost2010Prop44ColorRGB
 90
      255
102
RTVSPost2010PropOp44
 70
     1
102
RTVSPost2010Prop45
280
     0
102
RTVSPost2010PropOp45
 70
     1
102
RTVSPost2010Prop46
 90
       50
102
RTVSPost2010PropOp46
 70
     1
102
RTVSPost2010Prop47
 90
       50
102
RTVSPost2010PropOp47
 70
     1
102
RTVSPost2010Prop48
 90
       50
102
RTVSPost2010PropOp48
 70
     1
102
RTVSPost2010Prop49
280
     0
102
RTVSPost2010PropOp49
 70
     1
102
RTVSPost2010Prop50
 90
       50
102
RTVSPost2010PropOp50
 70
     1
102
RTVSPost2010Prop51ColorIndex
 90
      256
102
RTVSPost2010Prop51ColorRGB
 90
-16777216
102
RTVSPost2010PropOp51
 70
     0
102
RTVSPost2010Prop52
140
1.0
102
RTVSPost2010PropOp52
 70
     0
102
RTVSPost2010Prop53
 90
        2
102
RTVSPost2010PropOp53
 70
     1
102
RTVSPost2010Prop54
  1
strokes_ogs.tif
102
RTVSPost2010PropOp54
 70
     1
102
RTVSPost2010Prop55
280
     0
102
RTVSPost2010PropOp55
 70
     1
102
RTVSPost2010Prop56
140
1.0
102
RTVSPost2010PropOp56
 70
     1
102
RTVSPost2010Prop57
140
1.0
102
RTVSPost2010PropOp57
 70
     1
  0
XRECORD
  5
154
102
{ACAD_REACTORS
330
153
102
}
330
153
100
AcDbXrecord
280
     1
102
RTVSPost2010Prop28
280
     0
102
RTVSPost2010PropOp28
 70
     1
102
RTVSPost2010Prop29
280
     1
102
RTVSPost2010PropOp29
 70
     1
102
RTVSPost2010Prop30
280
     1
102
RTVSPost2010PropOp30
 70
     1
102
RTVSPost2010Prop31
280
     0
102
RTVSPost2010PropOp31
 70
     1
102
RTVSPost2010Prop32
280
     0
102
RTVSPost2010PropOp32
 70
     1
102
RTVSPost2010Prop33
280
     0
102
RTVSPost2010PropOp33
 70
     1
102
RTVSPost2010Prop34
280
     0
102
RTVSPost2010PropOp34
 70
     1
102
RTVSPost2010Prop35
280
     0
102
RTVSPost2010PropOp35
 70
     1
102
RTVSPost2010Prop36
280
     0
102
RTVSPost2010PropOp36
 70
     1
102
RTVSPost2010Prop37
 90
       50
102
RTVSPost2010PropOp37
 70
     1
102
RTVSPost2010Prop38
140
0.0
102
RTVSPost2010PropOp38
 70
     1
102
RTVSPost2010Prop39
140
1.0
102
RTVSPost2010PropOp39
 70
     1
102
RTVSPost2010Prop40
 90
        0
102
RTVSPost2010PropOp40
 70
     1
102
RTVSPost2010Prop41ColorIndex
 90
       18
102
RTVSPost2010Prop41ColorRGB
 90
        0
102
RTVSPost2010PropOp41
 70
     1
102
RTVSPost2010Prop42
 90
       50
102
RTVSPost2010PropOp42
 70
     1
102
RTVSPost2010Prop43
 90
        3
102
RTVSPost2010PropOp43
 70
     1
102
RTVSPost2010Prop44ColorIndex
 90
        5
102
RTVSPost2010Prop44ColorRGB
 90
      255
102
RTVSPost2010PropOp44
 70
     1
102
RTVSPost2010Prop45
280
     0
102
RTVSPost2010PropOp45
 70
     1
102
RTVSPost2010Prop46
 90
       50
102
RTVSPost2010PropOp46
 70
     1
102
RTVSPost2010Prop47
 90
       50
102
RTVSPost2010PropOp47
 70
     1
102
RTVSPost2010Prop48
 90
       50
102
RTVSPost2010PropOp48
 70
     1
102
RTVSPost2010Prop49
280
     0
102
RTVSPost2010PropOp49
 70
     1
102
RTVSPost2010Prop50
 90
       50
102
RTVSPost2010PropOp50
 70
     1
102
RTVSPost2010Prop51ColorIndex
 90
      256
102
RTVSPost2010Prop51ColorRGB
 90
-16777216
102
RTVSPost2010PropOp51
 70
     0
102
RTVSPost2010Prop52
140
1.0
102
RTVSPost2010PropOp52
 70
     0
102
RTVSPost2010Prop53
 90
        2
102
RTVSPost2010PropOp53
 70
     1
102
RTVSPost2010Prop54
  1
strokes_ogs.tif
102
RTVSPost2010PropOp54
 70
     1
102
RTVSPost2010Prop55
280
     0
102
RTVSPost2010PropOp55
 70
     1
102
RTVSPost2010Prop56
140
1.0
102
RTVSPost2010PropOp56
 70
     1
102
RTVSPost2010Prop57
140
1.0
102
RTVSPost2010PropOp57
 70
     1
  0
XRECORD
  5
14E
102
{ACAD_REACTORS
330
14D
102
}
330
14D
100
AcDbXrecord
280
     1
102
RTVSPost2010Prop28
280
     0
102
RTVSPost2010PropOp28
 70
     1
102
RTVSPost2010Prop29
280
     1
102
RTVSPost2010PropOp29
 70
     1
102
RTVSPost2010Prop30
280
     1
102
RTVSPost2010PropOp30
 70
     1
102
RTVSPost2010Prop31
280
     0
102
RTVSPost2010PropOp31
 70
     1
102
RTVSPost2010Prop32
280
     0
102
RTVSPost2010PropOp32
 70
     1
102
RTVSPost2010Prop33
280
     0
102
RTVSPost2010PropOp33
 70
     1
102
RTVSPost2010Prop34
280
     0
102
RTVSPost2010PropOp34
 70
     1
102
RTVSPost2010Prop35
280
     0
102
RTVSPost2010PropOp35
 70
     1
102
RTVSPost2010Prop36
280
     0
102
RTVSPost2010PropOp36
 70
     1
102
RTVSPost2010Prop37
 90
       50
102
RTVSPost2010PropOp37
 70
     1
102
RTVSPost2010Prop38
140
0.0
102
RTVSPost2010PropOp38
 70
     1
102
RTVSPost2010Prop39
140
1.0
102
RTVSPost2010PropOp39
 70
     1
102
RTVSPost2010Prop40
 90
        0
102
RTVSPost2010PropOp40
 70
     1
102
RTVSPost2010Prop41ColorIndex
 90
       18
102
RTVSPost2010Prop41ColorRGB
 90
        0
102
RTVSPost2010PropOp41
 70
     1
102
RTVSPost2010Prop42
 90
       50
102
RTVSPost2010PropOp42
 70
     1
102
RTVSPost2010Prop43
 90
        3
102
RTVSPost2010PropOp43
 70
     1
102
RTVSPost2010Prop44ColorIndex
 90
        5
102
RTVSPost2010Prop44ColorRGB
 90
      255
102
RTVSPost2010PropOp44
 70
     1
102
RTVSPost2010Prop45
280
     0
102
RTVSPost2010PropOp45
 70
     1
102
RTVSPost2010Prop46
 90
       50
102
RTVSPost2010PropOp46
 70
     1
102
RTVSPost2010Prop47
 90
       50
102
RTVSPost2010PropOp47
 70
     1
102
RTVSPost2010Prop48
 90
       50
102
RTVSPost2010PropOp48
 70
     1
102
RTVSPost2010Prop49
280
     0
102
RTVSPost2010PropOp49
 70
     1
102
RTVSPost2010Prop50
 90
       50
102
RTVSPost2010PropOp50
 70
     1
102
RTVSPost2010Prop51ColorIndex
 90
      256
102
RTVSPost2010Prop51ColorRGB
 90
-16777216
102
RTVSPost2010PropOp51
 70
     0
102
RTVSPost2010Prop52
140
1.0
102
RTVSPost2010PropOp52
 70
     0
102
RTVSPost2010Prop53
 90
        2
102
RTVSPost2010PropOp53
 70
     1
102
RTVSPost2010Prop54
  1
strokes_ogs.tif
102
RTVSPost2010PropOp54
 70
     1
102
RTVSPost2010Prop55
280
     0
102
RTVSPost2010PropOp55
 70
     1
102
RTVSPost2010Prop56
140
1.0
102
RTVSPost2010PropOp56
 70
     1
102
RTVSPost2010Prop57
140
1.0
102
RTVSPost2010PropOp57
 70
     1
  0
XRECORD
  5
150
102
{ACAD_REACTORS
330
14F
102
}
330
14F
100
AcDbXrecord
280
     1
102
RTVSPost2010Prop28
280
     0
102
RTVSPost2010PropOp28
 70
     1
102
RTVSPost2010Prop29
280
     1
102
RTVSPost2010PropOp29
 70
     1
102
RTVSPost2010Prop30
280
     1
102
RTVSPost2010PropOp30
 70
     1
102
RTVSPost2010Prop31
280
     0
102
RTVSPost2010PropOp31
 70
     1
102
RTVSPost2010Prop32
280
     0
102
RTVSPost2010PropOp32
 70
     1
102
RTVSPost2010Prop33
280
     0
102
RTVSPost2010PropOp33
 70
     1
102
RTVSPost2010Prop34
280
     0
102
RTVSPost2010PropOp34
 70
     1
102
RTVSPost2010Prop35
280
     0
102
RTVSPost2010PropOp35
 70
     1
102
RTVSPost2010Prop36
280
     0
102
RTVSPost2010PropOp36
 70
     1
102
RTVSPost2010Prop37
 90
       50
102
RTVSPost2010PropOp37
 70
     1
102
RTVSPost2010Prop38
140
0.0
102
RTVSPost2010PropOp38
 70
     1
102
RTVSPost2010Prop39
140
1.0
102
RTVSPost2010PropOp39
 70
     1
102
RTVSPost2010Prop40
 90
        0
102
RTVSPost2010PropOp40
 70
     1
102
RTVSPost2010Prop41ColorIndex
 90
       18
102
RTVSPost2010Prop41ColorRGB
 90
        0
102
RTVSPost2010PropOp41
 70
     1
102
RTVSPost2010Prop42
 90
       50
102
RTVSPost2010PropOp42
 70
     1
102
RTVSPost2010Prop43
 90
        3
102
RTVSPost2010PropOp43
 70
     1
102
RTVSPost2010Prop44ColorIndex
 90
        5
102
RTVSPost2010Prop44ColorRGB
 90
      255
102
RTVSPost2010PropOp44
 70
     1
102
RTVSPost2010Prop45
280
     0
102
RTVSPost2010PropOp45
 70
     1
102
RTVSPost2010Prop46
 90
       50
102
RTVSPost2010PropOp46
 70
     1
102
RTVSPost2010Prop47
 90
       50
102
RTVSPost2010PropOp47
 70
     1
102
RTVSPost2010Prop48
 90
       50
102
RTVSPost2010PropOp48
 70
     1
102
RTVSPost2010Prop49
280
     0
102
RTVSPost2010PropOp49
 70
     1
102
RTVSPost2010Prop50
 90
       50
102
RTVSPost2010PropOp50
 70
     1
102
RTVSPost2010Prop51ColorIndex
 90
      256
102
RTVSPost2010Prop51ColorRGB
 90
-16777216
102
RTVSPost2010PropOp51
 70
     0
102
RTVSPost2010Prop52
140
1.0
102
RTVSPost2010PropOp52
 70
     0
102
RTVSPost2010Prop53
 90
        2
102
RTVSPost2010PropOp53
 70
     1
102
RTVSPost2010Prop54
  1
strokes_ogs.tif
102
RTVSPost2010PropOp54
 70
     1
102
RTVSPost2010Prop55
280
     0
102
RTVSPost2010PropOp55
 70
     1
102
RTVSPost2010Prop56
140
1.0
102
RTVSPost2010PropOp56
 70
     1
102
RTVSPost2010Prop57
140
1.0
102
RTVSPost2010PropOp57
 70
     1
  0
XRECORD
  5
146
102
{ACAD_REACTORS
330
145
102
}
330
145
100
AcDbXrecord
280
     1
102
RTVSPost2010Prop28
280
     0
102
RTVSPost2010PropOp28
 70
     1
102
RTVSPost2010Prop29
280
     1
102
RTVSPost2010PropOp29
 70
     1
102
RTVSPost2010Prop30
280
     1
102
RTVSPost2010PropOp30
 70
     1
102
RTVSPost2010Prop31
280
     0
102
RTVSPost2010PropOp31
 70
     1
102
RTVSPost2010Prop32
280
     0
102
RTVSPost2010PropOp32
 70
     1
102
RTVSPost2010Prop33
280
     0
102
RTVSPost2010PropOp33
 70
     1
102
RTVSPost2010Prop34
280
     0
102
RTVSPost2010PropOp34
 70
     1
102
RTVSPost2010Prop35
280
     0
102
RTVSPost2010PropOp35
 70
     1
102
RTVSPost2010Prop36
280
     0
102
RTVSPost2010PropOp36
 70
     1
102
RTVSPost2010Prop37
 90
       50
102
RTVSPost2010PropOp37
 70
     1
102
RTVSPost2010Prop38
140
0.0
102
RTVSPost2010PropOp38
 70
     1
102
RTVSPost2010Prop39
140
1.0
102
RTVSPost2010PropOp39
 70
     1
102
RTVSPost2010Prop40
 90
        0
102
RTVSPost2010PropOp40
 70
     1
102
RTVSPost2010Prop41ColorIndex
 90
       18
102
RTVSPost2010Prop41ColorRGB
 90
        0
102
RTVSPost2010PropOp41
 70
     1
102
RTVSPost2010Prop42
 90
       50
102
RTVSPost2010PropOp42
 70
     1
102
RTVSPost2010Prop43
 90
        3
102
RTVSPost2010PropOp43
 70
     1
102
RTVSPost2010Prop44ColorIndex
 90
        5
102
RTVSPost2010Prop44ColorRGB
 90
      255
102
RTVSPost2010PropOp44
 70
     1
102
RTVSPost2010Prop45
280
     0
102
RTVSPost2010PropOp45
 70
     1
102
RTVSPost2010Prop46
 90
       50
102
RTVSPost2010PropOp46
 70
     1
102
RTVSPost2010Prop47
 90
       50
102
RTVSPost2010PropOp47
 70
     1
102
RTVSPost2010Prop48
 90
       50
102
RTVSPost2010PropOp48
 70
     1
102
RTVSPost2010Prop49
280
     0
102
RTVSPost2010PropOp49
 70
     1
102
RTVSPost2010Prop50
 90
       50
102
RTVSPost2010PropOp50
 70
     1
102
RTVSPost2010Prop51ColorIndex
 90
      256
102
RTVSPost2010Prop51ColorRGB
 90
-16777216
102
RTVSPost2010PropOp51
 70
     0
102
RTVSPost2010Prop52
140
1.0
102
RTVSPost2010PropOp52
 70
     0
102
RTVSPost2010Prop53
 90
        2
102
RTVSPost2010PropOp53
 70
     1
102
RTVSPost2010Prop54
  1
strokes_ogs.tif
102
RTVSPost2010PropOp54
 70
     1
102
RTVSPost2010Prop55
280
     0
102
RTVSPost2010PropOp55
 70
     1
102
RTVSPost2010Prop56
140
1.0
102
RTVSPost2010PropOp56
 70
     1
102
RTVSPost2010Prop57
140
1.0
102
RTVSPost2010PropOp57
 70
     1
  0
XRECORD
  5
13A
102
{ACAD_REACTORS
330
139
102
}
330
139
100
AcDbXrecord
280
     1
102
RTVSPost2010Prop28
280
     0
102
RTVSPost2010PropOp28
 70
     1
102
RTVSPost2010Prop29
280
     1
102
RTVSPost2010PropOp29
 70
     1
102
RTVSPost2010Prop30
280
     1
102
RTVSPost2010PropOp30
 70
     1
102
RTVSPost2010Prop31
280
     0
102
RTVSPost2010PropOp31
 70
     1
102
RTVSPost2010Prop32
280
     0
102
RTVSPost2010PropOp32
 70
     1
102
RTVSPost2010Prop33
280
     0
102
RTVSPost2010PropOp33
 70
     1
102
RTVSPost2010Prop34
280
     0
102
RTVSPost2010PropOp34
 70
     1
102
RTVSPost2010Prop35
280
     0
102
RTVSPost2010PropOp35
 70
     1
102
RTVSPost2010Prop36
280
     0
102
RTVSPost2010PropOp36
 70
     1
102
RTVSPost2010Prop37
 90
       50
102
RTVSPost2010PropOp37
 70
     1
102
RTVSPost2010Prop38
140
0.0
102
RTVSPost2010PropOp38
 70
     1
102
RTVSPost2010Prop39
140
1.0
102
RTVSPost2010PropOp39
 70
     1
102
RTVSPost2010Prop40
 90
        0
102
RTVSPost2010PropOp40
 70
     1
102
RTVSPost2010Prop41ColorIndex
 90
       18
102
RTVSPost2010Prop41ColorRGB
 90
        0
102
RTVSPost2010PropOp41
 70
     1
102
RTVSPost2010Prop42
 90
       50
102
RTVSPost2010PropOp42
 70
     1
102
RTVSPost2010Prop43
 90
        3
102
RTVSPost2010PropOp43
 70
     1
102
RTVSPost2010Prop44ColorIndex
 90
        5
102
RTVSPost2010Prop44ColorRGB
 90
      255
102
RTVSPost2010PropOp44
 70
     1
102
RTVSPost2010Prop45
280
     0
102
RTVSPost2010PropOp45
 70
     1
102
RTVSPost2010Prop46
 90
       50
102
RTVSPost2010PropOp46
 70
     1
102
RTVSPost2010Prop47
 90
       50
102
RTVSPost2010PropOp47
 70
     1
102
RTVSPost2010Prop48
 90
       50
102
RTVSPost2010PropOp48
 70
     1
102
RTVSPost2010Prop49
280
     0
102
RTVSPost2010PropOp49
 70
     1
102
RTVSPost2010Prop50
 90
       50
102
RTVSPost2010PropOp50
 70
     1
102
RTVSPost2010Prop51ColorIndex
 90
      256
102
RTVSPost2010Prop51ColorRGB
 90
-16777216
102
RTVSPost2010PropOp51
 70
     0
102
RTVSPost2010Prop52
140
1.0
102
RTVSPost2010PropOp52
 70
     0
102
RTVSPost2010Prop53
 90
        2
102
RTVSPost2010PropOp53
 70
     1
102
RTVSPost2010Prop54
  1
strokes_ogs.tif
102
RTVSPost2010PropOp54
 70
     1
102
RTVSPost2010Prop55
280
     0
102
RTVSPost2010PropOp55
 70
     1
102
RTVSPost2010Prop56
140
1.0
102
RTVSPost2010PropOp56
 70
     1
102
RTVSPost2010Prop57
140
1.0
102
RTVSPost2010PropOp57
 70
     1
  0
XRECORD
  5
152
102
{ACAD_REACTORS
330
151
102
}
330
151
100
AcDbXrecord
280
     1
102
RTVSPost2010Prop28
280
     0
102
RTVSPost2010PropOp28
 70
     1
102
RTVSPost2010Prop29
280
     1
102
RTVSPost2010PropOp29
 70
     1
102
RTVSPost2010Prop30
280
     1
102
RTVSPost2010PropOp30
 70
     1
102
RTVSPost2010Prop31
280
     0
102
RTVSPost2010PropOp31
 70
     1
102
RTVSPost2010Prop32
280
     0
102
RTVSPost2010PropOp32
 70
     1
102
RTVSPost2010Prop33
280
     0
102
RTVSPost2010PropOp33
 70
     1
102
RTVSPost2010Prop34
280
     0
102
RTVSPost2010PropOp34
 70
     1
102
RTVSPost2010Prop35
280
     0
102
RTVSPost2010PropOp35
 70
     1
102
RTVSPost2010Prop36
280
     0
102
RTVSPost2010PropOp36
 70
     1
102
RTVSPost2010Prop37
 90
       50
102
RTVSPost2010PropOp37
 70
     1
102
RTVSPost2010Prop38
140
0.0
102
RTVSPost2010PropOp38
 70
     1
102
RTVSPost2010Prop39
140
1.0
102
RTVSPost2010PropOp39
 70
     1
102
RTVSPost2010Prop40
 90
        0
102
RTVSPost2010PropOp40
 70
     1
102
RTVSPost2010Prop41ColorIndex
 90
       18
102
RTVSPost2010Prop41ColorRGB
 90
        0
102
RTVSPost2010PropOp41
 70
     1
102
RTVSPost2010Prop42
 90
       50
102
RTVSPost2010PropOp42
 70
     1
102
RTVSPost2010Prop43
 90
        3
102
RTVSPost2010PropOp43
 70
     1
102
RTVSPost2010Prop44ColorIndex
 90
        5
102
RTVSPost2010Prop44ColorRGB
 90
      255
102
RTVSPost2010PropOp44
 70
     1
102
RTVSPost2010Prop45
280
     0
102
RTVSPost2010PropOp45
 70
     1
102
RTVSPost2010Prop46
 90
       50
102
RTVSPost2010PropOp46
 70
     1
102
RTVSPost2010Prop47
 90
       50
102
RTVSPost2010PropOp47
 70
     1
102
RTVSPost2010Prop48
 90
       50
102
RTVSPost2010PropOp48
 70
     1
102
RTVSPost2010Prop49
280
     0
102
RTVSPost2010PropOp49
 70
     1
102
RTVSPost2010Prop50
 90
       50
102
RTVSPost2010PropOp50
 70
     1
102
RTVSPost2010Prop51ColorIndex
 90
      256
102
RTVSPost2010Prop51ColorRGB
 90
-16777216
102
RTVSPost2010PropOp51
 70
     0
102
RTVSPost2010Prop52
140
1.0
102
RTVSPost2010PropOp52
 70
     0
102
RTVSPost2010Prop53
 90
        2
102
RTVSPost2010PropOp53
 70
     1
102
RTVSPost2010Prop54
  1
strokes_ogs.tif
102
RTVSPost2010PropOp54
 70
     1
102
RTVSPost2010Prop55
280
     0
102
RTVSPost2010PropOp55
 70
     1
102
RTVSPost2010Prop56
140
1.0
102
RTVSPost2010PropOp56
 70
     1
102
RTVSPost2010Prop57
140
1.0
102
RTVSPost2010PropOp57
 70
     1
  0
ENDSEC
  0
EOF
