  0
SECTION
  2
HEADER
  9
$ACADVER
  1
AC1024
  9
$ACADMAINTVER
 70
   226
  9
$DWGCODEPAGE
  3
ANSI_932
  9
$INSBASE
 10
0.0
 20
0.0
 30
0.0
  9
$EXTMIN
 10
1.000000000000000E+20
 20
1.000000000000000E+20
 30
1.000000000000000E+20
  9
$EXTMAX
 10
-1.000000000000000E+20
 20
-1.000000000000000E+20
 30
-1.000000000000000E+20
  9
$LIMMIN
 10
0.0
 20
0.0
  9
$LIMMAX
 10
12.0
 20
9.0
  9
$ORTHOMODE
 70
     0
  9
$REGENMODE
 70
     1
  9
$FILLMODE
 70
     1
  9
$QTEXTMODE
 70
     0
  9
$MIRRTEXT
 70
     0
  9
$LTSCALE
 40
1.0
  9
$ATTMODE
 70
     1
  9
$TEXTSIZE
 40
0.2
  9
$TRACEWID
 40
0.05
  9
$TEXTSTYLE
  7
Standard
  9
$CLAYER
  8
0
  9
$CELTYPE
  6
ByLayer
  9
$CECOLOR
 62
   256
  9
$CELTSCALE
 40
1.0
  9
$DISPSILH
 70
     0
  9
$DIMSCALE
 40
1.0
  9
$DIMASZ
 40
0.18
  9
$DIMEXO
 40
0.0625
  9
$DIMDLI
 40
0.38
  9
$DIMRND
 40
0.0
  9
$DIMDLE
 40
0.0
  9
$DIMEXE
 40
0.18
  9
$DIMTP
 40
0.0
  9
$DIMTM
 40
0.0
  9
$DIMTXT
 40
0.18
  9
$DIMCEN
 40
0.09
  9
$DIMTSZ
 40
0.0
  9
$DIMTOL
 70
     0
  9
$DIMLIM
 70
     0
  9
$DIMTIH
 70
     1
  9
$DIMTOH
 70
     1
  9
$DIMSE1
 70
     0
  9
$DIMSE2
 70
     0
  9
$DIMTAD
 70
     0
  9
$DIMZIN
 70
     0
  9
$DIMBLK
  1

  9
$DIMASO
 70
     1
  9
$DIMSHO
 70
     1
  9
$DIMPOST
  1

  9
$DIMAPOST
  1

  9
$DIMALT
 70
     0
  9
$DIMALTD
 70
     2
  9
$DIMALTF
 40
25.4
  9
$DIMLFAC
 40
1.0
  9
$DIMTOFL
 70
     0
  9
$DIMTVP
 40
0.0
  9
$DIMTIX
 70
     0
  9
$DIMSOXD
 70
     0
  9
$DIMSAH
 70
     0
  9
$DIMBLK1
  1

  9
$DIMBLK2
  1

  9
$DIMSTYLE
  2
Standard
  9
$DIMCLRD
 70
     0
  9
$DIMCLRE
 70
     0
  9
$DIMCLRT
 70
     0
  9
$DIMTFAC
 40
1.0
  9
$DIMGAP
 40
0.09
  9
$DIMJUST
 70
     0
  9
$DIMSD1
 70
     0
  9
$DIMSD2
 70
     0
  9
$DIMTOLJ
 70
     1
  9
$DIMTZIN
 70
     0
  9
$DIMALTZ
 70
     0
  9
$DIMALTTZ
 70
     0
  9
$DIMUPT
 70
     0
  9
$DIMDEC
 70
     4
  9
$DIMTDEC
 70
     4
  9
$DIMALTU
 70
     2
  9
$DIMALTTD
 70
     2
  9
$DIMTXSTY
  7
Standard
  9
$DIMAUNIT
 70
     0
  9
$DIMADEC
 70
     0
  9
$DIMALTRND
 40
0.0
  9
$DIMAZIN
 70
     0
  9
$DIMDSEP
 70
    46
  9
$DIMATFIT
 70
     3
  9
$DIMFRAC
 70
     0
  9
$DIMLDRBLK
  1

  9
$DIMLUNIT
 70
     2
  9
$DIMLWD
 70
    -2
  9
$DIMLWE
 70
    -2
  9
$DIMTMOVE
 70
     0
  9
$DIMFXL
 40
1.0
  9
$DIMFXLON
 70
     0
  9
$DIMJOGANG
 40
0.7853981633974483
  9
$DIMTFILL
 70
     0
  9
$DIMTFILLCLR
 70
     0
  9
$DIMARCSYM
 70
     0
  9
$DIMLTYPE
  6

  9
$DIMLTEX1
  6

  9
$DIMLTEX2
  6

  9
$DIMTXTDIRECTION
 70
     0
  9
$LUNITS
 70
     2
  9
$LUPREC
 70
     4
  9
$SKETCHINC
 40
0.1
  9
$FILLETRAD
 40
0.0
  9
$AUNITS
 70
     0
  9
$AUPREC
 70
     0
  9
$MENU
  1
.
  9
$ELEVATION
 40
0.0
  9
$PELEVATION
 40
0.0
  9
$THICKNESS
 40
0.0
  9
$LIMCHECK
 70
     0
  9
$CHAMFERA
 40
0.0
  9
$CHAMFERB
 40
0.0
  9
$CHAMFERC
 40
0.0
  9
$CHAMFERD
 40
0.0
  9
$SKPOLY
 70
     0
  9
$TDCREATE
 40
2459569.503472222
  9
$TDUCREATE
 40
2459569.128472222
  9
$TDUPDATE
 40
2459569.503472222
  9
$TDUUPDATE
 40
2459569.128472222
  9
$TDINDWG
 40
0.0000000000
  9
$TDUSRTIMER
 40
0.0000000000
  9
$USRTIMER
 70
     1
  9
$ANGBASE
 50
0.0
  9
$ANGDIR
 70
     0
  9
$PDMODE
 70
     0
  9
$PDSIZE
 40
0.0
  9
$PLINEWID
 40
0.0
  9
$SPLFRAME
 70
     0
  9
$SPLINETYPE
 70
     6
  9
$SPLINESEGS
 70
     8
  9
$HANDSEED
  5
153
  9
$SURFTAB1
 70
     6
  9
$SURFTAB2
 70
     6
  9
$SURFTYPE
 70
     6
  9
$SURFU
 70
     6
  9
$SURFV
 70
     6
  9
$UCSBASE
  2

  9
$UCSNAME
  2

  9
$UCSORG
 10
0.0
 20
0.0
 30
0.0
  9
$UCSXDIR
 10
1.0
 20
0.0
 30
0.0
  9
$UCSYDIR
 10
0.0
 20
1.0
 30
0.0
  9
$UCSORTHOREF
  2

  9
$UCSORTHOVIEW
 70
     0
  9
$UCSORGTOP
 10
0.0
 20
0.0
 30
0.0
  9
$UCSORGBOTTOM
 10
0.0
 20
0.0
 30
0.0
  9
$UCSORGLEFT
 10
0.0
 20
0.0
 30
0.0
  9
$UCSORGRIGHT
 10
0.0
 20
0.0
 30
0.0
  9
$UCSORGFRONT
 10
0.0
 20
0.0
 30
0.0
  9
$UCSORGBACK
 10
0.0
 20
0.0
 30
0.0
  9
$PUCSBASE
  2

  9
$PUCSNAME
  2

  9
$PUCSORG
 10
0.0
 20
0.0
 30
0.0
  9
$PUCSXDIR
 10
1.0
 20
0.0
 30
0.0
  9
$PUCSYDIR
 10
0.0
 20
1.0
 30
0.0
  9
$PUCSORTHOREF
  2

  9
$PUCSORTHOVIEW
 70
     0
  9
$PUCSORGTOP
 10
0.0
 20
0.0
 30
0.0
  9
$PUCSORGBOTTOM
 10
0.0
 20
0.0
 30
0.0
  9
$PUCSORGLEFT
 10
0.0
 20
0.0
 30
0.0
  9
$PUCSORGRIGHT
 10
0.0
 20
0.0
 30
0.0
  9
$PUCSORGFRONT
 10
0.0
 20
0.0
 30
0.0
  9
$PUCSORGBACK
 10
0.0
 20
0.0
 30
0.0
  9
$USERI1
 70
     0
  9
$USERI2
 70
     0
  9
$USERI3
 70
     0
  9
$USERI4
 70
     0
  9
$USERI5
 70
     0
  9
$USERR1
 40
0.0
  9
$USERR2
 40
0.0
  9
$USERR3
 40
0.0
  9
$USERR4
 40
0.0
  9
$USERR5
 40
0.0
  9
$WORLDVIEW
 70
     1
  9
$SHADEDGE
 70
     3
  9
$SHADEDIF
 70
    70
  9
$TILEMODE
 70
     1
  9
$MAXACTVP
 70
    64
  9
$PINSBASE
 10
0.0
 20
0.0
 30
0.0
  9
$PLIMCHECK
 70
     0
  9
$PEXTMIN
 10
1.000000000000000E+20
 20
1.000000000000000E+20
 30
1.000000000000000E+20
  9
$PEXTMAX
 10
-1.000000000000000E+20
 20
-1.000000000000000E+20
 30
-1.000000000000000E+20
  9
$PLIMMIN
 10
0.0
 20
0.0
  9
$PLIMMAX
 10
12.0
 20
9.0
  9
$UNITMODE
 70
     0
  9
$VISRETAIN
 70
     1
  9
$PLINEGEN
 70
     0
  9
$PSLTSCALE
 70
     1
  9
$TREEDEPTH
 70
  3020
  9
$CMLSTYLE
  2
Standard
  9
$CMLJUST
 70
     0
  9
$CMLSCALE
 40
1.0
  9
$PROXYGRAPHICS
 70
     1
  9
$MEASUREMENT
 70
     0
  9
$CELWEIGHT
370
    -1
  9
$ENDCAPS
280
     0
  9
$JOINSTYLE
280
     0
  9
$LWDISPLAY
290
     1
  9
$INSUNITS
 70
     4
  9
$HYPERLINKBASE
  1

  9
$STYLESHEET
  1

  9
$XEDIT
290
     1
  9
$CEPSNTYPE
380
     0
  9
$PSTYLEMODE
290
     1
  9
$FINGERPRINTGUID
  2
{C24F0129-1ADB-2B44-BE16-75D85188E605}
  9
$VERSIONGUID
  2
{BB546091-C621-7443-BD23-55F605999DD4}
  9
$EXTNAMES
290
     1
  9
$PSVPSCALE
 40
0.0
  9
$OLESTARTUP
290
     0
  9
$SORTENTS
280
   127
  9
$INDEXCTL
280
     0
  9
$HIDETEXT
280
     1
  9
$XCLIPFRAME
280
     2
  9
$HALOGAP
280
     0
  9
$OBSCOLOR
 70
   257
  9
$OBSLTYPE
280
     0
  9
$INTERSECTIONDISPLAY
280
     0
  9
$INTERSECTIONCOLOR
 70
   257
  9
$DIMASSOC
280
     2
  9
$PROJECTNAME
  1

  9
$CAMERADISPLAY
290
     0
  9
$LENSLENGTH
 40
50.0
  9
$CAMERAHEIGHT
 40
0.0
  9
$STEPSPERSEC
 40
2.0
  9
$STEPSIZE
 40
6.0
  9
$3DDWFPREC
 40
2.0
  9
$PSOLWIDTH
 40
0.25
  9
$PSOLHEIGHT
 40
4.0
  9
$LOFTANG1
 40
1.570796326794896
  9
$LOFTANG2
 40
1.570796326794896
  9
$LOFTMAG1
 40
0.0
  9
$LOFTMAG2
 40
0.0
  9
$LOFTPARAM
 70
     7
  9
$LOFTNORMALS
280
     1
  9
$LATITUDE
 40
37.795
  9
$LONGITUDE
 40
-122.394
  9
$NORTHDIRECTION
 40
0.0
  9
$TIMEZONE
 70
 -8000
  9
$LIGHTGLYPHDISPLAY
280
     1
  9
$TILEMODELIGHTSYNCH
280
     1
  9
$CMATERIAL
347
11
  9
$SOLIDHIST
280
     0
  9
$SHOWHIST
280
     1
  9
$DWFFRAME
280
     2
  9
$DGNFRAME
280
     0
  9
$REALWORLDSCALE
290
     1
  9
$INTERFERECOLOR
 62
     1
  9
$INTERFEREOBJVS
345
33
  9
$INTERFEREVPVS
346
30
  9
$CSHADOW
280
     0
  9
$SHADOWPLANELOCATION
 40
0.0
  0
ENDSEC
  0
SECTION
  2
CLASSES
  0
CLASS
  1
ACDBDICTIONARYWDFLT
  2
AcDbDictionaryWithDefault
  3
ObjectDBX Classes
 90
        0
 91
        1
280
     0
281
     0
  0
CLASS
  1
MATERIAL
  2
AcDbMaterial
  3
ObjectDBX Classes
 90
     1153
 91
        3
280
     0
281
     0
  0
CLASS
  1
VISUALSTYLE
  2
AcDbVisualStyle
  3
ObjectDBX Classes
 90
     4095
 91
       24
280
     0
281
     0
  0
CLASS
  1
SCALE
  2
AcDbScale
  3
ObjectDBX Classes
 90
     1153
 91
       17
280
     0
281
     0
  0
CLASS
  1
TABLESTYLE
  2
AcDbTableStyle
  3
ObjectDBX Classes
 90
     4095
 91
        1
280
     0
281
     0
  0
CLASS
  1
MLEADERSTYLE
  2
AcDbMLeaderStyle
  3
ACDB_MLEADERSTYLE_CLASS
 90
     4095
 91
        1
280
     0
281
     0
  0
CLASS
  1
ACDBSECTIONVIEWSTYLE
  2
AcDbSectionViewStyle
  3
ObjectDBX Classes
 90
     1025
 91
        1
280
     0
281
     0
  0
CLASS
  1
ACDBDETAILVIEWSTYLE
  2
AcDbDetailViewStyle
  3
ObjectDBX Classes
 90
     1025
 91
        1
280
     0
281
     0
  0
CLASS
  1
DICTIONARYVAR
  2
AcDbDictionaryVar
  3
ObjectDBX Classes
 90
        0
 91
        5
280
     0
281
     0
  0
CLASS
  1
CELLSTYLEMAP
  2
AcDbCellStyleMap
  3
ObjectDBX Classes
 90
     1152
 91
        1
280
     0
281
     0
  0
ENDSEC
  0
SECTION
  2
TABLES
  0
TABLE
  2
VPORT
  5
8
330
0
100
AcDbSymbolTable
 70
     1
  0
VPORT
  5
57
330
8
100
AcDbSymbolTableRecord
100
AcDbViewportTableRecord
  2
*Active
 70
     0
 10
0.0
 20
0.0
 11
1.0
 21
1.0
 12
0.0
 22
0.0
 13
0.0
 23
0.0
 14
1.0
 24
1.0
 15
0.0
 25
0.0
 16
0.0
 26
0.0
 36
1.0
 17
104.9999999737534
 27
-148.4999999628701
 37
0.0
 40
302.939999924255
 41
0.7070707070707534
 42
50.0
 43
0.0
 44
0.0
 50
0.0
 51
0.0
 71
     0
 72
   100
 73
     1
 74
     0
 75
     1
 76
     0
 77
     0
 78
     0
281
     0
 65
     1
110
0.0
120
0.0
130
0.0
111
1.0
121
0.0
131
0.0
112
0.0
122
1.0
132
0.0
 79
     0
146
0.0
 60
     3
 61
     5
292
     1
282
     1
141
0.0
142
0.0
 63
   250
421
  3355443
  0
ENDTAB
  0
TABLE
  2
LTYPE
  5
5
330
0
100
AcDbSymbolTable
 70
     3
  0
LTYPE
  5
5B
330
5
100
AcDbSymbolTableRecord
100
AcDbLinetypeTableRecord
  2
ByBlock
 70
     0
  3

 72
    65
 73
     0
 40
0.0
  0
LTYPE
  5
5C
330
5
100
AcDbSymbolTableRecord
100
AcDbLinetypeTableRecord
  2
ByLayer
 70
     0
  3

 72
    65
 73
     0
 40
0.0
  0
LTYPE
  5
5D
330
5
100
AcDbSymbolTableRecord
100
AcDbLinetypeTableRecord
  2
Continuous
 70
     0
  3
Solid line
 72
    65
 73
     0
 40
0.0
  0
LTYPE
  5
8A
330
5
100
AcDbSymbolTableRecord
100
AcDbLinetypeTableRecord
  2
AI-Linetype-0
 70
     0
  3
Adobe Illustrator Linetype No. 0
 72
    65
 73
     2
 40
1.411111110758333
 49
0.7055555553791667
 74
     0
 49
-0.7055555553791667
 74
     0
  0
LTYPE
  5
8C
330
5
100
AcDbSymbolTableRecord
100
AcDbLinetypeTableRecord
  2
AI-Linetype-1
 70
     0
  3
Adobe Illustrator Linetype No. 1
 72
    65
 73
     2
 40
1.411111110758333
 49
0.7055555553791667
 74
     0
 49
-0.7055555553791667
 74
     0
  0
ENDTAB
  0
TABLE
  2
LAYER
  5
2
330
0
100
AcDbSymbolTable
 70
     2
  0
LAYER
  5
54
330
2
100
AcDbSymbolTableRecord
100
AcDbLayerTableRecord
  2
0
 70
     0
 62
     7
  6
Continuous
370
    -3
390
F
347
21
  0
LAYER
  5
78
330
2
100
AcDbSymbolTableRecord
100
AcDbLayerTableRecord
  2
レイヤー 1
 70
     0
 62
     7
  6
Continuous
370
     0
390
F
347
21
  0
ENDTAB
  0
TABLE
  2
STYLE
  5
3
330
0
100
AcDbSymbolTable
 70
     2
  0
STYLE
  5
55
330
3
100
AcDbSymbolTableRecord
100
AcDbTextStyleTableRecord
  2
Standard
 70
     0
 40
0.0
 41
1.0
 50
0.0
 71
     0
 42
0.2
  3
txt
  4

  0
STYLE
  5
5A
330
3
100
AcDbSymbolTableRecord
100
AcDbTextStyleTableRecord
  2
Annotative
 70
     0
 40
0.0
 41
1.0
 50
0.0
 71
     0
 42
0.2
  3
txt
  4

1001
AcadAnnotative
1000
AnnotativeData
1002
{
1070
     1
1070
     1
1002
}
  0
ENDTAB
  0
TABLE
  2
VIEW
  5
6
330
0
100
AcDbSymbolTable
 70
     0
  0
ENDTAB
  0
TABLE
  2
UCS
  5
7
330
0
100
AcDbSymbolTable
 70
     0
  0
ENDTAB
  0
TABLE
  2
APPID
  5
9
330
0
100
AcDbSymbolTable
 70
     2
  0
APPID
  5
56
330
9
100
AcDbSymbolTableRecord
100
AcDbRegAppTableRecord
  2
ACAD
 70
     0
  0
APPID
  5
5E
330
9
100
AcDbSymbolTableRecord
100
AcDbRegAppTableRecord
  2
AcadAnnotative
 70
     0
  0
ENDTAB
  0
TABLE
  2
DIMSTYLE
  5
A
330
0
100
AcDbSymbolTable
 70
     2
100
AcDbDimStyleTable
 71
     0
  0
DIMSTYLE
105
58
330
A
100
AcDbSymbolTableRecord
100
AcDbDimStyleTableRecord
  2
Standard
 70
     0
340
55
  0
DIMSTYLE
105
59
330
A
100
AcDbSymbolTableRecord
100
AcDbDimStyleTableRecord
  2
Annotative
 70
     0
340
55
1001
AcadAnnotative
1000
AnnotativeData
1002
{
1070
     1
1070
     1
1002
}
  0
ENDTAB
  0
TABLE
  2
BLOCK_RECORD
  5
1
330
0
100
AcDbSymbolTable
 70
    16
  0
BLOCK_RECORD
  5
70
330
1
100
AcDbSymbolTableRecord
100
AcDbBlockTableRecord
  2
*Model_Space
340
73
 70
     0
280
     1
281
     0
  0
BLOCK_RECORD
  5
6C
330
1
100
AcDbSymbolTableRecord
100
AcDbBlockTableRecord
  2
*Paper_Space
340
6F
 70
     0
280
     1
281
     0
  0
BLOCK_RECORD
  5
74
330
1
100
AcDbSymbolTableRecord
100
AcDbBlockTableRecord
  2
*Paper_Space0
340
77
 70
     0
280
     1
281
     0
  0
BLOCK_RECORD
  5
79
330
1
100
AcDbSymbolTableRecord
100
AcDbBlockTableRecord
  2
Block_0
340
0
102
{BLKREFS
331
7A
102
}
 70
     0
280
     1
281
     0
  0
BLOCK_RECORD
  5
95
330
1
100
AcDbSymbolTableRecord
100
AcDbBlockTableRecord
  2
Block_1
340
0
102
{BLKREFS
331
96
102
}
 70
     0
280
     1
281
     0
  0
BLOCK_RECORD
  5
9B
330
1
100
AcDbSymbolTableRecord
100
AcDbBlockTableRecord
  2
Block_2
340
0
102
{BLKREFS
331
9C
102
}
 70
     0
280
     1
281
     0
  0
BLOCK_RECORD
  5
9F
330
1
100
AcDbSymbolTableRecord
100
AcDbBlockTableRecord
  2
Block_3
340
0
102
{BLKREFS
331
A0
102
}
 70
     0
280
     1
281
     0
  0
BLOCK_RECORD
  5
A7
330
1
100
AcDbSymbolTableRecord
100
AcDbBlockTableRecord
  2
Block_4
340
0
102
{BLKREFS
331
A8
102
}
 70
     0
280
     1
281
     0
  0
BLOCK_RECORD
  5
AF
330
1
100
AcDbSymbolTableRecord
100
AcDbBlockTableRecord
  2
Block_5
340
0
102
{BLKREFS
331
B0
102
}
 70
     0
280
     1
281
     0
  0
BLOCK_RECORD
  5
B3
330
1
100
AcDbSymbolTableRecord
100
AcDbBlockTableRecord
  2
Block_6
340
0
102
{BLKREFS
331
B4
102
}
 70
     0
280
     1
281
     0
  0
BLOCK_RECORD
  5
BE
330
1
100
AcDbSymbolTableRecord
100
AcDbBlockTableRecord
  2
Block_7
340
0
102
{BLKREFS
331
BF
102
}
 70
     0
280
     1
281
     0
  0
BLOCK_RECORD
  5
C6
330
1
100
AcDbSymbolTableRecord
100
AcDbBlockTableRecord
  2
Block_8
340
0
102
{BLKREFS
331
C7
102
}
 70
     0
280
     1
281
     0
  0
BLOCK_RECORD
  5
CA
330
1
100
AcDbSymbolTableRecord
100
AcDbBlockTableRecord
  2
Block_9
340
0
102
{BLKREFS
331
CB
102
}
 70
     0
280
     1
281
     0
  0
BLOCK_RECORD
  5
D9
330
1
100
AcDbSymbolTableRecord
100
AcDbBlockTableRecord
  2
Block_10
340
0
102
{BLKREFS
331
DA
102
}
 70
     0
280
     1
281
     0
  0
BLOCK_RECORD
  5
DF
330
1
100
AcDbSymbolTableRecord
100
AcDbBlockTableRecord
  2
Block_11
340
0
102
{BLKREFS
331
E0
102
}
 70
     0
280
     1
281
     0
  0
BLOCK_RECORD
  5
E3
330
1
100
AcDbSymbolTableRecord
100
AcDbBlockTableRecord
  2
Block_12
340
0
102
{BLKREFS
331
E4
102
}
 70
     0
280
     1
281
     0
  0
BLOCK_RECORD
  5
EE
330
1
100
AcDbSymbolTableRecord
100
AcDbBlockTableRecord
  2
Block_13
340
0
102
{BLKREFS
331
EF
102
}
 70
     0
280
     1
281
     0
  0
BLOCK_RECORD
  5
F2
330
1
100
AcDbSymbolTableRecord
100
AcDbBlockTableRecord
  2
Block_14
340
0
102
{BLKREFS
331
F3
102
}
 70
     0
280
     1
281
     0
  0
ENDTAB
  0
ENDSEC
  0
SECTION
  2
BLOCKS
  0
BLOCK
  5
71
330
70
100
AcDbEntity
  8
0
100
AcDbBlockBegin
  2
*Model_Space
 70
     0
 10
0.0
 20
0.0
 30
0.0
  3
*Model_Space
  1

  0
ENDBLK
  5
72
330
70
100
AcDbEntity
  8
0
100
AcDbBlockEnd
  0
BLOCK
  5
6D
330
6C
100
AcDbEntity
 67
     1
  8
0
100
AcDbBlockBegin
  2
*Paper_Space
 70
     0
 10
0.0
 20
0.0
 30
0.0
  3
*Paper_Space
  1

  0
ENDBLK
  5
6E
330
6C
100
AcDbEntity
 67
     1
  8
0
100
AcDbBlockEnd
  0
BLOCK
  5
75
330
74
100
AcDbEntity
 67
     1
  8
0
100
AcDbBlockBegin
  2
*Paper_Space0
 70
     0
 10
0.0
 20
0.0
 30
0.0
  3
*Paper_Space0
  1

  0
ENDBLK
  5
76
330
74
100
AcDbEntity
 67
     1
  8
0
100
AcDbBlockEnd
  0
BLOCK
  5
7B
330
79
100
AcDbEntity
  8
0
100
AcDbBlockBegin
  2
Block_0
 70
     0
 10
0.0
 20
0.0
 30
0.0
  3
Block_0
  1

  0
SPLINE
  5
7D
330
79
100
AcDbEntity
  8
レイヤー 1
100
AcDbSpline
210
0.0
220
0.0
230
1.0
 70
     9
 71
     3
 72
    17
 73
    13
 74
     0
 42
0.0000000001
 43
0.0000000001
 40
0.0
 40
0.0
 40
0.0
 40
0.0
 40
1.0
 40
1.0
 40
1.0
 40
2.0
 40
2.0
 40
2.0
 40
3.0
 40
3.0
 40
3.0
 40
4.0
 40
4.0
 40
4.0
 40
4.0
 10
98.25894637300471
 20
-156.5172335763221
 30
0.0
 10
98.03535967601199
 20
-156.5172335763221
 30
0.0
 10
98.00280352367639
 20
-156.7287624391164
 30
0.0
 10
98.00280352367639
 20
-156.8452066665178
 30
0.0
 10
98.00280352367639
 20
-157.0209065362656
 30
0.0
 10
98.08410777712829
 20
-157.1838595527179
 30
0.0
 10
98.24085962170714
 20
-157.1838595527179
 30
0.0
 10
98.34369572194185
 20
-157.1838595527179
 30
0.0
 10
98.49338512077597
 20
-157.1246039103716
 30
0.0
 10
98.49338512077597
 20
-156.8390054946444
 30
0.0
 10
98.49338512077597
 20
-156.6147297785546
 30
0.0
 10
98.37435707176059
 20
-156.5172335763221
 30
0.0
 10
98.25894637300471
 20
-156.5172335763221
 30
0.0
  0
SPLINE
  5
7E
330
79
100
AcDbEntity
  8
レイヤー 1
100
AcDbSpline
210
0.0
220
0.0
230
1.0
 70
     9
 71
     3
 72
    32
 73
    28
 74
     0
 42
0.0000000001
 43
0.0000000001
 40
0.0
 40
0.0
 40
0.0
 40
0.0
 40
1.0
 40
1.0
 40
1.0
 40
2.0
 40
2.0
 40
2.0
 40
3.0
 40
3.0
 40
3.0
 40
4.0
 40
4.0
 40
4.0
 40
5.0
 40
5.0
 40
5.0
 40
6.0
 40
6.0
 40
6.0
 40
7.0
 40
7.0
 40
7.0
 40
8.0
 40
8.0
 40
8.0
 40
9.0
 40
9.0
 40
9.0
 40
9.0
 10
98.24447697196667
 20
-157.3760958807949
 30
0.0
 10
97.80453827850026
 20
-157.3760958807949
 30
0.0
 10
97.79730357798124
 20
-156.8221245267667
 30
0.0
 10
97.79730357798124
 20
-156.6081840971327
 30
0.0
 10
97.79730357798124
 20
-156.3777072091695
 30
0.0
 10
97.81349552676191
 20
-155.730373767491
 30
0.0
 10
98.27703312430228
 20
-155.730373767491
 30
0.0
 10
98.42482772061948
 20
-155.730373767491
 30
0.0
 10
98.63394501657417
 20
-155.8003092058416
 30
0.0
 10
98.66650116890976
 20
-156.1324164106197
 30
0.0
 10
98.66650116890976
 20
-156.1324164106197
 30
0.0
 10
98.48442787251432
 20
-156.1324164106197
 30
0.0
 10
98.48442787251432
 20
-156.1324164106197
 30
0.0
 10
98.47529836947842
 20
-156.0752278255645
 30
0.0
 10
98.4482543699192
 20
-155.9270887196988
 30
0.0
 10
98.27513832178539
 20
-155.9270887196988
 30
0.0
 10
98.02640242775035
 20
-155.9270887196988
 30
0.0
 10
97.99212372767211
 20
-156.2550618098946
 30
0.0
 10
97.98127167689358
 20
-156.4600449912669
 30
0.0
 10
98.06050887305431
 20
-156.3818413237517
 30
0.0
 10
98.11821422243227
 20
-156.3225856814055
 30
0.0
 10
98.27341577404276
 20
-156.3225856814055
 30
0.0
 10
98.42672252313638
 20
-156.3225856814055
 30
0.0
 10
98.68458792020733
 20
-156.4307616796423
 30
0.0
 10
98.68458792020733
 20
-156.8369384373532
 30
0.0
 10
98.68458792020733
 20
-157.1562987888359
 30
0.0
 10
98.51508922233303
 20
-157.3760958807949
 30
0.0
 10
98.24447697196667
 20
-157.3760958807949
 30
0.0
  0
HATCH
  5
7F
330
79
100
AcDbEntity
  8
レイヤー 1
 62
    18
420
        0
440
 33554687
100
AcDbHatch
 10
0.0
 20
0.0
 30
0.0
210
0.0
220
0.0
230
1.0
  2
SOLID
 70
     1
 71
     1
 91
        2
 92
        1
 93
        1
 72
     4
 94
        3
 73
     0
 74
     0
 95
       17
 96
       13
 40
0.0
 40
0.0
 40
0.0
 40
0.0
 40
1.0
 40
1.0
 40
1.0
 40
2.0
 40
2.0
 40
2.0
 40
3.0
 40
3.0
 40
3.0
 40
4.0
 40
4.0
 40
4.0
 40
4.0
 10
98.25894637300471
 20
-156.5172335763221
 10
98.03535967601199
 20
-156.5172335763221
 10
98.00280352367639
 20
-156.7287624391164
 10
98.00280352367639
 20
-156.8452066665178
 10
98.00280352367639
 20
-157.0209065362656
 10
98.08410777712829
 20
-157.1838595527179
 10
98.24085962170714
 20
-157.1838595527179
 10
98.34369572194185
 20
-157.1838595527179
 10
98.49338512077597
 20
-157.1246039103716
 10
98.49338512077597
 20
-156.8390054946444
 10
98.49338512077597
 20
-156.6147297785546
 10
98.37435707176059
 20
-156.5172335763221
 10
98.25894637300471
 20
-156.5172335763221
 97
        0
 97
        1
330
7D
 92
        1
 93
        1
 72
     4
 94
        3
 73
     0
 74
     0
 95
       32
 96
       28
 40
0.0
 40
0.0
 40
0.0
 40
0.0
 40
1.0
 40
1.0
 40
1.0
 40
2.0
 40
2.0
 40
2.0
 40
3.0
 40
3.0
 40
3.0
 40
4.0
 40
4.0
 40
4.0
 40
5.0
 40
5.0
 40
5.0
 40
6.0
 40
6.0
 40
6.0
 40
7.0
 40
7.0
 40
7.0
 40
8.0
 40
8.0
 40
8.0
 40
9.0
 40
9.0
 40
9.0
 40
9.0
 10
98.24447697196667
 20
-157.3760958807949
 10
97.80453827850026
 20
-157.3760958807949
 10
97.79730357798124
 20
-156.8221245267667
 10
97.79730357798124
 20
-156.6081840971327
 10
97.79730357798124
 20
-156.3777072091695
 10
97.81349552676191
 20
-155.730373767491
 10
98.27703312430228
 20
-155.730373767491
 10
98.42482772061948
 20
-155.730373767491
 10
98.63394501657417
 20
-155.8003092058416
 10
98.66650116890976
 20
-156.1324164106197
 10
98.66650116890976
 20
-156.1324164106197
 10
98.48442787251432
 20
-156.1324164106197
 10
98.48442787251432
 20
-156.1324164106197
 10
98.47529836947842
 20
-156.0752278255645
 10
98.4482543699192
 20
-155.9270887196988
 10
98.27513832178539
 20
-155.9270887196988
 10
98.02640242775035
 20
-155.9270887196988
 10
97.99212372767211
 20
-156.2550618098946
 10
97.98127167689358
 20
-156.4600449912669
 10
98.06050887305431
 20
-156.3818413237517
 10
98.11821422243227
 20
-156.3225856814055
 10
98.27341577404276
 20
-156.3225856814055
 10
98.42672252313638
 20
-156.3225856814055
 10
98.68458792020733
 20
-156.4307616796423
 10
98.68458792020733
 20
-156.8369384373532
 10
98.68458792020733
 20
-157.1562987888359
 10
98.51508922233303
 20
-157.3760958807949
 10
98.24447697196667
 20
-157.3760958807949
 97
        0
 97
        1
330
7E
 75
     2
 76
     1
 98
        1
 10
0.0
 20
0.0
450
        0
451
        0
460
0.0
461
0.0
452
        0
462
0.0
453
        0
470

  0
ENDBLK
  5
7C
330
79
100
AcDbEntity
  8
0
100
AcDbBlockEnd
  0
BLOCK
  5
97
330
95
100
AcDbEntity
  8
0
100
AcDbBlockBegin
  2
Block_1
 70
     0
 10
0.0
 20
0.0
 30
0.0
  3
Block_1
  1

  0
LINE
  5
99
330
95
100
AcDbEntity
  8
レイヤー 1
 62
    18
420
        0
370
     9
100
AcDbLine
 10
101.2327776130482
 20
-157.9709211512062
 30
0.0
 11
118.2334557904358
 21
-157.9709211512062
 31
0.0
  0
LINE
  5
9A
330
95
100
AcDbEntity
  8
レイヤー 1
 62
    18
420
        0
370
     9
100
AcDbLine
 10
118.2334557904358
 20
-155.8108310236797
 30
0.0
 11
118.2334557904358
 21
-158.9713670541588
 31
0.0
  0
INSERT
  5
9C
330
95
100
AcDbEntity
  8
レイヤー 1
100
AcDbBlockReference
  2
Block_2
 10
0.0
 20
0.0
 30
0.0
  0
ENDBLK
  5
98
330
95
100
AcDbEntity
  8
0
100
AcDbBlockEnd
  0
BLOCK
  5
9D
330
9B
100
AcDbEntity
  8
0
100
AcDbBlockBegin
  2
Block_2
 70
     0
 10
0.0
 20
0.0
 30
0.0
  3
Block_2
  1

  0
INSERT
  5
A0
330
9B
100
AcDbEntity
  8
レイヤー 1
100
AcDbBlockReference
  2
Block_3
 10
0.0
 20
0.0
 30
0.0
  0
ENDBLK
  5
9E
330
9B
100
AcDbEntity
  8
0
100
AcDbBlockEnd
  0
BLOCK
  5
A1
330
9F
100
AcDbEntity
  8
0
100
AcDbBlockBegin
  2
Block_3
 70
     0
 10
0.0
 20
0.0
 30
0.0
  3
Block_3
  1

  0
SPLINE
  5
A3
330
9F
100
AcDbEntity
  8
レイヤー 1
100
AcDbSpline
210
0.0
220
0.0
230
1.0
 70
    11
 71
     3
 72
    26
 73
    22
 74
     0
 42
0.0000000001
 43
0.0000000001
 40
0.0
 40
0.0
 40
0.0
 40
0.0
 40
1.0
 40
1.0
 40
1.0
 40
2.0
 40
2.0
 40
2.0
 40
3.0
 40
3.0
 40
3.0
 40
4.0
 40
4.0
 40
4.0
 40
5.0
 40
5.0
 40
5.0
 40
6.0
 40
6.0
 40
6.0
 40
7.0
 40
7.0
 40
7.0
 40
7.0
 10
109.1988470864155
 20
-157.3254529771617
 30
0.0
 10
109.1988470864155
 20
-157.3254529771617
 30
0.0
 10
109.1988470864155
 20
-156.2212998741391
 30
0.0
 10
109.1988470864155
 20
-156.2212998741391
 30
0.0
 10
109.1988470864155
 20
-156.2212998741391
 30
0.0
 10
108.9173827852706
 20
-156.2212998741391
 30
0.0
 10
108.9173827852706
 20
-156.2212998741391
 30
0.0
 10
108.9173827852706
 20
-156.2212998741391
 30
0.0
 10
108.9173827852706
 20
-156.0731607682734
 30
0.0
 10
108.9173827852706
 20
-156.0731607682734
 30
0.0
 10
109.2005696341582
 20
-156.0583468576868
 30
0.0
 10
109.2401882322385
 20
-155.8953938412345
 30
0.0
 10
109.2653374292809
 20
-155.7810166711242
 30
0.0
 10
109.2653374292809
 20
-155.7810166711242
 30
0.0
 10
109.3900498858469
 20
-155.7810166711242
 30
0.0
 10
109.3900498858469
 20
-155.7810166711242
 30
0.0
 10
109.3900498858469
 20
-155.7810166711242
 30
0.0
 10
109.3900498858469
 20
-157.3254529771617
 30
0.0
 10
109.3900498858469
 20
-157.3254529771617
 30
0.0
 10
109.3900498858469
 20
-157.3254529771617
 30
0.0
 10
109.1988470864155
 20
-157.3254529771617
 30
0.0
 10
109.1988470864155
 20
-157.3254529771617
 30
0.0
  0
HATCH
  5
A4
330
9F
100
AcDbEntity
  8
レイヤー 1
 62
    18
420
        0
440
 33554687
100
AcDbHatch
 10
0.0
 20
0.0
 30
0.0
210
0.0
220
0.0
230
1.0
  2
SOLID
 70
     1
 71
     1
 91
        1
 92
        1
 93
        1
 72
     4
 94
        3
 73
     0
 74
     0
 95
       26
 96
       22
 40
0.0
 40
0.0
 40
0.0
 40
0.0
 40
1.0
 40
1.0
 40
1.0
 40
2.0
 40
2.0
 40
2.0
 40
3.0
 40
3.0
 40
3.0
 40
4.0
 40
4.0
 40
4.0
 40
5.0
 40
5.0
 40
5.0
 40
6.0
 40
6.0
 40
6.0
 40
7.0
 40
7.0
 40
7.0
 40
7.0
 10
109.1988470864155
 20
-157.3254529771617
 10
109.1988470864155
 20
-157.3254529771617
 10
109.1988470864155
 20
-156.2212998741391
 10
109.1988470864155
 20
-156.2212998741391
 10
109.1988470864155
 20
-156.2212998741391
 10
108.9173827852706
 20
-156.2212998741391
 10
108.9173827852706
 20
-156.2212998741391
 10
108.9173827852706
 20
-156.2212998741391
 10
108.9173827852706
 20
-156.0731607682734
 10
108.9173827852706
 20
-156.0731607682734
 10
109.2005696341582
 20
-156.0583468576868
 10
109.2401882322385
 20
-155.8953938412345
 10
109.2653374292809
 20
-155.7810166711242
 10
109.2653374292809
 20
-155.7810166711242
 10
109.3900498858469
 20
-155.7810166711242
 10
109.3900498858469
 20
-155.7810166711242
 10
109.3900498858469
 20
-155.7810166711242
 10
109.3900498858469
 20
-157.3254529771617
 10
109.3900498858469
 20
-157.3254529771617
 10
109.3900498858469
 20
-157.3254529771617
 10
109.1988470864155
 20
-157.3254529771617
 10
109.1988470864155
 20
-157.3254529771617
 97
        0
 97
        1
330
A3
 75
     2
 76
     1
 98
        1
 10
0.0
 20
0.0
450
        0
451
        0
460
0.0
461
0.0
452
        0
462
0.0
453
        0
470

  0
SPLINE
  5
A5
330
9F
100
AcDbEntity
  8
レイヤー 1
100
AcDbSpline
210
0.0
220
0.0
230
1.0
 70
     9
 71
     3
 72
    26
 73
    22
 74
     0
 42
0.0000000001
 43
0.0000000001
 40
0.0
 40
0.0
 40
0.0
 40
0.0
 40
1.0
 40
1.0
 40
1.0
 40
2.0
 40
2.0
 40
2.0
 40
3.0
 40
3.0
 40
3.0
 40
4.0
 40
4.0
 40
4.0
 40
5.0
 40
5.0
 40
5.0
 40
6.0
 40
6.0
 40
6.0
 40
7.0
 40
7.0
 40
7.0
 40
7.0
 10
110.1662298986737
 20
-157.3254529771617
 30
0.0
 10
110.1662298986737
 20
-157.3254529771617
 30
0.0
 10
109.9643473032381
 20
-157.3254529771617
 30
0.0
 10
109.9643473032381
 20
-157.3254529771617
 30
0.0
 10
109.9860514047951
 20
-157.0164279121348
 30
0.0
 10
110.150037949893
 20
-156.4982855511532
 30
0.0
 10
110.4962700461606
 20
-155.9925455339185
 30
0.0
 10
110.4962700461606
 20
-155.9925455339185
 30
0.0
 10
109.7821017520683
 20
-155.9925455339185
 30
0.0
 10
109.7821017520683
 20
-155.9925455339185
 30
0.0
 10
109.7821017520683
 20
-155.9925455339185
 30
0.0
 10
109.7821017520683
 20
-155.7810166711242
 30
0.0
 10
109.7821017520683
 20
-155.7810166711242
 30
0.0
 10
109.7821017520683
 20
-155.7810166711242
 30
0.0
 10
110.6981526415963
 20
-155.7810166711242
 30
0.0
 10
110.6981526415963
 20
-155.7810166711242
 30
0.0
 10
110.6981526415963
 20
-155.7810166711242
 30
0.0
 10
110.6981526415963
 20
-155.9925455339185
 30
0.0
 10
110.6981526415963
 20
-155.9925455339185
 30
0.0
 10
110.4225450027763
 20
-156.2826225737765
 30
0.0
 10
110.1951687007498
 20
-156.874834487691
 30
0.0
 10
110.1662298986737
 20
-157.3254529771617
 30
0.0
  0
HATCH
  5
A6
330
9F
100
AcDbEntity
  8
レイヤー 1
 62
    18
420
        0
440
 33554687
100
AcDbHatch
 10
0.0
 20
0.0
 30
0.0
210
0.0
220
0.0
230
1.0
  2
SOLID
 70
     1
 71
     1
 91
        1
 92
        1
 93
        1
 72
     4
 94
        3
 73
     0
 74
     0
 95
       26
 96
       22
 40
0.0
 40
0.0
 40
0.0
 40
0.0
 40
1.0
 40
1.0
 40
1.0
 40
2.0
 40
2.0
 40
2.0
 40
3.0
 40
3.0
 40
3.0
 40
4.0
 40
4.0
 40
4.0
 40
5.0
 40
5.0
 40
5.0
 40
6.0
 40
6.0
 40
6.0
 40
7.0
 40
7.0
 40
7.0
 40
7.0
 10
110.1662298986737
 20
-157.3254529771617
 10
110.1662298986737
 20
-157.3254529771617
 10
109.9643473032381
 20
-157.3254529771617
 10
109.9643473032381
 20
-157.3254529771617
 10
109.9860514047951
 20
-157.0164279121348
 10
110.150037949893
 20
-156.4982855511532
 10
110.4962700461606
 20
-155.9925455339185
 10
110.4962700461606
 20
-155.9925455339185
 10
109.7821017520683
 20
-155.9925455339185
 10
109.7821017520683
 20
-155.9925455339185
 10
109.7821017520683
 20
-155.9925455339185
 10
109.7821017520683
 20
-155.7810166711242
 10
109.7821017520683
 20
-155.7810166711242
 10
109.7821017520683
 20
-155.7810166711242
 10
110.6981526415963
 20
-155.7810166711242
 10
110.6981526415963
 20
-155.7810166711242
 10
110.6981526415963
 20
-155.7810166711242
 10
110.6981526415963
 20
-155.9925455339185
 10
110.6981526415963
 20
-155.9925455339185
 10
110.4225450027763
 20
-156.2826225737765
 10
110.1951687007498
 20
-156.874834487691
 10
110.1662298986737
 20
-157.3254529771617
 97
        0
 97
        1
330
A5
 75
     2
 76
     1
 98
        1
 10
0.0
 20
0.0
450
        0
451
        0
460
0.0
461
0.0
452
        0
462
0.0
453
        0
470

  0
ENDBLK
  5
A2
330
9F
100
AcDbEntity
  8
0
100
AcDbBlockEnd
  0
BLOCK
  5
A9
330
A7
100
AcDbEntity
  8
0
100
AcDbBlockBegin
  2
Block_4
 70
     0
 10
0.0
 20
0.0
 30
0.0
  3
Block_4
  1

  0
LINE
  5
AB
330
A7
100
AcDbEntity
  8
レイヤー 1
 62
    18
420
        0
370
     9
100
AcDbLine
 10
91.18616064713682
 20
-143.3712871743723
 30
0.0
 11
91.18616064713682
 21
-142.3708446998957
 31
0.0
  0
LINE
  5
AC
330
A7
100
AcDbEntity
  8
レイヤー 1
 62
    18
420
        0
370
     9
100
AcDbLine
 10
91.18616064713682
 20
-143.3712871743723
 30
0.0
 11
91.18616064713682
 21
-145.4707382319219
 31
0.0
  0
LINE
  5
AD
330
A7
100
AcDbEntity
  8
レイヤー 1
 62
    18
420
        0
370
     9
100
AcDbLine
 10
92.64620199877665
 20
-143.3712871743723
 30
0.0
 11
90.18607095042902
 21
-143.3712871743723
 31
0.0
  0
LINE
  5
AE
330
A7
100
AcDbEntity
  8
レイヤー 1
 62
    18
420
        0
370
     9
100
AcDbLine
 10
92.64620199877665
 20
-144.470966035206
 30
0.0
 11
90.18607095042902
 21
-144.470966035206
 31
0.0
  0
INSERT
  5
B0
330
A7
100
AcDbEntity
  8
レイヤー 1
100
AcDbBlockReference
  2
Block_5
 10
0.0
 20
0.0
 30
0.0
  0
ENDBLK
  5
AA
330
A7
100
AcDbEntity
  8
0
100
AcDbBlockEnd
  0
BLOCK
  5
B1
330
AF
100
AcDbEntity
  8
0
100
AcDbBlockBegin
  2
Block_5
 70
     0
 10
0.0
 20
0.0
 30
0.0
  3
Block_5
  1

  0
INSERT
  5
B4
330
AF
100
AcDbEntity
  8
レイヤー 1
100
AcDbBlockReference
  2
Block_6
 10
0.0
 20
0.0
 30
0.0
  0
ENDBLK
  5
B2
330
AF
100
AcDbEntity
  8
0
100
AcDbBlockEnd
  0
BLOCK
  5
B5
330
B3
100
AcDbEntity
  8
0
100
AcDbBlockBegin
  2
Block_6
 70
     0
 10
0.0
 20
0.0
 30
0.0
  3
Block_6
  1

  0
SPLINE
  5
B7
330
B3
100
AcDbEntity
  8
レイヤー 1
100
AcDbSpline
210
0.0
220
0.0
230
1.0
 70
    11
 71
     3
 72
    26
 73
    22
 74
     0
 42
0.0000000001
 43
0.0000000001
 40
0.0
 40
0.0
 40
0.0
 40
0.0
 40
1.0
 40
1.0
 40
1.0
 40
2.0
 40
2.0
 40
2.0
 40
3.0
 40
3.0
 40
3.0
 40
4.0
 40
4.0
 40
4.0
 40
5.0
 40
5.0
 40
5.0
 40
6.0
 40
6.0
 40
6.0
 40
7.0
 40
7.0
 40
7.0
 40
7.0
 10
90.53934866443114
 20
-142.6462456240606
 30
0.0
 10
90.53934866443114
 20
-142.6462456240606
 30
0.0
 10
89.43519556140856
 20
-142.6462456240606
 30
0.0
 10
89.43519556140856
 20
-142.6462456240606
 30
0.0
 10
89.43519556140856
 20
-142.6462456240606
 30
0.0
 10
89.43519556140856
 20
-142.9277099252056
 30
0.0
 10
89.43519556140856
 20
-142.9277099252056
 30
0.0
 10
89.43519556140856
 20
-142.9277099252056
 30
0.0
 10
89.28705645554282
 20
-142.9277099252056
 30
0.0
 10
89.28705645554282
 20
-142.9277099252056
 30
0.0
 10
89.27224254495625
 20
-142.644523076318
 30
0.0
 10
89.10928952850394
 20
-142.6049044782376
 30
0.0
 10
88.99491235839363
 20
-142.5797552811953
 30
0.0
 10
88.99491235839363
 20
-142.5797552811953
 30
0.0
 10
88.99491235839363
 20
-142.4550428246293
 30
0.0
 10
88.99491235839363
 20
-142.4550428246293
 30
0.0
 10
88.99491235839363
 20
-142.4550428246293
 30
0.0
 10
90.53934866443114
 20
-142.4550428246293
 30
0.0
 10
90.53934866443114
 20
-142.4550428246293
 30
0.0
 10
90.53934866443114
 20
-142.4550428246293
 30
0.0
 10
90.53934866443114
 20
-142.6462456240606
 30
0.0
 10
90.53934866443114
 20
-142.6462456240606
 30
0.0
  0
HATCH
  5
B8
330
B3
100
AcDbEntity
  8
レイヤー 1
 62
    18
420
        0
440
 33554687
100
AcDbHatch
 10
0.0
 20
0.0
 30
0.0
210
0.0
220
0.0
230
1.0
  2
SOLID
 70
     1
 71
     1
 91
        1
 92
        1
 93
        1
 72
     4
 94
        3
 73
     0
 74
     0
 95
       26
 96
       22
 40
0.0
 40
0.0
 40
0.0
 40
0.0
 40
1.0
 40
1.0
 40
1.0
 40
2.0
 40
2.0
 40
2.0
 40
3.0
 40
3.0
 40
3.0
 40
4.0
 40
4.0
 40
4.0
 40
5.0
 40
5.0
 40
5.0
 40
6.0
 40
6.0
 40
6.0
 40
7.0
 40
7.0
 40
7.0
 40
7.0
 10
90.53934866443114
 20
-142.6462456240606
 10
90.53934866443114
 20
-142.6462456240606
 10
89.43519556140856
 20
-142.6462456240606
 10
89.43519556140856
 20
-142.6462456240606
 10
89.43519556140856
 20
-142.6462456240606
 10
89.43519556140856
 20
-142.9277099252056
 10
89.43519556140856
 20
-142.9277099252056
 10
89.43519556140856
 20
-142.9277099252056
 10
89.28705645554282
 20
-142.9277099252056
 10
89.28705645554282
 20
-142.9277099252056
 10
89.27224254495625
 20
-142.644523076318
 10
89.10928952850394
 20
-142.6049044782376
 10
88.99491235839363
 20
-142.5797552811953
 10
88.99491235839363
 20
-142.5797552811953
 10
88.99491235839363
 20
-142.4550428246293
 10
88.99491235839363
 20
-142.4550428246293
 10
88.99491235839363
 20
-142.4550428246293
 10
90.53934866443114
 20
-142.4550428246293
 10
90.53934866443114
 20
-142.4550428246293
 10
90.53934866443114
 20
-142.4550428246293
 10
90.53934866443114
 20
-142.6462456240606
 10
90.53934866443114
 20
-142.6462456240606
 97
        0
 97
        1
330
B7
 75
     2
 76
     1
 98
        1
 10
0.0
 20
0.0
450
        0
451
        0
460
0.0
461
0.0
452
        0
462
0.0
453
        0
470

  0
SPLINE
  5
B9
330
B3
100
AcDbEntity
  8
レイヤー 1
100
AcDbSpline
210
0.0
220
0.0
230
1.0
 70
    11
 71
     3
 72
    17
 73
    13
 74
     0
 42
0.0000000001
 43
0.0000000001
 40
0.0
 40
0.0
 40
0.0
 40
0.0
 40
1.0
 40
1.0
 40
1.0
 40
2.0
 40
2.0
 40
2.0
 40
3.0
 40
3.0
 40
3.0
 40
4.0
 40
4.0
 40
4.0
 40
4.0
 10
90.53934866443114
 20
-141.9782416094707
 30
0.0
 10
90.53934866443114
 20
-141.9782416094707
 30
0.0
 10
90.28751218445938
 20
-141.9782416094707
 30
0.0
 10
90.28751218445938
 20
-141.9782416094707
 30
0.0
 10
90.28751218445938
 20
-141.9782416094707
 30
0.0
 10
90.28751218445938
 20
-141.7636121607396
 30
0.0
 10
90.28751218445938
 20
-141.7636121607396
 30
0.0
 10
90.28751218445938
 20
-141.7636121607396
 30
0.0
 10
90.53934866443114
 20
-141.7636121607396
 30
0.0
 10
90.53934866443114
 20
-141.7636121607396
 30
0.0
 10
90.53934866443114
 20
-141.7636121607396
 30
0.0
 10
90.53934866443114
 20
-141.9782416094707
 30
0.0
 10
90.53934866443114
 20
-141.9782416094707
 30
0.0
  0
HATCH
  5
BA
330
B3
100
AcDbEntity
  8
レイヤー 1
 62
    18
420
        0
440
 33554687
100
AcDbHatch
 10
0.0
 20
0.0
 30
0.0
210
0.0
220
0.0
230
1.0
  2
SOLID
 70
     1
 71
     1
 91
        1
 92
        1
 93
        1
 72
     4
 94
        3
 73
     0
 74
     0
 95
       17
 96
       13
 40
0.0
 40
0.0
 40
0.0
 40
0.0
 40
1.0
 40
1.0
 40
1.0
 40
2.0
 40
2.0
 40
2.0
 40
3.0
 40
3.0
 40
3.0
 40
4.0
 40
4.0
 40
4.0
 40
4.0
 10
90.53934866443114
 20
-141.9782416094707
 10
90.53934866443114
 20
-141.9782416094707
 10
90.28751218445938
 20
-141.9782416094707
 10
90.28751218445938
 20
-141.9782416094707
 10
90.28751218445938
 20
-141.9782416094707
 10
90.28751218445938
 20
-141.7636121607396
 10
90.28751218445938
 20
-141.7636121607396
 10
90.28751218445938
 20
-141.7636121607396
 10
90.53934866443114
 20
-141.7636121607396
 10
90.53934866443114
 20
-141.7636121607396
 10
90.53934866443114
 20
-141.7636121607396
 10
90.53934866443114
 20
-141.9782416094707
 10
90.53934866443114
 20
-141.9782416094707
 97
        0
 97
        1
330
B9
 75
     2
 76
     1
 98
        1
 10
0.0
 20
0.0
450
        0
451
        0
460
0.0
461
0.0
452
        0
462
0.0
453
        0
470

  0
SPLINE
  5
BB
330
B3
100
AcDbEntity
  8
レイヤー 1
100
AcDbSpline
210
0.0
220
0.0
230
1.0
 70
     9
 71
     3
 72
    17
 73
    13
 74
     0
 42
0.0000000001
 43
0.0000000001
 40
0.0
 40
0.0
 40
0.0
 40
0.0
 40
1.0
 40
1.0
 40
1.0
 40
2.0
 40
2.0
 40
2.0
 40
3.0
 40
3.0
 40
3.0
 40
4.0
 40
4.0
 40
4.0
 40
4.0
 10
89.13891734967709
 20
-141.1362602728756
 30
0.0
 10
89.13891734967709
 20
-141.3488226643156
 30
0.0
 10
89.42244870811313
 20
-141.3887857719444
 30
0.0
 10
89.76730276618665
 20
-141.3887857719444
 30
0.0
 10
90.08666311766932
 20
-141.3887857719444
 30
0.0
 10
90.3953436731477
 20
-141.3581244221257
 30
0.0
 10
90.3953436731477
 20
-141.1362602728756
 30
0.0
 10
90.3953436731477
 20
-140.9250759196298
 30
0.0
 10
90.1142238815513
 20
-140.8837347738068
 30
0.0
 10
89.76730276618665
 20
-140.8837347738068
 30
0.0
 10
89.44759790515545
 20
-140.8837347738068
 30
0.0
 10
89.13891734967709
 20
-140.9161186713682
 30
0.0
 10
89.13891734967709
 20
-141.1362602728756
 30
0.0
  0
SPLINE
  5
BC
330
B3
100
AcDbEntity
  8
レイヤー 1
100
AcDbSpline
210
0.0
220
0.0
230
1.0
 70
     9
 71
     3
 72
    29
 73
    25
 74
     0
 42
0.0000000001
 43
0.0000000001
 40
0.0
 40
0.0
 40
0.0
 40
0.0
 40
1.0
 40
1.0
 40
1.0
 40
2.0
 40
2.0
 40
2.0
 40
3.0
 40
3.0
 40
3.0
 40
4.0
 40
4.0
 40
4.0
 40
5.0
 40
5.0
 40
5.0
 40
6.0
 40
6.0
 40
6.0
 40
7.0
 40
7.0
 40
7.0
 40
8.0
 40
8.0
 40
8.0
 40
8.0
 10
90.36158173739224
 20
-140.7972628771271
 30
0.0
 10
90.57104354289544
 20
-140.8892469265832
 30
0.0
 10
90.5899915680643
 20
-141.0370415229004
 30
0.0
 10
90.5899915680643
 20
-141.1362602728756
 30
0.0
 10
90.5899915680643
 20
-141.2733750731886
 30
0.0
 10
90.54348277901345
 20
-141.3939534151723
 30
0.0
 10
90.36158173739224
 20
-141.4752576686242
 30
0.0
 10
90.16693384247563
 20
-141.5634521130466
 30
0.0
 10
89.92991127309045
 20
-141.5796440618273
 30
0.0
 10
89.76730276618665
 20
-141.5796440618273
 30
0.0
 10
89.62329777490321
 20
-141.5796440618273
 30
0.0
 10
89.37146129493145
 20
-141.5655191703377
 30
0.0
 10
89.17267928543251
 20
-141.4752576686242
 30
0.0
 10
88.9697631613513
 20
-141.3832736191681
 30
0.0
 10
88.94633651205161
 20
-141.2461588188551
 30
0.0
 10
88.94633651205161
 20
-141.1362602728756
 30
0.0
 10
88.94633651205161
 20
-141.0008680203053
 30
0.0
 10
88.99077824381134
 20
-140.8782226210304
 30
0.0
 10
89.17267928543251
 20
-140.7972628771271
 30
0.0
 10
89.36526012305799
 20
-140.7125135281899
 30
0.0
 10
89.59366995373006
 20
-140.6925319743755
 30
0.0
 10
89.76730276618665
 20
-140.6925319743755
 30
0.0
 10
89.93852401180356
 20
-140.6925319743755
 30
0.0
 10
90.16900089976678
 20
-140.7107909804473
 30
0.0
 10
90.36158173739224
 20
-140.7972628771271
 30
0.0
  0
HATCH
  5
BD
330
B3
100
AcDbEntity
  8
レイヤー 1
 62
    18
420
        0
440
 33554687
100
AcDbHatch
 10
0.0
 20
0.0
 30
0.0
210
0.0
220
0.0
230
1.0
  2
SOLID
 70
     1
 71
     1
 91
        2
 92
        1
 93
        1
 72
     4
 94
        3
 73
     0
 74
     0
 95
       17
 96
       13
 40
0.0
 40
0.0
 40
0.0
 40
0.0
 40
1.0
 40
1.0
 40
1.0
 40
2.0
 40
2.0
 40
2.0
 40
3.0
 40
3.0
 40
3.0
 40
4.0
 40
4.0
 40
4.0
 40
4.0
 10
89.13891734967709
 20
-141.1362602728756
 10
89.13891734967709
 20
-141.3488226643156
 10
89.42244870811313
 20
-141.3887857719444
 10
89.76730276618665
 20
-141.3887857719444
 10
90.08666311766932
 20
-141.3887857719444
 10
90.3953436731477
 20
-141.3581244221257
 10
90.3953436731477
 20
-141.1362602728756
 10
90.3953436731477
 20
-140.9250759196298
 10
90.1142238815513
 20
-140.8837347738068
 10
89.76730276618665
 20
-140.8837347738068
 10
89.44759790515545
 20
-140.8837347738068
 10
89.13891734967709
 20
-140.9161186713682
 10
89.13891734967709
 20
-141.1362602728756
 97
        0
 97
        1
330
BB
 92
        1
 93
        1
 72
     4
 94
        3
 73
     0
 74
     0
 95
       29
 96
       25
 40
0.0
 40
0.0
 40
0.0
 40
0.0
 40
1.0
 40
1.0
 40
1.0
 40
2.0
 40
2.0
 40
2.0
 40
3.0
 40
3.0
 40
3.0
 40
4.0
 40
4.0
 40
4.0
 40
5.0
 40
5.0
 40
5.0
 40
6.0
 40
6.0
 40
6.0
 40
7.0
 40
7.0
 40
7.0
 40
8.0
 40
8.0
 40
8.0
 40
8.0
 10
90.36158173739224
 20
-140.7972628771271
 10
90.57104354289544
 20
-140.8892469265832
 10
90.5899915680643
 20
-141.0370415229004
 10
90.5899915680643
 20
-141.1362602728756
 10
90.5899915680643
 20
-141.2733750731886
 10
90.54348277901345
 20
-141.3939534151723
 10
90.36158173739224
 20
-141.4752576686242
 10
90.16693384247563
 20
-141.5634521130466
 10
89.92991127309045
 20
-141.5796440618273
 10
89.76730276618665
 20
-141.5796440618273
 10
89.62329777490321
 20
-141.5796440618273
 10
89.37146129493145
 20
-141.5655191703377
 10
89.17267928543251
 20
-141.4752576686242
 10
88.9697631613513
 20
-141.3832736191681
 10
88.94633651205161
 20
-141.2461588188551
 10
88.94633651205161
 20
-141.1362602728756
 10
88.94633651205161
 20
-141.0008680203053
 10
88.99077824381134
 20
-140.8782226210304
 10
89.17267928543251
 20
-140.7972628771271
 10
89.36526012305799
 20
-140.7125135281899
 10
89.59366995373006
 20
-140.6925319743755
 10
89.76730276618665
 20
-140.6925319743755
 10
89.93852401180356
 20
-140.6925319743755
 10
90.16900089976678
 20
-140.7107909804473
 10
90.36158173739224
 20
-140.7972628771271
 97
        0
 97
        1
330
BC
 75
     2
 76
     1
 98
        1
 10
0.0
 20
0.0
450
        0
451
        0
460
0.0
461
0.0
452
        0
462
0.0
453
        0
470

  0
ENDBLK
  5
B6
330
B3
100
AcDbEntity
  8
0
100
AcDbBlockEnd
  0
BLOCK
  5
C0
330
BE
100
AcDbEntity
  8
0
100
AcDbBlockBegin
  2
Block_7
 70
     0
 10
0.0
 20
0.0
 30
0.0
  3
Block_7
  1

  0
LINE
  5
C2
330
BE
100
AcDbEntity
  8
レイヤー 1
 62
    18
420
        0
370
     9
100
AcDbLine
 10
122.2332148550602
 20
-153.2711133106955
 30
0.0
 11
122.2332148550602
 21
-154.2708855074114
 31
0.0
  0
LINE
  5
C3
330
BE
100
AcDbEntity
  8
レイヤー 1
 62
    18
420
        0
370
     9
100
AcDbLine
 10
122.2332148550602
 20
-152.8714866542242
 30
0.0
 11
122.2332148550602
 21
-153.2711133106955
 31
0.0
  0
LINE
  5
C4
330
BE
100
AcDbEntity
  8
レイヤー 1
 62
    18
420
        0
370
     9
100
AcDbLine
 10
120.77317350342
 20
-152.8714866542242
 30
0.0
 11
123.2329546146545
 21
-152.8714866542242
 31
0.0
  0
LINE
  5
C5
330
BE
100
AcDbEntity
  8
レイヤー 1
 62
    18
420
        0
370
     9
100
AcDbLine
 10
120.77317350342
 20
-153.2711133106955
 30
0.0
 11
123.2329546146545
 21
-153.2711133106955
 31
0.0
  0
INSERT
  5
C7
330
BE
100
AcDbEntity
  8
レイヤー 1
100
AcDbBlockReference
  2
Block_8
 10
0.0
 20
0.0
 30
0.0
  0
ENDBLK
  5
C1
330
BE
100
AcDbEntity
  8
0
100
AcDbBlockEnd
  0
BLOCK
  5
C8
330
C6
100
AcDbEntity
  8
0
100
AcDbBlockBegin
  2
Block_8
 70
     0
 10
0.0
 20
0.0
 30
0.0
  3
Block_8
  1

  0
INSERT
  5
CB
330
C6
100
AcDbEntity
  8
レイヤー 1
100
AcDbBlockReference
  2
Block_9
 10
0.0
 20
0.0
 30
0.0
  0
ENDBLK
  5
C9
330
C6
100
AcDbEntity
  8
0
100
AcDbBlockEnd
  0
BLOCK
  5
CC
330
CA
100
AcDbEntity
  8
0
100
AcDbBlockBegin
  2
Block_9
 70
     0
 10
0.0
 20
0.0
 30
0.0
  3
Block_9
  1

  0
SPLINE
  5
CE
330
CA
100
AcDbEntity
  8
レイヤー 1
100
AcDbSpline
210
0.0
220
0.0
230
1.0
 70
     9
 71
     3
 72
    17
 73
    13
 74
     0
 42
0.0000000001
 43
0.0000000001
 40
0.0
 40
0.0
 40
0.0
 40
0.0
 40
1.0
 40
1.0
 40
1.0
 40
2.0
 40
2.0
 40
2.0
 40
3.0
 40
3.0
 40
3.0
 40
4.0
 40
4.0
 40
4.0
 40
4.0
 10
119.6636691324105
 20
-153.9182535422496
 30
0.0
 10
119.6636691324105
 20
-154.1308159336895
 30
0.0
 10
119.9472004908465
 20
-154.1707790413184
 30
0.0
 10
120.29205454892
 20
-154.1707790413184
 30
0.0
 10
120.6114149004027
 20
-154.1707790413184
 30
0.0
 10
120.9200954558811
 20
-154.1401176914997
 30
0.0
 10
120.9200954558811
 20
-153.9182535422496
 30
0.0
 10
120.9200954558811
 20
-153.7070691890038
 30
0.0
 10
120.6389756642847
 20
-153.6657280431808
 30
0.0
 10
120.29205454892
 20
-153.6657280431808
 30
0.0
 10
119.9723496878888
 20
-153.6657280431808
 30
0.0
 10
119.6636691324105
 20
-153.6981119407421
 30
0.0
 10
119.6636691324105
 20
-153.9182535422496
 30
0.0
  0
SPLINE
  5
CF
330
CA
100
AcDbEntity
  8
レイヤー 1
100
AcDbSpline
210
0.0
220
0.0
230
1.0
 70
     9
 71
     3
 72
    29
 73
    25
 74
     0
 42
0.0000000001
 43
0.0000000001
 40
0.0
 40
0.0
 40
0.0
 40
0.0
 40
1.0
 40
1.0
 40
1.0
 40
2.0
 40
2.0
 40
2.0
 40
3.0
 40
3.0
 40
3.0
 40
4.0
 40
4.0
 40
4.0
 40
5.0
 40
5.0
 40
5.0
 40
6.0
 40
6.0
 40
6.0
 40
7.0
 40
7.0
 40
7.0
 40
8.0
 40
8.0
 40
8.0
 40
8.0
 10
120.8863335201256
 20
-153.579256146501
 30
0.0
 10
121.0957953256288
 20
-153.6712401959572
 30
0.0
 10
121.1147433507977
 20
-153.8190347922744
 30
0.0
 10
121.1147433507977
 20
-153.9182535422496
 30
0.0
 10
121.1147433507977
 20
-154.0553683425625
 30
0.0
 10
121.0682345617468
 20
-154.1759466845463
 30
0.0
 10
120.8863335201256
 20
-154.2572509379982
 30
0.0
 10
120.691685625209
 20
-154.3454453824206
 30
0.0
 10
120.4550075653723
 20
-154.3616373312012
 30
0.0
 10
120.29205454892
 20
-154.3616373312012
 30
0.0
 10
120.1480495576366
 20
-154.3616373312012
 30
0.0
 10
119.8962130776648
 20
-154.3475124397117
 30
0.0
 10
119.6974310681659
 20
-154.2572509379982
 30
0.0
 10
119.4945149440847
 20
-154.165266888542
 30
0.0
 10
119.471088294785
 20
-154.0281520882291
 30
0.0
 10
119.471088294785
 20
-153.9182535422496
 30
0.0
 10
119.471088294785
 20
-153.7828612896793
 30
0.0
 10
119.5155300265447
 20
-153.6602158904044
 30
0.0
 10
119.6974310681659
 20
-153.579256146501
 30
0.0
 10
119.8900119057914
 20
-153.4945067975638
 30
0.0
 10
120.1184217364634
 20
-153.4745252437494
 30
0.0
 10
120.29205454892
 20
-153.4745252437494
 30
0.0
 10
120.4632757945369
 20
-153.4745252437494
 30
0.0
 10
120.6937526825001
 20
-153.4927842498212
 30
0.0
 10
120.8863335201256
 20
-153.579256146501
 30
0.0
  0
HATCH
  5
D0
330
CA
100
AcDbEntity
  8
レイヤー 1
 62
    18
420
        0
440
 33554687
100
AcDbHatch
 10
0.0
 20
0.0
 30
0.0
210
0.0
220
0.0
230
1.0
  2
SOLID
 70
     1
 71
     1
 91
        2
 92
        1
 93
        1
 72
     4
 94
        3
 73
     0
 74
     0
 95
       17
 96
       13
 40
0.0
 40
0.0
 40
0.0
 40
0.0
 40
1.0
 40
1.0
 40
1.0
 40
2.0
 40
2.0
 40
2.0
 40
3.0
 40
3.0
 40
3.0
 40
4.0
 40
4.0
 40
4.0
 40
4.0
 10
119.6636691324105
 20
-153.9182535422496
 10
119.6636691324105
 20
-154.1308159336895
 10
119.9472004908465
 20
-154.1707790413184
 10
120.29205454892
 20
-154.1707790413184
 10
120.6114149004027
 20
-154.1707790413184
 10
120.9200954558811
 20
-154.1401176914997
 10
120.9200954558811
 20
-153.9182535422496
 10
120.9200954558811
 20
-153.7070691890038
 10
120.6389756642847
 20
-153.6657280431808
 10
120.29205454892
 20
-153.6657280431808
 10
119.9723496878888
 20
-153.6657280431808
 10
119.6636691324105
 20
-153.6981119407421
 10
119.6636691324105
 20
-153.9182535422496
 97
        0
 97
        1
330
CE
 92
        1
 93
        1
 72
     4
 94
        3
 73
     0
 74
     0
 95
       29
 96
       25
 40
0.0
 40
0.0
 40
0.0
 40
0.0
 40
1.0
 40
1.0
 40
1.0
 40
2.0
 40
2.0
 40
2.0
 40
3.0
 40
3.0
 40
3.0
 40
4.0
 40
4.0
 40
4.0
 40
5.0
 40
5.0
 40
5.0
 40
6.0
 40
6.0
 40
6.0
 40
7.0
 40
7.0
 40
7.0
 40
8.0
 40
8.0
 40
8.0
 40
8.0
 10
120.8863335201256
 20
-153.579256146501
 10
121.0957953256288
 20
-153.6712401959572
 10
121.1147433507977
 20
-153.8190347922744
 10
121.1147433507977
 20
-153.9182535422496
 10
121.1147433507977
 20
-154.0553683425625
 10
121.0682345617468
 20
-154.1759466845463
 10
120.8863335201256
 20
-154.2572509379982
 10
120.691685625209
 20
-154.3454453824206
 10
120.4550075653723
 20
-154.3616373312012
 10
120.29205454892
 20
-154.3616373312012
 10
120.1480495576366
 20
-154.3616373312012
 10
119.8962130776648
 20
-154.3475124397117
 10
119.6974310681659
 20
-154.2572509379982
 10
119.4945149440847
 20
-154.165266888542
 10
119.471088294785
 20
-154.0281520882291
 10
119.471088294785
 20
-153.9182535422496
 10
119.471088294785
 20
-153.7828612896793
 10
119.5155300265447
 20
-153.6602158904044
 10
119.6974310681659
 20
-153.579256146501
 10
119.8900119057914
 20
-153.4945067975638
 10
120.1184217364634
 20
-153.4745252437494
 10
120.29205454892
 20
-153.4745252437494
 10
120.4632757945369
 20
-153.4745252437494
 10
120.6937526825001
 20
-153.4927842498212
 10
120.8863335201256
 20
-153.579256146501
 97
        0
 97
        1
330
CF
 75
     2
 76
     1
 98
        1
 10
0.0
 20
0.0
450
        0
451
        0
460
0.0
461
0.0
452
        0
462
0.0
453
        0
470

  0
SPLINE
  5
D1
330
CA
100
AcDbEntity
  8
レイヤー 1
100
AcDbSpline
210
0.0
220
0.0
230
1.0
 70
    11
 71
     3
 72
    17
 73
    13
 74
     0
 42
0.0000000001
 43
0.0000000001
 40
0.0
 40
0.0
 40
0.0
 40
0.0
 40
1.0
 40
1.0
 40
1.0
 40
2.0
 40
2.0
 40
2.0
 40
3.0
 40
3.0
 40
3.0
 40
4.0
 40
4.0
 40
4.0
 40
4.0
 10
121.0641004471645
 20
-153.2915906734826
 30
0.0
 10
121.0641004471645
 20
-153.2915906734826
 30
0.0
 10
120.8122639671928
 20
-153.2915906734826
 30
0.0
 10
120.8122639671928
 20
-153.2915906734826
 30
0.0
 10
120.8122639671928
 20
-153.2915906734826
 30
0.0
 10
120.8122639671928
 20
-153.0769612247516
 30
0.0
 10
120.8122639671928
 20
-153.0769612247516
 30
0.0
 10
120.8122639671928
 20
-153.0769612247516
 30
0.0
 10
121.0641004471645
 20
-153.0769612247516
 30
0.0
 10
121.0641004471645
 20
-153.0769612247516
 30
0.0
 10
121.0641004471645
 20
-153.0769612247516
 30
0.0
 10
121.0641004471645
 20
-153.2915906734826
 30
0.0
 10
121.0641004471645
 20
-153.2915906734826
 30
0.0
  0
HATCH
  5
D2
330
CA
100
AcDbEntity
  8
レイヤー 1
 62
    18
420
        0
440
 33554687
100
AcDbHatch
 10
0.0
 20
0.0
 30
0.0
210
0.0
220
0.0
230
1.0
  2
SOLID
 70
     1
 71
     1
 91
        1
 92
        1
 93
        1
 72
     4
 94
        3
 73
     0
 74
     0
 95
       17
 96
       13
 40
0.0
 40
0.0
 40
0.0
 40
0.0
 40
1.0
 40
1.0
 40
1.0
 40
2.0
 40
2.0
 40
2.0
 40
3.0
 40
3.0
 40
3.0
 40
4.0
 40
4.0
 40
4.0
 40
4.0
 10
121.0641004471645
 20
-153.2915906734826
 10
121.0641004471645
 20
-153.2915906734826
 10
120.8122639671928
 20
-153.2915906734826
 10
120.8122639671928
 20
-153.2915906734826
 10
120.8122639671928
 20
-153.2915906734826
 10
120.8122639671928
 20
-153.0769612247516
 10
120.8122639671928
 20
-153.0769612247516
 10
120.8122639671928
 20
-153.0769612247516
 10
121.0641004471645
 20
-153.0769612247516
 10
121.0641004471645
 20
-153.0769612247516
 10
121.0641004471645
 20
-153.0769612247516
 10
121.0641004471645
 20
-153.2915906734826
 10
121.0641004471645
 20
-153.2915906734826
 97
        0
 97
        1
330
D1
 75
     2
 76
     1
 98
        1
 10
0.0
 20
0.0
450
        0
451
        0
460
0.0
461
0.0
452
        0
462
0.0
453
        0
470

  0
SPLINE
  5
D3
330
CA
100
AcDbEntity
  8
レイヤー 1
100
AcDbSpline
210
0.0
220
0.0
230
1.0
 70
    11
 71
     3
 72
    14
 73
    10
 74
     0
 42
0.0000000001
 43
0.0000000001
 40
0.0
 40
0.0
 40
0.0
 40
0.0
 40
1.0
 40
1.0
 40
1.0
 40
2.0
 40
2.0
 40
2.0
 40
3.0
 40
3.0
 40
3.0
 40
3.0
 10
119.8624511419094
 20
-152.352113134655
 30
0.0
 10
119.8624511419094
 20
-152.352113134655
 30
0.0
 10
120.5183973223009
 20
-152.7417534340368
 30
0.0
 10
120.5183973223009
 20
-152.7417534340368
 30
0.0
 10
120.5183973223009
 20
-152.7417534340368
 30
0.0
 10
120.5183973223009
 20
-152.352113134655
 30
0.0
 10
120.5183973223009
 20
-152.352113134655
 30
0.0
 10
120.5183973223009
 20
-152.352113134655
 30
0.0
 10
119.8624511419094
 20
-152.352113134655
 30
0.0
 10
119.8624511419094
 20
-152.352113134655
 30
0.0
  0
SPLINE
  5
D4
330
CA
100
AcDbEntity
  8
レイヤー 1
100
AcDbSpline
210
0.0
220
0.0
230
1.0
 70
    11
 71
     3
 72
    38
 73
    34
 74
     0
 42
0.0000000001
 43
0.0000000001
 40
0.0
 40
0.0
 40
0.0
 40
0.0
 40
1.0
 40
1.0
 40
1.0
 40
2.0
 40
2.0
 40
2.0
 40
3.0
 40
3.0
 40
3.0
 40
4.0
 40
4.0
 40
4.0
 40
5.0
 40
5.0
 40
5.0
 40
6.0
 40
6.0
 40
6.0
 40
7.0
 40
7.0
 40
7.0
 40
8.0
 40
8.0
 40
8.0
 40
9.0
 40
9.0
 40
9.0
 40
10.0
 40
10.0
 40
10.0
 40
11.0
 40
11.0
 40
11.0
 40
11.0
 10
120.7171793317999
 20
-152.1664224880001
 30
0.0
 10
120.7171793317999
 20
-152.1664224880001
 30
0.0
 10
121.0641004471645
 20
-152.1664224880001
 30
0.0
 10
121.0641004471645
 20
-152.1664224880001
 30
0.0
 10
121.0641004471645
 20
-152.1664224880001
 30
0.0
 10
121.0641004471645
 20
-152.352113134655
 30
0.0
 10
121.0641004471645
 20
-152.352113134655
 30
0.0
 10
121.0641004471645
 20
-152.352113134655
 30
0.0
 10
120.7171793317999
 20
-152.352113134655
 30
0.0
 10
120.7171793317999
 20
-152.352113134655
 30
0.0
 10
120.7171793317999
 20
-152.352113134655
 30
0.0
 10
120.7171793317999
 20
-152.9112521319111
 30
0.0
 10
120.7171793317999
 20
-152.9112521319111
 30
0.0
 10
120.7171793317999
 20
-152.9112521319111
 30
0.0
 10
120.4929036157101
 20
-152.9112521319111
 30
0.0
 10
120.4929036157101
 20
-152.9112521319111
 30
0.0
 10
120.4929036157101
 20
-152.9112521319111
 30
0.0
 10
119.519664141127
 20
-152.3324760903891
 30
0.0
 10
119.519664141127
 20
-152.3324760903891
 30
0.0
 10
119.519664141127
 20
-152.3324760903891
 30
0.0
 10
119.519664141127
 20
-152.1664224880001
 30
0.0
 10
119.519664141127
 20
-152.1664224880001
 30
0.0
 10
119.519664141127
 20
-152.1664224880001
 30
0.0
 10
120.5183973223009
 20
-152.1664224880001
 30
0.0
 10
120.5183973223009
 20
-152.1664224880001
 30
0.0
 10
120.5183973223009
 20
-152.1664224880001
 30
0.0
 10
120.5183973223009
 20
-151.9896890896067
 30
0.0
 10
120.5183973223009
 20
-151.9896890896067
 30
0.0
 10
120.5183973223009
 20
-151.9896890896067
 30
0.0
 10
120.7171793317999
 20
-151.9896890896067
 30
0.0
 10
120.7171793317999
 20
-151.9896890896067
 30
0.0
 10
120.7171793317999
 20
-151.9896890896067
 30
0.0
 10
120.7171793317999
 20
-152.1664224880001
 30
0.0
 10
120.7171793317999
 20
-152.1664224880001
 30
0.0
  0
HATCH
  5
D5
330
CA
100
AcDbEntity
  8
レイヤー 1
 62
    18
420
        0
440
 33554687
100
AcDbHatch
 10
0.0
 20
0.0
 30
0.0
210
0.0
220
0.0
230
1.0
  2
SOLID
 70
     1
 71
     1
 91
        2
 92
        1
 93
        1
 72
     4
 94
        3
 73
     0
 74
     0
 95
       14
 96
       10
 40
0.0
 40
0.0
 40
0.0
 40
0.0
 40
1.0
 40
1.0
 40
1.0
 40
2.0
 40
2.0
 40
2.0
 40
3.0
 40
3.0
 40
3.0
 40
3.0
 10
119.8624511419094
 20
-152.352113134655
 10
119.8624511419094
 20
-152.352113134655
 10
120.5183973223009
 20
-152.7417534340368
 10
120.5183973223009
 20
-152.7417534340368
 10
120.5183973223009
 20
-152.7417534340368
 10
120.5183973223009
 20
-152.352113134655
 10
120.5183973223009
 20
-152.352113134655
 10
120.5183973223009
 20
-152.352113134655
 10
119.8624511419094
 20
-152.352113134655
 10
119.8624511419094
 20
-152.352113134655
 97
        0
 97
        1
330
D3
 92
        1
 93
        1
 72
     4
 94
        3
 73
     0
 74
     0
 95
       38
 96
       34
 40
0.0
 40
0.0
 40
0.0
 40
0.0
 40
1.0
 40
1.0
 40
1.0
 40
2.0
 40
2.0
 40
2.0
 40
3.0
 40
3.0
 40
3.0
 40
4.0
 40
4.0
 40
4.0
 40
5.0
 40
5.0
 40
5.0
 40
6.0
 40
6.0
 40
6.0
 40
7.0
 40
7.0
 40
7.0
 40
8.0
 40
8.0
 40
8.0
 40
9.0
 40
9.0
 40
9.0
 40
10.0
 40
10.0
 40
10.0
 40
11.0
 40
11.0
 40
11.0
 40
11.0
 10
120.7171793317999
 20
-152.1664224880001
 10
120.7171793317999
 20
-152.1664224880001
 10
121.0641004471645
 20
-152.1664224880001
 10
121.0641004471645
 20
-152.1664224880001
 10
121.0641004471645
 20
-152.1664224880001
 10
121.0641004471645
 20
-152.352113134655
 10
121.0641004471645
 20
-152.352113134655
 10
121.0641004471645
 20
-152.352113134655
 10
120.7171793317999
 20
-152.352113134655
 10
120.7171793317999
 20
-152.352113134655
 10
120.7171793317999
 20
-152.352113134655
 10
120.7171793317999
 20
-152.9112521319111
 10
120.7171793317999
 20
-152.9112521319111
 10
120.7171793317999
 20
-152.9112521319111
 10
120.4929036157101
 20
-152.9112521319111
 10
120.4929036157101
 20
-152.9112521319111
 10
120.4929036157101
 20
-152.9112521319111
 10
119.519664141127
 20
-152.3324760903891
 10
119.519664141127
 20
-152.3324760903891
 10
119.519664141127
 20
-152.3324760903891
 10
119.519664141127
 20
-152.1664224880001
 10
119.519664141127
 20
-152.1664224880001
 10
119.519664141127
 20
-152.1664224880001
 10
120.5183973223009
 20
-152.1664224880001
 10
120.5183973223009
 20
-152.1664224880001
 10
120.5183973223009
 20
-152.1664224880001
 10
120.5183973223009
 20
-151.9896890896067
 10
120.5183973223009
 20
-151.9896890896067
 10
120.5183973223009
 20
-151.9896890896067
 10
120.7171793317999
 20
-151.9896890896067
 10
120.7171793317999
 20
-151.9896890896067
 10
120.7171793317999
 20
-151.9896890896067
 10
120.7171793317999
 20
-152.1664224880001
 10
120.7171793317999
 20
-152.1664224880001
 97
        0
 97
        1
330
D4
 75
     2
 76
     1
 98
        1
 10
0.0
 20
0.0
450
        0
451
        0
460
0.0
461
0.0
452
        0
462
0.0
453
        0
470

  0
ENDBLK
  5
CD
330
CA
100
AcDbEntity
  8
0
100
AcDbBlockEnd
  0
BLOCK
  5
DB
330
D9
100
AcDbEntity
  8
0
100
AcDbBlockBegin
  2
Block_10
 70
     0
 10
0.0
 20
0.0
 30
0.0
  3
Block_10
  1

  0
LINE
  5
DD
330
D9
100
AcDbEntity
  8
レイヤー 1
 62
    18
420
        0
370
     9
100
AcDbLine
 10
122.2332148550602
 20
-143.3712871743723
 30
0.0
 11
122.2332148550602
 21
-152.8714866542242
 31
0.0
  0
LINE
  5
DE
330
D9
100
AcDbEntity
  8
レイヤー 1
 62
    18
420
        0
370
     9
100
AcDbLine
 10
104.8731972423955
 20
-143.3712871743723
 30
0.0
 11
123.2329546146545
 21
-143.3712871743723
 31
0.0
  0
INSERT
  5
E0
330
D9
100
AcDbEntity
  8
レイヤー 1
100
AcDbBlockReference
  2
Block_11
 10
0.0
 20
0.0
 30
0.0
  0
ENDBLK
  5
DC
330
D9
100
AcDbEntity
  8
0
100
AcDbBlockEnd
  0
BLOCK
  5
E1
330
DF
100
AcDbEntity
  8
0
100
AcDbBlockBegin
  2
Block_11
 70
     0
 10
0.0
 20
0.0
 30
0.0
  3
Block_11
  1

  0
INSERT
  5
E4
330
DF
100
AcDbEntity
  8
レイヤー 1
100
AcDbBlockReference
  2
Block_12
 10
0.0
 20
0.0
 30
0.0
  0
ENDBLK
  5
E2
330
DF
100
AcDbEntity
  8
0
100
AcDbBlockEnd
  0
BLOCK
  5
E5
330
E3
100
AcDbEntity
  8
0
100
AcDbBlockBegin
  2
Block_12
 70
     0
 10
0.0
 20
0.0
 30
0.0
  3
Block_12
  1

  0
SPLINE
  5
E7
330
E3
100
AcDbEntity
  8
レイヤー 1
100
AcDbSpline
210
0.0
220
0.0
230
1.0
 70
     9
 71
     3
 72
    17
 73
    13
 74
     0
 42
0.0000000001
 43
0.0000000001
 40
0.0
 40
0.0
 40
0.0
 40
0.0
 40
1.0
 40
1.0
 40
1.0
 40
2.0
 40
2.0
 40
2.0
 40
3.0
 40
3.0
 40
3.0
 40
4.0
 40
4.0
 40
4.0
 40
4.0
 10
119.6636691324105
 20
-148.9449136997429
 30
0.0
 10
119.6636691324105
 20
-149.0458549974607
 30
0.0
 10
119.7208577174656
 20
-149.1957166510691
 30
0.0
 10
120.0064561331928
 20
-149.1957166510691
 30
0.0
 10
120.2327989065737
 20
-149.1957166510691
 30
0.0
 10
120.3278835419666
 20
-149.0765163472795
 30
0.0
 10
120.3278835419666
 20
-148.9611056485236
 30
0.0
 10
120.3278835419666
 20
-148.7375189515309
 30
0.0
 10
120.1184217364634
 20
-148.7051350539696
 30
0.0
 10
120.001977509062
 20
-148.7051350539696
 30
0.0
 10
119.8266221488628
 20
-148.7051350539696
 30
0.0
 10
119.6636691324105
 20
-148.7860947978729
 30
0.0
 10
119.6636691324105
 20
-148.9449136997429
 30
0.0
  0
SPLINE
  5
E8
330
E3
100
AcDbEntity
  8
レイヤー 1
100
AcDbSpline
210
0.0
220
0.0
230
1.0
 70
     9
 71
     3
 72
    32
 73
    28
 74
     0
 42
0.0000000001
 43
0.0000000001
 40
0.0
 40
0.0
 40
0.0
 40
0.0
 40
1.0
 40
1.0
 40
1.0
 40
2.0
 40
2.0
 40
2.0
 40
3.0
 40
3.0
 40
3.0
 40
4.0
 40
4.0
 40
4.0
 40
5.0
 40
5.0
 40
5.0
 40
6.0
 40
6.0
 40
6.0
 40
7.0
 40
7.0
 40
7.0
 40
8.0
 40
8.0
 40
8.0
 40
9.0
 40
9.0
 40
9.0
 40
9.0
 10
121.1147433507977
 20
-148.9793646545954
 30
0.0
 10
121.1147433507977
 20
-149.1271592509126
 30
0.0
 10
121.0451524219956
 20
-149.3362765468673
 30
0.0
 10
120.7130452172176
 20
-149.3686604444287
 30
0.0
 10
120.7130452172176
 20
-149.3686604444287
 30
0.0
 10
120.7130452172176
 20
-149.1864148932589
 30
0.0
 10
120.7130452172176
 20
-149.1864148932589
 30
0.0
 10
120.7723008595638
 20
-149.1774576449973
 30
0.0
 10
120.9200954558811
 20
-149.1505859002123
 30
0.0
 10
120.9200954558811
 20
-148.9772975973043
 30
0.0
 10
120.9200954558811
 20
-148.7285617032692
 30
0.0
 10
120.5900553083941
 20
-148.6961778057079
 30
0.0
 10
120.3850721270218
 20
-148.6851535001551
 30
0.0
 10
120.4653428518281
 20
-148.7626681485732
 30
0.0
 10
120.5225314368832
 20
-148.8205457527254
 30
0.0
 10
120.5225314368832
 20
-148.9755750495616
 30
0.0
 10
120.5225314368832
 20
-149.1288817986553
 30
0.0
 10
120.4167670054861
 20
-149.3869194505005
 30
0.0
 10
120.0105902477751
 20
-149.3869194505005
 30
0.0
 10
119.6912298962924
 20
-149.3869194505005
 30
0.0
 10
119.471088294785
 20
-149.2170762430777
 30
0.0
 10
119.471088294785
 20
-148.9466362474855
 30
0.0
 10
119.471088294785
 20
-148.5084201017618
 30
0.0
 10
120.0254041583617
 20
-148.4994628535001
 30
0.0
 10
120.2390000784472
 20
-148.4994628535001
 30
0.0
 10
120.4694769664104
 20
-148.4994628535001
 30
0.0
 10
121.1147433507977
 20
-148.5156548022808
 30
0.0
 10
121.1147433507977
 20
-148.9793646545954
 30
0.0
  0
HATCH
  5
E9
330
E3
100
AcDbEntity
  8
レイヤー 1
 62
    18
420
        0
440
 33554687
100
AcDbHatch
 10
0.0
 20
0.0
 30
0.0
210
0.0
220
0.0
230
1.0
  2
SOLID
 70
     1
 71
     1
 91
        2
 92
        1
 93
        1
 72
     4
 94
        3
 73
     0
 74
     0
 95
       17
 96
       13
 40
0.0
 40
0.0
 40
0.0
 40
0.0
 40
1.0
 40
1.0
 40
1.0
 40
2.0
 40
2.0
 40
2.0
 40
3.0
 40
3.0
 40
3.0
 40
4.0
 40
4.0
 40
4.0
 40
4.0
 10
119.6636691324105
 20
-148.9449136997429
 10
119.6636691324105
 20
-149.0458549974607
 10
119.7208577174656
 20
-149.1957166510691
 10
120.0064561331928
 20
-149.1957166510691
 10
120.2327989065737
 20
-149.1957166510691
 10
120.3278835419666
 20
-149.0765163472795
 10
120.3278835419666
 20
-148.9611056485236
 10
120.3278835419666
 20
-148.7375189515309
 10
120.1184217364634
 20
-148.7051350539696
 10
120.001977509062
 20
-148.7051350539696
 10
119.8266221488628
 20
-148.7051350539696
 10
119.6636691324105
 20
-148.7860947978729
 10
119.6636691324105
 20
-148.9449136997429
 97
        0
 97
        1
330
E7
 92
        1
 93
        1
 72
     4
 94
        3
 73
     0
 74
     0
 95
       32
 96
       28
 40
0.0
 40
0.0
 40
0.0
 40
0.0
 40
1.0
 40
1.0
 40
1.0
 40
2.0
 40
2.0
 40
2.0
 40
3.0
 40
3.0
 40
3.0
 40
4.0
 40
4.0
 40
4.0
 40
5.0
 40
5.0
 40
5.0
 40
6.0
 40
6.0
 40
6.0
 40
7.0
 40
7.0
 40
7.0
 40
8.0
 40
8.0
 40
8.0
 40
9.0
 40
9.0
 40
9.0
 40
9.0
 10
121.1147433507977
 20
-148.9793646545954
 10
121.1147433507977
 20
-149.1271592509126
 10
121.0451524219956
 20
-149.3362765468673
 10
120.7130452172176
 20
-149.3686604444287
 10
120.7130452172176
 20
-149.3686604444287
 10
120.7130452172176
 20
-149.1864148932589
 10
120.7130452172176
 20
-149.1864148932589
 10
120.7723008595638
 20
-149.1774576449973
 10
120.9200954558811
 20
-149.1505859002123
 10
120.9200954558811
 20
-148.9772975973043
 10
120.9200954558811
 20
-148.7285617032692
 10
120.5900553083941
 20
-148.6961778057079
 10
120.3850721270218
 20
-148.6851535001551
 10
120.4653428518281
 20
-148.7626681485732
 10
120.5225314368832
 20
-148.8205457527254
 10
120.5225314368832
 20
-148.9755750495616
 10
120.5225314368832
 20
-149.1288817986553
 10
120.4167670054861
 20
-149.3869194505005
 10
120.0105902477751
 20
-149.3869194505005
 10
119.6912298962924
 20
-149.3869194505005
 10
119.471088294785
 20
-149.2170762430777
 10
119.471088294785
 20
-148.9466362474855
 10
119.471088294785
 20
-148.5084201017618
 10
120.0254041583617
 20
-148.4994628535001
 10
120.2390000784472
 20
-148.4994628535001
 10
120.4694769664104
 20
-148.4994628535001
 10
121.1147433507977
 20
-148.5156548022808
 10
121.1147433507977
 20
-148.9793646545954
 97
        0
 97
        1
330
E8
 75
     2
 76
     1
 98
        1
 10
0.0
 20
0.0
450
        0
451
        0
460
0.0
461
0.0
452
        0
462
0.0
453
        0
470

  0
SPLINE
  5
EA
330
E3
100
AcDbEntity
  8
レイヤー 1
100
AcDbSpline
210
0.0
220
0.0
230
1.0
 70
    11
 71
     3
 72
    17
 73
    13
 74
     0
 42
0.0000000001
 43
0.0000000001
 40
0.0
 40
0.0
 40
0.0
 40
0.0
 40
1.0
 40
1.0
 40
1.0
 40
2.0
 40
2.0
 40
2.0
 40
3.0
 40
3.0
 40
3.0
 40
4.0
 40
4.0
 40
4.0
 40
4.0
 10
121.0641004471645
 20
-148.3165282832333
 30
0.0
 10
121.0641004471645
 20
-148.3165282832333
 30
0.0
 10
120.8122639671928
 20
-148.3165282832333
 30
0.0
 10
120.8122639671928
 20
-148.3165282832333
 30
0.0
 10
120.8122639671928
 20
-148.3165282832333
 30
0.0
 10
120.8122639671928
 20
-148.1018988345023
 30
0.0
 10
120.8122639671928
 20
-148.1018988345023
 30
0.0
 10
120.8122639671928
 20
-148.1018988345023
 30
0.0
 10
121.0641004471645
 20
-148.1018988345023
 30
0.0
 10
121.0641004471645
 20
-148.1018988345023
 30
0.0
 10
121.0641004471645
 20
-148.1018988345023
 30
0.0
 10
121.0641004471645
 20
-148.3165282832333
 30
0.0
 10
121.0641004471645
 20
-148.3165282832333
 30
0.0
  0
HATCH
  5
EB
330
E3
100
AcDbEntity
  8
レイヤー 1
 62
    18
420
        0
440
 33554687
100
AcDbHatch
 10
0.0
 20
0.0
 30
0.0
210
0.0
220
0.0
230
1.0
  2
SOLID
 70
     1
 71
     1
 91
        1
 92
        1
 93
        1
 72
     4
 94
        3
 73
     0
 74
     0
 95
       17
 96
       13
 40
0.0
 40
0.0
 40
0.0
 40
0.0
 40
1.0
 40
1.0
 40
1.0
 40
2.0
 40
2.0
 40
2.0
 40
3.0
 40
3.0
 40
3.0
 40
4.0
 40
4.0
 40
4.0
 40
4.0
 10
121.0641004471645
 20
-148.3165282832333
 10
121.0641004471645
 20
-148.3165282832333
 10
120.8122639671928
 20
-148.3165282832333
 10
120.8122639671928
 20
-148.3165282832333
 10
120.8122639671928
 20
-148.3165282832333
 10
120.8122639671928
 20
-148.1018988345023
 10
120.8122639671928
 20
-148.1018988345023
 10
120.8122639671928
 20
-148.1018988345023
 10
121.0641004471645
 20
-148.1018988345023
 10
121.0641004471645
 20
-148.1018988345023
 10
121.0641004471645
 20
-148.1018988345023
 10
121.0641004471645
 20
-148.3165282832333
 10
121.0641004471645
 20
-148.3165282832333
 97
        0
 97
        1
330
EA
 75
     2
 76
     1
 98
        1
 10
0.0
 20
0.0
450
        0
451
        0
460
0.0
461
0.0
452
        0
462
0.0
453
        0
470

  0
SPLINE
  5
EC
330
E3
100
AcDbEntity
  8
レイヤー 1
100
AcDbSpline
210
0.0
220
0.0
230
1.0
 70
     9
 71
     3
 72
    53
 73
    49
 74
     0
 42
0.0000000001
 43
0.0000000001
 40
0.0
 40
0.0
 40
0.0
 40
0.0
 40
1.0
 40
1.0
 40
1.0
 40
2.0
 40
2.0
 40
2.0
 40
3.0
 40
3.0
 40
3.0
 40
4.0
 40
4.0
 40
4.0
 40
5.0
 40
5.0
 40
5.0
 40
6.0
 40
6.0
 40
6.0
 40
7.0
 40
7.0
 40
7.0
 40
8.0
 40
8.0
 40
8.0
 40
9.0
 40
9.0
 40
9.0
 40
10.0
 40
10.0
 40
10.0
 40
11.0
 40
11.0
 40
11.0
 40
12.0
 40
12.0
 40
12.0
 40
13.0
 40
13.0
 40
13.0
 40
14.0
 40
14.0
 40
14.0
 40
15.0
 40
15.0
 40
15.0
 40
16.0
 40
16.0
 40
16.0
 40
16.0
 10
121.1147433507977
 20
-147.490738895419
 30
0.0
 10
121.1147433507977
 20
-147.5575737478328
 30
0.0
 10
121.09786238292
 20
-147.6440456445126
 30
0.0
 10
121.0344726259914
 20
-147.7305175411923
 30
0.0
 10
120.9245740800119
 20
-147.8783121375096
 30
0.0
 10
120.7933159420239
 20
-147.8965711435814
 30
0.0
 10
120.6854844533356
 20
-147.9127630923621
 30
0.0
 10
120.6854844533356
 20
-147.9127630923621
 30
0.0
 10
120.6854844533356
 20
-147.7232828406734
 30
0.0
 10
120.6854844533356
 20
-147.7232828406734
 30
0.0
 10
120.8842664628345
 20
-147.6764295420739
 30
0.0
 10
120.9138942840076
 20
-147.5682535438371
 30
0.0
 10
120.9138942840076
 20
-147.4890163476763
 30
0.0
 10
120.9138942840076
 20
-147.3698160438867
 30
0.0
 10
120.8143310244839
 20
-147.2399359440928
 30
0.0
 10
120.5817870792295
 20
-147.2399359440928
 30
0.0
 10
120.3258164846755
 20
-147.2399359440928
 30
0.0
 10
120.2558810463249
 20
-147.3932426931864
 30
0.0
 10
120.2558810463249
 20
-147.4962510481953
 30
0.0
 10
120.2558810463249
 20
-147.5231227929803
 30
0.0
 10
120.2558810463249
 20
-147.6440456445126
 30
0.0
 10
120.3850721270218
 20
-147.7198377451881
 30
0.0
 10
120.3850721270218
 20
-147.7198377451881
 30
0.0
 10
120.3661241018529
 20
-147.8693548892479
 30
0.0
 10
120.3661241018529
 20
-147.8693548892479
 30
0.0
 10
120.3661241018529
 20
-147.8693548892479
 30
0.0
 10
119.519664141127
 20
-147.7666910437875
 30
0.0
 10
119.519664141127
 20
-147.7666910437875
 30
0.0
 10
119.519664141127
 20
-147.7666910437875
 30
0.0
 10
119.519664141127
 20
-147.1031656533283
 30
0.0
 10
119.519664141127
 20
-147.1031656533283
 30
0.0
 10
119.519664141127
 20
-147.1031656533283
 30
0.0
 10
119.7143120360436
 20
-147.1031656533283
 30
0.0
 10
119.7143120360436
 20
-147.1031656533283
 30
0.0
 10
119.7143120360436
 20
-147.1031656533283
 30
0.0
 10
119.7143120360436
 20
-147.6278536957319
 30
0.0
 10
119.7143120360436
 20
-147.6278536957319
 30
0.0
 10
119.7143120360436
 20
-147.6278536957319
 30
0.0
 10
120.1373697616323
 20
-147.683664242593
 30
0.0
 10
120.1373697616323
 20
-147.683664242593
 30
0.0
 10
120.1036078258769
 20
-147.6312987912171
 30
0.0
 10
120.0633002086994
 20
-147.5610188433181
 30
0.0
 10
120.0633002086994
 20
-147.4600775456002
 30
0.0
 10
120.0633002086994
 20
-147.2437255491265
 30
0.0
 10
120.2496798744514
 20
-147.0418429536909
 30
0.0
 10
120.5628390540607
 20
-147.0418429536909
 30
0.0
 10
120.8801323482522
 20
-147.0418429536909
 30
0.0
 10
121.1147433507977
 20
-147.2327012435738
 30
0.0
 10
121.1147433507977
 20
-147.490738895419
 30
0.0
  0
HATCH
  5
ED
330
E3
100
AcDbEntity
  8
レイヤー 1
 62
    18
420
        0
440
 33554687
100
AcDbHatch
 10
0.0
 20
0.0
 30
0.0
210
0.0
220
0.0
230
1.0
  2
SOLID
 70
     1
 71
     1
 91
        1
 92
        1
 93
        1
 72
     4
 94
        3
 73
     0
 74
     0
 95
       53
 96
       49
 40
0.0
 40
0.0
 40
0.0
 40
0.0
 40
1.0
 40
1.0
 40
1.0
 40
2.0
 40
2.0
 40
2.0
 40
3.0
 40
3.0
 40
3.0
 40
4.0
 40
4.0
 40
4.0
 40
5.0
 40
5.0
 40
5.0
 40
6.0
 40
6.0
 40
6.0
 40
7.0
 40
7.0
 40
7.0
 40
8.0
 40
8.0
 40
8.0
 40
9.0
 40
9.0
 40
9.0
 40
10.0
 40
10.0
 40
10.0
 40
11.0
 40
11.0
 40
11.0
 40
12.0
 40
12.0
 40
12.0
 40
13.0
 40
13.0
 40
13.0
 40
14.0
 40
14.0
 40
14.0
 40
15.0
 40
15.0
 40
15.0
 40
16.0
 40
16.0
 40
16.0
 40
16.0
 10
121.1147433507977
 20
-147.490738895419
 10
121.1147433507977
 20
-147.5575737478328
 10
121.09786238292
 20
-147.6440456445126
 10
121.0344726259914
 20
-147.7305175411923
 10
120.9245740800119
 20
-147.8783121375096
 10
120.7933159420239
 20
-147.8965711435814
 10
120.6854844533356
 20
-147.9127630923621
 10
120.6854844533356
 20
-147.9127630923621
 10
120.6854844533356
 20
-147.7232828406734
 10
120.6854844533356
 20
-147.7232828406734
 10
120.8842664628345
 20
-147.6764295420739
 10
120.9138942840076
 20
-147.5682535438371
 10
120.9138942840076
 20
-147.4890163476763
 10
120.9138942840076
 20
-147.3698160438867
 10
120.8143310244839
 20
-147.2399359440928
 10
120.5817870792295
 20
-147.2399359440928
 10
120.3258164846755
 20
-147.2399359440928
 10
120.2558810463249
 20
-147.3932426931864
 10
120.2558810463249
 20
-147.4962510481953
 10
120.2558810463249
 20
-147.5231227929803
 10
120.2558810463249
 20
-147.6440456445126
 10
120.3850721270218
 20
-147.7198377451881
 10
120.3850721270218
 20
-147.7198377451881
 10
120.3661241018529
 20
-147.8693548892479
 10
120.3661241018529
 20
-147.8693548892479
 10
120.3661241018529
 20
-147.8693548892479
 10
119.519664141127
 20
-147.7666910437875
 10
119.519664141127
 20
-147.7666910437875
 10
119.519664141127
 20
-147.7666910437875
 10
119.519664141127
 20
-147.1031656533283
 10
119.519664141127
 20
-147.1031656533283
 10
119.519664141127
 20
-147.1031656533283
 10
119.7143120360436
 20
-147.1031656533283
 10
119.7143120360436
 20
-147.1031656533283
 10
119.7143120360436
 20
-147.1031656533283
 10
119.7143120360436
 20
-147.6278536957319
 10
119.7143120360436
 20
-147.6278536957319
 10
119.7143120360436
 20
-147.6278536957319
 10
120.1373697616323
 20
-147.683664242593
 10
120.1373697616323
 20
-147.683664242593
 10
120.1036078258769
 20
-147.6312987912171
 10
120.0633002086994
 20
-147.5610188433181
 10
120.0633002086994
 20
-147.4600775456002
 10
120.0633002086994
 20
-147.2437255491265
 10
120.2496798744514
 20
-147.0418429536909
 10
120.5628390540607
 20
-147.0418429536909
 10
120.8801323482522
 20
-147.0418429536909
 10
121.1147433507977
 20
-147.2327012435738
 10
121.1147433507977
 20
-147.490738895419
 97
        0
 97
        1
330
EC
 75
     2
 76
     1
 98
        1
 10
0.0
 20
0.0
450
        0
451
        0
460
0.0
461
0.0
452
        0
462
0.0
453
        0
470

  0
ENDBLK
  5
E6
330
E3
100
AcDbEntity
  8
0
100
AcDbBlockEnd
  0
BLOCK
  5
F0
330
EE
100
AcDbEntity
  8
0
100
AcDbBlockBegin
  2
Block_13
 70
     0
 10
0.0
 20
0.0
 30
0.0
  3
Block_13
  1

  0
INSERT
  5
F3
330
EE
100
AcDbEntity
  8
レイヤー 1
100
AcDbBlockReference
  2
Block_14
 10
0.0
 20
0.0
 30
0.0
  0
ENDBLK
  5
F1
330
EE
100
AcDbEntity
  8
0
100
AcDbBlockEnd
  0
BLOCK
  5
F4
330
F2
100
AcDbEntity
  8
0
100
AcDbBlockBegin
  2
Block_14
 70
     0
 10
0.0
 20
0.0
 30
0.0
  3
Block_14
  1

  0
SPLINE
  5
F6
330
F2
100
AcDbEntity
  8
レイヤー 1
100
AcDbSpline
210
0.0
220
0.0
230
1.0
 70
     9
 71
     3
 72
    59
 73
    55
 74
     0
 42
0.0000000001
 43
0.0000000001
 40
0.0
 40
0.0
 40
0.0
 40
0.0
 40
1.0
 40
1.0
 40
1.0
 40
2.0
 40
2.0
 40
2.0
 40
3.0
 40
3.0
 40
3.0
 40
4.0
 40
4.0
 40
4.0
 40
5.0
 40
5.0
 40
5.0
 40
6.0
 40
6.0
 40
6.0
 40
7.0
 40
7.0
 40
7.0
 40
8.0
 40
8.0
 40
8.0
 40
9.0
 40
9.0
 40
9.0
 40
10.0
 40
10.0
 40
10.0
 40
11.0
 40
11.0
 40
11.0
 40
12.0
 40
12.0
 40
12.0
 40
13.0
 40
13.0
 40
13.0
 40
14.0
 40
14.0
 40
14.0
 40
15.0
 40
15.0
 40
15.0
 40
16.0
 40
16.0
 40
16.0
 40
17.0
 40
17.0
 40
17.0
 40
18.0
 40
18.0
 40
18.0
 40
18.0
 10
91.80903860551998
 20
-146.6465182467585
 30
0.0
 10
91.66658390720488
 20
-147.13313798405
 30
0.0
 10
91.45384926099071
 20
-147.6555867143882
 30
0.0
 10
90.94345836485095
 20
-147.9728800085797
 30
0.0
 10
90.94345836485095
 20
-147.9728800085797
 30
0.0
 10
90.78308917001256
 20
-147.8206067881316
 30
0.0
 10
90.78308917001256
 20
-147.8206067881316
 30
0.0
 10
90.92003171555125
 20
-147.7508436045553
 30
0.0
 10
91.12932126628017
 20
-147.6407728038016
 30
0.0
 10
91.34377846023697
 20
-147.3107326563147
 30
0.0
 10
91.54583331044689
 20
-146.9977457314797
 30
0.0
 10
91.59458141156317
 20
-146.7417751369256
 30
0.0
 10
91.61800806086286
 20
-146.6148233682942
 30
0.0
 10
91.61800806086286
 20
-146.6148233682942
 30
0.0
 10
91.06610376412584
 20
-146.6148233682942
 30
0.0
 10
91.06610376412584
 20
-146.6148233682942
 30
0.0
 10
90.97773706492919
 20
-146.7755370726811
 30
0.0
 10
90.87507321946873
 20
-146.9426242037157
 30
0.0
 10
90.71091441959657
 20
-147.1140177041069
 30
0.0
 10
90.71091441959657
 20
-147.1140177041069
 30
0.0
 10
90.5629475685051
 20
-146.991372304832
 30
0.0
 10
90.5629475685051
 20
-146.991372304832
 30
0.0
 10
90.61359047213827
 20
-146.9448635157811
 30
0.0
 10
90.73968096689842
 20
-146.8327256577362
 30
0.0
 10
90.88041311747089
 20
-146.5831284898299
 30
0.0
 10
90.94535316736783
 20
-146.4646172051373
 30
0.0
 10
91.03371986656449
 20
-146.2952907620373
 30
0.0
 10
91.05525171334731
 20
-146.1726453627624
 30
0.0
 10
91.05525171334731
 20
-146.1726453627624
 30
0.0
 10
91.25196666555508
 20
-146.274103424803
 30
0.0
 10
91.25196666555508
 20
-146.274103424803
 30
0.0
 10
91.26454126407622
 20
-146.2804768514507
 30
0.0
 10
91.2771158625974
 20
-146.2889173353896
 30
0.0
 10
91.2771158625974
 20
-146.3037312459761
 30
0.0
 10
91.2771158625974
 20
-146.3249185832104
 30
0.0
 10
91.25541176104032
 20
-146.3376654365058
 30
0.0
 10
91.24834931529555
 20
-146.339732493797
 30
0.0
 10
91.22492266599586
 20
-146.3481729777359
 30
0.0
 10
91.21768796547682
 20
-146.3461059204447
 30
0.0
 10
91.19598386391976
 20
-146.3714273722613
 30
0.0
 10
91.17427976236269
 20
-146.3969210788521
 30
0.0
 10
91.17617456487957
 20
-146.405361562791
 30
0.0
 10
91.14913056532037
 20
-146.4582437784896
 30
0.0
 10
91.14913056532037
 20
-146.4582437784896
 30
0.0
 10
91.43403996195052
 20
-146.4582437784896
 30
0.0
 10
91.43403996195052
 20
-146.4582437784896
 30
0.0
 10
91.65228676094109
 20
-146.4582437784896
 30
0.0
 10
91.67933076050031
 20
-146.4454969251942
 30
0.0
 10
91.72790660684233
 20
-146.415869104021
 30
0.0
 10
91.72790660684233
 20
-146.415869104021
 30
0.0
 10
91.86140405689576
 20
-146.5808891777645
 30
0.0
 10
91.86140405689576
 20
-146.5808891777645
 30
0.0
 10
91.83246525481967
 20
-146.6168904255853
 30
0.0
 10
91.83074270707704
 20
-146.6189574828765
 30
0.0
 10
91.80903860551998
 20
-146.6465182467585
 30
0.0
  0
HATCH
  5
F7
330
F2
100
AcDbEntity
  8
レイヤー 1
 62
   250
420
  2299925
440
 33554687
100
AcDbHatch
 10
0.0
 20
0.0
 30
0.0
210
0.0
220
0.0
230
1.0
  2
SOLID
 70
     1
 71
     1
 91
        1
 92
        1
 93
        1
 72
     4
 94
        3
 73
     0
 74
     0
 95
       59
 96
       55
 40
0.0
 40
0.0
 40
0.0
 40
0.0
 40
1.0
 40
1.0
 40
1.0
 40
2.0
 40
2.0
 40
2.0
 40
3.0
 40
3.0
 40
3.0
 40
4.0
 40
4.0
 40
4.0
 40
5.0
 40
5.0
 40
5.0
 40
6.0
 40
6.0
 40
6.0
 40
7.0
 40
7.0
 40
7.0
 40
8.0
 40
8.0
 40
8.0
 40
9.0
 40
9.0
 40
9.0
 40
10.0
 40
10.0
 40
10.0
 40
11.0
 40
11.0
 40
11.0
 40
12.0
 40
12.0
 40
12.0
 40
13.0
 40
13.0
 40
13.0
 40
14.0
 40
14.0
 40
14.0
 40
15.0
 40
15.0
 40
15.0
 40
16.0
 40
16.0
 40
16.0
 40
17.0
 40
17.0
 40
17.0
 40
18.0
 40
18.0
 40
18.0
 40
18.0
 10
91.80903860551998
 20
-146.6465182467585
 10
91.66658390720488
 20
-147.13313798405
 10
91.45384926099071
 20
-147.6555867143882
 10
90.94345836485095
 20
-147.9728800085797
 10
90.94345836485095
 20
-147.9728800085797
 10
90.78308917001256
 20
-147.8206067881316
 10
90.78308917001256
 20
-147.8206067881316
 10
90.92003171555125
 20
-147.7508436045553
 10
91.12932126628017
 20
-147.6407728038016
 10
91.34377846023697
 20
-147.3107326563147
 10
91.54583331044689
 20
-146.9977457314797
 10
91.59458141156317
 20
-146.7417751369256
 10
91.61800806086286
 20
-146.6148233682942
 10
91.61800806086286
 20
-146.6148233682942
 10
91.06610376412584
 20
-146.6148233682942
 10
91.06610376412584
 20
-146.6148233682942
 10
90.97773706492919
 20
-146.7755370726811
 10
90.87507321946873
 20
-146.9426242037157
 10
90.71091441959657
 20
-147.1140177041069
 10
90.71091441959657
 20
-147.1140177041069
 10
90.5629475685051
 20
-146.991372304832
 10
90.5629475685051
 20
-146.991372304832
 10
90.61359047213827
 20
-146.9448635157811
 10
90.73968096689842
 20
-146.8327256577362
 10
90.88041311747089
 20
-146.5831284898299
 10
90.94535316736783
 20
-146.4646172051373
 10
91.03371986656449
 20
-146.2952907620373
 10
91.05525171334731
 20
-146.1726453627624
 10
91.05525171334731
 20
-146.1726453627624
 10
91.25196666555508
 20
-146.274103424803
 10
91.25196666555508
 20
-146.274103424803
 10
91.26454126407622
 20
-146.2804768514507
 10
91.2771158625974
 20
-146.2889173353896
 10
91.2771158625974
 20
-146.3037312459761
 10
91.2771158625974
 20
-146.3249185832104
 10
91.25541176104032
 20
-146.3376654365058
 10
91.24834931529555
 20
-146.339732493797
 10
91.22492266599586
 20
-146.3481729777359
 10
91.21768796547682
 20
-146.3461059204447
 10
91.19598386391976
 20
-146.3714273722613
 10
91.17427976236269
 20
-146.3969210788521
 10
91.17617456487957
 20
-146.405361562791
 10
91.14913056532037
 20
-146.4582437784896
 10
91.14913056532037
 20
-146.4582437784896
 10
91.43403996195052
 20
-146.4582437784896
 10
91.43403996195052
 20
-146.4582437784896
 10
91.65228676094109
 20
-146.4582437784896
 10
91.67933076050031
 20
-146.4454969251942
 10
91.72790660684233
 20
-146.415869104021
 10
91.72790660684233
 20
-146.415869104021
 10
91.86140405689576
 20
-146.5808891777645
 10
91.86140405689576
 20
-146.5808891777645
 10
91.83246525481967
 20
-146.6168904255853
 10
91.83074270707704
 20
-146.6189574828765
 10
91.80903860551998
 20
-146.6465182467585
 97
        0
 97
        1
330
F6
 75
     2
 76
     1
 98
        1
 10
0.0
 20
0.0
450
        0
451
        0
460
0.0
461
0.0
452
        0
462
0.0
453
        0
470

  0
SPLINE
  5
F8
330
F2
100
AcDbEntity
  8
レイヤー 1
100
AcDbSpline
210
0.0
220
0.0
230
1.0
 70
    11
 71
     3
 72
    17
 73
    13
 74
     0
 42
0.0000000001
 43
0.0000000001
 40
0.0
 40
0.0
 40
0.0
 40
0.0
 40
1.0
 40
1.0
 40
1.0
 40
2.0
 40
2.0
 40
2.0
 40
3.0
 40
3.0
 40
3.0
 40
4.0
 40
4.0
 40
4.0
 40
4.0
 10
93.20723060820862
 20
-146.5555677259479
 30
0.0
 10
93.20723060820862
 20
-146.5555677259479
 30
0.0
 10
92.31994626598252
 20
-146.5555677259479
 30
0.0
 10
92.31994626598252
 20
-146.5555677259479
 30
0.0
 10
92.31994626598252
 20
-146.5555677259479
 30
0.0
 10
92.31994626598252
 20
-147.4440578515938
 30
0.0
 10
92.31994626598252
 20
-147.4440578515938
 30
0.0
 10
92.31994626598252
 20
-147.4440578515938
 30
0.0
 10
93.20723060820862
 20
-147.4440578515938
 30
0.0
 10
93.20723060820862
 20
-147.4440578515938
 30
0.0
 10
93.20723060820862
 20
-147.4440578515938
 30
0.0
 10
93.20723060820862
 20
-146.5555677259479
 30
0.0
 10
93.20723060820862
 20
-146.5555677259479
 30
0.0
  0
SPLINE
  5
F9
330
F2
100
AcDbEntity
  8
レイヤー 1
100
AcDbSpline
210
0.0
220
0.0
230
1.0
 70
     9
 71
     3
 72
    53
 73
    49
 74
     0
 42
0.0000000001
 43
0.0000000001
 40
0.0
 40
0.0
 40
0.0
 40
0.0
 40
1.0
 40
1.0
 40
1.0
 40
2.0
 40
2.0
 40
2.0
 40
3.0
 40
3.0
 40
3.0
 40
4.0
 40
4.0
 40
4.0
 40
5.0
 40
5.0
 40
5.0
 40
6.0
 40
6.0
 40
6.0
 40
7.0
 40
7.0
 40
7.0
 40
8.0
 40
8.0
 40
8.0
 40
9.0
 40
9.0
 40
9.0
 40
10.0
 40
10.0
 40
10.0
 40
11.0
 40
11.0
 40
11.0
 40
12.0
 40
12.0
 40
12.0
 40
13.0
 40
13.0
 40
13.0
 40
14.0
 40
14.0
 40
14.0
 40
15.0
 40
15.0
 40
15.0
 40
16.0
 40
16.0
 40
16.0
 40
16.0
 10
93.18742130916843
 20
-147.7592840884942
 30
0.0
 10
93.19465600968745
 20
-147.7148423567345
 30
0.0
 10
93.19465600968745
 20
-147.7064018727956
 30
0.0
 10
93.19999590768958
 20
-147.6323323198627
 30
0.0
 10
93.19999590768958
 20
-147.6323323198627
 30
0.0
 10
92.3218410684994
 20
-147.6323323198627
 30
0.0
 10
92.3218410684994
 20
-147.6323323198627
 30
0.0
 10
92.3218410684994
 20
-147.6640271983271
 30
0.0
 10
92.3218410684994
 20
-147.719148726091
 30
0.0
 10
92.32545841875891
 20
-147.7549777191376
 30
0.0
 10
92.32545841875891
 20
-147.7549777191376
 30
0.0
 10
92.11978621828951
 20
-147.7549777191376
 30
0.0
 10
92.11978621828951
 20
-147.7549777191376
 30
0.0
 10
92.1252983710659
 20
-147.7000284461479
 30
0.0
 10
92.13425561932755
 20
-147.6090779253373
 30
0.0
 10
92.13425561932755
 20
-147.4800590994147
 30
0.0
 10
92.13615042184443
 20
-147.2749036632681
 30
0.0
 10
92.13615042184443
 20
-147.2514770139684
 30
0.0
 10
92.13615042184443
 20
-147.2282226194429
 30
0.0
 10
92.13615042184443
 20
-147.2282226194429
 30
0.0
 10
92.13615042184443
 20
-146.7882839259765
 30
0.0
 10
92.13615042184443
 20
-146.7882839259765
 30
0.0
 10
92.13615042184443
 20
-146.7226548569825
 30
0.0
 10
92.13063826906804
 20
-146.3989881361433
 30
0.0
 10
92.12702091880853
 20
-146.3440388631535
 30
0.0
 10
92.23347436930273
 20
-146.3566134616747
 30
0.0
 10
92.45895586881236
 20
-146.3609198310313
 30
0.0
 10
92.5707492173087
 20
-146.3609198310313
 30
0.0
 10
92.5707492173087
 20
-146.3609198310313
 30
0.0
 10
92.95832245939932
 20
-146.3609198310313
 30
0.0
 10
92.95832245939932
 20
-146.3609198310313
 30
0.0
 10
93.0864800114506
 20
-146.3609198310313
 30
0.0
 10
93.27751055610772
 20
-146.3588527737401
 30
0.0
 10
93.40205075789949
 20
-146.3504122898013
 30
0.0
 10
93.39481605738047
 20
-146.4603108357807
 30
0.0
 10
93.39119870712094
 20
-146.7099080036871
 30
0.0
 10
93.39119870712094
 20
-146.8284192883797
 30
0.0
 10
93.39119870712094
 20
-146.8284192883797
 30
0.0
 10
93.39119870712094
 20
-147.2473428993861
 30
0.0
 10
93.39119870712094
 20
-147.2473428993861
 30
0.0
 10
93.39119870712094
 20
-147.2897175738546
 30
0.0
 10
93.3965386051231
 20
-147.4716186154758
 30
0.0
 10
93.3965386051231
 20
-147.5096869205878
 30
0.0
 10
93.39843340763998
 20
-147.6598930837447
 30
0.0
 10
93.405668108159
 20
-147.7105359873779
 30
0.0
 10
93.41290280867802
 20
-147.7592840884942
 30
0.0
 10
93.41290280867802
 20
-147.7592840884942
 30
0.0
 10
93.18742130916843
 20
-147.7592840884942
 30
0.0
 10
93.18742130916843
 20
-147.7592840884942
 30
0.0
  0
HATCH
  5
FA
330
F2
100
AcDbEntity
  8
レイヤー 1
 62
   250
420
  2299925
440
 33554687
100
AcDbHatch
 10
0.0
 20
0.0
 30
0.0
210
0.0
220
0.0
230
1.0
  2
SOLID
 70
     1
 71
     1
 91
        2
 92
        1
 93
        1
 72
     4
 94
        3
 73
     0
 74
     0
 95
       17
 96
       13
 40
0.0
 40
0.0
 40
0.0
 40
0.0
 40
1.0
 40
1.0
 40
1.0
 40
2.0
 40
2.0
 40
2.0
 40
3.0
 40
3.0
 40
3.0
 40
4.0
 40
4.0
 40
4.0
 40
4.0
 10
93.20723060820862
 20
-146.5555677259479
 10
93.20723060820862
 20
-146.5555677259479
 10
92.31994626598252
 20
-146.5555677259479
 10
92.31994626598252
 20
-146.5555677259479
 10
92.31994626598252
 20
-146.5555677259479
 10
92.31994626598252
 20
-147.4440578515938
 10
92.31994626598252
 20
-147.4440578515938
 10
92.31994626598252
 20
-147.4440578515938
 10
93.20723060820862
 20
-147.4440578515938
 10
93.20723060820862
 20
-147.4440578515938
 10
93.20723060820862
 20
-147.4440578515938
 10
93.20723060820862
 20
-146.5555677259479
 10
93.20723060820862
 20
-146.5555677259479
 97
        0
 97
        1
330
F8
 92
        1
 93
        1
 72
     4
 94
        3
 73
     0
 74
     0
 95
       53
 96
       49
 40
0.0
 40
0.0
 40
0.0
 40
0.0
 40
1.0
 40
1.0
 40
1.0
 40
2.0
 40
2.0
 40
2.0
 40
3.0
 40
3.0
 40
3.0
 40
4.0
 40
4.0
 40
4.0
 40
5.0
 40
5.0
 40
5.0
 40
6.0
 40
6.0
 40
6.0
 40
7.0
 40
7.0
 40
7.0
 40
8.0
 40
8.0
 40
8.0
 40
9.0
 40
9.0
 40
9.0
 40
10.0
 40
10.0
 40
10.0
 40
11.0
 40
11.0
 40
11.0
 40
12.0
 40
12.0
 40
12.0
 40
13.0
 40
13.0
 40
13.0
 40
14.0
 40
14.0
 40
14.0
 40
15.0
 40
15.0
 40
15.0
 40
16.0
 40
16.0
 40
16.0
 40
16.0
 10
93.18742130916843
 20
-147.7592840884942
 10
93.19465600968745
 20
-147.7148423567345
 10
93.19465600968745
 20
-147.7064018727956
 10
93.19999590768958
 20
-147.6323323198627
 10
93.19999590768958
 20
-147.6323323198627
 10
92.3218410684994
 20
-147.6323323198627
 10
92.3218410684994
 20
-147.6323323198627
 10
92.3218410684994
 20
-147.6640271983271
 10
92.3218410684994
 20
-147.719148726091
 10
92.32545841875891
 20
-147.7549777191376
 10
92.32545841875891
 20
-147.7549777191376
 10
92.11978621828951
 20
-147.7549777191376
 10
92.11978621828951
 20
-147.7549777191376
 10
92.1252983710659
 20
-147.7000284461479
 10
92.13425561932755
 20
-147.6090779253373
 10
92.13425561932755
 20
-147.4800590994147
 10
92.13615042184443
 20
-147.2749036632681
 10
92.13615042184443
 20
-147.2514770139684
 10
92.13615042184443
 20
-147.2282226194429
 10
92.13615042184443
 20
-147.2282226194429
 10
92.13615042184443
 20
-146.7882839259765
 10
92.13615042184443
 20
-146.7882839259765
 10
92.13615042184443
 20
-146.7226548569825
 10
92.13063826906804
 20
-146.3989881361433
 10
92.12702091880853
 20
-146.3440388631535
 10
92.23347436930273
 20
-146.3566134616747
 10
92.45895586881236
 20
-146.3609198310313
 10
92.5707492173087
 20
-146.3609198310313
 10
92.5707492173087
 20
-146.3609198310313
 10
92.95832245939932
 20
-146.3609198310313
 10
92.95832245939932
 20
-146.3609198310313
 10
93.0864800114506
 20
-146.3609198310313
 10
93.27751055610772
 20
-146.3588527737401
 10
93.40205075789949
 20
-146.3504122898013
 10
93.39481605738047
 20
-146.4603108357807
 10
93.39119870712094
 20
-146.7099080036871
 10
93.39119870712094
 20
-146.8284192883797
 10
93.39119870712094
 20
-146.8284192883797
 10
93.39119870712094
 20
-147.2473428993861
 10
93.39119870712094
 20
-147.2473428993861
 10
93.39119870712094
 20
-147.2897175738546
 10
93.3965386051231
 20
-147.4716186154758
 10
93.3965386051231
 20
-147.5096869205878
 10
93.39843340763998
 20
-147.6598930837447
 10
93.405668108159
 20
-147.7105359873779
 10
93.41290280867802
 20
-147.7592840884942
 10
93.41290280867802
 20
-147.7592840884942
 10
93.18742130916843
 20
-147.7592840884942
 10
93.18742130916843
 20
-147.7592840884942
 97
        0
 97
        1
330
F9
 75
     2
 76
     1
 98
        1
 10
0.0
 20
0.0
450
        0
451
        0
460
0.0
461
0.0
452
        0
462
0.0
453
        0
470

  0
SPLINE
  5
FB
330
F2
100
AcDbEntity
  8
レイヤー 1
100
AcDbSpline
210
0.0
220
0.0
230
1.0
 70
     9
 71
     3
 72
    56
 73
    52
 74
     0
 42
0.0000000001
 43
0.0000000001
 40
0.0
 40
0.0
 40
0.0
 40
0.0
 40
1.0
 40
1.0
 40
1.0
 40
2.0
 40
2.0
 40
2.0
 40
3.0
 40
3.0
 40
3.0
 40
4.0
 40
4.0
 40
4.0
 40
5.0
 40
5.0
 40
5.0
 40
6.0
 40
6.0
 40
6.0
 40
7.0
 40
7.0
 40
7.0
 40
8.0
 40
8.0
 40
8.0
 40
9.0
 40
9.0
 40
9.0
 40
10.0
 40
10.0
 40
10.0
 40
11.0
 40
11.0
 40
11.0
 40
12.0
 40
12.0
 40
12.0
 40
13.0
 40
13.0
 40
13.0
 40
14.0
 40
14.0
 40
14.0
 40
15.0
 40
15.0
 40
15.0
 40
16.0
 40
16.0
 40
16.0
 40
17.0
 40
17.0
 40
17.0
 40
17.0
 10
94.89928925578906
 20
-147.8249131574882
 30
0.0
 10
94.73530271069117
 20
-147.5160603472355
 30
0.0
 10
94.51516110918371
 20
-147.3107326563147
 30
0.0
 10
94.43764646076559
 20
-147.2452758420949
 30
0.0
 10
94.18701576421367
 20
-147.5837564735207
 30
0.0
 10
93.94000241792126
 20
-147.7360296939688
 30
0.0
 10
93.77050372004696
 20
-147.8290472720705
 30
0.0
 10
93.77050372004696
 20
-147.8290472720705
 30
0.0
 10
93.6352837222509
 20
-147.6407728038016
 30
0.0
 10
93.6352837222509
 20
-147.6407728038016
 30
0.0
 10
93.72365042144755
 20
-147.6047715559808
 30
0.0
 10
93.90572371784301
 20
-147.5286349457567
 30
0.0
 10
94.10398896301915
 20
-147.3425997895532
 30
0.0
 10
94.32947046252875
 20
-147.1308986719846
 30
0.0
 10
94.4881171096245
 20
-146.8432331989663
 30
0.0
 10
94.59284801237609
 20
-146.5302462741313
 30
0.0
 10
94.59284801237609
 20
-146.5302462741313
 30
0.0
 10
94.2717651131508
 20
-146.5302462741313
 30
0.0
 10
94.2717651131508
 20
-146.5302462741313
 30
0.0
 10
94.1418850133569
 20
-146.5302462741313
 30
0.0
 10
93.96342906722095
 20
-146.5343803887136
 30
0.0
 10
93.83544376994391
 20
-146.5535006686567
 30
0.0
 10
93.83544376994391
 20
-146.5535006686567
 30
0.0
 10
93.83544376994391
 20
-146.3419718058624
 30
0.0
 10
93.83544376994391
 20
-146.3419718058624
 30
0.0
 10
93.89314911932187
 20
-146.3481729777359
 30
0.0
 10
94.11484101379768
 20
-146.3588527737401
 30
0.0
 10
94.18891056673055
 20
-146.3588527737401
 30
0.0
 10
94.18891056673055
 20
-146.3588527737401
 30
0.0
 10
94.45383840954626
 20
-146.3588527737401
 30
0.0
 10
94.45383840954626
 20
-146.3588527737401
 30
0.0
 10
94.63057180793958
 20
-146.3588527737401
 30
0.0
 10
94.65055336175403
 20
-146.3524793470924
 30
0.0
 10
94.67036266079423
 20
-146.3481729777359
 30
0.0
 10
94.70825871113197
 20
-146.3419718058624
 30
0.0
 10
94.74064260869331
 20
-146.3164780992716
 30
0.0
 10
94.75872935999088
 20
-146.2995971313938
 30
0.0
 10
94.75872935999088
 20
-146.2995971313938
 30
0.0
 10
94.89205455527004
 20
-146.4730576890762
 30
0.0
 10
94.89205455527004
 20
-146.4730576890762
 30
0.0
 10
94.8577758551918
 20
-146.5006184529582
 30
0.0
 10
94.84709605918753
 20
-146.5111259941882
 30
0.0
 10
94.80558265859029
 20
-146.547127242009
 30
0.0
 10
94.69551185783656
 20
-146.7946573526242
 30
0.0
 10
94.62695445768007
 20
-146.9448635157811
 30
0.0
 10
94.53858775848342
 20
-147.0907633095815
 30
0.0
 10
94.80558265859029
 20
-147.3086655990235
 30
0.0
 10
95.00023055350689
 20
-147.5942640147507
 30
0.0
 10
95.04536130436367
 20
-147.6724676822659
 30
0.0
 10
95.04536130436367
 20
-147.6724676822659
 30
0.0
 10
94.89928925578906
 20
-147.8249131574882
 30
0.0
 10
94.89928925578906
 20
-147.8249131574882
 30
0.0
  0
HATCH
  5
FC
330
F2
100
AcDbEntity
  8
レイヤー 1
 62
   250
420
  2299925
440
 33554687
100
AcDbHatch
 10
0.0
 20
0.0
 30
0.0
210
0.0
220
0.0
230
1.0
  2
SOLID
 70
     1
 71
     1
 91
        1
 92
        1
 93
        1
 72
     4
 94
        3
 73
     0
 74
     0
 95
       56
 96
       52
 40
0.0
 40
0.0
 40
0.0
 40
0.0
 40
1.0
 40
1.0
 40
1.0
 40
2.0
 40
2.0
 40
2.0
 40
3.0
 40
3.0
 40
3.0
 40
4.0
 40
4.0
 40
4.0
 40
5.0
 40
5.0
 40
5.0
 40
6.0
 40
6.0
 40
6.0
 40
7.0
 40
7.0
 40
7.0
 40
8.0
 40
8.0
 40
8.0
 40
9.0
 40
9.0
 40
9.0
 40
10.0
 40
10.0
 40
10.0
 40
11.0
 40
11.0
 40
11.0
 40
12.0
 40
12.0
 40
12.0
 40
13.0
 40
13.0
 40
13.0
 40
14.0
 40
14.0
 40
14.0
 40
15.0
 40
15.0
 40
15.0
 40
16.0
 40
16.0
 40
16.0
 40
17.0
 40
17.0
 40
17.0
 40
17.0
 10
94.89928925578906
 20
-147.8249131574882
 10
94.73530271069117
 20
-147.5160603472355
 10
94.51516110918371
 20
-147.3107326563147
 10
94.43764646076559
 20
-147.2452758420949
 10
94.18701576421367
 20
-147.5837564735207
 10
93.94000241792126
 20
-147.7360296939688
 10
93.77050372004696
 20
-147.8290472720705
 10
93.77050372004696
 20
-147.8290472720705
 10
93.6352837222509
 20
-147.6407728038016
 10
93.6352837222509
 20
-147.6407728038016
 10
93.72365042144755
 20
-147.6047715559808
 10
93.90572371784301
 20
-147.5286349457567
 10
94.10398896301915
 20
-147.3425997895532
 10
94.32947046252875
 20
-147.1308986719846
 10
94.4881171096245
 20
-146.8432331989663
 10
94.59284801237609
 20
-146.5302462741313
 10
94.59284801237609
 20
-146.5302462741313
 10
94.2717651131508
 20
-146.5302462741313
 10
94.2717651131508
 20
-146.5302462741313
 10
94.1418850133569
 20
-146.5302462741313
 10
93.96342906722095
 20
-146.5343803887136
 10
93.83544376994391
 20
-146.5535006686567
 10
93.83544376994391
 20
-146.5535006686567
 10
93.83544376994391
 20
-146.3419718058624
 10
93.83544376994391
 20
-146.3419718058624
 10
93.89314911932187
 20
-146.3481729777359
 10
94.11484101379768
 20
-146.3588527737401
 10
94.18891056673055
 20
-146.3588527737401
 10
94.18891056673055
 20
-146.3588527737401
 10
94.45383840954626
 20
-146.3588527737401
 10
94.45383840954626
 20
-146.3588527737401
 10
94.63057180793958
 20
-146.3588527737401
 10
94.65055336175403
 20
-146.3524793470924
 10
94.67036266079423
 20
-146.3481729777359
 10
94.70825871113197
 20
-146.3419718058624
 10
94.74064260869331
 20
-146.3164780992716
 10
94.75872935999088
 20
-146.2995971313938
 10
94.75872935999088
 20
-146.2995971313938
 10
94.89205455527004
 20
-146.4730576890762
 10
94.89205455527004
 20
-146.4730576890762
 10
94.8577758551918
 20
-146.5006184529582
 10
94.84709605918753
 20
-146.5111259941882
 10
94.80558265859029
 20
-146.547127242009
 10
94.69551185783656
 20
-146.7946573526242
 10
94.62695445768007
 20
-146.9448635157811
 10
94.53858775848342
 20
-147.0907633095815
 10
94.80558265859029
 20
-147.3086655990235
 10
95.00023055350689
 20
-147.5942640147507
 10
95.04536130436367
 20
-147.6724676822659
 10
95.04536130436367
 20
-147.6724676822659
 10
94.89928925578906
 20
-147.8249131574882
 10
94.89928925578906
 20
-147.8249131574882
 97
        0
 97
        1
330
FB
 75
     2
 76
     1
 98
        1
 10
0.0
 20
0.0
450
        0
451
        0
460
0.0
461
0.0
452
        0
462
0.0
453
        0
470

  0
SPLINE
  5
FD
330
F2
100
AcDbEntity
  8
レイヤー 1
100
AcDbSpline
210
0.0
220
0.0
230
1.0
 70
    11
 71
     3
 72
    17
 73
    13
 74
     0
 42
0.0000000001
 43
0.0000000001
 40
0.0
 40
0.0
 40
0.0
 40
0.0
 40
1.0
 40
1.0
 40
1.0
 40
2.0
 40
2.0
 40
2.0
 40
3.0
 40
3.0
 40
3.0
 40
4.0
 40
4.0
 40
4.0
 40
4.0
 10
96.50108640165598
 20
-146.8475395683228
 30
0.0
 10
96.50108640165598
 20
-146.8475395683228
 30
0.0
 10
96.1097235545316
 20
-146.8475395683228
 30
0.0
 10
96.1097235545316
 20
-146.8475395683228
 30
0.0
 10
96.1097235545316
 20
-146.8475395683228
 30
0.0
 10
96.1097235545316
 20
-147.1563923785755
 30
0.0
 10
96.1097235545316
 20
-147.1563923785755
 30
0.0
 10
96.1097235545316
 20
-147.1563923785755
 30
0.0
 10
96.50108640165598
 20
-147.1563923785755
 30
0.0
 10
96.50108640165598
 20
-147.1563923785755
 30
0.0
 10
96.50108640165598
 20
-147.1563923785755
 30
0.0
 10
96.50108640165598
 20
-146.8475395683228
 30
0.0
 10
96.50108640165598
 20
-146.8475395683228
 30
0.0
  0
SPLINE
  5
FE
330
F2
100
AcDbEntity
  8
レイヤー 1
100
AcDbSpline
210
0.0
220
0.0
230
1.0
 70
    11
 71
     3
 72
    17
 73
    13
 74
     0
 42
0.0000000001
 43
0.0000000001
 40
0.0
 40
0.0
 40
0.0
 40
0.0
 40
1.0
 40
1.0
 40
1.0
 40
2.0
 40
2.0
 40
2.0
 40
3.0
 40
3.0
 40
3.0
 40
4.0
 40
4.0
 40
4.0
 40
4.0
 10
96.50108640165598
 20
-146.3757337416179
 30
0.0
 10
96.50108640165598
 20
-146.3757337416179
 30
0.0
 10
96.1097235545316
 20
-146.3757337416179
 30
0.0
 10
96.1097235545316
 20
-146.3757337416179
 30
0.0
 10
96.1097235545316
 20
-146.3757337416179
 30
0.0
 10
96.1097235545316
 20
-146.680280182514
 30
0.0
 10
96.1097235545316
 20
-146.680280182514
 30
0.0
 10
96.1097235545316
 20
-146.680280182514
 30
0.0
 10
96.50108640165598
 20
-146.680280182514
 30
0.0
 10
96.50108640165598
 20
-146.680280182514
 30
0.0
 10
96.50108640165598
 20
-146.680280182514
 30
0.0
 10
96.50108640165598
 20
-146.3757337416179
 30
0.0
 10
96.50108640165598
 20
-146.3757337416179
 30
0.0
  0
SPLINE
  5
FF
330
F2
100
AcDbEntity
  8
レイヤー 1
100
AcDbSpline
210
0.0
220
0.0
230
1.0
 70
    11
 71
     3
 72
    17
 73
    13
 74
     0
 42
0.0000000001
 43
0.0000000001
 40
0.0
 40
0.0
 40
0.0
 40
0.0
 40
1.0
 40
1.0
 40
1.0
 40
2.0
 40
2.0
 40
2.0
 40
3.0
 40
3.0
 40
3.0
 40
4.0
 40
4.0
 40
4.0
 40
4.0
 10
95.94745955717632
 20
-146.8475395683228
 30
0.0
 10
95.94745955717632
 20
-146.8475395683228
 30
0.0
 10
95.57418346134952
 20
-146.8475395683228
 30
0.0
 10
95.57418346134952
 20
-146.8475395683228
 30
0.0
 10
95.57418346134952
 20
-146.8475395683228
 30
0.0
 10
95.57418346134952
 20
-147.1563923785755
 30
0.0
 10
95.57418346134952
 20
-147.1563923785755
 30
0.0
 10
95.57418346134952
 20
-147.1563923785755
 30
0.0
 10
95.94745955717632
 20
-147.1563923785755
 30
0.0
 10
95.94745955717632
 20
-147.1563923785755
 30
0.0
 10
95.94745955717632
 20
-147.1563923785755
 30
0.0
 10
95.94745955717632
 20
-146.8475395683228
 30
0.0
 10
95.94745955717632
 20
-146.8475395683228
 30
0.0
  0
SPLINE
  5
100
330
F2
100
AcDbEntity
  8
レイヤー 1
100
AcDbSpline
210
0.0
220
0.0
230
1.0
 70
    11
 71
     3
 72
    17
 73
    13
 74
     0
 42
0.0000000001
 43
0.0000000001
 40
0.0
 40
0.0
 40
0.0
 40
0.0
 40
1.0
 40
1.0
 40
1.0
 40
2.0
 40
2.0
 40
2.0
 40
3.0
 40
3.0
 40
3.0
 40
4.0
 40
4.0
 40
4.0
 40
4.0
 10
95.94745955717632
 20
-146.3757337416179
 30
0.0
 10
95.94745955717632
 20
-146.3757337416179
 30
0.0
 10
95.57418346134952
 20
-146.3757337416179
 30
0.0
 10
95.57418346134952
 20
-146.3757337416179
 30
0.0
 10
95.57418346134952
 20
-146.3757337416179
 30
0.0
 10
95.57418346134952
 20
-146.680280182514
 30
0.0
 10
95.57418346134952
 20
-146.680280182514
 30
0.0
 10
95.57418346134952
 20
-146.680280182514
 30
0.0
 10
95.94745955717632
 20
-146.680280182514
 30
0.0
 10
95.94745955717632
 20
-146.680280182514
 30
0.0
 10
95.94745955717632
 20
-146.680280182514
 30
0.0
 10
95.94745955717632
 20
-146.3757337416179
 30
0.0
 10
95.94745955717632
 20
-146.3757337416179
 30
0.0
  0
SPLINE
  5
101
330
F2
100
AcDbEntity
  8
レイヤー 1
100
AcDbSpline
210
0.0
220
0.0
230
1.0
 70
     9
 71
     3
 72
    77
 73
    73
 74
     0
 42
0.0000000001
 43
0.0000000001
 40
0.0
 40
0.0
 40
0.0
 40
0.0
 40
1.0
 40
1.0
 40
1.0
 40
2.0
 40
2.0
 40
2.0
 40
3.0
 40
3.0
 40
3.0
 40
4.0
 40
4.0
 40
4.0
 40
5.0
 40
5.0
 40
5.0
 40
6.0
 40
6.0
 40
6.0
 40
7.0
 40
7.0
 40
7.0
 40
8.0
 40
8.0
 40
8.0
 40
9.0
 40
9.0
 40
9.0
 40
10.0
 40
10.0
 40
10.0
 40
11.0
 40
11.0
 40
11.0
 40
12.0
 40
12.0
 40
12.0
 40
13.0
 40
13.0
 40
13.0
 40
14.0
 40
14.0
 40
14.0
 40
15.0
 40
15.0
 40
15.0
 40
16.0
 40
16.0
 40
16.0
 40
17.0
 40
17.0
 40
17.0
 40
18.0
 40
18.0
 40
18.0
 40
19.0
 40
19.0
 40
19.0
 40
20.0
 40
20.0
 40
20.0
 40
21.0
 40
21.0
 40
21.0
 40
22.0
 40
22.0
 40
22.0
 40
23.0
 40
23.0
 40
23.0
 40
24.0
 40
24.0
 40
24.0
 40
24.0
 10
96.61649710041185
 20
-147.9623724673497
 30
0.0
 10
96.57687850233148
 20
-147.9876939191663
 30
0.0
 10
96.47042505183726
 20
-148.0004407724617
 30
0.0
 10
96.40376245419767
 20
-148.0004407724617
 30
0.0
 10
96.39291040341914
 20
-148.0004407724617
 30
0.0
 10
96.37120630186206
 20
-148.0004407724617
 30
0.0
 10
96.34243975456023
 20
-147.9961344031051
 30
0.0
 10
96.34243975456023
 20
-147.9961344031051
 30
0.0
 10
96.25941295336572
 20
-147.7697916297242
 30
0.0
 10
96.25941295336572
 20
-147.7697916297242
 30
0.0
 10
96.28473440518229
 20
-147.7761650563719
 30
0.0
 10
96.33331025152431
 20
-147.7846055403108
 30
0.0
 10
96.43252900149953
 20
-147.7846055403108
 30
0.0
 10
96.49936385391335
 20
-147.7846055403108
 30
0.0
 10
96.50108640165598
 20
-147.7424031206165
 30
0.0
 10
96.50108640165598
 20
-147.6852145355613
 30
0.0
 10
96.50108640165598
 20
-147.6852145355613
 30
0.0
 10
96.50108640165598
 20
-147.3362263629055
 30
0.0
 10
96.50108640165598
 20
-147.3362263629055
 30
0.0
 10
96.50108640165598
 20
-147.3362263629055
 30
0.0
 10
96.1097235545316
 20
-147.3362263629055
 30
0.0
 10
96.1097235545316
 20
-147.3362263629055
 30
0.0
 10
96.11161835704848
 20
-147.473685672767
 30
0.0
 10
96.11334090479111
 20
-147.6724676822659
 30
0.0
 10
96.11885305756752
 20
-147.8057928775451
 30
0.0
 10
96.12057560531013
 20
-147.8333536414271
 30
0.0
 10
96.12057560531013
 20
-147.8777953731868
 30
0.0
 10
96.13142765608868
 20
-147.9391180728242
 30
0.0
 10
96.13142765608868
 20
-147.9391180728242
 30
0.0
 10
95.92575545561926
 20
-147.9391180728242
 30
0.0
 10
95.92575545561926
 20
-147.9391180728242
 30
0.0
 10
95.94745955717632
 20
-147.8142333614839
 30
0.0
 10
95.94745955717632
 20
-147.473685672767
 30
0.0
 10
95.94745955717632
 20
-147.3362263629055
 30
0.0
 10
95.94745955717632
 20
-147.3362263629055
 30
0.0
 10
95.57056611109
 20
-147.3362263629055
 30
0.0
 10
95.57056611109
 20
-147.3362263629055
 30
0.0
 10
95.5507568120498
 20
-147.5434488563433
 30
0.0
 10
95.4947740104145
 20
-147.8121663041928
 30
0.0
 10
95.3271701150571
 20
-147.9961344031051
 30
0.0
 10
95.3271701150571
 20
-147.9961344031051
 30
0.0
 10
95.16662866544447
 20
-147.8734890038302
 30
0.0
 10
95.16662866544447
 20
-147.8734890038302
 30
0.0
 10
95.38298066191815
 20
-147.653519657097
 30
0.0
 10
95.41002466147736
 20
-147.3214124523189
 30
0.0
 10
95.41002466147736
 20
-146.9893052475408
 30
0.0
 10
95.41002466147736
 20
-146.9893052475408
 30
0.0
 10
95.41002466147736
 20
-146.5535006686567
 30
0.0
 10
95.41002466147736
 20
-146.5535006686567
 30
0.0
 10
95.41002466147736
 20
-146.5174994208359
 30
0.0
 10
95.40830211373473
 20
-146.2847832208072
 30
0.0
 10
95.4010674132157
 20
-146.1831529039924
 30
0.0
 10
95.52009546223109
 20
-146.1938326999967
 30
0.0
 10
95.72559540792624
 20
-146.1938326999967
 30
0.0
 10
95.84824080720114
 20
-146.1938326999967
 30
0.0
 10
95.84824080720114
 20
-146.1938326999967
 30
0.0
 10
96.23960365432552
 20
-146.1938326999967
 30
0.0
 10
96.23960365432552
 20
-146.1938326999967
 30
0.0
 10
96.25217825284668
 20
-146.1938326999967
 30
0.0
 10
96.54983450277228
 20
-146.1938326999967
 30
0.0
 10
96.68505450056834
 20
-146.1831529039924
 30
0.0
 10
96.68315969805144
 20
-146.236035119691
 30
0.0
 10
96.67781980004932
 20
-146.3969210788521
 30
0.0
 10
96.67781980004932
 20
-146.4477362372596
 30
0.0
 10
96.67781980004932
 20
-146.4477362372596
 30
0.0
 10
96.67781980004932
 20
-147.0547620617606
 30
0.0
 10
96.67781980004932
 20
-147.0547620617606
 30
0.0
 10
96.67781980004932
 20
-147.0738823417037
 30
0.0
 10
96.68677704831095
 20
-147.6450791731582
 30
0.0
 10
96.68677704831095
 20
-147.757217031203
 30
0.0
 10
96.68677704831095
 20
-147.8142333614839
 30
0.0
 10
96.68677704831095
 20
-147.9158636782988
 30
0.0
 10
96.61649710041185
 20
-147.9623724673497
 30
0.0
  0
HATCH
  5
102
330
F2
100
AcDbEntity
  8
レイヤー 1
 62
   250
420
  2299925
440
 33554687
100
AcDbHatch
 10
0.0
 20
0.0
 30
0.0
210
0.0
220
0.0
230
1.0
  2
SOLID
 70
     1
 71
     1
 91
        5
 92
        1
 93
        1
 72
     4
 94
        3
 73
     0
 74
     0
 95
       17
 96
       13
 40
0.0
 40
0.0
 40
0.0
 40
0.0
 40
1.0
 40
1.0
 40
1.0
 40
2.0
 40
2.0
 40
2.0
 40
3.0
 40
3.0
 40
3.0
 40
4.0
 40
4.0
 40
4.0
 40
4.0
 10
96.50108640165598
 20
-146.8475395683228
 10
96.50108640165598
 20
-146.8475395683228
 10
96.1097235545316
 20
-146.8475395683228
 10
96.1097235545316
 20
-146.8475395683228
 10
96.1097235545316
 20
-146.8475395683228
 10
96.1097235545316
 20
-147.1563923785755
 10
96.1097235545316
 20
-147.1563923785755
 10
96.1097235545316
 20
-147.1563923785755
 10
96.50108640165598
 20
-147.1563923785755
 10
96.50108640165598
 20
-147.1563923785755
 10
96.50108640165598
 20
-147.1563923785755
 10
96.50108640165598
 20
-146.8475395683228
 10
96.50108640165598
 20
-146.8475395683228
 97
        0
 97
        1
330
FD
 92
        1
 93
        1
 72
     4
 94
        3
 73
     0
 74
     0
 95
       17
 96
       13
 40
0.0
 40
0.0
 40
0.0
 40
0.0
 40
1.0
 40
1.0
 40
1.0
 40
2.0
 40
2.0
 40
2.0
 40
3.0
 40
3.0
 40
3.0
 40
4.0
 40
4.0
 40
4.0
 40
4.0
 10
96.50108640165598
 20
-146.3757337416179
 10
96.50108640165598
 20
-146.3757337416179
 10
96.1097235545316
 20
-146.3757337416179
 10
96.1097235545316
 20
-146.3757337416179
 10
96.1097235545316
 20
-146.3757337416179
 10
96.1097235545316
 20
-146.680280182514
 10
96.1097235545316
 20
-146.680280182514
 10
96.1097235545316
 20
-146.680280182514
 10
96.50108640165598
 20
-146.680280182514
 10
96.50108640165598
 20
-146.680280182514
 10
96.50108640165598
 20
-146.680280182514
 10
96.50108640165598
 20
-146.3757337416179
 10
96.50108640165598
 20
-146.3757337416179
 97
        0
 97
        1
330
FE
 92
        1
 93
        1
 72
     4
 94
        3
 73
     0
 74
     0
 95
       17
 96
       13
 40
0.0
 40
0.0
 40
0.0
 40
0.0
 40
1.0
 40
1.0
 40
1.0
 40
2.0
 40
2.0
 40
2.0
 40
3.0
 40
3.0
 40
3.0
 40
4.0
 40
4.0
 40
4.0
 40
4.0
 10
95.94745955717632
 20
-146.8475395683228
 10
95.94745955717632
 20
-146.8475395683228
 10
95.57418346134952
 20
-146.8475395683228
 10
95.57418346134952
 20
-146.8475395683228
 10
95.57418346134952
 20
-146.8475395683228
 10
95.57418346134952
 20
-147.1563923785755
 10
95.57418346134952
 20
-147.1563923785755
 10
95.57418346134952
 20
-147.1563923785755
 10
95.94745955717632
 20
-147.1563923785755
 10
95.94745955717632
 20
-147.1563923785755
 10
95.94745955717632
 20
-147.1563923785755
 10
95.94745955717632
 20
-146.8475395683228
 10
95.94745955717632
 20
-146.8475395683228
 97
        0
 97
        1
330
FF
 92
        1
 93
        1
 72
     4
 94
        3
 73
     0
 74
     0
 95
       17
 96
       13
 40
0.0
 40
0.0
 40
0.0
 40
0.0
 40
1.0
 40
1.0
 40
1.0
 40
2.0
 40
2.0
 40
2.0
 40
3.0
 40
3.0
 40
3.0
 40
4.0
 40
4.0
 40
4.0
 40
4.0
 10
95.94745955717632
 20
-146.3757337416179
 10
95.94745955717632
 20
-146.3757337416179
 10
95.57418346134952
 20
-146.3757337416179
 10
95.57418346134952
 20
-146.3757337416179
 10
95.57418346134952
 20
-146.3757337416179
 10
95.57418346134952
 20
-146.680280182514
 10
95.57418346134952
 20
-146.680280182514
 10
95.57418346134952
 20
-146.680280182514
 10
95.94745955717632
 20
-146.680280182514
 10
95.94745955717632
 20
-146.680280182514
 10
95.94745955717632
 20
-146.680280182514
 10
95.94745955717632
 20
-146.3757337416179
 10
95.94745955717632
 20
-146.3757337416179
 97
        0
 97
        1
330
100
 92
        1
 93
        1
 72
     4
 94
        3
 73
     0
 74
     0
 95
       77
 96
       73
 40
0.0
 40
0.0
 40
0.0
 40
0.0
 40
1.0
 40
1.0
 40
1.0
 40
2.0
 40
2.0
 40
2.0
 40
3.0
 40
3.0
 40
3.0
 40
4.0
 40
4.0
 40
4.0
 40
5.0
 40
5.0
 40
5.0
 40
6.0
 40
6.0
 40
6.0
 40
7.0
 40
7.0
 40
7.0
 40
8.0
 40
8.0
 40
8.0
 40
9.0
 40
9.0
 40
9.0
 40
10.0
 40
10.0
 40
10.0
 40
11.0
 40
11.0
 40
11.0
 40
12.0
 40
12.0
 40
12.0
 40
13.0
 40
13.0
 40
13.0
 40
14.0
 40
14.0
 40
14.0
 40
15.0
 40
15.0
 40
15.0
 40
16.0
 40
16.0
 40
16.0
 40
17.0
 40
17.0
 40
17.0
 40
18.0
 40
18.0
 40
18.0
 40
19.0
 40
19.0
 40
19.0
 40
20.0
 40
20.0
 40
20.0
 40
21.0
 40
21.0
 40
21.0
 40
22.0
 40
22.0
 40
22.0
 40
23.0
 40
23.0
 40
23.0
 40
24.0
 40
24.0
 40
24.0
 40
24.0
 10
96.61649710041185
 20
-147.9623724673497
 10
96.57687850233148
 20
-147.9876939191663
 10
96.47042505183726
 20
-148.0004407724617
 10
96.40376245419767
 20
-148.0004407724617
 10
96.39291040341914
 20
-148.0004407724617
 10
96.37120630186206
 20
-148.0004407724617
 10
96.34243975456023
 20
-147.9961344031051
 10
96.34243975456023
 20
-147.9961344031051
 10
96.25941295336572
 20
-147.7697916297242
 10
96.25941295336572
 20
-147.7697916297242
 10
96.28473440518229
 20
-147.7761650563719
 10
96.33331025152431
 20
-147.7846055403108
 10
96.43252900149953
 20
-147.7846055403108
 10
96.49936385391335
 20
-147.7846055403108
 10
96.50108640165598
 20
-147.7424031206165
 10
96.50108640165598
 20
-147.6852145355613
 10
96.50108640165598
 20
-147.6852145355613
 10
96.50108640165598
 20
-147.3362263629055
 10
96.50108640165598
 20
-147.3362263629055
 10
96.50108640165598
 20
-147.3362263629055
 10
96.1097235545316
 20
-147.3362263629055
 10
96.1097235545316
 20
-147.3362263629055
 10
96.11161835704848
 20
-147.473685672767
 10
96.11334090479111
 20
-147.6724676822659
 10
96.11885305756752
 20
-147.8057928775451
 10
96.12057560531013
 20
-147.8333536414271
 10
96.12057560531013
 20
-147.8777953731868
 10
96.13142765608868
 20
-147.9391180728242
 10
96.13142765608868
 20
-147.9391180728242
 10
95.92575545561926
 20
-147.9391180728242
 10
95.92575545561926
 20
-147.9391180728242
 10
95.94745955717632
 20
-147.8142333614839
 10
95.94745955717632
 20
-147.473685672767
 10
95.94745955717632
 20
-147.3362263629055
 10
95.94745955717632
 20
-147.3362263629055
 10
95.57056611109
 20
-147.3362263629055
 10
95.57056611109
 20
-147.3362263629055
 10
95.5507568120498
 20
-147.5434488563433
 10
95.4947740104145
 20
-147.8121663041928
 10
95.3271701150571
 20
-147.9961344031051
 10
95.3271701150571
 20
-147.9961344031051
 10
95.16662866544447
 20
-147.8734890038302
 10
95.16662866544447
 20
-147.8734890038302
 10
95.38298066191815
 20
-147.653519657097
 10
95.41002466147736
 20
-147.3214124523189
 10
95.41002466147736
 20
-146.9893052475408
 10
95.41002466147736
 20
-146.9893052475408
 10
95.41002466147736
 20
-146.5535006686567
 10
95.41002466147736
 20
-146.5535006686567
 10
95.41002466147736
 20
-146.5174994208359
 10
95.40830211373473
 20
-146.2847832208072
 10
95.4010674132157
 20
-146.1831529039924
 10
95.52009546223109
 20
-146.1938326999967
 10
95.72559540792624
 20
-146.1938326999967
 10
95.84824080720114
 20
-146.1938326999967
 10
95.84824080720114
 20
-146.1938326999967
 10
96.23960365432552
 20
-146.1938326999967
 10
96.23960365432552
 20
-146.1938326999967
 10
96.25217825284668
 20
-146.1938326999967
 10
96.54983450277228
 20
-146.1938326999967
 10
96.68505450056834
 20
-146.1831529039924
 10
96.68315969805144
 20
-146.236035119691
 10
96.67781980004932
 20
-146.3969210788521
 10
96.67781980004932
 20
-146.4477362372596
 10
96.67781980004932
 20
-146.4477362372596
 10
96.67781980004932
 20
-147.0547620617606
 10
96.67781980004932
 20
-147.0547620617606
 10
96.67781980004932
 20
-147.0738823417037
 10
96.68677704831095
 20
-147.6450791731582
 10
96.68677704831095
 20
-147.757217031203
 10
96.68677704831095
 20
-147.8142333614839
 10
96.68677704831095
 20
-147.9158636782988
 10
96.61649710041185
 20
-147.9623724673497
 97
        0
 97
        1
330
101
 75
     2
 76
     1
 98
        1
 10
0.0
 20
0.0
450
        0
451
        0
460
0.0
461
0.0
452
        0
462
0.0
453
        0
470

  0
SPLINE
  5
103
330
F2
100
AcDbEntity
  8
レイヤー 1
100
AcDbSpline
210
0.0
220
0.0
230
1.0
 70
     9
 71
     3
 72
    17
 73
    13
 74
     0
 42
0.0000000001
 43
0.0000000001
 40
0.0
 40
0.0
 40
0.0
 40
0.0
 40
1.0
 40
1.0
 40
1.0
 40
2.0
 40
2.0
 40
2.0
 40
3.0
 40
3.0
 40
3.0
 40
4.0
 40
4.0
 40
4.0
 40
4.0
 10
91.97302515061785
 20
-148.9438801710973
 30
0.0
 10
91.92617185201845
 20
-148.9438801710973
 30
0.0
 10
91.88827580168071
 20
-148.9883219028571
 30
0.0
 10
91.88827580168071
 20
-149.0434434306211
 30
0.0
 10
91.88827580168071
 20
-149.1006320156762
 30
0.0
 10
91.92617185201845
 20
-149.1492078620183
 30
0.0
 10
91.97664250087738
 20
-149.1492078620183
 30
0.0
 10
92.02711314973628
 20
-149.1492078620183
 30
0.0
 10
92.0613918498145
 20
-149.0985649583851
 30
0.0
 10
92.0613918498145
 20
-149.0455104879122
 30
0.0
 10
92.0613918498145
 20
-148.9883219028571
 30
0.0
 10
92.02177325173414
 20
-148.9438801710973
 30
0.0
 10
91.97302515061785
 20
-148.9438801710973
 30
0.0
  0
SPLINE
  5
104
330
F2
100
AcDbEntity
  8
レイヤー 1
100
AcDbSpline
210
0.0
220
0.0
230
1.0
 70
    11
 71
     3
 72
    17
 73
    13
 74
     0
 42
0.0000000001
 43
0.0000000001
 40
0.0
 40
0.0
 40
0.0
 40
0.0
 40
1.0
 40
1.0
 40
1.0
 40
2.0
 40
2.0
 40
2.0
 40
3.0
 40
3.0
 40
3.0
 40
4.0
 40
4.0
 40
4.0
 40
4.0
 10
91.97491995313475
 20
-149.2739203185843
 30
0.0
 10
91.8667439548979
 20
-149.2739203185843
 30
0.0
 10
91.78009980344388
 20
-149.1726345113179
 30
0.0
 10
91.78009980344388
 20
-149.0455104879122
 30
0.0
 10
91.78009980344388
 20
-148.918730974055
 30
0.0
 10
91.8667439548979
 20
-148.8148613451747
 30
0.0
 10
91.97491995313475
 20
-148.8148613451747
 30
0.0
 10
92.08309595137158
 20
-148.8148613451747
 30
0.0
 10
92.17146265056824
 20
-148.918730974055
 30
0.0
 10
92.17146265056824
 20
-149.0455104879122
 30
0.0
 10
92.17146265056824
 20
-149.1726345113179
 30
0.0
 10
92.08309595137158
 20
-149.2739203185843
 30
0.0
 10
91.97491995313475
 20
-149.2739203185843
 30
0.0
  0
SPLINE
  5
105
330
F2
100
AcDbEntity
  8
レイヤー 1
100
AcDbSpline
210
0.0
220
0.0
230
1.0
 70
     9
 71
     3
 72
    44
 73
    40
 74
     0
 42
0.0000000001
 43
0.0000000001
 40
0.0
 40
0.0
 40
0.0
 40
0.0
 40
1.0
 40
1.0
 40
1.0
 40
2.0
 40
2.0
 40
2.0
 40
3.0
 40
3.0
 40
3.0
 40
4.0
 40
4.0
 40
4.0
 40
5.0
 40
5.0
 40
5.0
 40
6.0
 40
6.0
 40
6.0
 40
7.0
 40
7.0
 40
7.0
 40
8.0
 40
8.0
 40
8.0
 40
9.0
 40
9.0
 40
9.0
 40
10.0
 40
10.0
 40
10.0
 40
11.0
 40
11.0
 40
11.0
 40
12.0
 40
12.0
 40
12.0
 40
13.0
 40
13.0
 40
13.0
 40
13.0
 10
91.79629175222455
 20
-149.4730468376317
 30
0.0
 10
91.70086260728313
 20
-149.8409830354564
 30
0.0
 10
91.65745440416896
 20
-149.9998019373264
 30
0.0
 10
91.48985050881156
 20
-150.2492268504585
 30
0.0
 10
91.33292640945844
 20
-150.4800482479702
 30
0.0
 10
91.13087155924853
 20
-150.6660834041738
 30
0.0
 10
90.89298771599203
 20
-150.7591009822755
 30
0.0
 10
90.89298771599203
 20
-150.7591009822755
 30
0.0
 10
90.72882891611987
 20
-150.5792669979454
 30
0.0
 10
90.72882891611987
 20
-150.5792669979454
 30
0.0
 10
91.27522106008051
 20
-150.4269937774974
 30
0.0
 10
91.55651310645115
 20
-149.8706108566296
 30
0.0
 10
91.61060110556958
 20
-149.4306721631631
 30
0.0
 10
91.61060110556958
 20
-149.4306721631631
 30
0.0
 10
90.95775551111472
 20
-149.4306721631631
 30
0.0
 10
90.95775551111472
 20
-149.4306721631631
 30
0.0
 10
90.87851831495397
 20
-149.4306721631631
 30
0.0
 10
90.72159421560085
 20
-149.4348062777454
 30
0.0
 10
90.58809676554743
 20
-149.4537543029143
 30
0.0
 10
90.58809676554743
 20
-149.4537543029143
 30
0.0
 10
90.58809676554743
 20
-149.2339572109554
 30
0.0
 10
90.58809676554743
 20
-149.2339572109554
 30
0.0
 10
90.6621663184803
 20
-149.2549722934154
 30
0.0
 10
90.87662351243709
 20
-149.2549722934154
 30
0.0
 10
90.96137286137425
 20
-149.2549722934154
 30
0.0
 10
90.96137286137425
 20
-149.2549722934154
 30
0.0
 10
91.32930905919891
 20
-149.2549722934154
 30
0.0
 10
91.32930905919891
 20
-149.2549722934154
 30
0.0
 10
91.36531030701979
 20
-149.2549722934154
 30
0.0
 10
91.5654703547128
 20
-149.2529052361243
 30
0.0
 10
91.59802650704842
 20
-149.2467040642508
 30
0.0
 10
91.63402775486927
 20
-149.2401583828288
 30
0.0
 10
91.63592255738617
 20
-149.2380913255377
 30
0.0
 10
91.6881157539877
 20
-149.1977837083602
 30
0.0
 10
91.6881157539877
 20
-149.1977837083602
 30
0.0
 10
91.84865720360035
 20
-149.352468495648
 30
0.0
 10
91.84865720360035
 20
-149.352468495648
 30
0.0
 10
91.82333575178375
 20
-149.3820963168211
 30
0.0
 10
91.81076115326259
 20
-149.4137911952854
 30
0.0
 10
91.79629175222455
 20
-149.4730468376317
 30
0.0
  0
HATCH
  5
106
330
F2
100
AcDbEntity
  8
レイヤー 1
 62
   250
420
  2299925
440
 33554687
100
AcDbHatch
 10
0.0
 20
0.0
 30
0.0
210
0.0
220
0.0
230
1.0
  2
SOLID
 70
     1
 71
     1
 91
        3
 92
        1
 93
        1
 72
     4
 94
        3
 73
     0
 74
     0
 95
       17
 96
       13
 40
0.0
 40
0.0
 40
0.0
 40
0.0
 40
1.0
 40
1.0
 40
1.0
 40
2.0
 40
2.0
 40
2.0
 40
3.0
 40
3.0
 40
3.0
 40
4.0
 40
4.0
 40
4.0
 40
4.0
 10
91.97302515061785
 20
-148.9438801710973
 10
91.92617185201845
 20
-148.9438801710973
 10
91.88827580168071
 20
-148.9883219028571
 10
91.88827580168071
 20
-149.0434434306211
 10
91.88827580168071
 20
-149.1006320156762
 10
91.92617185201845
 20
-149.1492078620183
 10
91.97664250087738
 20
-149.1492078620183
 10
92.02711314973628
 20
-149.1492078620183
 10
92.0613918498145
 20
-149.0985649583851
 10
92.0613918498145
 20
-149.0455104879122
 10
92.0613918498145
 20
-148.9883219028571
 10
92.02177325173414
 20
-148.9438801710973
 10
91.97302515061785
 20
-148.9438801710973
 97
        0
 97
        1
330
103
 92
        1
 93
        1
 72
     4
 94
        3
 73
     0
 74
     0
 95
       17
 96
       13
 40
0.0
 40
0.0
 40
0.0
 40
0.0
 40
1.0
 40
1.0
 40
1.0
 40
2.0
 40
2.0
 40
2.0
 40
3.0
 40
3.0
 40
3.0
 40
4.0
 40
4.0
 40
4.0
 40
4.0
 10
91.97491995313475
 20
-149.2739203185843
 10
91.8667439548979
 20
-149.2739203185843
 10
91.78009980344388
 20
-149.1726345113179
 10
91.78009980344388
 20
-149.0455104879122
 10
91.78009980344388
 20
-148.918730974055
 10
91.8667439548979
 20
-148.8148613451747
 10
91.97491995313475
 20
-148.8148613451747
 10
92.08309595137158
 20
-148.8148613451747
 10
92.17146265056824
 20
-148.918730974055
 10
92.17146265056824
 20
-149.0455104879122
 10
92.17146265056824
 20
-149.1726345113179
 10
92.08309595137158
 20
-149.2739203185843
 10
91.97491995313475
 20
-149.2739203185843
 97
        0
 97
        1
330
104
 92
        1
 93
        1
 72
     4
 94
        3
 73
     0
 74
     0
 95
       44
 96
       40
 40
0.0
 40
0.0
 40
0.0
 40
0.0
 40
1.0
 40
1.0
 40
1.0
 40
2.0
 40
2.0
 40
2.0
 40
3.0
 40
3.0
 40
3.0
 40
4.0
 40
4.0
 40
4.0
 40
5.0
 40
5.0
 40
5.0
 40
6.0
 40
6.0
 40
6.0
 40
7.0
 40
7.0
 40
7.0
 40
8.0
 40
8.0
 40
8.0
 40
9.0
 40
9.0
 40
9.0
 40
10.0
 40
10.0
 40
10.0
 40
11.0
 40
11.0
 40
11.0
 40
12.0
 40
12.0
 40
12.0
 40
13.0
 40
13.0
 40
13.0
 40
13.0
 10
91.79629175222455
 20
-149.4730468376317
 10
91.70086260728313
 20
-149.8409830354564
 10
91.65745440416896
 20
-149.9998019373264
 10
91.48985050881156
 20
-150.2492268504585
 10
91.33292640945844
 20
-150.4800482479702
 10
91.13087155924853
 20
-150.6660834041738
 10
90.89298771599203
 20
-150.7591009822755
 10
90.89298771599203
 20
-150.7591009822755
 10
90.72882891611987
 20
-150.5792669979454
 10
90.72882891611987
 20
-150.5792669979454
 10
91.27522106008051
 20
-150.4269937774974
 10
91.55651310645115
 20
-149.8706108566296
 10
91.61060110556958
 20
-149.4306721631631
 10
91.61060110556958
 20
-149.4306721631631
 10
90.95775551111472
 20
-149.4306721631631
 10
90.95775551111472
 20
-149.4306721631631
 10
90.87851831495397
 20
-149.4306721631631
 10
90.72159421560085
 20
-149.4348062777454
 10
90.58809676554743
 20
-149.4537543029143
 10
90.58809676554743
 20
-149.4537543029143
 10
90.58809676554743
 20
-149.2339572109554
 10
90.58809676554743
 20
-149.2339572109554
 10
90.6621663184803
 20
-149.2549722934154
 10
90.87662351243709
 20
-149.2549722934154
 10
90.96137286137425
 20
-149.2549722934154
 10
90.96137286137425
 20
-149.2549722934154
 10
91.32930905919891
 20
-149.2549722934154
 10
91.32930905919891
 20
-149.2549722934154
 10
91.36531030701979
 20
-149.2549722934154
 10
91.5654703547128
 20
-149.2529052361243
 10
91.59802650704842
 20
-149.2467040642508
 10
91.63402775486927
 20
-149.2401583828288
 10
91.63592255738617
 20
-149.2380913255377
 10
91.6881157539877
 20
-149.1977837083602
 10
91.6881157539877
 20
-149.1977837083602
 10
91.84865720360035
 20
-149.352468495648
 10
91.84865720360035
 20
-149.352468495648
 10
91.82333575178375
 20
-149.3820963168211
 10
91.81076115326259
 20
-149.4137911952854
 10
91.79629175222455
 20
-149.4730468376317
 97
        0
 97
        1
330
105
 75
     2
 76
     1
 98
        1
 10
0.0
 20
0.0
450
        0
451
        0
460
0.0
461
0.0
452
        0
462
0.0
453
        0
470

  0
SPLINE
  5
107
330
F2
100
AcDbEntity
  8
レイヤー 1
100
AcDbSpline
210
0.0
220
0.0
230
1.0
 70
     9
 71
     3
 72
    29
 73
    25
 74
     0
 42
0.0000000001
 43
0.0000000001
 40
0.0
 40
0.0
 40
0.0
 40
0.0
 40
1.0
 40
1.0
 40
1.0
 40
2.0
 40
2.0
 40
2.0
 40
3.0
 40
3.0
 40
3.0
 40
4.0
 40
4.0
 40
4.0
 40
5.0
 40
5.0
 40
5.0
 40
6.0
 40
6.0
 40
6.0
 40
7.0
 40
7.0
 40
7.0
 40
8.0
 40
8.0
 40
8.0
 40
8.0
 10
93.08269040641683
 20
-149.1557535434402
 30
0.0
 10
93.08269040641683
 20
-149.1557535434402
 30
0.0
 10
92.79226885701026
 20
-149.1557535434402
 30
0.0
 10
92.79226885701026
 20
-149.1557535434402
 30
0.0
 10
92.69494490955196
 20
-149.1557535434402
 30
0.0
 10
92.59572615957678
 20
-149.1598876580225
 30
0.0
 10
92.49840221211846
 20
-149.1747015686091
 30
0.0
 10
92.49840221211846
 20
-149.1747015686091
 30
0.0
 10
92.49840221211846
 20
-148.9652397631059
 30
0.0
 10
92.49840221211846
 20
-148.9652397631059
 30
0.0
 10
92.59934350983627
 20
-148.9800536736925
 30
0.0
 10
92.74731036092775
 20
-148.9841877882748
 30
0.0
 10
92.79226885701026
 20
-148.9841877882748
 30
0.0
 10
92.79226885701026
 20
-148.9841877882748
 30
0.0
 10
93.08269040641683
 20
-148.9841877882748
 30
0.0
 10
93.08269040641683
 20
-148.9841877882748
 30
0.0
 10
93.18190915639203
 20
-148.9841877882748
 30
0.0
 10
93.28095565159296
 20
-148.9800536736925
 30
0.0
 10
93.38017440156816
 20
-148.9652397631059
 30
0.0
 10
93.38017440156816
 20
-148.9652397631059
 30
0.0
 10
93.38017440156816
 20
-149.1747015686091
 30
0.0
 10
93.38017440156816
 20
-149.1747015686091
 30
0.0
 10
93.25218910429112
 20
-149.1557535434402
 30
0.0
 10
93.09526500493801
 20
-149.1557535434402
 30
0.0
 10
93.08269040641683
 20
-149.1557535434402
 30
0.0
  0
SPLINE
  5
108
330
F2
100
AcDbEntity
  8
レイヤー 1
100
AcDbSpline
210
0.0
220
0.0
230
1.0
 70
     9
 71
     3
 72
    50
 73
    46
 74
     0
 42
0.0000000001
 43
0.0000000001
 40
0.0
 40
0.0
 40
0.0
 40
0.0
 40
1.0
 40
1.0
 40
1.0
 40
2.0
 40
2.0
 40
2.0
 40
3.0
 40
3.0
 40
3.0
 40
4.0
 40
4.0
 40
4.0
 40
5.0
 40
5.0
 40
5.0
 40
6.0
 40
6.0
 40
6.0
 40
7.0
 40
7.0
 40
7.0
 40
8.0
 40
8.0
 40
8.0
 40
9.0
 40
9.0
 40
9.0
 40
10.0
 40
10.0
 40
10.0
 40
11.0
 40
11.0
 40
11.0
 40
12.0
 40
12.0
 40
12.0
 40
13.0
 40
13.0
 40
13.0
 40
14.0
 40
14.0
 40
14.0
 40
15.0
 40
15.0
 40
15.0
 40
15.0
 10
93.50281980084304
 20
-149.7817273931101
 30
0.0
 10
93.43615720320347
 20
-149.959494320149
 30
0.0
 10
93.32074650444759
 20
-150.166889068361
 30
0.0
 10
93.20344100317484
 20
-150.3064154355137
 30
0.0
 10
93.05926375711713
 20
-150.4776366811306
 30
0.0
 10
92.92042640906156
 20
-150.56652014465
 30
0.0
 10
92.64809161095255
 20
-150.7084580786423
 30
0.0
 10
92.64809161095255
 20
-150.7084580786423
 30
0.0
 10
92.5037421101206
 20
-150.5200113555991
 30
0.0
 10
92.5037421101206
 20
-150.5200113555991
 30
0.0
 10
92.66256101199061
 20
-150.496929215848
 30
0.0
 10
92.80863306056522
 20
-150.4101128096197
 30
0.0
 10
92.93834090558487
 20
-150.3043483782225
 30
0.0
 10
93.16192760257758
 20
-150.1224473366013
 30
0.0
 10
93.3243638547071
 20
-149.8092881569921
 30
0.0
 10
93.3657050005301
 20
-149.6273871153709
 30
0.0
 10
93.3657050005301
 20
-149.6273871153709
 30
0.0
 10
92.79416365952716
 20
-149.6273871153709
 30
0.0
 10
92.79416365952716
 20
-149.6273871153709
 30
0.0
 10
92.6589436617311
 20
-149.6273871153709
 30
0.0
 10
92.41003551292179
 20
-149.6356553445355
 30
0.0
 10
92.28015541312789
 20
-149.6528808219618
 30
0.0
 10
92.28015541312789
 20
-149.6528808219618
 30
0.0
 10
92.28015541312789
 20
-149.4241264817412
 30
0.0
 10
92.28015541312789
 20
-149.4241264817412
 30
0.0
 10
92.30909421520399
 20
-149.4306721631631
 30
0.0
 10
92.33062606198679
 20
-149.4368733350366
 30
0.0
 10
92.37575681284356
 20
-149.4413519591674
 30
0.0
 10
92.4624009642976
 20
-149.4475531310409
 30
0.0
 10
92.630004859655
 20
-149.449620188332
 30
0.0
 10
92.70217961007098
 20
-149.449620188332
 30
0.0
 10
92.70217961007098
 20
-149.449620188332
 30
0.0
 10
93.13316105527574
 20
-149.449620188332
 30
0.0
 10
93.13316105527574
 20
-149.449620188332
 30
0.0
 10
93.19086640465368
 20
-149.449620188332
 30
0.0
 10
93.31523435167119
 20
-149.4454860737497
 30
0.0
 10
93.367599803047
 20
-149.4389403923277
 30
0.0
 10
93.42892250268445
 20
-149.4306721631631
 30
0.0
 10
93.45234915198414
 20
-149.4158582525766
 30
0.0
 10
93.48111569928597
 20
-149.3924316032769
 30
0.0
 10
93.48111569928597
 20
-149.3924316032769
 30
0.0
 10
93.62184784985842
 20
-149.5595187343115
 30
0.0
 10
93.62184784985842
 20
-149.5595187343115
 30
0.0
 10
93.56241995273787
 20
-149.6273871153709
 30
0.0
 10
93.52262909988324
 20
-149.7310844894769
 30
0.0
 10
93.50281980084304
 20
-149.7817273931101
 30
0.0
  0
HATCH
  5
109
330
F2
100
AcDbEntity
  8
レイヤー 1
 62
   250
420
  2299925
440
 33554687
100
AcDbHatch
 10
0.0
 20
0.0
 30
0.0
210
0.0
220
0.0
230
1.0
  2
SOLID
 70
     1
 71
     1
 91
        2
 92
        1
 93
        1
 72
     4
 94
        3
 73
     0
 74
     0
 95
       29
 96
       25
 40
0.0
 40
0.0
 40
0.0
 40
0.0
 40
1.0
 40
1.0
 40
1.0
 40
2.0
 40
2.0
 40
2.0
 40
3.0
 40
3.0
 40
3.0
 40
4.0
 40
4.0
 40
4.0
 40
5.0
 40
5.0
 40
5.0
 40
6.0
 40
6.0
 40
6.0
 40
7.0
 40
7.0
 40
7.0
 40
8.0
 40
8.0
 40
8.0
 40
8.0
 10
93.08269040641683
 20
-149.1557535434402
 10
93.08269040641683
 20
-149.1557535434402
 10
92.79226885701026
 20
-149.1557535434402
 10
92.79226885701026
 20
-149.1557535434402
 10
92.69494490955196
 20
-149.1557535434402
 10
92.59572615957678
 20
-149.1598876580225
 10
92.49840221211846
 20
-149.1747015686091
 10
92.49840221211846
 20
-149.1747015686091
 10
92.49840221211846
 20
-148.9652397631059
 10
92.49840221211846
 20
-148.9652397631059
 10
92.59934350983627
 20
-148.9800536736925
 10
92.74731036092775
 20
-148.9841877882748
 10
92.79226885701026
 20
-148.9841877882748
 10
92.79226885701026
 20
-148.9841877882748
 10
93.08269040641683
 20
-148.9841877882748
 10
93.08269040641683
 20
-148.9841877882748
 10
93.18190915639203
 20
-148.9841877882748
 10
93.28095565159296
 20
-148.9800536736925
 10
93.38017440156816
 20
-148.9652397631059
 10
93.38017440156816
 20
-148.9652397631059
 10
93.38017440156816
 20
-149.1747015686091
 10
93.38017440156816
 20
-149.1747015686091
 10
93.25218910429112
 20
-149.1557535434402
 10
93.09526500493801
 20
-149.1557535434402
 10
93.08269040641683
 20
-149.1557535434402
 97
        0
 97
        1
330
107
 92
        1
 93
        1
 72
     4
 94
        3
 73
     0
 74
     0
 95
       50
 96
       46
 40
0.0
 40
0.0
 40
0.0
 40
0.0
 40
1.0
 40
1.0
 40
1.0
 40
2.0
 40
2.0
 40
2.0
 40
3.0
 40
3.0
 40
3.0
 40
4.0
 40
4.0
 40
4.0
 40
5.0
 40
5.0
 40
5.0
 40
6.0
 40
6.0
 40
6.0
 40
7.0
 40
7.0
 40
7.0
 40
8.0
 40
8.0
 40
8.0
 40
9.0
 40
9.0
 40
9.0
 40
10.0
 40
10.0
 40
10.0
 40
11.0
 40
11.0
 40
11.0
 40
12.0
 40
12.0
 40
12.0
 40
13.0
 40
13.0
 40
13.0
 40
14.0
 40
14.0
 40
14.0
 40
15.0
 40
15.0
 40
15.0
 40
15.0
 10
93.50281980084304
 20
-149.7817273931101
 10
93.43615720320347
 20
-149.959494320149
 10
93.32074650444759
 20
-150.166889068361
 10
93.20344100317484
 20
-150.3064154355137
 10
93.05926375711713
 20
-150.4776366811306
 10
92.92042640906156
 20
-150.56652014465
 10
92.64809161095255
 20
-150.7084580786423
 10
92.64809161095255
 20
-150.7084580786423
 10
92.5037421101206
 20
-150.5200113555991
 10
92.5037421101206
 20
-150.5200113555991
 10
92.66256101199061
 20
-150.496929215848
 10
92.80863306056522
 20
-150.4101128096197
 10
92.93834090558487
 20
-150.3043483782225
 10
93.16192760257758
 20
-150.1224473366013
 10
93.3243638547071
 20
-149.8092881569921
 10
93.3657050005301
 20
-149.6273871153709
 10
93.3657050005301
 20
-149.6273871153709
 10
92.79416365952716
 20
-149.6273871153709
 10
92.79416365952716
 20
-149.6273871153709
 10
92.6589436617311
 20
-149.6273871153709
 10
92.41003551292179
 20
-149.6356553445355
 10
92.28015541312789
 20
-149.6528808219618
 10
92.28015541312789
 20
-149.6528808219618
 10
92.28015541312789
 20
-149.4241264817412
 10
92.28015541312789
 20
-149.4241264817412
 10
92.30909421520399
 20
-149.4306721631631
 10
92.33062606198679
 20
-149.4368733350366
 10
92.37575681284356
 20
-149.4413519591674
 10
92.4624009642976
 20
-149.4475531310409
 10
92.630004859655
 20
-149.449620188332
 10
92.70217961007098
 20
-149.449620188332
 10
92.70217961007098
 20
-149.449620188332
 10
93.13316105527574
 20
-149.449620188332
 10
93.13316105527574
 20
-149.449620188332
 10
93.19086640465368
 20
-149.449620188332
 10
93.31523435167119
 20
-149.4454860737497
 10
93.367599803047
 20
-149.4389403923277
 10
93.42892250268445
 20
-149.4306721631631
 10
93.45234915198414
 20
-149.4158582525766
 10
93.48111569928597
 20
-149.3924316032769
 10
93.48111569928597
 20
-149.3924316032769
 10
93.62184784985842
 20
-149.5595187343115
 10
93.62184784985842
 20
-149.5595187343115
 10
93.56241995273787
 20
-149.6273871153709
 10
93.52262909988324
 20
-149.7310844894769
 10
93.50281980084304
 20
-149.7817273931101
 97
        0
 97
        1
330
108
 75
     2
 76
     1
 98
        1
 10
0.0
 20
0.0
450
        0
451
        0
460
0.0
461
0.0
452
        0
462
0.0
453
        0
470

  0
SPLINE
  5
10A
330
F2
100
AcDbEntity
  8
レイヤー 1
100
AcDbSpline
210
0.0
220
0.0
230
1.0
 70
     9
 71
     3
 72
    50
 73
    46
 74
     0
 42
0.0000000001
 43
0.0000000001
 40
0.0
 40
0.0
 40
0.0
 40
0.0
 40
1.0
 40
1.0
 40
1.0
 40
2.0
 40
2.0
 40
2.0
 40
3.0
 40
3.0
 40
3.0
 40
4.0
 40
4.0
 40
4.0
 40
5.0
 40
5.0
 40
5.0
 40
6.0
 40
6.0
 40
6.0
 40
7.0
 40
7.0
 40
7.0
 40
8.0
 40
8.0
 40
8.0
 40
9.0
 40
9.0
 40
9.0
 40
10.0
 40
10.0
 40
10.0
 40
11.0
 40
11.0
 40
11.0
 40
12.0
 40
12.0
 40
12.0
 40
13.0
 40
13.0
 40
13.0
 40
14.0
 40
14.0
 40
14.0
 40
15.0
 40
15.0
 40
15.0
 40
15.0
 10
94.95871715290963
 20
-149.1409396328537
 30
0.0
 10
94.78026120677368
 20
-149.3545355529391
 30
0.0
 10
94.71893850713625
 20
-149.4265380485809
 30
0.0
 10
94.59801565560397
 20
-149.5447048237249
 30
0.0
 10
94.59801565560397
 20
-149.5447048237249
 30
0.0
 10
94.59801565560397
 20
-150.111767540597
 30
0.0
 10
94.59801565560397
 20
-150.111767540597
 30
0.0
 10
94.59801565560397
 20
-150.2619737037539
 30
0.0
 10
94.60352780838038
 20
-150.2809217289228
 30
0.0
 10
94.60714515863989
 20
-150.4586886559617
 30
0.0
 10
94.60886770638252
 20
-150.5899467939497
 30
0.0
 10
94.61437985915891
 20
-150.6385226402917
 30
0.0
 10
94.61971975716105
 20
-150.697778282638
 30
0.0
 10
94.61971975716105
 20
-150.697778282638
 30
0.0
 10
94.42679440998706
 20
-150.697778282638
 30
0.0
 10
94.42679440998706
 20
-150.697778282638
 30
0.0
 10
94.43041176024657
 20
-150.6533365508783
 30
0.0
 10
94.43402911050608
 20
-150.6068277618274
 30
0.0
 10
94.43402911050608
 20
-150.5982150231143
 30
0.0
 10
94.43402911050608
 20
-150.517944298308
 30
0.0
 10
94.43764646076559
 20
-150.166889068361
 30
0.0
 10
94.43764646076559
 20
-150.0948865727193
 30
0.0
 10
94.43764646076559
 20
-150.0948865727193
 30
0.0
 10
94.43764646076559
 20
-149.6887098150084
 30
0.0
 10
94.43764646076559
 20
-149.6887098150084
 30
0.0
 10
94.28244490915508
 20
-149.8134222715744
 30
0.0
 10
94.11656356154031
 20
-149.9236653271024
 30
0.0
 10
93.9434475134065
 20
-150.0101372237821
 30
0.0
 10
93.9434475134065
 20
-150.0101372237821
 30
0.0
 10
93.77033146527271
 20
-149.8475287168784
 30
0.0
 10
93.77033146527271
 20
-149.8475287168784
 30
0.0
 10
93.87489011325003
 20
-149.8113552142832
 30
0.0
 10
94.09313691224062
 20
-149.7372856613504
 30
0.0
 10
94.38717581190669
 20
-149.4813150667963
 30
0.0
 10
94.57097165604476
 20
-149.3228406744748
 30
0.0
 10
94.73513045591692
 20
-149.1343939514317
 30
0.0
 10
94.86501055571084
 20
-148.9142523499242
 30
0.0
 10
94.86501055571084
 20
-148.9142523499242
 30
0.0
 10
95.02899710080873
 20
-149.0582573412076
 30
0.0
 10
95.02899710080873
 20
-149.0582573412076
 30
0.0
 10
95.03984915158726
 20
-149.0689371372119
 30
0.0
 10
95.04708385210628
 20
-149.0837510477985
 30
0.0
 10
95.04708385210628
 20
-149.0964979010939
 30
0.0
 10
95.04708385210628
 20
-149.1364610087228
 30
0.0
 10
95.01469995454494
 20
-149.1364610087228
 30
0.0
 10
94.95871715290963
 20
-149.1409396328537
 30
0.0
  0
HATCH
  5
10B
330
F2
100
AcDbEntity
  8
レイヤー 1
 62
   250
420
  2299925
440
 33554687
100
AcDbHatch
 10
0.0
 20
0.0
 30
0.0
210
0.0
220
0.0
230
1.0
  2
SOLID
 70
     1
 71
     1
 91
        1
 92
        1
 93
        1
 72
     4
 94
        3
 73
     0
 74
     0
 95
       50
 96
       46
 40
0.0
 40
0.0
 40
0.0
 40
0.0
 40
1.0
 40
1.0
 40
1.0
 40
2.0
 40
2.0
 40
2.0
 40
3.0
 40
3.0
 40
3.0
 40
4.0
 40
4.0
 40
4.0
 40
5.0
 40
5.0
 40
5.0
 40
6.0
 40
6.0
 40
6.0
 40
7.0
 40
7.0
 40
7.0
 40
8.0
 40
8.0
 40
8.0
 40
9.0
 40
9.0
 40
9.0
 40
10.0
 40
10.0
 40
10.0
 40
11.0
 40
11.0
 40
11.0
 40
12.0
 40
12.0
 40
12.0
 40
13.0
 40
13.0
 40
13.0
 40
14.0
 40
14.0
 40
14.0
 40
15.0
 40
15.0
 40
15.0
 40
15.0
 10
94.95871715290963
 20
-149.1409396328537
 10
94.78026120677368
 20
-149.3545355529391
 10
94.71893850713625
 20
-149.4265380485809
 10
94.59801565560397
 20
-149.5447048237249
 10
94.59801565560397
 20
-149.5447048237249
 10
94.59801565560397
 20
-150.111767540597
 10
94.59801565560397
 20
-150.111767540597
 10
94.59801565560397
 20
-150.2619737037539
 10
94.60352780838038
 20
-150.2809217289228
 10
94.60714515863989
 20
-150.4586886559617
 10
94.60886770638252
 20
-150.5899467939497
 10
94.61437985915891
 20
-150.6385226402917
 10
94.61971975716105
 20
-150.697778282638
 10
94.61971975716105
 20
-150.697778282638
 10
94.42679440998706
 20
-150.697778282638
 10
94.42679440998706
 20
-150.697778282638
 10
94.43041176024657
 20
-150.6533365508783
 10
94.43402911050608
 20
-150.6068277618274
 10
94.43402911050608
 20
-150.5982150231143
 10
94.43402911050608
 20
-150.517944298308
 10
94.43764646076559
 20
-150.166889068361
 10
94.43764646076559
 20
-150.0948865727193
 10
94.43764646076559
 20
-150.0948865727193
 10
94.43764646076559
 20
-149.6887098150084
 10
94.43764646076559
 20
-149.6887098150084
 10
94.28244490915508
 20
-149.8134222715744
 10
94.11656356154031
 20
-149.9236653271024
 10
93.9434475134065
 20
-150.0101372237821
 10
93.9434475134065
 20
-150.0101372237821
 10
93.77033146527271
 20
-149.8475287168784
 10
93.77033146527271
 20
-149.8475287168784
 10
93.87489011325003
 20
-149.8113552142832
 10
94.09313691224062
 20
-149.7372856613504
 10
94.38717581190669
 20
-149.4813150667963
 10
94.57097165604476
 20
-149.3228406744748
 10
94.73513045591692
 20
-149.1343939514317
 10
94.86501055571084
 20
-148.9142523499242
 10
94.86501055571084
 20
-148.9142523499242
 10
95.02899710080873
 20
-149.0582573412076
 10
95.02899710080873
 20
-149.0582573412076
 10
95.03984915158726
 20
-149.0689371372119
 10
95.04708385210628
 20
-149.0837510477985
 10
95.04708385210628
 20
-149.0964979010939
 10
95.04708385210628
 20
-149.1364610087228
 10
95.01469995454494
 20
-149.1364610087228
 10
94.95871715290963
 20
-149.1409396328537
 97
        0
 97
        1
330
10A
 75
     2
 76
     1
 98
        1
 10
0.0
 20
0.0
450
        0
451
        0
460
0.0
461
0.0
452
        0
462
0.0
453
        0
470

  0
SPLINE
  5
10C
330
F2
100
AcDbEntity
  8
レイヤー 1
100
AcDbSpline
210
0.0
220
0.0
230
1.0
 70
     9
 71
     3
 72
    50
 73
    46
 74
     0
 42
0.0000000001
 43
0.0000000001
 40
0.0
 40
0.0
 40
0.0
 40
0.0
 40
1.0
 40
1.0
 40
1.0
 40
2.0
 40
2.0
 40
2.0
 40
3.0
 40
3.0
 40
3.0
 40
4.0
 40
4.0
 40
4.0
 40
5.0
 40
5.0
 40
5.0
 40
6.0
 40
6.0
 40
6.0
 40
7.0
 40
7.0
 40
7.0
 40
8.0
 40
8.0
 40
8.0
 40
9.0
 40
9.0
 40
9.0
 40
10.0
 40
10.0
 40
10.0
 40
11.0
 40
11.0
 40
11.0
 40
12.0
 40
12.0
 40
12.0
 40
13.0
 40
13.0
 40
13.0
 40
14.0
 40
14.0
 40
14.0
 40
15.0
 40
15.0
 40
15.0
 40
15.0
 10
96.41271970245933
 20
-149.6676947325483
 30
0.0
 10
96.3605265058578
 20
-149.7393527186415
 30
0.0
 10
96.1386623566077
 20
-150.056646012833
 30
0.0
 10
96.08991425549142
 20
-150.1203802793102
 30
0.0
 10
96.16208900590741
 20
-150.2175319719942
 30
0.0
 10
96.20532495424729
 20
-150.2809217289228
 30
0.0
 10
96.2613077558826
 20
-150.3718722497334
 30
0.0
 10
96.2613077558826
 20
-150.3718722497334
 30
0.0
 10
96.10438365652946
 20
-150.5096760691434
 30
0.0
 10
96.10438365652946
 20
-150.5096760691434
 30
0.0
 10
95.9889729577736
 20
-150.2978026968005
 30
0.0
 10
95.842900909199
 20
-150.0738714902593
 30
0.0
 10
95.59227021264709
 20
-149.8747449712118
 30
0.0
 10
95.59227021264709
 20
-149.8747449712118
 30
0.0
 10
95.71853296218149
 20
-149.7204046934727
 30
0.0
 10
95.71853296218149
 20
-149.7204046934727
 30
0.0
 10
95.81223955938027
 20
-149.800675418279
 30
0.0
 10
95.90060625857693
 20
-149.8895588817984
 30
0.0
 10
95.98363305977146
 20
-149.9849880267398
 30
0.0
 10
96.0413384091494
 20
-149.9088514165158
 30
0.0
 10
96.21445445728319
 20
-149.6652831657087
 30
0.0
 10
96.32797035352218
 20
-149.4368733350366
 30
0.0
 10
96.32797035352218
 20
-149.4368733350366
 30
0.0
 10
95.75453421000235
 20
-149.4368733350366
 30
0.0
 10
95.75453421000235
 20
-149.4368733350366
 30
0.0
 10
95.64808075950812
 20
-149.4368733350366
 30
0.0
 10
95.43362356555132
 20
-149.4454860737497
 30
0.0
 10
95.25499536464112
 20
-149.4558213602055
 30
0.0
 10
95.25499536464112
 20
-149.4558213602055
 30
0.0
 10
95.25499536464112
 20
-149.2360242682465
 30
0.0
 10
95.25499536464112
 20
-149.2360242682465
 30
0.0
 10
95.41191946399425
 20
-149.2549722934154
 30
0.0
 10
95.58693031464494
 20
-149.2591064079977
 30
0.0
 10
95.74729950948331
 20
-149.2591064079977
 30
0.0
 10
95.74729950948331
 20
-149.2591064079977
 30
0.0
 10
96.17655840694546
 20
-149.2591064079977
 30
0.0
 10
96.17655840694546
 20
-149.2591064079977
 30
0.0
 10
96.46508515383512
 20
-149.2591064079977
 30
0.0
 10
96.50298120417287
 20
-149.2442924974111
 30
0.0
 10
96.57326115207197
 20
-149.2043293897822
 30
0.0
 10
96.57326115207197
 20
-149.2043293897822
 30
0.0
 10
96.71571585038705
 20
-149.3628037821037
 30
0.0
 10
96.71571585038705
 20
-149.3628037821037
 30
0.0
 10
96.58583575059314
 20
-149.4348062777454
 30
0.0
 10
96.46319035131824
 20
-149.5977592941978
 30
0.0
 10
96.41271970245933
 20
-149.6676947325483
 30
0.0
  0
HATCH
  5
10D
330
F2
100
AcDbEntity
  8
レイヤー 1
 62
   250
420
  2299925
440
 33554687
100
AcDbHatch
 10
0.0
 20
0.0
 30
0.0
210
0.0
220
0.0
230
1.0
  2
SOLID
 70
     1
 71
     1
 91
        1
 92
        1
 93
        1
 72
     4
 94
        3
 73
     0
 74
     0
 95
       50
 96
       46
 40
0.0
 40
0.0
 40
0.0
 40
0.0
 40
1.0
 40
1.0
 40
1.0
 40
2.0
 40
2.0
 40
2.0
 40
3.0
 40
3.0
 40
3.0
 40
4.0
 40
4.0
 40
4.0
 40
5.0
 40
5.0
 40
5.0
 40
6.0
 40
6.0
 40
6.0
 40
7.0
 40
7.0
 40
7.0
 40
8.0
 40
8.0
 40
8.0
 40
9.0
 40
9.0
 40
9.0
 40
10.0
 40
10.0
 40
10.0
 40
11.0
 40
11.0
 40
11.0
 40
12.0
 40
12.0
 40
12.0
 40
13.0
 40
13.0
 40
13.0
 40
14.0
 40
14.0
 40
14.0
 40
15.0
 40
15.0
 40
15.0
 40
15.0
 10
96.41271970245933
 20
-149.6676947325483
 10
96.3605265058578
 20
-149.7393527186415
 10
96.1386623566077
 20
-150.056646012833
 10
96.08991425549142
 20
-150.1203802793102
 10
96.16208900590741
 20
-150.2175319719942
 10
96.20532495424729
 20
-150.2809217289228
 10
96.2613077558826
 20
-150.3718722497334
 10
96.2613077558826
 20
-150.3718722497334
 10
96.10438365652946
 20
-150.5096760691434
 10
96.10438365652946
 20
-150.5096760691434
 10
95.9889729577736
 20
-150.2978026968005
 10
95.842900909199
 20
-150.0738714902593
 10
95.59227021264709
 20
-149.8747449712118
 10
95.59227021264709
 20
-149.8747449712118
 10
95.71853296218149
 20
-149.7204046934727
 10
95.71853296218149
 20
-149.7204046934727
 10
95.81223955938027
 20
-149.800675418279
 10
95.90060625857693
 20
-149.8895588817984
 10
95.98363305977146
 20
-149.9849880267398
 10
96.0413384091494
 20
-149.9088514165158
 10
96.21445445728319
 20
-149.6652831657087
 10
96.32797035352218
 20
-149.4368733350366
 10
96.32797035352218
 20
-149.4368733350366
 10
95.75453421000235
 20
-149.4368733350366
 10
95.75453421000235
 20
-149.4368733350366
 10
95.64808075950812
 20
-149.4368733350366
 10
95.43362356555132
 20
-149.4454860737497
 10
95.25499536464112
 20
-149.4558213602055
 10
95.25499536464112
 20
-149.4558213602055
 10
95.25499536464112
 20
-149.2360242682465
 10
95.25499536464112
 20
-149.2360242682465
 10
95.41191946399425
 20
-149.2549722934154
 10
95.58693031464494
 20
-149.2591064079977
 10
95.74729950948331
 20
-149.2591064079977
 10
95.74729950948331
 20
-149.2591064079977
 10
96.17655840694546
 20
-149.2591064079977
 10
96.17655840694546
 20
-149.2591064079977
 10
96.46508515383512
 20
-149.2591064079977
 10
96.50298120417287
 20
-149.2442924974111
 10
96.57326115207197
 20
-149.2043293897822
 10
96.57326115207197
 20
-149.2043293897822
 10
96.71571585038705
 20
-149.3628037821037
 10
96.71571585038705
 20
-149.3628037821037
 10
96.58583575059314
 20
-149.4348062777454
 10
96.46319035131824
 20
-149.5977592941978
 10
96.41271970245933
 20
-149.6676947325483
 97
        0
 97
        1
330
10C
 75
     2
 76
     1
 98
        1
 10
0.0
 20
0.0
450
        0
451
        0
460
0.0
461
0.0
452
        0
462
0.0
453
        0
470

  0
SPLINE
  5
10E
330
F2
100
AcDbEntity
  8
レイヤー 1
100
AcDbSpline
210
0.0
220
0.0
230
1.0
 70
     9
 71
     3
 72
    29
 73
    25
 74
     0
 42
0.0000000001
 43
0.0000000001
 40
0.0
 40
0.0
 40
0.0
 40
0.0
 40
1.0
 40
1.0
 40
1.0
 40
2.0
 40
2.0
 40
2.0
 40
3.0
 40
3.0
 40
3.0
 40
4.0
 40
4.0
 40
4.0
 40
5.0
 40
5.0
 40
5.0
 40
6.0
 40
6.0
 40
6.0
 40
7.0
 40
7.0
 40
7.0
 40
8.0
 40
8.0
 40
8.0
 40
8.0
 10
97.79471975636731
 20
-149.910918473807
 30
0.0
 10
97.79471975636731
 20
-149.910918473807
 30
0.0
 10
97.38182506246012
 20
-149.910918473807
 30
0.0
 10
97.38182506246012
 20
-149.910918473807
 30
0.0
 10
97.35822615838614
 20
-149.910918473807
 30
0.0
 10
97.08778616279403
 20
-149.910918473807
 30
0.0
 10
96.90743541414121
 20
-149.9360676708493
 30
0.0
 10
96.90743541414121
 20
-149.9360676708493
 30
0.0
 10
96.90743541414121
 20
-149.7055907828861
 30
0.0
 10
96.90743541414121
 20
-149.7055907828861
 30
0.0
 10
97.04265541193727
 20
-149.7290174321858
 30
0.0
 10
97.20509166406678
 20
-149.7310844894769
 30
0.0
 10
97.38182506246012
 20
-149.7310844894769
 30
0.0
 10
97.38182506246012
 20
-149.7310844894769
 30
0.0
 10
97.79471975636731
 20
-149.7310844894769
 30
0.0
 10
97.79471975636731
 20
-149.7310844894769
 30
0.0
 10
97.95336640346306
 20
-149.7310844894769
 30
0.0
 10
98.11201305055881
 20
-149.7290174321858
 30
0.0
 10
98.26893714991193
 20
-149.7055907828861
 30
0.0
 10
98.26893714991193
 20
-149.7055907828861
 30
0.0
 10
98.26893714991193
 20
-149.9360676708493
 30
0.0
 10
98.26893714991193
 20
-149.9360676708493
 30
0.0
 10
98.11201305055881
 20
-149.9129855310981
 30
0.0
 10
97.90117320686151
 20
-149.910918473807
 30
0.0
 10
97.79471975636731
 20
-149.910918473807
 30
0.0
  0
HATCH
  5
10F
330
F2
100
AcDbEntity
  8
レイヤー 1
 62
   250
420
  2299925
440
 33554687
100
AcDbHatch
 10
0.0
 20
0.0
 30
0.0
210
0.0
220
0.0
230
1.0
  2
SOLID
 70
     1
 71
     1
 91
        1
 92
        1
 93
        1
 72
     4
 94
        3
 73
     0
 74
     0
 95
       29
 96
       25
 40
0.0
 40
0.0
 40
0.0
 40
0.0
 40
1.0
 40
1.0
 40
1.0
 40
2.0
 40
2.0
 40
2.0
 40
3.0
 40
3.0
 40
3.0
 40
4.0
 40
4.0
 40
4.0
 40
5.0
 40
5.0
 40
5.0
 40
6.0
 40
6.0
 40
6.0
 40
7.0
 40
7.0
 40
7.0
 40
8.0
 40
8.0
 40
8.0
 40
8.0
 10
97.79471975636731
 20
-149.910918473807
 10
97.79471975636731
 20
-149.910918473807
 10
97.38182506246012
 20
-149.910918473807
 10
97.38182506246012
 20
-149.910918473807
 10
97.35822615838614
 20
-149.910918473807
 10
97.08778616279403
 20
-149.910918473807
 10
96.90743541414121
 20
-149.9360676708493
 10
96.90743541414121
 20
-149.9360676708493
 10
96.90743541414121
 20
-149.7055907828861
 10
96.90743541414121
 20
-149.7055907828861
 10
97.04265541193727
 20
-149.7290174321858
 10
97.20509166406678
 20
-149.7310844894769
 10
97.38182506246012
 20
-149.7310844894769
 10
97.38182506246012
 20
-149.7310844894769
 10
97.79471975636731
 20
-149.7310844894769
 10
97.79471975636731
 20
-149.7310844894769
 10
97.95336640346306
 20
-149.7310844894769
 10
98.11201305055881
 20
-149.7290174321858
 10
98.26893714991193
 20
-149.7055907828861
 10
98.26893714991193
 20
-149.7055907828861
 10
98.26893714991193
 20
-149.9360676708493
 10
98.26893714991193
 20
-149.9360676708493
 10
98.11201305055881
 20
-149.9129855310981
 10
97.90117320686151
 20
-149.910918473807
 10
97.79471975636731
 20
-149.910918473807
 97
        0
 97
        1
330
10E
 75
     2
 76
     1
 98
        1
 10
0.0
 20
0.0
450
        0
451
        0
460
0.0
461
0.0
452
        0
462
0.0
453
        0
470

  0
SPLINE
  5
110
330
F2
100
AcDbEntity
  8
レイヤー 1
100
AcDbSpline
210
0.0
220
0.0
230
1.0
 70
     9
 71
     3
 72
    20
 73
    16
 74
     0
 42
0.0000000001
 43
0.0000000001
 40
0.0
 40
0.0
 40
0.0
 40
0.0
 40
1.0
 40
1.0
 40
1.0
 40
2.0
 40
2.0
 40
2.0
 40
3.0
 40
3.0
 40
3.0
 40
4.0
 40
4.0
 40
4.0
 40
5.0
 40
5.0
 40
5.0
 40
5.0
 10
99.32606469956084
 20
-150.2619737037539
 30
0.0
 10
99.28644610148047
 20
-150.084206776715
 30
0.0
 10
99.20341930028596
 20
-149.9426133522713
 30
0.0
 10
99.08439125127058
 20
-149.8327148062918
 30
0.0
 10
99.08439125127058
 20
-149.8327148062918
 30
0.0
 10
99.22150605158352
 20
-149.7183376361815
 30
0.0
 10
99.22150605158352
 20
-149.7183376361815
 30
0.0
 10
99.27369924818506
 20
-149.7607123106501
 30
0.0
 10
99.30797794826329
 20
-149.7944742464055
 30
0.0
 10
99.37291799816025
 20
-149.9023057350939
 30
0.0
 10
99.44147539831673
 20
-150.0187499624953
 30
0.0
 10
99.45956214961428
 20
-150.0714599234196
 30
0.0
 10
99.4810939963971
 20
-150.1372612471879
 30
0.0
 10
99.4810939963971
 20
-150.1372612471879
 30
0.0
 10
99.32606469956084
 20
-150.2619737037539
 30
0.0
 10
99.32606469956084
 20
-150.2619737037539
 30
0.0
  0
SPLINE
  5
111
330
F2
100
AcDbEntity
  8
レイヤー 1
100
AcDbSpline
210
0.0
220
0.0
230
1.0
 70
     9
 71
     3
 72
    77
 73
    73
 74
     0
 42
0.0000000001
 43
0.0000000001
 40
0.0
 40
0.0
 40
0.0
 40
0.0
 40
1.0
 40
1.0
 40
1.0
 40
2.0
 40
2.0
 40
2.0
 40
3.0
 40
3.0
 40
3.0
 40
4.0
 40
4.0
 40
4.0
 40
5.0
 40
5.0
 40
5.0
 40
6.0
 40
6.0
 40
6.0
 40
7.0
 40
7.0
 40
7.0
 40
8.0
 40
8.0
 40
8.0
 40
9.0
 40
9.0
 40
9.0
 40
10.0
 40
10.0
 40
10.0
 40
11.0
 40
11.0
 40
11.0
 40
12.0
 40
12.0
 40
12.0
 40
13.0
 40
13.0
 40
13.0
 40
14.0
 40
14.0
 40
14.0
 40
15.0
 40
15.0
 40
15.0
 40
16.0
 40
16.0
 40
16.0
 40
17.0
 40
17.0
 40
17.0
 40
18.0
 40
18.0
 40
18.0
 40
19.0
 40
19.0
 40
19.0
 40
20.0
 40
20.0
 40
20.0
 40
21.0
 40
21.0
 40
21.0
 40
22.0
 40
22.0
 40
22.0
 40
23.0
 40
23.0
 40
23.0
 40
24.0
 40
24.0
 40
24.0
 40
24.0
 10
99.98252764427521
 20
-149.5364365945603
 30
0.0
 10
99.92292749238039
 20
-149.532302479978
 30
0.0
 10
99.86522214300245
 20
-149.532302479978
 30
0.0
 10
99.80751679362452
 20
-149.532302479978
 30
0.0
 10
99.80751679362452
 20
-149.532302479978
 30
0.0
 10
99.80751679362452
 20
-150.3064154355137
 30
0.0
 10
99.80751679362452
 20
-150.3064154355137
 30
0.0
 10
99.80751679362452
 20
-150.5709987687808
 30
0.0
 10
99.80579424588189
 20
-150.600626589954
 30
0.0
 10
99.8002820931055
 20
-150.6302544111271
 30
0.0
 10
99.77151554580366
 20
-150.7632350968578
 30
0.0
 10
99.68487139434962
 20
-150.7718478355709
 30
0.0
 10
99.53518199551552
 20
-150.7718478355709
 30
0.0
 10
99.50090329543728
 20
-150.7718478355709
 30
0.0
 10
99.48660614917351
 20
-150.7718478355709
 30
0.0
 10
99.45232744909525
 20
-150.7677137209886
 30
0.0
 10
99.45232744909525
 20
-150.7677137209886
 30
0.0
 10
99.34587399860104
 20
-150.5265570370211
 30
0.0
 10
99.34587399860104
 20
-150.5265570370211
 30
0.0
 10
99.44509274857622
 20
-150.5582519154854
 30
0.0
 10
99.51537269647532
 20
-150.5582519154854
 30
0.0
 10
99.53518199551552
 20
-150.5582519154854
 30
0.0
 10
99.59478214741034
 20
-150.5582519154854
 30
0.0
 10
99.62354869471218
 20
-150.5413709476077
 30
0.0
 10
99.62716604497169
 20
-150.4841823625525
 30
0.0
 10
99.62716604497169
 20
-150.4714355092571
 30
0.0
 10
99.62906084748858
 20
-150.3742838165731
 30
0.0
 10
99.62906084748858
 20
-150.3170952315179
 30
0.0
 10
99.62906084748858
 20
-150.3170952315179
 30
0.0
 10
99.62906084748858
 20
-149.5298909131383
 30
0.0
 10
99.62906084748858
 20
-149.5298909131383
 30
0.0
 10
99.62906084748858
 20
-149.5298909131383
 30
0.0
 10
99.37843015093665
 20
-149.5298909131383
 30
0.0
 10
99.37843015093665
 20
-149.5298909131383
 30
0.0
 10
99.25388994914486
 20
-149.5298909131383
 30
0.0
 10
99.12952200212735
 20
-149.5364365945603
 30
0.0
 10
99.00687660285246
 20
-149.5491834478557
 30
0.0
 10
99.00687660285246
 20
-149.5491834478557
 30
0.0
 10
99.00687660285246
 20
-149.3417886996437
 30
0.0
 10
99.00687660285246
 20
-149.3417886996437
 30
0.0
 10
99.13486190012948
 20
-149.3545355529391
 30
0.0
 10
99.32072480155872
 20
-149.3586696675214
 30
0.0
 10
99.37843015093665
 20
-149.3586696675214
 30
0.0
 10
99.37843015093665
 20
-149.3586696675214
 30
0.0
 10
99.62906084748858
 20
-149.3586696675214
 30
0.0
 10
99.62906084748858
 20
-149.3586696675214
 30
0.0
 10
99.62716604497169
 20
-149.089952219672
 30
0.0
 10
99.62716604497169
 20
-149.0138156094479
 30
0.0
 10
99.61993134445267
 20
-148.8656765035822
 30
0.0
 10
99.61993134445267
 20
-148.8656765035822
 30
0.0
 10
99.84007294596013
 20
-148.9039170634685
 30
0.0
 10
99.84007294596013
 20
-148.9039170634685
 30
0.0
 10
99.85264754448129
 20
-148.9059841207596
 30
0.0
 10
99.86522214300245
 20
-148.9121852926331
 30
0.0
 10
99.86522214300245
 20
-148.9335448846416
 30
0.0
 10
99.86522214300245
 20
-148.9524929098105
 30
0.0
 10
99.85988224500031
 20
-148.9545599671016
 30
0.0
 10
99.81113414388403
 20
-148.9883219028571
 30
0.0
 10
99.80751679362452
 20
-149.0668700799208
 30
0.0
 10
99.80751679362452
 20
-149.0816839905074
 30
0.0
 10
99.80751679362452
 20
-149.3586696675214
 30
0.0
 10
99.95892874020125
 20
-149.3545355529391
 30
0.0
 10
99.97529294375619
 20
-149.3545355529391
 30
0.0
 10
100.004059491058
 20
-149.3500569288083
 30
0.0
 10
100.0472954393979
 20
-149.345922814226
 30
0.0
 10
100.0509127896574
 20
-149.3438557569349
 30
0.0
 10
100.0888088399951
 20
-149.3417886996437
 30
0.0
 10
100.0888088399951
 20
-149.3417886996437
 30
0.0
 10
100.0888088399951
 20
-149.5491834478557
 30
0.0
 10
100.0888088399951
 20
-149.5491834478557
 30
0.0
 10
100.0636596429528
 20
-149.5471163905646
 30
0.0
 10
100.0168063443534
 20
-149.5385036518515
 30
0.0
 10
99.98252764427521
 20
-149.5364365945603
 30
0.0
  0
SPLINE
  5
112
330
F2
100
AcDbEntity
  8
レイヤー 1
100
AcDbSpline
210
0.0
220
0.0
230
1.0
 70
     9
 71
     3
 72
    53
 73
    49
 74
     0
 42
0.0000000001
 43
0.0000000001
 40
0.0
 40
0.0
 40
0.0
 40
0.0
 40
1.0
 40
1.0
 40
1.0
 40
2.0
 40
2.0
 40
2.0
 40
3.0
 40
3.0
 40
3.0
 40
4.0
 40
4.0
 40
4.0
 40
5.0
 40
5.0
 40
5.0
 40
6.0
 40
6.0
 40
6.0
 40
7.0
 40
7.0
 40
7.0
 40
8.0
 40
8.0
 40
8.0
 40
9.0
 40
9.0
 40
9.0
 40
10.0
 40
10.0
 40
10.0
 40
11.0
 40
11.0
 40
11.0
 40
12.0
 40
12.0
 40
12.0
 40
13.0
 40
13.0
 40
13.0
 40
14.0
 40
14.0
 40
14.0
 40
15.0
 40
15.0
 40
15.0
 40
16.0
 40
16.0
 40
16.0
 40
16.0
 10
99.00153670485032
 20
-149.0372422587476
 30
0.0
 10
98.94383135547238
 20
-149.1895154791957
 30
0.0
 10
98.90765785287726
 20
-149.2677191467108
 30
0.0
 10
98.87527395531591
 20
-149.3352430182217
 30
0.0
 10
98.91127520313677
 20
-149.3566026102303
 30
0.0
 10
98.91489255339628
 20
-149.3586696675214
 30
0.0
 10
98.91489255339628
 20
-149.373483578108
 30
0.0
 10
98.91489255339628
 20
-149.3862304314034
 30
0.0
 10
98.88612600609445
 20
-149.4199923671589
 30
0.0
 10
98.87699650305854
 20
-149.428605105872
 30
0.0
 10
98.87527395531591
 20
-149.6253200580798
 30
0.0
 10
98.87527395531591
 20
-149.6463351405398
 30
0.0
 10
98.87527395531591
 20
-149.779660335819
 30
0.0
 10
98.87337915279902
 20
-149.7924071891144
 30
0.0
 10
98.87337915279902
 20
-149.8072210997009
 30
0.0
 10
98.87337915279902
 20
-149.8220350102875
 30
0.0
 10
98.87337915279902
 20
-149.8220350102875
 30
0.0
 10
98.87337915279902
 20
-150.3570583391468
 30
0.0
 10
98.87337915279902
 20
-150.3570583391468
 30
0.0
 10
98.87337915279902
 20
-150.4290608347885
 30
0.0
 10
98.87699650305854
 20
-150.6640163468826
 30
0.0
 10
98.88423120357757
 20
-150.7739148928621
 30
0.0
 10
98.88423120357757
 20
-150.7739148928621
 30
0.0
 10
98.67683645536551
 20
-150.7739148928621
 30
0.0
 10
98.67683645536551
 20
-150.7739148928621
 30
0.0
 10
98.69664575440571
 20
-150.6154405005406
 30
0.0
 10
98.7021579071821
 20
-150.3742838165731
 30
0.0
 10
98.7021579071821
 20
-150.3529242245645
 30
0.0
 10
98.7021579071821
 20
-150.3529242245645
 30
0.0
 10
98.7021579071821
 20
-149.6356553445355
 30
0.0
 10
98.7021579071821
 20
-149.6356553445355
 30
0.0
 10
98.62464325876398
 20
-149.7500325146458
 30
0.0
 10
98.57227780738819
 20
-149.8092881569921
 30
0.0
 10
98.53627655956733
 20
-149.8516628314607
 30
0.0
 10
98.53627655956733
 20
-149.8516628314607
 30
0.0
 10
98.37384030743779
 20
-149.7142035215992
 30
0.0
 10
98.37384030743779
 20
-149.7142035215992
 30
0.0
 10
98.61379120798545
 20
-149.498196034674
 30
0.0
 10
98.77777775308334
 20
-149.1895154791957
 30
0.0
 10
98.87337915279902
 20
-148.8529296502868
 30
0.0
 10
98.87337915279902
 20
-148.8529296502868
 30
0.0
 10
99.06096460197089
 20
-148.967306820397
 30
0.0
 10
99.06096460197089
 20
-148.967306820397
 30
0.0
 10
99.0718166527494
 20
-148.9735079922705
 30
0.0
 10
99.07905135326844
 20
-148.9779866164013
 30
0.0
 10
99.07905135326844
 20
-148.9928005269879
 30
0.0
 10
99.07905135326844
 20
-149.0179497240302
 30
0.0
 10
99.06458195223038
 20
-149.0224283481611
 30
0.0
 10
99.00153670485032
 20
-149.0372422587476
 30
0.0
  0
HATCH
  5
113
330
F2
100
AcDbEntity
  8
レイヤー 1
 62
   250
420
  2299925
440
 33554687
100
AcDbHatch
 10
0.0
 20
0.0
 30
0.0
210
0.0
220
0.0
230
1.0
  2
SOLID
 70
     1
 71
     1
 91
        3
 92
        1
 93
        1
 72
     4
 94
        3
 73
     0
 74
     0
 95
       20
 96
       16
 40
0.0
 40
0.0
 40
0.0
 40
0.0
 40
1.0
 40
1.0
 40
1.0
 40
2.0
 40
2.0
 40
2.0
 40
3.0
 40
3.0
 40
3.0
 40
4.0
 40
4.0
 40
4.0
 40
5.0
 40
5.0
 40
5.0
 40
5.0
 10
99.32606469956084
 20
-150.2619737037539
 10
99.28644610148047
 20
-150.084206776715
 10
99.20341930028596
 20
-149.9426133522713
 10
99.08439125127058
 20
-149.8327148062918
 10
99.08439125127058
 20
-149.8327148062918
 10
99.22150605158352
 20
-149.7183376361815
 10
99.22150605158352
 20
-149.7183376361815
 10
99.27369924818506
 20
-149.7607123106501
 10
99.30797794826329
 20
-149.7944742464055
 10
99.37291799816025
 20
-149.9023057350939
 10
99.44147539831673
 20
-150.0187499624953
 10
99.45956214961428
 20
-150.0714599234196
 10
99.4810939963971
 20
-150.1372612471879
 10
99.4810939963971
 20
-150.1372612471879
 10
99.32606469956084
 20
-150.2619737037539
 10
99.32606469956084
 20
-150.2619737037539
 97
        0
 97
        1
330
110
 92
        1
 93
        1
 72
     4
 94
        3
 73
     0
 74
     0
 95
       77
 96
       73
 40
0.0
 40
0.0
 40
0.0
 40
0.0
 40
1.0
 40
1.0
 40
1.0
 40
2.0
 40
2.0
 40
2.0
 40
3.0
 40
3.0
 40
3.0
 40
4.0
 40
4.0
 40
4.0
 40
5.0
 40
5.0
 40
5.0
 40
6.0
 40
6.0
 40
6.0
 40
7.0
 40
7.0
 40
7.0
 40
8.0
 40
8.0
 40
8.0
 40
9.0
 40
9.0
 40
9.0
 40
10.0
 40
10.0
 40
10.0
 40
11.0
 40
11.0
 40
11.0
 40
12.0
 40
12.0
 40
12.0
 40
13.0
 40
13.0
 40
13.0
 40
14.0
 40
14.0
 40
14.0
 40
15.0
 40
15.0
 40
15.0
 40
16.0
 40
16.0
 40
16.0
 40
17.0
 40
17.0
 40
17.0
 40
18.0
 40
18.0
 40
18.0
 40
19.0
 40
19.0
 40
19.0
 40
20.0
 40
20.0
 40
20.0
 40
21.0
 40
21.0
 40
21.0
 40
22.0
 40
22.0
 40
22.0
 40
23.0
 40
23.0
 40
23.0
 40
24.0
 40
24.0
 40
24.0
 40
24.0
 10
99.98252764427521
 20
-149.5364365945603
 10
99.92292749238039
 20
-149.532302479978
 10
99.86522214300245
 20
-149.532302479978
 10
99.80751679362452
 20
-149.532302479978
 10
99.80751679362452
 20
-149.532302479978
 10
99.80751679362452
 20
-150.3064154355137
 10
99.80751679362452
 20
-150.3064154355137
 10
99.80751679362452
 20
-150.5709987687808
 10
99.80579424588189
 20
-150.600626589954
 10
99.8002820931055
 20
-150.6302544111271
 10
99.77151554580366
 20
-150.7632350968578
 10
99.68487139434962
 20
-150.7718478355709
 10
99.53518199551552
 20
-150.7718478355709
 10
99.50090329543728
 20
-150.7718478355709
 10
99.48660614917351
 20
-150.7718478355709
 10
99.45232744909525
 20
-150.7677137209886
 10
99.45232744909525
 20
-150.7677137209886
 10
99.34587399860104
 20
-150.5265570370211
 10
99.34587399860104
 20
-150.5265570370211
 10
99.44509274857622
 20
-150.5582519154854
 10
99.51537269647532
 20
-150.5582519154854
 10
99.53518199551552
 20
-150.5582519154854
 10
99.59478214741034
 20
-150.5582519154854
 10
99.62354869471218
 20
-150.5413709476077
 10
99.62716604497169
 20
-150.4841823625525
 10
99.62716604497169
 20
-150.4714355092571
 10
99.62906084748858
 20
-150.3742838165731
 10
99.62906084748858
 20
-150.3170952315179
 10
99.62906084748858
 20
-150.3170952315179
 10
99.62906084748858
 20
-149.5298909131383
 10
99.62906084748858
 20
-149.5298909131383
 10
99.62906084748858
 20
-149.5298909131383
 10
99.37843015093665
 20
-149.5298909131383
 10
99.37843015093665
 20
-149.5298909131383
 10
99.25388994914486
 20
-149.5298909131383
 10
99.12952200212735
 20
-149.5364365945603
 10
99.00687660285246
 20
-149.5491834478557
 10
99.00687660285246
 20
-149.5491834478557
 10
99.00687660285246
 20
-149.3417886996437
 10
99.00687660285246
 20
-149.3417886996437
 10
99.13486190012948
 20
-149.3545355529391
 10
99.32072480155872
 20
-149.3586696675214
 10
99.37843015093665
 20
-149.3586696675214
 10
99.37843015093665
 20
-149.3586696675214
 10
99.62906084748858
 20
-149.3586696675214
 10
99.62906084748858
 20
-149.3586696675214
 10
99.62716604497169
 20
-149.089952219672
 10
99.62716604497169
 20
-149.0138156094479
 10
99.61993134445267
 20
-148.8656765035822
 10
99.61993134445267
 20
-148.8656765035822
 10
99.84007294596013
 20
-148.9039170634685
 10
99.84007294596013
 20
-148.9039170634685
 10
99.85264754448129
 20
-148.9059841207596
 10
99.86522214300245
 20
-148.9121852926331
 10
99.86522214300245
 20
-148.9335448846416
 10
99.86522214300245
 20
-148.9524929098105
 10
99.85988224500031
 20
-148.9545599671016
 10
99.81113414388403
 20
-148.9883219028571
 10
99.80751679362452
 20
-149.0668700799208
 10
99.80751679362452
 20
-149.0816839905074
 10
99.80751679362452
 20
-149.3586696675214
 10
99.95892874020125
 20
-149.3545355529391
 10
99.97529294375619
 20
-149.3545355529391
 10
100.004059491058
 20
-149.3500569288083
 10
100.0472954393979
 20
-149.345922814226
 10
100.0509127896574
 20
-149.3438557569349
 10
100.0888088399951
 20
-149.3417886996437
 10
100.0888088399951
 20
-149.3417886996437
 10
100.0888088399951
 20
-149.5491834478557
 10
100.0888088399951
 20
-149.5491834478557
 10
100.0636596429528
 20
-149.5471163905646
 10
100.0168063443534
 20
-149.5385036518515
 10
99.98252764427521
 20
-149.5364365945603
 97
        0
 97
        1
330
111
 92
        1
 93
        1
 72
     4
 94
        3
 73
     0
 74
     0
 95
       53
 96
       49
 40
0.0
 40
0.0
 40
0.0
 40
0.0
 40
1.0
 40
1.0
 40
1.0
 40
2.0
 40
2.0
 40
2.0
 40
3.0
 40
3.0
 40
3.0
 40
4.0
 40
4.0
 40
4.0
 40
5.0
 40
5.0
 40
5.0
 40
6.0
 40
6.0
 40
6.0
 40
7.0
 40
7.0
 40
7.0
 40
8.0
 40
8.0
 40
8.0
 40
9.0
 40
9.0
 40
9.0
 40
10.0
 40
10.0
 40
10.0
 40
11.0
 40
11.0
 40
11.0
 40
12.0
 40
12.0
 40
12.0
 40
13.0
 40
13.0
 40
13.0
 40
14.0
 40
14.0
 40
14.0
 40
15.0
 40
15.0
 40
15.0
 40
16.0
 40
16.0
 40
16.0
 40
16.0
 10
99.00153670485032
 20
-149.0372422587476
 10
98.94383135547238
 20
-149.1895154791957
 10
98.90765785287726
 20
-149.2677191467108
 10
98.87527395531591
 20
-149.3352430182217
 10
98.91127520313677
 20
-149.3566026102303
 10
98.91489255339628
 20
-149.3586696675214
 10
98.91489255339628
 20
-149.373483578108
 10
98.91489255339628
 20
-149.3862304314034
 10
98.88612600609445
 20
-149.4199923671589
 10
98.87699650305854
 20
-149.428605105872
 10
98.87527395531591
 20
-149.6253200580798
 10
98.87527395531591
 20
-149.6463351405398
 10
98.87527395531591
 20
-149.779660335819
 10
98.87337915279902
 20
-149.7924071891144
 10
98.87337915279902
 20
-149.8072210997009
 10
98.87337915279902
 20
-149.8220350102875
 10
98.87337915279902
 20
-149.8220350102875
 10
98.87337915279902
 20
-150.3570583391468
 10
98.87337915279902
 20
-150.3570583391468
 10
98.87337915279902
 20
-150.4290608347885
 10
98.87699650305854
 20
-150.6640163468826
 10
98.88423120357757
 20
-150.7739148928621
 10
98.88423120357757
 20
-150.7739148928621
 10
98.67683645536551
 20
-150.7739148928621
 10
98.67683645536551
 20
-150.7739148928621
 10
98.69664575440571
 20
-150.6154405005406
 10
98.7021579071821
 20
-150.3742838165731
 10
98.7021579071821
 20
-150.3529242245645
 10
98.7021579071821
 20
-150.3529242245645
 10
98.7021579071821
 20
-149.6356553445355
 10
98.7021579071821
 20
-149.6356553445355
 10
98.62464325876398
 20
-149.7500325146458
 10
98.57227780738819
 20
-149.8092881569921
 10
98.53627655956733
 20
-149.8516628314607
 10
98.53627655956733
 20
-149.8516628314607
 10
98.37384030743779
 20
-149.7142035215992
 10
98.37384030743779
 20
-149.7142035215992
 10
98.61379120798545
 20
-149.498196034674
 10
98.77777775308334
 20
-149.1895154791957
 10
98.87337915279902
 20
-148.8529296502868
 10
98.87337915279902
 20
-148.8529296502868
 10
99.06096460197089
 20
-148.967306820397
 10
99.06096460197089
 20
-148.967306820397
 10
99.0718166527494
 20
-148.9735079922705
 10
99.07905135326844
 20
-148.9779866164013
 10
99.07905135326844
 20
-148.9928005269879
 10
99.07905135326844
 20
-149.0179497240302
 10
99.06458195223038
 20
-149.0224283481611
 10
99.00153670485032
 20
-149.0372422587476
 97
        0
 97
        1
330
112
 75
     2
 76
     1
 98
        1
 10
0.0
 20
0.0
450
        0
451
        0
460
0.0
461
0.0
452
        0
462
0.0
453
        0
470

  0
ENDBLK
  5
F5
330
F2
100
AcDbEntity
  8
0
100
AcDbBlockEnd
  0
ENDSEC
  0
SECTION
  2
ENTITIES
  0
INSERT
  5
7A
330
70
100
AcDbEntity
  8
レイヤー 1
100
AcDbBlockReference
  2
Block_0
 10
0.0
 20
0.0
 30
0.0
  0
LINE
  5
80
330
70
100
AcDbEntity
  8
レイヤー 1
 62
    18
420
        0
370
    25
100
AcDbLine
 10
95.2327685994545
 20
-143.3712871743723
 30
0.0
 11
102.2327739738988
 21
-143.3712871743723
 31
0.0
  0
LINE
  5
81
330
70
100
AcDbEntity
  8
レイヤー 1
 62
    18
420
        0
370
    25
100
AcDbLine
 10
101.2327776130482
 20
-144.470966035206
 30
0.0
 11
101.2327776130482
 21
-153.8711655150827
 31
0.0
  0
LINE
  5
82
330
70
100
AcDbEntity
  8
レイヤー 1
 62
    18
420
        0
370
    25
100
AcDbLine
 10
95.2327685994545
 20
-144.470966035206
 30
0.0
 11
101.2327776130482
 21
-144.470966035206
 31
0.0
  0
LINE
  5
83
330
70
100
AcDbEntity
  8
レイヤー 1
 62
    18
420
        0
370
    25
100
AcDbLine
 10
95.18591971176084
 20
-143.3712871743723
 30
0.0
 11
95.18591971176084
 21
-144.470966035206
 31
0.0
  0
LINE
  5
84
330
70
100
AcDbEntity
  8
レイヤー 1
 62
    18
420
        0
370
    25
100
AcDbLine
 10
102.2327739690145
 20
-143.3712871743723
 30
0.0
 11
102.2327739690145
 21
-152.8714866542242
 31
0.0
  0
LINE
  5
85
330
70
100
AcDbEntity
  8
レイヤー 1
 62
    18
420
        0
370
    25
100
AcDbLine
 10
102.2327739690145
 20
-143.3712871743723
 30
0.0
 11
102.2327739690145
 21
-152.8714866542242
 31
0.0
  0
LINE
  5
86
330
70
100
AcDbEntity
  8
レイヤー 1
 62
    18
420
        0
370
    25
100
AcDbLine
 10
118.2334557904358
 20
-152.8714866542242
 30
0.0
 11
118.2334557904358
 21
-153.2711133106955
 31
0.0
  0
LINE
  5
87
330
70
100
AcDbEntity
  8
レイヤー 1
 62
    18
420
        0
370
    25
100
AcDbLine
 10
102.2327739738988
 20
-152.8714866542242
 30
0.0
 11
118.2334557904358
 21
-152.8714866542242
 31
0.0
  0
LINE
  5
88
330
70
100
AcDbEntity
  8
レイヤー 1
 62
    18
420
        0
370
    25
100
AcDbLine
 10
118.2334557904358
 20
-153.2711133106955
 30
0.0
 11
101.2327776130482
 21
-153.8711655150827
 31
0.0
  0
LINE
  5
89
330
70
100
AcDbEntity
  8
レイヤー 1
  6
AI-Linetype-0
 62
   154
420
    23468
370
    25
100
AcDbLine
 10
95.2327685994545
 20
-144.9712049113327
 30
0.0
 11
100.7332090146821
 21
-144.9712049113327
 31
0.0
  0
LINE
  5
8B
330
70
100
AcDbEntity
  8
レイヤー 1
  6
AI-Linetype-1
 62
   154
420
    23468
370
    25
100
AcDbLine
 10
100.7332090146821
 20
-144.9712049113327
 30
0.0
 11
100.7332090146821
 21
-152.8714866542242
 31
0.0
  0
SPLINE
  5
8D
330
70
100
AcDbEntity
  8
レイヤー 1
 62
    18
420
        0
370
     9
100
AcDbSpline
210
0.0
220
0.0
230
1.0
 70
     9
 71
     3
 72
    17
 73
    13
 74
     0
 42
0.0000000001
 43
0.0000000001
 40
0.0
 40
0.0
 40
0.0
 40
0.0
 40
1.0
 40
1.0
 40
1.0
 40
2.0
 40
2.0
 40
2.0
 40
3.0
 40
3.0
 40
3.0
 40
4.0
 40
4.0
 40
4.0
 40
4.0
 10
122.333121519178
 20
-143.3712871743723
 30
0.0
 10
122.333121519178
 20
-143.3161794882028
 30
0.0
 10
122.2883187425432
 20
-143.2713767104361
 30
0.0
 10
122.2332148550602
 20
-143.2713767104361
 30
0.0
 10
122.1780756898002
 20
-143.2713767104361
 30
0.0
 10
122.1333081909423
 20
-143.3161794882028
 30
0.0
 10
122.1333081909423
 20
-143.3712871743723
 30
0.0
 10
122.1333081909423
 20
-143.4264263396322
 30
0.0
 10
122.1780756898002
 20
-143.4711938384901
 30
0.0
 10
122.2332148550602
 20
-143.4711938384901
 30
0.0
 10
122.2883187425432
 20
-143.4711938384901
 30
0.0
 10
122.333121519178
 20
-143.4264263396322
 30
0.0
 10
122.333121519178
 20
-143.3712871743723
 30
0.0
  0
SPLINE
  5
8E
330
70
100
AcDbEntity
  8
レイヤー 1
 62
    18
420
        0
370
     9
100
AcDbSpline
210
0.0
220
0.0
230
1.0
 70
     9
 71
     3
 72
    17
 73
    13
 74
     0
 42
0.0000000001
 43
0.0000000001
 40
0.0
 40
0.0
 40
0.0
 40
0.0
 40
1.0
 40
1.0
 40
1.0
 40
2.0
 40
2.0
 40
2.0
 40
3.0
 40
3.0
 40
3.0
 40
4.0
 40
4.0
 40
4.0
 40
4.0
 10
122.333121519178
 20
-152.8714866542242
 30
0.0
 10
122.333121519178
 20
-152.8156772112036
 30
0.0
 10
122.2883187425432
 20
-152.7708744345688
 30
0.0
 10
122.2332148550602
 20
-152.7708744345688
 30
0.0
 10
122.1780756898002
 20
-152.7708744345688
 30
0.0
 10
122.1333081909423
 20
-152.8156772112036
 30
0.0
 10
122.1333081909423
 20
-152.8714866542242
 30
0.0
 10
122.1333081909423
 20
-152.9265905417073
 30
0.0
 10
122.1780756898002
 20
-152.971393318342
 30
0.0
 10
122.2332148550602
 20
-152.971393318342
 30
0.0
 10
122.2883187425432
 20
-152.971393318342
 30
0.0
 10
122.333121519178
 20
-152.9265905417073
 30
0.0
 10
122.333121519178
 20
-152.8714866542242
 30
0.0
  0
CIRCLE
  5
8F
330
70
100
AcDbEntity
  8
レイヤー 1
 62
    18
420
        0
370
     9
100
AcDbCircle
 10
122.2332148550602
 20
-153.2711133106955
 30
0.0
 40
0.0999066641178353
  0
SPLINE
  5
90
330
70
100
AcDbEntity
  8
レイヤー 1
 62
    18
420
        0
370
     9
100
AcDbSpline
210
0.0
220
0.0
230
1.0
 70
     9
 71
     3
 72
    17
 73
    13
 74
     0
 42
0.0000000001
 43
0.0000000001
 40
0.0
 40
0.0
 40
0.0
 40
0.0
 40
1.0
 40
1.0
 40
1.0
 40
2.0
 40
2.0
 40
2.0
 40
3.0
 40
3.0
 40
3.0
 40
4.0
 40
4.0
 40
4.0
 40
4.0
 10
118.3333624545537
 20
-157.9709211512062
 30
0.0
 10
118.3333624545537
 20
-157.9157854144223
 30
0.0
 10
118.2885596779189
 20
-157.8710179155644
 30
0.0
 10
118.2334557904358
 20
-157.8710179155644
 30
0.0
 10
118.1776490603628
 20
-157.8710179155644
 30
0.0
 10
118.1328462825961
 20
-157.9157854144223
 30
0.0
 10
118.1328462825961
 20
-157.9709211512062
 30
0.0
 10
118.1328462825961
 20
-158.0260284671653
 30
0.0
 10
118.1776490603628
 20
-158.0708312438001
 30
0.0
 10
118.2334557904358
 20
-158.0708312438001
 30
0.0
 10
118.2885596779189
 20
-158.0708312438001
 30
0.0
 10
118.3333624545537
 20
-158.0260284671653
 30
0.0
 10
118.3333624545537
 20
-157.9709211512062
 30
0.0
  0
SPLINE
  5
91
330
70
100
AcDbEntity
  8
レイヤー 1
 62
    18
420
        0
370
     9
100
AcDbSpline
210
0.0
220
0.0
230
1.0
 70
     9
 71
     3
 72
    17
 73
    13
 74
     0
 42
0.0000000001
 43
0.0000000001
 40
0.0
 40
0.0
 40
0.0
 40
0.0
 40
1.0
 40
1.0
 40
1.0
 40
2.0
 40
2.0
 40
2.0
 40
3.0
 40
3.0
 40
3.0
 40
4.0
 40
4.0
 40
4.0
 40
4.0
 10
95.28582637587865
 20
-157.9709211512062
 30
0.0
 10
95.28582637587865
 20
-157.9157854144223
 30
0.0
 10
95.24141165478956
 20
-157.8710179155644
 30
0.0
 10
95.18591971176084
 20
-157.8710179155644
 30
0.0
 10
95.13081582427776
 20
-157.8710179155644
 30
0.0
 10
95.08601304764299
 20
-157.9157854144223
 30
0.0
 10
95.08601304764299
 20
-157.9709211512062
 30
0.0
 10
95.08601304764299
 20
-158.0260284671653
 30
0.0
 10
95.13081582427776
 20
-158.0708312438001
 30
0.0
 10
95.18591971176084
 20
-158.0708312438001
 30
0.0
 10
95.24141165478956
 20
-158.0708312438001
 30
0.0
 10
95.28582637587865
 20
-158.0260284671653
 30
0.0
 10
95.28582637587865
 20
-157.9709211512062
 30
0.0
  0
SPLINE
  5
92
330
70
100
AcDbEntity
  8
レイヤー 1
 62
    18
420
        0
370
     9
100
AcDbSpline
210
0.0
220
0.0
230
1.0
 70
     9
 71
     3
 72
    17
 73
    13
 74
     0
 42
0.0000000001
 43
0.0000000001
 40
0.0
 40
0.0
 40
0.0
 40
0.0
 40
1.0
 40
1.0
 40
1.0
 40
2.0
 40
2.0
 40
2.0
 40
3.0
 40
3.0
 40
3.0
 40
4.0
 40
4.0
 40
4.0
 40
4.0
 10
91.28606731125435
 20
-143.3712871743723
 30
0.0
 10
91.28606731125435
 20
-143.3161794882028
 30
0.0
 10
91.24130184487485
 20
-143.2713767104361
 30
0.0
 10
91.18616064713682
 20
-143.2713767104361
 30
0.0
 10
91.13105675965345
 20
-143.2713767104361
 30
0.0
 10
91.08625398301867
 20
-143.3161794882028
 30
0.0
 10
91.08625398301867
 20
-143.3712871743723
 30
0.0
 10
91.08625398301867
 20
-143.4264263396322
 30
0.0
 10
91.13105675965345
 20
-143.4711938384901
 30
0.0
 10
91.18616064713682
 20
-143.4711938384901
 30
0.0
 10
91.24130184487485
 20
-143.4711938384901
 30
0.0
 10
91.28606731125435
 20
-143.4264263396322
 30
0.0
 10
91.28606731125435
 20
-143.3712871743723
 30
0.0
  0
CIRCLE
  5
93
330
70
100
AcDbEntity
  8
レイヤー 1
 62
    18
420
        0
370
     9
100
AcDbCircle
 10
91.18616064713668
 20
-144.470966035206
 30
0.0
 40
0.0999066641179156
  0
SPLINE
  5
94
330
70
100
AcDbEntity
  8
レイヤー 1
 62
    18
420
        0
370
     9
100
AcDbSpline
210
0.0
220
0.0
230
1.0
 70
     9
 71
     3
 72
    17
 73
    13
 74
     0
 42
0.0000000001
 43
0.0000000001
 40
0.0
 40
0.0
 40
0.0
 40
0.0
 40
1.0
 40
1.0
 40
1.0
 40
2.0
 40
2.0
 40
2.0
 40
3.0
 40
3.0
 40
3.0
 40
4.0
 40
4.0
 40
4.0
 40
4.0
 10
101.3333545549267
 20
-157.9709211512062
 30
0.0
 10
101.3333545549267
 20
-157.9157854144223
 30
0.0
 10
101.2885870560691
 20
-157.8710179155644
 30
0.0
 10
101.2327776130482
 20
-157.8710179155644
 30
0.0
 10
101.1776407312797
 20
-157.8710179155644
 30
0.0
 10
101.1328709489303
 20
-157.9157854144223
 30
0.0
 10
101.1328709489303
 20
-157.9709211512062
 30
0.0
 10
101.1328709489303
 20
-158.0260284671653
 30
0.0
 10
101.1776407312797
 20
-158.0708312438001
 30
0.0
 10
101.2327776130482
 20
-158.0708312438001
 30
0.0
 10
101.2885870560691
 20
-158.0708312438001
 30
0.0
 10
101.3333545549267
 20
-158.0260284671653
 30
0.0
 10
101.3333545549267
 20
-157.9709211512062
 30
0.0
  0
INSERT
  5
96
330
70
100
AcDbEntity
  8
レイヤー 1
100
AcDbBlockReference
  2
Block_1
 10
0.0
 20
0.0
 30
0.0
  0
INSERT
  5
A8
330
70
100
AcDbEntity
  8
レイヤー 1
100
AcDbBlockReference
  2
Block_4
 10
0.0
 20
0.0
 30
0.0
  0
INSERT
  5
BF
330
70
100
AcDbEntity
  8
レイヤー 1
100
AcDbBlockReference
  2
Block_7
 10
0.0
 20
0.0
 30
0.0
  0
LINE
  5
D6
330
70
100
AcDbEntity
  8
レイヤー 1
 62
    18
420
        0
370
     9
100
AcDbLine
 10
95.2327685994545
 20
-157.9709211512062
 30
0.0
 11
101.2327776130482
 21
-157.9709211512062
 31
0.0
  0
LINE
  5
D7
330
70
100
AcDbEntity
  8
レイヤー 1
 62
    18
420
        0
370
     9
100
AcDbLine
 10
95.18591971176084
 20
-152.1218713760293
 30
0.0
 11
95.18591971176084
 21
-158.9713670541588
 31
0.0
  0
LINE
  5
D8
330
70
100
AcDbEntity
  8
レイヤー 1
 62
    18
420
        0
370
     9
100
AcDbLine
 10
101.2327776130482
 20
-156.5108832280421
 30
0.0
 11
101.2327776130482
 21
-158.9713670541588
 31
0.0
  0
INSERT
  5
DA
330
70
100
AcDbEntity
  8
レイヤー 1
100
AcDbBlockReference
  2
Block_10
 10
0.0
 20
0.0
 30
0.0
  0
INSERT
  5
EF
330
70
100
AcDbEntity
  8
レイヤー 1
100
AcDbBlockReference
  2
Block_13
 10
0.0
 20
0.0
 30
0.0
  0
ENDSEC
  0
SECTION
  2
OBJECTS
  0
DICTIONARY
  5
C
330
0
100
AcDbDictionary
281
     1
  3
ACAD_COLOR
350
63
  3
ACAD_DETAILVIEWSTYLE
350
6A
  3
ACAD_GROUP
350
D
  3
ACAD_LAYOUT
350
62
  3
ACAD_MATERIAL
350
10
  3
ACAD_MLEADERSTYLE
350
66
  3
ACAD_MLINESTYLE
350
5F
  3
ACAD_PLOTSETTINGS
350
61
  3
ACAD_PLOTSTYLENAME
350
E
  3
ACAD_SCALELIST
350
42
  3
ACAD_SECTIONVIEWSTYLE
350
68
  3
ACAD_TABLESTYLE
350
64
  3
ACAD_VISUALSTYLE
350
29
  3
ACDB_RECOMPOSE_DATA
350
11C
  3
AcDbVariableDictionary
350
114
  0
DICTIONARY
  5
63
102
{ACAD_REACTORS
330
C
102
}
330
C
100
AcDbDictionary
281
     1
  0
DICTIONARY
  5
6A
102
{ACAD_REACTORS
330
C
102
}
330
C
100
AcDbDictionary
281
     1
  3
Imperial24
350
6B
  0
DICTIONARY
  5
D
102
{ACAD_REACTORS
330
C
102
}
330
C
100
AcDbDictionary
281
     1
  0
DICTIONARY
  5
62
102
{ACAD_REACTORS
330
C
102
}
330
C
100
AcDbDictionary
281
     1
  3
Layout1
350
6F
  3
Layout2
350
77
  3
Model
350
73
  0
DICTIONARY
  5
10
102
{ACAD_REACTORS
330
C
102
}
330
C
100
AcDbDictionary
281
     1
  3
ByBlock
350
19
  3
ByLayer
350
11
  3
Global
350
21
  0
DICTIONARY
  5
66
102
{ACAD_REACTORS
330
C
102
}
330
C
100
AcDbDictionary
281
     1
  3
Standard
350
67
  0
DICTIONARY
  5
5F
102
{ACAD_REACTORS
330
C
102
}
330
C
100
AcDbDictionary
281
     1
  3
Standard
350
60
  0
DICTIONARY
  5
61
102
{ACAD_REACTORS
330
C
102
}
330
C
100
AcDbDictionary
281
     1
  0
ACDBDICTIONARYWDFLT
  5
E
102
{ACAD_REACTORS
330
C
102
}
330
C
100
AcDbDictionary
281
     1
  3
Normal
350
F
100
AcDbDictionaryWithDefault
340
F
  0
DICTIONARY
  5
42
102
{ACAD_REACTORS
330
C
102
}
330
C
100
AcDbDictionary
281
     1
  3
A0
350
43
  3
A1
350
44
  3
A2
350
45
  3
A3
350
46
  3
A4
350
47
  3
A5
350
48
  3
A6
350
49
  3
A7
350
4A
  3
A8
350
4B
  3
A9
350
4C
  3
B0
350
4D
  3
B1
350
4E
  3
B2
350
4F
  3
B3
350
50
  3
B4
350
51
  3
B5
350
52
  3
B6
350
53
  0
DICTIONARY
  5
68
102
{ACAD_REACTORS
330
C
102
}
330
C
100
AcDbDictionary
281
     1
  3
Imperial24
350
69
  0
DICTIONARY
  5
64
102
{ACAD_REACTORS
330
C
102
}
330
C
100
AcDbDictionary
281
     1
  3
Standard
350
65
  0
DICTIONARY
  5
29
102
{ACAD_REACTORS
330
C
102
}
330
C
100
AcDbDictionary
281
     1
  3
2dWireframe
350
2F
  3
Basic
350
2E
  3
Brighten
350
35
  3
ColorChange
350
39
  3
Conceptual
350
32
  3
Dim
350
34
  3
EdgeColorOff
350
41
  3
Facepattern
350
38
  3
Flat
350
2A
  3
FlatWithEdges
350
2B
  3
Gouraud
350
2C
  3
GouraudWithEdges
350
2D
  3
Hidden
350
31
  3
JitterOff
350
3F
  3
Linepattern
350
37
  3
OverhangOff
350
40
  3
Realistic
350
33
  3
Shaded
350
3E
  3
Shaded with edges
350
3D
  3
Shades of Gray
350
3A
  3
Sketchy
350
3B
  3
Thicken
350
36
  3
Wireframe
350
30
  3
X-Ray
350
3C
  0
XRECORD
  5
11C
102
{ACAD_REACTORS
330
C
102
}
330
C
100
AcDbXrecord
280
     1
 90
        1
330
65
  0
DICTIONARY
  5
114
102
{ACAD_REACTORS
330
C
102
}
330
C
100
AcDbDictionary
281
     1
  3
CANNOSCALE
350
119
  3
CMLEADERSTYLE
350
116
  3
CTABLESTYLE
350
115
  3
CVIEWDETAILSTYLE
350
117
  3
CVIEWSECTIONSTYLE
350
118
  0
ACDBDETAILVIEWSTYLE
  5
6B
102
{ACAD_XDICTIONARY
360
151
102
}
102
{ACAD_REACTORS
330
6A
102
}
330
6A
100
AcDbModelDocViewStyle
 70
     0
  3
Imperial24
290
     0
100
AcDbDetailViewStyle
 70
     0
 71
     0
 90
        3
 71
     1
340
55
 62
   256
 40
0.24
340
0
 62
   256
 40
0.24
300

 40
0.36
280
     3
 71
     2
340
5D
 90
       25
 62
   256
 71
     3
340
55
 62
   256
 40
0.24
 90
        1
 40
0.75
 90
        1
300
%<\AcVar ViewType \f "%tc1">% %<\AcVar ViewDetailId>%\PSCALE %<\AcVar ViewScale \f "%sn">%
 71
     4
340
5D
 90
       25
 62
   256
340
5D
 90
       25
 62
   256
280
     0
  0
LAYOUT
  5
6F
102
{ACAD_REACTORS
330
62
102
}
330
62
100
AcDbPlotSettings
  1

  2

  4

  6

 40
0.0
 41
0.0
 42
0.0
 43
0.0
 44
0.0
 45
0.0
 46
0.0
 47
0.0
 48
0.0
 49
0.0
140
0.0
141
0.0
142
1.0
143
1.0
 70
   688
 72
     0
 73
     0
 74
     5
  7

 75
    16
147
1.0
 76
     0
 77
     2
 78
   300
148
0.0
149
0.0
100
AcDbLayout
  1
Layout1
 70
     1
 71
     1
 10
0.0
 20
0.0
 11
12.0
 21
9.0
 12
0.0
 22
0.0
 32
0.0
 14
0.0
 24
0.0
 34
0.0
 15
0.0
 25
0.0
 35
0.0
146
0.0
 13
0.0
 23
0.0
 33
0.0
 16
1.0
 26
0.0
 36
0.0
 17
0.0
 27
1.0
 37
0.0
 76
     0
330
6C
  0
LAYOUT
  5
77
102
{ACAD_REACTORS
330
62
102
}
330
62
100
AcDbPlotSettings
  1

  2

  4

  6

 40
0.0
 41
0.0
 42
0.0
 43
0.0
 44
0.0
 45
0.0
 46
0.0
 47
0.0
 48
0.0
 49
0.0
140
0.0
141
0.0
142
1.0
143
1.0
 70
   688
 72
     0
 73
     0
 74
     5
  7

 75
    16
147
1.0
 76
     0
 77
     2
 78
   300
148
0.0
149
0.0
100
AcDbLayout
  1
Layout2
 70
     1
 71
     2
 10
0.0
 20
0.0
 11
12.0
 21
9.0
 12
0.0
 22
0.0
 32
0.0
 14
0.0
 24
0.0
 34
0.0
 15
0.0
 25
0.0
 35
0.0
146
0.0
 13
0.0
 23
0.0
 33
0.0
 16
1.0
 26
0.0
 36
0.0
 17
0.0
 27
1.0
 37
0.0
 76
     0
330
74
  0
LAYOUT
  5
73
102
{ACAD_REACTORS
330
62
102
}
330
62
100
AcDbPlotSettings
  1

  2

  4

  6

 40
0.0
 41
0.0
 42
0.0
 43
0.0
 44
0.0
 45
0.0
 46
0.0
 47
0.0
 48
0.0
 49
0.0
140
0.0
141
0.0
142
1.0
143
1.0
 70
  1712
 72
     0
 73
     0
 74
     0
  7

 75
     0
147
1.0
 76
     0
 77
     2
 78
   300
148
0.0
149
0.0
100
AcDbLayout
  1
Model
 70
     1
 71
     0
 10
0.0
 20
0.0
 11
12.0
 21
9.0
 12
0.0
 22
0.0
 32
0.0
 14
0.0
 24
0.0
 34
0.0
 15
0.0
 25
0.0
 35
0.0
146
0.0
 13
0.0
 23
0.0
 33
0.0
 16
1.0
 26
0.0
 36
0.0
 17
0.0
 27
1.0
 37
0.0
 76
     0
330
70
  0
MATERIAL
  5
19
102
{ACAD_XDICTIONARY
360
1A
102
}
102
{ACAD_REACTORS
330
10
102
}
330
10
100
AcDbMaterial
  1
ByBlock
 72
     0
 43
0.0208333333333333
 43
0.0
 43
0.0
 43
0.0
 43
0.0
 43
0.0208333333333333
 43
0.0
 43
0.0
 43
0.0
 43
0.0
 43
1.0
 43
0.0
 43
0.0
 43
0.0
 43
0.0
 43
1.0
 77
     0
 47
0.0208333333333333
 47
0.0
 47
0.0
 47
0.0
 47
0.0
 47
0.0208333333333333
 47
0.0
 47
0.0
 47
0.0
 47
0.0
 47
1.0
 47
0.0
 47
0.0
 47
0.0
 47
0.0
 47
1.0
171
     0
 49
0.0208333333333333
 49
0.0
 49
0.0
 49
0.0
 49
0.0
 49
0.0208333333333333
 49
0.0
 49
0.0
 49
0.0
 49
0.0
 49
1.0
 49
0.0
 49
0.0
 49
0.0
 49
0.0
 49
1.0
175
     0
142
0.0208333333333333
142
0.0
142
0.0
142
0.0
142
0.0
142
0.0208333333333333
142
0.0
142
0.0
142
0.0
142
0.0
142
1.0
142
0.0
142
0.0
142
0.0
142
0.0
142
1.0
179
     0
144
0.0208333333333333
144
0.0
144
0.0
144
0.0
144
0.0
144
0.0208333333333333
144
0.0
144
0.0
144
0.0
144
0.0
144
1.0
144
0.0
144
0.0
144
0.0
144
0.0
144
1.0
147
0.0208333333333333
147
0.0
147
0.0
147
0.0
147
0.0
147
0.0208333333333333
147
0.0
147
0.0
147
0.0
147
0.0
147
1.0
147
0.0
147
0.0
147
0.0
147
0.0
147
1.0
  0
MATERIAL
  5
11
102
{ACAD_XDICTIONARY
360
12
102
}
102
{ACAD_REACTORS
330
10
102
}
330
10
100
AcDbMaterial
  1
ByLayer
 72
     0
 43
0.0208333333333333
 43
0.0
 43
0.0
 43
0.0
 43
0.0
 43
0.0208333333333333
 43
0.0
 43
0.0
 43
0.0
 43
0.0
 43
1.0
 43
0.0
 43
0.0
 43
0.0
 43
0.0
 43
1.0
 77
     0
 47
0.0208333333333333
 47
0.0
 47
0.0
 47
0.0
 47
0.0
 47
0.0208333333333333
 47
0.0
 47
0.0
 47
0.0
 47
0.0
 47
1.0
 47
0.0
 47
0.0
 47
0.0
 47
0.0
 47
1.0
171
     0
 49
0.0208333333333333
 49
0.0
 49
0.0
 49
0.0
 49
0.0
 49
0.0208333333333333
 49
0.0
 49
0.0
 49
0.0
 49
0.0
 49
1.0
 49
0.0
 49
0.0
 49
0.0
 49
0.0
 49
1.0
175
     0
142
0.0208333333333333
142
0.0
142
0.0
142
0.0
142
0.0
142
0.0208333333333333
142
0.0
142
0.0
142
0.0
142
0.0
142
1.0
142
0.0
142
0.0
142
0.0
142
0.0
142
1.0
179
     0
144
0.0208333333333333
144
0.0
144
0.0
144
0.0
144
0.0
144
0.0208333333333333
144
0.0
144
0.0
144
0.0
144
0.0
144
1.0
144
0.0
144
0.0
144
0.0
144
0.0
144
1.0
147
0.0208333333333333
147
0.0
147
0.0
147
0.0
147
0.0
147
0.0208333333333333
147
0.0
147
0.0
147
0.0
147
0.0
147
1.0
147
0.0
147
0.0
147
0.0
147
0.0
147
1.0
  0
MATERIAL
  5
21
102
{ACAD_XDICTIONARY
360
22
102
}
102
{ACAD_REACTORS
330
10
102
}
330
10
100
AcDbMaterial
  1
Global
 72
     0
 43
0.0208333333333333
 43
0.0
 43
0.0
 43
0.0
 43
0.0
 43
0.0208333333333333
 43
0.0
 43
0.0
 43
0.0
 43
0.0
 43
1.0
 43
0.0
 43
0.0
 43
0.0
 43
0.0
 43
1.0
 77
     0
 47
0.0208333333333333
 47
0.0
 47
0.0
 47
0.0
 47
0.0
 47
0.0208333333333333
 47
0.0
 47
0.0
 47
0.0
 47
0.0
 47
1.0
 47
0.0
 47
0.0
 47
0.0
 47
0.0
 47
1.0
171
     0
 49
0.0208333333333333
 49
0.0
 49
0.0
 49
0.0
 49
0.0
 49
0.0208333333333333
 49
0.0
 49
0.0
 49
0.0
 49
0.0
 49
1.0
 49
0.0
 49
0.0
 49
0.0
 49
0.0
 49
1.0
175
     0
142
0.0208333333333333
142
0.0
142
0.0
142
0.0
142
0.0
142
0.0208333333333333
142
0.0
142
0.0
142
0.0
142
0.0
142
1.0
142
0.0
142
0.0
142
0.0
142
0.0
142
1.0
179
     0
144
0.0208333333333333
144
0.0
144
0.0
144
0.0
144
0.0
144
0.0208333333333333
144
0.0
144
0.0
144
0.0
144
0.0
144
1.0
144
0.0
144
0.0
144
0.0
144
0.0
144
1.0
147
0.0208333333333333
147
0.0
147
0.0
147
0.0
147
0.0
147
0.0208333333333333
147
0.0
147
0.0
147
0.0
147
0.0
147
1.0
147
0.0
147
0.0
147
0.0
147
0.0
147
1.0
  0
MLEADERSTYLE
  5
67
102
{ACAD_XDICTIONARY
360
14D
102
}
102
{ACAD_REACTORS
330
66
102
}
330
66
100
AcDbMLeaderStyle
179
     2
170
     2
171
     1
172
     0
 90
        2
 40
0.0
 41
0.0
173
     1
 91
-1056964608
340
5B
 92
       -2
290
     1
 42
0.09
291
     1
 43
0.36
  3
Standard
 44
0.18
300

342
55
174
     1
178
     6
175
     1
176
     0
 93
-1056964608
 45
0.18
292
     0
297
     0
 46
0.18
 94
-1056964608
 47
1.0
 49
1.0
140
1.0
293
     1
141
0.0
294
     1
177
     0
142
1.0
295
     0
296
     0
143
0.125
271
     0
272
     9
273
     9
  0
MLINESTYLE
  5
60
102
{ACAD_REACTORS
330
5F
102
}
330
5F
100
AcDbMlineStyle
  2
STANDARD
 70
     0
  3

 62
   256
 51
90.0
 52
90.0
 71
     2
 49
0.5
 62
   256
  6
BYLAYER
 49
-0.5
 62
   256
  6
BYLAYER
  0
ACDBPLACEHOLDER
  5
F
102
{ACAD_REACTORS
330
E
102
}
330
E
  0
SCALE
  5
43
102
{ACAD_REACTORS
330
42
102
}
330
42
100
AcDbScale
 70
     0
300
1:1
140
1.0
141
1.0
290
     1
  0
SCALE
  5
44
102
{ACAD_REACTORS
330
42
102
}
330
42
100
AcDbScale
 70
     0
300
1/128" = 1'-0"
140
0.0078125
141
12.0
290
     0
  0
SCALE
  5
45
102
{ACAD_REACTORS
330
42
102
}
330
42
100
AcDbScale
 70
     0
300
1/64" = 1'-0"
140
0.015625
141
12.0
290
     0
  0
SCALE
  5
46
102
{ACAD_REACTORS
330
42
102
}
330
42
100
AcDbScale
 70
     0
300
1/32" = 1'-0"
140
0.03125
141
12.0
290
     0
  0
SCALE
  5
47
102
{ACAD_REACTORS
330
42
102
}
330
42
100
AcDbScale
 70
     0
300
1/16" = 1'-0"
140
0.0625
141
12.0
290
     0
  0
SCALE
  5
48
102
{ACAD_REACTORS
330
42
102
}
330
42
100
AcDbScale
 70
     0
300
3/32" = 1'-0"
140
0.09375
141
12.0
290
     0
  0
SCALE
  5
49
102
{ACAD_REACTORS
330
42
102
}
330
42
100
AcDbScale
 70
     0
300
1/8" = 1'-0"
140
0.125
141
12.0
290
     0
  0
SCALE
  5
4A
102
{ACAD_REACTORS
330
42
102
}
330
42
100
AcDbScale
 70
     0
300
3/16" = 1'-0"
140
0.1875
141
12.0
290
     0
  0
SCALE
  5
4B
102
{ACAD_REACTORS
330
42
102
}
330
42
100
AcDbScale
 70
     0
300
1/4" = 1'-0"
140
0.25
141
12.0
290
     0
  0
SCALE
  5
4C
102
{ACAD_REACTORS
330
42
102
}
330
42
100
AcDbScale
 70
     0
300
3/8" = 1'-0"
140
0.375
141
12.0
290
     0
  0
SCALE
  5
4D
102
{ACAD_REACTORS
330
42
102
}
330
42
100
AcDbScale
 70
     0
300
1/2" = 1'-0"
140
0.5
141
12.0
290
     0
  0
SCALE
  5
4E
102
{ACAD_REACTORS
330
42
102
}
330
42
100
AcDbScale
 70
     0
300
3/4" = 1'-0"
140
0.75
141
12.0
290
     0
  0
SCALE
  5
4F
102
{ACAD_REACTORS
330
42
102
}
330
42
100
AcDbScale
 70
     0
300
1" = 1'-0"
140
1.0
141
12.0
290
     0
  0
SCALE
  5
50
102
{ACAD_REACTORS
330
42
102
}
330
42
100
AcDbScale
 70
     0
300
1-1/2" = 1'-0"
140
1.5
141
12.0
290
     0
  0
SCALE
  5
51
102
{ACAD_REACTORS
330
42
102
}
330
42
100
AcDbScale
 70
     0
300
3" = 1'-0"
140
3.0
141
12.0
290
     0
  0
SCALE
  5
52
102
{ACAD_REACTORS
330
42
102
}
330
42
100
AcDbScale
 70
     0
300
6" = 1'-0"
140
6.0
141
12.0
290
     0
  0
SCALE
  5
53
102
{ACAD_REACTORS
330
42
102
}
330
42
100
AcDbScale
 70
     0
300
1'-0" = 1'-0"
140
12.0
141
12.0
290
     0
  0
ACDBSECTIONVIEWSTYLE
  5
69
102
{ACAD_XDICTIONARY
360
14F
102
}
102
{ACAD_REACTORS
330
68
102
}
330
68
100
AcDbModelDocViewStyle
 70
     0
  3
Imperial24
290
     0
100
AcDbSectionViewStyle
 70
     0
 71
     0
 90
       78
 71
     1
340
55
 62
   256
 40
0.24
340
0
340
0
 62
   256
 40
0.24
300
I, O, Q, S, X, Z
 40
0.48
 90
        3
 40
0.18
 90
        1
 71
     2
340
5D
 90
       25
 62
   256
340
5D
 90
       50
 62
   256
 40
0.24
 40
0.0
 40
0.24
 71
     3
340
55
 62
   256
 40
0.24
 90
        1
 40
0.75
 90
        1
300
%<\AcVar ViewType \f "%tc1">% %<\AcVar ViewSectionStartId>%-%<\AcVar ViewSectionEndId>%\PSCALE %<\AcVar ViewScale \f "%sn">%
 71
     4
 62
   256
 62
   257
300
ANSI31
 40
1.0
 90
        0
290
     0
290
     0
 90
        6
 40
0.0
 40
1.570796326794896
 40
0.2617993877991494
 40
1.308996938995747
 40
-0.2617993877991494
 40
1.832595714594046
  0
TABLESTYLE
  5
65
102
{ACAD_XDICTIONARY
360
11A
102
}
102
{ACAD_REACTORS
330
64
102
}
330
64
100
AcDbTableStyle
280
     0
  3
Standard
 70
     0
 71
     0
 40
0.06
 41
0.06
280
     0
281
     0
  7
Standard
140
0.18
170
     2
 62
     0
 63
     7
283
     0
 90
      512
 91
        0
  1

274
    -2
284
     1
 64
     0
275
    -2
285
     1
 65
     0
276
    -2
286
     1
 66
     0
277
    -2
287
     1
 67
     0
278
    -2
288
     1
 68
     0
279
    -2
289
     1
 69
     0
  7
Standard
140
0.25
170
     5
 62
     0
 63
     7
283
     0
 90
      512
 91
        0
  1

274
    -2
284
     1
 64
     0
275
    -2
285
     1
 65
     0
276
    -2
286
     1
 66
     0
277
    -2
287
     1
 67
     0
278
    -2
288
     1
 68
     0
279
    -2
289
     1
 69
     0
  7
Standard
140
0.18
170
     5
 62
     0
 63
     7
283
     0
 90
      512
 91
        0
  1

274
    -2
284
     1
 64
     0
275
    -2
285
     1
 65
     0
276
    -2
286
     1
 66
     0
277
    -2
287
     1
 67
     0
278
    -2
288
     1
 68
     0
279
    -2
289
     1
 69
     0
  0
VISUALSTYLE
  5
2F
102
{ACAD_XDICTIONARY
360
127
102
}
102
{ACAD_REACTORS
330
29
102
}
330
29
100
AcDbVisualStyle
  2
2dWireframe
 70
     4
177
     2
291
     0
 71
     0
176
     1
 72
     2
176
     1
 73
     0
176
     1
 90
        0
176
     1
 40
0.6
176
     1
 41
30.0
176
     1
 63
     7
421
 16777215
176
     1
 74
     1
176
     1
 91
        4
176
     1
 64
     7
176
     1
 65
   257
176
     1
 75
     1
176
     1
175
     1
176
     1
 42
1.0
176
     1
 92
        0
176
     1
 66
   257
176
     1
 43
1.0
176
     1
 76
     1
176
     1
 77
     6
176
     1
 78
     2
176
     1
 67
     7
176
     1
 79
     5
176
     1
170
     0
176
     1
171
     0
176
     1
290
     0
176
     1
 93
        1
176
     1
 44
0.0
176
     1
173
     0
176
     1
1001
ACAD
1000
AcDbSavedByObjectVersion
1070
     0
  0
VISUALSTYLE
  5
2E
102
{ACAD_XDICTIONARY
360
125
102
}
102
{ACAD_REACTORS
330
29
102
}
330
29
100
AcDbVisualStyle
  2
Basic
 70
     7
177
     2
291
     1
 71
     1
176
     1
 72
     0
176
     1
 73
     1
176
     1
 90
        0
176
     1
 40
0.6
176
     1
 41
30.0
176
     1
 63
     7
421
 16777215
176
     1
 74
     0
176
     1
 91
        4
176
     1
 64
     7
176
     1
 65
   257
176
     1
 75
     1
176
     1
175
     1
176
     1
 42
1.0
176
     1
 92
        8
176
     1
 66
     7
176
     1
 43
1.0
176
     1
 76
     1
176
     1
 77
     6
176
     1
 78
     2
176
     1
 67
     7
176
     1
 79
     5
176
     1
170
     0
176
     1
171
     0
176
     1
290
     0
176
     1
 93
        1
176
     1
 44
0.0
176
     1
173
     0
176
     1
1001
ACAD
1000
AcDbSavedByObjectVersion
1070
     0
  0
VISUALSTYLE
  5
35
102
{ACAD_XDICTIONARY
360
133
102
}
102
{ACAD_REACTORS
330
29
102
}
330
29
100
AcDbVisualStyle
  2
Brighten
 70
    12
177
     2
291
     1
 71
     2
176
     1
 72
     2
176
     1
 73
     0
176
     1
 90
        0
176
     1
 40
0.6
176
     1
 41
30.0
176
     1
 63
     7
421
 16777215
176
     1
 74
     1
176
     1
 91
        4
176
     1
 64
     7
176
     1
 65
   257
176
     1
 75
     1
176
     1
175
     1
176
     1
 42
1.0
176
     1
 92
        8
176
     1
 66
     7
176
     1
 43
1.0
176
     1
 76
     1
176
     1
 77
     6
176
     1
 78
     2
176
     1
 67
     7
176
     1
 79
     5
176
     1
170
     0
176
     1
171
     0
176
     1
290
     0
176
     1
 93
        1
176
     1
 44
50.0
176
     1
173
     0
176
     1
1001
ACAD
1000
AcDbSavedByObjectVersion
1070
     0
  0
VISUALSTYLE
  5
39
102
{ACAD_XDICTIONARY
360
13B
102
}
102
{ACAD_REACTORS
330
29
102
}
330
29
100
AcDbVisualStyle
  2
ColorChange
 70
    16
177
     2
291
     1
 71
     2
176
     1
 72
     2
176
     1
 73
     3
176
     1
 90
        0
176
     1
 40
0.6
176
     1
 41
30.0
176
     1
 63
     8
421
  8421504
176
     1
 74
     1
176
     1
 91
        4
176
     1
 64
     7
176
     1
 65
   257
176
     1
 75
     1
176
     1
175
     1
176
     1
 42
1.0
176
     1
 92
        8
176
     1
 66
     8
424
  8421504
176
     1
 43
1.0
176
     1
 76
     1
176
     1
 77
     6
176
     1
 78
     2
176
     1
 67
     7
176
     1
 79
     5
176
     1
170
     0
176
     1
171
     0
176
     1
290
     0
176
     1
 93
        1
176
     1
 44
0.0
176
     1
173
     0
176
     1
1001
ACAD
1000
AcDbSavedByObjectVersion
1070
     0
  0
VISUALSTYLE
  5
32
102
{ACAD_XDICTIONARY
360
12D
102
}
102
{ACAD_REACTORS
330
29
102
}
330
29
100
AcDbVisualStyle
  2
Conceptual
 70
     9
177
     2
291
     0
 71
     3
176
     1
 72
     2
176
     1
 73
     0
176
     1
 90
        0
176
     1
 40
0.6
176
     1
 41
30.0
176
     1
 63
     7
421
 16777215
176
     1
 74
     2
176
     1
 91
        2
176
     1
 64
     7
176
     1
 65
   257
176
     1
 75
     1
176
     1
175
     1
176
     1
 42
179.0
176
     1
 92
        8
176
     1
 66
     7
176
     1
 43
1.0
176
     1
 76
     1
176
     1
 77
     6
176
     1
 78
     2
176
     1
 67
     7
176
     1
 79
     3
176
     1
170
     0
176
     1
171
     0
176
     1
290
     0
176
     1
 93
        1
176
     1
 44
0.0
176
     1
173
     0
176
     1
1001
ACAD
1000
AcDbSavedByObjectVersion
1070
     0
  0
VISUALSTYLE
  5
34
102
{ACAD_XDICTIONARY
360
131
102
}
102
{ACAD_REACTORS
330
29
102
}
330
29
100
AcDbVisualStyle
  2
Dim
 70
    11
177
     2
291
     1
 71
     2
176
     1
 72
     2
176
     1
 73
     0
176
     1
 90
        0
176
     1
 40
0.6
176
     1
 41
30.0
176
     1
 63
     7
421
 16777215
176
     1
 74
     1
176
     1
 91
        4
176
     1
 64
     7
176
     1
 65
   257
176
     1
 75
     1
176
     1
175
     1
176
     1
 42
1.0
176
     1
 92
        8
176
     1
 66
     7
176
     1
 43
1.0
176
     1
 76
     1
176
     1
 77
     6
176
     1
 78
     2
176
     1
 67
     7
176
     1
 79
     5
176
     1
170
     0
176
     1
171
     0
176
     1
290
     0
176
     1
 93
        1
176
     1
 44
-50.0
176
     1
173
     0
176
     1
1001
ACAD
1000
AcDbSavedByObjectVersion
1070
     0
  0
VISUALSTYLE
  5
41
102
{ACAD_XDICTIONARY
360
14B
102
}
102
{ACAD_REACTORS
330
29
102
}
330
29
100
AcDbVisualStyle
  2
EdgeColorOff
 70
    22
177
     2
291
     1
 71
     2
176
     0
 72
     2
176
     0
 73
     0
176
     0
 90
        0
176
     0
 40
0.6
176
     0
 41
30.0
176
     0
 63
     7
421
 16777215
176
     0
 74
     1
176
     0
 91
        4
176
     0
 64
     7
176
     0
 65
   257
176
     0
 75
     1
176
     0
175
     1
176
     0
 42
1.0
176
     0
 92
        8
176
     2
 66
     7
176
     0
 43
1.0
176
     0
 76
     1
176
     0
 77
     6
176
     0
 78
     2
176
     0
 67
     7
176
     0
 79
     5
176
     0
170
     0
176
     0
171
     0
176
     0
290
     0
176
     0
 93
        1
176
     0
 44
0.0
176
     0
173
     0
176
     0
1001
ACAD
1000
AcDbSavedByObjectVersion
1070
     0
  0
VISUALSTYLE
  5
38
102
{ACAD_XDICTIONARY
360
139
102
}
102
{ACAD_REACTORS
330
29
102
}
330
29
100
AcDbVisualStyle
  2
Facepattern
 70
    15
177
     2
291
     1
 71
     2
176
     1
 72
     2
176
     1
 73
     0
176
     1
 90
        0
176
     1
 40
0.6
176
     1
 41
30.0
176
     1
 63
     7
421
 16777215
176
     1
 74
     1
176
     1
 91
        4
176
     1
 64
     7
176
     1
 65
   257
176
     1
 75
     1
176
     1
175
     1
176
     1
 42
1.0
176
     1
 92
        8
176
     1
 66
     7
176
     1
 43
1.0
176
     1
 76
     1
176
     1
 77
     6
176
     1
 78
     2
176
     1
 67
     7
176
     1
 79
     5
176
     1
170
     0
176
     1
171
     0
176
     1
290
     0
176
     1
 93
        1
176
     1
 44
0.0
176
     1
173
     0
176
     1
1001
ACAD
1000
AcDbSavedByObjectVersion
1070
     0
  0
VISUALSTYLE
  5
2A
102
{ACAD_XDICTIONARY
360
11D
102
}
102
{ACAD_REACTORS
330
29
102
}
330
29
100
AcDbVisualStyle
  2
Flat
 70
     0
177
     2
291
     1
 71
     2
176
     1
 72
     1
176
     1
 73
     1
176
     1
 90
        2
176
     1
 40
0.6
176
     1
 41
30.0
176
     1
 63
     7
421
 16777215
176
     1
 74
     0
176
     1
 91
        0
176
     1
 64
     7
176
     1
 65
   257
176
     1
 75
     1
176
     1
175
     1
176
     1
 42
1.0
176
     1
 92
        8
176
     1
 66
     7
176
     1
 43
1.0
176
     1
 76
     1
176
     1
 77
     6
176
     1
 78
     2
176
     1
 67
     7
176
     1
 79
     5
176
     1
170
     0
176
     1
171
     0
176
     1
290
     0
176
     1
 93
       13
176
     1
 44
0.0
176
     1
173
     0
176
     1
1001
ACAD
1000
AcDbSavedByObjectVersion
1070
     0
  0
VISUALSTYLE
  5
2B
102
{ACAD_XDICTIONARY
360
11F
102
}
102
{ACAD_REACTORS
330
29
102
}
330
29
100
AcDbVisualStyle
  2
FlatWithEdges
 70
     1
177
     2
291
     1
 71
     2
176
     1
 72
     1
176
     1
 73
     1
176
     1
 90
        2
176
     1
 40
0.6
176
     1
 41
30.0
176
     1
 63
     7
421
 16777215
176
     1
 74
     1
176
     1
 91
        0
176
     1
 64
     7
176
     1
 65
   257
176
     1
 75
     1
176
     1
175
     1
176
     1
 42
1.0
176
     1
 92
        0
176
     1
 66
   257
176
     1
 43
1.0
176
     1
 76
     1
176
     1
 77
     6
176
     1
 78
     2
176
     1
 67
     7
176
     1
 79
     5
176
     1
170
     0
176
     1
171
     0
176
     1
290
     0
176
     1
 93
       13
176
     1
 44
0.0
176
     1
173
     0
176
     1
1001
ACAD
1000
AcDbSavedByObjectVersion
1070
     0
  0
VISUALSTYLE
  5
2C
102
{ACAD_XDICTIONARY
360
121
102
}
102
{ACAD_REACTORS
330
29
102
}
330
29
100
AcDbVisualStyle
  2
Gouraud
 70
     2
177
     2
291
     1
 71
     2
176
     1
 72
     2
176
     1
 73
     1
176
     1
 90
        2
176
     1
 40
0.6
176
     1
 41
30.0
176
     1
 63
     7
421
 16777215
176
     1
 74
     0
176
     1
 91
        0
176
     1
 64
     7
176
     1
 65
   257
176
     1
 75
     1
176
     1
175
     1
176
     1
 42
1.0
176
     1
 92
        0
176
     1
 66
     7
176
     1
 43
1.0
176
     1
 76
     1
176
     1
 77
     6
176
     1
 78
     2
176
     1
 67
     7
176
     1
 79
     5
176
     1
170
     0
176
     1
171
     0
176
     1
290
     0
176
     1
 93
       13
176
     1
 44
0.0
176
     1
173
     0
176
     1
1001
ACAD
1000
AcDbSavedByObjectVersion
1070
     0
  0
VISUALSTYLE
  5
2D
102
{ACAD_XDICTIONARY
360
123
102
}
102
{ACAD_REACTORS
330
29
102
}
330
29
100
AcDbVisualStyle
  2
GouraudWithEdges
 70
     3
177
     2
291
     1
 71
     2
176
     1
 72
     2
176
     1
 73
     1
176
     1
 90
        2
176
     1
 40
0.6
176
     1
 41
30.0
176
     1
 63
     7
421
 16777215
176
     1
 74
     1
176
     1
 91
        0
176
     1
 64
     7
176
     1
 65
   257
176
     1
 75
     1
176
     1
175
     1
176
     1
 42
1.0
176
     1
 92
        0
176
     1
 66
   257
176
     1
 43
1.0
176
     1
 76
     1
176
     1
 77
     6
176
     1
 78
     2
176
     1
 67
     7
176
     1
 79
     5
176
     1
170
     0
176
     1
171
     0
176
     1
290
     0
176
     1
 93
       13
176
     1
 44
0.0
176
     1
173
     0
176
     1
1001
ACAD
1000
AcDbSavedByObjectVersion
1070
     0
  0
VISUALSTYLE
  5
31
102
{ACAD_XDICTIONARY
360
12B
102
}
102
{ACAD_REACTORS
330
29
102
}
330
29
100
AcDbVisualStyle
  2
Hidden
 70
     6
177
     2
291
     0
 71
     1
176
     1
 72
     2
176
     1
 73
     2
176
     1
 90
        0
176
     1
 40
0.6
176
     1
 41
30.0
176
     1
 63
     7
421
 16777215
176
     1
 74
     2
176
     1
 91
        2
176
     1
 64
     7
176
     1
 65
   257
176
     1
 75
     2
176
     1
175
     1
176
     1
 42
40.0
176
     1
 92
        0
176
     1
 66
   257
176
     1
 43
1.0
176
     1
 76
     1
176
     1
 77
     6
176
     1
 78
     2
176
     1
 67
     7
176
     1
 79
     3
176
     1
170
     0
176
     1
171
     0
176
     1
290
     0
176
     1
 93
        1
176
     1
 44
0.0
176
     1
173
     0
176
     1
1001
ACAD
1000
AcDbSavedByObjectVersion
1070
     0
  0
VISUALSTYLE
  5
3F
102
{ACAD_XDICTIONARY
360
147
102
}
102
{ACAD_REACTORS
330
29
102
}
330
29
100
AcDbVisualStyle
  2
JitterOff
 70
    20
177
     2
291
     1
 71
     2
176
     0
 72
     2
176
     0
 73
     0
176
     0
 90
        0
176
     0
 40
0.6
176
     0
 41
30.0
176
     0
 63
     7
421
 16777215
176
     0
 74
     1
176
     0
 91
        4
176
     0
 64
     7
176
     0
 65
   257
176
     0
 75
     1
176
     0
175
     1
176
     0
 42
1.0
176
     0
 92
       10
176
     2
 66
     7
176
     0
 43
1.0
176
     0
 76
     1
176
     0
 77
     6
176
     0
 78
     2
176
     0
 67
     7
176
     0
 79
     5
176
     0
170
     0
176
     0
171
     0
176
     0
290
     0
176
     0
 93
        1
176
     0
 44
0.0
176
     0
173
     0
176
     0
1001
ACAD
1000
AcDbSavedByObjectVersion
1070
     0
  0
VISUALSTYLE
  5
37
102
{ACAD_XDICTIONARY
360
137
102
}
102
{ACAD_REACTORS
330
29
102
}
330
29
100
AcDbVisualStyle
  2
Linepattern
 70
    14
177
     2
291
     1
 71
     2
176
     1
 72
     2
176
     1
 73
     0
176
     1
 90
        0
176
     1
 40
0.6
176
     1
 41
30.0
176
     1
 63
     7
421
 16777215
176
     1
 74
     1
176
     1
 91
        4
176
     1
 64
     7
176
     1
 65
   257
176
     1
 75
     7
176
     1
175
     7
176
     1
 42
1.0
176
     1
 92
        8
176
     1
 66
     7
176
     1
 43
1.0
176
     1
 76
     1
176
     1
 77
     6
176
     1
 78
     2
176
     1
 67
     7
176
     1
 79
     5
176
     1
170
     0
176
     1
171
     0
176
     1
290
     0
176
     1
 93
        1
176
     1
 44
0.0
176
     1
173
     0
176
     1
1001
ACAD
1000
AcDbSavedByObjectVersion
1070
     0
  0
VISUALSTYLE
  5
40
102
{ACAD_XDICTIONARY
360
149
102
}
102
{ACAD_REACTORS
330
29
102
}
330
29
100
AcDbVisualStyle
  2
OverhangOff
 70
    21
177
     2
291
     1
 71
     2
176
     0
 72
     2
176
     0
 73
     0
176
     0
 90
        0
176
     0
 40
0.6
176
     0
 41
30.0
176
     0
 63
     7
421
 16777215
176
     0
 74
     1
176
     0
 91
        4
176
     0
 64
     7
176
     0
 65
   257
176
     0
 75
     1
176
     0
175
     1
176
     0
 42
1.0
176
     0
 92
        9
176
     2
 66
     7
176
     0
 43
1.0
176
     0
 76
     1
176
     0
 77
     6
176
     0
 78
     2
176
     0
 67
     7
176
     0
 79
     5
176
     0
170
     0
176
     0
171
     0
176
     0
290
     0
176
     0
 93
        1
176
     0
 44
0.0
176
     0
173
     0
176
     0
1001
ACAD
1000
AcDbSavedByObjectVersion
1070
     0
  0
VISUALSTYLE
  5
33
102
{ACAD_XDICTIONARY
360
12F
102
}
102
{ACAD_REACTORS
330
29
102
}
330
29
100
AcDbVisualStyle
  2
Realistic
 70
     8
177
     2
291
     0
 71
     2
176
     1
 72
     3
176
     1
 73
     0
176
     1
 90
        2
176
     1
 40
0.6
176
     1
 41
30.0
176
     1
 63
     7
421
 16777215
176
     1
 74
     0
176
     1
 91
        0
176
     1
 64
     7
176
     1
 65
   257
176
     1
 75
     1
176
     1
175
     1
176
     1
 42
1.0
176
     1
 92
        8
176
     1
 66
   257
176
     1
 43
1.0
176
     1
 76
     1
176
     1
 77
     6
176
     1
 78
     2
176
     1
 67
     7
176
     1
 79
     3
176
     1
170
     0
176
     1
171
     0
176
     1
290
     0
176
     1
 93
       13
176
     1
 44
0.0
176
     1
173
     0
176
     1
1001
ACAD
1000
AcDbSavedByObjectVersion
1070
     0
  0
VISUALSTYLE
  5
3E
102
{ACAD_XDICTIONARY
360
145
102
}
102
{ACAD_REACTORS
330
29
102
}
330
29
100
AcDbVisualStyle
  2
Shaded
 70
    27
177
     2
291
     0
 71
     2
176
     1
 72
     2
176
     1
 73
     1
176
     1
 90
        2
176
     1
 40
0.6
176
     1
 41
30.0
176
     1
 63
     7
421
 16777215
176
     1
 74
     0
176
     1
 91
        4
176
     1
 64
     7
176
     1
 65
   257
176
     1
 75
     1
176
     1
175
     1
176
     1
 42
1.0
176
     1
 92
        8
176
     1
 66
   257
176
     1
 43
1.0
176
     1
 76
     1
176
     1
 77
     6
176
     1
 78
     2
176
     1
 67
     8
425
  7895160
176
     1
 79
     3
176
     1
170
     0
176
     1
171
     0
176
     1
290
     0
176
     1
 93
        5
176
     1
 44
0.0
176
     1
173
     0
176
     1
1001
ACAD
1000
AcDbSavedByObjectVersion
1070
     0
  0
VISUALSTYLE
  5
3D
102
{ACAD_XDICTIONARY
360
143
102
}
102
{ACAD_REACTORS
330
29
102
}
330
29
100
AcDbVisualStyle
  2
Shaded with edges
 70
    26
177
     2
291
     0
 71
     2
176
     1
 72
     2
176
     1
 73
     1
176
     1
 90
        2
176
     1
 40
0.6
176
     1
 41
30.0
176
     1
 63
     7
421
 16777215
176
     1
 74
     1
176
     1
 91
        2
176
     1
 64
     7
176
     1
 65
   257
176
     1
 75
     2
176
     1
175
     1
176
     1
 42
1.0
176
     1
 92
        8
176
     1
 66
   257
176
     1
 43
1.0
176
     1
 76
     1
176
     1
 77
     6
176
     1
 78
     2
176
     1
 67
     7
176
     1
 79
     3
176
     1
170
     0
176
     1
171
     0
176
     1
290
     0
176
     1
 93
        5
176
     1
 44
0.0
176
     1
173
     0
176
     1
1001
ACAD
1000
AcDbSavedByObjectVersion
1070
     0
  0
VISUALSTYLE
  5
3A
102
{ACAD_XDICTIONARY
360
13D
102
}
102
{ACAD_REACTORS
330
29
102
}
330
29
100
AcDbVisualStyle
  2
Shades of Gray
 70
    23
177
     2
291
     0
 71
     2
176
     1
 72
     2
176
     1
 73
     3
176
     1
 90
        0
176
     1
 40
0.6
176
     1
 41
30.0
176
     1
 63
     7
421
 16777215
176
     1
 74
     2
176
     1
 91
        2
176
     1
 64
     7
176
     1
 65
     7
176
     1
 75
     1
176
     1
175
     1
176
     1
 42
40.0
176
     1
 92
        8
176
     1
 66
     7
176
     1
 43
1.0
176
     1
 76
     1
176
     1
 77
     6
176
     1
 78
     2
176
     1
 67
     7
176
     1
 79
     3
176
     1
170
     0
176
     1
171
     0
176
     1
290
     0
176
     1
 93
        1
176
     1
 44
0.0
176
     1
173
     0
176
     1
1001
ACAD
1000
AcDbSavedByObjectVersion
1070
     0
  0
VISUALSTYLE
  5
3B
102
{ACAD_XDICTIONARY
360
13F
102
}
102
{ACAD_REACTORS
330
29
102
}
330
29
100
AcDbVisualStyle
  2
Sketchy
 70
    24
177
     2
291
     0
 71
     1
176
     1
 72
     2
176
     1
 73
     2
176
     1
 90
        0
176
     1
 40
0.6
176
     1
 41
30.0
176
     1
 63
     7
421
 16777215
176
     1
 74
     2
176
     1
 91
        2
176
     1
 64
     7
176
     1
 65
     7
176
     1
 75
     1
176
     1
175
     1
176
     1
 42
40.0
176
     1
 92
       11
176
     1
 66
     7
176
     1
 43
1.0
176
     1
 76
     1
176
     1
 77
     6
176
     1
 78
     2
176
     1
 67
     7
176
     1
 79
     6
176
     1
170
     0
176
     1
171
     0
176
     1
290
     0
176
     1
 93
        1
176
     1
 44
0.0
176
     1
173
     0
176
     1
1001
ACAD
1000
AcDbSavedByObjectVersion
1070
     0
  0
VISUALSTYLE
  5
36
102
{ACAD_XDICTIONARY
360
135
102
}
102
{ACAD_REACTORS
330
29
102
}
330
29
100
AcDbVisualStyle
  2
Thicken
 70
    13
177
     2
291
     1
 71
     2
176
     1
 72
     2
176
     1
 73
     0
176
     1
 90
        0
176
     1
 40
0.6
176
     1
 41
30.0
176
     1
 63
     7
421
 16777215
176
     1
 74
     1
176
     1
 91
        4
176
     1
 64
     7
176
     1
 65
   257
176
     1
 75
     1
176
     1
175
     1
176
     1
 42
1.0
176
     1
 92
       12
176
     1
 66
     7
176
     1
 43
1.0
176
     1
 76
     1
176
     1
 77
     6
176
     1
 78
     2
176
     1
 67
     7
176
     1
 79
     5
176
     1
170
     0
176
     1
171
     0
176
     1
290
     0
176
     1
 93
        1
176
     1
 44
0.0
176
     1
173
     0
176
     1
1001
ACAD
1000
AcDbSavedByObjectVersion
1070
     0
  0
VISUALSTYLE
  5
30
102
{ACAD_XDICTIONARY
360
129
102
}
102
{ACAD_REACTORS
330
29
102
}
330
29
100
AcDbVisualStyle
  2
Wireframe
 70
     5
177
     2
291
     0
 71
     0
176
     1
 72
     2
176
     1
 73
     0
176
     1
 90
        0
176
     1
 40
0.6
176
     1
 41
30.0
176
     1
 63
     7
421
 16777215
176
     1
 74
     1
176
     1
 91
        4
176
     1
 64
     7
176
     1
 65
   257
176
     1
 75
     1
176
     1
175
     1
176
     1
 42
1.0
176
     1
 92
        0
176
     1
 66
   257
176
     1
 43
1.0
176
     1
 76
     1
176
     1
 77
     6
176
     1
 78
     2
176
     1
 67
     7
176
     1
 79
     3
176
     1
170
     0
176
     1
171
     0
176
     1
290
     0
176
     1
 93
        1
176
     1
 44
0.0
176
     1
173
     0
176
     1
1001
ACAD
1000
AcDbSavedByObjectVersion
1070
     0
  0
VISUALSTYLE
  5
3C
102
{ACAD_XDICTIONARY
360
141
102
}
102
{ACAD_REACTORS
330
29
102
}
330
29
100
AcDbVisualStyle
  2
X-Ray
 70
    25
177
     2
291
     0
 71
     2
176
     1
 72
     2
176
     1
 73
     1
176
     1
 90
        1
176
     1
 40
0.5
176
     1
 41
30.0
176
     1
 63
     7
421
 16777215
176
     1
 74
     1
176
     1
 91
        0
176
     1
 64
     7
176
     1
 65
   257
176
     1
 75
     1
176
     1
175
     1
176
     1
 42
1.0
176
     1
 92
        8
176
     1
 66
     7
176
     1
 43
1.0
176
     1
 76
     1
176
     1
 77
     6
176
     1
 78
     2
176
     1
 67
     7
176
     1
 79
     3
176
     1
170
     0
176
     1
171
     0
176
     1
290
     0
176
     1
 93
       13
176
     1
 44
0.0
176
     1
173
     0
176
     1
1001
ACAD
1000
AcDbSavedByObjectVersion
1070
     0
  0
DICTIONARYVAR
  5
119
102
{ACAD_REACTORS
330
114
102
}
330
114
100
DictionaryVariables
280
     0
  1
1:1
  0
DICTIONARYVAR
  5
116
102
{ACAD_REACTORS
330
114
102
}
330
114
100
DictionaryVariables
280
     0
  1
STANDARD
  0
DICTIONARYVAR
  5
115
102
{ACAD_REACTORS
330
114
102
}
330
114
100
DictionaryVariables
280
     0
  1
STANDARD
  0
DICTIONARYVAR
  5
117
102
{ACAD_REACTORS
330
114
102
}
330
114
100
DictionaryVariables
280
     0
  1
Imperial24
  0
DICTIONARYVAR
  5
118
102
{ACAD_REACTORS
330
114
102
}
330
114
100
DictionaryVariables
280
     0
  1
Imperial24
  0
DICTIONARY
  5
151
330
6B
100
AcDbDictionary
280
     1
281
     1
  3
ACAD_XREC_ROUNDTRIP
360
152
  0
DICTIONARY
  5
1A
330
19
100
AcDbDictionary
280
     1
281
     1
  3
BUMPTILE
360
1C
  3
DIFFUSETILE
360
1B
  3
OPACITYTILE
360
1F
  3
REFLECTIONTILE
360
1E
  3
REFRACTIONTILE
360
20
  3
SPECULARTILE
360
1D
  0
DICTIONARY
  5
12
330
11
100
AcDbDictionary
280
     1
281
     1
  3
BUMPTILE
360
14
  3
DIFFUSETILE
360
13
  3
OPACITYTILE
360
17
  3
REFLECTIONTILE
360
16
  3
REFRACTIONTILE
360
18
  3
SPECULARTILE
360
15
  0
DICTIONARY
  5
22
330
21
100
AcDbDictionary
280
     1
281
     1
  3
BUMPTILE
360
24
  3
DIFFUSETILE
360
23
  3
OPACITYTILE
360
27
  3
REFLECTIONTILE
360
26
  3
REFRACTIONTILE
360
28
  3
SPECULARTILE
360
25
  0
DICTIONARY
  5
14D
330
67
100
AcDbDictionary
280
     1
281
     1
  3
ACAD_XREC_ROUNDTRIP
360
14E
  0
DICTIONARY
  5
14F
330
69
100
AcDbDictionary
280
     1
281
     1
  3
ACAD_XREC_ROUNDTRIP
360
150
  0
DICTIONARY
  5
11A
330
65
100
AcDbDictionary
280
     1
281
     1
  3
ACAD_ROUNDTRIP_2008_TABLESTYLE_CELLSTYLEMAP
360
11B
  0
DICTIONARY
  5
127
330
2F
100
AcDbDictionary
280
     1
281
     1
  3
ACAD_XREC_ROUNDTRIP
360
128
  0
DICTIONARY
  5
125
330
2E
100
AcDbDictionary
280
     1
281
     1
  3
ACAD_XREC_ROUNDTRIP
360
126
  0
DICTIONARY
  5
133
330
35
100
AcDbDictionary
280
     1
281
     1
  3
ACAD_XREC_ROUNDTRIP
360
134
  0
DICTIONARY
  5
13B
330
39
100
AcDbDictionary
280
     1
281
     1
  3
ACAD_XREC_ROUNDTRIP
360
13C
  0
DICTIONARY
  5
12D
330
32
100
AcDbDictionary
280
     1
281
     1
  3
ACAD_XREC_ROUNDTRIP
360
12E
  0
DICTIONARY
  5
131
330
34
100
AcDbDictionary
280
     1
281
     1
  3
ACAD_XREC_ROUNDTRIP
360
132
  0
DICTIONARY
  5
14B
330
41
100
AcDbDictionary
280
     1
281
     1
  3
ACAD_XREC_ROUNDTRIP
360
14C
  0
DICTIONARY
  5
139
330
38
100
AcDbDictionary
280
     1
281
     1
  3
ACAD_XREC_ROUNDTRIP
360
13A
  0
DICTIONARY
  5
11D
330
2A
100
AcDbDictionary
280
     1
281
     1
  3
ACAD_XREC_ROUNDTRIP
360
11E
  0
DICTIONARY
  5
11F
330
2B
100
AcDbDictionary
280
     1
281
     1
  3
ACAD_XREC_ROUNDTRIP
360
120
  0
DICTIONARY
  5
121
330
2C
100
AcDbDictionary
280
     1
281
     1
  3
ACAD_XREC_ROUNDTRIP
360
122
  0
DICTIONARY
  5
123
330
2D
100
AcDbDictionary
280
     1
281
     1
  3
ACAD_XREC_ROUNDTRIP
360
124
  0
DICTIONARY
  5
12B
330
31
100
AcDbDictionary
280
     1
281
     1
  3
ACAD_XREC_ROUNDTRIP
360
12C
  0
DICTIONARY
  5
147
330
3F
100
AcDbDictionary
280
     1
281
     1
  3
ACAD_XREC_ROUNDTRIP
360
148
  0
DICTIONARY
  5
137
330
37
100
AcDbDictionary
280
     1
281
     1
  3
ACAD_XREC_ROUNDTRIP
360
138
  0
DICTIONARY
  5
149
330
40
100
AcDbDictionary
280
     1
281
     1
  3
ACAD_XREC_ROUNDTRIP
360
14A
  0
DICTIONARY
  5
12F
330
33
100
AcDbDictionary
280
     1
281
     1
  3
ACAD_XREC_ROUNDTRIP
360
130
  0
DICTIONARY
  5
145
330
3E
100
AcDbDictionary
280
     1
281
     1
  3
ACAD_XREC_ROUNDTRIP
360
146
  0
DICTIONARY
  5
143
330
3D
100
AcDbDictionary
280
     1
281
     1
  3
ACAD_XREC_ROUNDTRIP
360
144
  0
DICTIONARY
  5
13D
330
3A
100
AcDbDictionary
280
     1
281
     1
  3
ACAD_XREC_ROUNDTRIP
360
13E
  0
DICTIONARY
  5
13F
330
3B
100
AcDbDictionary
280
     1
281
     1
  3
ACAD_XREC_ROUNDTRIP
360
140
  0
DICTIONARY
  5
135
330
36
100
AcDbDictionary
280
     1
281
     1
  3
ACAD_XREC_ROUNDTRIP
360
136
  0
DICTIONARY
  5
129
330
30
100
AcDbDictionary
280
     1
281
     1
  3
ACAD_XREC_ROUNDTRIP
360
12A
  0
DICTIONARY
  5
141
330
3C
100
AcDbDictionary
280
     1
281
     1
  3
ACAD_XREC_ROUNDTRIP
360
142
  0
XRECORD
  5
152
102
{ACAD_REACTORS
330
151
102
}
330
151
100
AcDbXrecord
280
     1
102
DISPLAYNAME
  1
Imperial24
102
FLAGS
 90
        0
  0
XRECORD
  5
1C
102
{ACAD_REACTORS
330
1A
102
}
330
1A
100
AcDbXrecord
280
     1
270
     1
271
     1
  0
XRECORD
  5
1B
102
{ACAD_REACTORS
330
1A
102
}
330
1A
100
AcDbXrecord
280
     1
270
     1
271
     1
  0
XRECORD
  5
1F
102
{ACAD_REACTORS
330
1A
102
}
330
1A
100
AcDbXrecord
280
     1
270
     1
271
     1
  0
XRECORD
  5
1E
102
{ACAD_REACTORS
330
1A
102
}
330
1A
100
AcDbXrecord
280
     1
270
     1
271
     1
  0
XRECORD
  5
20
102
{ACAD_REACTORS
330
1A
102
}
330
1A
100
AcDbXrecord
280
     1
270
     1
271
     1
  0
XRECORD
  5
1D
102
{ACAD_REACTORS
330
1A
102
}
330
1A
100
AcDbXrecord
280
     1
270
     1
271
     1
  0
XRECORD
  5
14
102
{ACAD_REACTORS
330
12
102
}
330
12
100
AcDbXrecord
280
     1
270
     1
271
     1
  0
XRECORD
  5
13
102
{ACAD_REACTORS
330
12
102
}
330
12
100
AcDbXrecord
280
     1
270
     1
271
     1
  0
XRECORD
  5
17
102
{ACAD_REACTORS
330
12
102
}
330
12
100
AcDbXrecord
280
     1
270
     1
271
     1
  0
XRECORD
  5
16
102
{ACAD_REACTORS
330
12
102
}
330
12
100
AcDbXrecord
280
     1
270
     1
271
     1
  0
XRECORD
  5
18
102
{ACAD_REACTORS
330
12
102
}
330
12
100
AcDbXrecord
280
     1
270
     1
271
     1
  0
XRECORD
  5
15
102
{ACAD_REACTORS
330
12
102
}
330
12
100
AcDbXrecord
280
     1
270
     1
271
     1
  0
XRECORD
  5
24
102
{ACAD_REACTORS
330
22
102
}
330
22
100
AcDbXrecord
280
     1
270
     1
271
     1
  0
XRECORD
  5
23
102
{ACAD_REACTORS
330
22
102
}
330
22
100
AcDbXrecord
280
     1
270
     1
271
     1
  0
XRECORD
  5
27
102
{ACAD_REACTORS
330
22
102
}
330
22
100
AcDbXrecord
280
     1
270
     1
271
     1
  0
XRECORD
  5
26
102
{ACAD_REACTORS
330
22
102
}
330
22
100
AcDbXrecord
280
     1
270
     1
271
     1
  0
XRECORD
  5
28
102
{ACAD_REACTORS
330
22
102
}
330
22
100
AcDbXrecord
280
     1
270
     1
271
     1
  0
XRECORD
  5
25
102
{ACAD_REACTORS
330
22
102
}
330
22
100
AcDbXrecord
280
     1
270
     1
271
     1
  0
XRECORD
  5
14E
102
{ACAD_REACTORS
330
14D
102
}
330
14D
100
AcDbXrecord
280
     1
102
ACAD_ROUNDTRIP_2012_MLEADER_STYLE
298
     1
  0
XRECORD
  5
150
102
{ACAD_REACTORS
330
14F
102
}
330
14F
100
AcDbXrecord
280
     1
102
DISPLAYNAME
  1
Imperial24
102
FLAGS
 90
        0
  0
CELLSTYLEMAP
  5
11B
102
{ACAD_REACTORS
330
11A
102
}
330
11A
100
AcDbCellStyleMap
 90
        3
300
CELLSTYLE
  1
TABLEFORMAT_BEGIN
 90
        5
170
     1
 91
        0
 92
    32768
 62
   257
 93
        1
300
CONTENTFORMAT
  1
CONTENTFORMAT_BEGIN
 90
        0
 91
        0
 92
      512
 93
        0
300

 40
0.0
140
1.0
 94
        5
 62
     0
340
55
144
0.25
309
CONTENTFORMAT_END
171
     0
 94
        0
309
TABLEFORMAT_END
  1
CELLSTYLE_BEGIN
 90
        1
 91
        1
300
_TITLE
309
CELLSTYLE_END
300
CELLSTYLE
  1
TABLEFORMAT_BEGIN
 90
        5
170
     1
 91
        0
 92
        0
 62
   257
 93
        1
300
CONTENTFORMAT
  1
CONTENTFORMAT_BEGIN
 90
        0
 91
        0
 92
      512
 93
        0
300

 40
0.0
140
1.0
 94
        5
 62
     0
340
55
144
0.18
309
CONTENTFORMAT_END
171
     0
 94
        0
309
TABLEFORMAT_END
  1
CELLSTYLE_BEGIN
 90
        2
 91
        1
300
_HEADER
309
CELLSTYLE_END
300
CELLSTYLE
  1
TABLEFORMAT_BEGIN
 90
        5
170
     1
 91
        0
 92
        0
 62
   257
 93
        1
300
CONTENTFORMAT
  1
CONTENTFORMAT_BEGIN
 90
        0
 91
        0
 92
      512
 93
        0
300

 40
0.0
140
1.0
 94
        2
 62
     0
340
55
144
0.18
309
CONTENTFORMAT_END
171
     0
 94
        0
309
TABLEFORMAT_END
  1
CELLSTYLE_BEGIN
 90
        3
 91
        2
300
_DATA
309
CELLSTYLE_END
  0
XRECORD
  5
128
102
{ACAD_REACTORS
330
127
102
}
330
127
100
AcDbXrecord
280
     1
102
RTVSPost2010Prop28
280
     1
102
RTVSPost2010PropOp28
 70
     1
102
RTVSPost2010Prop29
280
     1
102
RTVSPost2010PropOp29
 70
     1
102
RTVSPost2010Prop30
280
     0
102
RTVSPost2010PropOp30
 70
     1
102
RTVSPost2010Prop31
280
     0
102
RTVSPost2010PropOp31
 70
     1
102
RTVSPost2010Prop32
280
     0
102
RTVSPost2010PropOp32
 70
     1
102
RTVSPost2010Prop33
280
     0
102
RTVSPost2010PropOp33
 70
     1
102
RTVSPost2010Prop34
280
     0
102
RTVSPost2010PropOp34
 70
     1
102
RTVSPost2010Prop35
280
     0
102
RTVSPost2010PropOp35
 70
     1
102
RTVSPost2010Prop36
280
     0
102
RTVSPost2010PropOp36
 70
     1
102
RTVSPost2010Prop37
 90
       50
102
RTVSPost2010PropOp37
 70
     1
102
RTVSPost2010Prop38
140
0.0
102
RTVSPost2010PropOp38
 70
     1
102
RTVSPost2010Prop39
140
1.0
102
RTVSPost2010PropOp39
 70
     1
102
RTVSPost2010Prop40
 90
        0
102
RTVSPost2010PropOp40
 70
     1
102
RTVSPost2010Prop41ColorIndex
 90
       18
102
RTVSPost2010Prop41ColorRGB
 90
        0
102
RTVSPost2010PropOp41
 70
     1
102
RTVSPost2010Prop42
 90
       50
102
RTVSPost2010PropOp42
 70
     1
102
RTVSPost2010Prop43
 90
        3
102
RTVSPost2010PropOp43
 70
     1
102
RTVSPost2010Prop44ColorIndex
 90
        5
102
RTVSPost2010Prop44ColorRGB
 90
      255
102
RTVSPost2010PropOp44
 70
     1
102
RTVSPost2010Prop45
280
     0
102
RTVSPost2010PropOp45
 70
     1
102
RTVSPost2010Prop46
 90
       50
102
RTVSPost2010PropOp46
 70
     1
102
RTVSPost2010Prop47
 90
       50
102
RTVSPost2010PropOp47
 70
     1
102
RTVSPost2010Prop48
 90
       50
102
RTVSPost2010PropOp48
 70
     1
102
RTVSPost2010Prop49
280
     0
102
RTVSPost2010PropOp49
 70
     1
102
RTVSPost2010Prop50
 90
       50
102
RTVSPost2010PropOp50
 70
     1
102
RTVSPost2010Prop51ColorIndex
 90
      256
102
RTVSPost2010Prop51ColorRGB
 90
-16777216
102
RTVSPost2010PropOp51
 70
     0
102
RTVSPost2010Prop52
140
1.0
102
RTVSPost2010PropOp52
 70
     0
102
RTVSPost2010Prop53
 90
        2
102
RTVSPost2010PropOp53
 70
     1
102
RTVSPost2010Prop54
  1
strokes_ogs.tif
102
RTVSPost2010PropOp54
 70
     1
102
RTVSPost2010Prop55
280
     0
102
RTVSPost2010PropOp55
 70
     1
102
RTVSPost2010Prop56
140
1.0
102
RTVSPost2010PropOp56
 70
     1
102
RTVSPost2010Prop57
140
1.0
102
RTVSPost2010PropOp57
 70
     1
  0
XRECORD
  5
126
102
{ACAD_REACTORS
330
125
102
}
330
125
100
AcDbXrecord
280
     1
102
RTVSPost2010Prop28
280
     0
102
RTVSPost2010PropOp28
 70
     1
102
RTVSPost2010Prop29
280
     1
102
RTVSPost2010PropOp29
 70
     1
102
RTVSPost2010Prop30
280
     1
102
RTVSPost2010PropOp30
 70
     1
102
RTVSPost2010Prop31
280
     0
102
RTVSPost2010PropOp31
 70
     1
102
RTVSPost2010Prop32
280
     0
102
RTVSPost2010PropOp32
 70
     1
102
RTVSPost2010Prop33
280
     0
102
RTVSPost2010PropOp33
 70
     1
102
RTVSPost2010Prop34
280
     0
102
RTVSPost2010PropOp34
 70
     1
102
RTVSPost2010Prop35
280
     0
102
RTVSPost2010PropOp35
 70
     1
102
RTVSPost2010Prop36
280
     0
102
RTVSPost2010PropOp36
 70
     1
102
RTVSPost2010Prop37
 90
       50
102
RTVSPost2010PropOp37
 70
     1
102
RTVSPost2010Prop38
140
0.0
102
RTVSPost2010PropOp38
 70
     1
102
RTVSPost2010Prop39
140
1.0
102
RTVSPost2010PropOp39
 70
     1
102
RTVSPost2010Prop40
 90
        0
102
RTVSPost2010PropOp40
 70
     1
102
RTVSPost2010Prop41ColorIndex
 90
       18
102
RTVSPost2010Prop41ColorRGB
 90
        0
102
RTVSPost2010PropOp41
 70
     1
102
RTVSPost2010Prop42
 90
       50
102
RTVSPost2010PropOp42
 70
     1
102
RTVSPost2010Prop43
 90
        3
102
RTVSPost2010PropOp43
 70
     1
102
RTVSPost2010Prop44ColorIndex
 90
        5
102
RTVSPost2010Prop44ColorRGB
 90
      255
102
RTVSPost2010PropOp44
 70
     1
102
RTVSPost2010Prop45
280
     0
102
RTVSPost2010PropOp45
 70
     1
102
RTVSPost2010Prop46
 90
       50
102
RTVSPost2010PropOp46
 70
     1
102
RTVSPost2010Prop47
 90
       50
102
RTVSPost2010PropOp47
 70
     1
102
RTVSPost2010Prop48
 90
       50
102
RTVSPost2010PropOp48
 70
     1
102
RTVSPost2010Prop49
280
     0
102
RTVSPost2010PropOp49
 70
     1
102
RTVSPost2010Prop50
 90
       50
102
RTVSPost2010PropOp50
 70
     1
102
RTVSPost2010Prop51ColorIndex
 90
      256
102
RTVSPost2010Prop51ColorRGB
 90
-16777216
102
RTVSPost2010PropOp51
 70
     0
102
RTVSPost2010Prop52
140
1.0
102
RTVSPost2010PropOp52
 70
     0
102
RTVSPost2010Prop53
 90
        2
102
RTVSPost2010PropOp53
 70
     1
102
RTVSPost2010Prop54
  1
strokes_ogs.tif
102
RTVSPost2010PropOp54
 70
     1
102
RTVSPost2010Prop55
280
     0
102
RTVSPost2010PropOp55
 70
     1
102
RTVSPost2010Prop56
140
1.0
102
RTVSPost2010PropOp56
 70
     1
102
RTVSPost2010Prop57
140
1.0
102
RTVSPost2010PropOp57
 70
     1
  0
XRECORD
  5
134
102
{ACAD_REACTORS
330
133
102
}
330
133
100
AcDbXrecord
280
     1
102
RTVSPost2010Prop28
280
     0
102
RTVSPost2010PropOp28
 70
     1
102
RTVSPost2010Prop29
280
     1
102
RTVSPost2010PropOp29
 70
     1
102
RTVSPost2010Prop30
280
     1
102
RTVSPost2010PropOp30
 70
     1
102
RTVSPost2010Prop31
280
     0
102
RTVSPost2010PropOp31
 70
     1
102
RTVSPost2010Prop32
280
     0
102
RTVSPost2010PropOp32
 70
     1
102
RTVSPost2010Prop33
280
     0
102
RTVSPost2010PropOp33
 70
     1
102
RTVSPost2010Prop34
280
     0
102
RTVSPost2010PropOp34
 70
     1
102
RTVSPost2010Prop35
280
     0
102
RTVSPost2010PropOp35
 70
     1
102
RTVSPost2010Prop36
280
     0
102
RTVSPost2010PropOp36
 70
     1
102
RTVSPost2010Prop37
 90
       50
102
RTVSPost2010PropOp37
 70
     1
102
RTVSPost2010Prop38
140
0.0
102
RTVSPost2010PropOp38
 70
     1
102
RTVSPost2010Prop39
140
1.0
102
RTVSPost2010PropOp39
 70
     1
102
RTVSPost2010Prop40
 90
        0
102
RTVSPost2010PropOp40
 70
     1
102
RTVSPost2010Prop41ColorIndex
 90
       18
102
RTVSPost2010Prop41ColorRGB
 90
        0
102
RTVSPost2010PropOp41
 70
     1
102
RTVSPost2010Prop42
 90
       50
102
RTVSPost2010PropOp42
 70
     1
102
RTVSPost2010Prop43
 90
        3
102
RTVSPost2010PropOp43
 70
     1
102
RTVSPost2010Prop44ColorIndex
 90
        5
102
RTVSPost2010Prop44ColorRGB
 90
      255
102
RTVSPost2010PropOp44
 70
     1
102
RTVSPost2010Prop45
280
     0
102
RTVSPost2010PropOp45
 70
     1
102
RTVSPost2010Prop46
 90
       50
102
RTVSPost2010PropOp46
 70
     1
102
RTVSPost2010Prop47
 90
       50
102
RTVSPost2010PropOp47
 70
     1
102
RTVSPost2010Prop48
 90
       50
102
RTVSPost2010PropOp48
 70
     1
102
RTVSPost2010Prop49
280
     0
102
RTVSPost2010PropOp49
 70
     1
102
RTVSPost2010Prop50
 90
       50
102
RTVSPost2010PropOp50
 70
     1
102
RTVSPost2010Prop51ColorIndex
 90
      256
102
RTVSPost2010Prop51ColorRGB
 90
-16777216
102
RTVSPost2010PropOp51
 70
     0
102
RTVSPost2010Prop52
140
1.0
102
RTVSPost2010PropOp52
 70
     0
102
RTVSPost2010Prop53
 90
        2
102
RTVSPost2010PropOp53
 70
     1
102
RTVSPost2010Prop54
  1
strokes_ogs.tif
102
RTVSPost2010PropOp54
 70
     1
102
RTVSPost2010Prop55
280
     0
102
RTVSPost2010PropOp55
 70
     1
102
RTVSPost2010Prop56
140
1.0
102
RTVSPost2010PropOp56
 70
     1
102
RTVSPost2010Prop57
140
1.0
102
RTVSPost2010PropOp57
 70
     1
  0
XRECORD
  5
13C
102
{ACAD_REACTORS
330
13B
102
}
330
13B
100
AcDbXrecord
280
     1
102
RTVSPost2010Prop28
280
     0
102
RTVSPost2010PropOp28
 70
     1
102
RTVSPost2010Prop29
280
     1
102
RTVSPost2010PropOp29
 70
     1
102
RTVSPost2010Prop30
280
     1
102
RTVSPost2010PropOp30
 70
     1
102
RTVSPost2010Prop31
280
     0
102
RTVSPost2010PropOp31
 70
     1
102
RTVSPost2010Prop32
280
     0
102
RTVSPost2010PropOp32
 70
     1
102
RTVSPost2010Prop33
280
     0
102
RTVSPost2010PropOp33
 70
     1
102
RTVSPost2010Prop34
280
     0
102
RTVSPost2010PropOp34
 70
     1
102
RTVSPost2010Prop35
280
     0
102
RTVSPost2010PropOp35
 70
     1
102
RTVSPost2010Prop36
280
     0
102
RTVSPost2010PropOp36
 70
     1
102
RTVSPost2010Prop37
 90
       50
102
RTVSPost2010PropOp37
 70
     1
102
RTVSPost2010Prop38
140
0.0
102
RTVSPost2010PropOp38
 70
     1
102
RTVSPost2010Prop39
140
1.0
102
RTVSPost2010PropOp39
 70
     1
102
RTVSPost2010Prop40
 90
        0
102
RTVSPost2010PropOp40
 70
     1
102
RTVSPost2010Prop41ColorIndex
 90
       18
102
RTVSPost2010Prop41ColorRGB
 90
        0
102
RTVSPost2010PropOp41
 70
     1
102
RTVSPost2010Prop42
 90
       50
102
RTVSPost2010PropOp42
 70
     1
102
RTVSPost2010Prop43
 90
        3
102
RTVSPost2010PropOp43
 70
     1
102
RTVSPost2010Prop44ColorIndex
 90
        5
102
RTVSPost2010Prop44ColorRGB
 90
      255
102
RTVSPost2010PropOp44
 70
     1
102
RTVSPost2010Prop45
280
     0
102
RTVSPost2010PropOp45
 70
     1
102
RTVSPost2010Prop46
 90
       50
102
RTVSPost2010PropOp46
 70
     1
102
RTVSPost2010Prop47
 90
       50
102
RTVSPost2010PropOp47
 70
     1
102
RTVSPost2010Prop48
 90
       50
102
RTVSPost2010PropOp48
 70
     1
102
RTVSPost2010Prop49
280
     0
102
RTVSPost2010PropOp49
 70
     1
102
RTVSPost2010Prop50
 90
       50
102
RTVSPost2010PropOp50
 70
     1
102
RTVSPost2010Prop51ColorIndex
 90
      256
102
RTVSPost2010Prop51ColorRGB
 90
-16777216
102
RTVSPost2010PropOp51
 70
     0
102
RTVSPost2010Prop52
140
1.0
102
RTVSPost2010PropOp52
 70
     0
102
RTVSPost2010Prop53
 90
        2
102
RTVSPost2010PropOp53
 70
     1
102
RTVSPost2010Prop54
  1
strokes_ogs.tif
102
RTVSPost2010PropOp54
 70
     1
102
RTVSPost2010Prop55
280
     0
102
RTVSPost2010PropOp55
 70
     1
102
RTVSPost2010Prop56
140
1.0
102
RTVSPost2010PropOp56
 70
     1
102
RTVSPost2010Prop57
140
1.0
102
RTVSPost2010PropOp57
 70
     1
  0
XRECORD
  5
12E
102
{ACAD_REACTORS
330
12D
102
}
330
12D
100
AcDbXrecord
280
     1
102
RTVSPost2010Prop28
280
     0
102
RTVSPost2010PropOp28
 70
     1
102
RTVSPost2010Prop29
280
     1
102
RTVSPost2010PropOp29
 70
     1
102
RTVSPost2010Prop30
280
     1
102
RTVSPost2010PropOp30
 70
     1
102
RTVSPost2010Prop31
280
     0
102
RTVSPost2010PropOp31
 70
     1
102
RTVSPost2010Prop32
280
     0
102
RTVSPost2010PropOp32
 70
     1
102
RTVSPost2010Prop33
280
     0
102
RTVSPost2010PropOp33
 70
     1
102
RTVSPost2010Prop34
280
     0
102
RTVSPost2010PropOp34
 70
     1
102
RTVSPost2010Prop35
280
     0
102
RTVSPost2010PropOp35
 70
     1
102
RTVSPost2010Prop36
280
     0
102
RTVSPost2010PropOp36
 70
     1
102
RTVSPost2010Prop37
 90
       50
102
RTVSPost2010PropOp37
 70
     1
102
RTVSPost2010Prop38
140
0.0
102
RTVSPost2010PropOp38
 70
     1
102
RTVSPost2010Prop39
140
1.0
102
RTVSPost2010PropOp39
 70
     1
102
RTVSPost2010Prop40
 90
        0
102
RTVSPost2010PropOp40
 70
     1
102
RTVSPost2010Prop41ColorIndex
 90
       18
102
RTVSPost2010Prop41ColorRGB
 90
        0
102
RTVSPost2010PropOp41
 70
     1
102
RTVSPost2010Prop42
 90
       50
102
RTVSPost2010PropOp42
 70
     1
102
RTVSPost2010Prop43
 90
        3
102
RTVSPost2010PropOp43
 70
     1
102
RTVSPost2010Prop44ColorIndex
 90
        5
102
RTVSPost2010Prop44ColorRGB
 90
      255
102
RTVSPost2010PropOp44
 70
     1
102
RTVSPost2010Prop45
280
     0
102
RTVSPost2010PropOp45
 70
     1
102
RTVSPost2010Prop46
 90
       50
102
RTVSPost2010PropOp46
 70
     1
102
RTVSPost2010Prop47
 90
       50
102
RTVSPost2010PropOp47
 70
     1
102
RTVSPost2010Prop48
 90
       50
102
RTVSPost2010PropOp48
 70
     1
102
RTVSPost2010Prop49
280
     0
102
RTVSPost2010PropOp49
 70
     1
102
RTVSPost2010Prop50
 90
       50
102
RTVSPost2010PropOp50
 70
     1
102
RTVSPost2010Prop51ColorIndex
 90
      256
102
RTVSPost2010Prop51ColorRGB
 90
-16777216
102
RTVSPost2010PropOp51
 70
     0
102
RTVSPost2010Prop52
140
1.0
102
RTVSPost2010PropOp52
 70
     0
102
RTVSPost2010Prop53
 90
        2
102
RTVSPost2010PropOp53
 70
     1
102
RTVSPost2010Prop54
  1
strokes_ogs.tif
102
RTVSPost2010PropOp54
 70
     1
102
RTVSPost2010Prop55
280
     0
102
RTVSPost2010PropOp55
 70
     1
102
RTVSPost2010Prop56
140
1.0
102
RTVSPost2010PropOp56
 70
     1
102
RTVSPost2010Prop57
140
1.0
102
RTVSPost2010PropOp57
 70
     1
  0
XRECORD
  5
132
102
{ACAD_REACTORS
330
131
102
}
330
131
100
AcDbXrecord
280
     1
102
RTVSPost2010Prop28
280
     0
102
RTVSPost2010PropOp28
 70
     1
102
RTVSPost2010Prop29
280
     1
102
RTVSPost2010PropOp29
 70
     1
102
RTVSPost2010Prop30
280
     1
102
RTVSPost2010PropOp30
 70
     1
102
RTVSPost2010Prop31
280
     0
102
RTVSPost2010PropOp31
 70
     1
102
RTVSPost2010Prop32
280
     0
102
RTVSPost2010PropOp32
 70
     1
102
RTVSPost2010Prop33
280
     0
102
RTVSPost2010PropOp33
 70
     1
102
RTVSPost2010Prop34
280
     0
102
RTVSPost2010PropOp34
 70
     1
102
RTVSPost2010Prop35
280
     0
102
RTVSPost2010PropOp35
 70
     1
102
RTVSPost2010Prop36
280
     0
102
RTVSPost2010PropOp36
 70
     1
102
RTVSPost2010Prop37
 90
       50
102
RTVSPost2010PropOp37
 70
     1
102
RTVSPost2010Prop38
140
0.0
102
RTVSPost2010PropOp38
 70
     1
102
RTVSPost2010Prop39
140
1.0
102
RTVSPost2010PropOp39
 70
     1
102
RTVSPost2010Prop40
 90
        0
102
RTVSPost2010PropOp40
 70
     1
102
RTVSPost2010Prop41ColorIndex
 90
       18
102
RTVSPost2010Prop41ColorRGB
 90
        0
102
RTVSPost2010PropOp41
 70
     1
102
RTVSPost2010Prop42
 90
       50
102
RTVSPost2010PropOp42
 70
     1
102
RTVSPost2010Prop43
 90
        3
102
RTVSPost2010PropOp43
 70
     1
102
RTVSPost2010Prop44ColorIndex
 90
        5
102
RTVSPost2010Prop44ColorRGB
 90
      255
102
RTVSPost2010PropOp44
 70
     1
102
RTVSPost2010Prop45
280
     0
102
RTVSPost2010PropOp45
 70
     1
102
RTVSPost2010Prop46
 90
       50
102
RTVSPost2010PropOp46
 70
     1
102
RTVSPost2010Prop47
 90
       50
102
RTVSPost2010PropOp47
 70
     1
102
RTVSPost2010Prop48
 90
       50
102
RTVSPost2010PropOp48
 70
     1
102
RTVSPost2010Prop49
280
     0
102
RTVSPost2010PropOp49
 70
     1
102
RTVSPost2010Prop50
 90
       50
102
RTVSPost2010PropOp50
 70
     1
102
RTVSPost2010Prop51ColorIndex
 90
      256
102
RTVSPost2010Prop51ColorRGB
 90
-16777216
102
RTVSPost2010PropOp51
 70
     0
102
RTVSPost2010Prop52
140
1.0
102
RTVSPost2010PropOp52
 70
     0
102
RTVSPost2010Prop53
 90
        2
102
RTVSPost2010PropOp53
 70
     1
102
RTVSPost2010Prop54
  1
strokes_ogs.tif
102
RTVSPost2010PropOp54
 70
     1
102
RTVSPost2010Prop55
280
     0
102
RTVSPost2010PropOp55
 70
     1
102
RTVSPost2010Prop56
140
1.0
102
RTVSPost2010PropOp56
 70
     1
102
RTVSPost2010Prop57
140
1.0
102
RTVSPost2010PropOp57
 70
     1
  0
XRECORD
  5
14C
102
{ACAD_REACTORS
330
14B
102
}
330
14B
100
AcDbXrecord
280
     1
102
RTVSPost2010Prop28
280
     0
102
RTVSPost2010PropOp28
 70
     0
102
RTVSPost2010Prop29
280
     1
102
RTVSPost2010PropOp29
 70
     0
102
RTVSPost2010Prop30
280
     1
102
RTVSPost2010PropOp30
 70
     0
102
RTVSPost2010Prop31
280
     0
102
RTVSPost2010PropOp31
 70
     0
102
RTVSPost2010Prop32
280
     0
102
RTVSPost2010PropOp32
 70
     0
102
RTVSPost2010Prop33
280
     0
102
RTVSPost2010PropOp33
 70
     0
102
RTVSPost2010Prop34
280
     0
102
RTVSPost2010PropOp34
 70
     0
102
RTVSPost2010Prop35
280
     0
102
RTVSPost2010PropOp35
 70
     0
102
RTVSPost2010Prop36
280
     0
102
RTVSPost2010PropOp36
 70
     0
102
RTVSPost2010Prop37
 90
       50
102
RTVSPost2010PropOp37
 70
     0
102
RTVSPost2010Prop38
140
0.0
102
RTVSPost2010PropOp38
 70
     0
102
RTVSPost2010Prop39
140
1.0
102
RTVSPost2010PropOp39
 70
     0
102
RTVSPost2010Prop40
 90
        0
102
RTVSPost2010PropOp40
 70
     0
102
RTVSPost2010Prop41ColorIndex
 90
       18
102
RTVSPost2010Prop41ColorRGB
 90
        0
102
RTVSPost2010PropOp41
 70
     0
102
RTVSPost2010Prop42
 90
       50
102
RTVSPost2010PropOp42
 70
     0
102
RTVSPost2010Prop43
 90
        3
102
RTVSPost2010PropOp43
 70
     0
102
RTVSPost2010Prop44ColorIndex
 90
        5
102
RTVSPost2010Prop44ColorRGB
 90
      255
102
RTVSPost2010PropOp44
 70
     0
102
RTVSPost2010Prop45
280
     0
102
RTVSPost2010PropOp45
 70
     0
102
RTVSPost2010Prop46
 90
       50
102
RTVSPost2010PropOp46
 70
     0
102
RTVSPost2010Prop47
 90
       50
102
RTVSPost2010PropOp47
 70
     0
102
RTVSPost2010Prop48
 90
       50
102
RTVSPost2010PropOp48
 70
     0
102
RTVSPost2010Prop49
280
     0
102
RTVSPost2010PropOp49
 70
     0
102
RTVSPost2010Prop50
 90
       50
102
RTVSPost2010PropOp50
 70
     0
102
RTVSPost2010Prop51ColorIndex
 90
      256
102
RTVSPost2010Prop51ColorRGB
 90
-16777216
102
RTVSPost2010PropOp51
 70
     0
102
RTVSPost2010Prop52
140
1.0
102
RTVSPost2010PropOp52
 70
     0
102
RTVSPost2010Prop53
 90
        2
102
RTVSPost2010PropOp53
 70
     0
102
RTVSPost2010Prop54
  1
strokes_ogs.tif
102
RTVSPost2010PropOp54
 70
     0
102
RTVSPost2010Prop55
280
     0
102
RTVSPost2010PropOp55
 70
     0
102
RTVSPost2010Prop56
140
1.0
102
RTVSPost2010PropOp56
 70
     0
102
RTVSPost2010Prop57
140
1.0
102
RTVSPost2010PropOp57
 70
     0
  0
XRECORD
  5
13A
102
{ACAD_REACTORS
330
139
102
}
330
139
100
AcDbXrecord
280
     1
102
RTVSPost2010Prop28
280
     0
102
RTVSPost2010PropOp28
 70
     1
102
RTVSPost2010Prop29
280
     1
102
RTVSPost2010PropOp29
 70
     1
102
RTVSPost2010Prop30
280
     1
102
RTVSPost2010PropOp30
 70
     1
102
RTVSPost2010Prop31
280
     0
102
RTVSPost2010PropOp31
 70
     1
102
RTVSPost2010Prop32
280
     0
102
RTVSPost2010PropOp32
 70
     1
102
RTVSPost2010Prop33
280
     0
102
RTVSPost2010PropOp33
 70
     1
102
RTVSPost2010Prop34
280
     0
102
RTVSPost2010PropOp34
 70
     1
102
RTVSPost2010Prop35
280
     0
102
RTVSPost2010PropOp35
 70
     1
102
RTVSPost2010Prop36
280
     0
102
RTVSPost2010PropOp36
 70
     1
102
RTVSPost2010Prop37
 90
       50
102
RTVSPost2010PropOp37
 70
     1
102
RTVSPost2010Prop38
140
0.0
102
RTVSPost2010PropOp38
 70
     1
102
RTVSPost2010Prop39
140
1.0
102
RTVSPost2010PropOp39
 70
     1
102
RTVSPost2010Prop40
 90
        0
102
RTVSPost2010PropOp40
 70
     1
102
RTVSPost2010Prop41ColorIndex
 90
       18
102
RTVSPost2010Prop41ColorRGB
 90
        0
102
RTVSPost2010PropOp41
 70
     1
102
RTVSPost2010Prop42
 90
       50
102
RTVSPost2010PropOp42
 70
     1
102
RTVSPost2010Prop43
 90
        3
102
RTVSPost2010PropOp43
 70
     1
102
RTVSPost2010Prop44ColorIndex
 90
        5
102
RTVSPost2010Prop44ColorRGB
 90
      255
102
RTVSPost2010PropOp44
 70
     1
102
RTVSPost2010Prop45
280
     0
102
RTVSPost2010PropOp45
 70
     1
102
RTVSPost2010Prop46
 90
       50
102
RTVSPost2010PropOp46
 70
     1
102
RTVSPost2010Prop47
 90
       50
102
RTVSPost2010PropOp47
 70
     1
102
RTVSPost2010Prop48
 90
       50
102
RTVSPost2010PropOp48
 70
     1
102
RTVSPost2010Prop49
280
     0
102
RTVSPost2010PropOp49
 70
     1
102
RTVSPost2010Prop50
 90
       50
102
RTVSPost2010PropOp50
 70
     1
102
RTVSPost2010Prop51ColorIndex
 90
      256
102
RTVSPost2010Prop51ColorRGB
 90
-16777216
102
RTVSPost2010PropOp51
 70
     0
102
RTVSPost2010Prop52
140
1.0
102
RTVSPost2010PropOp52
 70
     0
102
RTVSPost2010Prop53
 90
        2
102
RTVSPost2010PropOp53
 70
     1
102
RTVSPost2010Prop54
  1
strokes_ogs.tif
102
RTVSPost2010PropOp54
 70
     1
102
RTVSPost2010Prop55
280
     0
102
RTVSPost2010PropOp55
 70
     1
102
RTVSPost2010Prop56
140
1.0
102
RTVSPost2010PropOp56
 70
     1
102
RTVSPost2010Prop57
140
1.0
102
RTVSPost2010PropOp57
 70
     1
  0
XRECORD
  5
11E
102
{ACAD_REACTORS
330
11D
102
}
330
11D
100
AcDbXrecord
280
     1
102
RTVSPost2010Prop28
280
     0
102
RTVSPost2010PropOp28
 70
     1
102
RTVSPost2010Prop29
280
     1
102
RTVSPost2010PropOp29
 70
     1
102
RTVSPost2010Prop30
280
     1
102
RTVSPost2010PropOp30
 70
     1
102
RTVSPost2010Prop31
280
     0
102
RTVSPost2010PropOp31
 70
     1
102
RTVSPost2010Prop32
280
     0
102
RTVSPost2010PropOp32
 70
     1
102
RTVSPost2010Prop33
280
     0
102
RTVSPost2010PropOp33
 70
     1
102
RTVSPost2010Prop34
280
     0
102
RTVSPost2010PropOp34
 70
     1
102
RTVSPost2010Prop35
280
     0
102
RTVSPost2010PropOp35
 70
     1
102
RTVSPost2010Prop36
280
     0
102
RTVSPost2010PropOp36
 70
     1
102
RTVSPost2010Prop37
 90
       50
102
RTVSPost2010PropOp37
 70
     1
102
RTVSPost2010Prop38
140
0.0
102
RTVSPost2010PropOp38
 70
     1
102
RTVSPost2010Prop39
140
1.0
102
RTVSPost2010PropOp39
 70
     1
102
RTVSPost2010Prop40
 90
        0
102
RTVSPost2010PropOp40
 70
     1
102
RTVSPost2010Prop41ColorIndex
 90
       18
102
RTVSPost2010Prop41ColorRGB
 90
        0
102
RTVSPost2010PropOp41
 70
     1
102
RTVSPost2010Prop42
 90
       50
102
RTVSPost2010PropOp42
 70
     1
102
RTVSPost2010Prop43
 90
        3
102
RTVSPost2010PropOp43
 70
     1
102
RTVSPost2010Prop44ColorIndex
 90
        5
102
RTVSPost2010Prop44ColorRGB
 90
      255
102
RTVSPost2010PropOp44
 70
     1
102
RTVSPost2010Prop45
280
     0
102
RTVSPost2010PropOp45
 70
     1
102
RTVSPost2010Prop46
 90
       50
102
RTVSPost2010PropOp46
 70
     1
102
RTVSPost2010Prop47
 90
       50
102
RTVSPost2010PropOp47
 70
     1
102
RTVSPost2010Prop48
 90
       50
102
RTVSPost2010PropOp48
 70
     1
102
RTVSPost2010Prop49
280
     0
102
RTVSPost2010PropOp49
 70
     1
102
RTVSPost2010Prop50
 90
       50
102
RTVSPost2010PropOp50
 70
     1
102
RTVSPost2010Prop51ColorIndex
 90
      256
102
RTVSPost2010Prop51ColorRGB
 90
-16777216
102
RTVSPost2010PropOp51
 70
     0
102
RTVSPost2010Prop52
140
1.0
102
RTVSPost2010PropOp52
 70
     0
102
RTVSPost2010Prop53
 90
        2
102
RTVSPost2010PropOp53
 70
     1
102
RTVSPost2010Prop54
  1
strokes_ogs.tif
102
RTVSPost2010PropOp54
 70
     1
102
RTVSPost2010Prop55
280
     0
102
RTVSPost2010PropOp55
 70
     1
102
RTVSPost2010Prop56
140
1.0
102
RTVSPost2010PropOp56
 70
     1
102
RTVSPost2010Prop57
140
1.0
102
RTVSPost2010PropOp57
 70
     1
  0
XRECORD
  5
120
102
{ACAD_REACTORS
330
11F
102
}
330
11F
100
AcDbXrecord
280
     1
102
RTVSPost2010Prop28
280
     0
102
RTVSPost2010PropOp28
 70
     1
102
RTVSPost2010Prop29
280
     1
102
RTVSPost2010PropOp29
 70
     1
102
RTVSPost2010Prop30
280
     1
102
RTVSPost2010PropOp30
 70
     1
102
RTVSPost2010Prop31
280
     0
102
RTVSPost2010PropOp31
 70
     1
102
RTVSPost2010Prop32
280
     0
102
RTVSPost2010PropOp32
 70
     1
102
RTVSPost2010Prop33
280
     0
102
RTVSPost2010PropOp33
 70
     1
102
RTVSPost2010Prop34
280
     0
102
RTVSPost2010PropOp34
 70
     1
102
RTVSPost2010Prop35
280
     0
102
RTVSPost2010PropOp35
 70
     1
102
RTVSPost2010Prop36
280
     0
102
RTVSPost2010PropOp36
 70
     1
102
RTVSPost2010Prop37
 90
       50
102
RTVSPost2010PropOp37
 70
     1
102
RTVSPost2010Prop38
140
0.0
102
RTVSPost2010PropOp38
 70
     1
102
RTVSPost2010Prop39
140
1.0
102
RTVSPost2010PropOp39
 70
     1
102
RTVSPost2010Prop40
 90
        0
102
RTVSPost2010PropOp40
 70
     1
102
RTVSPost2010Prop41ColorIndex
 90
       18
102
RTVSPost2010Prop41ColorRGB
 90
        0
102
RTVSPost2010PropOp41
 70
     1
102
RTVSPost2010Prop42
 90
       50
102
RTVSPost2010PropOp42
 70
     1
102
RTVSPost2010Prop43
 90
        3
102
RTVSPost2010PropOp43
 70
     1
102
RTVSPost2010Prop44ColorIndex
 90
        5
102
RTVSPost2010Prop44ColorRGB
 90
      255
102
RTVSPost2010PropOp44
 70
     1
102
RTVSPost2010Prop45
280
     0
102
RTVSPost2010PropOp45
 70
     1
102
RTVSPost2010Prop46
 90
       50
102
RTVSPost2010PropOp46
 70
     1
102
RTVSPost2010Prop47
 90
       50
102
RTVSPost2010PropOp47
 70
     1
102
RTVSPost2010Prop48
 90
       50
102
RTVSPost2010PropOp48
 70
     1
102
RTVSPost2010Prop49
280
     0
102
RTVSPost2010PropOp49
 70
     1
102
RTVSPost2010Prop50
 90
       50
102
RTVSPost2010PropOp50
 70
     1
102
RTVSPost2010Prop51ColorIndex
 90
      256
102
RTVSPost2010Prop51ColorRGB
 90
-16777216
102
RTVSPost2010PropOp51
 70
     0
102
RTVSPost2010Prop52
140
1.0
102
RTVSPost2010PropOp52
 70
     0
102
RTVSPost2010Prop53
 90
        2
102
RTVSPost2010PropOp53
 70
     1
102
RTVSPost2010Prop54
  1
strokes_ogs.tif
102
RTVSPost2010PropOp54
 70
     1
102
RTVSPost2010Prop55
280
     0
102
RTVSPost2010PropOp55
 70
     1
102
RTVSPost2010Prop56
140
1.0
102
RTVSPost2010PropOp56
 70
     1
102
RTVSPost2010Prop57
140
1.0
102
RTVSPost2010PropOp57
 70
     1
  0
XRECORD
  5
122
102
{ACAD_REACTORS
330
121
102
}
330
121
100
AcDbXrecord
280
     1
102
RTVSPost2010Prop28
280
     0
102
RTVSPost2010PropOp28
 70
     1
102
RTVSPost2010Prop29
280
     1
102
RTVSPost2010PropOp29
 70
     1
102
RTVSPost2010Prop30
280
     1
102
RTVSPost2010PropOp30
 70
     1
102
RTVSPost2010Prop31
280
     0
102
RTVSPost2010PropOp31
 70
     1
102
RTVSPost2010Prop32
280
     0
102
RTVSPost2010PropOp32
 70
     1
102
RTVSPost2010Prop33
280
     0
102
RTVSPost2010PropOp33
 70
     1
102
RTVSPost2010Prop34
280
     0
102
RTVSPost2010PropOp34
 70
     1
102
RTVSPost2010Prop35
280
     0
102
RTVSPost2010PropOp35
 70
     1
102
RTVSPost2010Prop36
280
     0
102
RTVSPost2010PropOp36
 70
     1
102
RTVSPost2010Prop37
 90
       50
102
RTVSPost2010PropOp37
 70
     1
102
RTVSPost2010Prop38
140
0.0
102
RTVSPost2010PropOp38
 70
     1
102
RTVSPost2010Prop39
140
1.0
102
RTVSPost2010PropOp39
 70
     1
102
RTVSPost2010Prop40
 90
        0
102
RTVSPost2010PropOp40
 70
     1
102
RTVSPost2010Prop41ColorIndex
 90
       18
102
RTVSPost2010Prop41ColorRGB
 90
        0
102
RTVSPost2010PropOp41
 70
     1
102
RTVSPost2010Prop42
 90
       50
102
RTVSPost2010PropOp42
 70
     1
102
RTVSPost2010Prop43
 90
        3
102
RTVSPost2010PropOp43
 70
     1
102
RTVSPost2010Prop44ColorIndex
 90
        5
102
RTVSPost2010Prop44ColorRGB
 90
      255
102
RTVSPost2010PropOp44
 70
     1
102
RTVSPost2010Prop45
280
     0
102
RTVSPost2010PropOp45
 70
     1
102
RTVSPost2010Prop46
 90
       50
102
RTVSPost2010PropOp46
 70
     1
102
RTVSPost2010Prop47
 90
       50
102
RTVSPost2010PropOp47
 70
     1
102
RTVSPost2010Prop48
 90
       50
102
RTVSPost2010PropOp48
 70
     1
102
RTVSPost2010Prop49
280
     0
102
RTVSPost2010PropOp49
 70
     1
102
RTVSPost2010Prop50
 90
       50
102
RTVSPost2010PropOp50
 70
     1
102
RTVSPost2010Prop51ColorIndex
 90
      256
102
RTVSPost2010Prop51ColorRGB
 90
-16777216
102
RTVSPost2010PropOp51
 70
     0
102
RTVSPost2010Prop52
140
1.0
102
RTVSPost2010PropOp52
 70
     0
102
RTVSPost2010Prop53
 90
        2
102
RTVSPost2010PropOp53
 70
     1
102
RTVSPost2010Prop54
  1
strokes_ogs.tif
102
RTVSPost2010PropOp54
 70
     1
102
RTVSPost2010Prop55
280
     0
102
RTVSPost2010PropOp55
 70
     1
102
RTVSPost2010Prop56
140
1.0
102
RTVSPost2010PropOp56
 70
     1
102
RTVSPost2010Prop57
140
1.0
102
RTVSPost2010PropOp57
 70
     1
  0
XRECORD
  5
124
102
{ACAD_REACTORS
330
123
102
}
330
123
100
AcDbXrecord
280
     1
102
RTVSPost2010Prop28
280
     0
102
RTVSPost2010PropOp28
 70
     1
102
RTVSPost2010Prop29
280
     1
102
RTVSPost2010PropOp29
 70
     1
102
RTVSPost2010Prop30
280
     1
102
RTVSPost2010PropOp30
 70
     1
102
RTVSPost2010Prop31
280
     0
102
RTVSPost2010PropOp31
 70
     1
102
RTVSPost2010Prop32
280
     0
102
RTVSPost2010PropOp32
 70
     1
102
RTVSPost2010Prop33
280
     0
102
RTVSPost2010PropOp33
 70
     1
102
RTVSPost2010Prop34
280
     0
102
RTVSPost2010PropOp34
 70
     1
102
RTVSPost2010Prop35
280
     0
102
RTVSPost2010PropOp35
 70
     1
102
RTVSPost2010Prop36
280
     0
102
RTVSPost2010PropOp36
 70
     1
102
RTVSPost2010Prop37
 90
       50
102
RTVSPost2010PropOp37
 70
     1
102
RTVSPost2010Prop38
140
0.0
102
RTVSPost2010PropOp38
 70
     1
102
RTVSPost2010Prop39
140
1.0
102
RTVSPost2010PropOp39
 70
     1
102
RTVSPost2010Prop40
 90
        0
102
RTVSPost2010PropOp40
 70
     1
102
RTVSPost2010Prop41ColorIndex
 90
       18
102
RTVSPost2010Prop41ColorRGB
 90
        0
102
RTVSPost2010PropOp41
 70
     1
102
RTVSPost2010Prop42
 90
       50
102
RTVSPost2010PropOp42
 70
     1
102
RTVSPost2010Prop43
 90
        3
102
RTVSPost2010PropOp43
 70
     1
102
RTVSPost2010Prop44ColorIndex
 90
        5
102
RTVSPost2010Prop44ColorRGB
 90
      255
102
RTVSPost2010PropOp44
 70
     1
102
RTVSPost2010Prop45
280
     0
102
RTVSPost2010PropOp45
 70
     1
102
RTVSPost2010Prop46
 90
       50
102
RTVSPost2010PropOp46
 70
     1
102
RTVSPost2010Prop47
 90
       50
102
RTVSPost2010PropOp47
 70
     1
102
RTVSPost2010Prop48
 90
       50
102
RTVSPost2010PropOp48
 70
     1
102
RTVSPost2010Prop49
280
     0
102
RTVSPost2010PropOp49
 70
     1
102
RTVSPost2010Prop50
 90
       50
102
RTVSPost2010PropOp50
 70
     1
102
RTVSPost2010Prop51ColorIndex
 90
      256
102
RTVSPost2010Prop51ColorRGB
 90
-16777216
102
RTVSPost2010PropOp51
 70
     0
102
RTVSPost2010Prop52
140
1.0
102
RTVSPost2010PropOp52
 70
     0
102
RTVSPost2010Prop53
 90
        2
102
RTVSPost2010PropOp53
 70
     1
102
RTVSPost2010Prop54
  1
strokes_ogs.tif
102
RTVSPost2010PropOp54
 70
     1
102
RTVSPost2010Prop55
280
     0
102
RTVSPost2010PropOp55
 70
     1
102
RTVSPost2010Prop56
140
1.0
102
RTVSPost2010PropOp56
 70
     1
102
RTVSPost2010Prop57
140
1.0
102
RTVSPost2010PropOp57
 70
     1
  0
XRECORD
  5
12C
102
{ACAD_REACTORS
330
12B
102
}
330
12B
100
AcDbXrecord
280
     1
102
RTVSPost2010Prop28
280
     0
102
RTVSPost2010PropOp28
 70
     1
102
RTVSPost2010Prop29
280
     1
102
RTVSPost2010PropOp29
 70
     1
102
RTVSPost2010Prop30
280
     1
102
RTVSPost2010PropOp30
 70
     1
102
RTVSPost2010Prop31
280
     0
102
RTVSPost2010PropOp31
 70
     1
102
RTVSPost2010Prop32
280
     0
102
RTVSPost2010PropOp32
 70
     1
102
RTVSPost2010Prop33
280
     0
102
RTVSPost2010PropOp33
 70
     1
102
RTVSPost2010Prop34
280
     0
102
RTVSPost2010PropOp34
 70
     1
102
RTVSPost2010Prop35
280
     0
102
RTVSPost2010PropOp35
 70
     1
102
RTVSPost2010Prop36
280
     0
102
RTVSPost2010PropOp36
 70
     1
102
RTVSPost2010Prop37
 90
       50
102
RTVSPost2010PropOp37
 70
     1
102
RTVSPost2010Prop38
140
0.0
102
RTVSPost2010PropOp38
 70
     1
102
RTVSPost2010Prop39
140
1.0
102
RTVSPost2010PropOp39
 70
     1
102
RTVSPost2010Prop40
 90
        0
102
RTVSPost2010PropOp40
 70
     1
102
RTVSPost2010Prop41ColorIndex
 90
       18
102
RTVSPost2010Prop41ColorRGB
 90
        0
102
RTVSPost2010PropOp41
 70
     1
102
RTVSPost2010Prop42
 90
       50
102
RTVSPost2010PropOp42
 70
     1
102
RTVSPost2010Prop43
 90
        3
102
RTVSPost2010PropOp43
 70
     1
102
RTVSPost2010Prop44ColorIndex
 90
        5
102
RTVSPost2010Prop44ColorRGB
 90
      255
102
RTVSPost2010PropOp44
 70
     1
102
RTVSPost2010Prop45
280
     0
102
RTVSPost2010PropOp45
 70
     1
102
RTVSPost2010Prop46
 90
       50
102
RTVSPost2010PropOp46
 70
     1
102
RTVSPost2010Prop47
 90
       50
102
RTVSPost2010PropOp47
 70
     1
102
RTVSPost2010Prop48
 90
       50
102
RTVSPost2010PropOp48
 70
     1
102
RTVSPost2010Prop49
280
     0
102
RTVSPost2010PropOp49
 70
     1
102
RTVSPost2010Prop50
 90
       50
102
RTVSPost2010PropOp50
 70
     1
102
RTVSPost2010Prop51ColorIndex
 90
      256
102
RTVSPost2010Prop51ColorRGB
 90
-16777216
102
RTVSPost2010PropOp51
 70
     0
102
RTVSPost2010Prop52
140
1.0
102
RTVSPost2010PropOp52
 70
     0
102
RTVSPost2010Prop53
 90
        2
102
RTVSPost2010PropOp53
 70
     1
102
RTVSPost2010Prop54
  1
strokes_ogs.tif
102
RTVSPost2010PropOp54
 70
     1
102
RTVSPost2010Prop55
280
     0
102
RTVSPost2010PropOp55
 70
     1
102
RTVSPost2010Prop56
140
1.0
102
RTVSPost2010PropOp56
 70
     1
102
RTVSPost2010Prop57
140
1.0
102
RTVSPost2010PropOp57
 70
     1
  0
XRECORD
  5
148
102
{ACAD_REACTORS
330
147
102
}
330
147
100
AcDbXrecord
280
     1
102
RTVSPost2010Prop28
280
     0
102
RTVSPost2010PropOp28
 70
     0
102
RTVSPost2010Prop29
280
     1
102
RTVSPost2010PropOp29
 70
     0
102
RTVSPost2010Prop30
280
     1
102
RTVSPost2010PropOp30
 70
     0
102
RTVSPost2010Prop31
280
     0
102
RTVSPost2010PropOp31
 70
     0
102
RTVSPost2010Prop32
280
     0
102
RTVSPost2010PropOp32
 70
     0
102
RTVSPost2010Prop33
280
     0
102
RTVSPost2010PropOp33
 70
     0
102
RTVSPost2010Prop34
280
     0
102
RTVSPost2010PropOp34
 70
     0
102
RTVSPost2010Prop35
280
     0
102
RTVSPost2010PropOp35
 70
     0
102
RTVSPost2010Prop36
280
     0
102
RTVSPost2010PropOp36
 70
     0
102
RTVSPost2010Prop37
 90
       50
102
RTVSPost2010PropOp37
 70
     0
102
RTVSPost2010Prop38
140
0.0
102
RTVSPost2010PropOp38
 70
     0
102
RTVSPost2010Prop39
140
1.0
102
RTVSPost2010PropOp39
 70
     0
102
RTVSPost2010Prop40
 90
        0
102
RTVSPost2010PropOp40
 70
     0
102
RTVSPost2010Prop41ColorIndex
 90
       18
102
RTVSPost2010Prop41ColorRGB
 90
        0
102
RTVSPost2010PropOp41
 70
     0
102
RTVSPost2010Prop42
 90
       50
102
RTVSPost2010PropOp42
 70
     0
102
RTVSPost2010Prop43
 90
        3
102
RTVSPost2010PropOp43
 70
     0
102
RTVSPost2010Prop44ColorIndex
 90
        5
102
RTVSPost2010Prop44ColorRGB
 90
      255
102
RTVSPost2010PropOp44
 70
     0
102
RTVSPost2010Prop45
280
     0
102
RTVSPost2010PropOp45
 70
     0
102
RTVSPost2010Prop46
 90
       50
102
RTVSPost2010PropOp46
 70
     0
102
RTVSPost2010Prop47
 90
       50
102
RTVSPost2010PropOp47
 70
     0
102
RTVSPost2010Prop48
 90
       50
102
RTVSPost2010PropOp48
 70
     0
102
RTVSPost2010Prop49
280
     0
102
RTVSPost2010PropOp49
 70
     0
102
RTVSPost2010Prop50
 90
       50
102
RTVSPost2010PropOp50
 70
     0
102
RTVSPost2010Prop51ColorIndex
 90
      256
102
RTVSPost2010Prop51ColorRGB
 90
-16777216
102
RTVSPost2010PropOp51
 70
     0
102
RTVSPost2010Prop52
140
1.0
102
RTVSPost2010PropOp52
 70
     0
102
RTVSPost2010Prop53
 90
        2
102
RTVSPost2010PropOp53
 70
     0
102
RTVSPost2010Prop54
  1
strokes_ogs.tif
102
RTVSPost2010PropOp54
 70
     0
102
RTVSPost2010Prop55
280
     0
102
RTVSPost2010PropOp55
 70
     0
102
RTVSPost2010Prop56
140
1.0
102
RTVSPost2010PropOp56
 70
     0
102
RTVSPost2010Prop57
140
1.0
102
RTVSPost2010PropOp57
 70
     0
  0
XRECORD
  5
138
102
{ACAD_REACTORS
330
137
102
}
330
137
100
AcDbXrecord
280
     1
102
RTVSPost2010Prop28
280
     0
102
RTVSPost2010PropOp28
 70
     1
102
RTVSPost2010Prop29
280
     1
102
RTVSPost2010PropOp29
 70
     1
102
RTVSPost2010Prop30
280
     1
102
RTVSPost2010PropOp30
 70
     1
102
RTVSPost2010Prop31
280
     0
102
RTVSPost2010PropOp31
 70
     1
102
RTVSPost2010Prop32
280
     0
102
RTVSPost2010PropOp32
 70
     1
102
RTVSPost2010Prop33
280
     0
102
RTVSPost2010PropOp33
 70
     1
102
RTVSPost2010Prop34
280
     0
102
RTVSPost2010PropOp34
 70
     1
102
RTVSPost2010Prop35
280
     0
102
RTVSPost2010PropOp35
 70
     1
102
RTVSPost2010Prop36
280
     0
102
RTVSPost2010PropOp36
 70
     1
102
RTVSPost2010Prop37
 90
       50
102
RTVSPost2010PropOp37
 70
     1
102
RTVSPost2010Prop38
140
0.0
102
RTVSPost2010PropOp38
 70
     1
102
RTVSPost2010Prop39
140
1.0
102
RTVSPost2010PropOp39
 70
     1
102
RTVSPost2010Prop40
 90
        0
102
RTVSPost2010PropOp40
 70
     1
102
RTVSPost2010Prop41ColorIndex
 90
       18
102
RTVSPost2010Prop41ColorRGB
 90
        0
102
RTVSPost2010PropOp41
 70
     1
102
RTVSPost2010Prop42
 90
       50
102
RTVSPost2010PropOp42
 70
     1
102
RTVSPost2010Prop43
 90
        3
102
RTVSPost2010PropOp43
 70
     1
102
RTVSPost2010Prop44ColorIndex
 90
        5
102
RTVSPost2010Prop44ColorRGB
 90
      255
102
RTVSPost2010PropOp44
 70
     1
102
RTVSPost2010Prop45
280
     0
102
RTVSPost2010PropOp45
 70
     1
102
RTVSPost2010Prop46
 90
       50
102
RTVSPost2010PropOp46
 70
     1
102
RTVSPost2010Prop47
 90
       50
102
RTVSPost2010PropOp47
 70
     1
102
RTVSPost2010Prop48
 90
       50
102
RTVSPost2010PropOp48
 70
     1
102
RTVSPost2010Prop49
280
     0
102
RTVSPost2010PropOp49
 70
     1
102
RTVSPost2010Prop50
 90
       50
102
RTVSPost2010PropOp50
 70
     1
102
RTVSPost2010Prop51ColorIndex
 90
      256
102
RTVSPost2010Prop51ColorRGB
 90
-16777216
102
RTVSPost2010PropOp51
 70
     0
102
RTVSPost2010Prop52
140
1.0
102
RTVSPost2010PropOp52
 70
     0
102
RTVSPost2010Prop53
 90
        2
102
RTVSPost2010PropOp53
 70
     1
102
RTVSPost2010Prop54
  1
strokes_ogs.tif
102
RTVSPost2010PropOp54
 70
     1
102
RTVSPost2010Prop55
280
     0
102
RTVSPost2010PropOp55
 70
     1
102
RTVSPost2010Prop56
140
1.0
102
RTVSPost2010PropOp56
 70
     1
102
RTVSPost2010Prop57
140
1.0
102
RTVSPost2010PropOp57
 70
     1
  0
XRECORD
  5
14A
102
{ACAD_REACTORS
330
149
102
}
330
149
100
AcDbXrecord
280
     1
102
RTVSPost2010Prop28
280
     0
102
RTVSPost2010PropOp28
 70
     0
102
RTVSPost2010Prop29
280
     1
102
RTVSPost2010PropOp29
 70
     0
102
RTVSPost2010Prop30
280
     1
102
RTVSPost2010PropOp30
 70
     0
102
RTVSPost2010Prop31
280
     0
102
RTVSPost2010PropOp31
 70
     0
102
RTVSPost2010Prop32
280
     0
102
RTVSPost2010PropOp32
 70
     0
102
RTVSPost2010Prop33
280
     0
102
RTVSPost2010PropOp33
 70
     0
102
RTVSPost2010Prop34
280
     0
102
RTVSPost2010PropOp34
 70
     0
102
RTVSPost2010Prop35
280
     0
102
RTVSPost2010PropOp35
 70
     0
102
RTVSPost2010Prop36
280
     0
102
RTVSPost2010PropOp36
 70
     0
102
RTVSPost2010Prop37
 90
       50
102
RTVSPost2010PropOp37
 70
     0
102
RTVSPost2010Prop38
140
0.0
102
RTVSPost2010PropOp38
 70
     0
102
RTVSPost2010Prop39
140
1.0
102
RTVSPost2010PropOp39
 70
     0
102
RTVSPost2010Prop40
 90
        0
102
RTVSPost2010PropOp40
 70
     0
102
RTVSPost2010Prop41ColorIndex
 90
       18
102
RTVSPost2010Prop41ColorRGB
 90
        0
102
RTVSPost2010PropOp41
 70
     0
102
RTVSPost2010Prop42
 90
       50
102
RTVSPost2010PropOp42
 70
     0
102
RTVSPost2010Prop43
 90
        3
102
RTVSPost2010PropOp43
 70
     0
102
RTVSPost2010Prop44ColorIndex
 90
        5
102
RTVSPost2010Prop44ColorRGB
 90
      255
102
RTVSPost2010PropOp44
 70
     0
102
RTVSPost2010Prop45
280
     0
102
RTVSPost2010PropOp45
 70
     0
102
RTVSPost2010Prop46
 90
       50
102
RTVSPost2010PropOp46
 70
     0
102
RTVSPost2010Prop47
 90
       50
102
RTVSPost2010PropOp47
 70
     0
102
RTVSPost2010Prop48
 90
       50
102
RTVSPost2010PropOp48
 70
     0
102
RTVSPost2010Prop49
280
     0
102
RTVSPost2010PropOp49
 70
     0
102
RTVSPost2010Prop50
 90
       50
102
RTVSPost2010PropOp50
 70
     0
102
RTVSPost2010Prop51ColorIndex
 90
      256
102
RTVSPost2010Prop51ColorRGB
 90
-16777216
102
RTVSPost2010PropOp51
 70
     0
102
RTVSPost2010Prop52
140
1.0
102
RTVSPost2010PropOp52
 70
     0
102
RTVSPost2010Prop53
 90
        2
102
RTVSPost2010PropOp53
 70
     0
102
RTVSPost2010Prop54
  1
strokes_ogs.tif
102
RTVSPost2010PropOp54
 70
     0
102
RTVSPost2010Prop55
280
     0
102
RTVSPost2010PropOp55
 70
     0
102
RTVSPost2010Prop56
140
1.0
102
RTVSPost2010PropOp56
 70
     0
102
RTVSPost2010Prop57
140
1.0
102
RTVSPost2010PropOp57
 70
     0
  0
XRECORD
  5
130
102
{ACAD_REACTORS
330
12F
102
}
330
12F
100
AcDbXrecord
280
     1
102
RTVSPost2010Prop28
280
     0
102
RTVSPost2010PropOp28
 70
     1
102
RTVSPost2010Prop29
280
     1
102
RTVSPost2010PropOp29
 70
     1
102
RTVSPost2010Prop30
280
     1
102
RTVSPost2010PropOp30
 70
     1
102
RTVSPost2010Prop31
280
     0
102
RTVSPost2010PropOp31
 70
     1
102
RTVSPost2010Prop32
280
     0
102
RTVSPost2010PropOp32
 70
     1
102
RTVSPost2010Prop33
280
     0
102
RTVSPost2010PropOp33
 70
     1
102
RTVSPost2010Prop34
280
     0
102
RTVSPost2010PropOp34
 70
     1
102
RTVSPost2010Prop35
280
     0
102
RTVSPost2010PropOp35
 70
     1
102
RTVSPost2010Prop36
280
     0
102
RTVSPost2010PropOp36
 70
     1
102
RTVSPost2010Prop37
 90
       50
102
RTVSPost2010PropOp37
 70
     1
102
RTVSPost2010Prop38
140
0.0
102
RTVSPost2010PropOp38
 70
     1
102
RTVSPost2010Prop39
140
1.0
102
RTVSPost2010PropOp39
 70
     1
102
RTVSPost2010Prop40
 90
        0
102
RTVSPost2010PropOp40
 70
     1
102
RTVSPost2010Prop41ColorIndex
 90
       18
102
RTVSPost2010Prop41ColorRGB
 90
        0
102
RTVSPost2010PropOp41
 70
     1
102
RTVSPost2010Prop42
 90
       50
102
RTVSPost2010PropOp42
 70
     1
102
RTVSPost2010Prop43
 90
        3
102
RTVSPost2010PropOp43
 70
     1
102
RTVSPost2010Prop44ColorIndex
 90
        5
102
RTVSPost2010Prop44ColorRGB
 90
      255
102
RTVSPost2010PropOp44
 70
     1
102
RTVSPost2010Prop45
280
     0
102
RTVSPost2010PropOp45
 70
     1
102
RTVSPost2010Prop46
 90
       50
102
RTVSPost2010PropOp46
 70
     1
102
RTVSPost2010Prop47
 90
       50
102
RTVSPost2010PropOp47
 70
     1
102
RTVSPost2010Prop48
 90
       50
102
RTVSPost2010PropOp48
 70
     1
102
RTVSPost2010Prop49
280
     0
102
RTVSPost2010PropOp49
 70
     1
102
RTVSPost2010Prop50
 90
       50
102
RTVSPost2010PropOp50
 70
     1
102
RTVSPost2010Prop51ColorIndex
 90
      256
102
RTVSPost2010Prop51ColorRGB
 90
-16777216
102
RTVSPost2010PropOp51
 70
     0
102
RTVSPost2010Prop52
140
1.0
102
RTVSPost2010PropOp52
 70
     0
102
RTVSPost2010Prop53
 90
        2
102
RTVSPost2010PropOp53
 70
     1
102
RTVSPost2010Prop54
  1
strokes_ogs.tif
102
RTVSPost2010PropOp54
 70
     1
102
RTVSPost2010Prop55
280
     0
102
RTVSPost2010PropOp55
 70
     1
102
RTVSPost2010Prop56
140
1.0
102
RTVSPost2010PropOp56
 70
     1
102
RTVSPost2010Prop57
140
1.0
102
RTVSPost2010PropOp57
 70
     1
  0
XRECORD
  5
146
102
{ACAD_REACTORS
330
145
102
}
330
145
100
AcDbXrecord
280
     1
102
RTVSPost2010Prop28
280
     0
102
RTVSPost2010PropOp28
 70
     1
102
RTVSPost2010Prop29
280
     1
102
RTVSPost2010PropOp29
 70
     1
102
RTVSPost2010Prop30
280
     1
102
RTVSPost2010PropOp30
 70
     1
102
RTVSPost2010Prop31
280
     0
102
RTVSPost2010PropOp31
 70
     1
102
RTVSPost2010Prop32
280
     0
102
RTVSPost2010PropOp32
 70
     1
102
RTVSPost2010Prop33
280
     0
102
RTVSPost2010PropOp33
 70
     1
102
RTVSPost2010Prop34
280
     0
102
RTVSPost2010PropOp34
 70
     1
102
RTVSPost2010Prop35
280
     0
102
RTVSPost2010PropOp35
 70
     1
102
RTVSPost2010Prop36
280
     0
102
RTVSPost2010PropOp36
 70
     1
102
RTVSPost2010Prop37
 90
       50
102
RTVSPost2010PropOp37
 70
     1
102
RTVSPost2010Prop38
140
0.0
102
RTVSPost2010PropOp38
 70
     1
102
RTVSPost2010Prop39
140
1.0
102
RTVSPost2010PropOp39
 70
     1
102
RTVSPost2010Prop40
 90
        0
102
RTVSPost2010PropOp40
 70
     1
102
RTVSPost2010Prop41ColorIndex
 90
       18
102
RTVSPost2010Prop41ColorRGB
 90
        0
102
RTVSPost2010PropOp41
 70
     1
102
RTVSPost2010Prop42
 90
       50
102
RTVSPost2010PropOp42
 70
     1
102
RTVSPost2010Prop43
 90
        3
102
RTVSPost2010PropOp43
 70
     1
102
RTVSPost2010Prop44ColorIndex
 90
        5
102
RTVSPost2010Prop44ColorRGB
 90
      255
102
RTVSPost2010PropOp44
 70
     1
102
RTVSPost2010Prop45
280
     0
102
RTVSPost2010PropOp45
 70
     1
102
RTVSPost2010Prop46
 90
       50
102
RTVSPost2010PropOp46
 70
     1
102
RTVSPost2010Prop47
 90
       50
102
RTVSPost2010PropOp47
 70
     1
102
RTVSPost2010Prop48
 90
       50
102
RTVSPost2010PropOp48
 70
     1
102
RTVSPost2010Prop49
280
     0
102
RTVSPost2010PropOp49
 70
     1
102
RTVSPost2010Prop50
 90
       50
102
RTVSPost2010PropOp50
 70
     1
102
RTVSPost2010Prop51ColorIndex
 90
      256
102
RTVSPost2010Prop51ColorRGB
 90
-16777216
102
RTVSPost2010PropOp51
 70
     0
102
RTVSPost2010Prop52
140
1.0
102
RTVSPost2010PropOp52
 70
     0
102
RTVSPost2010Prop53
 90
        2
102
RTVSPost2010PropOp53
 70
     1
102
RTVSPost2010Prop54
  1
strokes_ogs.tif
102
RTVSPost2010PropOp54
 70
     1
102
RTVSPost2010Prop55
280
     0
102
RTVSPost2010PropOp55
 70
     1
102
RTVSPost2010Prop56
140
1.0
102
RTVSPost2010PropOp56
 70
     1
102
RTVSPost2010Prop57
140
1.0
102
RTVSPost2010PropOp57
 70
     1
  0
XRECORD
  5
144
102
{ACAD_REACTORS
330
143
102
}
330
143
100
AcDbXrecord
280
     1
102
RTVSPost2010Prop28
280
     0
102
RTVSPost2010PropOp28
 70
     1
102
RTVSPost2010Prop29
280
     1
102
RTVSPost2010PropOp29
 70
     1
102
RTVSPost2010Prop30
280
     1
102
RTVSPost2010PropOp30
 70
     1
102
RTVSPost2010Prop31
280
     0
102
RTVSPost2010PropOp31
 70
     1
102
RTVSPost2010Prop32
280
     0
102
RTVSPost2010PropOp32
 70
     1
102
RTVSPost2010Prop33
280
     0
102
RTVSPost2010PropOp33
 70
     1
102
RTVSPost2010Prop34
280
     0
102
RTVSPost2010PropOp34
 70
     1
102
RTVSPost2010Prop35
280
     0
102
RTVSPost2010PropOp35
 70
     1
102
RTVSPost2010Prop36
280
     0
102
RTVSPost2010PropOp36
 70
     1
102
RTVSPost2010Prop37
 90
       50
102
RTVSPost2010PropOp37
 70
     1
102
RTVSPost2010Prop38
140
0.0
102
RTVSPost2010PropOp38
 70
     1
102
RTVSPost2010Prop39
140
1.0
102
RTVSPost2010PropOp39
 70
     1
102
RTVSPost2010Prop40
 90
        0
102
RTVSPost2010PropOp40
 70
     1
102
RTVSPost2010Prop41ColorIndex
 90
       18
102
RTVSPost2010Prop41ColorRGB
 90
        0
102
RTVSPost2010PropOp41
 70
     1
102
RTVSPost2010Prop42
 90
       50
102
RTVSPost2010PropOp42
 70
     1
102
RTVSPost2010Prop43
 90
        3
102
RTVSPost2010PropOp43
 70
     1
102
RTVSPost2010Prop44ColorIndex
 90
        5
102
RTVSPost2010Prop44ColorRGB
 90
      255
102
RTVSPost2010PropOp44
 70
     1
102
RTVSPost2010Prop45
280
     0
102
RTVSPost2010PropOp45
 70
     1
102
RTVSPost2010Prop46
 90
       50
102
RTVSPost2010PropOp46
 70
     1
102
RTVSPost2010Prop47
 90
       50
102
RTVSPost2010PropOp47
 70
     1
102
RTVSPost2010Prop48
 90
       50
102
RTVSPost2010PropOp48
 70
     1
102
RTVSPost2010Prop49
280
     0
102
RTVSPost2010PropOp49
 70
     1
102
RTVSPost2010Prop50
 90
       50
102
RTVSPost2010PropOp50
 70
     1
102
RTVSPost2010Prop51ColorIndex
 90
      256
102
RTVSPost2010Prop51ColorRGB
 90
-16777216
102
RTVSPost2010PropOp51
 70
     0
102
RTVSPost2010Prop52
140
1.0
102
RTVSPost2010PropOp52
 70
     0
102
RTVSPost2010Prop53
 90
        2
102
RTVSPost2010PropOp53
 70
     1
102
RTVSPost2010Prop54
  1
strokes_ogs.tif
102
RTVSPost2010PropOp54
 70
     1
102
RTVSPost2010Prop55
280
     0
102
RTVSPost2010PropOp55
 70
     1
102
RTVSPost2010Prop56
140
1.0
102
RTVSPost2010PropOp56
 70
     1
102
RTVSPost2010Prop57
140
1.0
102
RTVSPost2010PropOp57
 70
     1
  0
XRECORD
  5
13E
102
{ACAD_REACTORS
330
13D
102
}
330
13D
100
AcDbXrecord
280
     1
102
RTVSPost2010Prop28
280
     0
102
RTVSPost2010PropOp28
 70
     1
102
RTVSPost2010Prop29
280
     1
102
RTVSPost2010PropOp29
 70
     1
102
RTVSPost2010Prop30
280
     1
102
RTVSPost2010PropOp30
 70
     1
102
RTVSPost2010Prop31
280
     0
102
RTVSPost2010PropOp31
 70
     1
102
RTVSPost2010Prop32
280
     0
102
RTVSPost2010PropOp32
 70
     1
102
RTVSPost2010Prop33
280
     0
102
RTVSPost2010PropOp33
 70
     1
102
RTVSPost2010Prop34
280
     0
102
RTVSPost2010PropOp34
 70
     1
102
RTVSPost2010Prop35
280
     0
102
RTVSPost2010PropOp35
 70
     1
102
RTVSPost2010Prop36
280
     0
102
RTVSPost2010PropOp36
 70
     1
102
RTVSPost2010Prop37
 90
       50
102
RTVSPost2010PropOp37
 70
     1
102
RTVSPost2010Prop38
140
0.0
102
RTVSPost2010PropOp38
 70
     1
102
RTVSPost2010Prop39
140
1.0
102
RTVSPost2010PropOp39
 70
     1
102
RTVSPost2010Prop40
 90
        0
102
RTVSPost2010PropOp40
 70
     1
102
RTVSPost2010Prop41ColorIndex
 90
       18
102
RTVSPost2010Prop41ColorRGB
 90
        0
102
RTVSPost2010PropOp41
 70
     1
102
RTVSPost2010Prop42
 90
       50
102
RTVSPost2010PropOp42
 70
     1
102
RTVSPost2010Prop43
 90
        3
102
RTVSPost2010PropOp43
 70
     1
102
RTVSPost2010Prop44ColorIndex
 90
        5
102
RTVSPost2010Prop44ColorRGB
 90
      255
102
RTVSPost2010PropOp44
 70
     1
102
RTVSPost2010Prop45
280
     0
102
RTVSPost2010PropOp45
 70
     1
102
RTVSPost2010Prop46
 90
       50
102
RTVSPost2010PropOp46
 70
     1
102
RTVSPost2010Prop47
 90
       50
102
RTVSPost2010PropOp47
 70
     1
102
RTVSPost2010Prop48
 90
       50
102
RTVSPost2010PropOp48
 70
     1
102
RTVSPost2010Prop49
280
     0
102
RTVSPost2010PropOp49
 70
     1
102
RTVSPost2010Prop50
 90
       50
102
RTVSPost2010PropOp50
 70
     1
102
RTVSPost2010Prop51ColorIndex
 90
      256
102
RTVSPost2010Prop51ColorRGB
 90
-16777216
102
RTVSPost2010PropOp51
 70
     0
102
RTVSPost2010Prop52
140
1.0
102
RTVSPost2010PropOp52
 70
     0
102
RTVSPost2010Prop53
 90
        2
102
RTVSPost2010PropOp53
 70
     1
102
RTVSPost2010Prop54
  1
strokes_ogs.tif
102
RTVSPost2010PropOp54
 70
     1
102
RTVSPost2010Prop55
280
     0
102
RTVSPost2010PropOp55
 70
     1
102
RTVSPost2010Prop56
140
1.0
102
RTVSPost2010PropOp56
 70
     1
102
RTVSPost2010Prop57
140
1.0
102
RTVSPost2010PropOp57
 70
     1
  0
XRECORD
  5
140
102
{ACAD_REACTORS
330
13F
102
}
330
13F
100
AcDbXrecord
280
     1
102
RTVSPost2010Prop28
280
     0
102
RTVSPost2010PropOp28
 70
     1
102
RTVSPost2010Prop29
280
     1
102
RTVSPost2010PropOp29
 70
     1
102
RTVSPost2010Prop30
280
     1
102
RTVSPost2010PropOp30
 70
     1
102
RTVSPost2010Prop31
280
     0
102
RTVSPost2010PropOp31
 70
     1
102
RTVSPost2010Prop32
280
     0
102
RTVSPost2010PropOp32
 70
     1
102
RTVSPost2010Prop33
280
     0
102
RTVSPost2010PropOp33
 70
     1
102
RTVSPost2010Prop34
280
     0
102
RTVSPost2010PropOp34
 70
     1
102
RTVSPost2010Prop35
280
     0
102
RTVSPost2010PropOp35
 70
     1
102
RTVSPost2010Prop36
280
     0
102
RTVSPost2010PropOp36
 70
     1
102
RTVSPost2010Prop37
 90
       50
102
RTVSPost2010PropOp37
 70
     1
102
RTVSPost2010Prop38
140
0.0
102
RTVSPost2010PropOp38
 70
     1
102
RTVSPost2010Prop39
140
1.0
102
RTVSPost2010PropOp39
 70
     1
102
RTVSPost2010Prop40
 90
        0
102
RTVSPost2010PropOp40
 70
     1
102
RTVSPost2010Prop41ColorIndex
 90
       18
102
RTVSPost2010Prop41ColorRGB
 90
        0
102
RTVSPost2010PropOp41
 70
     1
102
RTVSPost2010Prop42
 90
       50
102
RTVSPost2010PropOp42
 70
     1
102
RTVSPost2010Prop43
 90
        3
102
RTVSPost2010PropOp43
 70
     1
102
RTVSPost2010Prop44ColorIndex
 90
        5
102
RTVSPost2010Prop44ColorRGB
 90
      255
102
RTVSPost2010PropOp44
 70
     1
102
RTVSPost2010Prop45
280
     0
102
RTVSPost2010PropOp45
 70
     1
102
RTVSPost2010Prop46
 90
       50
102
RTVSPost2010PropOp46
 70
     1
102
RTVSPost2010Prop47
 90
       50
102
RTVSPost2010PropOp47
 70
     1
102
RTVSPost2010Prop48
 90
       50
102
RTVSPost2010PropOp48
 70
     1
102
RTVSPost2010Prop49
280
     0
102
RTVSPost2010PropOp49
 70
     1
102
RTVSPost2010Prop50
 90
       50
102
RTVSPost2010PropOp50
 70
     1
102
RTVSPost2010Prop51ColorIndex
 90
      256
102
RTVSPost2010Prop51ColorRGB
 90
-16777216
102
RTVSPost2010PropOp51
 70
     0
102
RTVSPost2010Prop52
140
1.0
102
RTVSPost2010PropOp52
 70
     0
102
RTVSPost2010Prop53
 90
        2
102
RTVSPost2010PropOp53
 70
     1
102
RTVSPost2010Prop54
  1
strokes_ogs.tif
102
RTVSPost2010PropOp54
 70
     1
102
RTVSPost2010Prop55
280
     0
102
RTVSPost2010PropOp55
 70
     1
102
RTVSPost2010Prop56
140
1.0
102
RTVSPost2010PropOp56
 70
     1
102
RTVSPost2010Prop57
140
1.0
102
RTVSPost2010PropOp57
 70
     1
  0
XRECORD
  5
136
102
{ACAD_REACTORS
330
135
102
}
330
135
100
AcDbXrecord
280
     1
102
RTVSPost2010Prop28
280
     0
102
RTVSPost2010PropOp28
 70
     1
102
RTVSPost2010Prop29
280
     1
102
RTVSPost2010PropOp29
 70
     1
102
RTVSPost2010Prop30
280
     1
102
RTVSPost2010PropOp30
 70
     1
102
RTVSPost2010Prop31
280
     0
102
RTVSPost2010PropOp31
 70
     1
102
RTVSPost2010Prop32
280
     0
102
RTVSPost2010PropOp32
 70
     1
102
RTVSPost2010Prop33
280
     0
102
RTVSPost2010PropOp33
 70
     1
102
RTVSPost2010Prop34
280
     0
102
RTVSPost2010PropOp34
 70
     1
102
RTVSPost2010Prop35
280
     0
102
RTVSPost2010PropOp35
 70
     1
102
RTVSPost2010Prop36
280
     0
102
RTVSPost2010PropOp36
 70
     1
102
RTVSPost2010Prop37
 90
       50
102
RTVSPost2010PropOp37
 70
     1
102
RTVSPost2010Prop38
140
0.0
102
RTVSPost2010PropOp38
 70
     1
102
RTVSPost2010Prop39
140
1.0
102
RTVSPost2010PropOp39
 70
     1
102
RTVSPost2010Prop40
 90
        0
102
RTVSPost2010PropOp40
 70
     1
102
RTVSPost2010Prop41ColorIndex
 90
       18
102
RTVSPost2010Prop41ColorRGB
 90
        0
102
RTVSPost2010PropOp41
 70
     1
102
RTVSPost2010Prop42
 90
       50
102
RTVSPost2010PropOp42
 70
     1
102
RTVSPost2010Prop43
 90
        3
102
RTVSPost2010PropOp43
 70
     1
102
RTVSPost2010Prop44ColorIndex
 90
        5
102
RTVSPost2010Prop44ColorRGB
 90
      255
102
RTVSPost2010PropOp44
 70
     1
102
RTVSPost2010Prop45
280
     0
102
RTVSPost2010PropOp45
 70
     1
102
RTVSPost2010Prop46
 90
       50
102
RTVSPost2010PropOp46
 70
     1
102
RTVSPost2010Prop47
 90
       50
102
RTVSPost2010PropOp47
 70
     1
102
RTVSPost2010Prop48
 90
       50
102
RTVSPost2010PropOp48
 70
     1
102
RTVSPost2010Prop49
280
     0
102
RTVSPost2010PropOp49
 70
     1
102
RTVSPost2010Prop50
 90
       50
102
RTVSPost2010PropOp50
 70
     1
102
RTVSPost2010Prop51ColorIndex
 90
      256
102
RTVSPost2010Prop51ColorRGB
 90
-16777216
102
RTVSPost2010PropOp51
 70
     0
102
RTVSPost2010Prop52
140
1.0
102
RTVSPost2010PropOp52
 70
     0
102
RTVSPost2010Prop53
 90
        2
102
RTVSPost2010PropOp53
 70
     1
102
RTVSPost2010Prop54
  1
strokes_ogs.tif
102
RTVSPost2010PropOp54
 70
     1
102
RTVSPost2010Prop55
280
     0
102
RTVSPost2010PropOp55
 70
     1
102
RTVSPost2010Prop56
140
1.0
102
RTVSPost2010PropOp56
 70
     1
102
RTVSPost2010Prop57
140
1.0
102
RTVSPost2010PropOp57
 70
     1
  0
XRECORD
  5
12A
102
{ACAD_REACTORS
330
129
102
}
330
129
100
AcDbXrecord
280
     1
102
RTVSPost2010Prop28
280
     0
102
RTVSPost2010PropOp28
 70
     1
102
RTVSPost2010Prop29
280
     1
102
RTVSPost2010PropOp29
 70
     1
102
RTVSPost2010Prop30
280
     1
102
RTVSPost2010PropOp30
 70
     1
102
RTVSPost2010Prop31
280
     0
102
RTVSPost2010PropOp31
 70
     1
102
RTVSPost2010Prop32
280
     0
102
RTVSPost2010PropOp32
 70
     1
102
RTVSPost2010Prop33
280
     0
102
RTVSPost2010PropOp33
 70
     1
102
RTVSPost2010Prop34
280
     0
102
RTVSPost2010PropOp34
 70
     1
102
RTVSPost2010Prop35
280
     0
102
RTVSPost2010PropOp35
 70
     1
102
RTVSPost2010Prop36
280
     0
102
RTVSPost2010PropOp36
 70
     1
102
RTVSPost2010Prop37
 90
       50
102
RTVSPost2010PropOp37
 70
     1
102
RTVSPost2010Prop38
140
0.0
102
RTVSPost2010PropOp38
 70
     1
102
RTVSPost2010Prop39
140
1.0
102
RTVSPost2010PropOp39
 70
     1
102
RTVSPost2010Prop40
 90
        0
102
RTVSPost2010PropOp40
 70
     1
102
RTVSPost2010Prop41ColorIndex
 90
       18
102
RTVSPost2010Prop41ColorRGB
 90
        0
102
RTVSPost2010PropOp41
 70
     1
102
RTVSPost2010Prop42
 90
       50
102
RTVSPost2010PropOp42
 70
     1
102
RTVSPost2010Prop43
 90
        3
102
RTVSPost2010PropOp43
 70
     1
102
RTVSPost2010Prop44ColorIndex
 90
        5
102
RTVSPost2010Prop44ColorRGB
 90
      255
102
RTVSPost2010PropOp44
 70
     1
102
RTVSPost2010Prop45
280
     0
102
RTVSPost2010PropOp45
 70
     1
102
RTVSPost2010Prop46
 90
       50
102
RTVSPost2010PropOp46
 70
     1
102
RTVSPost2010Prop47
 90
       50
102
RTVSPost2010PropOp47
 70
     1
102
RTVSPost2010Prop48
 90
       50
102
RTVSPost2010PropOp48
 70
     1
102
RTVSPost2010Prop49
280
     0
102
RTVSPost2010PropOp49
 70
     1
102
RTVSPost2010Prop50
 90
       50
102
RTVSPost2010PropOp50
 70
     1
102
RTVSPost2010Prop51ColorIndex
 90
      256
102
RTVSPost2010Prop51ColorRGB
 90
-16777216
102
RTVSPost2010PropOp51
 70
     0
102
RTVSPost2010Prop52
140
1.0
102
RTVSPost2010PropOp52
 70
     0
102
RTVSPost2010Prop53
 90
        2
102
RTVSPost2010PropOp53
 70
     1
102
RTVSPost2010Prop54
  1
strokes_ogs.tif
102
RTVSPost2010PropOp54
 70
     1
102
RTVSPost2010Prop55
280
     0
102
RTVSPost2010PropOp55
 70
     1
102
RTVSPost2010Prop56
140
1.0
102
RTVSPost2010PropOp56
 70
     1
102
RTVSPost2010Prop57
140
1.0
102
RTVSPost2010PropOp57
 70
     1
  0
XRECORD
  5
142
102
{ACAD_REACTORS
330
141
102
}
330
141
100
AcDbXrecord
280
     1
102
RTVSPost2010Prop28
280
     0
102
RTVSPost2010PropOp28
 70
     1
102
RTVSPost2010Prop29
280
     1
102
RTVSPost2010PropOp29
 70
     1
102
RTVSPost2010Prop30
280
     1
102
RTVSPost2010PropOp30
 70
     1
102
RTVSPost2010Prop31
280
     0
102
RTVSPost2010PropOp31
 70
     1
102
RTVSPost2010Prop32
280
     0
102
RTVSPost2010PropOp32
 70
     1
102
RTVSPost2010Prop33
280
     0
102
RTVSPost2010PropOp33
 70
     1
102
RTVSPost2010Prop34
280
     0
102
RTVSPost2010PropOp34
 70
     1
102
RTVSPost2010Prop35
280
     0
102
RTVSPost2010PropOp35
 70
     1
102
RTVSPost2010Prop36
280
     0
102
RTVSPost2010PropOp36
 70
     1
102
RTVSPost2010Prop37
 90
       50
102
RTVSPost2010PropOp37
 70
     1
102
RTVSPost2010Prop38
140
0.0
102
RTVSPost2010PropOp38
 70
     1
102
RTVSPost2010Prop39
140
1.0
102
RTVSPost2010PropOp39
 70
     1
102
RTVSPost2010Prop40
 90
        0
102
RTVSPost2010PropOp40
 70
     1
102
RTVSPost2010Prop41ColorIndex
 90
       18
102
RTVSPost2010Prop41ColorRGB
 90
        0
102
RTVSPost2010PropOp41
 70
     1
102
RTVSPost2010Prop42
 90
       50
102
RTVSPost2010PropOp42
 70
     1
102
RTVSPost2010Prop43
 90
        3
102
RTVSPost2010PropOp43
 70
     1
102
RTVSPost2010Prop44ColorIndex
 90
        5
102
RTVSPost2010Prop44ColorRGB
 90
      255
102
RTVSPost2010PropOp44
 70
     1
102
RTVSPost2010Prop45
280
     0
102
RTVSPost2010PropOp45
 70
     1
102
RTVSPost2010Prop46
 90
       50
102
RTVSPost2010PropOp46
 70
     1
102
RTVSPost2010Prop47
 90
       50
102
RTVSPost2010PropOp47
 70
     1
102
RTVSPost2010Prop48
 90
       50
102
RTVSPost2010PropOp48
 70
     1
102
RTVSPost2010Prop49
280
     0
102
RTVSPost2010PropOp49
 70
     1
102
RTVSPost2010Prop50
 90
       50
102
RTVSPost2010PropOp50
 70
     1
102
RTVSPost2010Prop51ColorIndex
 90
      256
102
RTVSPost2010Prop51ColorRGB
 90
-16777216
102
RTVSPost2010PropOp51
 70
     0
102
RTVSPost2010Prop52
140
1.0
102
RTVSPost2010PropOp52
 70
     0
102
RTVSPost2010Prop53
 90
        2
102
RTVSPost2010PropOp53
 70
     1
102
RTVSPost2010Prop54
  1
strokes_ogs.tif
102
RTVSPost2010PropOp54
 70
     1
102
RTVSPost2010Prop55
280
     0
102
RTVSPost2010PropOp55
 70
     1
102
RTVSPost2010Prop56
140
1.0
102
RTVSPost2010PropOp56
 70
     1
102
RTVSPost2010Prop57
140
1.0
102
RTVSPost2010PropOp57
 70
     1
  0
ENDSEC
  0
EOF
