  0
SECTION
  2
HEADER
  9
$ACADVER
  1
AC1024
  9
$ACADMAINTVER
 70
     6
  9
$DWGCODEPAGE
  3
UNDEFINED
  9
$INSBASE
 10
0.0
 20
0.0
 30
0.0
  9
$EXTMIN
 10
1.000000000000000E+20
 20
1.000000000000000E+20
 30
1.000000000000000E+20
  9
$EXTMAX
 10
-1.000000000000000E+20
 20
-1.000000000000000E+20
 30
-1.000000000000000E+20
  9
$LIMMIN
 10
0.0
 20
0.0
  9
$LIMMAX
 10
12.0
 20
9.0
  9
$ORTHOMODE
 70
     0
  9
$REGENMODE
 70
     1
  9
$FILLMODE
 70
     1
  9
$QTEXTMODE
 70
     0
  9
$MIRRTEXT
 70
     1
  9
$LTSCALE
 40
1.0
  9
$ATTMODE
 70
     1
  9
$TEXTSIZE
 40
0.2
  9
$TRACEWID
 40
0.05
  9
$TEXTSTYLE
  7
Standard
  9
$CLAYER
  8
0
  9
$CELTYPE
  6
ByLayer
  9
$CECOLOR
 62
   256
  9
$CELTSCALE
 40
1.0
  9
$DISPSILH
 70
     0
  9
$DIMSCALE
 40
1.0
  9
$DIMASZ
 40
0.18
  9
$DIMEXO
 40
0.0625
  9
$DIMDLI
 40
0.38
  9
$DIMRND
 40
0.0
  9
$DIMDLE
 40
0.0
  9
$DIMEXE
 40
0.18
  9
$DIMTP
 40
0.0
  9
$DIMTM
 40
0.0
  9
$DIMTXT
 40
0.18
  9
$DIMCEN
 40
0.09
  9
$DIMTSZ
 40
0.0
  9
$DIMTOL
 70
     0
  9
$DIMLIM
 70
     0
  9
$DIMTIH
 70
     1
  9
$DIMTOH
 70
     1
  9
$DIMSE1
 70
     0
  9
$DIMSE2
 70
     0
  9
$DIMTAD
 70
     0
  9
$DIMZIN
 70
     0
  9
$DIMBLK
  1

  9
$DIMASO
 70
     1
  9
$DIMSHO
 70
     1
  9
$DIMPOST
  1

  9
$DIMAPOST
  1

  9
$DIMALT
 70
     0
  9
$DIMALTD
 70
     2
  9
$DIMALTF
 40
25.4
  9
$DIMLFAC
 40
1.0
  9
$DIMTOFL
 70
     0
  9
$DIMTVP
 40
0.0
  9
$DIMTIX
 70
     0
  9
$DIMSOXD
 70
     0
  9
$DIMSAH
 70
     0
  9
$DIMBLK1
  1

  9
$DIMBLK2
  1

  9
$DIMSTYLE
  2
Standard
  9
$DIMCLRD
 70
     0
  9
$DIMCLRE
 70
     0
  9
$DIMCLRT
 70
     0
  9
$DIMTFAC
 40
1.0
  9
$DIMGAP
 40
0.09
  9
$DIMJUST
 70
     0
  9
$DIMSD1
 70
     0
  9
$DIMSD2
 70
     0
  9
$DIMTOLJ
 70
     1
  9
$DIMTZIN
 70
     0
  9
$DIMALTZ
 70
     0
  9
$DIMALTTZ
 70
     0
  9
$DIMUPT
 70
     0
  9
$DIMDEC
 70
     4
  9
$DIMTDEC
 70
     4
  9
$DIMALTU
 70
     2
  9
$DIMALTTD
 70
     2
  9
$DIMTXSTY
  7
Standard
  9
$DIMAUNIT
 70
     0
  9
$DIMADEC
 70
     0
  9
$DIMALTRND
 40
0.0
  9
$DIMAZIN
 70
     0
  9
$DIMDSEP
 70
    46
  9
$DIMATFIT
 70
     3
  9
$DIMFRAC
 70
     0
  9
$DIMLDRBLK
  1

  9
$DIMLUNIT
 70
     2
  9
$DIMLWD
 70
    -2
  9
$DIMLWE
 70
    -2
  9
$DIMTMOVE
 70
     0
  9
$DIMFXL
 40
1.0
  9
$DIMFXLON
 70
     0
  9
$DIMJOGANG
 40
0.7853981633974483
  9
$DIMTFILL
 70
     0
  9
$DIMTFILLCLR
 70
     0
  9
$DIMARCSYM
 70
     0
  9
$DIMLTYPE
  6

  9
$DIMLTEX1
  6

  9
$DIMLTEX2
  6

  9
$DIMTXTDIRECTION
 70
     0
  9
$LUNITS
 70
     2
  9
$LUPREC
 70
     4
  9
$SKETCHINC
 40
0.1
  9
$FILLETRAD
 40
0.5
  9
$AUNITS
 70
     0
  9
$AUPREC
 70
     0
  9
$MENU
  1
.
  9
$ELEVATION
 40
0.0
  9
$PELEVATION
 40
0.0
  9
$THICKNESS
 40
0.0
  9
$LIMCHECK
 70
     0
  9
$CHAMFERA
 40
0.5
  9
$CHAMFERB
 40
0.5
  9
$CHAMFERC
 40
1.0
  9
$CHAMFERD
 40
0.0
  9
$SKPOLY
 70
     0
  9
$TDCREATE
 40
2457917.600706007
  9
$TDUCREATE
 40
2457917.225706019
  9
$TDUPDATE
 40
2457917.600706007
  9
$TDUUPDATE
 40
2457917.225706019
  9
$TDINDWG
 40
0.0000000116
  9
$TDUSRTIMER
 40
0.0000000116
  9
$USRTIMER
 70
     1
  9
$ANGBASE
 50
0.0
  9
$ANGDIR
 70
     0
  9
$PDMODE
 70
     0
  9
$PDSIZE
 40
0.0
  9
$PLINEWID
 40
0.0
  9
$SPLFRAME
 70
     0
  9
$SPLINETYPE
 70
     6
  9
$SPLINESEGS
 70
     8
  9
$HANDSEED
  5
114
  9
$SURFTAB1
 70
     6
  9
$SURFTAB2
 70
     6
  9
$SURFTYPE
 70
     6
  9
$SURFU
 70
     6
  9
$SURFV
 70
     6
  9
$UCSBASE
  2

  9
$UCSNAME
  2

  9
$UCSORG
 10
0.0
 20
0.0
 30
0.0
  9
$UCSXDIR
 10
1.0
 20
0.0
 30
0.0
  9
$UCSYDIR
 10
0.0
 20
1.0
 30
0.0
  9
$UCSORTHOREF
  2

  9
$UCSORTHOVIEW
 70
     0
  9
$UCSORGTOP
 10
0.0
 20
0.0
 30
0.0
  9
$UCSORGBOTTOM
 10
0.0
 20
0.0
 30
0.0
  9
$UCSORGLEFT
 10
0.0
 20
0.0
 30
0.0
  9
$UCSORGRIGHT
 10
0.0
 20
0.0
 30
0.0
  9
$UCSORGFRONT
 10
0.0
 20
0.0
 30
0.0
  9
$UCSORGBACK
 10
0.0
 20
0.0
 30
0.0
  9
$PUCSBASE
  2

  9
$PUCSNAME
  2

  9
$PUCSORG
 10
0.0
 20
0.0
 30
0.0
  9
$PUCSXDIR
 10
1.0
 20
0.0
 30
0.0
  9
$PUCSYDIR
 10
0.0
 20
1.0
 30
0.0
  9
$PUCSORTHOREF
  2

  9
$PUCSORTHOVIEW
 70
     0
  9
$PUCSORGTOP
 10
0.0
 20
0.0
 30
0.0
  9
$PUCSORGBOTTOM
 10
0.0
 20
0.0
 30
0.0
  9
$PUCSORGLEFT
 10
0.0
 20
0.0
 30
0.0
  9
$PUCSORGRIGHT
 10
0.0
 20
0.0
 30
0.0
  9
$PUCSORGFRONT
 10
0.0
 20
0.0
 30
0.0
  9
$PUCSORGBACK
 10
0.0
 20
0.0
 30
0.0
  9
$USERI1
 70
     0
  9
$USERI2
 70
     0
  9
$USERI3
 70
     0
  9
$USERI4
 70
     0
  9
$USERI5
 70
     0
  9
$USERR1
 40
0.0
  9
$USERR2
 40
0.0
  9
$USERR3
 40
0.0
  9
$USERR4
 40
0.0
  9
$USERR5
 40
0.0
  9
$WORLDVIEW
 70
     1
  9
$SHADEDGE
 70
     3
  9
$SHADEDIF
 70
    70
  9
$TILEMODE
 70
     1
  9
$MAXACTVP
 70
    64
  9
$PINSBASE
 10
0.0
 20
0.0
 30
0.0
  9
$PLIMCHECK
 70
     0
  9
$PEXTMIN
 10
1.000000000000000E+20
 20
1.000000000000000E+20
 30
1.000000000000000E+20
  9
$PEXTMAX
 10
-1.000000000000000E+20
 20
-1.000000000000000E+20
 30
-1.000000000000000E+20
  9
$PLIMMIN
 10
0.0
 20
0.0
  9
$PLIMMAX
 10
12.0
 20
9.0
  9
$UNITMODE
 70
     0
  9
$VISRETAIN
 70
     1
  9
$PLINEGEN
 70
     0
  9
$PSLTSCALE
 70
     1
  9
$TREEDEPTH
 70
  3020
  9
$CMLSTYLE
  2
Standard
  9
$CMLJUST
 70
     0
  9
$CMLSCALE
 40
1.0
  9
$PROXYGRAPHICS
 70
     1
  9
$MEASUREMENT
 70
     0
  9
$CELWEIGHT
370
    -1
  9
$ENDCAPS
280
     0
  9
$JOINSTYLE
280
     0
  9
$LWDISPLAY
290
     1
  9
$INSUNITS
 70
     1
  9
$HYPERLINKBASE
  1

  9
$STYLESHEET
  1

  9
$XEDIT
290
     1
  9
$CEPSNTYPE
380
     0
  9
$PSTYLEMODE
290
     1
  9
$FINGERPRINTGUID
  2
{49FED011-A05A-1B98-7BB2-9FFBC320BC49}
  9
$VERSIONGUID
  2
{FAEB1C32-E019-11D5-929B-00C0DF256EC4}
  9
$EXTNAMES
290
     1
  9
$PSVPSCALE
 40
0.0
  9
$OLESTARTUP
290
     0
  9
$SORTENTS
280
   127
  9
$INDEXCTL
280
     0
  9
$HIDETEXT
280
     1
  9
$XCLIPFRAME
280
     2
  9
$HALOGAP
280
     0
  9
$OBSCOLOR
 70
   257
  9
$OBSLTYPE
280
     0
  9
$INTERSECTIONDISPLAY
280
     0
  9
$INTERSECTIONCOLOR
 70
   257
  9
$DIMASSOC
280
     2
  9
$PROJECTNAME
  1

  9
$CAMERADISPLAY
290
     0
  9
$LENSLENGTH
 40
50.0
  9
$CAMERAHEIGHT
 40
0.0
  9
$STEPSPERSEC
 40
2.0
  9
$STEPSIZE
 40
6.0
  9
$3DDWFPREC
 40
2.0
  9
$PSOLWIDTH
 40
0.25
  9
$PSOLHEIGHT
 40
4.0
  9
$LOFTANG1
 40
1.570796326794897
  9
$LOFTANG2
 40
1.570796326794897
  9
$LOFTMAG1
 40
0.0
  9
$LOFTMAG2
 40
0.0
  9
$LOFTPARAM
 70
     7
  9
$LOFTNORMALS
280
     1
  9
$LATITUDE
 40
37.795
  9
$LONGITUDE
 40
-122.394
  9
$NORTHDIRECTION
 40
0.0
  9
$TIMEZONE
 70
 -8000
  9
$LIGHTGLYPHDISPLAY
280
     1
  9
$TILEMODELIGHTSYNCH
280
     1
  9
$CMATERIAL
347
3C
  9
$SOLIDHIST
280
     1
  9
$SHOWHIST
280
     1
  9
$DWFFRAME
280
     2
  9
$DGNFRAME
280
     2
  9
$REALWORLDSCALE
290
     1
  9
$INTERFERECOLOR
 62
   256
  9
$CSHADOW
280
     0
  9
$SHADOWPLANELOCATION
 40
0.0
  0
ENDSEC
  0
SECTION
  2
CLASSES
  0
CLASS
  1
ACDBDICTIONARYWDFLT
  2
AcDbDictionaryWithDefault
  3
ObjectDBX Classes
 90
        0
 91
        4
280
     0
281
     0
  0
CLASS
  1
VISUALSTYLE
  2
AcDbVisualStyle
  3
ObjectDBX Classes
 90
     4095
 91
        4
280
     0
281
     0
  0
CLASS
  1
MATERIAL
  2
AcDbMaterial
  3
ObjectDBX Classes
 90
     1153
 91
        4
280
     0
281
     0
  0
CLASS
  1
SUN
  2
AcDbSun
  3
SCENEOE
 90
     1024
 91
        4
280
     0
281
     0
  0
ENDSEC
  0
SECTION
  2
TABLES
  0
TABLE
  2
VPORT
  5
8
330
0
100
AcDbSymbolTable
 70
     1
  0
VPORT
  5
29
330
8
100
AcDbSymbolTableRecord
100
AcDbViewportTableRecord
  2
*Active
 70
     0
 10
0.0
 20
0.0
 11
1.0
 21
1.0
 12
0.0
 22
0.0
 13
0.0
 23
0.0
 14
0.5
 24
0.5
 15
0.5
 25
0.5
 16
0.0
 26
0.0
 36
1.0
 17
63.499999984125
 27
-89.00059456108309
 37
0.0
 40
178.0011891221662
 41
0.7134783795241226
 42
50.0
 43
0.0
 44
0.0
 50
0.0
 51
0.0
 71
     0
 72
   100
 73
     1
 74
     3
 75
     0
 76
     0
 77
     0
 78
     0
281
     0
 65
     1
110
0.0
120
0.0
130
0.0
111
1.0
121
0.0
131
0.0
112
0.0
122
1.0
132
0.0
 79
     0
146
0.0
 60
     3
 61
     5
292
     1
282
     1
141
0.0
142
0.0
 63
   250
361
3F
  0
ENDTAB
  0
TABLE
  2
LTYPE
  5
5
330
0
100
AcDbSymbolTable
 70
     2
  0
LTYPE
  5
14
330
5
100
AcDbSymbolTableRecord
100
AcDbLinetypeTableRecord
  2
ByBlock
 70
     0
  3

 72
    65
 73
     0
 40
0.0
  0
LTYPE
  5
15
330
5
100
AcDbSymbolTableRecord
100
AcDbLinetypeTableRecord
  2
ByLayer
 70
     0
  3

 72
    65
 73
     0
 40
0.0
  0
LTYPE
  5
16
330
5
100
AcDbSymbolTableRecord
100
AcDbLinetypeTableRecord
  2
Continuous
 70
     0
  3
Solid line
 72
    65
 73
     0
 40
0.0
  0
LTYPE
  5
110
330
5
100
AcDbSymbolTableRecord
100
AcDbLinetypeTableRecord
  2
AI-Linetype-1
 70
     0
  3
Adobe Illustrator Linetype No. 1
 72
    65
 73
     2
 40
1.411111110758333
 49
0.7055555553791667
 74
     0
 49
-0.7055555553791667
 74
     0
  0
ENDTAB
  0
TABLE
  2
LAYER
  5
2
330
0
100
AcDbSymbolTable
 70
     2
  0
LAYER
  5
10
330
2
100
AcDbSymbolTableRecord
100
AcDbLayerTableRecord
  2
0
 70
     0
 62
     7
  6
Continuous
370
    -3
390
F
347
3E
  0
LAYER
  5
40
330
2
100
AcDbSymbolTableRecord
100
AcDbLayerTableRecord
  2
_U+30EC_U+30A4_U+30E4_U+30FC 1
 70
     0
 62
     7
  6
Continuous
370
    -3
390
F
347
3E
  0
ENDTAB
  0
TABLE
  2
STYLE
  5
3
330
0
100
AcDbSymbolTable
 70
     1
  0
STYLE
  5
11
330
3
100
AcDbSymbolTableRecord
100
AcDbTextStyleTableRecord
  2
Standard
 70
     0
 40
0.0
 41
1.0
 50
0.0
 71
     0
 42
0.2
  3
txt
  4

  0
ENDTAB
  0
TABLE
  2
VIEW
  5
6
330
0
100
AcDbSymbolTable
 70
     0
  0
ENDTAB
  0
TABLE
  2
UCS
  5
7
330
0
100
AcDbSymbolTable
 70
     0
  0
ENDTAB
  0
TABLE
  2
APPID
  5
9
330
0
100
AcDbSymbolTable
 70
     1
  0
APPID
  5
12
330
9
100
AcDbSymbolTableRecord
100
AcDbRegAppTableRecord
  2
ACAD
 70
     0
  0
ENDTAB
  0
TABLE
  2
DIMSTYLE
  5
A
330
0
100
AcDbSymbolTable
 70
     1
100
AcDbDimStyleTable
  0
DIMSTYLE
105
27
330
A
100
AcDbSymbolTableRecord
100
AcDbDimStyleTableRecord
  2
Standard
 70
     0
178
     0
340
11
  0
ENDTAB
  0
TABLE
  2
BLOCK_RECORD
  5
1
330
0
100
AcDbSymbolTable
 70
     8
  0
BLOCK_RECORD
  5
1F
330
1
100
AcDbSymbolTableRecord
100
AcDbBlockTableRecord
  2
*Model_Space
340
22
 70
     0
280
     1
281
     0
  0
BLOCK_RECORD
  5
1B
330
1
100
AcDbSymbolTableRecord
100
AcDbBlockTableRecord
  2
*Paper_Space
340
1E
 70
     0
280
     1
281
     0
  0
BLOCK_RECORD
  5
23
330
1
100
AcDbSymbolTableRecord
100
AcDbBlockTableRecord
  2
*Paper_Space0
340
26
 70
     0
280
     1
281
     0
  0
BLOCK_RECORD
  5
54
330
1
100
AcDbSymbolTableRecord
100
AcDbBlockTableRecord
  2
block 2
340
0
102
{BLKREFS
331
55
102
}
 70
     0
280
     1
281
     0
  0
BLOCK_RECORD
  5
5A
330
1
100
AcDbSymbolTableRecord
100
AcDbBlockTableRecord
  2
block 3
340
0
102
{BLKREFS
331
5B
102
}
 70
     0
280
     1
281
     0
  0
BLOCK_RECORD
  5
61
330
1
100
AcDbSymbolTableRecord
100
AcDbBlockTableRecord
  2
block 4
340
0
102
{BLKREFS
331
62
102
}
 70
     0
280
     1
281
     0
  0
BLOCK_RECORD
  5
69
330
1
100
AcDbSymbolTableRecord
100
AcDbBlockTableRecord
  2
block 5
340
0
102
{BLKREFS
331
6A
102
}
 70
     0
280
     1
281
     0
  0
BLOCK_RECORD
  5
71
330
1
100
AcDbSymbolTableRecord
100
AcDbBlockTableRecord
  2
block 6
340
0
102
{BLKREFS
331
72
102
}
 70
     0
280
     1
281
     0
  0
BLOCK_RECORD
  5
A5
330
1
100
AcDbSymbolTableRecord
100
AcDbBlockTableRecord
  2
block 7
340
0
102
{BLKREFS
331
A6
102
}
 70
     0
280
     1
281
     0
  0
BLOCK_RECORD
  5
C2
330
1
100
AcDbSymbolTableRecord
100
AcDbBlockTableRecord
  2
block 8
340
0
102
{BLKREFS
331
C3
102
}
 70
     0
280
     1
281
     0
  0
ENDTAB
  0
ENDSEC
  0
SECTION
  2
BLOCKS
  0
BLOCK
  5
20
330
1F
100
AcDbEntity
  8
0
100
AcDbBlockBegin
  2
*Model_Space
 70
     0
 10
0.0
 20
0.0
 30
0.0
  3
*Model_Space
  1

  0
ENDBLK
  5
21
330
1F
100
AcDbEntity
  8
0
100
AcDbBlockEnd
  0
BLOCK
  5
1C
330
1B
100
AcDbEntity
 67
     1
  8
0
100
AcDbBlockBegin
  2
*Paper_Space
 70
     0
 10
0.0
 20
0.0
 30
0.0
  3
*Paper_Space
  1

  0
ENDBLK
  5
1D
330
1B
100
AcDbEntity
 67
     1
  8
0
100
AcDbBlockEnd
  0
BLOCK
  5
24
330
23
100
AcDbEntity
  8
0
100
AcDbBlockBegin
  2
*Paper_Space0
 70
     0
 10
0.0
 20
0.0
 30
0.0
  3
*Paper_Space0
  1

  0
ENDBLK
  5
25
330
23
100
AcDbEntity
  8
0
100
AcDbBlockEnd
  0
BLOCK
  5
56
330
54
100
AcDbEntity
  8
0
100
AcDbBlockBegin
  2
block 2
 70
     0
 10
0.0
 20
0.0
 30
0.0
  3
block 2
  1

  0
SPLINE
  5
58
330
54
100
AcDbEntity
  8
_U+30EC_U+30A4_U+30E4_U+30FC 1
370
     0
100
AcDbSpline
210
0.0
220
0.0
230
1.0
 70
    11
 71
     3
 72
    26
 73
    22
 74
     0
 42
0.0000000001
 43
0.0000000001
 12
1.0
 22
0.0
 32
0.0
 13
1.0
 23
0.0
 33
0.0
 40
0.0
 40
0.0
 40
0.0
 40
0.0
 40
1.0
 40
1.0
 40
1.0
 40
2.0
 40
2.0
 40
2.0
 40
3.0
 40
3.0
 40
3.0
 40
4.0
 40
4.0
 40
4.0
 40
5.0
 40
5.0
 40
5.0
 40
6.0
 40
6.0
 40
6.0
 40
7.0
 40
7.0
 40
7.0
 40
7.0
 10
80.5380642159766
 20
-78.47324623689211
 30
0.0
 10
80.5380642159766
 20
-78.47324623689211
 30
0.0
 10
79.43391111295402
 20
-78.47324623689211
 30
0.0
 10
79.43391111295402
 20
-78.47324623689211
 30
0.0
 10
79.43391111295402
 20
-78.47324623689211
 30
0.0
 10
79.43391111295402
 20
-78.80328638437905
 30
0.0
 10
79.43391111295402
 20
-78.80328638437905
 30
0.0
 10
79.43391111295402
 20
-78.80328638437905
 30
0.0
 10
79.28577200708828
 20
-78.80328638437905
 30
0.0
 10
79.28577200708828
 20
-78.80328638437905
 30
0.0
 10
79.27095809650172
 20
-78.47117917960095
 30
0.0
 10
79.1080050800494
 20
-78.42467039055009
 30
0.0
 10
78.9936279099391
 20
-78.39504256937694
 30
0.0
 10
78.9936279099391
 20
-78.39504256937694
 30
0.0
 10
78.9936279099391
 20
-78.24897052080235
 30
0.0
 10
78.9936279099391
 20
-78.24897052080235
 30
0.0
 10
78.9936279099391
 20
-78.24897052080235
 30
0.0
 10
80.5380642159766
 20
-78.24897052080235
 30
0.0
 10
80.5380642159766
 20
-78.24897052080235
 30
0.0
 10
80.5380642159766
 20
-78.24897052080235
 30
0.0
 10
80.5380642159766
 20
-78.47324623689211
 30
0.0
 10
80.5380642159766
 20
-78.47324623689211
 30
0.0
  0
HATCH
  5
59
330
54
100
AcDbEntity
  8
_U+30EC_U+30A4_U+30E4_U+30FC 1
 62
     7
420
 16777215
100
AcDbHatch
 10
0.0
 20
0.0
 30
0.0
210
0.0
220
0.0
230
1.0
  2
SOLID
 70
     1
 71
     0
 91
        1
 92
        1
 93
        1
 72
     4
 94
        3
 73
     0
 74
     1
 95
       26
 96
       22
 40
0.0
 40
0.0
 40
0.0
 40
0.0
 40
1.0
 40
1.0
 40
1.0
 40
2.0
 40
2.0
 40
2.0
 40
3.0
 40
3.0
 40
3.0
 40
4.0
 40
4.0
 40
4.0
 40
5.0
 40
5.0
 40
5.0
 40
6.0
 40
6.0
 40
6.0
 40
7.0
 40
7.0
 40
7.0
 40
7.0
 10
80.5380642159766
 20
-78.47324623689211
 10
80.5380642159766
 20
-78.47324623689211
 10
79.43391111295402
 20
-78.47324623689211
 10
79.43391111295402
 20
-78.47324623689211
 10
79.43391111295402
 20
-78.47324623689211
 10
79.43391111295402
 20
-78.80328638437905
 10
79.43391111295402
 20
-78.80328638437905
 10
79.43391111295402
 20
-78.80328638437905
 10
79.28577200708828
 20
-78.80328638437905
 10
79.28577200708828
 20
-78.80328638437905
 10
79.27095809650172
 20
-78.47117917960095
 10
79.1080050800494
 20
-78.42467039055009
 10
78.9936279099391
 20
-78.39504256937694
 10
78.9936279099391
 20
-78.39504256937694
 10
78.9936279099391
 20
-78.24897052080235
 10
78.9936279099391
 20
-78.24897052080235
 10
78.9936279099391
 20
-78.24897052080235
 10
80.5380642159766
 20
-78.24897052080235
 10
80.5380642159766
 20
-78.24897052080235
 10
80.5380642159766
 20
-78.24897052080235
 10
80.5380642159766
 20
-78.47324623689211
 10
80.5380642159766
 20
-78.47324623689211
 97
        0
 97
        0
 75
     2
 76
     1
 98
        0
  0
ENDBLK
  5
57
330
54
100
AcDbEntity
  8
0
100
AcDbBlockEnd
  0
BLOCK
  5
5C
330
5A
100
AcDbEntity
  8
0
100
AcDbBlockBegin
  2
block 3
 70
     0
 10
0.0
 20
0.0
 30
0.0
  3
block 3
  1

  0
SPLINE
  5
5E
330
5A
100
AcDbEntity
  8
_U+30EC_U+30A4_U+30E4_U+30FC 1
370
     0
100
AcDbSpline
210
0.0
220
0.0
230
1.0
 70
    11
 71
     3
 72
    32
 73
    28
 74
     0
 42
0.0000000001
 43
0.0000000001
 12
1.0
 22
0.0
 32
0.0
 13
1.0
 23
0.0
 33
0.0
 40
0.0
 40
0.0
 40
0.0
 40
0.0
 40
1.0
 40
1.0
 40
1.0
 40
2.0
 40
2.0
 40
2.0
 40
3.0
 40
3.0
 40
3.0
 40
4.0
 40
4.0
 40
4.0
 40
5.0
 40
5.0
 40
5.0
 40
6.0
 40
6.0
 40
6.0
 40
7.0
 40
7.0
 40
7.0
 40
8.0
 40
8.0
 40
8.0
 40
9.0
 40
9.0
 40
9.0
 40
9.0
 10
49.410765232873
 20
-101.1404242368677
 30
0.0
 10
49.23747692996494
 20
-101.1404242368677
 30
0.0
 10
48.99184162186663
 20
-101.0708333080656
 30
0.0
 10
48.95394557152888
 20
-100.7387261032875
 30
0.0
 10
48.95394557152888
 20
-100.7387261032875
 30
0.0
 10
49.16754149161437
 20
-100.7387261032875
 30
0.0
 10
49.16754149161437
 20
-100.7387261032875
 30
0.0
 10
49.17822128761864
 20
-100.7979817456338
 30
0.0
 10
49.20991616608294
 20
-100.9454318324025
 30
0.0
 10
49.41283229016415
 20
-100.9454318324025
 30
0.0
 10
49.70497638731334
 20
-100.9454318324025
 30
0.0
 10
49.74287243765109
 20
-100.6160807040126
 30
0.0
 10
49.75561929094651
 20
-100.4107530130918
 30
0.0
 10
49.66466877013592
 20
-100.4906792283496
 30
0.0
 10
49.59714489862502
 20
-100.5478678134047
 30
0.0
 10
49.41524385700383
 20
-100.5478678134047
 30
0.0
 10
49.23540987267379
 20
-100.5478678134047
 30
0.0
 10
48.93258597952033
 20
-100.4424478915561
 30
0.0
 10
48.93258597952033
 20
-100.0359266242966
 30
0.0
 10
48.93258597952033
 20
-99.71691078236245
 30
0.0
 10
49.13171249856777
 20
-99.49642467130646
 30
0.0
 10
49.44900579275928
 20
-99.49642467130646
 30
0.0
 10
49.96301403915855
 20
-99.49642467130646
 30
0.0
 10
49.97369383516283
 20
-100.0510850444317
 30
0.0
 10
49.97369383516283
 20
-100.2646809645172
 30
0.0
 10
49.97369383516283
 20
-100.4948133429319
 30
0.0
 10
49.95440130044543
 20
-101.1404242368677
 30
0.0
 10
49.410765232873
 20
-101.1404242368677
 30
0.0
  0
SPLINE
  5
5F
330
5A
100
AcDbEntity
  8
_U+30EC_U+30A4_U+30E4_U+30FC 1
370
     0
100
AcDbSpline
210
0.0
220
0.0
230
1.0
 70
    11
 71
     3
 72
    17
 73
    13
 74
     0
 42
0.0000000001
 43
0.0000000001
 12
1.0
 22
0.0
 32
0.0
 13
1.0
 23
0.0
 33
0.0
 40
0.0
 40
0.0
 40
0.0
 40
0.0
 40
1.0
 40
1.0
 40
1.0
 40
2.0
 40
2.0
 40
2.0
 40
3.0
 40
3.0
 40
3.0
 40
4.0
 40
4.0
 40
4.0
 40
4.0
 10
49.45107285005043
 20
-99.68935001848044
 30
0.0
 10
49.33256156535784
 20
-99.68935001848044
 30
0.0
 10
49.15686169561009
 20
-99.7465386035356
 30
0.0
 10
49.15686169561009
 20
-100.0317925097143
 30
0.0
 10
49.15686169561009
 20
-100.2584797926437
 30
0.0
 10
49.29673257231124
 20
-100.3535644280366
 30
0.0
 10
49.43212482488156
 20
-100.3535644280366
 30
0.0
 10
49.69429659130907
 20
-100.3535644280366
 30
0.0
 10
49.73253715119534
 20
-100.1441026225334
 30
0.0
 10
49.73253715119534
 20
-100.027658395132
 30
0.0
 10
49.73253715119534
 20
-99.85195852538423
 30
0.0
 10
49.63710800625392
 20
-99.68935001848044
 30
0.0
 10
49.45107285005043
 20
-99.68935001848044
 30
0.0
  0
HATCH
  5
60
330
5A
100
AcDbEntity
  8
_U+30EC_U+30A4_U+30E4_U+30FC 1
 62
     7
420
 16777215
100
AcDbHatch
 10
0.0
 20
0.0
 30
0.0
210
0.0
220
0.0
230
1.0
  2
SOLID
 70
     1
 71
     0
 91
        2
 92
        1
 93
        1
 72
     4
 94
        3
 73
     0
 74
     1
 95
       32
 96
       28
 40
0.0
 40
0.0
 40
0.0
 40
0.0
 40
1.0
 40
1.0
 40
1.0
 40
2.0
 40
2.0
 40
2.0
 40
3.0
 40
3.0
 40
3.0
 40
4.0
 40
4.0
 40
4.0
 40
5.0
 40
5.0
 40
5.0
 40
6.0
 40
6.0
 40
6.0
 40
7.0
 40
7.0
 40
7.0
 40
8.0
 40
8.0
 40
8.0
 40
9.0
 40
9.0
 40
9.0
 40
9.0
 10
49.410765232873
 20
-101.1404242368677
 10
49.23747692996494
 20
-101.1404242368677
 10
48.99184162186663
 20
-101.0708333080656
 10
48.95394557152888
 20
-100.7387261032875
 10
48.95394557152888
 20
-100.7387261032875
 10
49.16754149161437
 20
-100.7387261032875
 10
49.16754149161437
 20
-100.7387261032875
 10
49.17822128761864
 20
-100.7979817456338
 10
49.20991616608294
 20
-100.9454318324025
 10
49.41283229016415
 20
-100.9454318324025
 10
49.70497638731334
 20
-100.9454318324025
 10
49.74287243765109
 20
-100.6160807040126
 10
49.75561929094651
 20
-100.4107530130918
 10
49.66466877013592
 20
-100.4906792283496
 10
49.59714489862502
 20
-100.5478678134047
 10
49.41524385700383
 20
-100.5478678134047
 10
49.23540987267379
 20
-100.5478678134047
 10
48.93258597952033
 20
-100.4424478915561
 10
48.93258597952033
 20
-100.0359266242966
 10
48.93258597952033
 20
-99.71691078236245
 10
49.13171249856777
 20
-99.49642467130646
 10
49.44900579275928
 20
-99.49642467130646
 10
49.96301403915855
 20
-99.49642467130646
 10
49.97369383516283
 20
-100.0510850444317
 10
49.97369383516283
 20
-100.2646809645172
 10
49.97369383516283
 20
-100.4948133429319
 10
49.95440130044543
 20
-101.1404242368677
 10
49.410765232873
 20
-101.1404242368677
 97
        0
 97
        0
 92
        1
 93
        1
 72
     4
 94
        3
 73
     0
 74
     1
 95
       17
 96
       13
 40
0.0
 40
0.0
 40
0.0
 40
0.0
 40
1.0
 40
1.0
 40
1.0
 40
2.0
 40
2.0
 40
2.0
 40
3.0
 40
3.0
 40
3.0
 40
4.0
 40
4.0
 40
4.0
 40
4.0
 10
49.45107285005043
 20
-99.68935001848044
 10
49.33256156535784
 20
-99.68935001848044
 10
49.15686169561009
 20
-99.7465386035356
 10
49.15686169561009
 20
-100.0317925097143
 10
49.15686169561009
 20
-100.2584797926437
 10
49.29673257231124
 20
-100.3535644280366
 10
49.43212482488156
 20
-100.3535644280366
 10
49.69429659130907
 20
-100.3535644280366
 10
49.73253715119534
 20
-100.1441026225334
 10
49.73253715119534
 20
-100.027658395132
 10
49.73253715119534
 20
-99.85195852538423
 10
49.63710800625392
 20
-99.68935001848044
 10
49.45107285005043
 20
-99.68935001848044
 97
        0
 97
        0
 75
     2
 76
     1
 98
        0
  0
ENDBLK
  5
5D
330
5A
100
AcDbEntity
  8
0
100
AcDbBlockEnd
  0
BLOCK
  5
63
330
61
100
AcDbEntity
  8
0
100
AcDbBlockBegin
  2
block 4
 70
     0
 10
0.0
 20
0.0
 30
0.0
  3
block 4
  1

  0
SPLINE
  5
65
330
61
100
AcDbEntity
  8
_U+30EC_U+30A4_U+30E4_U+30FC 1
370
     0
100
AcDbSpline
210
0.0
220
0.0
230
1.0
 70
    11
 71
     3
 72
    26
 73
    22
 74
     0
 42
0.0000000001
 43
0.0000000001
 12
1.0
 22
0.0
 32
0.0
 13
1.0
 23
0.0
 33
0.0
 40
0.0
 40
0.0
 40
0.0
 40
0.0
 40
1.0
 40
1.0
 40
1.0
 40
2.0
 40
2.0
 40
2.0
 40
3.0
 40
3.0
 40
3.0
 40
4.0
 40
4.0
 40
4.0
 40
5.0
 40
5.0
 40
5.0
 40
6.0
 40
6.0
 40
6.0
 40
7.0
 40
7.0
 40
7.0
 40
7.0
 10
63.81005857779749
 20
-101.089436823686
 30
0.0
 10
63.81005857779749
 20
-101.089436823686
 30
0.0
 10
63.81005857779749
 20
-99.98562823021193
 30
0.0
 10
63.81005857779749
 20
-99.98562823021193
 30
0.0
 10
63.81005857779749
 20
-99.98562823021193
 30
0.0
 10
63.48001843031055
 20
-99.98562823021193
 30
0.0
 10
63.48001843031055
 20
-99.98562823021193
 30
0.0
 10
63.48001843031055
 20
-99.98562823021193
 30
0.0
 10
63.48001843031055
 20
-99.83748912434619
 30
0.0
 10
63.48001843031055
 20
-99.83748912434619
 30
0.0
 10
63.81212563508864
 20
-99.82233070421108
 30
0.0
 10
63.85863442413951
 20
-99.6597221973073
 30
0.0
 10
63.88826224531266
 20
-99.545345027197
 30
0.0
 10
63.88826224531266
 20
-99.545345027197
 30
0.0
 10
64.03433429388726
 20
-99.545345027197
 30
0.0
 10
64.03433429388726
 20
-99.545345027197
 30
0.0
 10
64.03433429388726
 20
-99.545345027197
 30
0.0
 10
64.03433429388726
 20
-101.089436823686
 30
0.0
 10
64.03433429388726
 20
-101.089436823686
 30
0.0
 10
64.03433429388726
 20
-101.089436823686
 30
0.0
 10
63.81005857779749
 20
-101.089436823686
 30
0.0
 10
63.81005857779749
 20
-101.089436823686
 30
0.0
  0
HATCH
  5
66
330
61
100
AcDbEntity
  8
_U+30EC_U+30A4_U+30E4_U+30FC 1
 62
     7
420
 16777215
100
AcDbHatch
 10
0.0
 20
0.0
 30
0.0
210
0.0
220
0.0
230
1.0
  2
SOLID
 70
     1
 71
     0
 91
        1
 92
        1
 93
        1
 72
     4
 94
        3
 73
     0
 74
     1
 95
       26
 96
       22
 40
0.0
 40
0.0
 40
0.0
 40
0.0
 40
1.0
 40
1.0
 40
1.0
 40
2.0
 40
2.0
 40
2.0
 40
3.0
 40
3.0
 40
3.0
 40
4.0
 40
4.0
 40
4.0
 40
5.0
 40
5.0
 40
5.0
 40
6.0
 40
6.0
 40
6.0
 40
7.0
 40
7.0
 40
7.0
 40
7.0
 10
63.81005857779749
 20
-101.089436823686
 10
63.81005857779749
 20
-101.089436823686
 10
63.81005857779749
 20
-99.98562823021193
 10
63.81005857779749
 20
-99.98562823021193
 10
63.81005857779749
 20
-99.98562823021193
 10
63.48001843031055
 20
-99.98562823021193
 10
63.48001843031055
 20
-99.98562823021193
 10
63.48001843031055
 20
-99.98562823021193
 10
63.48001843031055
 20
-99.83748912434619
 10
63.48001843031055
 20
-99.83748912434619
 10
63.81212563508864
 20
-99.82233070421108
 10
63.85863442413951
 20
-99.6597221973073
 10
63.88826224531266
 20
-99.545345027197
 10
63.88826224531266
 20
-99.545345027197
 10
64.03433429388726
 20
-99.545345027197
 10
64.03433429388726
 20
-99.545345027197
 10
64.03433429388726
 20
-99.545345027197
 10
64.03433429388726
 20
-101.089436823686
 10
64.03433429388726
 20
-101.089436823686
 10
64.03433429388726
 20
-101.089436823686
 10
63.81005857779749
 20
-101.089436823686
 10
63.81005857779749
 20
-101.089436823686
 97
        0
 97
        0
 75
     2
 76
     1
 98
        0
  0
SPLINE
  5
67
330
61
100
AcDbEntity
  8
_U+30EC_U+30A4_U+30E4_U+30FC 1
370
     0
100
AcDbSpline
210
0.0
220
0.0
230
1.0
 70
    11
 71
     3
 72
    53
 73
    49
 74
     0
 42
0.0000000001
 43
0.0000000001
 12
1.0
 22
0.0
 32
0.0
 13
1.0
 23
0.0
 33
0.0
 40
0.0
 40
0.0
 40
0.0
 40
0.0
 40
1.0
 40
1.0
 40
1.0
 40
2.0
 40
2.0
 40
2.0
 40
3.0
 40
3.0
 40
3.0
 40
4.0
 40
4.0
 40
4.0
 40
5.0
 40
5.0
 40
5.0
 40
6.0
 40
6.0
 40
6.0
 40
7.0
 40
7.0
 40
7.0
 40
8.0
 40
8.0
 40
8.0
 40
9.0
 40
9.0
 40
9.0
 40
10.0
 40
10.0
 40
10.0
 40
11.0
 40
11.0
 40
11.0
 40
12.0
 40
12.0
 40
12.0
 40
13.0
 40
13.0
 40
13.0
 40
14.0
 40
14.0
 40
14.0
 40
15.0
 40
15.0
 40
15.0
 40
16.0
 40
16.0
 40
16.0
 40
16.0
 10
65.01653101673197
 20
-101.1404242368677
 30
0.0
 10
64.9383273492168
 20
-101.1404242368677
 30
0.0
 10
64.83669703240194
 20
-101.1231987594414
 30
0.0
 10
64.73506671558707
 20
-101.0598090025128
 30
0.0
 10
64.561778412679
 20
-100.9502549660819
 30
0.0
 10
64.54041882067045
 20
-100.8186523185453
 30
0.0
 10
64.52147079550159
 20
-100.7111653394055
 30
0.0
 10
64.52147079550159
 20
-100.7111653394055
 30
0.0
 10
64.74367945430019
 20
-100.7111653394055
 30
0.0
 10
64.74367945430019
 20
-100.7111653394055
 30
0.0
 10
64.79845647251567
 20
-100.9096028393559
 30
0.0
 10
64.92558049592138
 20
-100.9392306605291
 30
0.0
 10
65.01859807402313
 20
-100.9392306605291
 30
0.0
 10
65.15812444117574
 20
-100.9392306605291
 30
0.0
 10
65.3103976616238
 20
-100.8400119105539
 30
0.0
 10
65.3103976616238
 20
-100.607123455751
 30
0.0
 10
65.3103976616238
 20
-100.3514973707455
 30
0.0
 10
65.13056367729375
 20
-100.2812174228464
 30
0.0
 10
65.00998533531
 20
-100.2812174228464
 30
0.0
 10
64.97829045684571
 20
-100.2812174228464
 30
0.0
 10
64.83669703240194
 20
-100.2812174228464
 30
0.0
 10
64.74781356888249
 20
-100.4107530130918
 30
0.0
 10
64.74781356888249
 20
-100.4107530130918
 30
0.0
 10
64.57211369913475
 20
-100.3914604783744
 30
0.0
 10
64.57211369913475
 20
-100.3914604783744
 30
0.0
 10
64.57211369913475
 20
-100.3914604783744
 30
0.0
 10
64.69269204111849
 20
-99.545345027197
 30
0.0
 10
64.69269204111849
 20
-99.545345027197
 30
0.0
 10
64.69269204111849
 20
-99.545345027197
 30
0.0
 10
65.47128362078496
 20
-99.545345027197
 30
0.0
 10
65.47128362078496
 20
-99.545345027197
 30
0.0
 10
65.47128362078496
 20
-99.545345027197
 30
0.0
 10
65.47128362078496
 20
-99.73964841256509
 30
0.0
 10
65.47128362078496
 20
-99.73964841256509
 30
0.0
 10
65.47128362078496
 20
-99.73964841256509
 30
0.0
 10
64.85564505757081
 20
-99.73964841256509
 30
0.0
 10
64.85564505757081
 20
-99.73964841256509
 30
0.0
 10
64.85564505757081
 20
-99.73964841256509
 30
0.0
 10
64.79018824335107
 20
-100.1627061381538
 30
0.0
 10
64.79018824335107
 20
-100.1627061381538
 30
0.0
 10
64.85151094298851
 20
-100.1289442023983
 30
0.0
 10
64.93384872508598
 20
-100.0889810947694
 30
0.0
 10
65.05236000977858
 20
-100.0889810947694
 30
0.0
 10
65.3062635470415
 20
-100.0889810947694
 30
0.0
 10
65.54328611642669
 20
-100.2750162509729
 30
0.0
 10
65.54328611642669
 20
-100.5885199401307
 30
0.0
 10
65.54328611642669
 20
-100.9054687247736
 30
0.0
 10
65.31901040033692
 20
-101.1404242368677
 30
0.0
 10
65.01653101673197
 20
-101.1404242368677
 30
0.0
  0
HATCH
  5
68
330
61
100
AcDbEntity
  8
_U+30EC_U+30A4_U+30E4_U+30FC 1
 62
     7
420
 16777215
100
AcDbHatch
 10
0.0
 20
0.0
 30
0.0
210
0.0
220
0.0
230
1.0
  2
SOLID
 70
     1
 71
     0
 91
        1
 92
        1
 93
        1
 72
     4
 94
        3
 73
     0
 74
     1
 95
       53
 96
       49
 40
0.0
 40
0.0
 40
0.0
 40
0.0
 40
1.0
 40
1.0
 40
1.0
 40
2.0
 40
2.0
 40
2.0
 40
3.0
 40
3.0
 40
3.0
 40
4.0
 40
4.0
 40
4.0
 40
5.0
 40
5.0
 40
5.0
 40
6.0
 40
6.0
 40
6.0
 40
7.0
 40
7.0
 40
7.0
 40
8.0
 40
8.0
 40
8.0
 40
9.0
 40
9.0
 40
9.0
 40
10.0
 40
10.0
 40
10.0
 40
11.0
 40
11.0
 40
11.0
 40
12.0
 40
12.0
 40
12.0
 40
13.0
 40
13.0
 40
13.0
 40
14.0
 40
14.0
 40
14.0
 40
15.0
 40
15.0
 40
15.0
 40
16.0
 40
16.0
 40
16.0
 40
16.0
 10
65.01653101673197
 20
-101.1404242368677
 10
64.9383273492168
 20
-101.1404242368677
 10
64.83669703240194
 20
-101.1231987594414
 10
64.73506671558707
 20
-101.0598090025128
 10
64.561778412679
 20
-100.9502549660819
 10
64.54041882067045
 20
-100.8186523185453
 10
64.52147079550159
 20
-100.7111653394055
 10
64.52147079550159
 20
-100.7111653394055
 10
64.74367945430019
 20
-100.7111653394055
 10
64.74367945430019
 20
-100.7111653394055
 10
64.79845647251567
 20
-100.9096028393559
 10
64.92558049592138
 20
-100.9392306605291
 10
65.01859807402313
 20
-100.9392306605291
 10
65.15812444117574
 20
-100.9392306605291
 10
65.3103976616238
 20
-100.8400119105539
 10
65.3103976616238
 20
-100.607123455751
 10
65.3103976616238
 20
-100.3514973707455
 10
65.13056367729375
 20
-100.2812174228464
 10
65.00998533531
 20
-100.2812174228464
 10
64.97829045684571
 20
-100.2812174228464
 10
64.83669703240194
 20
-100.2812174228464
 10
64.74781356888249
 20
-100.4107530130918
 10
64.74781356888249
 20
-100.4107530130918
 10
64.57211369913475
 20
-100.3914604783744
 10
64.57211369913475
 20
-100.3914604783744
 10
64.57211369913475
 20
-100.3914604783744
 10
64.69269204111849
 20
-99.545345027197
 10
64.69269204111849
 20
-99.545345027197
 10
64.69269204111849
 20
-99.545345027197
 10
65.47128362078496
 20
-99.545345027197
 10
65.47128362078496
 20
-99.545345027197
 10
65.47128362078496
 20
-99.545345027197
 10
65.47128362078496
 20
-99.73964841256509
 10
65.47128362078496
 20
-99.73964841256509
 10
65.47128362078496
 20
-99.73964841256509
 10
64.85564505757081
 20
-99.73964841256509
 10
64.85564505757081
 20
-99.73964841256509
 10
64.85564505757081
 20
-99.73964841256509
 10
64.79018824335107
 20
-100.1627061381538
 10
64.79018824335107
 20
-100.1627061381538
 10
64.85151094298851
 20
-100.1289442023983
 10
64.93384872508598
 20
-100.0889810947694
 10
65.05236000977858
 20
-100.0889810947694
 10
65.3062635470415
 20
-100.0889810947694
 10
65.54328611642669
 20
-100.2750162509729
 10
65.54328611642669
 20
-100.5885199401307
 10
65.54328611642669
 20
-100.9054687247736
 10
65.31901040033692
 20
-101.1404242368677
 10
65.01653101673197
 20
-101.1404242368677
 97
        0
 97
        0
 75
     2
 76
     1
 98
        0
  0
ENDBLK
  5
64
330
61
100
AcDbEntity
  8
0
100
AcDbBlockEnd
  0
BLOCK
  5
6B
330
69
100
AcDbEntity
  8
0
100
AcDbBlockBegin
  2
block 5
 70
     0
 10
0.0
 20
0.0
 30
0.0
  3
block 5
  1

  0
SPLINE
  5
6D
330
69
100
AcDbEntity
  8
_U+30EC_U+30A4_U+30E4_U+30FC 1
370
     0
100
AcDbSpline
210
0.0
220
0.0
230
1.0
 70
    11
 71
     3
 72
    44
 73
    40
 74
     0
 42
0.0000000001
 43
0.0000000001
 12
1.0
 22
0.0
 32
0.0
 13
1.0
 23
0.0
 33
0.0
 40
0.0
 40
0.0
 40
0.0
 40
0.0
 40
1.0
 40
1.0
 40
1.0
 40
2.0
 40
2.0
 40
2.0
 40
3.0
 40
3.0
 40
3.0
 40
4.0
 40
4.0
 40
4.0
 40
5.0
 40
5.0
 40
5.0
 40
6.0
 40
6.0
 40
6.0
 40
7.0
 40
7.0
 40
7.0
 40
8.0
 40
8.0
 40
8.0
 40
9.0
 40
9.0
 40
9.0
 40
10.0
 40
10.0
 40
10.0
 40
11.0
 40
11.0
 40
11.0
 40
12.0
 40
12.0
 40
12.0
 40
13.0
 40
13.0
 40
13.0
 40
13.0
 10
57.91067706885567
 20
-76.31730548222276
 30
0.0
 10
57.69294703418787
 20
-76.47612438409278
 30
0.0
 10
57.59992945608613
 20
-76.55019393702565
 30
0.0
 10
57.55100910019559
 20
-76.69385441876057
 30
0.0
 10
57.55100910019559
 20
-76.69385441876057
 30
0.0
 10
58.32960067986205
 20
-76.69385441876057
 30
0.0
 10
58.32960067986205
 20
-76.69385441876057
 30
0.0
 10
58.32960067986205
 20
-76.69385441876057
 30
0.0
 10
58.32960067986205
 20
-76.89918210968146
 30
0.0
 10
58.32960067986205
 20
-76.89918210968146
 30
0.0
 10
58.32960067986205
 20
-76.89918210968146
 30
0.0
 10
57.3015841870635
 20
-76.89918210968146
 30
0.0
 10
57.3015841870635
 20
-76.89918210968146
 30
0.0
 10
57.3332790655278
 20
-76.54158119831253
 30
0.0
 10
57.39873587974754
 20
-76.46337753079736
 30
0.0
 10
57.78389755499848
 20
-76.16503226177471
 30
0.0
 10
58.03986814955253
 20
-75.9662502522758
 30
0.0
 10
58.10532496377228
 20
-75.89838187121639
 30
0.0
 10
58.10532496377228
 20
-75.76092256135492
 30
0.0
 10
58.10532496377228
 20
-75.64241127666232
 30
0.0
 10
58.03332246813056
 20
-75.51149764822283
 30
0.0
 10
57.83660751592279
 20
-75.51149764822283
 30
0.0
 10
57.57650280678643
 20
-75.51149764822283
 30
0.0
 10
57.56789006807331
 20
-75.74197453618604
 30
0.0
 10
57.56375595349101
 20
-75.85841876358748
 30
0.0
 10
57.56375595349101
 20
-75.85841876358748
 30
0.0
 10
57.33948023740125
 20
-75.85841876358748
 30
0.0
 10
57.33948023740125
 20
-75.85841876358748
 30
0.0
 10
57.34809297611437
 20
-75.73129474018177
 30
0.0
 10
57.35877277211864
 20
-75.61932913691115
 30
0.0
 10
57.43904349692497
 20
-75.50081785221855
 30
0.0
 10
57.54894204290444
 20
-75.33993189305738
 30
0.0
 10
57.73532170865645
 20
-75.30616995730193
 30
0.0
 10
57.85142142650937
 20
-75.30616995730193
 30
0.0
 10
58.12875161307198
 20
-75.30616995730193
 30
0.0
 10
58.33614636128402
 20
-75.49013805621428
 30
0.0
 10
58.33614636128402
 20
-75.76298961864606
 30
0.0
 10
58.33614636128402
 20
-75.99174395886665
 30
0.0
 10
58.21970213388258
 20
-76.09096270884184
 30
0.0
 10
57.91067706885567
 20
-76.31730548222276
 30
0.0
  0
HATCH
  5
6E
330
69
100
AcDbEntity
  8
_U+30EC_U+30A4_U+30E4_U+30FC 1
 62
     7
420
 16777215
100
AcDbHatch
 10
0.0
 20
0.0
 30
0.0
210
0.0
220
0.0
230
1.0
  2
SOLID
 70
     1
 71
     0
 91
        1
 92
        1
 93
        1
 72
     4
 94
        3
 73
     0
 74
     1
 95
       44
 96
       40
 40
0.0
 40
0.0
 40
0.0
 40
0.0
 40
1.0
 40
1.0
 40
1.0
 40
2.0
 40
2.0
 40
2.0
 40
3.0
 40
3.0
 40
3.0
 40
4.0
 40
4.0
 40
4.0
 40
5.0
 40
5.0
 40
5.0
 40
6.0
 40
6.0
 40
6.0
 40
7.0
 40
7.0
 40
7.0
 40
8.0
 40
8.0
 40
8.0
 40
9.0
 40
9.0
 40
9.0
 40
10.0
 40
10.0
 40
10.0
 40
11.0
 40
11.0
 40
11.0
 40
12.0
 40
12.0
 40
12.0
 40
13.0
 40
13.0
 40
13.0
 40
13.0
 10
57.91067706885567
 20
-76.31730548222276
 10
57.69294703418787
 20
-76.47612438409278
 10
57.59992945608613
 20
-76.55019393702565
 10
57.55100910019559
 20
-76.69385441876057
 10
57.55100910019559
 20
-76.69385441876057
 10
58.32960067986205
 20
-76.69385441876057
 10
58.32960067986205
 20
-76.69385441876057
 10
58.32960067986205
 20
-76.69385441876057
 10
58.32960067986205
 20
-76.89918210968146
 10
58.32960067986205
 20
-76.89918210968146
 10
58.32960067986205
 20
-76.89918210968146
 10
57.3015841870635
 20
-76.89918210968146
 10
57.3015841870635
 20
-76.89918210968146
 10
57.3332790655278
 20
-76.54158119831253
 10
57.39873587974754
 20
-76.46337753079736
 10
57.78389755499848
 20
-76.16503226177471
 10
58.03986814955253
 20
-75.9662502522758
 10
58.10532496377228
 20
-75.89838187121639
 10
58.10532496377228
 20
-75.76092256135492
 10
58.10532496377228
 20
-75.64241127666232
 10
58.03332246813056
 20
-75.51149764822283
 10
57.83660751592279
 20
-75.51149764822283
 10
57.57650280678643
 20
-75.51149764822283
 10
57.56789006807331
 20
-75.74197453618604
 10
57.56375595349101
 20
-75.85841876358748
 10
57.56375595349101
 20
-75.85841876358748
 10
57.33948023740125
 20
-75.85841876358748
 10
57.33948023740125
 20
-75.85841876358748
 10
57.34809297611437
 20
-75.73129474018177
 10
57.35877277211864
 20
-75.61932913691115
 10
57.43904349692497
 20
-75.50081785221855
 10
57.54894204290444
 20
-75.33993189305738
 10
57.73532170865645
 20
-75.30616995730193
 10
57.85142142650937
 20
-75.30616995730193
 10
58.12875161307198
 20
-75.30616995730193
 10
58.33614636128402
 20
-75.49013805621428
 10
58.33614636128402
 20
-75.76298961864606
 10
58.33614636128402
 20
-75.99174395886665
 10
58.21970213388258
 20
-76.09096270884184
 10
57.91067706885567
 20
-76.31730548222276
 97
        0
 97
        0
 75
     2
 76
     1
 98
        0
  0
SPLINE
  5
6F
330
69
100
AcDbEntity
  8
_U+30EC_U+30A4_U+30E4_U+30FC 1
370
     0
100
AcDbSpline
210
0.0
220
0.0
230
1.0
 70
    11
 71
     3
 72
    26
 73
    22
 74
     0
 42
0.0000000001
 43
0.0000000001
 12
1.0
 22
0.0
 32
0.0
 13
1.0
 23
0.0
 33
0.0
 40
0.0
 40
0.0
 40
0.0
 40
0.0
 40
1.0
 40
1.0
 40
1.0
 40
2.0
 40
2.0
 40
2.0
 40
3.0
 40
3.0
 40
3.0
 40
4.0
 40
4.0
 40
4.0
 40
5.0
 40
5.0
 40
5.0
 40
6.0
 40
6.0
 40
6.0
 40
7.0
 40
7.0
 40
7.0
 40
7.0
 10
58.90562064499582
 20
-76.89918210968146
 30
0.0
 10
58.90562064499582
 20
-76.89918210968146
 30
0.0
 10
58.66859807561063
 20
-76.89918210968146
 30
0.0
 10
58.66859807561063
 20
-76.89918210968146
 30
0.0
 10
58.69409178220148
 20
-76.59015704465455
 30
0.0
 10
58.88667261982695
 20
-76.07201468367298
 30
0.0
 10
59.2928493775379
 20
-75.56627466643829
 30
0.0
 10
59.2928493775379
 20
-75.56627466643829
 30
0.0
 10
58.45500215552514
 20
-75.56627466643829
 30
0.0
 10
58.45500215552514
 20
-75.56627466643829
 30
0.0
 10
58.45500215552514
 20
-75.56627466643829
 30
0.0
 10
58.45500215552514
 20
-75.35474580364395
 30
0.0
 10
58.45500215552514
 20
-75.35474580364395
 30
0.0
 10
58.45500215552514
 20
-75.35474580364395
 30
0.0
 10
59.52987194692309
 20
-75.35474580364395
 30
0.0
 10
59.52987194692309
 20
-75.35474580364395
 30
0.0
 10
59.52987194692309
 20
-75.35474580364395
 30
0.0
 10
59.52987194692309
 20
-75.56627466643829
 30
0.0
 10
59.52987194692309
 20
-75.56627466643829
 30
0.0
 10
59.2060329713096
 20
-75.85635170629634
 30
0.0
 10
58.93938258075127
 20
-76.44856362021078
 30
0.0
 10
58.90562064499582
 20
-76.89918210968146
 30
0.0
  0
HATCH
  5
70
330
69
100
AcDbEntity
  8
_U+30EC_U+30A4_U+30E4_U+30FC 1
 62
     7
420
 16777215
100
AcDbHatch
 10
0.0
 20
0.0
 30
0.0
210
0.0
220
0.0
230
1.0
  2
SOLID
 70
     1
 71
     0
 91
        1
 92
        1
 93
        1
 72
     4
 94
        3
 73
     0
 74
     1
 95
       26
 96
       22
 40
0.0
 40
0.0
 40
0.0
 40
0.0
 40
1.0
 40
1.0
 40
1.0
 40
2.0
 40
2.0
 40
2.0
 40
3.0
 40
3.0
 40
3.0
 40
4.0
 40
4.0
 40
4.0
 40
5.0
 40
5.0
 40
5.0
 40
6.0
 40
6.0
 40
6.0
 40
7.0
 40
7.0
 40
7.0
 40
7.0
 10
58.90562064499582
 20
-76.89918210968146
 10
58.90562064499582
 20
-76.89918210968146
 10
58.66859807561063
 20
-76.89918210968146
 10
58.66859807561063
 20
-76.89918210968146
 10
58.69409178220148
 20
-76.59015704465455
 10
58.88667261982695
 20
-76.07201468367298
 10
59.2928493775379
 20
-75.56627466643829
 10
59.2928493775379
 20
-75.56627466643829
 10
58.45500215552514
 20
-75.56627466643829
 10
58.45500215552514
 20
-75.56627466643829
 10
58.45500215552514
 20
-75.56627466643829
 10
58.45500215552514
 20
-75.35474580364395
 10
58.45500215552514
 20
-75.35474580364395
 10
58.45500215552514
 20
-75.35474580364395
 10
59.52987194692309
 20
-75.35474580364395
 10
59.52987194692309
 20
-75.35474580364395
 10
59.52987194692309
 20
-75.35474580364395
 10
59.52987194692309
 20
-75.56627466643829
 10
59.52987194692309
 20
-75.56627466643829
 10
59.2060329713096
 20
-75.85635170629634
 10
58.93938258075127
 20
-76.44856362021078
 10
58.90562064499582
 20
-76.89918210968146
 97
        0
 97
        0
 75
     2
 76
     1
 98
        0
  0
ENDBLK
  5
6C
330
69
100
AcDbEntity
  8
0
100
AcDbBlockEnd
  0
BLOCK
  5
73
330
71
100
AcDbEntity
  8
0
100
AcDbBlockBegin
  2
block 6
 70
     0
 10
0.0
 20
0.0
 30
0.0
  3
block 6
  1

  0
SPLINE
  5
75
330
71
100
AcDbEntity
  8
_U+30EC_U+30A4_U+30E4_U+30FC 1
370
     0
100
AcDbSpline
210
0.0
220
0.0
230
1.0
 70
    11
 71
     3
 72
    62
 73
    58
 74
     0
 42
0.0000000001
 43
0.0000000001
 12
1.0
 22
0.0
 32
0.0
 13
1.0
 23
0.0
 33
0.0
 40
0.0
 40
0.0
 40
0.0
 40
0.0
 40
1.0
 40
1.0
 40
1.0
 40
2.0
 40
2.0
 40
2.0
 40
3.0
 40
3.0
 40
3.0
 40
4.0
 40
4.0
 40
4.0
 40
5.0
 40
5.0
 40
5.0
 40
6.0
 40
6.0
 40
6.0
 40
7.0
 40
7.0
 40
7.0
 40
8.0
 40
8.0
 40
8.0
 40
9.0
 40
9.0
 40
9.0
 40
10.0
 40
10.0
 40
10.0
 40
11.0
 40
11.0
 40
11.0
 40
12.0
 40
12.0
 40
12.0
 40
13.0
 40
13.0
 40
13.0
 40
14.0
 40
14.0
 40
14.0
 40
15.0
 40
15.0
 40
15.0
 40
16.0
 40
16.0
 40
16.0
 40
17.0
 40
17.0
 40
17.0
 40
18.0
 40
18.0
 40
18.0
 40
19.0
 40
19.0
 40
19.0
 40
19.0
 10
55.43882105818891
 20
-101.1404242368677
 30
0.0
 10
55.34339191324749
 20
-101.1404242368677
 30
0.0
 10
55.1256618785797
 20
-101.1190646448591
 30
0.0
 10
55.00060491246513
 20
-100.9330294886556
 30
0.0
 10
54.92653535953226
 20
-100.8207193758365
 30
0.0
 10
54.92240124494996
 20
-100.7215006258613
 30
0.0
 10
54.91826713036766
 20
-100.6367512769241
 30
0.0
 10
54.91826713036766
 20
-100.6367512769241
 30
0.0
 10
55.13840873187512
 20
-100.6367512769241
 30
0.0
 10
55.13840873187512
 20
-100.6367512769241
 30
0.0
 10
55.14047578916627
 20
-100.7111653394055
 30
0.0
 10
55.15081107562202
 20
-100.9454318324025
 30
0.0
 10
55.43434243405808
 20
-100.9454318324025
 30
0.0
 10
55.57180174391955
 20
-100.9454318324025
 30
0.0
 10
55.72441947391612
 20
-100.8758409036005
 30
0.0
 10
55.72441947391612
 20
-100.647775582477
 30
0.0
 10
55.72441947391612
 20
-100.5313313550755
 30
0.0
 10
55.68617891402985
 20
-100.482410999185
 30
0.0
 10
55.65448403556555
 20
-100.4507161207207
 30
0.0
 10
55.58041448263268
 20
-100.3769910773363
 30
0.0
 10
55.46397025523123
 20
-100.3638997144924
 30
0.0
 10
55.40919323701576
 20
-100.3638997144924
 30
0.0
 10
55.38990070229836
 20
-100.3638997144924
 30
0.0
 10
55.35407170925176
 20
-100.3659667717835
 30
0.0
 10
55.32651094536976
 20
-100.3701008863658
 30
0.0
 10
55.32651094536976
 20
-100.3701008863658
 30
0.0
 10
55.32651094536976
 20
-100.1757975009977
 30
0.0
 10
55.32651094536976
 20
-100.1757975009977
 30
0.0
 10
55.36475150525604
 20
-100.1819986728712
 30
0.0
 10
55.40678167017609
 20
-100.1840657301623
 30
0.0
 10
55.41332735159806
 20
-100.1840657301623
 30
0.0
 10
55.47878416581781
 20
-100.1840657301623
 30
0.0
 10
55.67756617531672
 20
-100.1627061381538
 30
0.0
 10
55.67756617531672
 20
-99.92637258786563
 30
0.0
 10
55.67756617531672
 20
-99.74860566082674
 30
0.0
 10
55.54665254687723
 20
-99.69348413306274
 30
0.0
 10
55.43640949134923
 20
-99.69348413306274
 30
0.0
 10
55.17217066763057
 20
-99.69348413306274
 30
0.0
 10
55.16355792891745
 20
-99.92637258786563
 30
0.0
 10
55.15942381433515
 20
-99.99803057395883
 30
0.0
 10
55.15942381433515
 20
-99.99803057395883
 30
0.0
 10
54.9561631807054
 20
-99.99803057395883
 30
0.0
 10
54.9561631807054
 20
-99.99803057395883
 30
0.0
 10
54.96477591941853
 20
-99.87331811739278
 30
0.0
 10
54.99233668330053
 20
-99.49642467130646
 30
0.0
 10
55.44915634464466
 20
-99.49642467130646
 30
0.0
 10
55.67343206073442
 20
-99.49642467130646
 30
0.0
 10
55.91458874470191
 20
-99.6238932042607
 30
0.0
 10
55.91458874470191
 20
-99.91948239689513
 30
0.0
 10
55.91458874470191
 20
-100.1062065721957
 30
0.0
 10
55.81950410930902
 20
-100.1881998447446
 30
0.0
 10
55.7199408497853
 20
-100.2495225443821
 30
0.0
 10
55.78126354942274
 20
-100.2770833082641
 30
0.0
 10
55.96316459104393
 20
-100.3576985426189
 30
0.0
 10
55.96316459104393
 20
-100.634684219633
 30
0.0
 10
55.96316459104393
 20
-100.9729925962845
 30
0.0
 10
55.715806735203
 20
-101.1404242368677
 30
0.0
 10
55.43882105818891
 20
-101.1404242368677
 30
0.0
  0
HATCH
  5
76
330
71
100
AcDbEntity
  8
_U+30EC_U+30A4_U+30E4_U+30FC 1
 62
     7
420
 16777215
100
AcDbHatch
 10
0.0
 20
0.0
 30
0.0
210
0.0
220
0.0
230
1.0
  2
SOLID
 70
     1
 71
     0
 91
        1
 92
        1
 93
        1
 72
     4
 94
        3
 73
     0
 74
     1
 95
       62
 96
       58
 40
0.0
 40
0.0
 40
0.0
 40
0.0
 40
1.0
 40
1.0
 40
1.0
 40
2.0
 40
2.0
 40
2.0
 40
3.0
 40
3.0
 40
3.0
 40
4.0
 40
4.0
 40
4.0
 40
5.0
 40
5.0
 40
5.0
 40
6.0
 40
6.0
 40
6.0
 40
7.0
 40
7.0
 40
7.0
 40
8.0
 40
8.0
 40
8.0
 40
9.0
 40
9.0
 40
9.0
 40
10.0
 40
10.0
 40
10.0
 40
11.0
 40
11.0
 40
11.0
 40
12.0
 40
12.0
 40
12.0
 40
13.0
 40
13.0
 40
13.0
 40
14.0
 40
14.0
 40
14.0
 40
15.0
 40
15.0
 40
15.0
 40
16.0
 40
16.0
 40
16.0
 40
17.0
 40
17.0
 40
17.0
 40
18.0
 40
18.0
 40
18.0
 40
19.0
 40
19.0
 40
19.0
 40
19.0
 10
55.43882105818891
 20
-101.1404242368677
 10
55.34339191324749
 20
-101.1404242368677
 10
55.1256618785797
 20
-101.1190646448591
 10
55.00060491246513
 20
-100.9330294886556
 10
54.92653535953226
 20
-100.8207193758365
 10
54.92240124494996
 20
-100.7215006258613
 10
54.91826713036766
 20
-100.6367512769241
 10
54.91826713036766
 20
-100.6367512769241
 10
55.13840873187512
 20
-100.6367512769241
 10
55.13840873187512
 20
-100.6367512769241
 10
55.14047578916627
 20
-100.7111653394055
 10
55.15081107562202
 20
-100.9454318324025
 10
55.43434243405808
 20
-100.9454318324025
 10
55.57180174391955
 20
-100.9454318324025
 10
55.72441947391612
 20
-100.8758409036005
 10
55.72441947391612
 20
-100.647775582477
 10
55.72441947391612
 20
-100.5313313550755
 10
55.68617891402985
 20
-100.482410999185
 10
55.65448403556555
 20
-100.4507161207207
 10
55.58041448263268
 20
-100.3769910773363
 10
55.46397025523123
 20
-100.3638997144924
 10
55.40919323701576
 20
-100.3638997144924
 10
55.38990070229836
 20
-100.3638997144924
 10
55.35407170925176
 20
-100.3659667717835
 10
55.32651094536976
 20
-100.3701008863658
 10
55.32651094536976
 20
-100.3701008863658
 10
55.32651094536976
 20
-100.1757975009977
 10
55.32651094536976
 20
-100.1757975009977
 10
55.36475150525604
 20
-100.1819986728712
 10
55.40678167017609
 20
-100.1840657301623
 10
55.41332735159806
 20
-100.1840657301623
 10
55.47878416581781
 20
-100.1840657301623
 10
55.67756617531672
 20
-100.1627061381538
 10
55.67756617531672
 20
-99.92637258786563
 10
55.67756617531672
 20
-99.74860566082674
 10
55.54665254687723
 20
-99.69348413306274
 10
55.43640949134923
 20
-99.69348413306274
 10
55.17217066763057
 20
-99.69348413306274
 10
55.16355792891745
 20
-99.92637258786563
 10
55.15942381433515
 20
-99.99803057395883
 10
55.15942381433515
 20
-99.99803057395883
 10
54.9561631807054
 20
-99.99803057395883
 10
54.9561631807054
 20
-99.99803057395883
 10
54.96477591941853
 20
-99.87331811739278
 10
54.99233668330053
 20
-99.49642467130646
 10
55.44915634464466
 20
-99.49642467130646
 10
55.67343206073442
 20
-99.49642467130646
 10
55.91458874470191
 20
-99.6238932042607
 10
55.91458874470191
 20
-99.91948239689513
 10
55.91458874470191
 20
-100.1062065721957
 10
55.81950410930902
 20
-100.1881998447446
 10
55.7199408497853
 20
-100.2495225443821
 10
55.78126354942274
 20
-100.2770833082641
 10
55.96316459104393
 20
-100.3576985426189
 10
55.96316459104393
 20
-100.634684219633
 10
55.96316459104393
 20
-100.9729925962845
 10
55.715806735203
 20
-101.1404242368677
 10
55.43882105818891
 20
-101.1404242368677
 97
        0
 97
        0
 75
     2
 76
     1
 98
        0
  0
ENDBLK
  5
74
330
71
100
AcDbEntity
  8
0
100
AcDbBlockEnd
  0
BLOCK
  5
A7
330
A5
100
AcDbEntity
  8
0
100
AcDbBlockBegin
  2
block 7
 70
     0
 10
0.0
 20
0.0
 30
0.0
  3
block 7
  1

  0
SPLINE
  5
A9
330
A5
100
AcDbEntity
  8
_U+30EC_U+30A4_U+30E4_U+30FC 1
370
     0
100
AcDbSpline
210
0.0
220
0.0
230
1.0
 70
    11
 71
     3
 72
    26
 73
    22
 74
     0
 42
0.0000000001
 43
0.0000000001
 12
1.0
 22
0.0
 32
0.0
 13
1.0
 23
0.0
 33
0.0
 40
0.0
 40
0.0
 40
0.0
 40
0.0
 40
1.0
 40
1.0
 40
1.0
 40
2.0
 40
2.0
 40
2.0
 40
3.0
 40
3.0
 40
3.0
 40
4.0
 40
4.0
 40
4.0
 40
5.0
 40
5.0
 40
5.0
 40
6.0
 40
6.0
 40
6.0
 40
7.0
 40
7.0
 40
7.0
 40
7.0
 10
80.53909774462217
 20
-90.66802298080522
 30
0.0
 10
80.53909774462217
 20
-90.66802298080522
 30
0.0
 10
79.4349446415996
 20
-90.66802298080522
 30
0.0
 10
79.4349446415996
 20
-90.66802298080522
 30
0.0
 10
79.4349446415996
 20
-90.66802298080522
 30
0.0
 10
79.4349446415996
 20
-90.99806312829216
 30
0.0
 10
79.4349446415996
 20
-90.99806312829216
 30
0.0
 10
79.4349446415996
 20
-90.99806312829216
 30
0.0
 10
79.28680553573386
 20
-90.99806312829216
 30
0.0
 10
79.28680553573386
 20
-90.99806312829216
 30
0.0
 10
79.27199162514728
 20
-90.66595592351408
 30
0.0
 10
79.10903860869496
 20
-90.61979164401173
 30
0.0
 10
78.99466143858467
 20
-90.59016382283858
 30
0.0
 10
78.99466143858467
 20
-90.59016382283858
 30
0.0
 10
78.99466143858467
 20
-90.44409177426398
 30
0.0
 10
78.99466143858467
 20
-90.44409177426398
 30
0.0
 10
78.99466143858467
 20
-90.44409177426398
 30
0.0
 10
80.53909774462217
 20
-90.44409177426398
 30
0.0
 10
80.53909774462217
 20
-90.44409177426398
 30
0.0
 10
80.53909774462217
 20
-90.44409177426398
 30
0.0
 10
80.53909774462217
 20
-90.66802298080522
 30
0.0
 10
80.53909774462217
 20
-90.66802298080522
 30
0.0
  0
HATCH
  5
AA
330
A5
100
AcDbEntity
  8
_U+30EC_U+30A4_U+30E4_U+30FC 1
 62
     7
420
 16777215
100
AcDbHatch
 10
0.0
 20
0.0
 30
0.0
210
0.0
220
0.0
230
1.0
  2
SOLID
 70
     1
 71
     0
 91
        1
 92
        1
 93
        1
 72
     4
 94
        3
 73
     0
 74
     1
 95
       26
 96
       22
 40
0.0
 40
0.0
 40
0.0
 40
0.0
 40
1.0
 40
1.0
 40
1.0
 40
2.0
 40
2.0
 40
2.0
 40
3.0
 40
3.0
 40
3.0
 40
4.0
 40
4.0
 40
4.0
 40
5.0
 40
5.0
 40
5.0
 40
6.0
 40
6.0
 40
6.0
 40
7.0
 40
7.0
 40
7.0
 40
7.0
 10
80.53909774462217
 20
-90.66802298080522
 10
80.53909774462217
 20
-90.66802298080522
 10
79.4349446415996
 20
-90.66802298080522
 10
79.4349446415996
 20
-90.66802298080522
 10
79.4349446415996
 20
-90.66802298080522
 10
79.4349446415996
 20
-90.99806312829216
 10
79.4349446415996
 20
-90.99806312829216
 10
79.4349446415996
 20
-90.99806312829216
 10
79.28680553573386
 20
-90.99806312829216
 10
79.28680553573386
 20
-90.99806312829216
 10
79.27199162514728
 20
-90.66595592351408
 10
79.10903860869496
 20
-90.61979164401173
 10
78.99466143858467
 20
-90.59016382283858
 10
78.99466143858467
 20
-90.59016382283858
 10
78.99466143858467
 20
-90.44409177426398
 10
78.99466143858467
 20
-90.44409177426398
 10
78.99466143858467
 20
-90.44409177426398
 10
80.53909774462217
 20
-90.44409177426398
 10
80.53909774462217
 20
-90.44409177426398
 10
80.53909774462217
 20
-90.44409177426398
 10
80.53909774462217
 20
-90.66802298080522
 10
80.53909774462217
 20
-90.66802298080522
 97
        0
 97
        0
 75
     2
 76
     1
 98
        0
  0
SPLINE
  5
AB
330
A5
100
AcDbEntity
  8
_U+30EC_U+30A4_U+30E4_U+30FC 1
370
     0
100
AcDbSpline
210
0.0
220
0.0
230
1.0
 70
    11
 71
     3
 72
    53
 73
    49
 74
     0
 42
0.0000000001
 43
0.0000000001
 12
1.0
 22
0.0
 32
0.0
 13
1.0
 23
0.0
 33
0.0
 40
0.0
 40
0.0
 40
0.0
 40
0.0
 40
1.0
 40
1.0
 40
1.0
 40
2.0
 40
2.0
 40
2.0
 40
3.0
 40
3.0
 40
3.0
 40
4.0
 40
4.0
 40
4.0
 40
5.0
 40
5.0
 40
5.0
 40
6.0
 40
6.0
 40
6.0
 40
7.0
 40
7.0
 40
7.0
 40
8.0
 40
8.0
 40
8.0
 40
9.0
 40
9.0
 40
9.0
 40
10.0
 40
10.0
 40
10.0
 40
11.0
 40
11.0
 40
11.0
 40
12.0
 40
12.0
 40
12.0
 40
13.0
 40
13.0
 40
13.0
 40
14.0
 40
14.0
 40
14.0
 40
15.0
 40
15.0
 40
15.0
 40
16.0
 40
16.0
 40
16.0
 40
16.0
 10
80.58974064825534
 20
-89.46155054187072
 30
0.0
 10
80.58974064825534
 20
-89.54009871893443
 30
0.0
 10
80.57285968037762
 20
-89.64138452620077
 30
0.0
 10
80.50946992344903
 20
-89.74335935256417
 30
0.0
 10
80.39957137746956
 20
-89.9163031459237
 30
0.0
 10
80.26831323948154
 20
-89.93766273793226
 30
0.0
 10
80.16048175079321
 20
-89.95695527264965
 30
0.0
 10
80.16048175079321
 20
-89.95695527264965
 30
0.0
 10
80.16048175079321
 20
-89.73440210430252
 30
0.0
 10
80.16048175079321
 20
-89.73440210430252
 30
0.0
 10
80.35926376029214
 20
-89.67996959563557
 30
0.0
 10
80.38889158146529
 20
-89.55250106268133
 30
0.0
 10
80.38889158146529
 20
-89.45948348457958
 30
0.0
 10
80.38889158146529
 20
-89.32030162697548
 30
0.0
 10
80.28932832194155
 20
-89.16785615175318
 30
0.0
 10
80.05678437668719
 20
-89.16785615175318
 30
0.0
 10
79.80081378213313
 20
-89.16785615175318
 30
0.0
 10
79.73087834378256
 20
-89.34786239085749
 30
0.0
 10
79.73087834378256
 20
-89.46844073284123
 30
0.0
 10
79.73087834378256
 20
-89.50013561130552
 30
0.0
 10
79.73087834378256
 20
-89.64138452620077
 30
0.0
 10
79.86006942447943
 20
-89.73026798972022
 30
0.0
 10
79.86006942447943
 20
-89.73026798972022
 30
0.0
 10
79.84112139931055
 20
-89.90596785946795
 30
0.0
 10
79.84112139931055
 20
-89.90596785946795
 30
0.0
 10
79.84112139931055
 20
-89.90596785946795
 30
0.0
 10
78.99466143858467
 20
-89.78538951748422
 30
0.0
 10
78.99466143858467
 20
-89.78538951748422
 30
0.0
 10
78.99466143858467
 20
-89.78538951748422
 30
0.0
 10
78.99466143858467
 20
-89.00697019259201
 30
0.0
 10
78.99466143858467
 20
-89.00697019259201
 30
0.0
 10
78.99466143858467
 20
-89.00697019259201
 30
0.0
 10
79.18930933350128
 20
-89.00697019259201
 30
0.0
 10
79.18930933350128
 20
-89.00697019259201
 30
0.0
 10
79.18930933350128
 20
-89.00697019259201
 30
0.0
 10
79.18930933350128
 20
-89.62278101058043
 30
0.0
 10
79.18930933350128
 20
-89.62278101058043
 30
0.0
 10
79.18930933350128
 20
-89.62278101058043
 30
0.0
 10
79.61236705908996
 20
-89.68823782480017
 30
0.0
 10
79.61236705908996
 20
-89.68823782480017
 30
0.0
 10
79.57860512333451
 20
-89.62691512516272
 30
0.0
 10
79.5382975061571
 20
-89.54423283351673
 30
0.0
 10
79.5382975061571
 20
-89.42572154882413
 30
0.0
 10
79.5382975061571
 20
-89.17199026633548
 30
0.0
 10
79.72467717190911
 20
-88.9349676969503
 30
0.0
 10
80.03783635151832
 20
-88.9349676969503
 30
0.0
 10
80.35512964570984
 20
-88.9349676969503
 30
0.0
 10
80.58974064825534
 20
-89.15924341304006
 30
0.0
 10
80.58974064825534
 20
-89.46155054187072
 30
0.0
  0
HATCH
  5
AC
330
A5
100
AcDbEntity
  8
_U+30EC_U+30A4_U+30E4_U+30FC 1
 62
     7
420
 16777215
100
AcDbHatch
 10
0.0
 20
0.0
 30
0.0
210
0.0
220
0.0
230
1.0
  2
SOLID
 70
     1
 71
     0
 91
        1
 92
        1
 93
        1
 72
     4
 94
        3
 73
     0
 74
     1
 95
       53
 96
       49
 40
0.0
 40
0.0
 40
0.0
 40
0.0
 40
1.0
 40
1.0
 40
1.0
 40
2.0
 40
2.0
 40
2.0
 40
3.0
 40
3.0
 40
3.0
 40
4.0
 40
4.0
 40
4.0
 40
5.0
 40
5.0
 40
5.0
 40
6.0
 40
6.0
 40
6.0
 40
7.0
 40
7.0
 40
7.0
 40
8.0
 40
8.0
 40
8.0
 40
9.0
 40
9.0
 40
9.0
 40
10.0
 40
10.0
 40
10.0
 40
11.0
 40
11.0
 40
11.0
 40
12.0
 40
12.0
 40
12.0
 40
13.0
 40
13.0
 40
13.0
 40
14.0
 40
14.0
 40
14.0
 40
15.0
 40
15.0
 40
15.0
 40
16.0
 40
16.0
 40
16.0
 40
16.0
 10
80.58974064825534
 20
-89.46155054187072
 10
80.58974064825534
 20
-89.54009871893443
 10
80.57285968037762
 20
-89.64138452620077
 10
80.50946992344903
 20
-89.74335935256417
 10
80.39957137746956
 20
-89.9163031459237
 10
80.26831323948154
 20
-89.93766273793226
 10
80.16048175079321
 20
-89.95695527264965
 10
80.16048175079321
 20
-89.95695527264965
 10
80.16048175079321
 20
-89.73440210430252
 10
80.16048175079321
 20
-89.73440210430252
 10
80.35926376029214
 20
-89.67996959563557
 10
80.38889158146529
 20
-89.55250106268133
 10
80.38889158146529
 20
-89.45948348457958
 10
80.38889158146529
 20
-89.32030162697548
 10
80.28932832194155
 20
-89.16785615175318
 10
80.05678437668719
 20
-89.16785615175318
 10
79.80081378213313
 20
-89.16785615175318
 10
79.73087834378256
 20
-89.34786239085749
 10
79.73087834378256
 20
-89.46844073284123
 10
79.73087834378256
 20
-89.50013561130552
 10
79.73087834378256
 20
-89.64138452620077
 10
79.86006942447943
 20
-89.73026798972022
 10
79.86006942447943
 20
-89.73026798972022
 10
79.84112139931055
 20
-89.90596785946795
 10
79.84112139931055
 20
-89.90596785946795
 10
79.84112139931055
 20
-89.90596785946795
 10
78.99466143858467
 20
-89.78538951748422
 10
78.99466143858467
 20
-89.78538951748422
 10
78.99466143858467
 20
-89.78538951748422
 10
78.99466143858467
 20
-89.00697019259201
 10
78.99466143858467
 20
-89.00697019259201
 10
78.99466143858467
 20
-89.00697019259201
 10
79.18930933350128
 20
-89.00697019259201
 10
79.18930933350128
 20
-89.00697019259201
 10
79.18930933350128
 20
-89.00697019259201
 10
79.18930933350128
 20
-89.62278101058043
 10
79.18930933350128
 20
-89.62278101058043
 10
79.18930933350128
 20
-89.62278101058043
 10
79.61236705908996
 20
-89.68823782480017
 10
79.61236705908996
 20
-89.68823782480017
 10
79.57860512333451
 20
-89.62691512516272
 10
79.5382975061571
 20
-89.54423283351673
 10
79.5382975061571
 20
-89.42572154882413
 10
79.5382975061571
 20
-89.17199026633548
 10
79.72467717190911
 20
-88.9349676969503
 10
80.03783635151832
 20
-88.9349676969503
 10
80.35512964570984
 20
-88.9349676969503
 10
80.58974064825534
 20
-89.15924341304006
 10
80.58974064825534
 20
-89.46155054187072
 97
        0
 97
        0
 75
     2
 76
     1
 98
        0
  0
POLYLINE
  5
AD
330
A5
100
AcDbEntity
  8
_U+30EC_U+30A4_U+30E4_U+30FC 1
370
     0
100
AcDb2dPolyline
 66
     1
 10
0.0
 20
0.0
 30
0.0
  0
VERTEX
  5
AE
330
AD
100
AcDbEntity
  8
_U+30EC_U+30A4_U+30E4_U+30FC 1
370
     0
100
AcDbVertex
100
AcDb2dVertex
 10
80.53909774462217
 20
-88.70586884718118
 30
0.0
  0
VERTEX
  5
AF
330
AD
100
AcDbEntity
  8
_U+30EC_U+30A4_U+30E4_U+30FC 1
370
     0
100
AcDbVertex
100
AcDb2dVertex
 10
80.28726126465041
 20
-88.70586884718118
 30
0.0
  0
VERTEX
  5
B0
330
AD
100
AcDbEntity
  8
_U+30EC_U+30A4_U+30E4_U+30FC 1
370
     0
100
AcDbVertex
100
AcDb2dVertex
 10
80.28726126465041
 20
-88.45403236720941
 30
0.0
  0
VERTEX
  5
B1
330
AD
100
AcDbEntity
  8
_U+30EC_U+30A4_U+30E4_U+30FC 1
370
     0
100
AcDbVertex
100
AcDb2dVertex
 10
80.53909774462217
 20
-88.45403236720941
 30
0.0
  0
VERTEX
  5
B2
330
AD
100
AcDbEntity
  8
_U+30EC_U+30A4_U+30E4_U+30FC 1
370
     0
100
AcDbVertex
100
AcDb2dVertex
 10
80.53909774462217
 20
-88.70586884718118
 30
0.0
  0
SEQEND
  5
B3
330
AD
100
AcDbEntity
  8
_U+30EC_U+30A4_U+30E4_U+30FC 1
370
     0
  0
HATCH
  5
B4
330
A5
100
AcDbEntity
  8
_U+30EC_U+30A4_U+30E4_U+30FC 1
 62
     7
420
 16777215
100
AcDbHatch
 10
0.0
 20
0.0
 30
0.0
210
0.0
220
0.0
230
1.0
  2
SOLID
 70
     1
 71
     0
 91
        1
 92
        1
 93
        4
 72
     1
 10
80.53909774462217
 20
-88.70586884718118
 11
80.28726126465041
 21
-88.70586884718118
 72
     1
 10
80.28726126465041
 20
-88.70586884718118
 11
80.28726126465041
 21
-88.45403236720941
 72
     1
 10
80.28726126465041
 20
-88.45403236720941
 11
80.53909774462217
 21
-88.45403236720941
 72
     1
 10
80.53909774462217
 20
-88.45403236720941
 11
80.53909774462217
 21
-88.70586884718118
 97
        0
 75
     2
 76
     1
 98
        0
  0
SPLINE
  5
B5
330
A5
100
AcDbEntity
  8
_U+30EC_U+30A4_U+30E4_U+30FC 1
370
     0
100
AcDbSpline
210
0.0
220
0.0
230
1.0
 70
    11
 71
     3
 72
    53
 73
    49
 74
     0
 42
0.0000000001
 43
0.0000000001
 12
1.0
 22
0.0
 32
0.0
 13
1.0
 23
0.0
 33
0.0
 40
0.0
 40
0.0
 40
0.0
 40
0.0
 40
1.0
 40
1.0
 40
1.0
 40
2.0
 40
2.0
 40
2.0
 40
3.0
 40
3.0
 40
3.0
 40
4.0
 40
4.0
 40
4.0
 40
5.0
 40
5.0
 40
5.0
 40
6.0
 40
6.0
 40
6.0
 40
7.0
 40
7.0
 40
7.0
 40
8.0
 40
8.0
 40
8.0
 40
9.0
 40
9.0
 40
9.0
 40
10.0
 40
10.0
 40
10.0
 40
11.0
 40
11.0
 40
11.0
 40
12.0
 40
12.0
 40
12.0
 40
13.0
 40
13.0
 40
13.0
 40
14.0
 40
14.0
 40
14.0
 40
15.0
 40
15.0
 40
15.0
 40
16.0
 40
16.0
 40
16.0
 40
16.0
 10
80.58974064825534
 20
-87.7367634871804
 30
0.0
 10
80.58974064825534
 20
-87.81496715469557
 30
0.0
 10
80.57285968037762
 20
-87.91659747151044
 30
0.0
 10
80.50946992344903
 20
-88.0182277883253
 30
0.0
 10
80.39957137746956
 20
-88.19151609123338
 30
0.0
 10
80.26831323948154
 20
-88.21287568324192
 30
0.0
 10
80.16048175079321
 20
-88.2318237084108
 30
0.0
 10
80.16048175079321
 20
-88.2318237084108
 30
0.0
 10
80.16048175079321
 20
-88.00961504961218
 30
0.0
 10
80.16048175079321
 20
-88.00961504961218
 30
0.0
 10
80.35926376029214
 20
-87.9548380313967
 30
0.0
 10
80.38889158146529
 20
-87.82771400799099
 30
0.0
 10
80.38889158146529
 20
-87.73469642988924
 30
0.0
 10
80.38889158146529
 20
-87.59517006273663
 30
0.0
 10
80.28932832194155
 20
-87.44289684228859
 30
0.0
 10
80.05678437668719
 20
-87.44289684228859
 30
0.0
 10
79.80081378213313
 20
-87.44289684228859
 30
0.0
 10
79.73087834378256
 20
-87.62273082661862
 30
0.0
 10
79.73087834378256
 20
-87.74330916860237
 30
0.0
 10
79.73087834378256
 20
-87.77500404706667
 30
0.0
 10
79.73087834378256
 20
-87.91659747151044
 30
0.0
 10
79.86006942447943
 20
-88.00548093502988
 30
0.0
 10
79.86006942447943
 20
-88.00548093502988
 30
0.0
 10
79.84112139931055
 20
-88.18118080477763
 30
0.0
 10
79.84112139931055
 20
-88.18118080477763
 30
0.0
 10
79.84112139931055
 20
-88.18118080477763
 30
0.0
 10
78.99466143858467
 20
-88.06060246279388
 30
0.0
 10
78.99466143858467
 20
-88.06060246279388
 30
0.0
 10
78.99466143858467
 20
-88.06060246279388
 30
0.0
 10
78.99466143858467
 20
-87.28201088312741
 30
0.0
 10
78.99466143858467
 20
-87.28201088312741
 30
0.0
 10
78.99466143858467
 20
-87.28201088312741
 30
0.0
 10
79.18930933350128
 20
-87.28201088312741
 30
0.0
 10
79.18930933350128
 20
-87.28201088312741
 30
0.0
 10
79.18930933350128
 20
-87.28201088312741
 30
0.0
 10
79.18930933350128
 20
-87.89764944634156
 30
0.0
 10
79.18930933350128
 20
-87.89764944634156
 30
0.0
 10
79.18930933350128
 20
-87.89764944634156
 30
0.0
 10
79.61236705908996
 20
-87.9631062605613
 30
0.0
 10
79.61236705908996
 20
-87.9631062605613
 30
0.0
 10
79.57860512333451
 20
-87.90178356092386
 30
0.0
 10
79.5382975061571
 20
-87.81944577882639
 30
0.0
 10
79.5382975061571
 20
-87.7009344941338
 30
0.0
 10
79.5382975061571
 20
-87.44703095687089
 30
0.0
 10
79.72467717190911
 20
-87.2100083874857
 30
0.0
 10
80.03783635151832
 20
-87.2100083874857
 30
0.0
 10
80.35512964570984
 20
-87.2100083874857
 30
0.0
 10
80.58974064825534
 20
-87.43428410357546
 30
0.0
 10
80.58974064825534
 20
-87.7367634871804
 30
0.0
  0
HATCH
  5
B6
330
A5
100
AcDbEntity
  8
_U+30EC_U+30A4_U+30E4_U+30FC 1
 62
     7
420
 16777215
100
AcDbHatch
 10
0.0
 20
0.0
 30
0.0
210
0.0
220
0.0
230
1.0
  2
SOLID
 70
     1
 71
     0
 91
        1
 92
        1
 93
        1
 72
     4
 94
        3
 73
     0
 74
     1
 95
       53
 96
       49
 40
0.0
 40
0.0
 40
0.0
 40
0.0
 40
1.0
 40
1.0
 40
1.0
 40
2.0
 40
2.0
 40
2.0
 40
3.0
 40
3.0
 40
3.0
 40
4.0
 40
4.0
 40
4.0
 40
5.0
 40
5.0
 40
5.0
 40
6.0
 40
6.0
 40
6.0
 40
7.0
 40
7.0
 40
7.0
 40
8.0
 40
8.0
 40
8.0
 40
9.0
 40
9.0
 40
9.0
 40
10.0
 40
10.0
 40
10.0
 40
11.0
 40
11.0
 40
11.0
 40
12.0
 40
12.0
 40
12.0
 40
13.0
 40
13.0
 40
13.0
 40
14.0
 40
14.0
 40
14.0
 40
15.0
 40
15.0
 40
15.0
 40
16.0
 40
16.0
 40
16.0
 40
16.0
 10
80.58974064825534
 20
-87.7367634871804
 10
80.58974064825534
 20
-87.81496715469557
 10
80.57285968037762
 20
-87.91659747151044
 10
80.50946992344903
 20
-88.0182277883253
 10
80.39957137746956
 20
-88.19151609123338
 10
80.26831323948154
 20
-88.21287568324192
 10
80.16048175079321
 20
-88.2318237084108
 10
80.16048175079321
 20
-88.2318237084108
 10
80.16048175079321
 20
-88.00961504961218
 10
80.16048175079321
 20
-88.00961504961218
 10
80.35926376029214
 20
-87.9548380313967
 10
80.38889158146529
 20
-87.82771400799099
 10
80.38889158146529
 20
-87.73469642988924
 10
80.38889158146529
 20
-87.59517006273663
 10
80.28932832194155
 20
-87.44289684228859
 10
80.05678437668719
 20
-87.44289684228859
 10
79.80081378213313
 20
-87.44289684228859
 10
79.73087834378256
 20
-87.62273082661862
 10
79.73087834378256
 20
-87.74330916860237
 10
79.73087834378256
 20
-87.77500404706667
 10
79.73087834378256
 20
-87.91659747151044
 10
79.86006942447943
 20
-88.00548093502988
 10
79.86006942447943
 20
-88.00548093502988
 10
79.84112139931055
 20
-88.18118080477763
 10
79.84112139931055
 20
-88.18118080477763
 10
79.84112139931055
 20
-88.18118080477763
 10
78.99466143858467
 20
-88.06060246279388
 10
78.99466143858467
 20
-88.06060246279388
 10
78.99466143858467
 20
-88.06060246279388
 10
78.99466143858467
 20
-87.28201088312741
 10
78.99466143858467
 20
-87.28201088312741
 10
78.99466143858467
 20
-87.28201088312741
 10
79.18930933350128
 20
-87.28201088312741
 10
79.18930933350128
 20
-87.28201088312741
 10
79.18930933350128
 20
-87.28201088312741
 10
79.18930933350128
 20
-87.89764944634156
 10
79.18930933350128
 20
-87.89764944634156
 10
79.18930933350128
 20
-87.89764944634156
 10
79.61236705908996
 20
-87.9631062605613
 10
79.61236705908996
 20
-87.9631062605613
 10
79.57860512333451
 20
-87.90178356092386
 10
79.5382975061571
 20
-87.81944577882639
 10
79.5382975061571
 20
-87.7009344941338
 10
79.5382975061571
 20
-87.44703095687089
 10
79.72467717190911
 20
-87.2100083874857
 10
80.03783635151832
 20
-87.2100083874857
 10
80.35512964570984
 20
-87.2100083874857
 10
80.58974064825534
 20
-87.43428410357546
 10
80.58974064825534
 20
-87.7367634871804
 97
        0
 97
        0
 75
     2
 76
     1
 98
        0
  0
ENDBLK
  5
A8
330
A5
100
AcDbEntity
  8
0
100
AcDbBlockEnd
  0
BLOCK
  5
C4
330
C2
100
AcDbEntity
  8
0
100
AcDbBlockBegin
  2
block 8
 70
     0
 10
0.0
 20
0.0
 30
0.0
  3
block 8
  1

  0
SPLINE
  5
C6
330
C2
100
AcDbEntity
  8
_U+30EC_U+30A4_U+30E4_U+30FC 1
370
     0
100
AcDbSpline
210
0.0
220
0.0
230
1.0
 70
    11
 71
     3
 72
    17
 73
    13
 74
     0
 42
0.0000000001
 43
0.0000000001
 12
1.0
 22
0.0
 32
0.0
 13
1.0
 23
0.0
 33
0.0
 40
0.0
 40
0.0
 40
0.0
 40
0.0
 40
1.0
 40
1.0
 40
1.0
 40
2.0
 40
2.0
 40
2.0
 40
3.0
 40
3.0
 40
3.0
 40
4.0
 40
4.0
 40
4.0
 40
4.0
 10
66.25021970999995
 20
-85.85849742862219
 30
0.0
 10
66.14445527860278
 20
-85.75273299722501
 30
0.0
 10
66.06384004424793
 20
-85.714664692113
 30
0.0
 10
65.97082246614619
 20
-85.68296981364871
 30
0.0
 10
65.97082246614619
 20
-85.68296981364871
 30
0.0
 10
66.08106552167418
 20
-85.51794973990523
 30
0.0
 10
66.08106552167418
 20
-85.51794973990523
 30
0.0
 10
66.17821721435823
 20
-85.56032441437381
 30
0.0
 10
66.29879555634197
 20
-85.63852808188898
 30
0.0
 10
66.35185002681482
 20
-85.69347735487872
 30
0.0
 10
66.35185002681482
 20
-85.69347735487872
 30
0.0
 10
66.25021970999995
 20
-85.85849742862219
 30
0.0
 10
66.25021970999995
 20
-85.85849742862219
 30
0.0
  0
SPLINE
  5
C7
330
C2
100
AcDbEntity
  8
_U+30EC_U+30A4_U+30E4_U+30FC 1
370
     0
100
AcDbSpline
210
0.0
220
0.0
230
1.0
 70
    11
 71
     3
 72
   182
 73
   178
 74
     0
 42
0.0000000001
 43
0.0000000001
 12
1.0
 22
0.0
 32
0.0
 13
1.0
 23
0.0
 33
0.0
 40
0.0
 40
0.0
 40
0.0
 40
0.0
 40
1.0
 40
1.0
 40
1.0
 40
2.0
 40
2.0
 40
2.0
 40
3.0
 40
3.0
 40
3.0
 40
4.0
 40
4.0
 40
4.0
 40
5.0
 40
5.0
 40
5.0
 40
6.0
 40
6.0
 40
6.0
 40
7.0
 40
7.0
 40
7.0
 40
8.0
 40
8.0
 40
8.0
 40
9.0
 40
9.0
 40
9.0
 40
10.0
 40
10.0
 40
10.0
 40
11.0
 40
11.0
 40
11.0
 40
12.0
 40
12.0
 40
12.0
 40
13.0
 40
13.0
 40
13.0
 40
14.0
 40
14.0
 40
14.0
 40
15.0
 40
15.0
 40
15.0
 40
16.0
 40
16.0
 40
16.0
 40
17.0
 40
17.0
 40
17.0
 40
18.0
 40
18.0
 40
18.0
 40
19.0
 40
19.0
 40
19.0
 40
20.0
 40
20.0
 40
20.0
 40
21.0
 40
21.0
 40
21.0
 40
22.0
 40
22.0
 40
22.0
 40
23.0
 40
23.0
 40
23.0
 40
24.0
 40
24.0
 40
24.0
 40
25.0
 40
25.0
 40
25.0
 40
26.0
 40
26.0
 40
26.0
 40
27.0
 40
27.0
 40
27.0
 40
28.0
 40
28.0
 40
28.0
 40
29.0
 40
29.0
 40
29.0
 40
30.0
 40
30.0
 40
30.0
 40
31.0
 40
31.0
 40
31.0
 40
32.0
 40
32.0
 40
32.0
 40
33.0
 40
33.0
 40
33.0
 40
34.0
 40
34.0
 40
34.0
 40
35.0
 40
35.0
 40
35.0
 40
36.0
 40
36.0
 40
36.0
 40
37.0
 40
37.0
 40
37.0
 40
38.0
 40
38.0
 40
38.0
 40
39.0
 40
39.0
 40
39.0
 40
40.0
 40
40.0
 40
40.0
 40
41.0
 40
41.0
 40
41.0
 40
42.0
 40
42.0
 40
42.0
 40
43.0
 40
43.0
 40
43.0
 40
44.0
 40
44.0
 40
44.0
 40
45.0
 40
45.0
 40
45.0
 40
46.0
 40
46.0
 40
46.0
 40
47.0
 40
47.0
 40
47.0
 40
48.0
 40
48.0
 40
48.0
 40
49.0
 40
49.0
 40
49.0
 40
50.0
 40
50.0
 40
50.0
 40
51.0
 40
51.0
 40
51.0
 40
52.0
 40
52.0
 40
52.0
 40
53.0
 40
53.0
 40
53.0
 40
54.0
 40
54.0
 40
54.0
 40
55.0
 40
55.0
 40
55.0
 40
56.0
 40
56.0
 40
56.0
 40
57.0
 40
57.0
 40
57.0
 40
58.0
 40
58.0
 40
58.0
 40
59.0
 40
59.0
 40
59.0
 40
59.0
 10
67.29511717067622
 20
-87.0368923393519
 30
0.0
 10
67.29511717067622
 20
-87.0368923393519
 30
0.0
 10
66.65846352500205
 20
-87.0368923393519
 30
0.0
 10
66.65846352500205
 20
-87.0368923393519
 30
0.0
 10
66.44486760491657
 20
-87.0368923393519
 30
0.0
 10
66.2288601179914
 20
-87.04119870870845
 30
0.0
 10
66.0152641979059
 20
-87.05377330722962
 30
0.0
 10
66.0152641979059
 20
-87.05377330722962
 30
0.0
 10
66.0152641979059
 20
-86.84655081379184
 30
0.0
 10
66.0152641979059
 20
-86.84655081379184
 30
0.0
 10
66.23747285670453
 20
-86.859125412313
 30
0.0
 10
66.56096732276949
 20
-86.86343178166956
 30
0.0
 10
66.65846352500205
 20
-86.86343178166956
 30
0.0
 10
66.65846352500205
 20
-86.86343178166956
 30
0.0
 10
66.87860512650951
 20
-86.86343178166956
 30
0.0
 10
66.87860512650951
 20
-86.86343178166956
 30
0.0
 10
66.87860512650951
 20
-86.86343178166956
 30
0.0
 10
66.87860512650951
 20
-86.72166610245154
 30
0.0
 10
66.87860512650951
 20
-86.72166610245154
 30
0.0
 10
66.87860512650951
 20
-86.72166610245154
 30
0.0
 10
66.71771916734835
 20
-86.72166610245154
 30
0.0
 10
66.71771916734835
 20
-86.72166610245154
 30
0.0
 10
66.55269909360489
 20
-86.72166610245154
 30
0.0
 10
66.38767901986142
 20
-86.72597247180809
 30
0.0
 10
66.22265894611795
 20
-86.74078638239467
 30
0.0
 10
66.22265894611795
 20
-86.74078638239467
 30
0.0
 10
66.22265894611795
 20
-86.53132457689148
 30
0.0
 10
66.22265894611795
 20
-86.53132457689148
 30
0.0
 10
66.39388019173487
 20
-86.54613848747805
 30
0.0
 10
66.64158255712432
 20
-86.55027260206035
 30
0.0
 10
66.71771916734835
 20
-86.55027260206035
 30
0.0
 10
66.71771916734835
 20
-86.55027260206035
 30
0.0
 10
66.87860512650951
 20
-86.55027260206035
 30
0.0
 10
66.87860512650951
 20
-86.55027260206035
 30
0.0
 10
66.87412650237869
 20
-86.47844236119289
 30
0.0
 10
66.87412650237869
 20
-86.47206893454518
 30
0.0
 10
66.86792533050524
 20
-86.41918671884659
 30
0.0
 10
66.86792533050524
 20
-86.41918671884659
 30
0.0
 10
67.00745169765786
 20
-86.43400062943317
 30
0.0
 10
67.00745169765786
 20
-86.43400062943317
 30
0.0
 10
67.00745169765786
 20
-86.43400062943317
 30
0.0
 10
66.90823294768266
 20
-86.262607129042
 30
0.0
 10
66.90823294768266
 20
-86.262607129042
 30
0.0
 10
66.95474173673354
 20
-86.26898055568971
 30
0.0
 10
67.02881128966641
 20
-86.27742103962856
 30
0.0
 10
67.04569225754413
 20
-86.27742103962856
 30
0.0
 10
67.09633516117731
 20
-86.27742103962856
 30
0.0
 10
67.11321612905503
 20
-86.25623370239428
 30
0.0
 10
67.11321612905503
 20
-86.1992173721134
 30
0.0
 10
67.11321612905503
 20
-86.1992173721134
 30
0.0
 10
67.11321612905503
 20
-86.06158580747767
 30
0.0
 10
67.11321612905503
 20
-86.06158580747767
 30
0.0
 10
67.11321612905503
 20
-86.06158580747767
 30
0.0
 10
67.00745169765786
 20
-86.06158580747767
 30
0.0
 10
67.00745169765786
 20
-86.06158580747767
 30
0.0
 10
66.87412650237869
 20
-86.06158580747767
 30
0.0
 10
66.71771916734835
 20
-86.06158580747767
 30
0.0
 10
66.59507376807346
 20
-86.07433266077308
 30
0.0
 10
66.59507376807346
 20
-86.07433266077308
 30
0.0
 10
66.59507376807346
 20
-85.88399113521304
 30
0.0
 10
66.59507376807346
 20
-85.88399113521304
 30
0.0
 10
66.76216089910807
 20
-85.90087210309076
 30
0.0
 10
66.99263778707129
 20
-85.9029391603819
 30
0.0
 10
67.00745169765786
 20
-85.9029391603819
 30
0.0
 10
67.00745169765786
 20
-85.9029391603819
 30
0.0
 10
67.11321612905503
 20
-85.9029391603819
 30
0.0
 10
67.11321612905503
 20
-85.9029391603819
 30
0.0
 10
67.11321612905503
 20
-85.9029391603819
 30
0.0
 10
67.11321612905503
 20
-85.77185327716815
 30
0.0
 10
67.11321612905503
 20
-85.77185327716815
 30
0.0
 10
67.11321612905503
 20
-85.77185327716815
 30
0.0
 10
67.07532007871728
 20
-85.77185327716815
 30
0.0
 10
67.07532007871728
 20
-85.77185327716815
 30
0.0
 10
67.03087834695756
 20
-85.77185327716815
 30
0.0
 10
66.905821380843
 20
-85.77598739175045
 30
0.0
 10
66.81693791732354
 20
-85.78442787568932
 30
0.0
 10
66.81693791732354
 20
-85.78442787568932
 30
0.0
 10
66.81693791732354
 20
-85.70415715088299
 30
0.0
 10
66.81693791732354
 20
-85.70415715088299
 30
0.0
 10
66.76422795639922
 20
-85.742225455995
 30
0.0
 10
66.73873424980837
 20
-85.75703936658158
 30
0.0
 10
66.6963595753398
 20
-85.78029376110702
 30
0.0
 10
66.6963595753398
 20
-85.78029376110702
 30
0.0
 10
66.50825736184517
 20
-85.6512749351844
 30
0.0
 10
66.50825736184517
 20
-85.6512749351844
 30
0.0
 10
66.58646102936034
 20
-85.6173407446547
 30
0.0
 10
66.7432128739392
 20
-85.5539509877261
 30
0.0
 10
66.89962020896954
 20
-85.41011825121691
 30
0.0
 10
66.98195799106702
 20
-85.33174232892749
 30
0.0
 10
67.06050616813071
 20
-85.24716523476461
 30
0.0
 10
67.11321612905503
 20
-85.14570717272399
 30
0.0
 10
67.11321612905503
 20
-85.14570717272399
 30
0.0
 10
67.32474499184937
 20
-85.20702987236145
 30
0.0
 10
67.32474499184937
 20
-85.20702987236145
 30
0.0
 10
67.34369301701825
 20
-85.21323104423489
 30
0.0
 10
67.35437281302252
 20
-85.22184378294801
 30
0.0
 10
67.35437281302252
 20
-85.23441838146918
 30
0.0
 10
67.35437281302252
 20
-85.25147160412116
 30
0.0
 10
67.3416259597271
 20
-85.2576727759946
 30
0.0
 10
67.31647676268477
 20
-85.27041962929003
 30
0.0
 10
67.3967474874911
 20
-85.36774357674834
 30
0.0
 10
67.55970050394342
 20
-85.46506752420666
 30
0.0
 10
67.59346243969885
 20
-85.48401554937553
 30
0.0
 10
67.74366860285575
 20
-85.57289901289498
 30
0.0
 10
67.85804577296605
 20
-85.60045977677697
 30
0.0
 10
67.93624944048122
 20
-85.61940780194584
 30
0.0
 10
67.93624944048122
 20
-85.61940780194584
 30
0.0
 10
67.81773815578862
 20
-85.78873424504587
 30
0.0
 10
67.81773815578862
 20
-85.78873424504587
 30
0.0
 10
67.73298880685148
 20
-85.75910642387272
 30
0.0
 10
67.6823459032183
 20
-85.74015839870385
 30
0.0
 10
67.56383461852572
 20
-85.67452932970984
 30
0.0
 10
67.56383461852572
 20
-85.67452932970984
 30
0.0
 10
67.56383461852572
 20
-85.78442787568932
 30
0.0
 10
67.56383461852572
 20
-85.78442787568932
 30
0.0
 10
67.48149683642824
 20
-85.77598739175045
 30
0.0
 10
67.35437281302252
 20
-85.77185327716815
 30
0.0
 10
67.3016628520982
 20
-85.77185327716815
 30
0.0
 10
67.3016628520982
 20
-85.77185327716815
 30
0.0
 10
67.3016628520982
 20
-85.9029391603819
 30
0.0
 10
67.3016628520982
 20
-85.9029391603819
 30
0.0
 10
67.3016628520982
 20
-85.9029391603819
 30
0.0
 10
67.42224119408195
 20
-85.9029391603819
 30
0.0
 10
67.42224119408195
 20
-85.9029391603819
 30
0.0
 10
67.42430825137309
 20
-85.9029391603819
 30
0.0
 10
67.65685219662745
 20
-85.90087210309076
 30
0.0
 10
67.83461912366634
 20
-85.88399113521304
 30
0.0
 10
67.83461912366634
 20
-85.88399113521304
 30
0.0
 10
67.83461912366634
 20
-86.07433266077308
 30
0.0
 10
67.83461912366634
 20
-86.07433266077308
 30
0.0
 10
67.705772552518
 20
-86.06158580747767
 30
0.0
 10
67.54902070793914
 20
-86.06158580747767
 30
0.0
 10
67.42224119408195
 20
-86.06158580747767
 30
0.0
 10
67.42224119408195
 20
-86.06158580747767
 30
0.0
 10
67.3016628520982
 20
-86.06158580747767
 30
0.0
 10
67.3016628520982
 20
-86.06158580747767
 30
0.0
 10
67.3016628520982
 20
-86.06158580747767
 30
0.0
 10
67.3016628520982
 20
-86.28792858085858
 30
0.0
 10
67.3016628520982
 20
-86.28792858085858
 30
0.0
 10
67.3016628520982
 20
-86.40643986555118
 30
0.0
 10
67.27616914550735
 20
-86.44244111337203
 30
0.0
 10
67.11528318634618
 20
-86.45725502395861
 30
0.0
 10
67.119761810477
 20
-86.47620304912748
 30
0.0
 10
67.11321612905503
 20
-86.48688284513176
 30
0.0
 10
67.07532007871728
 20
-86.5101372396572
 30
0.0
 10
67.07290851187761
 20
-86.52908526482607
 30
0.0
 10
67.07290851187761
 20
-86.53545869147378
 30
0.0
 10
67.07084145458646
 20
-86.55027260206035
 30
0.0
 10
67.07084145458646
 20
-86.55027260206035
 30
0.0
 10
67.20864527399645
 20
-86.55027260206035
 30
0.0
 10
67.20864527399645
 20
-86.55027260206035
 30
0.0
 10
67.37332083819139
 20
-86.55027260206035
 30
0.0
 10
67.54075247877454
 20
-86.54613848747805
 30
0.0
 10
67.70783960980916
 20
-86.53132457689148
 30
0.0
 10
67.70783960980916
 20
-86.53132457689148
 30
0.0
 10
67.70783960980916
 20
-86.73854707032926
 30
0.0
 10
67.70783960980916
 20
-86.73854707032926
 30
0.0
 10
67.49183212288399
 20
-86.72166610245154
 30
0.0
 10
67.22759329916532
 20
-86.72166610245154
 30
0.0
 10
67.20864527399645
 20
-86.72166610245154
 30
0.0
 10
67.20864527399645
 20
-86.72166610245154
 30
0.0
 10
67.06877439729531
 20
-86.72166610245154
 30
0.0
 10
67.06877439729531
 20
-86.72166610245154
 30
0.0
 10
67.06877439729531
 20
-86.72166610245154
 30
0.0
 10
67.06877439729531
 20
-86.86343178166956
 30
0.0
 10
67.06877439729531
 20
-86.86343178166956
 30
0.0
 10
67.06877439729531
 20
-86.86343178166956
 30
0.0
 10
67.29511717067622
 20
-86.86343178166956
 30
0.0
 10
67.29511717067622
 20
-86.86343178166956
 30
0.0
 10
67.51112465760139
 20
-86.86343178166956
 30
0.0
 10
67.72885469226918
 20
-86.859125412313
 30
0.0
 10
67.94451766964582
 20
-86.84655081379184
 30
0.0
 10
67.94451766964582
 20
-86.84655081379184
 30
0.0
 10
67.94451766964582
 20
-87.05377330722962
 30
0.0
 10
67.94451766964582
 20
-87.05377330722962
 30
0.0
 10
67.66339787804944
 20
-87.0368923393519
 30
0.0
 10
67.31854381997593
 20
-87.0368923393519
 30
0.0
 10
67.29511717067622
 20
-87.0368923393519
 30
0.0
  0
SPLINE
  5
C8
330
C2
100
AcDbEntity
  8
_U+30EC_U+30A4_U+30E4_U+30FC 1
370
     0
100
AcDbSpline
210
0.0
220
0.0
230
1.0
 70
    11
 71
     3
 72
    23
 73
    19
 74
     0
 42
0.0000000001
 43
0.0000000001
 12
1.0
 22
0.0
 32
0.0
 13
1.0
 23
0.0
 33
0.0
 40
0.0
 40
0.0
 40
0.0
 40
0.0
 40
1.0
 40
1.0
 40
1.0
 40
2.0
 40
2.0
 40
2.0
 40
3.0
 40
3.0
 40
3.0
 40
4.0
 40
4.0
 40
4.0
 40
5.0
 40
5.0
 40
5.0
 40
6.0
 40
6.0
 40
6.0
 40
6.0
 10
66.17615015706707
 20
-86.40850692284232
 30
0.0
 10
66.17615015706707
 20
-86.4296942600766
 30
0.0
 10
66.17821721435823
 20
-86.46776256518862
 30
0.0
 10
66.15272350776738
 20
-86.46776256518862
 30
0.0
 10
66.14238822131163
 20
-86.46776256518862
 30
0.0
 10
66.13377548259851
 20
-86.46138913854091
 30
0.0
 10
66.12309568659423
 20
-86.44450817066318
 30
0.0
 10
66.12309568659423
 20
-86.44450817066318
 30
0.0
 10
66.0193983124882
 20
-86.262607129042
 30
0.0
 10
66.0193983124882
 20
-86.262607129042
 30
0.0
 10
66.23540579941337
 20
-86.13358830311938
 30
0.0
 10
66.43212075162114
 20
-85.85643037133103
 30
0.0
 10
66.47862954067202
 20
-85.78442787568932
 30
0.0
 10
66.47862954067202
 20
-85.78442787568932
 30
0.0
 10
66.55063203631373
 20
-85.96426186001935
 30
0.0
 10
66.55063203631373
 20
-85.96426186001935
 30
0.0
 10
66.41730684103456
 20
-86.16097681222712
 30
0.0
 10
66.24160697128683
 20
-86.34511716591372
 30
0.0
 10
66.17615015706707
 20
-86.40850692284232
 30
0.0
  0
SPLINE
  5
C9
330
C2
100
AcDbEntity
  8
_U+30EC_U+30A4_U+30E4_U+30FC 1
370
     0
100
AcDbSpline
210
0.0
220
0.0
230
1.0
 70
    11
 71
     3
 72
    17
 73
    13
 74
     0
 42
0.0000000001
 43
0.0000000001
 12
1.0
 22
0.0
 32
0.0
 13
1.0
 23
0.0
 33
0.0
 40
0.0
 40
0.0
 40
0.0
 40
0.0
 40
1.0
 40
1.0
 40
1.0
 40
2.0
 40
2.0
 40
2.0
 40
3.0
 40
3.0
 40
3.0
 40
4.0
 40
4.0
 40
4.0
 40
4.0
 10
66.43005369432998
 20
-85.51364337054868
 30
0.0
 10
66.36873099469254
 20
-85.43750676032465
 30
0.0
 10
66.23953991399567
 20
-85.36137015010064
 30
0.0
 10
66.13584253988965
 20
-85.33174232892749
 30
0.0
 10
66.13584253988965
 20
-85.33174232892749
 30
0.0
 10
66.23127168483107
 20
-85.16672225518401
 30
0.0
 10
66.23127168483107
 20
-85.16672225518401
 30
0.0
 10
66.33255749209742
 20
-85.20272350300488
 30
0.0
 10
66.43832192349458
 20
-85.25991208806002
 30
0.0
 10
66.52720538701404
 20
-85.34018281286635
 30
0.0
 10
66.52720538701404
 20
-85.34018281286635
 30
0.0
 10
66.43005369432998
 20
-85.51364337054868
 30
0.0
 10
66.43005369432998
 20
-85.51364337054868
 30
0.0
  0
SPLINE
  5
CA
330
C2
100
AcDbEntity
  8
_U+30EC_U+30A4_U+30E4_U+30FC 1
370
     0
100
AcDbSpline
210
0.0
220
0.0
230
1.0
 70
    11
 71
     3
 72
    23
 73
    19
 74
     0
 42
0.0000000001
 43
0.0000000001
 12
1.0
 22
0.0
 32
0.0
 13
1.0
 23
0.0
 33
0.0
 40
0.0
 40
0.0
 40
0.0
 40
0.0
 40
1.0
 40
1.0
 40
1.0
 40
2.0
 40
2.0
 40
2.0
 40
3.0
 40
3.0
 40
3.0
 40
4.0
 40
4.0
 40
4.0
 40
5.0
 40
5.0
 40
5.0
 40
6.0
 40
6.0
 40
6.0
 40
6.0
 10
66.88273924109181
 20
-86.21816539728226
 30
0.0
 10
66.86137964908328
 20
-86.2414197918077
 30
0.0
 10
66.76422795639922
 20
-86.35355764985259
 30
0.0
 10
66.62470158924661
 20
-86.43400062943317
 30
0.0
 10
66.62470158924661
 20
-86.43400062943317
 30
0.0
 10
66.45761445821199
 20
-86.31342228744943
 30
0.0
 10
66.45761445821199
 20
-86.31342228744943
 30
0.0
 10
66.60782062136889
 20
-86.2372856772254
 30
0.0
 10
66.70703937134408
 20
-86.14202878705825
 30
0.0
 10
66.7556152176861
 20
-86.08914657135966
 30
0.0
 10
66.7556152176861
 20
-86.08914657135966
 30
0.0
 10
66.92924803014269
 20
-86.1716566082314
 30
0.0
 10
66.92924803014269
 20
-86.1716566082314
 30
0.0
 10
66.93786076885581
 20
-86.1757907228137
 30
0.0
 10
66.94612899802041
 20
-86.18216414946141
 30
0.0
 10
66.94612899802041
 20
-86.19284394546568
 30
0.0
 10
66.94612899802041
 20
-86.21816539728226
 30
0.0
 10
66.91030000497382
 20
-86.21816539728226
 30
0.0
 10
66.88273924109181
 20
-86.21816539728226
 30
0.0
  0
SPLINE
  5
CB
330
C2
100
AcDbEntity
  8
_U+30EC_U+30A4_U+30E4_U+30FC 1
370
     0
100
AcDbSpline
210
0.0
220
0.0
230
1.0
 70
    11
 71
     3
 72
    20
 73
    16
 74
     0
 42
0.0000000001
 43
0.0000000001
 12
1.0
 22
0.0
 32
0.0
 13
1.0
 23
0.0
 33
0.0
 40
0.0
 40
0.0
 40
0.0
 40
0.0
 40
1.0
 40
1.0
 40
1.0
 40
2.0
 40
2.0
 40
2.0
 40
3.0
 40
3.0
 40
3.0
 40
4.0
 40
4.0
 40
4.0
 40
5.0
 40
5.0
 40
5.0
 40
5.0
 10
67.18108451011446
 20
-85.37618406068721
 30
0.0
 10
67.14284395022818
 20
-85.4249321618035
 30
0.0
 10
67.08152125059074
 20
-85.50313582931867
 30
0.0
 10
66.94199488343811
 20
-85.6132066300724
 30
0.0
 10
67.02226560824444
 20
-85.6173407446547
 30
0.0
 10
67.05189342941759
 20
-85.6173407446547
 30
0.0
 10
67.07532007871728
 20
-85.6173407446547
 30
0.0
 10
67.07532007871728
 20
-85.6173407446547
 30
0.0
 10
67.30372990938935
 20
-85.6173407446547
 30
0.0
 10
67.30372990938935
 20
-85.6173407446547
 30
0.0
 10
67.33542478785364
 20
-85.6173407446547
 30
0.0
 10
67.38400063419567
 20
-85.61527368736354
 30
0.0
 10
67.45807018712854
 20
-85.6132066300724
 30
0.0
 10
67.34610458385792
 20
-85.53913707713953
 30
0.0
 10
67.29718422796738
 20
-85.49262828808865
 30
0.0
 10
67.18108451011446
 20
-85.37618406068721
 30
0.0
  0
SPLINE
  5
CC
330
C2
100
AcDbEntity
  8
_U+30EC_U+30A4_U+30E4_U+30FC 1
370
     0
100
AcDbSpline
210
0.0
220
0.0
230
1.0
 70
    11
 71
     3
 72
    17
 73
    13
 74
     0
 42
0.0000000001
 43
0.0000000001
 12
1.0
 22
0.0
 32
0.0
 13
1.0
 23
0.0
 33
0.0
 40
0.0
 40
0.0
 40
0.0
 40
0.0
 40
1.0
 40
1.0
 40
1.0
 40
2.0
 40
2.0
 40
2.0
 40
3.0
 40
3.0
 40
3.0
 40
4.0
 40
4.0
 40
4.0
 40
4.0
 10
67.7416015455646
 20
-86.43176131736776
 30
0.0
 10
67.60620929299428
 20
-86.31979571409714
 30
0.0
 10
67.50044486159712
 20
-86.25623370239428
 30
0.0
 10
67.38193357690452
 20
-86.19284394546568
 30
0.0
 10
67.38193357690452
 20
-86.19284394546568
 30
0.0
 10
67.50871309076172
 20
-86.0807060874208
 30
0.0
 10
67.50871309076172
 20
-86.0807060874208
 30
0.0
 10
67.63997122874973
 20
-86.12721487647167
 30
0.0
 10
67.75021428427773
 20
-86.18440346152681
 30
0.0
 10
67.87492674084378
 20
-86.28586152356743
 30
0.0
 10
67.87492674084378
 20
-86.28586152356743
 30
0.0
 10
67.7416015455646
 20
-86.43176131736776
 30
0.0
 10
67.7416015455646
 20
-86.43176131736776
 30
0.0
  0
HATCH
  5
CD
330
C2
100
AcDbEntity
  8
_U+30EC_U+30A4_U+30E4_U+30FC 1
 62
   179
420
  2234388
100
AcDbHatch
 10
0.0
 20
0.0
 30
0.0
210
0.0
220
0.0
230
1.0
  2
SOLID
 70
     1
 71
     0
 91
        7
 92
        1
 93
        1
 72
     4
 94
        3
 73
     0
 74
     1
 95
       17
 96
       13
 40
0.0
 40
0.0
 40
0.0
 40
0.0
 40
1.0
 40
1.0
 40
1.0
 40
2.0
 40
2.0
 40
2.0
 40
3.0
 40
3.0
 40
3.0
 40
4.0
 40
4.0
 40
4.0
 40
4.0
 10
66.25021970999995
 20
-85.85849742862219
 10
66.14445527860278
 20
-85.75273299722501
 10
66.06384004424793
 20
-85.714664692113
 10
65.97082246614619
 20
-85.68296981364871
 10
65.97082246614619
 20
-85.68296981364871
 10
66.08106552167418
 20
-85.51794973990523
 10
66.08106552167418
 20
-85.51794973990523
 10
66.17821721435823
 20
-85.56032441437381
 10
66.29879555634197
 20
-85.63852808188898
 10
66.35185002681482
 20
-85.69347735487872
 10
66.35185002681482
 20
-85.69347735487872
 10
66.25021970999995
 20
-85.85849742862219
 10
66.25021970999995
 20
-85.85849742862219
 97
        0
 97
        0
 92
        1
 93
        1
 72
     4
 94
        3
 73
     0
 74
     1
 95
      182
 96
      178
 40
0.0
 40
0.0
 40
0.0
 40
0.0
 40
1.0
 40
1.0
 40
1.0
 40
2.0
 40
2.0
 40
2.0
 40
3.0
 40
3.0
 40
3.0
 40
4.0
 40
4.0
 40
4.0
 40
5.0
 40
5.0
 40
5.0
 40
6.0
 40
6.0
 40
6.0
 40
7.0
 40
7.0
 40
7.0
 40
8.0
 40
8.0
 40
8.0
 40
9.0
 40
9.0
 40
9.0
 40
10.0
 40
10.0
 40
10.0
 40
11.0
 40
11.0
 40
11.0
 40
12.0
 40
12.0
 40
12.0
 40
13.0
 40
13.0
 40
13.0
 40
14.0
 40
14.0
 40
14.0
 40
15.0
 40
15.0
 40
15.0
 40
16.0
 40
16.0
 40
16.0
 40
17.0
 40
17.0
 40
17.0
 40
18.0
 40
18.0
 40
18.0
 40
19.0
 40
19.0
 40
19.0
 40
20.0
 40
20.0
 40
20.0
 40
21.0
 40
21.0
 40
21.0
 40
22.0
 40
22.0
 40
22.0
 40
23.0
 40
23.0
 40
23.0
 40
24.0
 40
24.0
 40
24.0
 40
25.0
 40
25.0
 40
25.0
 40
26.0
 40
26.0
 40
26.0
 40
27.0
 40
27.0
 40
27.0
 40
28.0
 40
28.0
 40
28.0
 40
29.0
 40
29.0
 40
29.0
 40
30.0
 40
30.0
 40
30.0
 40
31.0
 40
31.0
 40
31.0
 40
32.0
 40
32.0
 40
32.0
 40
33.0
 40
33.0
 40
33.0
 40
34.0
 40
34.0
 40
34.0
 40
35.0
 40
35.0
 40
35.0
 40
36.0
 40
36.0
 40
36.0
 40
37.0
 40
37.0
 40
37.0
 40
38.0
 40
38.0
 40
38.0
 40
39.0
 40
39.0
 40
39.0
 40
40.0
 40
40.0
 40
40.0
 40
41.0
 40
41.0
 40
41.0
 40
42.0
 40
42.0
 40
42.0
 40
43.0
 40
43.0
 40
43.0
 40
44.0
 40
44.0
 40
44.0
 40
45.0
 40
45.0
 40
45.0
 40
46.0
 40
46.0
 40
46.0
 40
47.0
 40
47.0
 40
47.0
 40
48.0
 40
48.0
 40
48.0
 40
49.0
 40
49.0
 40
49.0
 40
50.0
 40
50.0
 40
50.0
 40
51.0
 40
51.0
 40
51.0
 40
52.0
 40
52.0
 40
52.0
 40
53.0
 40
53.0
 40
53.0
 40
54.0
 40
54.0
 40
54.0
 40
55.0
 40
55.0
 40
55.0
 40
56.0
 40
56.0
 40
56.0
 40
57.0
 40
57.0
 40
57.0
 40
58.0
 40
58.0
 40
58.0
 40
59.0
 40
59.0
 40
59.0
 40
59.0
 10
67.29511717067622
 20
-87.0368923393519
 10
67.29511717067622
 20
-87.0368923393519
 10
66.65846352500205
 20
-87.0368923393519
 10
66.65846352500205
 20
-87.0368923393519
 10
66.44486760491657
 20
-87.0368923393519
 10
66.2288601179914
 20
-87.04119870870845
 10
66.0152641979059
 20
-87.05377330722962
 10
66.0152641979059
 20
-87.05377330722962
 10
66.0152641979059
 20
-86.84655081379184
 10
66.0152641979059
 20
-86.84655081379184
 10
66.23747285670453
 20
-86.859125412313
 10
66.56096732276949
 20
-86.86343178166956
 10
66.65846352500205
 20
-86.86343178166956
 10
66.65846352500205
 20
-86.86343178166956
 10
66.87860512650951
 20
-86.86343178166956
 10
66.87860512650951
 20
-86.86343178166956
 10
66.87860512650951
 20
-86.86343178166956
 10
66.87860512650951
 20
-86.72166610245154
 10
66.87860512650951
 20
-86.72166610245154
 10
66.87860512650951
 20
-86.72166610245154
 10
66.71771916734835
 20
-86.72166610245154
 10
66.71771916734835
 20
-86.72166610245154
 10
66.55269909360489
 20
-86.72166610245154
 10
66.38767901986142
 20
-86.72597247180809
 10
66.22265894611795
 20
-86.74078638239467
 10
66.22265894611795
 20
-86.74078638239467
 10
66.22265894611795
 20
-86.53132457689148
 10
66.22265894611795
 20
-86.53132457689148
 10
66.39388019173487
 20
-86.54613848747805
 10
66.64158255712432
 20
-86.55027260206035
 10
66.71771916734835
 20
-86.55027260206035
 10
66.71771916734835
 20
-86.55027260206035
 10
66.87860512650951
 20
-86.55027260206035
 10
66.87860512650951
 20
-86.55027260206035
 10
66.87412650237869
 20
-86.47844236119289
 10
66.87412650237869
 20
-86.47206893454518
 10
66.86792533050524
 20
-86.41918671884659
 10
66.86792533050524
 20
-86.41918671884659
 10
67.00745169765786
 20
-86.43400062943317
 10
67.00745169765786
 20
-86.43400062943317
 10
67.00745169765786
 20
-86.43400062943317
 10
66.90823294768266
 20
-86.262607129042
 10
66.90823294768266
 20
-86.262607129042
 10
66.95474173673354
 20
-86.26898055568971
 10
67.02881128966641
 20
-86.27742103962856
 10
67.04569225754413
 20
-86.27742103962856
 10
67.09633516117731
 20
-86.27742103962856
 10
67.11321612905503
 20
-86.25623370239428
 10
67.11321612905503
 20
-86.1992173721134
 10
67.11321612905503
 20
-86.1992173721134
 10
67.11321612905503
 20
-86.06158580747767
 10
67.11321612905503
 20
-86.06158580747767
 10
67.11321612905503
 20
-86.06158580747767
 10
67.00745169765786
 20
-86.06158580747767
 10
67.00745169765786
 20
-86.06158580747767
 10
66.87412650237869
 20
-86.06158580747767
 10
66.71771916734835
 20
-86.06158580747767
 10
66.59507376807346
 20
-86.07433266077308
 10
66.59507376807346
 20
-86.07433266077308
 10
66.59507376807346
 20
-85.88399113521304
 10
66.59507376807346
 20
-85.88399113521304
 10
66.76216089910807
 20
-85.90087210309076
 10
66.99263778707129
 20
-85.9029391603819
 10
67.00745169765786
 20
-85.9029391603819
 10
67.00745169765786
 20
-85.9029391603819
 10
67.11321612905503
 20
-85.9029391603819
 10
67.11321612905503
 20
-85.9029391603819
 10
67.11321612905503
 20
-85.9029391603819
 10
67.11321612905503
 20
-85.77185327716815
 10
67.11321612905503
 20
-85.77185327716815
 10
67.11321612905503
 20
-85.77185327716815
 10
67.07532007871728
 20
-85.77185327716815
 10
67.07532007871728
 20
-85.77185327716815
 10
67.03087834695756
 20
-85.77185327716815
 10
66.905821380843
 20
-85.77598739175045
 10
66.81693791732354
 20
-85.78442787568932
 10
66.81693791732354
 20
-85.78442787568932
 10
66.81693791732354
 20
-85.70415715088299
 10
66.81693791732354
 20
-85.70415715088299
 10
66.76422795639922
 20
-85.742225455995
 10
66.73873424980837
 20
-85.75703936658158
 10
66.6963595753398
 20
-85.78029376110702
 10
66.6963595753398
 20
-85.78029376110702
 10
66.50825736184517
 20
-85.6512749351844
 10
66.50825736184517
 20
-85.6512749351844
 10
66.58646102936034
 20
-85.6173407446547
 10
66.7432128739392
 20
-85.5539509877261
 10
66.89962020896954
 20
-85.41011825121691
 10
66.98195799106702
 20
-85.33174232892749
 10
67.06050616813071
 20
-85.24716523476461
 10
67.11321612905503
 20
-85.14570717272399
 10
67.11321612905503
 20
-85.14570717272399
 10
67.32474499184937
 20
-85.20702987236145
 10
67.32474499184937
 20
-85.20702987236145
 10
67.34369301701825
 20
-85.21323104423489
 10
67.35437281302252
 20
-85.22184378294801
 10
67.35437281302252
 20
-85.23441838146918
 10
67.35437281302252
 20
-85.25147160412116
 10
67.3416259597271
 20
-85.2576727759946
 10
67.31647676268477
 20
-85.27041962929003
 10
67.3967474874911
 20
-85.36774357674834
 10
67.55970050394342
 20
-85.46506752420666
 10
67.59346243969885
 20
-85.48401554937553
 10
67.74366860285575
 20
-85.57289901289498
 10
67.85804577296605
 20
-85.60045977677697
 10
67.93624944048122
 20
-85.61940780194584
 10
67.93624944048122
 20
-85.61940780194584
 10
67.81773815578862
 20
-85.78873424504587
 10
67.81773815578862
 20
-85.78873424504587
 10
67.73298880685148
 20
-85.75910642387272
 10
67.6823459032183
 20
-85.74015839870385
 10
67.56383461852572
 20
-85.67452932970984
 10
67.56383461852572
 20
-85.67452932970984
 10
67.56383461852572
 20
-85.78442787568932
 10
67.56383461852572
 20
-85.78442787568932
 10
67.48149683642824
 20
-85.77598739175045
 10
67.35437281302252
 20
-85.77185327716815
 10
67.3016628520982
 20
-85.77185327716815
 10
67.3016628520982
 20
-85.77185327716815
 10
67.3016628520982
 20
-85.9029391603819
 10
67.3016628520982
 20
-85.9029391603819
 10
67.3016628520982
 20
-85.9029391603819
 10
67.42224119408195
 20
-85.9029391603819
 10
67.42224119408195
 20
-85.9029391603819
 10
67.42430825137309
 20
-85.9029391603819
 10
67.65685219662745
 20
-85.90087210309076
 10
67.83461912366634
 20
-85.88399113521304
 10
67.83461912366634
 20
-85.88399113521304
 10
67.83461912366634
 20
-86.07433266077308
 10
67.83461912366634
 20
-86.07433266077308
 10
67.705772552518
 20
-86.06158580747767
 10
67.54902070793914
 20
-86.06158580747767
 10
67.42224119408195
 20
-86.06158580747767
 10
67.42224119408195
 20
-86.06158580747767
 10
67.3016628520982
 20
-86.06158580747767
 10
67.3016628520982
 20
-86.06158580747767
 10
67.3016628520982
 20
-86.06158580747767
 10
67.3016628520982
 20
-86.28792858085858
 10
67.3016628520982
 20
-86.28792858085858
 10
67.3016628520982
 20
-86.40643986555118
 10
67.27616914550735
 20
-86.44244111337203
 10
67.11528318634618
 20
-86.45725502395861
 10
67.119761810477
 20
-86.47620304912748
 10
67.11321612905503
 20
-86.48688284513176
 10
67.07532007871728
 20
-86.5101372396572
 10
67.07290851187761
 20
-86.52908526482607
 10
67.07290851187761
 20
-86.53545869147378
 10
67.07084145458646
 20
-86.55027260206035
 10
67.07084145458646
 20
-86.55027260206035
 10
67.20864527399645
 20
-86.55027260206035
 10
67.20864527399645
 20
-86.55027260206035
 10
67.37332083819139
 20
-86.55027260206035
 10
67.54075247877454
 20
-86.54613848747805
 10
67.70783960980916
 20
-86.53132457689148
 10
67.70783960980916
 20
-86.53132457689148
 10
67.70783960980916
 20
-86.73854707032926
 10
67.70783960980916
 20
-86.73854707032926
 10
67.49183212288399
 20
-86.72166610245154
 10
67.22759329916532
 20
-86.72166610245154
 10
67.20864527399645
 20
-86.72166610245154
 10
67.20864527399645
 20
-86.72166610245154
 10
67.06877439729531
 20
-86.72166610245154
 10
67.06877439729531
 20
-86.72166610245154
 10
67.06877439729531
 20
-86.72166610245154
 10
67.06877439729531
 20
-86.86343178166956
 10
67.06877439729531
 20
-86.86343178166956
 10
67.06877439729531
 20
-86.86343178166956
 10
67.29511717067622
 20
-86.86343178166956
 10
67.29511717067622
 20
-86.86343178166956
 10
67.51112465760139
 20
-86.86343178166956
 10
67.72885469226918
 20
-86.859125412313
 10
67.94451766964582
 20
-86.84655081379184
 10
67.94451766964582
 20
-86.84655081379184
 10
67.94451766964582
 20
-87.05377330722962
 10
67.94451766964582
 20
-87.05377330722962
 10
67.66339787804944
 20
-87.0368923393519
 10
67.31854381997593
 20
-87.0368923393519
 10
67.29511717067622
 20
-87.0368923393519
 97
        0
 97
        0
 92
        1
 93
        1
 72
     4
 94
        3
 73
     0
 74
     1
 95
       23
 96
       19
 40
0.0
 40
0.0
 40
0.0
 40
0.0
 40
1.0
 40
1.0
 40
1.0
 40
2.0
 40
2.0
 40
2.0
 40
3.0
 40
3.0
 40
3.0
 40
4.0
 40
4.0
 40
4.0
 40
5.0
 40
5.0
 40
5.0
 40
6.0
 40
6.0
 40
6.0
 40
6.0
 10
66.17615015706707
 20
-86.40850692284232
 10
66.17615015706707
 20
-86.4296942600766
 10
66.17821721435823
 20
-86.46776256518862
 10
66.15272350776738
 20
-86.46776256518862
 10
66.14238822131163
 20
-86.46776256518862
 10
66.13377548259851
 20
-86.46138913854091
 10
66.12309568659423
 20
-86.44450817066318
 10
66.12309568659423
 20
-86.44450817066318
 10
66.0193983124882
 20
-86.262607129042
 10
66.0193983124882
 20
-86.262607129042
 10
66.23540579941337
 20
-86.13358830311938
 10
66.43212075162114
 20
-85.85643037133103
 10
66.47862954067202
 20
-85.78442787568932
 10
66.47862954067202
 20
-85.78442787568932
 10
66.55063203631373
 20
-85.96426186001935
 10
66.55063203631373
 20
-85.96426186001935
 10
66.41730684103456
 20
-86.16097681222712
 10
66.24160697128683
 20
-86.34511716591372
 10
66.17615015706707
 20
-86.40850692284232
 97
        0
 97
        0
 92
        1
 93
        1
 72
     4
 94
        3
 73
     0
 74
     1
 95
       17
 96
       13
 40
0.0
 40
0.0
 40
0.0
 40
0.0
 40
1.0
 40
1.0
 40
1.0
 40
2.0
 40
2.0
 40
2.0
 40
3.0
 40
3.0
 40
3.0
 40
4.0
 40
4.0
 40
4.0
 40
4.0
 10
66.43005369432998
 20
-85.51364337054868
 10
66.36873099469254
 20
-85.43750676032465
 10
66.23953991399567
 20
-85.36137015010064
 10
66.13584253988965
 20
-85.33174232892749
 10
66.13584253988965
 20
-85.33174232892749
 10
66.23127168483107
 20
-85.16672225518401
 10
66.23127168483107
 20
-85.16672225518401
 10
66.33255749209742
 20
-85.20272350300488
 10
66.43832192349458
 20
-85.25991208806002
 10
66.52720538701404
 20
-85.34018281286635
 10
66.52720538701404
 20
-85.34018281286635
 10
66.43005369432998
 20
-85.51364337054868
 10
66.43005369432998
 20
-85.51364337054868
 97
        0
 97
        0
 92
        1
 93
        1
 72
     4
 94
        3
 73
     0
 74
     1
 95
       23
 96
       19
 40
0.0
 40
0.0
 40
0.0
 40
0.0
 40
1.0
 40
1.0
 40
1.0
 40
2.0
 40
2.0
 40
2.0
 40
3.0
 40
3.0
 40
3.0
 40
4.0
 40
4.0
 40
4.0
 40
5.0
 40
5.0
 40
5.0
 40
6.0
 40
6.0
 40
6.0
 40
6.0
 10
66.88273924109181
 20
-86.21816539728226
 10
66.86137964908328
 20
-86.2414197918077
 10
66.76422795639922
 20
-86.35355764985259
 10
66.62470158924661
 20
-86.43400062943317
 10
66.62470158924661
 20
-86.43400062943317
 10
66.45761445821199
 20
-86.31342228744943
 10
66.45761445821199
 20
-86.31342228744943
 10
66.60782062136889
 20
-86.2372856772254
 10
66.70703937134408
 20
-86.14202878705825
 10
66.7556152176861
 20
-86.08914657135966
 10
66.7556152176861
 20
-86.08914657135966
 10
66.92924803014269
 20
-86.1716566082314
 10
66.92924803014269
 20
-86.1716566082314
 10
66.93786076885581
 20
-86.1757907228137
 10
66.94612899802041
 20
-86.18216414946141
 10
66.94612899802041
 20
-86.19284394546568
 10
66.94612899802041
 20
-86.21816539728226
 10
66.91030000497382
 20
-86.21816539728226
 10
66.88273924109181
 20
-86.21816539728226
 97
        0
 97
        0
 92
        1
 93
        1
 72
     4
 94
        3
 73
     0
 74
     1
 95
       20
 96
       16
 40
0.0
 40
0.0
 40
0.0
 40
0.0
 40
1.0
 40
1.0
 40
1.0
 40
2.0
 40
2.0
 40
2.0
 40
3.0
 40
3.0
 40
3.0
 40
4.0
 40
4.0
 40
4.0
 40
5.0
 40
5.0
 40
5.0
 40
5.0
 10
67.18108451011446
 20
-85.37618406068721
 10
67.14284395022818
 20
-85.4249321618035
 10
67.08152125059074
 20
-85.50313582931867
 10
66.94199488343811
 20
-85.6132066300724
 10
67.02226560824444
 20
-85.6173407446547
 10
67.05189342941759
 20
-85.6173407446547
 10
67.07532007871728
 20
-85.6173407446547
 10
67.07532007871728
 20
-85.6173407446547
 10
67.30372990938935
 20
-85.6173407446547
 10
67.30372990938935
 20
-85.6173407446547
 10
67.33542478785364
 20
-85.6173407446547
 10
67.38400063419567
 20
-85.61527368736354
 10
67.45807018712854
 20
-85.6132066300724
 10
67.34610458385792
 20
-85.53913707713953
 10
67.29718422796738
 20
-85.49262828808865
 10
67.18108451011446
 20
-85.37618406068721
 97
        0
 97
        0
 92
        1
 93
        1
 72
     4
 94
        3
 73
     0
 74
     1
 95
       17
 96
       13
 40
0.0
 40
0.0
 40
0.0
 40
0.0
 40
1.0
 40
1.0
 40
1.0
 40
2.0
 40
2.0
 40
2.0
 40
3.0
 40
3.0
 40
3.0
 40
4.0
 40
4.0
 40
4.0
 40
4.0
 10
67.7416015455646
 20
-86.43176131736776
 10
67.60620929299428
 20
-86.31979571409714
 10
67.50044486159712
 20
-86.25623370239428
 10
67.38193357690452
 20
-86.19284394546568
 10
67.38193357690452
 20
-86.19284394546568
 10
67.50871309076172
 20
-86.0807060874208
 10
67.50871309076172
 20
-86.0807060874208
 10
67.63997122874973
 20
-86.12721487647167
 10
67.75021428427773
 20
-86.18440346152681
 10
67.87492674084378
 20
-86.28586152356743
 10
67.87492674084378
 20
-86.28586152356743
 10
67.7416015455646
 20
-86.43176131736776
 10
67.7416015455646
 20
-86.43176131736776
 97
        0
 97
        0
 75
     2
 76
     1
 98
        0
  0
SPLINE
  5
CE
330
C2
100
AcDbEntity
  8
_U+30EC_U+30A4_U+30E4_U+30FC 1
370
     0
100
AcDbSpline
210
0.0
220
0.0
230
1.0
 70
    11
 71
     3
 72
   113
 73
   109
 74
     0
 42
0.0000000001
 43
0.0000000001
 12
1.0
 22
0.0
 32
0.0
 13
1.0
 23
0.0
 33
0.0
 40
0.0
 40
0.0
 40
0.0
 40
0.0
 40
1.0
 40
1.0
 40
1.0
 40
2.0
 40
2.0
 40
2.0
 40
3.0
 40
3.0
 40
3.0
 40
4.0
 40
4.0
 40
4.0
 40
5.0
 40
5.0
 40
5.0
 40
6.0
 40
6.0
 40
6.0
 40
7.0
 40
7.0
 40
7.0
 40
8.0
 40
8.0
 40
8.0
 40
9.0
 40
9.0
 40
9.0
 40
10.0
 40
10.0
 40
10.0
 40
11.0
 40
11.0
 40
11.0
 40
12.0
 40
12.0
 40
12.0
 40
13.0
 40
13.0
 40
13.0
 40
14.0
 40
14.0
 40
14.0
 40
15.0
 40
15.0
 40
15.0
 40
16.0
 40
16.0
 40
16.0
 40
17.0
 40
17.0
 40
17.0
 40
18.0
 40
18.0
 40
18.0
 40
19.0
 40
19.0
 40
19.0
 40
20.0
 40
20.0
 40
20.0
 40
21.0
 40
21.0
 40
21.0
 40
22.0
 40
22.0
 40
22.0
 40
23.0
 40
23.0
 40
23.0
 40
24.0
 40
24.0
 40
24.0
 40
25.0
 40
25.0
 40
25.0
 40
26.0
 40
26.0
 40
26.0
 40
27.0
 40
27.0
 40
27.0
 40
28.0
 40
28.0
 40
28.0
 40
29.0
 40
29.0
 40
29.0
 40
30.0
 40
30.0
 40
30.0
 40
31.0
 40
31.0
 40
31.0
 40
32.0
 40
32.0
 40
32.0
 40
33.0
 40
33.0
 40
33.0
 40
34.0
 40
34.0
 40
34.0
 40
35.0
 40
35.0
 40
35.0
 40
36.0
 40
36.0
 40
36.0
 40
36.0
 10
69.62124564231691
 20
-86.40850692284232
 30
0.0
 10
69.62124564231691
 20
-86.40850692284232
 30
0.0
 10
69.72080890184064
 20
-86.50807018236604
 30
0.0
 10
69.72080890184064
 20
-86.50807018236604
 30
0.0
 10
69.73114418829638
 20
-86.51857772359605
 30
0.0
 10
69.74182398430065
 20
-86.53132457689148
 30
0.0
 10
69.74182398430065
 20
-86.54613848747805
 30
0.0
 10
69.74182398430065
 20
-86.5482055447692
 30
0.0
 10
69.74182398430065
 20
-86.57783336594235
 30
0.0
 10
69.70392793396292
 20
-86.57783336594235
 30
0.0
 10
69.69531519524979
 20
-86.57783336594235
 30
0.0
 10
69.65500757807236
 20
-86.57352699658578
 30
0.0
 10
69.64880640619891
 20
-86.57352699658578
 30
0.0
 10
69.6084987890215
 20
-86.60539412982435
 30
0.0
 10
69.56198999997062
 20
-86.6391560655798
 30
0.0
 10
69.46277124999543
 20
-86.69634465063494
 30
0.0
 10
69.6084987890215
 20
-86.80417613932326
 30
0.0
 10
69.7673176908915
 20
-86.86136472437842
 30
0.0
 10
70.0401692533233
 20
-86.89943302949042
 30
0.0
 10
70.0401692533233
 20
-86.89943302949042
 30
0.0
 10
69.8899630901664
 20
-87.0749606444639
 30
0.0
 10
69.8899630901664
 20
-87.0749606444639
 30
0.0
 10
69.62779132373889
 20
-87.00295814882219
 30
0.0
 10
69.47103947916003
 20
-86.91424694007699
 30
0.0
 10
69.394902868936
 20
-86.86136472437842
 30
0.0
 10
69.2446967057791
 20
-86.75973440756354
 30
0.0
 10
69.1010362240442
 20
-86.59678139111122
 30
0.0
 10
69.02489961382017
 20
-86.43176131736776
 30
0.0
 10
68.95703123276074
 20
-86.49739038636177
 30
0.0
 10
68.88296167982787
 20
-86.55027260206035
 30
0.0
 10
68.8047580123127
 20
-86.59902070317663
 30
0.0
 10
68.8047580123127
 20
-86.59902070317663
 30
0.0
 10
68.8047580123127
 20
-86.85068492837414
 30
0.0
 10
68.8047580123127
 20
-86.85068492837414
 30
0.0
 10
68.96771102876502
 20
-86.82536347655756
 30
0.0
 10
69.15374618496851
 20
-86.78092174479782
 30
0.0
 10
69.21713594189711
 20
-86.76610783421125
 30
0.0
 10
69.21713594189711
 20
-86.76610783421125
 30
0.0
 10
69.18750812072396
 20
-86.93526202253702
 30
0.0
 10
69.18750812072396
 20
-86.93526202253702
 30
0.0
 10
69.1854410634328
 20
-86.93526202253702
 30
0.0
 10
69.16649303826394
 20
-86.94163544918473
 30
0.0
 10
69.16442598097278
 20
-86.94163544918473
 30
0.0
 10
68.96564397147387
 20
-86.97970375429675
 30
0.0
 10
68.64800616773384
 20
-87.04533282329075
 30
0.0
 10
68.45129121552607
 20
-87.08133407111161
 30
0.0
 10
68.44095592907031
 20
-87.09821503898934
 30
0.0
 10
68.41752927977062
 20
-87.12990991745363
 30
0.0
 10
68.39444714001945
 20
-87.12990991745363
 30
0.0
 10
68.36688637613744
 20
-87.12990991745363
 30
0.0
 10
68.36275226155514
 20
-87.11096189228476
 30
0.0
 10
68.36034069471548
 20
-87.09184161234163
 30
0.0
 10
68.36034069471548
 20
-87.09184161234163
 30
0.0
 10
68.33519149767315
 20
-86.91838105465929
 30
0.0
 10
68.33519149767315
 20
-86.91838105465929
 30
0.0
 10
68.40926105060602
 20
-86.90994057072044
 30
0.0
 10
68.51709253929434
 20
-86.89719371742501
 30
0.0
 10
68.62492402798266
 20
-86.87617863496499
 30
0.0
 10
68.62492402798266
 20
-86.87617863496499
 30
0.0
 10
68.62492402798266
 20
-86.6984117079261
 30
0.0
 10
68.62492402798266
 20
-86.6984117079261
 30
0.0
 10
68.48091903669922
 20
-86.77041420356781
 30
0.0
 10
68.38583440130633
 20
-86.7998697699667
 30
0.0
 10
68.22081432756285
 20
-86.82949759113986
 30
0.0
 10
68.22081432756285
 20
-86.82949759113986
 30
0.0
 10
68.1002359855791
 20
-86.66034340281408
 30
0.0
 10
68.1002359855791
 20
-86.66034340281408
 30
0.0
 10
68.41752927977062
 20
-86.63278263893208
 30
0.0
 10
68.61011011739609
 20
-86.53976506083033
 30
0.0
 10
68.78787704443498
 20
-86.40643986555118
 30
0.0
 10
68.64180499586038
 20
-86.40643986555118
 30
0.0
 10
68.3413926695466
 20
-86.41074623490773
 30
0.0
 10
68.14467771733884
 20
-86.41711966155545
 30
0.0
 10
68.14467771733884
 20
-86.41711966155545
 30
0.0
 10
68.14467771733884
 20
-86.23935273451656
 30
0.0
 10
68.14467771733884
 20
-86.23935273451656
 30
0.0
 10
68.29901799507803
 20
-86.24572616116427
 30
0.0
 10
68.59529620680951
 20
-86.25209958781198
 30
0.0
 10
68.77926430572185
 20
-86.25209958781198
 30
0.0
 10
68.77926430572185
 20
-86.25209958781198
 30
0.0
 10
68.99079316851619
 20
-86.25209958781198
 30
0.0
 10
68.99079316851619
 20
-86.25209958781198
 30
0.0
 10
68.99079316851619
 20
-86.15684269764482
 30
0.0
 10
68.98872611122505
 20
-86.10602753923739
 30
0.0
 10
68.98252493935159
 20
-86.05951875018651
 30
0.0
 10
68.98252493935159
 20
-86.05951875018651
 30
0.0
 10
69.19818791672823
 20
-86.07639971806424
 30
0.0
 10
69.19818791672823
 20
-86.07639971806424
 30
0.0
 10
69.24676376307026
 20
-86.0807060874208
 30
0.0
 10
69.25537650178339
 20
-86.09551999800738
 30
0.0
 10
69.25537650178339
 20
-86.11033390859394
 30
0.0
 10
69.25537650178339
 20
-86.13565536041054
 30
0.0
 10
69.23849553390566
 20
-86.1440958443494
 30
0.0
 10
69.18750812072396
 20
-86.16958955094024
 30
0.0
 10
69.1854410634328
 20
-86.19491100275683
 30
0.0
 10
69.1854410634328
 20
-86.20128442940454
 30
0.0
 10
69.18337400614166
 20
-86.25209958781198
 30
0.0
 10
69.18337400614166
 20
-86.25209958781198
 30
0.0
 10
69.41385089410487
 20
-86.25209958781198
 30
0.0
 10
69.41385089410487
 20
-86.25209958781198
 30
0.0
 10
69.57887096784835
 20
-86.25209958781198
 30
0.0
 10
69.87101506499752
 20
-86.24572616116427
 30
0.0
 10
70.05084904932757
 20
-86.23935273451656
 30
0.0
 10
70.05084904932757
 20
-86.23935273451656
 30
0.0
 10
70.05084904932757
 20
-86.41711966155545
 30
0.0
 10
70.05084904932757
 20
-86.41711966155545
 30
0.0
 10
69.9216579686307
 20
-86.41281329219889
 30
0.0
 10
69.89857582887953
 20
-86.41281329219889
 30
0.0
 10
69.62124564231691
 20
-86.40850692284232
 30
0.0
  0
SPLINE
  5
CF
330
C2
100
AcDbEntity
  8
_U+30EC_U+30A4_U+30E4_U+30FC 1
370
     0
100
AcDbSpline
210
0.0
220
0.0
230
1.0
 70
    11
 71
     3
 72
    23
 73
    19
 74
     0
 42
0.0000000001
 43
0.0000000001
 12
1.0
 22
0.0
 32
0.0
 13
1.0
 23
0.0
 33
0.0
 40
0.0
 40
0.0
 40
0.0
 40
0.0
 40
1.0
 40
1.0
 40
1.0
 40
2.0
 40
2.0
 40
2.0
 40
3.0
 40
3.0
 40
3.0
 40
4.0
 40
4.0
 40
4.0
 40
5.0
 40
5.0
 40
5.0
 40
6.0
 40
6.0
 40
6.0
 40
6.0
 10
68.3372585549643
 20
-86.05745169289537
 30
0.0
 10
68.32037758708657
 20
-86.09758705529852
 30
0.0
 10
68.3138319056646
 20
-86.11446802317624
 30
0.0
 10
68.29281682320457
 20
-86.11446802317624
 30
0.0
 10
68.278002912618
 20
-86.11446802317624
 30
0.0
 10
68.26732311661372
 20
-86.09758705529852
 30
0.0
 10
68.26112194474028
 20
-86.0848402020031
 30
0.0
 10
68.26112194474028
 20
-86.0848402020031
 30
0.0
 10
68.16155868521656
 20
-85.91982012825963
 30
0.0
 10
68.16155868521656
 20
-85.91982012825963
 30
0.0
 10
68.26318900203142
 20
-85.88812524979534
 30
0.0
 10
68.41339516518832
 20
-85.83317597680559
 30
0.0
 10
68.61217717468723
 20
-85.67022296035329
 30
0.0
 10
68.61217717468723
 20
-85.67022296035329
 30
0.0
 10
68.66936575974239
 20
-85.8436835180356
 30
0.0
 10
68.66936575974239
 20
-85.8436835180356
 30
0.0
 10
68.57634818164064
 20
-85.92619355490734
 30
0.0
 10
68.48746471812119
 20
-85.98338213996249
 30
0.0
 10
68.3372585549643
 20
-86.05745169289537
 30
0.0
  0
SPLINE
  5
D0
330
C2
100
AcDbEntity
  8
_U+30EC_U+30A4_U+30E4_U+30FC 1
370
     0
100
AcDbSpline
210
0.0
220
0.0
230
1.0
 70
    11
 71
     3
 72
    17
 73
    13
 74
     0
 42
0.0000000001
 43
0.0000000001
 12
1.0
 22
0.0
 32
0.0
 13
1.0
 23
0.0
 33
0.0
 40
0.0
 40
0.0
 40
0.0
 40
0.0
 40
1.0
 40
1.0
 40
1.0
 40
2.0
 40
2.0
 40
2.0
 40
3.0
 40
3.0
 40
3.0
 40
4.0
 40
4.0
 40
4.0
 40
4.0
 10
68.48953177541235
 20
-85.59201929283812
 30
0.0
 10
68.4599039542392
 20
-85.55188393043495
 30
0.0
 10
68.39203557317977
 20
-85.45455998297665
 30
0.0
 10
68.21013453155858
 20
-85.34448918222292
 30
0.0
 10
68.21013453155858
 20
-85.34448918222292
 30
0.0
 10
68.3372585549643
 20
-85.21116398694375
 30
0.0
 10
68.3372585549643
 20
-85.21116398694375
 30
0.0
 10
68.5232937111678
 20
-85.31279430375861
 30
0.0
 10
68.58048229622294
 20
-85.40167776727806
 30
0.0
 10
68.60804306010493
 20
-85.44388018697236
 30
0.0
 10
68.60804306010493
 20
-85.44388018697236
 30
0.0
 10
68.48953177541235
 20
-85.59201929283812
 30
0.0
 10
68.48953177541235
 20
-85.59201929283812
 30
0.0
  0
SPLINE
  5
D1
330
C2
100
AcDbEntity
  8
_U+30EC_U+30A4_U+30E4_U+30FC 1
370
     0
100
AcDbSpline
210
0.0
220
0.0
230
1.0
 70
    11
 71
     3
 72
    38
 73
    34
 74
     0
 42
0.0000000001
 43
0.0000000001
 12
1.0
 22
0.0
 32
0.0
 13
1.0
 23
0.0
 33
0.0
 40
0.0
 40
0.0
 40
0.0
 40
0.0
 40
1.0
 40
1.0
 40
1.0
 40
2.0
 40
2.0
 40
2.0
 40
3.0
 40
3.0
 40
3.0
 40
4.0
 40
4.0
 40
4.0
 40
5.0
 40
5.0
 40
5.0
 40
6.0
 40
6.0
 40
6.0
 40
7.0
 40
7.0
 40
7.0
 40
8.0
 40
8.0
 40
8.0
 40
9.0
 40
9.0
 40
9.0
 40
10.0
 40
10.0
 40
10.0
 40
11.0
 40
11.0
 40
11.0
 40
11.0
 10
68.85746797323702
 20
-85.28730059716776
 30
0.0
 10
68.85540091594588
 20
-85.3339816409929
 30
0.0
 10
68.85333385865472
 20
-85.45025361362008
 30
0.0
 10
68.85333385865472
 20
-85.4946953453798
 30
0.0
 10
68.85333385865472
 20
-85.4946953453798
 30
0.0
 10
68.85333385865472
 20
-85.84161646074446
 30
0.0
 10
68.85333385865472
 20
-85.84161646074446
 30
0.0
 10
68.85333385865472
 20
-85.92843286697276
 30
0.0
 10
68.85540091594588
 20
-86.07002629141653
 30
0.0
 10
68.86608071195015
 20
-86.19060463340027
 30
0.0
 10
68.86608071195015
 20
-86.19060463340027
 30
0.0
 10
68.67556693161583
 20
-86.19060463340027
 30
0.0
 10
68.67556693161583
 20
-86.19060463340027
 30
0.0
 10
68.68004555574666
 20
-86.12721487647167
 30
0.0
 10
68.68417967032896
 20
-86.07433266077308
 30
0.0
 10
68.6862467276201
 20
-86.01938338778335
 30
0.0
 10
68.68831378491126
 20
-85.89656573373419
 30
0.0
 10
68.6903808422024
 20
-85.88175182314762
 30
0.0
 10
68.6903808422024
 20
-85.8373100913879
 30
0.0
 10
68.6903808422024
 20
-85.8373100913879
 30
0.0
 10
68.6903808422024
 20
-85.51588268261409
 30
0.0
 10
68.6903808422024
 20
-85.51588268261409
 30
0.0
 10
68.6903808422024
 20
-85.46076115485009
 30
0.0
 10
68.67763398890699
 20
-85.22184378294801
 30
0.0
 10
68.67556693161583
 20
-85.17102862454058
 30
0.0
 10
68.67556693161583
 20
-85.17102862454058
 30
0.0
 10
68.87676050795443
 20
-85.19858938842258
 30
0.0
 10
68.87676050795443
 20
-85.19858938842258
 30
0.0
 10
68.89777559041445
 20
-85.20065644571373
 30
0.0
 10
68.92947046887875
 20
-85.20479056029603
 30
0.0
 10
68.92947046887875
 20
-85.23028426688688
 30
0.0
 10
68.92947046887875
 20
-85.2576727759946
 30
0.0
 10
68.87882756524557
 20
-85.2788601132289
 30
0.0
 10
68.85746797323702
 20
-85.28730059716776
 30
0.0
  0
SPLINE
  5
D2
330
C2
100
AcDbEntity
  8
_U+30EC_U+30A4_U+30E4_U+30FC 1
370
     0
100
AcDbSpline
210
0.0
220
0.0
230
1.0
 70
    11
 71
     3
 72
    83
 73
    79
 74
     0
 42
0.0000000001
 43
0.0000000001
 12
1.0
 22
0.0
 32
0.0
 13
1.0
 23
0.0
 33
0.0
 40
0.0
 40
0.0
 40
0.0
 40
0.0
 40
1.0
 40
1.0
 40
1.0
 40
2.0
 40
2.0
 40
2.0
 40
3.0
 40
3.0
 40
3.0
 40
4.0
 40
4.0
 40
4.0
 40
5.0
 40
5.0
 40
5.0
 40
6.0
 40
6.0
 40
6.0
 40
7.0
 40
7.0
 40
7.0
 40
8.0
 40
8.0
 40
8.0
 40
9.0
 40
9.0
 40
9.0
 40
10.0
 40
10.0
 40
10.0
 40
11.0
 40
11.0
 40
11.0
 40
12.0
 40
12.0
 40
12.0
 40
13.0
 40
13.0
 40
13.0
 40
14.0
 40
14.0
 40
14.0
 40
15.0
 40
15.0
 40
15.0
 40
16.0
 40
16.0
 40
16.0
 40
17.0
 40
17.0
 40
17.0
 40
18.0
 40
18.0
 40
18.0
 40
19.0
 40
19.0
 40
19.0
 40
20.0
 40
20.0
 40
20.0
 40
21.0
 40
21.0
 40
21.0
 40
22.0
 40
22.0
 40
22.0
 40
23.0
 40
23.0
 40
23.0
 40
24.0
 40
24.0
 40
24.0
 40
25.0
 40
25.0
 40
25.0
 40
26.0
 40
26.0
 40
26.0
 40
26.0
 10
69.65948620220318
 20
-85.60890026071583
 30
0.0
 10
69.65948620220318
 20
-85.60890026071583
 30
0.0
 10
69.56198999997062
 20
-85.60890026071583
 30
0.0
 10
69.56198999997062
 20
-85.60890026071583
 30
0.0
 10
69.56198999997062
 20
-85.60890026071583
 30
0.0
 10
69.56198999997062
 20
-85.85643037133103
 30
0.0
 10
69.56198999997062
 20
-85.85643037133103
 30
0.0
 10
69.56198999997062
 20
-85.85643037133103
 30
0.0
 10
69.64467229161662
 20
-85.85643037133103
 30
0.0
 10
69.64467229161662
 20
-85.85643037133103
 30
0.0
 10
69.71012910583636
 20
-85.85643037133103
 30
0.0
 10
69.84965547298899
 20
-85.85212400197447
 30
0.0
 10
69.9492187325127
 20
-85.8436835180356
 30
0.0
 10
69.9492187325127
 20
-85.8436835180356
 30
0.0
 10
69.9492187325127
 20
-86.02351750236565
 30
0.0
 10
69.9492187325127
 20
-86.02351750236565
 30
0.0
 10
69.85620115441095
 20
-86.0150770184268
 30
0.0
 10
69.70599499125406
 20
-86.0109429038445
 30
0.0
 10
69.64467229161662
 20
-86.0109429038445
 30
0.0
 10
69.64467229161662
 20
-86.0109429038445
 30
0.0
 10
69.339781341172
 20
-86.0109429038445
 30
0.0
 10
69.339781341172
 20
-86.0109429038445
 30
0.0
 10
69.28707138024768
 20
-86.0109429038445
 30
0.0
 10
69.14099933167309
 20
-86.0150770184268
 30
0.0
 10
69.03523490027591
 20
-86.02351750236565
 30
0.0
 10
69.03523490027591
 20
-86.02351750236565
 30
0.0
 10
69.03523490027591
 20
-85.8436835180356
 30
0.0
 10
69.03523490027591
 20
-85.8436835180356
 30
0.0
 10
69.13479815979964
 20
-85.85212400197447
 30
0.0
 10
69.27432452695226
 20
-85.85643037133103
 30
0.0
 10
69.339781341172
 20
-85.85643037133103
 30
0.0
 10
69.339781341172
 20
-85.85643037133103
 30
0.0
 10
69.38422307293173
 20
-85.85643037133103
 30
0.0
 10
69.38422307293173
 20
-85.85643037133103
 30
0.0
 10
69.38422307293173
 20
-85.85643037133103
 30
0.0
 10
69.38422307293173
 20
-85.60890026071583
 30
0.0
 10
69.38422307293173
 20
-85.60890026071583
 30
0.0
 10
69.38422307293173
 20
-85.60890026071583
 30
0.0
 10
69.31049802954738
 20
-85.60890026071583
 30
0.0
 10
69.31049802954738
 20
-85.60890026071583
 30
0.0
 10
69.2488308203614
 20
-85.60890026071583
 30
0.0
 10
69.08174368932679
 20
-85.6132066300724
 30
0.0
 10
68.96116534734304
 20
-85.62164711401125
 30
0.0
 10
68.96116534734304
 20
-85.62164711401125
 30
0.0
 10
68.96116534734304
 20
-85.44388018697236
 30
0.0
 10
68.96116534734304
 20
-85.44388018697236
 30
0.0
 10
69.07554251745334
 20
-85.45025361362008
 30
0.0
 10
69.23401690977484
 20
-85.45455998297665
 30
0.0
 10
69.31049802954738
 20
-85.45455998297665
 30
0.0
 10
69.31049802954738
 20
-85.45455998297665
 30
0.0
 10
69.38215601564058
 20
-85.45455998297665
 30
0.0
 10
69.38215601564058
 20
-85.45455998297665
 30
0.0
 10
69.37802190105828
 20
-85.30211450775434
 30
0.0
 10
69.37595484376712
 20
-85.26835257199889
 30
0.0
 10
69.36940916234515
 20
-85.17516273912288
 30
0.0
 10
69.36940916234515
 20
-85.17516273912288
 30
0.0
 10
69.58128253468801
 20
-85.19858938842258
 30
0.0
 10
69.58128253468801
 20
-85.19858938842258
 30
0.0
 10
69.60643173173034
 20
-85.20065644571373
 30
0.0
 10
69.62985838103003
 20
-85.20479056029603
 30
0.0
 10
69.62985838103003
 20
-85.22804495482147
 30
0.0
 10
69.62985838103003
 20
-85.25991208806002
 30
0.0
 10
69.58541664927031
 20
-85.27679305593774
 30
0.0
 10
69.56198999997062
 20
-85.28523353987661
 30
0.0
 10
69.56198999997062
 20
-85.28523353987661
 30
0.0
 10
69.56198999997062
 20
-85.45455998297665
 30
0.0
 10
69.56198999997062
 20
-85.45455998297665
 30
0.0
 10
69.56198999997062
 20
-85.45455998297665
 30
0.0
 10
69.65948620220318
 20
-85.45455998297665
 30
0.0
 10
69.65948620220318
 20
-85.45455998297665
 30
0.0
 10
69.73562281242721
 20
-85.45455998297665
 30
0.0
 10
69.8940972047487
 20
-85.45025361362008
 30
0.0
 10
70.01054143215015
 20
-85.44388018697236
 30
0.0
 10
70.01054143215015
 20
-85.44388018697236
 30
0.0
 10
70.01054143215015
 20
-85.62164711401125
 30
0.0
 10
70.01054143215015
 20
-85.62164711401125
 30
0.0
 10
69.90270994346183
 20
-85.61527368736354
 30
0.0
 10
69.72907713100524
 20
-85.60890026071583
 30
0.0
 10
69.65948620220318
 20
-85.60890026071583
 30
0.0
  0
SPLINE
  5
D3
330
C2
100
AcDbEntity
  8
_U+30EC_U+30A4_U+30E4_U+30FC 1
370
     0
100
AcDbSpline
210
0.0
220
0.0
230
1.0
 70
    11
 71
     3
 72
    17
 73
    13
 74
     0
 42
0.0000000001
 43
0.0000000001
 12
1.0
 22
0.0
 32
0.0
 13
1.0
 23
0.0
 33
0.0
 40
0.0
 40
0.0
 40
0.0
 40
0.0
 40
1.0
 40
1.0
 40
1.0
 40
2.0
 40
2.0
 40
2.0
 40
3.0
 40
3.0
 40
3.0
 40
4.0
 40
4.0
 40
4.0
 40
4.0
 10
69.41385089410487
 20
-86.40643986555118
 30
0.0
 10
69.41385089410487
 20
-86.40643986555118
 30
0.0
 10
69.21093477002366
 20
-86.40643986555118
 30
0.0
 10
69.21093477002366
 20
-86.40643986555118
 30
0.0
 10
69.23849553390566
 20
-86.46569550789746
 30
0.0
 10
69.29327255212112
 20
-86.53769800353919
 30
0.0
 10
69.32083331600313
 20
-86.56715356993807
 30
0.0
 10
69.34839407988513
 20
-86.55251191412576
 30
0.0
 10
69.46277124999543
 20
-86.4889499024229
 30
0.0
 10
69.55372177080602
 20
-86.40643986555118
 30
0.0
 10
69.55372177080602
 20
-86.40643986555118
 30
0.0
 10
69.41385089410487
 20
-86.40643986555118
 30
0.0
 10
69.41385089410487
 20
-86.40643986555118
 30
0.0
  0
HATCH
  5
D4
330
C2
100
AcDbEntity
  8
_U+30EC_U+30A4_U+30E4_U+30FC 1
 62
   179
420
  2234388
100
AcDbHatch
 10
0.0
 20
0.0
 30
0.0
210
0.0
220
0.0
230
1.0
  2
SOLID
 70
     1
 71
     0
 91
        6
 92
        1
 93
        1
 72
     4
 94
        3
 73
     0
 74
     1
 95
      113
 96
      109
 40
0.0
 40
0.0
 40
0.0
 40
0.0
 40
1.0
 40
1.0
 40
1.0
 40
2.0
 40
2.0
 40
2.0
 40
3.0
 40
3.0
 40
3.0
 40
4.0
 40
4.0
 40
4.0
 40
5.0
 40
5.0
 40
5.0
 40
6.0
 40
6.0
 40
6.0
 40
7.0
 40
7.0
 40
7.0
 40
8.0
 40
8.0
 40
8.0
 40
9.0
 40
9.0
 40
9.0
 40
10.0
 40
10.0
 40
10.0
 40
11.0
 40
11.0
 40
11.0
 40
12.0
 40
12.0
 40
12.0
 40
13.0
 40
13.0
 40
13.0
 40
14.0
 40
14.0
 40
14.0
 40
15.0
 40
15.0
 40
15.0
 40
16.0
 40
16.0
 40
16.0
 40
17.0
 40
17.0
 40
17.0
 40
18.0
 40
18.0
 40
18.0
 40
19.0
 40
19.0
 40
19.0
 40
20.0
 40
20.0
 40
20.0
 40
21.0
 40
21.0
 40
21.0
 40
22.0
 40
22.0
 40
22.0
 40
23.0
 40
23.0
 40
23.0
 40
24.0
 40
24.0
 40
24.0
 40
25.0
 40
25.0
 40
25.0
 40
26.0
 40
26.0
 40
26.0
 40
27.0
 40
27.0
 40
27.0
 40
28.0
 40
28.0
 40
28.0
 40
29.0
 40
29.0
 40
29.0
 40
30.0
 40
30.0
 40
30.0
 40
31.0
 40
31.0
 40
31.0
 40
32.0
 40
32.0
 40
32.0
 40
33.0
 40
33.0
 40
33.0
 40
34.0
 40
34.0
 40
34.0
 40
35.0
 40
35.0
 40
35.0
 40
36.0
 40
36.0
 40
36.0
 40
36.0
 10
69.62124564231691
 20
-86.40850692284232
 10
69.62124564231691
 20
-86.40850692284232
 10
69.72080890184064
 20
-86.50807018236604
 10
69.72080890184064
 20
-86.50807018236604
 10
69.73114418829638
 20
-86.51857772359605
 10
69.74182398430065
 20
-86.53132457689148
 10
69.74182398430065
 20
-86.54613848747805
 10
69.74182398430065
 20
-86.5482055447692
 10
69.74182398430065
 20
-86.57783336594235
 10
69.70392793396292
 20
-86.57783336594235
 10
69.69531519524979
 20
-86.57783336594235
 10
69.65500757807236
 20
-86.57352699658578
 10
69.64880640619891
 20
-86.57352699658578
 10
69.6084987890215
 20
-86.60539412982435
 10
69.56198999997062
 20
-86.6391560655798
 10
69.46277124999543
 20
-86.69634465063494
 10
69.6084987890215
 20
-86.80417613932326
 10
69.7673176908915
 20
-86.86136472437842
 10
70.0401692533233
 20
-86.89943302949042
 10
70.0401692533233
 20
-86.89943302949042
 10
69.8899630901664
 20
-87.0749606444639
 10
69.8899630901664
 20
-87.0749606444639
 10
69.62779132373889
 20
-87.00295814882219
 10
69.47103947916003
 20
-86.91424694007699
 10
69.394902868936
 20
-86.86136472437842
 10
69.2446967057791
 20
-86.75973440756354
 10
69.1010362240442
 20
-86.59678139111122
 10
69.02489961382017
 20
-86.43176131736776
 10
68.95703123276074
 20
-86.49739038636177
 10
68.88296167982787
 20
-86.55027260206035
 10
68.8047580123127
 20
-86.59902070317663
 10
68.8047580123127
 20
-86.59902070317663
 10
68.8047580123127
 20
-86.85068492837414
 10
68.8047580123127
 20
-86.85068492837414
 10
68.96771102876502
 20
-86.82536347655756
 10
69.15374618496851
 20
-86.78092174479782
 10
69.21713594189711
 20
-86.76610783421125
 10
69.21713594189711
 20
-86.76610783421125
 10
69.18750812072396
 20
-86.93526202253702
 10
69.18750812072396
 20
-86.93526202253702
 10
69.1854410634328
 20
-86.93526202253702
 10
69.16649303826394
 20
-86.94163544918473
 10
69.16442598097278
 20
-86.94163544918473
 10
68.96564397147387
 20
-86.97970375429675
 10
68.64800616773384
 20
-87.04533282329075
 10
68.45129121552607
 20
-87.08133407111161
 10
68.44095592907031
 20
-87.09821503898934
 10
68.41752927977062
 20
-87.12990991745363
 10
68.39444714001945
 20
-87.12990991745363
 10
68.36688637613744
 20
-87.12990991745363
 10
68.36275226155514
 20
-87.11096189228476
 10
68.36034069471548
 20
-87.09184161234163
 10
68.36034069471548
 20
-87.09184161234163
 10
68.33519149767315
 20
-86.91838105465929
 10
68.33519149767315
 20
-86.91838105465929
 10
68.40926105060602
 20
-86.90994057072044
 10
68.51709253929434
 20
-86.89719371742501
 10
68.62492402798266
 20
-86.87617863496499
 10
68.62492402798266
 20
-86.87617863496499
 10
68.62492402798266
 20
-86.6984117079261
 10
68.62492402798266
 20
-86.6984117079261
 10
68.48091903669922
 20
-86.77041420356781
 10
68.38583440130633
 20
-86.7998697699667
 10
68.22081432756285
 20
-86.82949759113986
 10
68.22081432756285
 20
-86.82949759113986
 10
68.1002359855791
 20
-86.66034340281408
 10
68.1002359855791
 20
-86.66034340281408
 10
68.41752927977062
 20
-86.63278263893208
 10
68.61011011739609
 20
-86.53976506083033
 10
68.78787704443498
 20
-86.40643986555118
 10
68.64180499586038
 20
-86.40643986555118
 10
68.3413926695466
 20
-86.41074623490773
 10
68.14467771733884
 20
-86.41711966155545
 10
68.14467771733884
 20
-86.41711966155545
 10
68.14467771733884
 20
-86.23935273451656
 10
68.14467771733884
 20
-86.23935273451656
 10
68.29901799507803
 20
-86.24572616116427
 10
68.59529620680951
 20
-86.25209958781198
 10
68.77926430572185
 20
-86.25209958781198
 10
68.77926430572185
 20
-86.25209958781198
 10
68.99079316851619
 20
-86.25209958781198
 10
68.99079316851619
 20
-86.25209958781198
 10
68.99079316851619
 20
-86.15684269764482
 10
68.98872611122505
 20
-86.10602753923739
 10
68.98252493935159
 20
-86.05951875018651
 10
68.98252493935159
 20
-86.05951875018651
 10
69.19818791672823
 20
-86.07639971806424
 10
69.19818791672823
 20
-86.07639971806424
 10
69.24676376307026
 20
-86.0807060874208
 10
69.25537650178339
 20
-86.09551999800738
 10
69.25537650178339
 20
-86.11033390859394
 10
69.25537650178339
 20
-86.13565536041054
 10
69.23849553390566
 20
-86.1440958443494
 10
69.18750812072396
 20
-86.16958955094024
 10
69.1854410634328
 20
-86.19491100275683
 10
69.1854410634328
 20
-86.20128442940454
 10
69.18337400614166
 20
-86.25209958781198
 10
69.18337400614166
 20
-86.25209958781198
 10
69.41385089410487
 20
-86.25209958781198
 10
69.41385089410487
 20
-86.25209958781198
 10
69.57887096784835
 20
-86.25209958781198
 10
69.87101506499752
 20
-86.24572616116427
 10
70.05084904932757
 20
-86.23935273451656
 10
70.05084904932757
 20
-86.23935273451656
 10
70.05084904932757
 20
-86.41711966155545
 10
70.05084904932757
 20
-86.41711966155545
 10
69.9216579686307
 20
-86.41281329219889
 10
69.89857582887953
 20
-86.41281329219889
 10
69.62124564231691
 20
-86.40850692284232
 97
        0
 97
        0
 92
        1
 93
        1
 72
     4
 94
        3
 73
     0
 74
     1
 95
       23
 96
       19
 40
0.0
 40
0.0
 40
0.0
 40
0.0
 40
1.0
 40
1.0
 40
1.0
 40
2.0
 40
2.0
 40
2.0
 40
3.0
 40
3.0
 40
3.0
 40
4.0
 40
4.0
 40
4.0
 40
5.0
 40
5.0
 40
5.0
 40
6.0
 40
6.0
 40
6.0
 40
6.0
 10
68.3372585549643
 20
-86.05745169289537
 10
68.32037758708657
 20
-86.09758705529852
 10
68.3138319056646
 20
-86.11446802317624
 10
68.29281682320457
 20
-86.11446802317624
 10
68.278002912618
 20
-86.11446802317624
 10
68.26732311661372
 20
-86.09758705529852
 10
68.26112194474028
 20
-86.0848402020031
 10
68.26112194474028
 20
-86.0848402020031
 10
68.16155868521656
 20
-85.91982012825963
 10
68.16155868521656
 20
-85.91982012825963
 10
68.26318900203142
 20
-85.88812524979534
 10
68.41339516518832
 20
-85.83317597680559
 10
68.61217717468723
 20
-85.67022296035329
 10
68.61217717468723
 20
-85.67022296035329
 10
68.66936575974239
 20
-85.8436835180356
 10
68.66936575974239
 20
-85.8436835180356
 10
68.57634818164064
 20
-85.92619355490734
 10
68.48746471812119
 20
-85.98338213996249
 10
68.3372585549643
 20
-86.05745169289537
 97
        0
 97
        0
 92
        1
 93
        1
 72
     4
 94
        3
 73
     0
 74
     1
 95
       17
 96
       13
 40
0.0
 40
0.0
 40
0.0
 40
0.0
 40
1.0
 40
1.0
 40
1.0
 40
2.0
 40
2.0
 40
2.0
 40
3.0
 40
3.0
 40
3.0
 40
4.0
 40
4.0
 40
4.0
 40
4.0
 10
68.48953177541235
 20
-85.59201929283812
 10
68.4599039542392
 20
-85.55188393043495
 10
68.39203557317977
 20
-85.45455998297665
 10
68.21013453155858
 20
-85.34448918222292
 10
68.21013453155858
 20
-85.34448918222292
 10
68.3372585549643
 20
-85.21116398694375
 10
68.3372585549643
 20
-85.21116398694375
 10
68.5232937111678
 20
-85.31279430375861
 10
68.58048229622294
 20
-85.40167776727806
 10
68.60804306010493
 20
-85.44388018697236
 10
68.60804306010493
 20
-85.44388018697236
 10
68.48953177541235
 20
-85.59201929283812
 10
68.48953177541235
 20
-85.59201929283812
 97
        0
 97
        0
 92
        1
 93
        1
 72
     4
 94
        3
 73
     0
 74
     1
 95
       38
 96
       34
 40
0.0
 40
0.0
 40
0.0
 40
0.0
 40
1.0
 40
1.0
 40
1.0
 40
2.0
 40
2.0
 40
2.0
 40
3.0
 40
3.0
 40
3.0
 40
4.0
 40
4.0
 40
4.0
 40
5.0
 40
5.0
 40
5.0
 40
6.0
 40
6.0
 40
6.0
 40
7.0
 40
7.0
 40
7.0
 40
8.0
 40
8.0
 40
8.0
 40
9.0
 40
9.0
 40
9.0
 40
10.0
 40
10.0
 40
10.0
 40
11.0
 40
11.0
 40
11.0
 40
11.0
 10
68.85746797323702
 20
-85.28730059716776
 10
68.85540091594588
 20
-85.3339816409929
 10
68.85333385865472
 20
-85.45025361362008
 10
68.85333385865472
 20
-85.4946953453798
 10
68.85333385865472
 20
-85.4946953453798
 10
68.85333385865472
 20
-85.84161646074446
 10
68.85333385865472
 20
-85.84161646074446
 10
68.85333385865472
 20
-85.92843286697276
 10
68.85540091594588
 20
-86.07002629141653
 10
68.86608071195015
 20
-86.19060463340027
 10
68.86608071195015
 20
-86.19060463340027
 10
68.67556693161583
 20
-86.19060463340027
 10
68.67556693161583
 20
-86.19060463340027
 10
68.68004555574666
 20
-86.12721487647167
 10
68.68417967032896
 20
-86.07433266077308
 10
68.6862467276201
 20
-86.01938338778335
 10
68.68831378491126
 20
-85.89656573373419
 10
68.6903808422024
 20
-85.88175182314762
 10
68.6903808422024
 20
-85.8373100913879
 10
68.6903808422024
 20
-85.8373100913879
 10
68.6903808422024
 20
-85.51588268261409
 10
68.6903808422024
 20
-85.51588268261409
 10
68.6903808422024
 20
-85.46076115485009
 10
68.67763398890699
 20
-85.22184378294801
 10
68.67556693161583
 20
-85.17102862454058
 10
68.67556693161583
 20
-85.17102862454058
 10
68.87676050795443
 20
-85.19858938842258
 10
68.87676050795443
 20
-85.19858938842258
 10
68.89777559041445
 20
-85.20065644571373
 10
68.92947046887875
 20
-85.20479056029603
 10
68.92947046887875
 20
-85.23028426688688
 10
68.92947046887875
 20
-85.2576727759946
 10
68.87882756524557
 20
-85.2788601132289
 10
68.85746797323702
 20
-85.28730059716776
 97
        0
 97
        0
 92
        1
 93
        1
 72
     4
 94
        3
 73
     0
 74
     1
 95
       83
 96
       79
 40
0.0
 40
0.0
 40
0.0
 40
0.0
 40
1.0
 40
1.0
 40
1.0
 40
2.0
 40
2.0
 40
2.0
 40
3.0
 40
3.0
 40
3.0
 40
4.0
 40
4.0
 40
4.0
 40
5.0
 40
5.0
 40
5.0
 40
6.0
 40
6.0
 40
6.0
 40
7.0
 40
7.0
 40
7.0
 40
8.0
 40
8.0
 40
8.0
 40
9.0
 40
9.0
 40
9.0
 40
10.0
 40
10.0
 40
10.0
 40
11.0
 40
11.0
 40
11.0
 40
12.0
 40
12.0
 40
12.0
 40
13.0
 40
13.0
 40
13.0
 40
14.0
 40
14.0
 40
14.0
 40
15.0
 40
15.0
 40
15.0
 40
16.0
 40
16.0
 40
16.0
 40
17.0
 40
17.0
 40
17.0
 40
18.0
 40
18.0
 40
18.0
 40
19.0
 40
19.0
 40
19.0
 40
20.0
 40
20.0
 40
20.0
 40
21.0
 40
21.0
 40
21.0
 40
22.0
 40
22.0
 40
22.0
 40
23.0
 40
23.0
 40
23.0
 40
24.0
 40
24.0
 40
24.0
 40
25.0
 40
25.0
 40
25.0
 40
26.0
 40
26.0
 40
26.0
 40
26.0
 10
69.65948620220318
 20
-85.60890026071583
 10
69.65948620220318
 20
-85.60890026071583
 10
69.56198999997062
 20
-85.60890026071583
 10
69.56198999997062
 20
-85.60890026071583
 10
69.56198999997062
 20
-85.60890026071583
 10
69.56198999997062
 20
-85.85643037133103
 10
69.56198999997062
 20
-85.85643037133103
 10
69.56198999997062
 20
-85.85643037133103
 10
69.64467229161662
 20
-85.85643037133103
 10
69.64467229161662
 20
-85.85643037133103
 10
69.71012910583636
 20
-85.85643037133103
 10
69.84965547298899
 20
-85.85212400197447
 10
69.9492187325127
 20
-85.8436835180356
 10
69.9492187325127
 20
-85.8436835180356
 10
69.9492187325127
 20
-86.02351750236565
 10
69.9492187325127
 20
-86.02351750236565
 10
69.85620115441095
 20
-86.0150770184268
 10
69.70599499125406
 20
-86.0109429038445
 10
69.64467229161662
 20
-86.0109429038445
 10
69.64467229161662
 20
-86.0109429038445
 10
69.339781341172
 20
-86.0109429038445
 10
69.339781341172
 20
-86.0109429038445
 10
69.28707138024768
 20
-86.0109429038445
 10
69.14099933167309
 20
-86.0150770184268
 10
69.03523490027591
 20
-86.02351750236565
 10
69.03523490027591
 20
-86.02351750236565
 10
69.03523490027591
 20
-85.8436835180356
 10
69.03523490027591
 20
-85.8436835180356
 10
69.13479815979964
 20
-85.85212400197447
 10
69.27432452695226
 20
-85.85643037133103
 10
69.339781341172
 20
-85.85643037133103
 10
69.339781341172
 20
-85.85643037133103
 10
69.38422307293173
 20
-85.85643037133103
 10
69.38422307293173
 20
-85.85643037133103
 10
69.38422307293173
 20
-85.85643037133103
 10
69.38422307293173
 20
-85.60890026071583
 10
69.38422307293173
 20
-85.60890026071583
 10
69.38422307293173
 20
-85.60890026071583
 10
69.31049802954738
 20
-85.60890026071583
 10
69.31049802954738
 20
-85.60890026071583
 10
69.2488308203614
 20
-85.60890026071583
 10
69.08174368932679
 20
-85.6132066300724
 10
68.96116534734304
 20
-85.62164711401125
 10
68.96116534734304
 20
-85.62164711401125
 10
68.96116534734304
 20
-85.44388018697236
 10
68.96116534734304
 20
-85.44388018697236
 10
69.07554251745334
 20
-85.45025361362008
 10
69.23401690977484
 20
-85.45455998297665
 10
69.31049802954738
 20
-85.45455998297665
 10
69.31049802954738
 20
-85.45455998297665
 10
69.38215601564058
 20
-85.45455998297665
 10
69.38215601564058
 20
-85.45455998297665
 10
69.37802190105828
 20
-85.30211450775434
 10
69.37595484376712
 20
-85.26835257199889
 10
69.36940916234515
 20
-85.17516273912288
 10
69.36940916234515
 20
-85.17516273912288
 10
69.58128253468801
 20
-85.19858938842258
 10
69.58128253468801
 20
-85.19858938842258
 10
69.60643173173034
 20
-85.20065644571373
 10
69.62985838103003
 20
-85.20479056029603
 10
69.62985838103003
 20
-85.22804495482147
 10
69.62985838103003
 20
-85.25991208806002
 10
69.58541664927031
 20
-85.27679305593774
 10
69.56198999997062
 20
-85.28523353987661
 10
69.56198999997062
 20
-85.28523353987661
 10
69.56198999997062
 20
-85.45455998297665
 10
69.56198999997062
 20
-85.45455998297665
 10
69.56198999997062
 20
-85.45455998297665
 10
69.65948620220318
 20
-85.45455998297665
 10
69.65948620220318
 20
-85.45455998297665
 10
69.73562281242721
 20
-85.45455998297665
 10
69.8940972047487
 20
-85.45025361362008
 10
70.01054143215015
 20
-85.44388018697236
 10
70.01054143215015
 20
-85.44388018697236
 10
70.01054143215015
 20
-85.62164711401125
 10
70.01054143215015
 20
-85.62164711401125
 10
69.90270994346183
 20
-85.61527368736354
 10
69.72907713100524
 20
-85.60890026071583
 10
69.65948620220318
 20
-85.60890026071583
 97
        0
 97
        0
 92
        1
 93
        1
 72
     4
 94
        3
 73
     0
 74
     1
 95
       17
 96
       13
 40
0.0
 40
0.0
 40
0.0
 40
0.0
 40
1.0
 40
1.0
 40
1.0
 40
2.0
 40
2.0
 40
2.0
 40
3.0
 40
3.0
 40
3.0
 40
4.0
 40
4.0
 40
4.0
 40
4.0
 10
69.41385089410487
 20
-86.40643986555118
 10
69.41385089410487
 20
-86.40643986555118
 10
69.21093477002366
 20
-86.40643986555118
 10
69.21093477002366
 20
-86.40643986555118
 10
69.23849553390566
 20
-86.46569550789746
 10
69.29327255212112
 20
-86.53769800353919
 10
69.32083331600313
 20
-86.56715356993807
 10
69.34839407988513
 20
-86.55251191412576
 10
69.46277124999543
 20
-86.4889499024229
 10
69.55372177080602
 20
-86.40643986555118
 10
69.55372177080602
 20
-86.40643986555118
 10
69.41385089410487
 20
-86.40643986555118
 10
69.41385089410487
 20
-86.40643986555118
 97
        0
 97
        0
 75
     2
 76
     1
 98
        0
  0
SPLINE
  5
D5
330
C2
100
AcDbEntity
  8
_U+30EC_U+30A4_U+30E4_U+30FC 1
370
     0
100
AcDbSpline
210
0.0
220
0.0
230
1.0
 70
    11
 71
     3
 72
    77
 73
    73
 74
     0
 42
0.0000000001
 43
0.0000000001
 12
1.0
 22
0.0
 32
0.0
 13
1.0
 23
0.0
 33
0.0
 40
0.0
 40
0.0
 40
0.0
 40
0.0
 40
1.0
 40
1.0
 40
1.0
 40
2.0
 40
2.0
 40
2.0
 40
3.0
 40
3.0
 40
3.0
 40
4.0
 40
4.0
 40
4.0
 40
5.0
 40
5.0
 40
5.0
 40
6.0
 40
6.0
 40
6.0
 40
7.0
 40
7.0
 40
7.0
 40
8.0
 40
8.0
 40
8.0
 40
9.0
 40
9.0
 40
9.0
 40
10.0
 40
10.0
 40
10.0
 40
11.0
 40
11.0
 40
11.0
 40
12.0
 40
12.0
 40
12.0
 40
13.0
 40
13.0
 40
13.0
 40
14.0
 40
14.0
 40
14.0
 40
15.0
 40
15.0
 40
15.0
 40
16.0
 40
16.0
 40
16.0
 40
17.0
 40
17.0
 40
17.0
 40
18.0
 40
18.0
 40
18.0
 40
19.0
 40
19.0
 40
19.0
 40
20.0
 40
20.0
 40
20.0
 40
21.0
 40
21.0
 40
21.0
 40
22.0
 40
22.0
 40
22.0
 40
23.0
 40
23.0
 40
23.0
 40
24.0
 40
24.0
 40
24.0
 40
24.0
 10
71.90499943948903
 20
-87.0368923393519
 30
0.0
 10
71.85849065043816
 20
-87.06221379116847
 30
0.0
 10
71.73377819387211
 20
-87.0749606444639
 30
0.0
 10
71.65523001680842
 20
-87.0749606444639
 30
0.0
 10
71.64282767306152
 20
-87.0749606444639
 30
0.0
 10
71.61733396647067
 20
-87.0749606444639
 30
0.0
 10
71.58357203071522
 20
-87.07065427510734
 30
0.0
 10
71.58357203071522
 20
-87.07065427510734
 30
0.0
 10
71.48607582848265
 20
-86.84431150172642
 30
0.0
 10
71.48607582848265
 20
-86.84431150172642
 30
0.0
 10
71.5157036496558
 20
-86.85068492837414
 30
0.0
 10
71.57289223471095
 20
-86.859125412313
 30
0.0
 10
71.6893364621124
 20
-86.859125412313
 30
0.0
 10
71.76754012962756
 20
-86.859125412313
 30
0.0
 10
71.76960718691872
 20
-86.81692299261869
 30
0.0
 10
71.76960718691872
 20
-86.75973440756354
 30
0.0
 10
71.76960718691872
 20
-86.75973440756354
 30
0.0
 10
71.76960718691872
 20
-86.41074623490773
 30
0.0
 10
71.76960718691872
 20
-86.41074623490773
 30
0.0
 10
71.76960718691872
 20
-86.41074623490773
 30
0.0
 10
71.31037595873491
 20
-86.41074623490773
 30
0.0
 10
71.31037595873491
 20
-86.41074623490773
 30
0.0
 10
71.31278752557458
 20
-86.5482055447692
 30
0.0
 10
71.31485458286573
 20
-86.74698755426812
 30
0.0
 10
71.32105575473918
 20
-86.88031274954729
 30
0.0
 10
71.32312281203033
 20
-86.90787351342928
 30
0.0
 10
71.32312281203033
 20
-86.95231524518901
 30
0.0
 10
71.33586966532576
 20
-87.01363794482646
 30
0.0
 10
71.33586966532576
 20
-87.01363794482646
 30
0.0
 10
71.09471298135827
 20
-87.01363794482646
 30
0.0
 10
71.09471298135827
 20
-87.01363794482646
 30
0.0
 10
71.12020668794912
 20
-86.88875323348616
 30
0.0
 10
71.12020668794912
 20
-86.5482055447692
 30
0.0
 10
71.12020668794912
 20
-86.41074623490773
 30
0.0
 10
71.12020668794912
 20
-86.41074623490773
 30
0.0
 10
70.67785642764304
 20
-86.41074623490773
 30
0.0
 10
70.67785642764304
 20
-86.41074623490773
 30
0.0
 10
70.65477428789187
 20
-86.61796872834552
 30
0.0
 10
70.58931747367212
 20
-86.886686176195
 30
0.0
 10
70.39225801191583
 20
-87.07065427510734
 30
0.0
 10
70.39225801191583
 20
-87.07065427510734
 30
0.0
 10
70.20415579842118
 20
-86.94800887583244
 30
0.0
 10
70.20415579842118
 20
-86.94800887583244
 30
0.0
 10
70.4580593356841
 20
-86.72803952909925
 30
0.0
 10
70.48975421414839
 20
-86.39593232432117
 30
0.0
 10
70.48975421414839
 20
-86.06382511954307
 30
0.0
 10
70.48975421414839
 20
-86.06382511954307
 30
0.0
 10
70.48975421414839
 20
-85.62802054065897
 30
0.0
 10
70.48975421414839
 20
-85.62802054065897
 30
0.0
 10
70.48975421414839
 20
-85.59201929283812
 30
0.0
 10
70.48768715685725
 20
-85.35930309280948
 30
0.0
 10
70.47907441814412
 20
-85.2576727759946
 30
0.0
 10
70.61860078529674
 20
-85.26835257199889
 30
0.0
 10
70.86010197881275
 20
-85.26835257199889
 30
0.0
 10
71.00376246054768
 20
-85.26835257199889
 30
0.0
 10
71.00376246054768
 20
-85.26835257199889
 30
0.0
 10
71.46299368873147
 20
-85.26835257199889
 30
0.0
 10
71.46299368873147
 20
-85.26835257199889
 30
0.0
 10
71.47780759931806
 20
-85.26835257199889
 30
0.0
 10
71.82679577197386
 20
-85.26835257199889
 30
0.0
 10
71.98527016429536
 20
-85.2576727759946
 30
0.0
 10
71.9832031070042
 20
-85.3105549916932
 30
0.0
 10
71.97700193513076
 20
-85.47144095085437
 30
0.0
 10
71.97700193513076
 20
-85.5222561092618
 30
0.0
 10
71.97700193513076
 20
-85.5222561092618
 30
0.0
 10
71.97700193513076
 20
-86.12928193376283
 30
0.0
 10
71.97700193513076
 20
-86.12928193376283
 30
0.0
 10
71.97700193513076
 20
-86.14840221370596
 30
0.0
 10
71.9873372215865
 20
-86.71959904516038
 30
0.0
 10
71.9873372215865
 20
-86.83173690320527
 30
0.0
 10
71.9873372215865
 20
-86.88875323348616
 30
0.0
 10
71.9873372215865
 20
-86.99038355030102
 30
0.0
 10
71.90499943948903
 20
-87.0368923393519
 30
0.0
  0
POLYLINE
  5
D6
330
C2
100
AcDbEntity
  8
_U+30EC_U+30A4_U+30E4_U+30FC 1
370
     0
100
AcDb2dPolyline
 66
     1
 10
0.0
 20
0.0
 30
0.0
  0
VERTEX
  5
D7
330
D6
100
AcDbEntity
  8
_U+30EC_U+30A4_U+30E4_U+30FC 1
370
     0
100
AcDbVertex
100
AcDb2dVertex
 10
71.12020668794912
 20
-85.45025361362008
 30
0.0
  0
VERTEX
  5
D8
330
D6
100
AcDbEntity
  8
_U+30EC_U+30A4_U+30E4_U+30FC 1
370
     0
100
AcDbVertex
100
AcDb2dVertex
 10
70.68233505177386
 20
-85.45025361362008
 30
0.0
  0
VERTEX
  5
D9
330
D6
100
AcDbEntity
  8
_U+30EC_U+30A4_U+30E4_U+30FC 1
370
     0
100
AcDbVertex
100
AcDb2dVertex
 10
70.68233505177386
 20
-85.75480005451617
 30
0.0
  0
VERTEX
  5
DA
330
D6
100
AcDbEntity
  8
_U+30EC_U+30A4_U+30E4_U+30FC 1
370
     0
100
AcDbVertex
100
AcDb2dVertex
 10
71.12020668794912
 20
-85.75480005451617
 30
0.0
  0
VERTEX
  5
DB
330
D6
100
AcDbEntity
  8
_U+30EC_U+30A4_U+30E4_U+30FC 1
370
     0
100
AcDbVertex
100
AcDb2dVertex
 10
71.12020668794912
 20
-85.45025361362008
 30
0.0
  0
SEQEND
  5
DC
330
D6
100
AcDbEntity
  8
_U+30EC_U+30A4_U+30E4_U+30FC 1
370
     0
  0
POLYLINE
  5
DD
330
C2
100
AcDbEntity
  8
_U+30EC_U+30A4_U+30E4_U+30FC 1
370
     0
100
AcDb2dPolyline
 66
     1
 10
0.0
 20
0.0
 30
0.0
  0
VERTEX
  5
DE
330
DD
100
AcDbEntity
  8
_U+30EC_U+30A4_U+30E4_U+30FC 1
370
     0
100
AcDbVertex
100
AcDb2dVertex
 10
71.12020668794912
 20
-85.92205944032504
 30
0.0
  0
VERTEX
  5
DF
330
DD
100
AcDbEntity
  8
_U+30EC_U+30A4_U+30E4_U+30FC 1
370
     0
100
AcDbVertex
100
AcDb2dVertex
 10
70.68233505177386
 20
-85.92205944032504
 30
0.0
  0
VERTEX
  5
E0
330
DD
100
AcDbEntity
  8
_U+30EC_U+30A4_U+30E4_U+30FC 1
370
     0
100
AcDbVertex
100
AcDb2dVertex
 10
70.68233505177386
 20
-86.23091225057769
 30
0.0
  0
VERTEX
  5
E1
330
DD
100
AcDbEntity
  8
_U+30EC_U+30A4_U+30E4_U+30FC 1
370
     0
100
AcDbVertex
100
AcDb2dVertex
 10
71.12020668794912
 20
-86.23091225057769
 30
0.0
  0
VERTEX
  5
E2
330
DD
100
AcDbEntity
  8
_U+30EC_U+30A4_U+30E4_U+30FC 1
370
     0
100
AcDbVertex
100
AcDb2dVertex
 10
71.12020668794912
 20
-85.92205944032504
 30
0.0
  0
SEQEND
  5
E3
330
DD
100
AcDbEntity
  8
_U+30EC_U+30A4_U+30E4_U+30FC 1
370
     0
  0
POLYLINE
  5
E4
330
C2
100
AcDbEntity
  8
_U+30EC_U+30A4_U+30E4_U+30FC 1
370
     0
100
AcDb2dPolyline
 66
     1
 10
0.0
 20
0.0
 30
0.0
  0
VERTEX
  5
E5
330
E4
100
AcDbEntity
  8
_U+30EC_U+30A4_U+30E4_U+30FC 1
370
     0
100
AcDbVertex
100
AcDb2dVertex
 10
71.76960718691872
 20
-85.45025361362008
 30
0.0
  0
VERTEX
  5
E6
330
E4
100
AcDbEntity
  8
_U+30EC_U+30A4_U+30E4_U+30FC 1
370
     0
100
AcDbVertex
100
AcDb2dVertex
 10
71.31037595873491
 20
-85.45025361362008
 30
0.0
  0
VERTEX
  5
E7
330
E4
100
AcDbEntity
  8
_U+30EC_U+30A4_U+30E4_U+30FC 1
370
     0
100
AcDbVertex
100
AcDb2dVertex
 10
71.31037595873491
 20
-85.75480005451617
 30
0.0
  0
VERTEX
  5
E8
330
E4
100
AcDbEntity
  8
_U+30EC_U+30A4_U+30E4_U+30FC 1
370
     0
100
AcDbVertex
100
AcDb2dVertex
 10
71.76960718691872
 20
-85.75480005451617
 30
0.0
  0
VERTEX
  5
E9
330
E4
100
AcDbEntity
  8
_U+30EC_U+30A4_U+30E4_U+30FC 1
370
     0
100
AcDbVertex
100
AcDb2dVertex
 10
71.76960718691872
 20
-85.45025361362008
 30
0.0
  0
SEQEND
  5
EA
330
E4
100
AcDbEntity
  8
_U+30EC_U+30A4_U+30E4_U+30FC 1
370
     0
  0
POLYLINE
  5
EB
330
C2
100
AcDbEntity
  8
_U+30EC_U+30A4_U+30E4_U+30FC 1
370
     0
100
AcDb2dPolyline
 66
     1
 10
0.0
 20
0.0
 30
0.0
  0
VERTEX
  5
EC
330
EB
100
AcDbEntity
  8
_U+30EC_U+30A4_U+30E4_U+30FC 1
370
     0
100
AcDbVertex
100
AcDb2dVertex
 10
71.76960718691872
 20
-85.92205944032504
 30
0.0
  0
VERTEX
  5
ED
330
EB
100
AcDbEntity
  8
_U+30EC_U+30A4_U+30E4_U+30FC 1
370
     0
100
AcDbVertex
100
AcDb2dVertex
 10
71.31037595873491
 20
-85.92205944032504
 30
0.0
  0
VERTEX
  5
EE
330
EB
100
AcDbEntity
  8
_U+30EC_U+30A4_U+30E4_U+30FC 1
370
     0
100
AcDbVertex
100
AcDb2dVertex
 10
71.31037595873491
 20
-86.23091225057769
 30
0.0
  0
VERTEX
  5
EF
330
EB
100
AcDbEntity
  8
_U+30EC_U+30A4_U+30E4_U+30FC 1
370
     0
100
AcDbVertex
100
AcDb2dVertex
 10
71.76960718691872
 20
-86.23091225057769
 30
0.0
  0
VERTEX
  5
F0
330
EB
100
AcDbEntity
  8
_U+30EC_U+30A4_U+30E4_U+30FC 1
370
     0
100
AcDbVertex
100
AcDb2dVertex
 10
71.76960718691872
 20
-85.92205944032504
 30
0.0
  0
SEQEND
  5
F1
330
EB
100
AcDbEntity
  8
_U+30EC_U+30A4_U+30E4_U+30FC 1
370
     0
  0
HATCH
  5
F2
330
C2
100
AcDbEntity
  8
_U+30EC_U+30A4_U+30E4_U+30FC 1
 62
   179
420
  2234388
100
AcDbHatch
 10
0.0
 20
0.0
 30
0.0
210
0.0
220
0.0
230
1.0
  2
SOLID
 70
     1
 71
     0
 91
        5
 92
        1
 93
        1
 72
     4
 94
        3
 73
     0
 74
     1
 95
       77
 96
       73
 40
0.0
 40
0.0
 40
0.0
 40
0.0
 40
1.0
 40
1.0
 40
1.0
 40
2.0
 40
2.0
 40
2.0
 40
3.0
 40
3.0
 40
3.0
 40
4.0
 40
4.0
 40
4.0
 40
5.0
 40
5.0
 40
5.0
 40
6.0
 40
6.0
 40
6.0
 40
7.0
 40
7.0
 40
7.0
 40
8.0
 40
8.0
 40
8.0
 40
9.0
 40
9.0
 40
9.0
 40
10.0
 40
10.0
 40
10.0
 40
11.0
 40
11.0
 40
11.0
 40
12.0
 40
12.0
 40
12.0
 40
13.0
 40
13.0
 40
13.0
 40
14.0
 40
14.0
 40
14.0
 40
15.0
 40
15.0
 40
15.0
 40
16.0
 40
16.0
 40
16.0
 40
17.0
 40
17.0
 40
17.0
 40
18.0
 40
18.0
 40
18.0
 40
19.0
 40
19.0
 40
19.0
 40
20.0
 40
20.0
 40
20.0
 40
21.0
 40
21.0
 40
21.0
 40
22.0
 40
22.0
 40
22.0
 40
23.0
 40
23.0
 40
23.0
 40
24.0
 40
24.0
 40
24.0
 40
24.0
 10
71.90499943948903
 20
-87.0368923393519
 10
71.85849065043816
 20
-87.06221379116847
 10
71.73377819387211
 20
-87.0749606444639
 10
71.65523001680842
 20
-87.0749606444639
 10
71.64282767306152
 20
-87.0749606444639
 10
71.61733396647067
 20
-87.0749606444639
 10
71.58357203071522
 20
-87.07065427510734
 10
71.58357203071522
 20
-87.07065427510734
 10
71.48607582848265
 20
-86.84431150172642
 10
71.48607582848265
 20
-86.84431150172642
 10
71.5157036496558
 20
-86.85068492837414
 10
71.57289223471095
 20
-86.859125412313
 10
71.6893364621124
 20
-86.859125412313
 10
71.76754012962756
 20
-86.859125412313
 10
71.76960718691872
 20
-86.81692299261869
 10
71.76960718691872
 20
-86.75973440756354
 10
71.76960718691872
 20
-86.75973440756354
 10
71.76960718691872
 20
-86.41074623490773
 10
71.76960718691872
 20
-86.41074623490773
 10
71.76960718691872
 20
-86.41074623490773
 10
71.31037595873491
 20
-86.41074623490773
 10
71.31037595873491
 20
-86.41074623490773
 10
71.31278752557458
 20
-86.5482055447692
 10
71.31485458286573
 20
-86.74698755426812
 10
71.32105575473918
 20
-86.88031274954729
 10
71.32312281203033
 20
-86.90787351342928
 10
71.32312281203033
 20
-86.95231524518901
 10
71.33586966532576
 20
-87.01363794482646
 10
71.33586966532576
 20
-87.01363794482646
 10
71.09471298135827
 20
-87.01363794482646
 10
71.09471298135827
 20
-87.01363794482646
 10
71.12020668794912
 20
-86.88875323348616
 10
71.12020668794912
 20
-86.5482055447692
 10
71.12020668794912
 20
-86.41074623490773
 10
71.12020668794912
 20
-86.41074623490773
 10
70.67785642764304
 20
-86.41074623490773
 10
70.67785642764304
 20
-86.41074623490773
 10
70.65477428789187
 20
-86.61796872834552
 10
70.58931747367212
 20
-86.886686176195
 10
70.39225801191583
 20
-87.07065427510734
 10
70.39225801191583
 20
-87.07065427510734
 10
70.20415579842118
 20
-86.94800887583244
 10
70.20415579842118
 20
-86.94800887583244
 10
70.4580593356841
 20
-86.72803952909925
 10
70.48975421414839
 20
-86.39593232432117
 10
70.48975421414839
 20
-86.06382511954307
 10
70.48975421414839
 20
-86.06382511954307
 10
70.48975421414839
 20
-85.62802054065897
 10
70.48975421414839
 20
-85.62802054065897
 10
70.48975421414839
 20
-85.59201929283812
 10
70.48768715685725
 20
-85.35930309280948
 10
70.47907441814412
 20
-85.2576727759946
 10
70.61860078529674
 20
-85.26835257199889
 10
70.86010197881275
 20
-85.26835257199889
 10
71.00376246054768
 20
-85.26835257199889
 10
71.00376246054768
 20
-85.26835257199889
 10
71.46299368873147
 20
-85.26835257199889
 10
71.46299368873147
 20
-85.26835257199889
 10
71.47780759931806
 20
-85.26835257199889
 10
71.82679577197386
 20
-85.26835257199889
 10
71.98527016429536
 20
-85.2576727759946
 10
71.9832031070042
 20
-85.3105549916932
 10
71.97700193513076
 20
-85.47144095085437
 10
71.97700193513076
 20
-85.5222561092618
 10
71.97700193513076
 20
-85.5222561092618
 10
71.97700193513076
 20
-86.12928193376283
 10
71.97700193513076
 20
-86.12928193376283
 10
71.97700193513076
 20
-86.14840221370596
 10
71.9873372215865
 20
-86.71959904516038
 10
71.9873372215865
 20
-86.83173690320527
 10
71.9873372215865
 20
-86.88875323348616
 10
71.9873372215865
 20
-86.99038355030102
 10
71.90499943948903
 20
-87.0368923393519
 97
        0
 97
        0
 92
        1
 93
        4
 72
     1
 10
71.12020668794912
 20
-85.45025361362008
 11
70.68233505177386
 21
-85.45025361362008
 72
     1
 10
70.68233505177386
 20
-85.45025361362008
 11
70.68233505177386
 21
-85.75480005451617
 72
     1
 10
70.68233505177386
 20
-85.75480005451617
 11
71.12020668794912
 21
-85.75480005451617
 72
     1
 10
71.12020668794912
 20
-85.75480005451617
 11
71.12020668794912
 21
-85.45025361362008
 97
        0
 92
        1
 93
        4
 72
     1
 10
71.12020668794912
 20
-85.92205944032504
 11
70.68233505177386
 21
-85.92205944032504
 72
     1
 10
70.68233505177386
 20
-85.92205944032504
 11
70.68233505177386
 21
-86.23091225057769
 72
     1
 10
70.68233505177386
 20
-86.23091225057769
 11
71.12020668794912
 21
-86.23091225057769
 72
     1
 10
71.12020668794912
 20
-86.23091225057769
 11
71.12020668794912
 21
-85.92205944032504
 97
        0
 92
        1
 93
        4
 72
     1
 10
71.76960718691872
 20
-85.45025361362008
 11
71.31037595873491
 21
-85.45025361362008
 72
     1
 10
71.31037595873491
 20
-85.45025361362008
 11
71.31037595873491
 21
-85.75480005451617
 72
     1
 10
71.31037595873491
 20
-85.75480005451617
 11
71.76960718691872
 21
-85.75480005451617
 72
     1
 10
71.76960718691872
 20
-85.75480005451617
 11
71.76960718691872
 21
-85.45025361362008
 97
        0
 92
        1
 93
        4
 72
     1
 10
71.76960718691872
 20
-85.92205944032504
 11
71.31037595873491
 21
-85.92205944032504
 72
     1
 10
71.31037595873491
 20
-85.92205944032504
 11
71.31037595873491
 21
-86.23091225057769
 72
     1
 10
71.31037595873491
 20
-86.23091225057769
 11
71.76960718691872
 21
-86.23091225057769
 72
     1
 10
71.76960718691872
 20
-86.23091225057769
 11
71.76960718691872
 21
-85.92205944032504
 97
        0
 75
     2
 76
     1
 98
        0
  0
SPLINE
  5
F3
330
C2
100
AcDbEntity
  8
_U+30EC_U+30A4_U+30E4_U+30FC 1
370
     0
100
AcDbSpline
210
0.0
220
0.0
230
1.0
 70
    11
 71
     3
 72
    44
 73
    40
 74
     0
 42
0.0000000001
 43
0.0000000001
 12
1.0
 22
0.0
 32
0.0
 13
1.0
 23
0.0
 33
0.0
 40
0.0
 40
0.0
 40
0.0
 40
0.0
 40
1.0
 40
1.0
 40
1.0
 40
2.0
 40
2.0
 40
2.0
 40
3.0
 40
3.0
 40
3.0
 40
4.0
 40
4.0
 40
4.0
 40
5.0
 40
5.0
 40
5.0
 40
6.0
 40
6.0
 40
6.0
 40
7.0
 40
7.0
 40
7.0
 40
8.0
 40
8.0
 40
8.0
 40
9.0
 40
9.0
 40
9.0
 40
10.0
 40
10.0
 40
10.0
 40
11.0
 40
11.0
 40
11.0
 40
12.0
 40
12.0
 40
12.0
 40
13.0
 40
13.0
 40
13.0
 40
13.0
 10
67.45359156299772
 20
-88.32673608902942
 30
0.0
 10
67.3416259597271
 20
-88.69484454162837
 30
0.0
 10
67.29098305609392
 20
-88.85349118872413
 30
0.0
 10
67.09426810388617
 20
-89.10308835663048
 30
0.0
 10
66.9099554954253
 20
-89.33373749936796
 30
0.0
 10
66.67327743558863
 20
-89.51977265557144
 30
0.0
 10
66.39388019173487
 20
-89.61313474322172
 30
0.0
 10
66.39388019173487
 20
-89.61313474322172
 30
0.0
 10
66.2012993541094
 20
-89.43330075889168
 30
0.0
 10
66.2012993541094
 20
-89.43330075889168
 30
0.0
 10
66.8424316239144
 20
-89.28102753844364
 30
0.0
 10
67.17247177140133
 20
-88.72447236280152
 30
0.0
 10
67.23586152832992
 20
-88.28436141456086
 30
0.0
 10
67.23586152832992
 20
-88.28436141456086
 30
0.0
 10
66.47001680195889
 20
-88.28436141456086
 30
0.0
 10
66.47001680195889
 20
-88.28436141456086
 30
0.0
 10
66.37699922385714
 20
-88.28436141456086
 30
0.0
 10
66.1930311249448
 20
-88.28866778391742
 30
0.0
 10
66.03627928036593
 20
-88.3076158090863
 30
0.0
 10
66.03627928036593
 20
-88.3076158090863
 30
0.0
 10
66.03627928036593
 20
-88.08764646235309
 30
0.0
 10
66.03627928036593
 20
-88.08764646235309
 30
0.0
 10
66.12309568659423
 20
-88.10883379958737
 30
0.0
 10
66.374932166566
 20
-88.10883379958737
 30
0.0
 10
66.47415091654119
 20
-88.10883379958737
 30
0.0
 10
66.47415091654119
 20
-88.10883379958737
 30
0.0
 10
66.905821380843
 20
-88.10883379958737
 30
0.0
 10
66.905821380843
 20
-88.10883379958737
 30
0.0
 10
66.94819605531157
 20
-88.10883379958737
 30
0.0
 10
67.18280705785708
 20
-88.10659448752196
 30
0.0
 10
67.22104761774335
 20
-88.10039331564852
 30
0.0
 10
67.26342229221193
 20
-88.0940198890008
 30
0.0
 10
67.26548934950307
 20
-88.09195283170965
 30
0.0
 10
67.32681204914053
 20
-88.05164521453223
 30
0.0
 10
67.32681204914053
 20
-88.05164521453223
 30
0.0
 10
67.51525877218369
 20
-88.2061577470457
 30
0.0
 10
67.51525877218369
 20
-88.2061577470457
 30
0.0
 10
67.48563095101053
 20
-88.23578556821883
 30
0.0
 10
67.47081704042397
 20
-88.26748044668314
 30
0.0
 10
67.45359156299772
 20
-88.32673608902942
 30
0.0
  0
SPLINE
  5
F4
330
C2
100
AcDbEntity
  8
_U+30EC_U+30A4_U+30E4_U+30FC 1
370
     0
100
AcDbSpline
210
0.0
220
0.0
230
1.0
 70
    11
 71
     3
 72
    17
 73
    13
 74
     0
 42
0.0000000001
 43
0.0000000001
 12
1.0
 22
0.0
 32
0.0
 13
1.0
 23
0.0
 33
0.0
 40
0.0
 40
0.0
 40
0.0
 40
0.0
 40
1.0
 40
1.0
 40
1.0
 40
2.0
 40
2.0
 40
2.0
 40
3.0
 40
3.0
 40
3.0
 40
4.0
 40
4.0
 40
4.0
 40
4.0
 10
67.66305336850091
 20
-88.12778182475625
 30
0.0
 10
67.53627385464371
 20
-88.12778182475625
 30
0.0
 10
67.43464353782885
 20
-88.02632376271565
 30
0.0
 10
67.43464353782885
 20
-87.89937199408419
 30
0.0
 10
67.43464353782885
 20
-87.77242022545273
 30
0.0
 10
67.53627385464371
 20
-87.66872285134671
 30
0.0
 10
67.66305336850091
 20
-87.66872285134671
 30
0.0
 10
67.79017739190662
 20
-87.66872285134671
 30
0.0
 10
67.89387476601264
 20
-87.77242022545273
 30
0.0
 10
67.89387476601264
 20
-87.89937199408419
 30
0.0
 10
67.89387476601264
 20
-88.02632376271565
 30
0.0
 10
67.79017739190662
 20
-88.12778182475625
 30
0.0
 10
67.66305336850091
 20
-88.12778182475625
 30
0.0
  0
SPLINE
  5
F5
330
C2
100
AcDbEntity
  8
_U+30EC_U+30A4_U+30E4_U+30FC 1
370
     0
100
AcDbSpline
210
0.0
220
0.0
230
1.0
 70
    11
 71
     3
 72
    17
 73
    13
 74
     0
 42
0.0000000001
 43
0.0000000001
 12
1.0
 22
0.0
 32
0.0
 13
1.0
 23
0.0
 33
0.0
 40
0.0
 40
0.0
 40
0.0
 40
0.0
 40
1.0
 40
1.0
 40
1.0
 40
2.0
 40
2.0
 40
2.0
 40
3.0
 40
3.0
 40
3.0
 40
4.0
 40
4.0
 40
4.0
 40
4.0
 10
67.66098631120975
 20
-87.79774167726931
 30
0.0
 10
67.60620929299428
 20
-87.79774167726931
 30
0.0
 10
67.56176756123456
 20
-87.84218340902905
 30
0.0
 10
67.56176756123456
 20
-87.89730493679303
 30
0.0
 10
67.56176756123456
 20
-87.95432126707392
 30
0.0
 10
67.60620929299428
 20
-88.00306936819021
 30
0.0
 10
67.66512042579205
 20
-88.00306936819021
 30
0.0
 10
67.72437606813835
 20
-88.00306936819021
 30
0.0
 10
67.76468368531577
 20
-87.95225420978278
 30
0.0
 10
67.76468368531577
 20
-87.89937199408419
 30
0.0
 10
67.76468368531577
 20
-87.84218340902905
 30
0.0
 10
67.7181748962649
 20
-87.79774167726931
 30
0.0
 10
67.66098631120975
 20
-87.79774167726931
 30
0.0
  0
HATCH
  5
F6
330
C2
100
AcDbEntity
  8
_U+30EC_U+30A4_U+30E4_U+30FC 1
 62
   179
420
  2234388
100
AcDbHatch
 10
0.0
 20
0.0
 30
0.0
210
0.0
220
0.0
230
1.0
  2
SOLID
 70
     1
 71
     0
 91
        3
 92
        1
 93
        1
 72
     4
 94
        3
 73
     0
 74
     1
 95
       44
 96
       40
 40
0.0
 40
0.0
 40
0.0
 40
0.0
 40
1.0
 40
1.0
 40
1.0
 40
2.0
 40
2.0
 40
2.0
 40
3.0
 40
3.0
 40
3.0
 40
4.0
 40
4.0
 40
4.0
 40
5.0
 40
5.0
 40
5.0
 40
6.0
 40
6.0
 40
6.0
 40
7.0
 40
7.0
 40
7.0
 40
8.0
 40
8.0
 40
8.0
 40
9.0
 40
9.0
 40
9.0
 40
10.0
 40
10.0
 40
10.0
 40
11.0
 40
11.0
 40
11.0
 40
12.0
 40
12.0
 40
12.0
 40
13.0
 40
13.0
 40
13.0
 40
13.0
 10
67.45359156299772
 20
-88.32673608902942
 10
67.3416259597271
 20
-88.69484454162837
 10
67.29098305609392
 20
-88.85349118872413
 10
67.09426810388617
 20
-89.10308835663048
 10
66.9099554954253
 20
-89.33373749936796
 10
66.67327743558863
 20
-89.51977265557144
 10
66.39388019173487
 20
-89.61313474322172
 10
66.39388019173487
 20
-89.61313474322172
 10
66.2012993541094
 20
-89.43330075889168
 10
66.2012993541094
 20
-89.43330075889168
 10
66.8424316239144
 20
-89.28102753844364
 10
67.17247177140133
 20
-88.72447236280152
 10
67.23586152832992
 20
-88.28436141456086
 10
67.23586152832992
 20
-88.28436141456086
 10
66.47001680195889
 20
-88.28436141456086
 10
66.47001680195889
 20
-88.28436141456086
 10
66.37699922385714
 20
-88.28436141456086
 10
66.1930311249448
 20
-88.28866778391742
 10
66.03627928036593
 20
-88.3076158090863
 10
66.03627928036593
 20
-88.3076158090863
 10
66.03627928036593
 20
-88.08764646235309
 10
66.03627928036593
 20
-88.08764646235309
 10
66.12309568659423
 20
-88.10883379958737
 10
66.374932166566
 20
-88.10883379958737
 10
66.47415091654119
 20
-88.10883379958737
 10
66.47415091654119
 20
-88.10883379958737
 10
66.905821380843
 20
-88.10883379958737
 10
66.905821380843
 20
-88.10883379958737
 10
66.94819605531157
 20
-88.10883379958737
 10
67.18280705785708
 20
-88.10659448752196
 10
67.22104761774335
 20
-88.10039331564852
 10
67.26342229221193
 20
-88.0940198890008
 10
67.26548934950307
 20
-88.09195283170965
 10
67.32681204914053
 20
-88.05164521453223
 10
67.32681204914053
 20
-88.05164521453223
 10
67.51525877218369
 20
-88.2061577470457
 10
67.51525877218369
 20
-88.2061577470457
 10
67.48563095101053
 20
-88.23578556821883
 10
67.47081704042397
 20
-88.26748044668314
 10
67.45359156299772
 20
-88.32673608902942
 97
        0
 97
        0
 92
        1
 93
        1
 72
     4
 94
        3
 73
     0
 74
     1
 95
       17
 96
       13
 40
0.0
 40
0.0
 40
0.0
 40
0.0
 40
1.0
 40
1.0
 40
1.0
 40
2.0
 40
2.0
 40
2.0
 40
3.0
 40
3.0
 40
3.0
 40
4.0
 40
4.0
 40
4.0
 40
4.0
 10
67.66305336850091
 20
-88.12778182475625
 10
67.53627385464371
 20
-88.12778182475625
 10
67.43464353782885
 20
-88.02632376271565
 10
67.43464353782885
 20
-87.89937199408419
 10
67.43464353782885
 20
-87.77242022545273
 10
67.53627385464371
 20
-87.66872285134671
 10
67.66305336850091
 20
-87.66872285134671
 10
67.79017739190662
 20
-87.66872285134671
 10
67.89387476601264
 20
-87.77242022545273
 10
67.89387476601264
 20
-87.89937199408419
 10
67.89387476601264
 20
-88.02632376271565
 10
67.79017739190662
 20
-88.12778182475625
 10
67.66305336850091
 20
-88.12778182475625
 97
        0
 97
        0
 92
        1
 93
        1
 72
     4
 94
        3
 73
     0
 74
     1
 95
       17
 96
       13
 40
0.0
 40
0.0
 40
0.0
 40
0.0
 40
1.0
 40
1.0
 40
1.0
 40
2.0
 40
2.0
 40
2.0
 40
3.0
 40
3.0
 40
3.0
 40
4.0
 40
4.0
 40
4.0
 40
4.0
 10
67.66098631120975
 20
-87.79774167726931
 10
67.60620929299428
 20
-87.79774167726931
 10
67.56176756123456
 20
-87.84218340902905
 10
67.56176756123456
 20
-87.89730493679303
 10
67.56176756123456
 20
-87.95432126707392
 10
67.60620929299428
 20
-88.00306936819021
 10
67.66512042579205
 20
-88.00306936819021
 10
67.72437606813835
 20
-88.00306936819021
 10
67.76468368531577
 20
-87.95225420978278
 10
67.76468368531577
 20
-87.89937199408419
 10
67.76468368531577
 20
-87.84218340902905
 10
67.7181748962649
 20
-87.79774167726931
 10
67.66098631120975
 20
-87.79774167726931
 97
        0
 97
        0
 75
     2
 76
     1
 98
        0
  0
SPLINE
  5
F7
330
C2
100
AcDbEntity
  8
_U+30EC_U+30A4_U+30E4_U+30FC 1
370
     0
100
AcDbSpline
210
0.0
220
0.0
230
1.0
 70
    11
 71
     3
 72
    50
 73
    46
 74
     0
 42
0.0000000001
 43
0.0000000001
 12
1.0
 22
0.0
 32
0.0
 13
1.0
 23
0.0
 33
0.0
 40
0.0
 40
0.0
 40
0.0
 40
0.0
 40
1.0
 40
1.0
 40
1.0
 40
2.0
 40
2.0
 40
2.0
 40
3.0
 40
3.0
 40
3.0
 40
4.0
 40
4.0
 40
4.0
 40
5.0
 40
5.0
 40
5.0
 40
6.0
 40
6.0
 40
6.0
 40
7.0
 40
7.0
 40
7.0
 40
8.0
 40
8.0
 40
8.0
 40
9.0
 40
9.0
 40
9.0
 40
10.0
 40
10.0
 40
10.0
 40
11.0
 40
11.0
 40
11.0
 40
12.0
 40
12.0
 40
12.0
 40
13.0
 40
13.0
 40
13.0
 40
14.0
 40
14.0
 40
14.0
 40
15.0
 40
15.0
 40
15.0
 40
15.0
 10
69.4582926258646
 20
-88.63558889928208
 30
0.0
 10
69.3797444488009
 20
-88.8131835715467
 30
0.0
 10
69.24435219623058
 20
-89.02057831975876
 30
0.0
 10
69.10689288636911
 20
-89.16027694168562
 30
0.0
 10
68.93773869804335
 20
-89.33167044207681
 30
0.0
 10
68.77478568159103
 20
-89.42055390559625
 30
0.0
 10
68.45542533010837
 20
-89.56214733004002
 30
0.0
 10
68.45542533010837
 20
-89.56214733004002
 30
0.0
 10
68.2862711417826
 20
-89.37404511654537
 30
0.0
 10
68.2862711417826
 20
-89.37404511654537
 30
0.0
 10
68.4723062979861
 20
-89.35061846724568
 30
0.0
 10
68.64352754360301
 20
-89.26380206101739
 30
0.0
 10
68.79614527359958
 20
-89.15803762962021
 30
0.0
 10
69.05831704002709
 20
-88.97613658799902
 30
0.0
 10
69.2488308203614
 20
-88.66297740838982
 30
0.0
 10
69.29740666670342
 20
-88.48107636676862
 30
0.0
 10
69.29740666670342
 20
-88.48107636676862
 30
0.0
 10
68.62664657572529
 20
-88.48107636676862
 30
0.0
 10
68.62664657572529
 20
-88.48107636676862
 30
0.0
 10
68.4681721834038
 20
-88.48107636676862
 30
0.0
 10
68.1760280862546
 20
-88.48951685070749
 30
0.0
 10
68.02375486580657
 20
-88.50657007335947
 30
0.0
 10
68.02375486580657
 20
-88.50657007335947
 30
0.0
 10
68.02375486580657
 20
-88.27798798791315
 30
0.0
 10
68.02375486580657
 20
-88.27798798791315
 30
0.0
 10
68.05786131111054
 20
-88.28436141456086
 30
0.0
 10
68.08301050815287
 20
-88.29073484120858
 30
0.0
 10
68.13606497862571
 20
-88.29486895579088
 30
0.0
 10
68.23735078589205
 20
-88.30124238243859
 30
0.0
 10
68.43441024764834
 20
-88.303481694504
 30
0.0
 10
68.51881508703697
 20
-88.303481694504
 30
0.0
 10
68.51881508703697
 20
-88.303481694504
 30
0.0
 10
69.02455510427164
 20
-88.303481694504
 30
0.0
 10
69.02455510427164
 20
-88.303481694504
 30
0.0
 10
69.09207897578254
 20
-88.303481694504
 30
0.0
 10
69.23815102435714
 20
-88.29917532514743
 30
0.0
 10
69.29947372399458
 20
-88.29280189849972
 30
0.0
 10
69.3714762196363
 20
-88.28436141456086
 30
0.0
 10
69.3990369835183
 20
-88.26954750397428
 30
0.0
 10
69.43279891927375
 20
-88.24629310944884
 30
0.0
 10
69.43279891927375
 20
-88.24629310944884
 30
0.0
 10
69.59781899301721
 20
-88.41338024048346
 30
0.0
 10
69.59781899301721
 20
-88.41338024048346
 30
0.0
 10
69.52788355466664
 20
-88.48107636676862
 30
0.0
 10
69.48137476561577
 20
-88.58477374087464
 30
0.0
 10
69.4582926258646
 20
-88.63558889928208
 30
0.0
  0
SPLINE
  5
F8
330
C2
100
AcDbEntity
  8
_U+30EC_U+30A4_U+30E4_U+30FC 1
370
     0
100
AcDbSpline
210
0.0
220
0.0
230
1.0
 70
    11
 71
     3
 72
    29
 73
    25
 74
     0
 42
0.0000000001
 43
0.0000000001
 12
1.0
 22
0.0
 32
0.0
 13
1.0
 23
0.0
 33
0.0
 40
0.0
 40
0.0
 40
0.0
 40
0.0
 40
1.0
 40
1.0
 40
1.0
 40
2.0
 40
2.0
 40
2.0
 40
3.0
 40
3.0
 40
3.0
 40
4.0
 40
4.0
 40
4.0
 40
5.0
 40
5.0
 40
5.0
 40
6.0
 40
6.0
 40
6.0
 40
7.0
 40
7.0
 40
7.0
 40
8.0
 40
8.0
 40
8.0
 40
8.0
 10
68.96529946192534
 20
-88.00944279483792
 30
0.0
 10
68.96529946192534
 20
-88.00944279483792
 30
0.0
 10
68.62457951843413
 20
-88.00944279483792
 30
0.0
 10
68.62457951843413
 20
-88.00944279483792
 30
0.0
 10
68.51054685787237
 20
-88.00944279483792
 30
0.0
 10
68.39410263047093
 20
-88.01357690942022
 30
0.0
 10
68.27972546036062
 20
-88.02839082000679
 30
0.0
 10
68.27972546036062
 20
-88.02839082000679
 30
0.0
 10
68.27972546036062
 20
-87.81892901450361
 30
0.0
 10
68.27972546036062
 20
-87.81892901450361
 30
0.0
 10
68.39823674505323
 20
-87.83374292509018
 30
0.0
 10
68.57186955750981
 20
-87.83804929444675
 30
0.0
 10
68.62457951843413
 20
-87.83804929444675
 30
0.0
 10
68.62457951843413
 20
-87.83804929444675
 30
0.0
 10
68.96529946192534
 20
-87.83804929444675
 30
0.0
 10
68.96529946192534
 20
-87.83804929444675
 30
0.0
 10
69.08174368932679
 20
-87.83804929444675
 30
0.0
 10
69.1978434071797
 20
-87.83374292509018
 30
0.0
 10
69.31428763458115
 20
-87.81892901450361
 30
0.0
 10
69.31428763458115
 20
-87.81892901450361
 30
0.0
 10
69.31428763458115
 20
-88.02839082000679
 30
0.0
 10
69.31428763458115
 20
-88.02839082000679
 30
0.0
 10
69.16408147142425
 20
-88.00944279483792
 30
0.0
 10
68.98011337251192
 20
-88.00944279483792
 30
0.0
 10
68.96529946192534
 20
-88.00944279483792
 30
0.0
  0
HATCH
  5
F9
330
C2
100
AcDbEntity
  8
_U+30EC_U+30A4_U+30E4_U+30FC 1
 62
   179
420
  2234388
100
AcDbHatch
 10
0.0
 20
0.0
 30
0.0
210
0.0
220
0.0
230
1.0
  2
SOLID
 70
     1
 71
     0
 91
        2
 92
        1
 93
        1
 72
     4
 94
        3
 73
     0
 74
     1
 95
       50
 96
       46
 40
0.0
 40
0.0
 40
0.0
 40
0.0
 40
1.0
 40
1.0
 40
1.0
 40
2.0
 40
2.0
 40
2.0
 40
3.0
 40
3.0
 40
3.0
 40
4.0
 40
4.0
 40
4.0
 40
5.0
 40
5.0
 40
5.0
 40
6.0
 40
6.0
 40
6.0
 40
7.0
 40
7.0
 40
7.0
 40
8.0
 40
8.0
 40
8.0
 40
9.0
 40
9.0
 40
9.0
 40
10.0
 40
10.0
 40
10.0
 40
11.0
 40
11.0
 40
11.0
 40
12.0
 40
12.0
 40
12.0
 40
13.0
 40
13.0
 40
13.0
 40
14.0
 40
14.0
 40
14.0
 40
15.0
 40
15.0
 40
15.0
 40
15.0
 10
69.4582926258646
 20
-88.63558889928208
 10
69.3797444488009
 20
-88.8131835715467
 10
69.24435219623058
 20
-89.02057831975876
 10
69.10689288636911
 20
-89.16027694168562
 10
68.93773869804335
 20
-89.33167044207681
 10
68.77478568159103
 20
-89.42055390559625
 10
68.45542533010837
 20
-89.56214733004002
 10
68.45542533010837
 20
-89.56214733004002
 10
68.2862711417826
 20
-89.37404511654537
 10
68.2862711417826
 20
-89.37404511654537
 10
68.4723062979861
 20
-89.35061846724568
 10
68.64352754360301
 20
-89.26380206101739
 10
68.79614527359958
 20
-89.15803762962021
 10
69.05831704002709
 20
-88.97613658799902
 10
69.2488308203614
 20
-88.66297740838982
 10
69.29740666670342
 20
-88.48107636676862
 10
69.29740666670342
 20
-88.48107636676862
 10
68.62664657572529
 20
-88.48107636676862
 10
68.62664657572529
 20
-88.48107636676862
 10
68.4681721834038
 20
-88.48107636676862
 10
68.1760280862546
 20
-88.48951685070749
 10
68.02375486580657
 20
-88.50657007335947
 10
68.02375486580657
 20
-88.50657007335947
 10
68.02375486580657
 20
-88.27798798791315
 10
68.02375486580657
 20
-88.27798798791315
 10
68.05786131111054
 20
-88.28436141456086
 10
68.08301050815287
 20
-88.29073484120858
 10
68.13606497862571
 20
-88.29486895579088
 10
68.23735078589205
 20
-88.30124238243859
 10
68.43441024764834
 20
-88.303481694504
 10
68.51881508703697
 20
-88.303481694504
 10
68.51881508703697
 20
-88.303481694504
 10
69.02455510427164
 20
-88.303481694504
 10
69.02455510427164
 20
-88.303481694504
 10
69.09207897578254
 20
-88.303481694504
 10
69.23815102435714
 20
-88.29917532514743
 10
69.29947372399458
 20
-88.29280189849972
 10
69.3714762196363
 20
-88.28436141456086
 10
69.3990369835183
 20
-88.26954750397428
 10
69.43279891927375
 20
-88.24629310944884
 10
69.43279891927375
 20
-88.24629310944884
 10
69.59781899301721
 20
-88.41338024048346
 10
69.59781899301721
 20
-88.41338024048346
 10
69.52788355466664
 20
-88.48107636676862
 10
69.48137476561577
 20
-88.58477374087464
 10
69.4582926258646
 20
-88.63558889928208
 97
        0
 97
        0
 92
        1
 93
        1
 72
     4
 94
        3
 73
     0
 74
     1
 95
       29
 96
       25
 40
0.0
 40
0.0
 40
0.0
 40
0.0
 40
1.0
 40
1.0
 40
1.0
 40
2.0
 40
2.0
 40
2.0
 40
3.0
 40
3.0
 40
3.0
 40
4.0
 40
4.0
 40
4.0
 40
5.0
 40
5.0
 40
5.0
 40
6.0
 40
6.0
 40
6.0
 40
7.0
 40
7.0
 40
7.0
 40
8.0
 40
8.0
 40
8.0
 40
8.0
 10
68.96529946192534
 20
-88.00944279483792
 10
68.96529946192534
 20
-88.00944279483792
 10
68.62457951843413
 20
-88.00944279483792
 10
68.62457951843413
 20
-88.00944279483792
 10
68.51054685787237
 20
-88.00944279483792
 10
68.39410263047093
 20
-88.01357690942022
 10
68.27972546036062
 20
-88.02839082000679
 10
68.27972546036062
 20
-88.02839082000679
 10
68.27972546036062
 20
-87.81892901450361
 10
68.27972546036062
 20
-87.81892901450361
 10
68.39823674505323
 20
-87.83374292509018
 10
68.57186955750981
 20
-87.83804929444675
 10
68.62457951843413
 20
-87.83804929444675
 10
68.62457951843413
 20
-87.83804929444675
 10
68.96529946192534
 20
-87.83804929444675
 10
68.96529946192534
 20
-87.83804929444675
 10
69.08174368932679
 20
-87.83804929444675
 10
69.1978434071797
 20
-87.83374292509018
 10
69.31428763458115
 20
-87.81892901450361
 10
69.31428763458115
 20
-87.81892901450361
 10
69.31428763458115
 20
-88.02839082000679
 10
69.31428763458115
 20
-88.02839082000679
 10
69.16408147142425
 20
-88.00944279483792
 10
68.98011337251192
 20
-88.00944279483792
 10
68.96529946192534
 20
-88.00944279483792
 97
        0
 97
        0
 75
     2
 76
     1
 98
        0
  0
SPLINE
  5
FA
330
C2
100
AcDbEntity
  8
_U+30EC_U+30A4_U+30E4_U+30FC 1
370
     0
100
AcDbSpline
210
0.0
220
0.0
230
1.0
 70
    11
 71
     3
 72
    50
 73
    46
 74
     0
 42
0.0000000001
 43
0.0000000001
 12
1.0
 22
0.0
 32
0.0
 13
1.0
 23
0.0
 33
0.0
 40
0.0
 40
0.0
 40
0.0
 40
0.0
 40
1.0
 40
1.0
 40
1.0
 40
2.0
 40
2.0
 40
2.0
 40
3.0
 40
3.0
 40
3.0
 40
4.0
 40
4.0
 40
4.0
 40
5.0
 40
5.0
 40
5.0
 40
6.0
 40
6.0
 40
6.0
 40
7.0
 40
7.0
 40
7.0
 40
8.0
 40
8.0
 40
8.0
 40
9.0
 40
9.0
 40
9.0
 40
10.0
 40
10.0
 40
10.0
 40
11.0
 40
11.0
 40
11.0
 40
12.0
 40
12.0
 40
12.0
 40
13.0
 40
13.0
 40
13.0
 40
14.0
 40
14.0
 40
14.0
 40
15.0
 40
15.0
 40
15.0
 40
15.0
 10
71.16843802474261
 20
-87.99462888425134
 30
0.0
 10
70.95897621923943
 20
-88.20822480433684
 30
0.0
 10
70.88731823314623
 20
-88.28022729997856
 30
0.0
 10
70.74538029915394
 20
-88.3985663298969
 30
0.0
 10
70.74538029915394
 20
-88.3985663298969
 30
0.0
 10
70.74538029915394
 20
-88.96562904676901
 30
0.0
 10
70.74538029915394
 20
-88.96562904676901
 30
0.0
 10
70.74538029915394
 20
-89.1158352099259
 30
0.0
 10
70.7519259805759
 20
-89.13478323509479
 30
0.0
 10
70.7560600951582
 20
-89.31272241690793
 30
0.0
 10
70.75812715244936
 20
-89.44363604534743
 30
0.0
 10
70.7643283243228
 20
-89.49255640123798
 30
0.0
 10
70.77087400574479
 20
-89.55181204358428
 30
0.0
 10
70.77087400574479
 20
-89.55181204358428
 30
0.0
 10
70.54453123236387
 20
-89.55181204358428
 30
0.0
 10
70.54453123236387
 20
-89.55181204358428
 30
0.0
 10
70.54866534694617
 20
-89.50737031182454
 30
0.0
 10
70.55279946152847
 20
-89.46051701322516
 30
0.0
 10
70.55279946152847
 20
-89.45224878406056
 30
0.0
 10
70.55279946152847
 20
-89.37197805925423
 30
0.0
 10
70.55727808565929
 20
-89.02057831975876
 30
0.0
 10
70.55727808565929
 20
-88.94857582411703
 30
0.0
 10
70.55727808565929
 20
-88.94857582411703
 30
0.0
 10
70.55727808565929
 20
-88.54239906640608
 30
0.0
 10
70.55727808565929
 20
-88.54239906640608
 30
0.0
 10
70.3753770440381
 20
-88.66728377774638
 30
0.0
 10
70.18072914912149
 20
-88.77735457850011
 30
0.0
 10
69.97746851549175
 20
-88.86399872995415
 30
0.0
 10
69.97746851549175
 20
-88.86399872995415
 30
0.0
 10
69.77455239141054
 20
-88.70104571350183
 30
0.0
 10
69.77455239141054
 20
-88.70104571350183
 30
0.0
 10
69.89719779068542
 20
-88.66521672045523
 30
0.0
 10
70.15316838523948
 20
-88.59114716752235
 30
0.0
 10
70.498022443313
 20
-88.3351765729683
 30
0.0
 10
70.71368542068964
 20
-88.17652992587254
 30
0.0
 10
70.9062662583151
 20
-87.98825545760363
 30
0.0
 10
71.05853947876315
 20
-87.76811385609616
 30
0.0
 10
71.05853947876315
 20
-87.76811385609616
 30
0.0
 10
71.25112031638861
 20
-87.91211884737962
 30
0.0
 10
71.25112031638861
 20
-87.91211884737962
 30
0.0
 10
71.26386716968403
 20
-87.92262638860963
 30
0.0
 10
71.27213539884863
 20
-87.9374402991962
 30
0.0
 10
71.27213539884863
 20
-87.95018715249162
 30
0.0
 10
71.27213539884863
 20
-87.99032251489479
 30
0.0
 10
71.23423934851088
 20
-87.99032251489479
 30
0.0
 10
71.16843802474261
 20
-87.99462888425134
 30
0.0
  0
HATCH
  5
FB
330
C2
100
AcDbEntity
  8
_U+30EC_U+30A4_U+30E4_U+30FC 1
 62
   179
420
  2234388
100
AcDbHatch
 10
0.0
 20
0.0
 30
0.0
210
0.0
220
0.0
230
1.0
  2
SOLID
 70
     1
 71
     0
 91
        1
 92
        1
 93
        1
 72
     4
 94
        3
 73
     0
 74
     1
 95
       50
 96
       46
 40
0.0
 40
0.0
 40
0.0
 40
0.0
 40
1.0
 40
1.0
 40
1.0
 40
2.0
 40
2.0
 40
2.0
 40
3.0
 40
3.0
 40
3.0
 40
4.0
 40
4.0
 40
4.0
 40
5.0
 40
5.0
 40
5.0
 40
6.0
 40
6.0
 40
6.0
 40
7.0
 40
7.0
 40
7.0
 40
8.0
 40
8.0
 40
8.0
 40
9.0
 40
9.0
 40
9.0
 40
10.0
 40
10.0
 40
10.0
 40
11.0
 40
11.0
 40
11.0
 40
12.0
 40
12.0
 40
12.0
 40
13.0
 40
13.0
 40
13.0
 40
14.0
 40
14.0
 40
14.0
 40
15.0
 40
15.0
 40
15.0
 40
15.0
 10
71.16843802474261
 20
-87.99462888425134
 10
70.95897621923943
 20
-88.20822480433684
 10
70.88731823314623
 20
-88.28022729997856
 10
70.74538029915394
 20
-88.3985663298969
 10
70.74538029915394
 20
-88.3985663298969
 10
70.74538029915394
 20
-88.96562904676901
 10
70.74538029915394
 20
-88.96562904676901
 10
70.74538029915394
 20
-89.1158352099259
 10
70.7519259805759
 20
-89.13478323509479
 10
70.7560600951582
 20
-89.31272241690793
 10
70.75812715244936
 20
-89.44363604534743
 10
70.7643283243228
 20
-89.49255640123798
 10
70.77087400574479
 20
-89.55181204358428
 10
70.77087400574479
 20
-89.55181204358428
 10
70.54453123236387
 20
-89.55181204358428
 10
70.54453123236387
 20
-89.55181204358428
 10
70.54866534694617
 20
-89.50737031182454
 10
70.55279946152847
 20
-89.46051701322516
 10
70.55279946152847
 20
-89.45224878406056
 10
70.55279946152847
 20
-89.37197805925423
 10
70.55727808565929
 20
-89.02057831975876
 10
70.55727808565929
 20
-88.94857582411703
 10
70.55727808565929
 20
-88.94857582411703
 10
70.55727808565929
 20
-88.54239906640608
 10
70.55727808565929
 20
-88.54239906640608
 10
70.3753770440381
 20
-88.66728377774638
 10
70.18072914912149
 20
-88.77735457850011
 10
69.97746851549175
 20
-88.86399872995415
 10
69.97746851549175
 20
-88.86399872995415
 10
69.77455239141054
 20
-88.70104571350183
 10
69.77455239141054
 20
-88.70104571350183
 10
69.89719779068542
 20
-88.66521672045523
 10
70.15316838523948
 20
-88.59114716752235
 10
70.498022443313
 20
-88.3351765729683
 10
70.71368542068964
 20
-88.17652992587254
 10
70.9062662583151
 20
-87.98825545760363
 10
71.05853947876315
 20
-87.76811385609616
 10
71.05853947876315
 20
-87.76811385609616
 10
71.25112031638861
 20
-87.91211884737962
 10
71.25112031638861
 20
-87.91211884737962
 10
71.26386716968403
 20
-87.92262638860963
 10
71.27213539884863
 20
-87.9374402991962
 10
71.27213539884863
 20
-87.95018715249162
 10
71.27213539884863
 20
-87.99032251489479
 10
71.23423934851088
 20
-87.99032251489479
 10
71.16843802474261
 20
-87.99462888425134
 97
        0
 97
        0
 75
     2
 76
     1
 98
        0
  0
SPLINE
  5
FC
330
C2
100
AcDbEntity
  8
_U+30EC_U+30A4_U+30E4_U+30FC 1
370
     0
100
AcDbSpline
210
0.0
220
0.0
230
1.0
 70
    11
 71
     3
 72
    50
 73
    46
 74
     0
 42
0.0000000001
 43
0.0000000001
 12
1.0
 22
0.0
 32
0.0
 13
1.0
 23
0.0
 33
0.0
 40
0.0
 40
0.0
 40
0.0
 40
0.0
 40
1.0
 40
1.0
 40
1.0
 40
2.0
 40
2.0
 40
2.0
 40
3.0
 40
3.0
 40
3.0
 40
4.0
 40
4.0
 40
4.0
 40
5.0
 40
5.0
 40
5.0
 40
6.0
 40
6.0
 40
6.0
 40
7.0
 40
7.0
 40
7.0
 40
8.0
 40
8.0
 40
8.0
 40
9.0
 40
9.0
 40
9.0
 40
10.0
 40
10.0
 40
10.0
 40
11.0
 40
11.0
 40
11.0
 40
12.0
 40
12.0
 40
12.0
 40
13.0
 40
13.0
 40
13.0
 40
14.0
 40
14.0
 40
14.0
 40
15.0
 40
15.0
 40
15.0
 40
15.0
 10
72.87686087587801
 20
-88.52138398394605
 30
0.0
 10
72.81553817624057
 20
-88.59321422481351
 30
0.0
 10
72.55508895755568
 20
-88.91050751900502
 30
0.0
 10
72.49824488204905
 20
-88.97406953070788
 30
0.0
 10
72.58264972143768
 20
-89.07139347816619
 30
0.0
 10
72.63363713461938
 20
-89.13478323509479
 30
0.0
 10
72.69909394883912
 20
-89.22573375590538
 30
0.0
 10
72.69909394883912
 20
-89.22573375590538
 30
0.0
 10
72.51512584992678
 20
-89.3633653205411
 30
0.0
 10
72.51512584992678
 20
-89.3633653205411
 30
0.0
 10
72.37973359735646
 20
-89.1516642029725
 30
0.0
 10
72.20816784219102
 20
-88.927560741657
 30
0.0
 10
71.91430119729921
 20
-88.72860647738382
 30
0.0
 10
71.91430119729921
 20
-88.72860647738382
 30
0.0
 10
72.06244030316495
 20
-88.57426619964463
 30
0.0
 10
72.06244030316495
 20
-88.57426619964463
 30
0.0
 10
72.17233884914442
 20
-88.65453692445095
 30
0.0
 10
72.27603622325044
 20
-88.7434203879704
 30
0.0
 10
72.37318791593448
 20
-88.83867727813755
 30
0.0
 10
72.4410562969939
 20
-88.76254066791354
 30
0.0
 10
72.64397242107512
 20
-88.51914467188064
 30
0.0
 10
72.77729761635429
 20
-88.29073484120858
 30
0.0
 10
72.77729761635429
 20
-88.29073484120858
 30
0.0
 10
72.104470468085
 20
-88.29073484120858
 30
0.0
 10
72.104470468085
 20
-88.29073484120858
 30
0.0
 10
71.97975801151895
 20
-88.29073484120858
 30
0.0
 10
71.7279215315472
 20
-88.29917532514743
 30
0.0
 10
71.518459726044
 20
-88.30968286637744
 30
0.0
 10
71.518459726044
 20
-88.30968286637744
 30
0.0
 10
71.518459726044
 20
-88.08971351964425
 30
0.0
 10
71.518459726044
 20
-88.08971351964425
 30
0.0
 10
71.70277233450487
 20
-88.10883379958737
 30
0.0
 10
71.90775551587723
 20
-88.11296791416967
 30
0.0
 10
72.0962022389204
 20
-88.11296791416967
 30
0.0
 10
72.0962022389204
 20
-88.11296791416967
 30
0.0
 10
72.5995306893154
 20
-88.11296791416967
 30
0.0
 10
72.5995306893154
 20
-88.11296791416967
 30
0.0
 10
72.93818357551545
 20
-88.11296791416967
 30
0.0
 10
72.98262530727519
 20
-88.0981540035831
 30
0.0
 10
73.06496308937265
 20
-88.05801864117994
 30
0.0
 10
73.06496308937265
 20
-88.05801864117994
 30
0.0
 10
73.23205022040727
 20
-88.21666528827569
 30
0.0
 10
73.23205022040727
 20
-88.21666528827569
 30
0.0
 10
73.07977699995922
 20
-88.28866778391742
 30
0.0
 10
72.93611651822431
 20
-88.45144854559547
 30
0.0
 10
72.87686087587801
 20
-88.52138398394605
 30
0.0
  0
HATCH
  5
FD
330
C2
100
AcDbEntity
  8
_U+30EC_U+30A4_U+30E4_U+30FC 1
 62
   179
420
  2234388
100
AcDbHatch
 10
0.0
 20
0.0
 30
0.0
210
0.0
220
0.0
230
1.0
  2
SOLID
 70
     1
 71
     0
 91
        1
 92
        1
 93
        1
 72
     4
 94
        3
 73
     0
 74
     1
 95
       50
 96
       46
 40
0.0
 40
0.0
 40
0.0
 40
0.0
 40
1.0
 40
1.0
 40
1.0
 40
2.0
 40
2.0
 40
2.0
 40
3.0
 40
3.0
 40
3.0
 40
4.0
 40
4.0
 40
4.0
 40
5.0
 40
5.0
 40
5.0
 40
6.0
 40
6.0
 40
6.0
 40
7.0
 40
7.0
 40
7.0
 40
8.0
 40
8.0
 40
8.0
 40
9.0
 40
9.0
 40
9.0
 40
10.0
 40
10.0
 40
10.0
 40
11.0
 40
11.0
 40
11.0
 40
12.0
 40
12.0
 40
12.0
 40
13.0
 40
13.0
 40
13.0
 40
14.0
 40
14.0
 40
14.0
 40
15.0
 40
15.0
 40
15.0
 40
15.0
 10
72.87686087587801
 20
-88.52138398394605
 10
72.81553817624057
 20
-88.59321422481351
 10
72.55508895755568
 20
-88.91050751900502
 10
72.49824488204905
 20
-88.97406953070788
 10
72.58264972143768
 20
-89.07139347816619
 10
72.63363713461938
 20
-89.13478323509479
 10
72.69909394883912
 20
-89.22573375590538
 10
72.69909394883912
 20
-89.22573375590538
 10
72.51512584992678
 20
-89.3633653205411
 10
72.51512584992678
 20
-89.3633653205411
 10
72.37973359735646
 20
-89.1516642029725
 10
72.20816784219102
 20
-88.927560741657
 10
71.91430119729921
 20
-88.72860647738382
 10
71.91430119729921
 20
-88.72860647738382
 10
72.06244030316495
 20
-88.57426619964463
 10
72.06244030316495
 20
-88.57426619964463
 10
72.17233884914442
 20
-88.65453692445095
 10
72.27603622325044
 20
-88.7434203879704
 10
72.37318791593448
 20
-88.83867727813755
 10
72.4410562969939
 20
-88.76254066791354
 10
72.64397242107512
 20
-88.51914467188064
 10
72.77729761635429
 20
-88.29073484120858
 10
72.77729761635429
 20
-88.29073484120858
 10
72.104470468085
 20
-88.29073484120858
 10
72.104470468085
 20
-88.29073484120858
 10
71.97975801151895
 20
-88.29073484120858
 10
71.7279215315472
 20
-88.29917532514743
 10
71.518459726044
 20
-88.30968286637744
 10
71.518459726044
 20
-88.30968286637744
 10
71.518459726044
 20
-88.08971351964425
 10
71.518459726044
 20
-88.08971351964425
 10
71.70277233450487
 20
-88.10883379958737
 10
71.90775551587723
 20
-88.11296791416967
 10
72.0962022389204
 20
-88.11296791416967
 10
72.0962022389204
 20
-88.11296791416967
 10
72.5995306893154
 20
-88.11296791416967
 10
72.5995306893154
 20
-88.11296791416967
 10
72.93818357551545
 20
-88.11296791416967
 10
72.98262530727519
 20
-88.0981540035831
 10
73.06496308937265
 20
-88.05801864117994
 10
73.06496308937265
 20
-88.05801864117994
 10
73.23205022040727
 20
-88.21666528827569
 10
73.23205022040727
 20
-88.21666528827569
 10
73.07977699995922
 20
-88.28866778391742
 10
72.93611651822431
 20
-88.45144854559547
 10
72.87686087587801
 20
-88.52138398394605
 97
        0
 97
        0
 75
     2
 76
     1
 98
        0
  0
SPLINE
  5
FE
330
C2
100
AcDbEntity
  8
_U+30EC_U+30A4_U+30E4_U+30FC 1
370
     0
100
AcDbSpline
210
0.0
220
0.0
230
1.0
 70
    11
 71
     3
 72
    29
 73
    25
 74
     0
 42
0.0000000001
 43
0.0000000001
 12
1.0
 22
0.0
 32
0.0
 13
1.0
 23
0.0
 33
0.0
 40
0.0
 40
0.0
 40
0.0
 40
0.0
 40
1.0
 40
1.0
 40
1.0
 40
2.0
 40
2.0
 40
2.0
 40
3.0
 40
3.0
 40
3.0
 40
4.0
 40
4.0
 40
4.0
 40
5.0
 40
5.0
 40
5.0
 40
6.0
 40
6.0
 40
6.0
 40
7.0
 40
7.0
 40
7.0
 40
8.0
 40
8.0
 40
8.0
 40
8.0
 10
74.50053437807625
 20
-88.76460772520468
 30
0.0
 10
74.50053437807625
 20
-88.76460772520468
 30
0.0
 10
74.01615395285013
 20
-88.76460772520468
 30
0.0
 10
74.01615395285013
 20
-88.76460772520468
 30
0.0
 10
73.98859318896814
 20
-88.76460772520468
 30
0.0
 10
73.67129989477662
 20
-88.76460772520468
 30
0.0
 10
73.45977103198229
 20
-88.78992917702128
 30
0.0
 10
73.45977103198229
 20
-88.78992917702128
 30
0.0
 10
73.45977103198229
 20
-88.55945228905806
 30
0.0
 10
73.45977103198229
 20
-88.55945228905806
 30
0.0
 10
73.61824542430378
 20
-88.5827066835835
 30
0.0
 10
73.8087592046381
 20
-88.58477374087464
 30
0.0
 10
74.01615395285013
 20
-88.58477374087464
 30
0.0
 10
74.01615395285013
 20
-88.58477374087464
 30
0.0
 10
74.50053437807625
 20
-88.58477374087464
 30
0.0
 10
74.50053437807625
 20
-88.58477374087464
 30
0.0
 10
74.68656953427976
 20
-88.58477374087464
 30
0.0
 10
74.87294920003177
 20
-88.5827066835835
 30
0.0
 10
75.05691729894411
 20
-88.55945228905806
 30
0.0
 10
75.05691729894411
 20
-88.55945228905806
 30
0.0
 10
75.05691729894411
 20
-88.78992917702128
 30
0.0
 10
75.05691729894411
 20
-88.78992917702128
 30
0.0
 10
74.87294920003177
 20
-88.76667478249584
 30
0.0
 10
74.6252468346423
 20
-88.76460772520468
 30
0.0
 10
74.50053437807625
 20
-88.76460772520468
 30
0.0
  0
HATCH
  5
FF
330
C2
100
AcDbEntity
  8
_U+30EC_U+30A4_U+30E4_U+30FC 1
 62
   179
420
  2234388
100
AcDbHatch
 10
0.0
 20
0.0
 30
0.0
210
0.0
220
0.0
230
1.0
  2
SOLID
 70
     1
 71
     0
 91
        1
 92
        1
 93
        1
 72
     4
 94
        3
 73
     0
 74
     1
 95
       29
 96
       25
 40
0.0
 40
0.0
 40
0.0
 40
0.0
 40
1.0
 40
1.0
 40
1.0
 40
2.0
 40
2.0
 40
2.0
 40
3.0
 40
3.0
 40
3.0
 40
4.0
 40
4.0
 40
4.0
 40
5.0
 40
5.0
 40
5.0
 40
6.0
 40
6.0
 40
6.0
 40
7.0
 40
7.0
 40
7.0
 40
8.0
 40
8.0
 40
8.0
 40
8.0
 10
74.50053437807625
 20
-88.76460772520468
 10
74.50053437807625
 20
-88.76460772520468
 10
74.01615395285013
 20
-88.76460772520468
 10
74.01615395285013
 20
-88.76460772520468
 10
73.98859318896814
 20
-88.76460772520468
 10
73.67129989477662
 20
-88.76460772520468
 10
73.45977103198229
 20
-88.78992917702128
 10
73.45977103198229
 20
-88.78992917702128
 10
73.45977103198229
 20
-88.55945228905806
 10
73.45977103198229
 20
-88.55945228905806
 10
73.61824542430378
 20
-88.5827066835835
 10
73.8087592046381
 20
-88.58477374087464
 10
74.01615395285013
 20
-88.58477374087464
 10
74.01615395285013
 20
-88.58477374087464
 10
74.50053437807625
 20
-88.58477374087464
 10
74.50053437807625
 20
-88.58477374087464
 10
74.68656953427976
 20
-88.58477374087464
 10
74.87294920003177
 20
-88.5827066835835
 10
75.05691729894411
 20
-88.55945228905806
 10
75.05691729894411
 20
-88.55945228905806
 10
75.05691729894411
 20
-88.78992917702128
 10
75.05691729894411
 20
-88.78992917702128
 10
74.87294920003177
 20
-88.76667478249584
 10
74.6252468346423
 20
-88.76460772520468
 10
74.50053437807625
 20
-88.76460772520468
 97
        0
 97
        0
 75
     2
 76
     1
 98
        0
  0
SPLINE
  5
100
330
C2
100
AcDbEntity
  8
_U+30EC_U+30A4_U+30E4_U+30FC 1
370
     0
100
AcDbSpline
210
0.0
220
0.0
230
1.0
 70
    11
 71
     3
 72
    53
 73
    49
 74
     0
 42
0.0000000001
 43
0.0000000001
 12
1.0
 22
0.0
 32
0.0
 13
1.0
 23
0.0
 33
0.0
 40
0.0
 40
0.0
 40
0.0
 40
0.0
 40
1.0
 40
1.0
 40
1.0
 40
2.0
 40
2.0
 40
2.0
 40
3.0
 40
3.0
 40
3.0
 40
4.0
 40
4.0
 40
4.0
 40
5.0
 40
5.0
 40
5.0
 40
6.0
 40
6.0
 40
6.0
 40
7.0
 40
7.0
 40
7.0
 40
8.0
 40
8.0
 40
8.0
 40
9.0
 40
9.0
 40
9.0
 40
10.0
 40
10.0
 40
10.0
 40
11.0
 40
11.0
 40
11.0
 40
12.0
 40
12.0
 40
12.0
 40
13.0
 40
13.0
 40
13.0
 40
14.0
 40
14.0
 40
14.0
 40
15.0
 40
15.0
 40
15.0
 40
16.0
 40
16.0
 40
16.0
 40
16.0
 10
75.91888018935362
 20
-87.89093151014532
 30
0.0
 10
75.85135631784271
 20
-88.04320473059337
 30
0.0
 10
75.80898164337415
 20
-88.12140839810854
 30
0.0
 10
75.77074108348788
 20
-88.1891045243937
 30
0.0
 10
75.81311575795645
 20
-88.210291861628
 30
0.0
 10
75.81724987253875
 20
-88.21253117369339
 30
0.0
 10
75.81724987253875
 20
-88.22734508427997
 30
0.0
 10
75.81724987253875
 20
-88.23991968280113
 30
0.0
 10
75.7834879367833
 20
-88.27385387333085
 30
0.0
 10
75.77280814077902
 20
-88.2822943572697
 30
0.0
 10
75.77074108348788
 20
-88.47900930947748
 30
0.0
 10
75.77074108348788
 20
-88.50019664671176
 30
0.0
 10
75.77074108348788
 20
-88.63352184199093
 30
0.0
 10
75.76867402619672
 20
-88.6460964405121
 30
0.0
 10
75.76867402619672
 20
-88.66091035109866
 30
0.0
 10
75.76867402619672
 20
-88.67572426168525
 30
0.0
 10
75.76867402619672
 20
-88.67572426168525
 30
0.0
 10
75.76867402619672
 20
-89.2109198453188
 30
0.0
 10
75.76867402619672
 20
-89.2109198453188
 30
0.0
 10
75.76867402619672
 20
-89.28309459573478
 30
0.0
 10
75.77280814077902
 20
-89.5177055982803
 30
0.0
 10
75.78142087949215
 20
-89.62794865380829
 30
0.0
 10
75.78142087949215
 20
-89.62794865380829
 30
0.0
 10
75.53819713823351
 20
-89.62794865380829
 30
0.0
 10
75.53819713823351
 20
-89.62794865380829
 30
0.0
 10
75.56127927798468
 20
-89.46912975193828
 30
0.0
 10
75.56782495940666
 20
-89.2279730679708
 30
0.0
 10
75.56782495940666
 20
-89.2067857307365
 30
0.0
 10
75.56782495940666
 20
-89.2067857307365
 30
0.0
 10
75.56782495940666
 20
-88.48951685070749
 30
0.0
 10
75.56782495940666
 20
-88.48951685070749
 30
0.0
 10
75.47687443859606
 20
-88.60389402081778
 30
0.0
 10
75.41555173895861
 20
-88.66297740838982
 30
0.0
 10
75.37317706449004
 20
-88.70535208285838
 30
0.0
 10
75.37317706449004
 20
-88.70535208285838
 30
0.0
 10
75.18266328415572
 20
-88.56789277299691
 30
0.0
 10
75.18266328415572
 20
-88.56789277299691
 30
0.0
 10
75.46412758530064
 20
-88.35205754084602
 30
0.0
 10
75.6567084229261
 20
-88.04320473059337
 30
0.0
 10
75.76867402619672
 20
-87.70679115645872
 30
0.0
 10
75.76867402619672
 20
-87.70679115645872
 30
0.0
 10
75.98881562770418
 20
-87.82116832656902
 30
0.0
 10
75.98881562770418
 20
-87.82116832656902
 30
0.0
 10
76.00156248099961
 20
-87.82736949844247
 30
0.0
 10
76.00983071016421
 20
-87.83167586779904
 30
0.0
 10
76.00983071016421
 20
-87.8464897783856
 30
0.0
 10
76.00983071016421
 20
-87.87181123020218
 30
0.0
 10
75.99294974228648
 20
-87.87611759955875
 30
0.0
 10
75.91888018935362
 20
-87.89093151014532
 30
0.0
  0
SPLINE
  5
101
330
C2
100
AcDbEntity
  8
_U+30EC_U+30A4_U+30E4_U+30FC 1
370
     0
100
AcDbSpline
210
0.0
220
0.0
230
1.0
 70
    11
 71
     3
 72
    77
 73
    73
 74
     0
 42
0.0000000001
 43
0.0000000001
 12
1.0
 22
0.0
 32
0.0
 13
1.0
 23
0.0
 33
0.0
 40
0.0
 40
0.0
 40
0.0
 40
0.0
 40
1.0
 40
1.0
 40
1.0
 40
2.0
 40
2.0
 40
2.0
 40
3.0
 40
3.0
 40
3.0
 40
4.0
 40
4.0
 40
4.0
 40
5.0
 40
5.0
 40
5.0
 40
6.0
 40
6.0
 40
6.0
 40
7.0
 40
7.0
 40
7.0
 40
8.0
 40
8.0
 40
8.0
 40
9.0
 40
9.0
 40
9.0
 40
10.0
 40
10.0
 40
10.0
 40
11.0
 40
11.0
 40
11.0
 40
12.0
 40
12.0
 40
12.0
 40
13.0
 40
13.0
 40
13.0
 40
14.0
 40
14.0
 40
14.0
 40
15.0
 40
15.0
 40
15.0
 40
16.0
 40
16.0
 40
16.0
 40
17.0
 40
17.0
 40
17.0
 40
18.0
 40
18.0
 40
18.0
 40
19.0
 40
19.0
 40
19.0
 40
20.0
 40
20.0
 40
20.0
 40
21.0
 40
21.0
 40
21.0
 40
22.0
 40
22.0
 40
22.0
 40
23.0
 40
23.0
 40
23.0
 40
24.0
 40
24.0
 40
24.0
 40
24.0
 10
77.06988659097559
 20
-88.39012584595802
 30
0.0
 10
76.99995115262502
 20
-88.38599173137573
 30
0.0
 10
76.93208277156559
 20
-88.38599173137573
 30
0.0
 10
76.8645589000547
 20
-88.38599173137573
 30
0.0
 10
76.8645589000547
 20
-88.38599173137573
 30
0.0
 10
76.8645589000547
 20
-89.16027694168562
 30
0.0
 10
76.8645589000547
 20
-89.16027694168562
 30
0.0
 10
76.8645589000547
 20
-89.42468802017855
 30
0.0
 10
76.86249184276355
 20
-89.4543158413517
 30
0.0
 10
76.85594616134158
 20
-89.48394366252485
 30
0.0
 10
76.82218422558613
 20
-89.61726885780402
 30
0.0
 10
76.72055390877125
 20
-89.62553708696862
 30
0.0
 10
76.54519854857203
 20
-89.62553708696862
 30
0.0
 10
76.50489093139461
 20
-89.62553708696862
 30
0.0
 10
76.48800996351689
 20
-89.62553708696862
 30
0.0
 10
76.44770234633947
 20
-89.62140297238632
 30
0.0
 10
76.44770234633947
 20
-89.62140297238632
 30
0.0
 10
76.32298988977342
 20
-89.38024628841883
 30
0.0
 10
76.32298988977342
 20
-89.38024628841883
 30
0.0
 10
76.43943411717487
 20
-89.41194116688312
 30
0.0
 10
76.52177189927234
 20
-89.41194116688312
 30
0.0
 10
76.54519854857203
 20
-89.41194116688312
 30
0.0
 10
76.61478947737409
 20
-89.41194116688312
 30
0.0
 10
76.64889592267805
 20
-89.3950601990054
 30
0.0
 10
76.65303003726035
 20
-89.33787161395026
 30
0.0
 10
76.65303003726035
 20
-89.32512476065483
 30
0.0
 10
76.65509709455151
 20
-89.2279730679708
 30
0.0
 10
76.65509709455151
 20
-89.17078448291564
 30
0.0
 10
76.65509709455151
 20
-89.17078448291564
 30
0.0
 10
76.65509709455151
 20
-88.38375241931031
 30
0.0
 10
76.65509709455151
 20
-88.38375241931031
 30
0.0
 10
76.65509709455151
 20
-88.38375241931031
 30
0.0
 10
76.36088594011117
 20
-88.38375241931031
 30
0.0
 10
76.36088594011117
 20
-88.38375241931031
 30
0.0
 10
76.2151584010851
 20
-88.38375241931031
 30
0.0
 10
76.06908635251051
 20
-88.39012584595802
 30
0.0
 10
75.9254258707756
 20
-88.40287269925345
 30
0.0
 10
75.9254258707756
 20
-88.40287269925345
 30
0.0
 10
75.9254258707756
 20
-88.19547795104141
 30
0.0
 10
75.9254258707756
 20
-88.19547795104141
 30
0.0
 10
76.07528752438395
 20
-88.20822480433684
 30
0.0
 10
76.29336206860027
 20
-88.21253117369339
 30
0.0
 10
76.36088594011117
 20
-88.21253117369339
 30
0.0
 10
76.36088594011117
 20
-88.21253117369339
 30
0.0
 10
76.65509709455151
 20
-88.21253117369339
 30
0.0
 10
76.65509709455151
 20
-88.21253117369339
 30
0.0
 10
76.65303003726035
 20
-87.94381372584391
 30
0.0
 10
76.65303003726035
 20
-87.86767711561988
 30
0.0
 10
76.64441729854724
 20
-87.71953800975415
 30
0.0
 10
76.64441729854724
 20
-87.71953800975415
 30
0.0
 10
76.90245495039244
 20
-87.75760631486615
 30
0.0
 10
76.90245495039244
 20
-87.75760631486615
 30
0.0
 10
76.91726886097902
 20
-87.75967337215731
 30
0.0
 10
76.93208277156559
 20
-87.76604679880502
 30
0.0
 10
76.93208277156559
 20
-87.7872341360393
 30
0.0
 10
76.93208277156559
 20
-87.80635441598244
 30
0.0
 10
76.92588159969215
 20
-87.8084214732736
 30
0.0
 10
76.868693014637
 20
-87.84218340902905
 30
0.0
 10
76.8645589000547
 20
-87.92055933131847
 30
0.0
 10
76.8645589000547
 20
-87.93537324190505
 30
0.0
 10
76.8645589000547
 20
-88.21253117369339
 30
0.0
 10
77.04232582709359
 20
-88.20822480433684
 30
0.0
 10
77.06127385226246
 20
-88.20822480433684
 30
0.0
 10
77.09503578801791
 20
-88.20391843498028
 30
0.0
 10
77.14602320119961
 20
-88.19978432039798
 30
0.0
 10
77.15015731578191
 20
-88.19771726310682
 30
0.0
 10
77.19459904754163
 20
-88.19547795104141
 30
0.0
 10
77.19459904754163
 20
-88.19547795104141
 30
0.0
 10
77.19459904754163
 20
-88.40287269925345
 30
0.0
 10
77.19459904754163
 20
-88.40287269925345
 30
0.0
 10
77.16497122636848
 20
-88.40080564196231
 30
0.0
 10
77.10984969860449
 20
-88.39219290324918
 30
0.0
 10
77.06988659097559
 20
-88.39012584595802
 30
0.0
  0
SPLINE
  5
102
330
C2
100
AcDbEntity
  8
_U+30EC_U+30A4_U+30E4_U+30FC 1
370
     0
100
AcDbSpline
210
0.0
220
0.0
230
1.0
 70
    11
 71
     3
 72
    20
 73
    16
 74
     0
 42
0.0000000001
 43
0.0000000001
 12
1.0
 22
0.0
 32
0.0
 13
1.0
 23
0.0
 33
0.0
 40
0.0
 40
0.0
 40
0.0
 40
0.0
 40
1.0
 40
1.0
 40
1.0
 40
2.0
 40
2.0
 40
2.0
 40
3.0
 40
3.0
 40
3.0
 40
4.0
 40
4.0
 40
4.0
 40
5.0
 40
5.0
 40
5.0
 40
5.0
 10
76.29956324047373
 20
-89.1158352099259
 30
0.0
 10
76.25305445142286
 20
-88.93806828288702
 30
0.0
 10
76.1559027587388
 20
-88.79630260366898
 30
0.0
 10
76.01637639158619
 20
-88.68640405768951
 30
0.0
 10
76.01637639158619
 20
-88.68640405768951
 30
0.0
 10
76.17691784119883
 20
-88.57202688757921
 30
0.0
 10
76.17691784119883
 20
-88.57202688757921
 30
0.0
 10
76.23824054083627
 20
-88.61440156204779
 30
0.0
 10
76.2785481580137
 20
-88.64816349780324
 30
0.0
 10
76.35468476823772
 20
-88.75616724126583
 30
0.0
 10
76.43495549304404
 20
-88.872439213893
 30
0.0
 10
76.4563150850526
 20
-88.92532142959159
 30
0.0
 10
76.48146428209492
 20
-88.9909504985856
 30
0.0
 10
76.48146428209492
 20
-88.9909504985856
 30
0.0
 10
76.29956324047373
 20
-89.1158352099259
 30
0.0
 10
76.29956324047373
 20
-89.1158352099259
 30
0.0
  0
HATCH
  5
103
330
C2
100
AcDbEntity
  8
_U+30EC_U+30A4_U+30E4_U+30FC 1
 62
   179
420
  2234388
100
AcDbHatch
 10
0.0
 20
0.0
 30
0.0
210
0.0
220
0.0
230
1.0
  2
SOLID
 70
     1
 71
     0
 91
        3
 92
        1
 93
        1
 72
     4
 94
        3
 73
     0
 74
     1
 95
       53
 96
       49
 40
0.0
 40
0.0
 40
0.0
 40
0.0
 40
1.0
 40
1.0
 40
1.0
 40
2.0
 40
2.0
 40
2.0
 40
3.0
 40
3.0
 40
3.0
 40
4.0
 40
4.0
 40
4.0
 40
5.0
 40
5.0
 40
5.0
 40
6.0
 40
6.0
 40
6.0
 40
7.0
 40
7.0
 40
7.0
 40
8.0
 40
8.0
 40
8.0
 40
9.0
 40
9.0
 40
9.0
 40
10.0
 40
10.0
 40
10.0
 40
11.0
 40
11.0
 40
11.0
 40
12.0
 40
12.0
 40
12.0
 40
13.0
 40
13.0
 40
13.0
 40
14.0
 40
14.0
 40
14.0
 40
15.0
 40
15.0
 40
15.0
 40
16.0
 40
16.0
 40
16.0
 40
16.0
 10
75.91888018935362
 20
-87.89093151014532
 10
75.85135631784271
 20
-88.04320473059337
 10
75.80898164337415
 20
-88.12140839810854
 10
75.77074108348788
 20
-88.1891045243937
 10
75.81311575795645
 20
-88.210291861628
 10
75.81724987253875
 20
-88.21253117369339
 10
75.81724987253875
 20
-88.22734508427997
 10
75.81724987253875
 20
-88.23991968280113
 10
75.7834879367833
 20
-88.27385387333085
 10
75.77280814077902
 20
-88.2822943572697
 10
75.77074108348788
 20
-88.47900930947748
 10
75.77074108348788
 20
-88.50019664671176
 10
75.77074108348788
 20
-88.63352184199093
 10
75.76867402619672
 20
-88.6460964405121
 10
75.76867402619672
 20
-88.66091035109866
 10
75.76867402619672
 20
-88.67572426168525
 10
75.76867402619672
 20
-88.67572426168525
 10
75.76867402619672
 20
-89.2109198453188
 10
75.76867402619672
 20
-89.2109198453188
 10
75.76867402619672
 20
-89.28309459573478
 10
75.77280814077902
 20
-89.5177055982803
 10
75.78142087949215
 20
-89.62794865380829
 10
75.78142087949215
 20
-89.62794865380829
 10
75.53819713823351
 20
-89.62794865380829
 10
75.53819713823351
 20
-89.62794865380829
 10
75.56127927798468
 20
-89.46912975193828
 10
75.56782495940666
 20
-89.2279730679708
 10
75.56782495940666
 20
-89.2067857307365
 10
75.56782495940666
 20
-89.2067857307365
 10
75.56782495940666
 20
-88.48951685070749
 10
75.56782495940666
 20
-88.48951685070749
 10
75.47687443859606
 20
-88.60389402081778
 10
75.41555173895861
 20
-88.66297740838982
 10
75.37317706449004
 20
-88.70535208285838
 10
75.37317706449004
 20
-88.70535208285838
 10
75.18266328415572
 20
-88.56789277299691
 10
75.18266328415572
 20
-88.56789277299691
 10
75.46412758530064
 20
-88.35205754084602
 10
75.6567084229261
 20
-88.04320473059337
 10
75.76867402619672
 20
-87.70679115645872
 10
75.76867402619672
 20
-87.70679115645872
 10
75.98881562770418
 20
-87.82116832656902
 10
75.98881562770418
 20
-87.82116832656902
 10
76.00156248099961
 20
-87.82736949844247
 10
76.00983071016421
 20
-87.83167586779904
 10
76.00983071016421
 20
-87.8464897783856
 10
76.00983071016421
 20
-87.87181123020218
 10
75.99294974228648
 20
-87.87611759955875
 10
75.91888018935362
 20
-87.89093151014532
 97
        0
 97
        0
 92
        1
 93
        1
 72
     4
 94
        3
 73
     0
 74
     1
 95
       77
 96
       73
 40
0.0
 40
0.0
 40
0.0
 40
0.0
 40
1.0
 40
1.0
 40
1.0
 40
2.0
 40
2.0
 40
2.0
 40
3.0
 40
3.0
 40
3.0
 40
4.0
 40
4.0
 40
4.0
 40
5.0
 40
5.0
 40
5.0
 40
6.0
 40
6.0
 40
6.0
 40
7.0
 40
7.0
 40
7.0
 40
8.0
 40
8.0
 40
8.0
 40
9.0
 40
9.0
 40
9.0
 40
10.0
 40
10.0
 40
10.0
 40
11.0
 40
11.0
 40
11.0
 40
12.0
 40
12.0
 40
12.0
 40
13.0
 40
13.0
 40
13.0
 40
14.0
 40
14.0
 40
14.0
 40
15.0
 40
15.0
 40
15.0
 40
16.0
 40
16.0
 40
16.0
 40
17.0
 40
17.0
 40
17.0
 40
18.0
 40
18.0
 40
18.0
 40
19.0
 40
19.0
 40
19.0
 40
20.0
 40
20.0
 40
20.0
 40
21.0
 40
21.0
 40
21.0
 40
22.0
 40
22.0
 40
22.0
 40
23.0
 40
23.0
 40
23.0
 40
24.0
 40
24.0
 40
24.0
 40
24.0
 10
77.06988659097559
 20
-88.39012584595802
 10
76.99995115262502
 20
-88.38599173137573
 10
76.93208277156559
 20
-88.38599173137573
 10
76.8645589000547
 20
-88.38599173137573
 10
76.8645589000547
 20
-88.38599173137573
 10
76.8645589000547
 20
-89.16027694168562
 10
76.8645589000547
 20
-89.16027694168562
 10
76.8645589000547
 20
-89.42468802017855
 10
76.86249184276355
 20
-89.4543158413517
 10
76.85594616134158
 20
-89.48394366252485
 10
76.82218422558613
 20
-89.61726885780402
 10
76.72055390877125
 20
-89.62553708696862
 10
76.54519854857203
 20
-89.62553708696862
 10
76.50489093139461
 20
-89.62553708696862
 10
76.48800996351689
 20
-89.62553708696862
 10
76.44770234633947
 20
-89.62140297238632
 10
76.44770234633947
 20
-89.62140297238632
 10
76.32298988977342
 20
-89.38024628841883
 10
76.32298988977342
 20
-89.38024628841883
 10
76.43943411717487
 20
-89.41194116688312
 10
76.52177189927234
 20
-89.41194116688312
 10
76.54519854857203
 20
-89.41194116688312
 10
76.61478947737409
 20
-89.41194116688312
 10
76.64889592267805
 20
-89.3950601990054
 10
76.65303003726035
 20
-89.33787161395026
 10
76.65303003726035
 20
-89.32512476065483
 10
76.65509709455151
 20
-89.2279730679708
 10
76.65509709455151
 20
-89.17078448291564
 10
76.65509709455151
 20
-89.17078448291564
 10
76.65509709455151
 20
-88.38375241931031
 10
76.65509709455151
 20
-88.38375241931031
 10
76.65509709455151
 20
-88.38375241931031
 10
76.36088594011117
 20
-88.38375241931031
 10
76.36088594011117
 20
-88.38375241931031
 10
76.2151584010851
 20
-88.38375241931031
 10
76.06908635251051
 20
-88.39012584595802
 10
75.9254258707756
 20
-88.40287269925345
 10
75.9254258707756
 20
-88.40287269925345
 10
75.9254258707756
 20
-88.19547795104141
 10
75.9254258707756
 20
-88.19547795104141
 10
76.07528752438395
 20
-88.20822480433684
 10
76.29336206860027
 20
-88.21253117369339
 10
76.36088594011117
 20
-88.21253117369339
 10
76.36088594011117
 20
-88.21253117369339
 10
76.65509709455151
 20
-88.21253117369339
 10
76.65509709455151
 20
-88.21253117369339
 10
76.65303003726035
 20
-87.94381372584391
 10
76.65303003726035
 20
-87.86767711561988
 10
76.64441729854724
 20
-87.71953800975415
 10
76.64441729854724
 20
-87.71953800975415
 10
76.90245495039244
 20
-87.75760631486615
 10
76.90245495039244
 20
-87.75760631486615
 10
76.91726886097902
 20
-87.75967337215731
 10
76.93208277156559
 20
-87.76604679880502
 10
76.93208277156559
 20
-87.7872341360393
 10
76.93208277156559
 20
-87.80635441598244
 10
76.92588159969215
 20
-87.8084214732736
 10
76.868693014637
 20
-87.84218340902905
 10
76.8645589000547
 20
-87.92055933131847
 10
76.8645589000547
 20
-87.93537324190505
 10
76.8645589000547
 20
-88.21253117369339
 10
77.04232582709359
 20
-88.20822480433684
 10
77.06127385226246
 20
-88.20822480433684
 10
77.09503578801791
 20
-88.20391843498028
 10
77.14602320119961
 20
-88.19978432039798
 10
77.15015731578191
 20
-88.19771726310682
 10
77.19459904754163
 20
-88.19547795104141
 10
77.19459904754163
 20
-88.19547795104141
 10
77.19459904754163
 20
-88.40287269925345
 10
77.19459904754163
 20
-88.40287269925345
 10
77.16497122636848
 20
-88.40080564196231
 10
77.10984969860449
 20
-88.39219290324918
 10
77.06988659097559
 20
-88.39012584595802
 97
        0
 97
        0
 92
        1
 93
        1
 72
     4
 94
        3
 73
     0
 74
     1
 95
       20
 96
       16
 40
0.0
 40
0.0
 40
0.0
 40
0.0
 40
1.0
 40
1.0
 40
1.0
 40
2.0
 40
2.0
 40
2.0
 40
3.0
 40
3.0
 40
3.0
 40
4.0
 40
4.0
 40
4.0
 40
5.0
 40
5.0
 40
5.0
 40
5.0
 10
76.29956324047373
 20
-89.1158352099259
 10
76.25305445142286
 20
-88.93806828288702
 10
76.1559027587388
 20
-88.79630260366898
 10
76.01637639158619
 20
-88.68640405768951
 10
76.01637639158619
 20
-88.68640405768951
 10
76.17691784119883
 20
-88.57202688757921
 10
76.17691784119883
 20
-88.57202688757921
 10
76.23824054083627
 20
-88.61440156204779
 10
76.2785481580137
 20
-88.64816349780324
 10
76.35468476823772
 20
-88.75616724126583
 10
76.43495549304404
 20
-88.872439213893
 10
76.4563150850526
 20
-88.92532142959159
 10
76.48146428209492
 20
-88.9909504985856
 10
76.48146428209492
 20
-88.9909504985856
 10
76.29956324047373
 20
-89.1158352099259
 10
76.29956324047373
 20
-89.1158352099259
 97
        0
 97
        0
 75
     2
 76
     1
 98
        0
  0
ENDBLK
  5
C5
330
C2
100
AcDbEntity
  8
0
100
AcDbBlockEnd
  0
ENDSEC
  0
SECTION
  2
ENTITIES
  0
SPLINE
  5
41
330
1F
100
AcDbEntity
  8
_U+30EC_U+30A4_U+30E4_U+30FC 1
 62
     7
420
 16777215
370
     9
100
AcDbSpline
210
0.0
220
0.0
230
1.0
 70
    11
 71
     3
 72
    17
 73
    13
 74
     0
 42
0.0000000001
 43
0.0000000001
 12
1.0
 22
0.0
 32
0.0
 13
1.0
 23
0.0
 33
0.0
 40
0.0
 40
0.0
 40
0.0
 40
0.0
 40
1.0
 40
1.0
 40
1.0
 40
2.0
 40
2.0
 40
2.0
 40
3.0
 40
3.0
 40
3.0
 40
4.0
 40
4.0
 40
4.0
 40
4.0
 10
81.04723515453499
 20
-80.41869303545079
 30
0.0
 10
81.04723515453499
 20
-80.36323636879811
 30
0.0
 10
81.00246765567711
 20
-80.3184335910314
 30
0.0
 10
80.94733053531884
 20
-80.3184335910314
 30
0.0
 10
80.89222460293409
 20
-80.3184335910314
 30
0.0
 10
80.84742182629932
 20
-80.36323636879811
 30
0.0
 10
80.84742182629932
 20
-80.41869303545079
 30
0.0
 10
80.84742182629932
 20
-80.47379692432602
 30
0.0
 10
80.89222460293409
 20
-80.51859970209243
 30
0.0
 10
80.94733053531884
 20
-80.51859970209243
 30
0.0
 10
81.00246765567711
 20
-80.51859970209243
 30
0.0
 10
81.04723515453499
 20
-80.47379692432602
 30
0.0
 10
81.04723515453499
 20
-80.41869303545079
 30
0.0
  0
SPLINE
  5
42
330
1F
100
AcDbEntity
  8
_U+30EC_U+30A4_U+30E4_U+30FC 1
 62
     7
420
 16777215
370
     9
100
AcDbSpline
210
0.0
220
0.0
230
1.0
 70
    11
 71
     3
 72
    17
 73
    13
 74
     0
 42
0.0000000001
 43
0.0000000001
 12
1.0
 22
0.0
 32
0.0
 13
1.0
 23
0.0
 33
0.0
 40
0.0
 40
0.0
 40
0.0
 40
0.0
 40
1.0
 40
1.0
 40
1.0
 40
2.0
 40
2.0
 40
2.0
 40
3.0
 40
3.0
 40
3.0
 40
4.0
 40
4.0
 40
4.0
 40
4.0
 10
81.04723515453499
 20
-81.41846525742301
 30
0.0
 10
81.04723515453499
 20
-81.36332609077026
 30
0.0
 10
81.00246765567711
 20
-81.31855859078138
 30
0.0
 10
80.94733053531884
 20
-81.31855859078138
 30
0.0
 10
80.89222460293409
 20
-81.31855859078138
 30
0.0
 10
80.84742182629932
 20
-81.36332609077026
 30
0.0
 10
80.84742182629932
 20
-81.41846525742301
 30
0.0
 10
80.84742182629932
 20
-81.47356914629825
 30
0.0
 10
80.89222460293409
 20
-81.51837192406497
 30
0.0
 10
80.94733053531884
 20
-81.51837192406497
 30
0.0
 10
81.00246765567711
 20
-81.51837192406497
 30
0.0
 10
81.04723515453499
 20
-81.47356914629825
 30
0.0
 10
81.04723515453499
 20
-81.41846525742301
 30
0.0
  0
SPLINE
  5
43
330
1F
100
AcDbEntity
  8
_U+30EC_U+30A4_U+30E4_U+30FC 1
 62
     7
420
 16777215
370
     9
100
AcDbSpline
210
0.0
220
0.0
230
1.0
 70
    11
 71
     3
 72
    17
 73
    13
 74
     0
 42
0.0000000001
 43
0.0000000001
 12
1.0
 22
0.0
 32
0.0
 13
1.0
 23
0.0
 33
0.0
 40
0.0
 40
0.0
 40
0.0
 40
0.0
 40
1.0
 40
1.0
 40
1.0
 40
2.0
 40
2.0
 40
2.0
 40
3.0
 40
3.0
 40
3.0
 40
4.0
 40
4.0
 40
4.0
 40
4.0
 10
81.04723515453499
 20
-96.8905577535553
 30
0.0
 10
81.04723515453499
 20
-96.83541858690222
 30
0.0
 10
81.00246765567711
 20
-96.79065108691366
 30
0.0
 10
80.94733053531884
 20
-96.79065108691366
 30
0.0
 10
80.89222460293409
 20
-96.79065108691366
 30
0.0
 10
80.84742182629932
 20
-96.83541858690222
 30
0.0
 10
80.84742182629932
 20
-96.8905577535553
 30
0.0
 10
80.84742182629932
 20
-96.94566164243021
 30
0.0
 10
80.89222460293409
 20
-96.99046442019694
 30
0.0
 10
80.94733053531884
 20
-96.99046442019694
 30
0.0
 10
81.00246765567711
 20
-96.99046442019694
 30
0.0
 10
81.04723515453499
 20
-96.94566164243021
 30
0.0
 10
81.04723515453499
 20
-96.8905577535553
 30
0.0
  0
POLYLINE
  5
44
330
1F
100
AcDbEntity
  8
_U+30EC_U+30A4_U+30E4_U+30FC 1
 62
     7
420
 16777215
370
     9
100
AcDb2dPolyline
 66
     1
 10
0.0
 20
0.0
 30
0.0
  0
VERTEX
  5
45
330
44
100
AcDbEntity
  8
_U+30EC_U+30A4_U+30E4_U+30FC 1
 62
     7
420
 16777215
370
     9
100
AcDbVertex
100
AcDb2dVertex
 10
80.94733053531884
 20
-80.61815359095662
 30
0.0
  0
VERTEX
  5
46
330
44
100
AcDbEntity
  8
_U+30EC_U+30A4_U+30E4_U+30FC 1
 62
     7
420
 16777215
370
     9
100
AcDbVertex
100
AcDb2dVertex
 10
80.94733053531884
 20
-76.8478410918992
 30
0.0
  0
SEQEND
  5
47
330
44
100
AcDbEntity
  8
_U+30EC_U+30A4_U+30E4_U+30FC 1
 62
     7
420
 16777215
370
     9
  0
POLYLINE
  5
48
330
1F
100
AcDbEntity
  8
_U+30EC_U+30A4_U+30E4_U+30FC 1
 62
     7
420
 16777215
370
     9
100
AcDb2dPolyline
 66
     1
 10
0.0
 20
0.0
 30
0.0
  0
VERTEX
  5
49
330
48
100
AcDbEntity
  8
_U+30EC_U+30A4_U+30E4_U+30FC 1
 62
     7
420
 16777215
370
     9
100
AcDbVertex
100
AcDb2dVertex
 10
80.94733053531884
 20
-80.41869303545079
 30
0.0
  0
VERTEX
  5
4A
330
48
100
AcDbEntity
  8
_U+30EC_U+30A4_U+30E4_U+30FC 1
 62
     7
420
 16777215
370
     9
100
AcDbVertex
100
AcDb2dVertex
 10
80.94733053531884
 20
-81.41846525742301
 30
0.0
  0
SEQEND
  5
4B
330
48
100
AcDbEntity
  8
_U+30EC_U+30A4_U+30E4_U+30FC 1
 62
     7
420
 16777215
370
     9
  0
POLYLINE
  5
4C
330
1F
100
AcDbEntity
  8
_U+30EC_U+30A4_U+30E4_U+30FC 1
 62
     7
420
 16777215
370
     9
100
AcDb2dPolyline
 66
     1
 10
0.0
 20
0.0
 30
0.0
  0
VERTEX
  5
4D
330
4C
100
AcDbEntity
  8
_U+30EC_U+30A4_U+30E4_U+30FC 1
 62
     7
420
 16777215
370
     9
100
AcDbVertex
100
AcDb2dVertex
 10
79.48732241655391
 20
-80.41869303545079
 30
0.0
  0
VERTEX
  5
4E
330
4C
100
AcDbEntity
  8
_U+30EC_U+30A4_U+30E4_U+30FC 1
 62
     7
420
 16777215
370
     9
100
AcDbVertex
100
AcDb2dVertex
 10
81.94710275729075
 20
-80.41869303545079
 30
0.0
  0
SEQEND
  5
4F
330
4C
100
AcDbEntity
  8
_U+30EC_U+30A4_U+30E4_U+30FC 1
 62
     7
420
 16777215
370
     9
  0
POLYLINE
  5
50
330
1F
100
AcDbEntity
  8
_U+30EC_U+30A4_U+30E4_U+30FC 1
 62
     7
420
 16777215
370
     9
100
AcDb2dPolyline
 66
     1
 10
0.0
 20
0.0
 30
0.0
  0
VERTEX
  5
51
330
50
100
AcDbEntity
  8
_U+30EC_U+30A4_U+30E4_U+30FC 1
 62
     7
420
 16777215
370
     9
100
AcDbVertex
100
AcDb2dVertex
 10
79.48732241655391
 20
-81.41846525742301
 30
0.0
  0
VERTEX
  5
52
330
50
100
AcDbEntity
  8
_U+30EC_U+30A4_U+30E4_U+30FC 1
 62
     7
420
 16777215
370
     9
100
AcDbVertex
100
AcDb2dVertex
 10
81.94710275729075
 20
-81.41846525742301
 30
0.0
  0
SEQEND
  5
53
330
50
100
AcDbEntity
  8
_U+30EC_U+30A4_U+30E4_U+30FC 1
 62
     7
420
 16777215
370
     9
  0
INSERT
  5
55
330
1F
100
AcDbEntity
  8
_U+30EC_U+30A4_U+30E4_U+30FC 1
100
AcDbBlockReference
  2
block 2
 10
0.0
 20
0.0
 30
0.0
  0
INSERT
  5
5B
330
1F
100
AcDbEntity
  8
_U+30EC_U+30A4_U+30E4_U+30FC 1
100
AcDbBlockReference
  2
block 3
 10
0.0
 20
0.0
 30
0.0
  0
INSERT
  5
62
330
1F
100
AcDbEntity
  8
_U+30EC_U+30A4_U+30E4_U+30FC 1
100
AcDbBlockReference
  2
block 4
 10
0.0
 20
0.0
 30
0.0
  0
INSERT
  5
6A
330
1F
100
AcDbEntity
  8
_U+30EC_U+30A4_U+30E4_U+30FC 1
100
AcDbBlockReference
  2
block 5
 10
0.0
 20
0.0
 30
0.0
  0
INSERT
  5
72
330
1F
100
AcDbEntity
  8
_U+30EC_U+30A4_U+30E4_U+30FC 1
100
AcDbBlockReference
  2
block 6
 10
0.0
 20
0.0
 30
0.0
  0
SPLINE
  5
77
330
1F
100
AcDbEntity
  8
_U+30EC_U+30A4_U+30E4_U+30FC 1
 62
     7
420
 16777215
370
     9
100
AcDbSpline
210
0.0
220
0.0
230
1.0
 70
    11
 71
     3
 72
    17
 73
    13
 74
     0
 42
0.0000000001
 43
0.0000000001
 12
1.0
 22
0.0
 32
0.0
 13
1.0
 23
0.0
 33
0.0
 40
0.0
 40
0.0
 40
0.0
 40
0.0
 40
1.0
 40
1.0
 40
1.0
 40
2.0
 40
2.0
 40
2.0
 40
3.0
 40
3.0
 40
3.0
 40
4.0
 40
4.0
 40
4.0
 40
4.0
 10
45.05942246154947
 20
-101.7143705301267
 30
0.0
 10
45.05942246154947
 20
-101.6585610856962
 30
0.0
 10
45.01465496269159
 20
-101.6137935857077
 30
0.0
 10
44.95951579743164
 20
-101.6137935857077
 30
0.0
 10
44.90441190994856
 20
-101.6137935857077
 30
0.0
 10
44.8596091333138
 20
-101.6585610856962
 30
0.0
 10
44.8596091333138
 20
-101.7143705301267
 30
0.0
 10
44.8596091333138
 20
-101.7695096967797
 30
0.0
 10
44.90441190994856
 20
-101.8142771967689
 30
0.0
 10
44.95951579743164
 20
-101.8142771967689
 30
0.0
 10
45.01465496269159
 20
-101.8142771967689
 30
0.0
 10
45.05942246154947
 20
-101.7695096967797
 30
0.0
 10
45.05942246154947
 20
-101.7143705301267
 30
0.0
  0
SPLINE
  5
78
330
1F
100
AcDbEntity
  8
_U+30EC_U+30A4_U+30E4_U+30FC 1
 62
     7
420
 16777215
370
     9
100
AcDbSpline
210
0.0
220
0.0
230
1.0
 70
    11
 71
     3
 72
    17
 73
    13
 74
     0
 42
0.0000000001
 43
0.0000000001
 12
1.0
 22
0.0
 32
0.0
 13
1.0
 23
0.0
 33
0.0
 40
0.0
 40
0.0
 40
0.0
 40
0.0
 40
1.0
 40
1.0
 40
1.0
 40
2.0
 40
2.0
 40
2.0
 40
3.0
 40
3.0
 40
3.0
 40
4.0
 40
4.0
 40
4.0
 40
4.0
 10
54.04664778782181
 20
-101.7143705301267
 30
0.0
 10
54.04664778782181
 20
-101.6585610856962
 30
0.0
 10
54.00188028896392
 20
-101.6137935857077
 30
0.0
 10
53.94674112370397
 20
-101.6137935857077
 30
0.0
 10
53.8916372362209
 20
-101.6137935857077
 30
0.0
 10
53.84683445958614
 20
-101.6585610856962
 30
0.0
 10
53.84683445958614
 20
-101.7143705301267
 30
0.0
 10
53.84683445958614
 20
-101.7695096967797
 30
0.0
 10
53.8916372362209
 20
-101.8142771967689
 30
0.0
 10
53.94674112370397
 20
-101.8142771967689
 30
0.0
 10
54.00188028896392
 20
-101.8142771967689
 30
0.0
 10
54.04664778782181
 20
-101.7695096967797
 30
0.0
 10
54.04664778782181
 20
-101.7143705301267
 30
0.0
  0
POLYLINE
  5
79
330
1F
100
AcDbEntity
  8
_U+30EC_U+30A4_U+30E4_U+30FC 1
 62
     7
420
 16777215
370
     9
100
AcDb2dPolyline
 66
     1
 10
0.0
 20
0.0
 30
0.0
  0
VERTEX
  5
7A
330
79
100
AcDbEntity
  8
_U+30EC_U+30A4_U+30E4_U+30FC 1
 62
     7
420
 16777215
370
     9
100
AcDbVertex
100
AcDb2dVertex
 10
44.95951579743164
 20
-101.7143705301267
 30
0.0
  0
VERTEX
  5
7B
330
79
100
AcDbEntity
  8
_U+30EC_U+30A4_U+30E4_U+30FC 1
 62
     7
420
 16777215
370
     9
100
AcDbVertex
100
AcDb2dVertex
 10
71.85264705577515
 20
-101.7143705301267
 30
0.0
  0
SEQEND
  5
7C
330
79
100
AcDbEntity
  8
_U+30EC_U+30A4_U+30E4_U+30FC 1
 62
     7
420
 16777215
370
     9
  0
POLYLINE
  5
7D
330
1F
100
AcDbEntity
  8
_U+30EC_U+30A4_U+30E4_U+30FC 1
 62
     7
420
 16777215
370
     9
100
AcDb2dPolyline
 66
     1
 10
0.0
 20
0.0
 30
0.0
  0
VERTEX
  5
7E
330
7D
100
AcDbEntity
  8
_U+30EC_U+30A4_U+30E4_U+30FC 1
 62
     7
420
 16777215
370
     9
100
AcDbVertex
100
AcDb2dVertex
 10
44.95951579743164
 20
-100.2536588638256
 30
0.0
  0
VERTEX
  5
7F
330
7D
100
AcDbEntity
  8
_U+30EC_U+30A4_U+30E4_U+30FC 1
 62
     7
420
 16777215
370
     9
100
AcDbVertex
100
AcDb2dVertex
 10
44.95951579743164
 20
-102.7141427520992
 30
0.0
  0
SEQEND
  5
80
330
7D
100
AcDbEntity
  8
_U+30EC_U+30A4_U+30E4_U+30FC 1
 62
     7
420
 16777215
370
     9
  0
POLYLINE
  5
81
330
1F
100
AcDbEntity
  8
_U+30EC_U+30A4_U+30E4_U+30FC 1
 62
     7
420
 16777215
370
     9
100
AcDb2dPolyline
 66
     1
 10
0.0
 20
0.0
 30
0.0
  0
VERTEX
  5
82
330
81
100
AcDbEntity
  8
_U+30EC_U+30A4_U+30E4_U+30FC 1
 62
     7
420
 16777215
370
     9
100
AcDbVertex
100
AcDb2dVertex
 10
53.94674112370397
 20
-100.254329141603
 30
0.0
  0
VERTEX
  5
83
330
81
100
AcDbEntity
  8
_U+30EC_U+30A4_U+30E4_U+30FC 1
 62
     7
420
 16777215
370
     9
100
AcDbVertex
100
AcDb2dVertex
 10
53.94674112370397
 20
-102.7141427520992
 30
0.0
  0
SEQEND
  5
84
330
81
100
AcDbEntity
  8
_U+30EC_U+30A4_U+30E4_U+30FC 1
 62
     7
420
 16777215
370
     9
  0
SPLINE
  5
85
330
1F
100
AcDbEntity
  8
_U+30EC_U+30A4_U+30E4_U+30FC 1
 62
     7
420
 16777215
370
     9
100
AcDbSpline
210
0.0
220
0.0
230
1.0
 70
    11
 71
     3
 72
    17
 73
    13
 74
     0
 42
0.0000000001
 43
0.0000000001
 12
1.0
 22
0.0
 32
0.0
 13
1.0
 23
0.0
 33
0.0
 40
0.0
 40
0.0
 40
0.0
 40
0.0
 40
1.0
 40
1.0
 40
1.0
 40
2.0
 40
2.0
 40
2.0
 40
3.0
 40
3.0
 40
3.0
 40
4.0
 40
4.0
 40
4.0
 40
4.0
 10
57.04663609684957
 20
-101.7143705301267
 30
0.0
 10
57.04663609684957
 20
-101.6585610856962
 30
0.0
 10
57.00186715687233
 20
-101.6137935857077
 30
0.0
 10
56.94672799161238
 20
-101.6137935857077
 30
0.0
 10
56.89162410412931
 20
-101.6137935857077
 30
0.0
 10
56.84682132749454
 20
-101.6585610856962
 30
0.0
 10
56.84682132749454
 20
-101.7143705301267
 30
0.0
 10
56.84682132749454
 20
-101.7695096967797
 30
0.0
 10
56.89162410412931
 20
-101.8142771967689
 30
0.0
 10
56.94672799161238
 20
-101.8142771967689
 30
0.0
 10
57.00186715687233
 20
-101.8142771967689
 30
0.0
 10
57.04663609684957
 20
-101.7695096967797
 30
0.0
 10
57.04663609684957
 20
-101.7143705301267
 30
0.0
  0
POLYLINE
  5
86
330
1F
100
AcDbEntity
  8
_U+30EC_U+30A4_U+30E4_U+30FC 1
 62
     7
420
 16777215
370
     9
100
AcDb2dPolyline
 66
     1
 10
0.0
 20
0.0
 30
0.0
  0
VERTEX
  5
87
330
86
100
AcDbEntity
  8
_U+30EC_U+30A4_U+30E4_U+30FC 1
 62
     7
420
 16777215
370
     9
100
AcDbVertex
100
AcDb2dVertex
 10
56.94672799161238
 20
-100.254329141603
 30
0.0
  0
VERTEX
  5
88
330
86
100
AcDbEntity
  8
_U+30EC_U+30A4_U+30E4_U+30FC 1
 62
     7
420
 16777215
370
     9
100
AcDbVertex
100
AcDb2dVertex
 10
56.94672799161238
 20
-102.7141427520992
 30
0.0
  0
SEQEND
  5
89
330
86
100
AcDbEntity
  8
_U+30EC_U+30A4_U+30E4_U+30FC 1
 62
     7
420
 16777215
370
     9
  0
SPLINE
  5
8A
330
1F
100
AcDbEntity
  8
_U+30EC_U+30A4_U+30E4_U+30FC 1
 62
     7
420
 16777215
370
     9
100
AcDbSpline
210
0.0
220
0.0
230
1.0
 70
    11
 71
     3
 72
    17
 73
    13
 74
     0
 42
0.0000000001
 43
0.0000000001
 12
1.0
 22
0.0
 32
0.0
 13
1.0
 23
0.0
 33
0.0
 40
0.0
 40
0.0
 40
0.0
 40
0.0
 40
1.0
 40
1.0
 40
1.0
 40
2.0
 40
2.0
 40
2.0
 40
3.0
 40
3.0
 40
3.0
 40
4.0
 40
4.0
 40
4.0
 40
4.0
 10
72.046921773041
 20
-101.7143705301267
 30
0.0
 10
72.046921773041
 20
-101.6585610856962
 30
0.0
 10
72.00215427418311
 20
-101.6137935857077
 30
0.0
 10
71.94701510892317
 20
-101.6137935857077
 30
0.0
 10
71.8919112214401
 20
-101.6137935857077
 30
0.0
 10
71.84710844480533
 20
-101.6585610856962
 30
0.0
 10
71.84710844480533
 20
-101.7143705301267
 30
0.0
 10
71.84710844480533
 20
-101.7695096967797
 30
0.0
 10
71.8919112214401
 20
-101.8142771967689
 30
0.0
 10
71.94701510892317
 20
-101.8142771967689
 30
0.0
 10
72.00215427418311
 20
-101.8142771967689
 30
0.0
 10
72.046921773041
 20
-101.7695096967797
 30
0.0
 10
72.046921773041
 20
-101.7143705301267
 30
0.0
  0
POLYLINE
  5
8B
330
1F
100
AcDbEntity
  8
_U+30EC_U+30A4_U+30E4_U+30FC 1
 62
     7
420
 16777215
370
     9
100
AcDb2dPolyline
 66
     1
 10
0.0
 20
0.0
 30
0.0
  0
VERTEX
  5
8C
330
8B
100
AcDbEntity
  8
_U+30EC_U+30A4_U+30E4_U+30FC 1
 62
     7
420
 16777215
370
     9
100
AcDbVertex
100
AcDb2dVertex
 10
71.94701510892317
 20
-100.254329141603
 30
0.0
  0
VERTEX
  5
8D
330
8B
100
AcDbEntity
  8
_U+30EC_U+30A4_U+30E4_U+30FC 1
 62
     7
420
 16777215
370
     9
100
AcDbVertex
100
AcDb2dVertex
 10
71.94701510892317
 20
-102.7141427520992
 30
0.0
  0
SEQEND
  5
8E
330
8B
100
AcDbEntity
  8
_U+30EC_U+30A4_U+30E4_U+30FC 1
 62
     7
420
 16777215
370
     9
  0
SPLINE
  5
8F
330
1F
100
AcDbEntity
  8
_U+30EC_U+30A4_U+30E4_U+30FC 1
 62
     7
420
 16777215
370
     9
100
AcDbSpline
210
0.0
220
0.0
230
1.0
 70
    11
 71
     3
 72
    17
 73
    13
 74
     0
 42
0.0000000001
 43
0.0000000001
 12
1.0
 22
0.0
 32
0.0
 13
1.0
 23
0.0
 33
0.0
 40
0.0
 40
0.0
 40
0.0
 40
0.0
 40
1.0
 40
1.0
 40
1.0
 40
2.0
 40
2.0
 40
2.0
 40
3.0
 40
3.0
 40
3.0
 40
4.0
 40
4.0
 40
4.0
 40
4.0
 10
45.05942246154947
 20
-77.71807331390391
 30
0.0
 10
45.05942246154947
 20
-77.66296942502868
 30
0.0
 10
45.01465496269159
 20
-77.61816664726229
 30
0.0
 10
44.95951579743164
 20
-77.61816664726229
 30
0.0
 10
44.90441190994856
 20
-77.61816664726229
 30
0.0
 10
44.8596091333138
 20
-77.66296942502868
 30
0.0
 10
44.8596091333138
 20
-77.71807331390391
 30
0.0
 10
44.8596091333138
 20
-77.77321248055668
 30
0.0
 10
44.90441190994856
 20
-77.81797998054556
 30
0.0
 10
44.95951579743164
 20
-77.81797998054556
 30
0.0
 10
45.01465496269159
 20
-77.81797998054556
 30
0.0
 10
45.05942246154947
 20
-77.77321248055668
 30
0.0
 10
45.05942246154947
 20
-77.71807331390391
 30
0.0
  0
POLYLINE
  5
90
330
1F
100
AcDbEntity
  8
_U+30EC_U+30A4_U+30E4_U+30FC 1
 62
     7
420
 16777215
370
     9
100
AcDb2dPolyline
 66
     1
 10
0.0
 20
0.0
 30
0.0
  0
VERTEX
  5
91
330
90
100
AcDbEntity
  8
_U+30EC_U+30A4_U+30E4_U+30FC 1
 62
     7
420
 16777215
370
     9
100
AcDbVertex
100
AcDb2dVertex
 10
44.95951579743164
 20
-77.71807331390391
 30
0.0
  0
VERTEX
  5
92
330
90
100
AcDbEntity
  8
_U+30EC_U+30A4_U+30E4_U+30FC 1
 62
     7
420
 16777215
370
     9
100
AcDbVertex
100
AcDb2dVertex
 10
71.85264705577515
 20
-77.71807331390391
 30
0.0
  0
SEQEND
  5
93
330
90
100
AcDbEntity
  8
_U+30EC_U+30A4_U+30E4_U+30FC 1
 62
     7
420
 16777215
370
     9
  0
POLYLINE
  5
94
330
1F
100
AcDbEntity
  8
_U+30EC_U+30A4_U+30E4_U+30FC 1
 62
     7
420
 16777215
370
     9
100
AcDb2dPolyline
 66
     1
 10
0.0
 20
0.0
 30
0.0
  0
VERTEX
  5
95
330
94
100
AcDbEntity
  8
_U+30EC_U+30A4_U+30E4_U+30FC 1
 62
     7
420
 16777215
370
     9
100
AcDbVertex
100
AcDb2dVertex
 10
44.95951579743164
 20
-76.25806720315774
 30
0.0
  0
VERTEX
  5
96
330
94
100
AcDbEntity
  8
_U+30EC_U+30A4_U+30E4_U+30FC 1
 62
     7
420
 16777215
370
     9
100
AcDbVertex
100
AcDb2dVertex
 10
44.95951579743164
 20
-78.71784553587614
 30
0.0
  0
SEQEND
  5
97
330
94
100
AcDbEntity
  8
_U+30EC_U+30A4_U+30E4_U+30FC 1
 62
     7
420
 16777215
370
     9
  0
SPLINE
  5
98
330
1F
100
AcDbEntity
  8
_U+30EC_U+30A4_U+30E4_U+30FC 1
 62
     7
420
 16777215
370
     9
100
AcDbSpline
210
0.0
220
0.0
230
1.0
 70
    11
 71
     3
 72
    17
 73
    13
 74
     0
 42
0.0000000001
 43
0.0000000001
 12
1.0
 22
0.0
 32
0.0
 13
1.0
 23
0.0
 33
0.0
 40
0.0
 40
0.0
 40
0.0
 40
0.0
 40
1.0
 40
1.0
 40
1.0
 40
2.0
 40
2.0
 40
2.0
 40
3.0
 40
3.0
 40
3.0
 40
4.0
 40
4.0
 40
4.0
 40
4.0
 10
72.046921773041
 20
-77.71807331390391
 30
0.0
 10
72.046921773041
 20
-77.66296942502868
 30
0.0
 10
72.00215427418311
 20
-77.61816664726229
 30
0.0
 10
71.94701510892317
 20
-77.61816664726229
 30
0.0
 10
71.8919112214401
 20
-77.61816664726229
 30
0.0
 10
71.84710844480533
 20
-77.66296942502868
 30
0.0
 10
71.84710844480533
 20
-77.71807331390391
 30
0.0
 10
71.84710844480533
 20
-77.77321248055668
 30
0.0
 10
71.8919112214401
 20
-77.81797998054556
 30
0.0
 10
71.94701510892317
 20
-77.81797998054556
 30
0.0
 10
72.00215427418311
 20
-77.81797998054556
 30
0.0
 10
72.046921773041
 20
-77.77321248055668
 30
0.0
 10
72.046921773041
 20
-77.71807331390391
 30
0.0
  0
POLYLINE
  5
99
330
1F
100
AcDbEntity
  8
_U+30EC_U+30A4_U+30E4_U+30FC 1
 62
     7
420
 16777215
370
     9
100
AcDb2dPolyline
 66
     1
 10
0.0
 20
0.0
 30
0.0
  0
VERTEX
  5
9A
330
99
100
AcDbEntity
  8
_U+30EC_U+30A4_U+30E4_U+30FC 1
 62
     7
420
 16777215
370
     9
100
AcDbVertex
100
AcDb2dVertex
 10
71.94701510892317
 20
-76.25806720315774
 30
0.0
  0
VERTEX
  5
9B
330
99
100
AcDbEntity
  8
_U+30EC_U+30A4_U+30E4_U+30FC 1
 62
     7
420
 16777215
370
     9
100
AcDbVertex
100
AcDb2dVertex
 10
71.94701510892317
 20
-78.71784553587614
 30
0.0
  0
SEQEND
  5
9C
330
99
100
AcDbEntity
  8
_U+30EC_U+30A4_U+30E4_U+30FC 1
 62
     7
420
 16777215
370
     9
  0
POLYLINE
  5
9D
330
1F
100
AcDbEntity
  8
_U+30EC_U+30A4_U+30E4_U+30FC 1
 62
     7
420
 16777215
370
     9
100
AcDb2dPolyline
 66
     1
 10
0.0
 20
0.0
 30
0.0
  0
VERTEX
  5
9E
330
9D
100
AcDbEntity
  8
_U+30EC_U+30A4_U+30E4_U+30FC 1
 62
     7
420
 16777215
370
     9
100
AcDbVertex
100
AcDb2dVertex
 10
80.94733053531884
 20
-81.41811247964557
 30
0.0
  0
VERTEX
  5
9F
330
9D
100
AcDbEntity
  8
_U+30EC_U+30A4_U+30E4_U+30FC 1
 62
     7
420
 16777215
370
     9
100
AcDbVertex
100
AcDb2dVertex
 10
80.94733053531884
 20
-96.91881525354796
 30
0.0
  0
SEQEND
  5
A0
330
9D
100
AcDbEntity
  8
_U+30EC_U+30A4_U+30E4_U+30FC 1
 62
     7
420
 16777215
370
     9
  0
POLYLINE
  5
A1
330
1F
100
AcDbEntity
  8
_U+30EC_U+30A4_U+30E4_U+30FC 1
 62
     7
420
 16777215
370
     9
100
AcDb2dPolyline
 66
     1
 10
0.0
 20
0.0
 30
0.0
  0
VERTEX
  5
A2
330
A1
100
AcDbEntity
  8
_U+30EC_U+30A4_U+30E4_U+30FC 1
 62
     7
420
 16777215
370
     9
100
AcDbVertex
100
AcDb2dVertex
 10
63.48828615805666
 20
-96.91881525354796
 30
0.0
  0
VERTEX
  5
A3
330
A1
100
AcDbEntity
  8
_U+30EC_U+30A4_U+30E4_U+30FC 1
 62
     7
420
 16777215
370
     9
100
AcDbVertex
100
AcDb2dVertex
 10
81.94780831284626
 20
-96.91881525354796
 30
0.0
  0
SEQEND
  5
A4
330
A1
100
AcDbEntity
  8
_U+30EC_U+30A4_U+30E4_U+30FC 1
 62
     7
420
 16777215
370
     9
  0
INSERT
  5
A6
330
1F
100
AcDbEntity
  8
_U+30EC_U+30A4_U+30E4_U+30FC 1
100
AcDbBlockReference
  2
block 7
 10
0.0
 20
0.0
 30
0.0
  0
POLYLINE
  5
B7
330
1F
100
AcDbEntity
  8
_U+30EC_U+30A4_U+30E4_U+30FC 1
 62
     7
420
 16777215
370
    25
100
AcDb2dPolyline
 66
     1
 10
0.0
 20
0.0
 30
0.0
  0
VERTEX
  5
B8
330
B7
100
AcDbEntity
  8
_U+30EC_U+30A4_U+30E4_U+30FC 1
 62
     7
420
 16777215
370
    25
100
AcDbVertex
100
AcDb2dVertex
 10
71.96218455298062
 20
-81.4718405351876
 30
0.0
  0
VERTEX
  5
B9
330
B7
100
AcDbEntity
  8
_U+30EC_U+30A4_U+30E4_U+30FC 1
 62
     7
420
 16777215
370
    25
100
AcDbVertex
100
AcDb2dVertex
 10
56.96535465780384
 20
-81.4718405351876
 30
0.0
  0
VERTEX
  5
BA
330
B7
100
AcDbEntity
  8
_U+30EC_U+30A4_U+30E4_U+30FC 1
 62
     7
420
 16777215
370
    25
100
AcDbVertex
100
AcDb2dVertex
 10
56.96535465780384
 20
-96.96703997575845
 30
0.0
  0
VERTEX
  5
BB
330
B7
100
AcDbEntity
  8
_U+30EC_U+30A4_U+30E4_U+30FC 1
 62
     7
420
 16777215
370
    25
100
AcDbVertex
100
AcDb2dVertex
 10
53.96639084542489
 20
-96.96703997575845
 30
0.0
  0
VERTEX
  5
BC
330
B7
100
AcDbEntity
  8
_U+30EC_U+30A4_U+30E4_U+30FC 1
 62
     7
420
 16777215
370
    25
100
AcDbVertex
100
AcDb2dVertex
 10
53.96639084542489
 20
-81.4718405351876
 30
0.0
  0
VERTEX
  5
BD
330
B7
100
AcDbEntity
  8
_U+30EC_U+30A4_U+30E4_U+30FC 1
 62
     7
420
 16777215
370
    25
100
AcDbVertex
100
AcDb2dVertex
 10
44.9622674640281
 20
-81.4718405351876
 30
0.0
  0
VERTEX
  5
BE
330
B7
100
AcDbEntity
  8
_U+30EC_U+30A4_U+30E4_U+30FC 1
 62
     7
420
 16777215
370
    25
100
AcDbVertex
100
AcDb2dVertex
 10
44.9622674640281
 20
-80.46691775766097
 30
0.0
  0
VERTEX
  5
BF
330
B7
100
AcDbEntity
  8
_U+30EC_U+30A4_U+30E4_U+30FC 1
 62
     7
420
 16777215
370
    25
100
AcDbVertex
100
AcDb2dVertex
 10
71.96218455298062
 20
-80.46691775766097
 30
0.0
  0
VERTEX
  5
C0
330
B7
100
AcDbEntity
  8
_U+30EC_U+30A4_U+30E4_U+30FC 1
 62
     7
420
 16777215
370
    25
100
AcDbVertex
100
AcDb2dVertex
 10
71.96218455298062
 20
-81.4718405351876
 30
0.0
  0
SEQEND
  5
C1
330
B7
100
AcDbEntity
  8
_U+30EC_U+30A4_U+30E4_U+30FC 1
 62
     7
420
 16777215
370
    25
  0
INSERT
  5
C3
330
1F
100
AcDbEntity
  8
_U+30EC_U+30A4_U+30E4_U+30FC 1
100
AcDbBlockReference
  2
block 8
 10
0.0
 20
0.0
 30
0.0
  0
POLYLINE
  5
104
330
1F
100
AcDbEntity
  8
_U+30EC_U+30A4_U+30E4_U+30FC 1
 62
   179
420
  2234388
370
     9
100
AcDb2dPolyline
 66
     1
 10
0.0
 20
0.0
 30
0.0
  0
VERTEX
  5
105
330
104
100
AcDbEntity
  8
_U+30EC_U+30A4_U+30E4_U+30FC 1
 62
   179
420
  2234388
370
     9
100
AcDbVertex
100
AcDb2dVertex
 10
59.74139819809218
 20
-81.99000053505794
 30
0.0
  0
VERTEX
  5
106
330
104
100
AcDbEntity
  8
_U+30EC_U+30A4_U+30E4_U+30FC 1
 62
   179
420
  2234388
370
     9
100
AcDbVertex
100
AcDb2dVertex
 10
65.91500915170135
 20
-90.10371303302948
 30
0.0
  0
VERTEX
  5
107
330
104
100
AcDbEntity
  8
_U+30EC_U+30A4_U+30E4_U+30FC 1
 62
   179
420
  2234388
370
     9
100
AcDbVertex
100
AcDb2dVertex
 10
77.55738107690192
 20
-90.10371303302948
 30
0.0
  0
SEQEND
  5
108
330
104
100
AcDbEntity
  8
_U+30EC_U+30A4_U+30E4_U+30FC 1
 62
   179
420
  2234388
370
     9
  0
POLYLINE
  5
109
330
1F
100
AcDbEntity
  8
_U+30EC_U+30A4_U+30E4_U+30FC 1
  6
AI-Linetype-1
 62
   154
420
    23468
370
    25
100
AcDb2dPolyline
 66
     1
 10
0.0
 20
0.0
 30
0.0
  0
VERTEX
  5
10A
330
109
100
AcDbEntity
  8
_U+30EC_U+30A4_U+30E4_U+30FC 1
  6
AI-Linetype-1
 62
   154
420
    23468
370
    25
100
AcDbVertex
100
AcDb2dVertex
 10
44.93884302018127
 20
-82.00033692394429
 30
0.0
  0
VERTEX
  5
10B
330
109
100
AcDbEntity
  8
_U+30EC_U+30A4_U+30E4_U+30FC 1
  6
AI-Linetype-1
 62
   154
420
    23468
370
    25
100
AcDbVertex
100
AcDb2dVertex
 10
53.43341419235559
 20
-82.00033692394429
 30
0.0
  0
VERTEX
  5
10C
330
109
100
AcDbEntity
  8
_U+30EC_U+30A4_U+30E4_U+30FC 1
  6
AI-Linetype-1
 62
   154
420
    23468
370
    25
100
AcDbVertex
100
AcDb2dVertex
 10
53.43341419235559
 20
-97.50033414229148
 30
0.0
  0
VERTEX
  5
10D
330
109
100
AcDbEntity
  8
_U+30EC_U+30A4_U+30E4_U+30FC 1
  6
AI-Linetype-1
 62
   154
420
    23468
370
    25
100
AcDbVertex
100
AcDb2dVertex
 10
57.48383214457638
 20
-97.50033414229148
 30
0.0
  0
VERTEX
  5
10E
330
109
100
AcDbEntity
  8
_U+30EC_U+30A4_U+30E4_U+30FC 1
  6
AI-Linetype-1
 62
   154
420
    23468
370
    25
100
AcDbVertex
100
AcDb2dVertex
 10
57.48383214457638
 20
-82.00033692394429
 30
0.0
  0
VERTEX
  5
10F
330
109
100
AcDbEntity
  8
_U+30EC_U+30A4_U+30E4_U+30FC 1
  6
AI-Linetype-1
 62
   154
420
    23468
370
    25
100
AcDbVertex
100
AcDb2dVertex
 10
71.94701510892317
 20
-82.00033692394429
 30
0.0
  0
SEQEND
  5
111
330
109
100
AcDbEntity
  8
_U+30EC_U+30A4_U+30E4_U+30FC 1
  6
AI-Linetype-1
 62
   154
420
    23468
370
    25
  0
ENDSEC
  0
SECTION
  2
OBJECTS
  0
DICTIONARY
  5
C
330
0
100
AcDbDictionary
281
     1
  3
ACAD_GROUP
350
D
  3
ACAD_LAYOUT
350
1A
  3
ACAD_MATERIAL
350
3B
  3
ACAD_MLEADERSTYLE
350
113
  3
ACAD_MLINESTYLE
350
17
  3
ACAD_PLOTSETTINGS
350
19
  3
ACAD_PLOTSTYLENAME
350
E
  3
ACAD_TABLESTYLE
350
112
  3
ACAD_VISUALSTYLE
350
2A
  0
SUN
  5
3F
330
29
100
AcDbSun
 90
        1
290
     0
 63
     7
421
 16777215
 40
1.0
291
     1
 91
  2455826
 92
 54000000
292
     0
 70
     2
 71
   256
280
     1
  0
DICTIONARY
  5
D
102
{ACAD_REACTORS
330
C
102
}
330
C
100
AcDbDictionary
281
     1
  0
DICTIONARY
  5
1A
102
{ACAD_REACTORS
330
C
102
}
330
C
100
AcDbDictionary
281
     1
  3
Layout1
350
1E
  3
Layout2
350
26
  3
Model
350
22
  0
DICTIONARY
  5
3B
102
{ACAD_REACTORS
330
C
102
}
330
C
100
AcDbDictionary
281
     1
  3
ByBlock
350
3D
  3
ByLayer
350
3C
  3
Global
350
3E
  0
DICTIONARY
  5
113
102
{ACAD_REACTORS
330
C
102
}
330
C
100
AcDbDictionary
281
     1
  0
DICTIONARY
  5
17
102
{ACAD_REACTORS
330
C
102
}
330
C
100
AcDbDictionary
281
     1
  3
Standard
350
18
  0
DICTIONARY
  5
19
102
{ACAD_REACTORS
330
C
102
}
330
C
100
AcDbDictionary
281
     1
  0
ACDBDICTIONARYWDFLT
  5
E
102
{ACAD_REACTORS
330
C
102
}
330
C
100
AcDbDictionary
281
     1
  3
Normal
350
F
100
AcDbDictionaryWithDefault
340
F
  0
DICTIONARY
  5
112
102
{ACAD_REACTORS
330
C
102
}
330
C
100
AcDbDictionary
281
     1
  0
DICTIONARY
  5
2A
102
{ACAD_REACTORS
330
C
102
}
330
C
100
AcDbDictionary
281
     1
  3
2dWireframe
350
2F
  3
3D Hidden
350
31
  3
3dWireframe
350
30
  3
Basic
350
32
  3
Brighten
350
36
  3
ColorChange
350
3A
  3
Conceptual
350
34
  3
Dim
350
35
  3
Facepattern
350
39
  3
Flat
350
2B
  3
FlatWithEdges
350
2C
  3
Gouraud
350
2D
  3
GouraudWithEdges
350
2E
  3
Linepattern
350
38
  3
Realistic
350
33
  3
Thicken
350
37
  0
LAYOUT
  5
1E
102
{ACAD_REACTORS
330
1A
102
}
330
1A
100
AcDbPlotSettings
  1

  2
none_device
  4

  6

 40
0.0
 41
0.0
 42
0.0
 43
0.0
 44
0.0
 45
0.0
 46
0.0
 47
0.0
 48
0.0
 49
0.0
140
0.0
141
0.0
142
1.0
143
1.0
 70
   688
 72
     0
 73
     0
 74
     5
  7

 75
    16
 76
     0
 77
     2
 78
   300
147
1.0
148
0.0
149
0.0
100
AcDbLayout
  1
Layout1
 70
     1
 71
     1
 10
0.0
 20
0.0
 11
12.0
 21
9.0
 12
0.0
 22
0.0
 32
0.0
 14
1.000000000000000E+20
 24
1.000000000000000E+20
 34
1.000000000000000E+20
 15
-1.000000000000000E+20
 25
-1.000000000000000E+20
 35
-1.000000000000000E+20
146
0.0
 13
0.0
 23
0.0
 33
0.0
 16
1.0
 26
0.0
 36
0.0
 17
0.0
 27
1.0
 37
0.0
 76
     0
330
1B
  0
LAYOUT
  5
26
102
{ACAD_REACTORS
330
1A
102
}
330
1A
100
AcDbPlotSettings
  1

  2
none_device
  4

  6

 40
0.0
 41
0.0
 42
0.0
 43
0.0
 44
0.0
 45
0.0
 46
0.0
 47
0.0
 48
0.0
 49
0.0
140
0.0
141
0.0
142
1.0
143
1.0
 70
   688
 72
     0
 73
     0
 74
     5
  7

 75
    16
 76
     0
 77
     2
 78
   300
147
1.0
148
0.0
149
0.0
100
AcDbLayout
  1
Layout2
 70
     1
 71
     2
 10
0.0
 20
0.0
 11
0.0
 21
0.0
 12
0.0
 22
0.0
 32
0.0
 14
0.0
 24
0.0
 34
0.0
 15
0.0
 25
0.0
 35
0.0
146
0.0
 13
0.0
 23
0.0
 33
0.0
 16
1.0
 26
0.0
 36
0.0
 17
0.0
 27
1.0
 37
0.0
 76
     0
330
23
  0
LAYOUT
  5
22
102
{ACAD_REACTORS
330
1A
102
}
330
1A
100
AcDbPlotSettings
  1

  2
none_device
  4

  6

 40
0.0
 41
0.0
 42
0.0
 43
0.0
 44
0.0
 45
0.0
 46
0.0
 47
0.0
 48
0.0
 49
0.0
140
0.0
141
0.0
142
1.0
143
1.0
 70
  1712
 72
     0
 73
     0
 74
     0
  7

 75
     0
 76
     0
 77
     2
 78
   300
147
1.0
148
0.0
149
0.0
100
AcDbLayout
  1
Model
 70
     1
 71
     0
 10
0.0
 20
0.0
 11
12.0
 21
9.0
 12
0.0
 22
0.0
 32
0.0
 14
1.000000000000000E+20
 24
1.000000000000000E+20
 34
1.000000000000000E+20
 15
-1.000000000000000E+20
 25
-1.000000000000000E+20
 35
-1.000000000000000E+20
146
0.0
 13
0.0
 23
0.0
 33
0.0
 16
1.0
 26
0.0
 36
0.0
 17
0.0
 27
1.0
 37
0.0
 76
     0
330
1F
331
29
  0
MATERIAL
  5
3D
102
{ACAD_REACTORS
330
3B
102
}
330
3B
100
AcDbMaterial
  1
ByBlock
 72
     1
 94
      127
  0
MATERIAL
  5
3C
102
{ACAD_REACTORS
330
3B
102
}
330
3B
100
AcDbMaterial
  1
ByLayer
 72
     1
 94
      127
  0
MATERIAL
  5
3E
102
{ACAD_REACTORS
330
3B
102
}
330
3B
100
AcDbMaterial
  1
Global
 72
     1
 94
      127
  0
MLINESTYLE
  5
18
102
{ACAD_REACTORS
330
17
102
}
330
17
100
AcDbMlineStyle
  2
Standard
 70
     0
  3

 62
   256
 51
90.0
 52
90.0
 71
     2
 49
0.5
 62
   256
  6
BYLAYER
 49
-0.5
 62
   256
  6
BYLAYER
  0
ACDBPLACEHOLDER
  5
F
102
{ACAD_REACTORS
330
E
102
}
330
E
  0
VISUALSTYLE
  5
2F
102
{ACAD_REACTORS
330
2A
102
}
330
2A
100
AcDbVisualStyle
  2
2dWireframe
 70
     4
177
     2
291
     0
 71
     0
176
     1
 72
     2
176
     1
 73
     0
176
     1
 90
        0
176
     1
 40
-0.6
176
     1
 41
-30.0
176
     1
 62
     5
 63
     7
421
 16777215
176
     1
 74
     1
176
     1
 91
        4
176
     1
 64
     7
176
     1
 65
   257
176
     1
 75
     1
176
     1
175
     1
176
     1
 42
1.0
176
     1
 92
        0
176
     1
 66
   257
176
     1
 43
1.0
176
     1
 76
     1
176
     1
 77
     6
176
     1
 78
     2
176
     1
 67
     7
176
     1
 79
     5
176
     1
170
     0
176
     1
171
     0
176
     1
290
     0
176
     1
 93
        1
176
     1
 44
0.0
176
     1
173
     0
176
     1
  0
VISUALSTYLE
  5
31
102
{ACAD_REACTORS
330
2A
102
}
330
2A
100
AcDbVisualStyle
  2
3D Hidden
 70
     6
177
     2
291
     0
 71
     1
176
     1
 72
     2
176
     1
 73
     2
176
     1
 90
        0
176
     1
 40
-0.6
176
     1
 41
-30.0
176
     1
 62
     5
 63
     7
421
 16777215
176
     1
 74
     2
176
     1
 91
        2
176
     1
 64
     7
176
     1
 65
   257
176
     1
 75
     2
176
     1
175
     1
176
     1
 42
40.0
176
     1
 92
        0
176
     1
 66
   257
176
     1
 43
1.0
176
     1
 76
     1
176
     1
 77
     6
176
     1
 78
     2
176
     1
 67
     7
176
     1
 79
     3
176
     1
170
     0
176
     1
171
     0
176
     1
290
     0
176
     1
 93
        1
176
     1
 44
0.0
176
     1
173
     0
176
     1
  0
VISUALSTYLE
  5
30
102
{ACAD_REACTORS
330
2A
102
}
330
2A
100
AcDbVisualStyle
  2
3dWireframe
 70
     5
177
     2
291
     0
 71
     0
176
     1
 72
     2
176
     1
 73
     0
176
     1
 90
        0
176
     1
 40
-0.6
176
     1
 41
-30.0
176
     1
 62
     5
 63
     7
421
 16777215
176
     1
 74
     1
176
     1
 91
        4
176
     1
 64
     7
176
     1
 65
   257
176
     1
 75
     1
176
     1
175
     1
176
     1
 42
1.0
176
     1
 92
        0
176
     1
 66
   257
176
     1
 43
1.0
176
     1
 76
     1
176
     1
 77
     6
176
     1
 78
     2
176
     1
 67
     7
176
     1
 79
     5
176
     1
170
     0
176
     1
171
     0
176
     1
290
     0
176
     1
 93
        1
176
     1
 44
0.0
176
     1
173
     0
176
     1
  0
VISUALSTYLE
  5
32
102
{ACAD_REACTORS
330
2A
102
}
330
2A
100
AcDbVisualStyle
  2
Basic
 70
     7
177
     2
291
     1
 71
     1
176
     1
 72
     0
176
     1
 73
     1
176
     1
 90
        0
176
     1
 40
-0.6
176
     1
 41
-30.0
176
     1
 62
     5
 63
     7
421
 16777215
176
     1
 74
     0
176
     1
 91
        4
176
     1
 64
     7
176
     1
 65
   257
176
     1
 75
     1
176
     1
175
     1
176
     1
 42
1.0
176
     1
 92
        8
176
     1
 66
     7
176
     1
 43
1.0
176
     1
 76
     1
176
     1
 77
     6
176
     1
 78
     2
176
     1
 67
     7
176
     1
 79
     5
176
     1
170
     0
176
     1
171
     0
176
     1
290
     0
176
     1
 93
        1
176
     1
 44
0.0
176
     1
173
     0
176
     1
  0
VISUALSTYLE
  5
36
102
{ACAD_REACTORS
330
2A
102
}
330
2A
100
AcDbVisualStyle
  2
Brighten
 70
    12
177
     2
291
     1
 71
     2
176
     1
 72
     2
176
     1
 73
     0
176
     1
 90
        0
176
     1
 40
-0.6
176
     1
 41
-30.0
176
     1
 62
     5
 63
     7
421
 16777215
176
     1
 74
     1
176
     1
 91
        4
176
     1
 64
     7
176
     1
 65
   257
176
     1
 75
     1
176
     1
175
     1
176
     1
 42
1.0
176
     1
 92
        8
176
     1
 66
     7
176
     1
 43
1.0
176
     1
 76
     1
176
     1
 77
     6
176
     1
 78
     2
176
     1
 67
     7
176
     1
 79
     5
176
     1
170
     0
176
     1
171
     0
176
     1
290
     0
176
     1
 93
        1
176
     1
 44
50.0
176
     1
173
     0
176
     1
  0
VISUALSTYLE
  5
3A
102
{ACAD_REACTORS
330
2A
102
}
330
2A
100
AcDbVisualStyle
  2
ColorChange
 70
    16
177
     2
291
     1
 71
     2
176
     1
 72
     2
176
     1
 73
     3
176
     1
 90
        0
176
     1
 40
-0.6
176
     1
 41
-30.0
176
     1
 62
     5
 63
     8
421
  8421504
176
     1
 74
     1
176
     1
 91
        4
176
     1
 64
     7
176
     1
 65
   257
176
     1
 75
     1
176
     1
175
     1
176
     1
 42
1.0
176
     1
 92
        8
176
     1
 66
     8
424
  8421504
176
     1
 43
1.0
176
     1
 76
     1
176
     1
 77
     6
176
     1
 78
     2
176
     1
 67
     7
176
     1
 79
     5
176
     1
170
     0
176
     1
171
     0
176
     1
290
     0
176
     1
 93
        1
176
     1
 44
0.0
176
     1
173
     0
176
     1
  0
VISUALSTYLE
  5
34
102
{ACAD_REACTORS
330
2A
102
}
330
2A
100
AcDbVisualStyle
  2
Conceptual
 70
     9
177
     2
291
     0
 71
     3
176
     1
 72
     2
176
     1
 73
     0
176
     1
 90
        0
176
     1
 40
-0.6
176
     1
 41
-30.0
176
     1
 62
     5
 63
     7
421
 16777215
176
     1
 74
     2
176
     1
 91
        2
176
     1
 64
     7
176
     1
 65
   257
176
     1
 75
     1
176
     1
175
     1
176
     1
 42
40.0
176
     1
 92
        8
176
     1
 66
     7
176
     1
 43
1.0
176
     1
 76
     1
176
     1
 77
     6
176
     1
 78
     2
176
     1
 67
     7
176
     1
 79
     3
176
     1
170
     0
176
     1
171
     0
176
     1
290
     0
176
     1
 93
        1
176
     1
 44
0.0
176
     1
173
     0
176
     1
  0
VISUALSTYLE
  5
35
102
{ACAD_REACTORS
330
2A
102
}
330
2A
100
AcDbVisualStyle
  2
Dim
 70
    11
177
     2
291
     1
 71
     2
176
     1
 72
     2
176
     1
 73
     0
176
     1
 90
        0
176
     1
 40
-0.6
176
     1
 41
-30.0
176
     1
 62
     5
 63
     7
421
 16777215
176
     1
 74
     1
176
     1
 91
        4
176
     1
 64
     7
176
     1
 65
   257
176
     1
 75
     1
176
     1
175
     1
176
     1
 42
1.0
176
     1
 92
        8
176
     1
 66
     7
176
     1
 43
1.0
176
     1
 76
     1
176
     1
 77
     6
176
     1
 78
     2
176
     1
 67
     7
176
     1
 79
     5
176
     1
170
     0
176
     1
171
     0
176
     1
290
     0
176
     1
 93
        1
176
     1
 44
-50.0
176
     1
173
     0
176
     1
  0
VISUALSTYLE
  5
39
102
{ACAD_REACTORS
330
2A
102
}
330
2A
100
AcDbVisualStyle
  2
Facepattern
 70
    15
177
     2
291
     1
 71
     2
176
     1
 72
     2
176
     1
 73
     0
176
     1
 90
        0
176
     1
 40
-0.6
176
     1
 41
-30.0
176
     1
 62
     5
 63
     7
421
 16777215
176
     1
 74
     1
176
     1
 91
        4
176
     1
 64
     7
176
     1
 65
   257
176
     1
 75
     1
176
     1
175
     1
176
     1
 42
1.0
176
     1
 92
        8
176
     1
 66
     7
176
     1
 43
1.0
176
     1
 76
     1
176
     1
 77
     6
176
     1
 78
     2
176
     1
 67
     7
176
     1
 79
     5
176
     1
170
     0
176
     1
171
     0
176
     1
290
     0
176
     1
 93
        1
176
     1
 44
0.0
176
     1
173
     0
176
     1
  0
VISUALSTYLE
  5
2B
102
{ACAD_REACTORS
330
2A
102
}
330
2A
100
AcDbVisualStyle
  2
Flat
 70
     0
177
     2
291
     1
 71
     2
176
     1
 72
     1
176
     1
 73
     1
176
     1
 90
        2
176
     1
 40
-0.6
176
     1
 41
30.0
176
     1
 62
     5
 63
     7
421
 16777215
176
     1
 74
     0
176
     1
 91
        4
176
     1
 64
     7
176
     1
 65
   257
176
     1
 75
     1
176
     1
175
     1
176
     1
 42
1.0
176
     1
 92
        8
176
     1
 66
     7
176
     1
 43
1.0
176
     1
 76
     1
176
     1
 77
     6
176
     1
 78
     2
176
     1
 67
     7
176
     1
 79
     5
176
     1
170
     0
176
     1
171
     0
176
     1
290
     0
176
     1
 93
       13
176
     1
 44
0.0
176
     1
173
     0
176
     1
  0
VISUALSTYLE
  5
2C
102
{ACAD_REACTORS
330
2A
102
}
330
2A
100
AcDbVisualStyle
  2
FlatWithEdges
 70
     1
177
     2
291
     1
 71
     2
176
     1
 72
     1
176
     1
 73
     1
176
     1
 90
        2
176
     1
 40
-0.6
176
     1
 41
30.0
176
     1
 62
     5
 63
     7
421
 16777215
176
     1
 74
     1
176
     1
 91
        4
176
     1
 64
     7
176
     1
 65
   257
176
     1
 75
     1
176
     1
175
     1
176
     1
 42
1.0
176
     1
 92
        0
176
     1
 66
   257
176
     1
 43
1.0
176
     1
 76
     1
176
     1
 77
     6
176
     1
 78
     2
176
     1
 67
     7
176
     1
 79
     5
176
     1
170
     0
176
     1
171
     0
176
     1
290
     0
176
     1
 93
       13
176
     1
 44
0.0
176
     1
173
     0
176
     1
  0
VISUALSTYLE
  5
2D
102
{ACAD_REACTORS
330
2A
102
}
330
2A
100
AcDbVisualStyle
  2
Gouraud
 70
     2
177
     2
291
     1
 71
     2
176
     1
 72
     2
176
     1
 73
     1
176
     1
 90
        2
176
     1
 40
-0.6
176
     1
 41
30.0
176
     1
 62
     5
 63
     7
421
 16777215
176
     1
 74
     0
176
     1
 91
        4
176
     1
 64
     7
176
     1
 65
   257
176
     1
 75
     1
176
     1
175
     1
176
     1
 42
1.0
176
     1
 92
        0
176
     1
 66
     7
176
     1
 43
1.0
176
     1
 76
     1
176
     1
 77
     6
176
     1
 78
     2
176
     1
 67
     7
176
     1
 79
     5
176
     1
170
     0
176
     1
171
     0
176
     1
290
     0
176
     1
 93
       13
176
     1
 44
0.0
176
     1
173
     0
176
     1
  0
VISUALSTYLE
  5
2E
102
{ACAD_REACTORS
330
2A
102
}
330
2A
100
AcDbVisualStyle
  2
GouraudWithEdges
 70
     3
177
     2
291
     1
 71
     2
176
     1
 72
     2
176
     1
 73
     1
176
     1
 90
        2
176
     1
 40
-0.6
176
     1
 41
30.0
176
     1
 62
     5
 63
     7
421
 16777215
176
     1
 74
     1
176
     1
 91
        4
176
     1
 64
     7
176
     1
 65
   257
176
     1
 75
     1
176
     1
175
     1
176
     1
 42
1.0
176
     1
 92
        0
176
     1
 66
   257
176
     1
 43
1.0
176
     1
 76
     1
176
     1
 77
     6
176
     1
 78
     2
176
     1
 67
     7
176
     1
 79
     5
176
     1
170
     0
176
     1
171
     0
176
     1
290
     0
176
     1
 93
       13
176
     1
 44
0.0
176
     1
173
     0
176
     1
  0
VISUALSTYLE
  5
38
102
{ACAD_REACTORS
330
2A
102
}
330
2A
100
AcDbVisualStyle
  2
Linepattern
 70
    14
177
     2
291
     1
 71
     2
176
     1
 72
     2
176
     1
 73
     0
176
     1
 90
        0
176
     1
 40
-0.6
176
     1
 41
-30.0
176
     1
 62
     5
 63
     7
421
 16777215
176
     1
 74
     1
176
     1
 91
        4
176
     1
 64
     7
176
     1
 65
   257
176
     1
 75
     7
176
     1
175
     7
176
     1
 42
1.0
176
     1
 92
        8
176
     1
 66
     7
176
     1
 43
1.0
176
     1
 76
     1
176
     1
 77
     6
176
     1
 78
     2
176
     1
 67
     7
176
     1
 79
     5
176
     1
170
     0
176
     1
171
     0
176
     1
290
     0
176
     1
 93
        1
176
     1
 44
0.0
176
     1
173
     0
176
     1
  0
VISUALSTYLE
  5
33
102
{ACAD_REACTORS
330
2A
102
}
330
2A
100
AcDbVisualStyle
  2
Realistic
 70
     8
177
     2
291
     0
 71
     2
176
     1
 72
     2
176
     1
 73
     0
176
     1
 90
        0
176
     1
 40
-0.6
176
     1
 41
-30.0
176
     1
 62
     5
 63
     7
421
 16777215
176
     1
 74
     1
176
     1
 91
        0
176
     1
 64
     7
176
     1
 65
   257
176
     1
 75
     1
176
     1
175
     1
176
     1
 42
1.0
176
     1
 92
        8
176
     1
 66
     8
424
  7895160
176
     1
 43
1.0
176
     1
 76
     1
176
     1
 77
     6
176
     1
 78
     2
176
     1
 67
     7
176
     1
 79
     5
176
     1
170
     0
176
     1
171
     0
176
     1
290
     0
176
     1
 93
       13
176
     1
 44
0.0
176
     1
173
     0
176
     1
  0
VISUALSTYLE
  5
37
102
{ACAD_REACTORS
330
2A
102
}
330
2A
100
AcDbVisualStyle
  2
Thicken
 70
    13
177
     2
291
     1
 71
     2
176
     1
 72
     2
176
     1
 73
     0
176
     1
 90
        0
176
     1
 40
-0.6
176
     1
 41
-30.0
176
     1
 62
     5
 63
     7
421
 16777215
176
     1
 74
     1
176
     1
 91
        4
176
     1
 64
     7
176
     1
 65
   257
176
     1
 75
     1
176
     1
175
     1
176
     1
 42
1.0
176
     1
 92
       12
176
     1
 66
     7
176
     1
 43
1.0
176
     1
 76
     1
176
     1
 77
     6
176
     1
 78
     2
176
     1
 67
     7
176
     1
 79
     5
176
     1
170
     0
176
     1
171
     0
176
     1
290
     0
176
     1
 93
        1
176
     1
 44
0.0
176
     1
173
     0
176
     1
  0
ENDSEC
  0
EOF
