  0
SECTION
  2
HEADER
  9
$ACADVER
  1
AC1024
  9
$ACADMAINTVER
 70
   226
  9
$DWGCODEPAGE
  3
ANSI_932
  9
$INSBASE
 10
0.0
 20
0.0
 30
0.0
  9
$EXTMIN
 10
1.000000000000000E+20
 20
1.000000000000000E+20
 30
1.000000000000000E+20
  9
$EXTMAX
 10
-1.000000000000000E+20
 20
-1.000000000000000E+20
 30
-1.000000000000000E+20
  9
$LIMMIN
 10
0.0
 20
0.0
  9
$LIMMAX
 10
12.0
 20
9.0
  9
$ORTHOMODE
 70
     0
  9
$REGENMODE
 70
     1
  9
$FILLMODE
 70
     1
  9
$QTEXTMODE
 70
     0
  9
$MIRRTEXT
 70
     0
  9
$LTSCALE
 40
1.0
  9
$ATTMODE
 70
     1
  9
$TEXTSIZE
 40
0.2
  9
$TRACEWID
 40
0.05
  9
$TEXTSTYLE
  7
Standard
  9
$CLAYER
  8
0
  9
$CELTYPE
  6
ByLayer
  9
$CECOLOR
 62
   256
  9
$CELTSCALE
 40
1.0
  9
$DISPSILH
 70
     0
  9
$DIMSCALE
 40
1.0
  9
$DIMASZ
 40
0.18
  9
$DIMEXO
 40
0.0625
  9
$DIMDLI
 40
0.38
  9
$DIMRND
 40
0.0
  9
$DIMDLE
 40
0.0
  9
$DIMEXE
 40
0.18
  9
$DIMTP
 40
0.0
  9
$DIMTM
 40
0.0
  9
$DIMTXT
 40
0.18
  9
$DIMCEN
 40
0.09
  9
$DIMTSZ
 40
0.0
  9
$DIMTOL
 70
     0
  9
$DIMLIM
 70
     0
  9
$DIMTIH
 70
     1
  9
$DIMTOH
 70
     1
  9
$DIMSE1
 70
     0
  9
$DIMSE2
 70
     0
  9
$DIMTAD
 70
     0
  9
$DIMZIN
 70
     0
  9
$DIMBLK
  1

  9
$DIMASO
 70
     1
  9
$DIMSHO
 70
     1
  9
$DIMPOST
  1

  9
$DIMAPOST
  1

  9
$DIMALT
 70
     0
  9
$DIMALTD
 70
     2
  9
$DIMALTF
 40
25.4
  9
$DIMLFAC
 40
1.0
  9
$DIMTOFL
 70
     0
  9
$DIMTVP
 40
0.0
  9
$DIMTIX
 70
     0
  9
$DIMSOXD
 70
     0
  9
$DIMSAH
 70
     0
  9
$DIMBLK1
  1

  9
$DIMBLK2
  1

  9
$DIMSTYLE
  2
Standard
  9
$DIMCLRD
 70
     0
  9
$DIMCLRE
 70
     0
  9
$DIMCLRT
 70
     0
  9
$DIMTFAC
 40
1.0
  9
$DIMGAP
 40
0.09
  9
$DIMJUST
 70
     0
  9
$DIMSD1
 70
     0
  9
$DIMSD2
 70
     0
  9
$DIMTOLJ
 70
     1
  9
$DIMTZIN
 70
     0
  9
$DIMALTZ
 70
     0
  9
$DIMALTTZ
 70
     0
  9
$DIMUPT
 70
     0
  9
$DIMDEC
 70
     4
  9
$DIMTDEC
 70
     4
  9
$DIMALTU
 70
     2
  9
$DIMALTTD
 70
     2
  9
$DIMTXSTY
  7
Standard
  9
$DIMAUNIT
 70
     0
  9
$DIMADEC
 70
     0
  9
$DIMALTRND
 40
0.0
  9
$DIMAZIN
 70
     0
  9
$DIMDSEP
 70
    46
  9
$DIMATFIT
 70
     3
  9
$DIMFRAC
 70
     0
  9
$DIMLDRBLK
  1

  9
$DIMLUNIT
 70
     2
  9
$DIMLWD
 70
    -2
  9
$DIMLWE
 70
    -2
  9
$DIMTMOVE
 70
     0
  9
$DIMFXL
 40
1.0
  9
$DIMFXLON
 70
     0
  9
$DIMJOGANG
 40
0.7853981633974483
  9
$DIMTFILL
 70
     0
  9
$DIMTFILLCLR
 70
     0
  9
$DIMARCSYM
 70
     0
  9
$DIMLTYPE
  6

  9
$DIMLTEX1
  6

  9
$DIMLTEX2
  6

  9
$DIMTXTDIRECTION
 70
     0
  9
$LUNITS
 70
     2
  9
$LUPREC
 70
     4
  9
$SKETCHINC
 40
0.1
  9
$FILLETRAD
 40
0.0
  9
$AUNITS
 70
     0
  9
$AUPREC
 70
     0
  9
$MENU
  1
.
  9
$ELEVATION
 40
0.0
  9
$PELEVATION
 40
0.0
  9
$THICKNESS
 40
0.0
  9
$LIMCHECK
 70
     0
  9
$CHAMFERA
 40
0.0
  9
$CHAMFERB
 40
0.0
  9
$CHAMFERC
 40
0.0
  9
$CHAMFERD
 40
0.0
  9
$SKPOLY
 70
     0
  9
$TDCREATE
 40
2459569.503645833
  9
$TDUCREATE
 40
2459569.128645833
  9
$TDUPDATE
 40
2459569.503645833
  9
$TDUUPDATE
 40
2459569.128645833
  9
$TDINDWG
 40
0.0000000000
  9
$TDUSRTIMER
 40
0.0000000000
  9
$USRTIMER
 70
     1
  9
$ANGBASE
 50
0.0
  9
$ANGDIR
 70
     0
  9
$PDMODE
 70
     0
  9
$PDSIZE
 40
0.0
  9
$PLINEWID
 40
0.0
  9
$SPLFRAME
 70
     0
  9
$SPLINETYPE
 70
     6
  9
$SPLINESEGS
 70
     8
  9
$HANDSEED
  5
19E
  9
$SURFTAB1
 70
     6
  9
$SURFTAB2
 70
     6
  9
$SURFTYPE
 70
     6
  9
$SURFU
 70
     6
  9
$SURFV
 70
     6
  9
$UCSBASE
  2

  9
$UCSNAME
  2

  9
$UCSORG
 10
0.0
 20
0.0
 30
0.0
  9
$UCSXDIR
 10
1.0
 20
0.0
 30
0.0
  9
$UCSYDIR
 10
0.0
 20
1.0
 30
0.0
  9
$UCSORTHOREF
  2

  9
$UCSORTHOVIEW
 70
     0
  9
$UCSORGTOP
 10
0.0
 20
0.0
 30
0.0
  9
$UCSORGBOTTOM
 10
0.0
 20
0.0
 30
0.0
  9
$UCSORGLEFT
 10
0.0
 20
0.0
 30
0.0
  9
$UCSORGRIGHT
 10
0.0
 20
0.0
 30
0.0
  9
$UCSORGFRONT
 10
0.0
 20
0.0
 30
0.0
  9
$UCSORGBACK
 10
0.0
 20
0.0
 30
0.0
  9
$PUCSBASE
  2

  9
$PUCSNAME
  2

  9
$PUCSORG
 10
0.0
 20
0.0
 30
0.0
  9
$PUCSXDIR
 10
1.0
 20
0.0
 30
0.0
  9
$PUCSYDIR
 10
0.0
 20
1.0
 30
0.0
  9
$PUCSORTHOREF
  2

  9
$PUCSORTHOVIEW
 70
     0
  9
$PUCSORGTOP
 10
0.0
 20
0.0
 30
0.0
  9
$PUCSORGBOTTOM
 10
0.0
 20
0.0
 30
0.0
  9
$PUCSORGLEFT
 10
0.0
 20
0.0
 30
0.0
  9
$PUCSORGRIGHT
 10
0.0
 20
0.0
 30
0.0
  9
$PUCSORGFRONT
 10
0.0
 20
0.0
 30
0.0
  9
$PUCSORGBACK
 10
0.0
 20
0.0
 30
0.0
  9
$USERI1
 70
     0
  9
$USERI2
 70
     0
  9
$USERI3
 70
     0
  9
$USERI4
 70
     0
  9
$USERI5
 70
     0
  9
$USERR1
 40
0.0
  9
$USERR2
 40
0.0
  9
$USERR3
 40
0.0
  9
$USERR4
 40
0.0
  9
$USERR5
 40
0.0
  9
$WORLDVIEW
 70
     1
  9
$SHADEDGE
 70
     3
  9
$SHADEDIF
 70
    70
  9
$TILEMODE
 70
     1
  9
$MAXACTVP
 70
    64
  9
$PINSBASE
 10
0.0
 20
0.0
 30
0.0
  9
$PLIMCHECK
 70
     0
  9
$PEXTMIN
 10
1.000000000000000E+20
 20
1.000000000000000E+20
 30
1.000000000000000E+20
  9
$PEXTMAX
 10
-1.000000000000000E+20
 20
-1.000000000000000E+20
 30
-1.000000000000000E+20
  9
$PLIMMIN
 10
0.0
 20
0.0
  9
$PLIMMAX
 10
12.0
 20
9.0
  9
$UNITMODE
 70
     0
  9
$VISRETAIN
 70
     1
  9
$PLINEGEN
 70
     0
  9
$PSLTSCALE
 70
     1
  9
$TREEDEPTH
 70
  3020
  9
$CMLSTYLE
  2
Standard
  9
$CMLJUST
 70
     0
  9
$CMLSCALE
 40
1.0
  9
$PROXYGRAPHICS
 70
     1
  9
$MEASUREMENT
 70
     0
  9
$CELWEIGHT
370
    -1
  9
$ENDCAPS
280
     0
  9
$JOINSTYLE
280
     0
  9
$LWDISPLAY
290
     1
  9
$INSUNITS
 70
     4
  9
$HYPERLINKBASE
  1

  9
$STYLESHEET
  1

  9
$XEDIT
290
     1
  9
$CEPSNTYPE
380
     0
  9
$PSTYLEMODE
290
     1
  9
$FINGERPRINTGUID
  2
{EAE234B7-E1F3-F245-A97B-5C85C82A7993}
  9
$VERSIONGUID
  2
{9ABED20E-FF3B-8143-8CEA-8EC1DC8A6533}
  9
$EXTNAMES
290
     1
  9
$PSVPSCALE
 40
0.0
  9
$OLESTARTUP
290
     0
  9
$SORTENTS
280
   127
  9
$INDEXCTL
280
     0
  9
$HIDETEXT
280
     1
  9
$XCLIPFRAME
280
     2
  9
$HALOGAP
280
     0
  9
$OBSCOLOR
 70
   257
  9
$OBSLTYPE
280
     0
  9
$INTERSECTIONDISPLAY
280
     0
  9
$INTERSECTIONCOLOR
 70
   257
  9
$DIMASSOC
280
     2
  9
$PROJECTNAME
  1

  9
$CAMERADISPLAY
290
     0
  9
$LENSLENGTH
 40
50.0
  9
$CAMERAHEIGHT
 40
0.0
  9
$STEPSPERSEC
 40
2.0
  9
$STEPSIZE
 40
6.0
  9
$3DDWFPREC
 40
2.0
  9
$PSOLWIDTH
 40
0.25
  9
$PSOLHEIGHT
 40
4.0
  9
$LOFTANG1
 40
1.570796326794896
  9
$LOFTANG2
 40
1.570796326794896
  9
$LOFTMAG1
 40
0.0
  9
$LOFTMAG2
 40
0.0
  9
$LOFTPARAM
 70
     7
  9
$LOFTNORMALS
280
     1
  9
$LATITUDE
 40
37.795
  9
$LONGITUDE
 40
-122.394
  9
$NORTHDIRECTION
 40
0.0
  9
$TIMEZONE
 70
 -8000
  9
$LIGHTGLYPHDISPLAY
280
     1
  9
$TILEMODELIGHTSYNCH
280
     1
  9
$CMATERIAL
347
11
  9
$SOLIDHIST
280
     0
  9
$SHOWHIST
280
     1
  9
$DWFFRAME
280
     2
  9
$DGNFRAME
280
     0
  9
$REALWORLDSCALE
290
     1
  9
$INTERFERECOLOR
 62
     1
  9
$INTERFEREOBJVS
345
33
  9
$INTERFEREVPVS
346
30
  9
$CSHADOW
280
     0
  9
$SHADOWPLANELOCATION
 40
0.0
  0
ENDSEC
  0
SECTION
  2
CLASSES
  0
CLASS
  1
ACDBDICTIONARYWDFLT
  2
AcDbDictionaryWithDefault
  3
ObjectDBX Classes
 90
        0
 91
        1
280
     0
281
     0
  0
CLASS
  1
MATERIAL
  2
AcDbMaterial
  3
ObjectDBX Classes
 90
     1153
 91
        3
280
     0
281
     0
  0
CLASS
  1
VISUALSTYLE
  2
AcDbVisualStyle
  3
ObjectDBX Classes
 90
     4095
 91
       24
280
     0
281
     0
  0
CLASS
  1
SCALE
  2
AcDbScale
  3
ObjectDBX Classes
 90
     1153
 91
       17
280
     0
281
     0
  0
CLASS
  1
TABLESTYLE
  2
AcDbTableStyle
  3
ObjectDBX Classes
 90
     4095
 91
        1
280
     0
281
     0
  0
CLASS
  1
MLEADERSTYLE
  2
AcDbMLeaderStyle
  3
ACDB_MLEADERSTYLE_CLASS
 90
     4095
 91
        1
280
     0
281
     0
  0
CLASS
  1
ACDBSECTIONVIEWSTYLE
  2
AcDbSectionViewStyle
  3
ObjectDBX Classes
 90
     1025
 91
        1
280
     0
281
     0
  0
CLASS
  1
ACDBDETAILVIEWSTYLE
  2
AcDbDetailViewStyle
  3
ObjectDBX Classes
 90
     1025
 91
        1
280
     0
281
     0
  0
CLASS
  1
DICTIONARYVAR
  2
AcDbDictionaryVar
  3
ObjectDBX Classes
 90
        0
 91
        5
280
     0
281
     0
  0
CLASS
  1
CELLSTYLEMAP
  2
AcDbCellStyleMap
  3
ObjectDBX Classes
 90
     1152
 91
        1
280
     0
281
     0
  0
ENDSEC
  0
SECTION
  2
TABLES
  0
TABLE
  2
VPORT
  5
8
330
0
100
AcDbSymbolTable
 70
     1
  0
VPORT
  5
57
330
8
100
AcDbSymbolTableRecord
100
AcDbViewportTableRecord
  2
*Active
 70
     0
 10
0.0
 20
0.0
 11
1.0
 21
1.0
 12
0.0
 22
0.0
 13
0.0
 23
0.0
 14
1.0
 24
1.0
 15
0.0
 25
0.0
 16
0.0
 26
0.0
 36
1.0
 17
104.9999999737534
 27
-148.4999999628701
 37
0.0
 40
302.939999924255
 41
0.7070707070707534
 42
50.0
 43
0.0
 44
0.0
 50
0.0
 51
0.0
 71
     0
 72
   100
 73
     1
 74
     0
 75
     1
 76
     0
 77
     0
 78
     0
281
     0
 65
     1
110
0.0
120
0.0
130
0.0
111
1.0
121
0.0
131
0.0
112
0.0
122
1.0
132
0.0
 79
     0
146
0.0
 60
     3
 61
     5
292
     1
282
     1
141
0.0
142
0.0
 63
   250
421
  3355443
  0
ENDTAB
  0
TABLE
  2
LTYPE
  5
5
330
0
100
AcDbSymbolTable
 70
     2
  0
LTYPE
  5
5B
330
5
100
AcDbSymbolTableRecord
100
AcDbLinetypeTableRecord
  2
ByBlock
 70
     0
  3

 72
    65
 73
     0
 40
0.0
  0
LTYPE
  5
5C
330
5
100
AcDbSymbolTableRecord
100
AcDbLinetypeTableRecord
  2
ByLayer
 70
     0
  3

 72
    65
 73
     0
 40
0.0
  0
LTYPE
  5
5D
330
5
100
AcDbSymbolTableRecord
100
AcDbLinetypeTableRecord
  2
Continuous
 70
     0
  3
Solid line
 72
    65
 73
     0
 40
0.0
  0
LTYPE
  5
134
330
5
100
AcDbSymbolTableRecord
100
AcDbLinetypeTableRecord
  2
AI-Linetype-0
 70
     0
  3
Adobe Illustrator Linetype No. 0
 72
    65
 73
     2
 40
1.411111110758333
 49
0.7055555553791667
 74
     0
 49
-0.7055555553791667
 74
     0
  0
ENDTAB
  0
TABLE
  2
LAYER
  5
2
330
0
100
AcDbSymbolTable
 70
     2
  0
LAYER
  5
54
330
2
100
AcDbSymbolTableRecord
100
AcDbLayerTableRecord
  2
0
 70
     0
 62
     7
  6
Continuous
370
    -3
390
F
347
21
  0
LAYER
  5
78
330
2
100
AcDbSymbolTableRecord
100
AcDbLayerTableRecord
  2
レイヤー 1
 70
     0
 62
     7
  6
Continuous
370
     0
390
F
347
21
  0
ENDTAB
  0
TABLE
  2
STYLE
  5
3
330
0
100
AcDbSymbolTable
 70
     2
  0
STYLE
  5
55
330
3
100
AcDbSymbolTableRecord
100
AcDbTextStyleTableRecord
  2
Standard
 70
     0
 40
0.0
 41
1.0
 50
0.0
 71
     0
 42
0.2
  3
txt
  4

  0
STYLE
  5
5A
330
3
100
AcDbSymbolTableRecord
100
AcDbTextStyleTableRecord
  2
Annotative
 70
     0
 40
0.0
 41
1.0
 50
0.0
 71
     0
 42
0.2
  3
txt
  4

1001
AcadAnnotative
1000
AnnotativeData
1002
{
1070
     1
1070
     1
1002
}
  0
ENDTAB
  0
TABLE
  2
VIEW
  5
6
330
0
100
AcDbSymbolTable
 70
     0
  0
ENDTAB
  0
TABLE
  2
UCS
  5
7
330
0
100
AcDbSymbolTable
 70
     0
  0
ENDTAB
  0
TABLE
  2
APPID
  5
9
330
0
100
AcDbSymbolTable
 70
     2
  0
APPID
  5
56
330
9
100
AcDbSymbolTableRecord
100
AcDbRegAppTableRecord
  2
ACAD
 70
     0
  0
APPID
  5
5E
330
9
100
AcDbSymbolTableRecord
100
AcDbRegAppTableRecord
  2
AcadAnnotative
 70
     0
  0
ENDTAB
  0
TABLE
  2
DIMSTYLE
  5
A
330
0
100
AcDbSymbolTable
 70
     2
100
AcDbDimStyleTable
 71
     0
  0
DIMSTYLE
105
58
330
A
100
AcDbSymbolTableRecord
100
AcDbDimStyleTableRecord
  2
Standard
 70
     0
340
55
  0
DIMSTYLE
105
59
330
A
100
AcDbSymbolTableRecord
100
AcDbDimStyleTableRecord
  2
Annotative
 70
     0
340
55
1001
AcadAnnotative
1000
AnnotativeData
1002
{
1070
     1
1070
     1
1002
}
  0
ENDTAB
  0
TABLE
  2
BLOCK_RECORD
  5
1
330
0
100
AcDbSymbolTable
 70
    20
  0
BLOCK_RECORD
  5
70
330
1
100
AcDbSymbolTableRecord
100
AcDbBlockTableRecord
  2
*Model_Space
340
73
 70
     0
280
     1
281
     0
  0
BLOCK_RECORD
  5
6C
330
1
100
AcDbSymbolTableRecord
100
AcDbBlockTableRecord
  2
*Paper_Space
340
6F
 70
     0
280
     1
281
     0
  0
BLOCK_RECORD
  5
74
330
1
100
AcDbSymbolTableRecord
100
AcDbBlockTableRecord
  2
*Paper_Space0
340
77
 70
     0
280
     1
281
     0
  0
BLOCK_RECORD
  5
79
330
1
100
AcDbSymbolTableRecord
100
AcDbBlockTableRecord
  2
Block_0
340
0
102
{BLKREFS
331
7A
102
}
 70
     0
280
     1
281
     0
  0
BLOCK_RECORD
  5
7D
330
1
100
AcDbSymbolTableRecord
100
AcDbBlockTableRecord
  2
Block_1
340
0
102
{BLKREFS
331
7E
102
}
 70
     0
280
     1
281
     0
  0
BLOCK_RECORD
  5
82
330
1
100
AcDbSymbolTableRecord
100
AcDbBlockTableRecord
  2
Block_2
340
0
102
{BLKREFS
331
83
102
}
 70
     0
280
     1
281
     0
  0
BLOCK_RECORD
  5
A7
330
1
100
AcDbSymbolTableRecord
100
AcDbBlockTableRecord
  2
Block_3
340
0
102
{BLKREFS
331
A8
102
}
 70
     0
280
     1
281
     0
  0
BLOCK_RECORD
  5
E6
330
1
100
AcDbSymbolTableRecord
100
AcDbBlockTableRecord
  2
Block_4
340
0
102
{BLKREFS
331
E7
102
}
 70
     0
280
     1
281
     0
  0
BLOCK_RECORD
  5
EC
330
1
100
AcDbSymbolTableRecord
100
AcDbBlockTableRecord
  2
Block_5
340
0
102
{BLKREFS
331
ED
102
}
 70
     0
280
     1
281
     0
  0
BLOCK_RECORD
  5
F5
330
1
100
AcDbSymbolTableRecord
100
AcDbBlockTableRecord
  2
Block_6
340
0
102
{BLKREFS
331
F6
102
}
 70
     0
280
     1
281
     0
  0
BLOCK_RECORD
  5
F9
330
1
100
AcDbSymbolTableRecord
100
AcDbBlockTableRecord
  2
Block_7
340
0
102
{BLKREFS
331
FA
102
}
 70
     0
280
     1
281
     0
  0
BLOCK_RECORD
  5
107
330
1
100
AcDbSymbolTableRecord
100
AcDbBlockTableRecord
  2
Block_8
340
0
102
{BLKREFS
331
108
102
}
 70
     0
280
     1
281
     0
  0
BLOCK_RECORD
  5
10B
330
1
100
AcDbSymbolTableRecord
100
AcDbBlockTableRecord
  2
Block_9
340
0
102
{BLKREFS
331
10C
102
}
 70
     0
280
     1
281
     0
  0
BLOCK_RECORD
  5
118
330
1
100
AcDbSymbolTableRecord
100
AcDbBlockTableRecord
  2
Block_10
340
0
102
{BLKREFS
331
119
102
}
 70
     0
280
     1
281
     0
  0
BLOCK_RECORD
  5
11C
330
1
100
AcDbSymbolTableRecord
100
AcDbBlockTableRecord
  2
Block_11
340
0
102
{BLKREFS
331
11D
102
}
 70
     0
280
     1
281
     0
  0
BLOCK_RECORD
  5
126
330
1
100
AcDbSymbolTableRecord
100
AcDbBlockTableRecord
  2
Block_12
340
0
102
{BLKREFS
331
127
102
}
 70
     0
280
     1
281
     0
  0
BLOCK_RECORD
  5
12D
330
1
100
AcDbSymbolTableRecord
100
AcDbBlockTableRecord
  2
Block_13
340
0
102
{BLKREFS
331
12E
102
}
 70
     0
280
     1
281
     0
  0
BLOCK_RECORD
  5
135
330
1
100
AcDbSymbolTableRecord
100
AcDbBlockTableRecord
  2
Block_14
340
0
102
{BLKREFS
331
136
102
}
 70
     0
280
     1
281
     0
  0
BLOCK_RECORD
  5
139
330
1
100
AcDbSymbolTableRecord
100
AcDbBlockTableRecord
  2
Block_15
340
0
102
{BLKREFS
331
13A
102
}
 70
     0
280
     1
281
     0
  0
BLOCK_RECORD
  5
13D
330
1
100
AcDbSymbolTableRecord
100
AcDbBlockTableRecord
  2
Block_16
340
0
102
{BLKREFS
331
13E
102
}
 70
     0
280
     1
281
     0
  0
BLOCK_RECORD
  5
154
330
1
100
AcDbSymbolTableRecord
100
AcDbBlockTableRecord
  2
Block_17
340
0
102
{BLKREFS
331
155
102
}
 70
     0
280
     1
281
     0
  0
BLOCK_RECORD
  5
158
330
1
100
AcDbSymbolTableRecord
100
AcDbBlockTableRecord
  2
Block_18
340
0
102
{BLKREFS
331
159
102
}
 70
     0
280
     1
281
     0
  0
ENDTAB
  0
ENDSEC
  0
SECTION
  2
BLOCKS
  0
BLOCK
  5
71
330
70
100
AcDbEntity
  8
0
100
AcDbBlockBegin
  2
*Model_Space
 70
     0
 10
0.0
 20
0.0
 30
0.0
  3
*Model_Space
  1

  0
ENDBLK
  5
72
330
70
100
AcDbEntity
  8
0
100
AcDbBlockEnd
  0
BLOCK
  5
6D
330
6C
100
AcDbEntity
 67
     1
  8
0
100
AcDbBlockBegin
  2
*Paper_Space
 70
     0
 10
0.0
 20
0.0
 30
0.0
  3
*Paper_Space
  1

  0
ENDBLK
  5
6E
330
6C
100
AcDbEntity
 67
     1
  8
0
100
AcDbBlockEnd
  0
BLOCK
  5
75
330
74
100
AcDbEntity
 67
     1
  8
0
100
AcDbBlockBegin
  2
*Paper_Space0
 70
     0
 10
0.0
 20
0.0
 30
0.0
  3
*Paper_Space0
  1

  0
ENDBLK
  5
76
330
74
100
AcDbEntity
 67
     1
  8
0
100
AcDbBlockEnd
  0
BLOCK
  5
7B
330
79
100
AcDbEntity
  8
0
100
AcDbBlockBegin
  2
Block_0
 70
     0
 10
0.0
 20
0.0
 30
0.0
  3
Block_0
  1

  0
INSERT
  5
7E
330
79
100
AcDbEntity
  8
レイヤー 1
100
AcDbBlockReference
  2
Block_1
 10
0.0
 20
0.0
 30
0.0
  0
LINE
  5
A6
330
79
100
AcDbEntity
  8
レイヤー 1
 62
   250
420
  2299925
370
     9
100
AcDbLine
 10
132.1847689700382
 20
-147.9196320605806
 30
0.0
 11
123.111783368176
 21
-151.6723762263089
 31
0.0
  0
ENDBLK
  5
7C
330
79
100
AcDbEntity
  8
0
100
AcDbBlockEnd
  0
BLOCK
  5
7F
330
7D
100
AcDbEntity
  8
0
100
AcDbBlockBegin
  2
Block_1
 70
     0
 10
0.0
 20
0.0
 30
0.0
  3
Block_1
  1

  0
LINE
  5
81
330
7D
100
AcDbEntity
  8
レイヤー 1
 62
   250
420
  2299925
370
     9
100
AcDbLine
 10
122.1671150589432
 20
-153.901014559085
 30
0.0
 11
123.4976164138882
 21
-154.6089690033522
 31
0.0
  0
INSERT
  5
83
330
7D
100
AcDbEntity
  8
レイヤー 1
100
AcDbBlockReference
  2
Block_2
 10
0.0
 20
0.0
 30
0.0
  0
ENDBLK
  5
80
330
7D
100
AcDbEntity
  8
0
100
AcDbBlockEnd
  0
BLOCK
  5
84
330
82
100
AcDbEntity
  8
0
100
AcDbBlockBegin
  2
Block_2
 70
     0
 10
0.0
 20
0.0
 30
0.0
  3
Block_2
  1

  0
LWPOLYLINE
  5
86
330
82
100
AcDbEntity
  8
レイヤー 1
 62
   250
420
  2299925
370
     9
100
AcDbPolyline
 90
        5
 70
     0
 43
0.0
 10
116.5585129798083
 20
-148.7226953937131
 10
122.1478212385997
 20
-151.3929762263789
 10
122.0417378399196
 20
-153.9926309479512
 10
123.7463600186533
 20
-154.8873459477277
 10
132.8875728409971
 20
-151.115975115337
  0
LINE
  5
87
330
82
100
AcDbEntity
  8
レイヤー 1
 62
   250
420
  2299925
370
     9
100
AcDbLine
 10
125.8134260770292
 20
-144.8083790058029
 30
0.0
 11
116.5585129798083
 21
-148.7226953937131
 31
0.0
  0
LINE
  5
88
330
82
100
AcDbEntity
  8
レイヤー 1
 62
   250
420
  2299925
370
     9
100
AcDbLine
 10
122.8968005958829
 20
-151.5676365041131
 30
0.0
 11
131.5901620407635
 21
-147.9916340050071
 31
0.0
  0
LINE
  5
89
330
82
100
AcDbEntity
  8
レイヤー 1
 62
   250
420
  2299925
370
     9
100
AcDbLine
 10
123.5065769692151
 20
-154.6175767811286
 30
0.0
 11
122.8968005958829
 21
-151.5896851152187
 31
0.0
  0
LINE
  5
8A
330
82
100
AcDbEntity
  8
レイヤー 1
 62
   250
420
  2299925
370
     9
100
AcDbLine
 10
123.1062447572062
 20
-151.688921504083
 30
0.0
 11
123.6822955758433
 21
-154.8022559477488
 31
0.0
  0
LINE
  5
8B
330
82
100
AcDbEntity
  8
レイヤー 1
 62
   250
420
  2299925
370
     9
100
AcDbLine
 10
122.1843658918364
 20
-153.9013320590846
 30
0.0
 11
123.2771303084021
 21
-153.5878537258302
 31
0.0
  0
LINE
  5
8C
330
82
100
AcDbEntity
  8
レイヤー 1
 62
   250
420
  2299925
370
     9
100
AcDbLine
 10
122.2973606111759
 20
-151.3506076152784
 30
0.0
 11
122.1595656146914
 21
-153.9013320590846
 31
0.0
  0
LINE
  5
8D
330
82
100
AcDbEntity
  8
レイヤー 1
 62
   250
420
  2299925
370
     9
100
AcDbLine
 10
131.6301351251184
 20
-147.4293767829252
 30
0.0
 11
122.3042397776671
 21
-151.3685287263847
 31
0.0
  0
SPLINE
  5
8E
330
82
100
AcDbEntity
  8
レイヤー 1
 62
   250
420
  2299925
370
     9
100
AcDbSpline
210
0.0
220
0.0
230
1.0
 70
     9
 71
     3
 72
    17
 73
    13
 74
     0
 42
0.0000000001
 43
0.0000000001
 40
0.0
 40
0.0
 40
0.0
 40
0.0
 40
1.0
 40
1.0
 40
1.0
 40
2.0
 40
2.0
 40
2.0
 40
3.0
 40
3.0
 40
3.0
 40
4.0
 40
4.0
 40
4.0
 40
4.0
 10
128.98705016273
 20
-147.0952256718978
 30
0.0
 10
128.98705016273
 20
-147.3029412274016
 30
0.0
 10
128.6969610034641
 20
-147.4717806718036
 30
0.0
 10
128.3379743459559
 20
-147.4717806718036
 30
0.0
 10
127.9789876884478
 20
-147.4717806718036
 30
0.0
 10
127.6882282514212
 20
-147.3029412274016
 30
0.0
 10
127.6882282514212
 20
-147.0952256718978
 30
0.0
 10
127.6882282514212
 20
-146.886451783061
 30
0.0
 10
127.9789876884478
 20
-146.7183178942142
 30
0.0
 10
128.3379743459559
 20
-146.7183178942142
 30
0.0
 10
128.6969610034641
 20
-146.7183178942142
 30
0.0
 10
128.98705016273
 20
-146.886451783061
 30
0.0
 10
128.98705016273
 20
-147.0952256718978
 30
0.0
  0
SPLINE
  5
8F
330
82
100
AcDbEntity
  8
レイヤー 1
 62
   250
420
  2299925
370
     9
100
AcDbSpline
210
0.0
220
0.0
230
1.0
 70
     8
 71
     3
 72
    11
 73
     7
 74
     0
 42
0.0000000001
 43
0.0000000001
 40
0.0
 40
0.0
 40
0.0
 40
0.0
 40
1.0
 40
1.0
 40
1.0
 40
2.0
 40
2.0
 40
2.0
 40
2.0
 10
127.800552693
 20
-147.3019181718461
 30
0.0
 10
127.800552693
 20
-147.3019181718461
 30
0.0
 10
127.7819613045855
 20
-146.8499392830701
 30
0.0
 10
128.515739063643
 20
-146.8878276163939
 30
0.0
 10
128.515739063643
 20
-146.8878276163939
 30
0.0
 10
128.9498321081239
 20
-146.9436370608244
 30
0.0
 10
128.8740554433905
 20
-147.2829740051841
 30
0.0
  0
SPLINE
  5
90
330
82
100
AcDbEntity
  8
レイヤー 1
 62
   250
420
  2299925
370
     9
100
AcDbSpline
210
0.0
220
0.0
230
1.0
 70
     9
 71
     3
 72
    17
 73
    13
 74
     0
 42
0.0000000001
 43
0.0000000001
 40
0.0
 40
0.0
 40
0.0
 40
0.0
 40
1.0
 40
1.0
 40
1.0
 40
2.0
 40
2.0
 40
2.0
 40
3.0
 40
3.0
 40
3.0
 40
4.0
 40
4.0
 40
4.0
 40
4.0
 10
124.0378250112174
 20
-147.0952256718978
 30
0.0
 10
124.0378250112174
 20
-147.3029412274016
 30
0.0
 10
123.7463600186533
 20
-147.4717806718036
 30
0.0
 10
123.3880789166827
 20
-147.4717806718036
 30
0.0
 10
123.0290922591746
 20
-147.4717806718036
 30
0.0
 10
122.738332822148
 20
-147.3029412274016
 30
0.0
 10
122.738332822148
 20
-147.0952256718978
 30
0.0
 10
122.738332822148
 20
-146.886451783061
 30
0.0
 10
123.0290922591746
 20
-146.7183178942142
 30
0.0
 10
123.3880789166827
 20
-146.7183178942142
 30
0.0
 10
123.7463600186533
 20
-146.7183178942142
 30
0.0
 10
124.0378250112174
 20
-146.886451783061
 30
0.0
 10
124.0378250112174
 20
-147.0952256718978
 30
0.0
  0
SPLINE
  5
91
330
82
100
AcDbEntity
  8
レイヤー 1
 62
   250
420
  2299925
370
     9
100
AcDbSpline
210
0.0
220
0.0
230
1.0
 70
     8
 71
     3
 72
    11
 73
     7
 74
     0
 42
0.0000000001
 43
0.0000000001
 40
0.0
 40
0.0
 40
0.0
 40
0.0
 40
1.0
 40
1.0
 40
1.0
 40
2.0
 40
2.0
 40
2.0
 40
2.0
 10
122.85062198595
 20
-147.3019181718461
 30
0.0
 10
122.85062198595
 20
-147.3019181718461
 30
0.0
 10
122.8320305975354
 20
-146.8499392830701
 30
0.0
 10
123.5665139121305
 20
-146.8878276163939
 30
0.0
 10
123.5665139121305
 20
-146.8878276163939
 30
0.0
 10
124.0006101270256
 20
-146.9436370608244
 30
0.0
 10
123.9248302918779
 20
-147.2829740051841
 30
0.0
  0
SPLINE
  5
92
330
82
100
AcDbEntity
  8
レイヤー 1
 62
   250
420
  2299925
370
     9
100
AcDbSpline
210
0.0
220
0.0
230
1.0
 70
     9
 71
     3
 72
    17
 73
    13
 74
     0
 42
0.0000000001
 43
0.0000000001
 40
0.0
 40
0.0
 40
0.0
 40
0.0
 40
1.0
 40
1.0
 40
1.0
 40
2.0
 40
2.0
 40
2.0
 40
3.0
 40
3.0
 40
3.0
 40
4.0
 40
4.0
 40
4.0
 40
4.0
 10
126.6609073485825
 20
-145.9356098388545
 30
0.0
 10
126.6609073485825
 20
-146.1430078943581
 30
0.0
 10
126.3694391183997
 20
-146.3118120609826
 30
0.0
 10
126.0104877386684
 20
-146.3118120609826
 30
0.0
 10
125.6521713589209
 20
-146.3118120609826
 30
0.0
 10
125.3614119218944
 20
-146.1430078943581
 30
0.0
 10
125.3614119218944
 20
-145.9356098388545
 30
0.0
 10
125.3614119218944
 20
-145.7268359500174
 30
0.0
 10
125.6521713589209
 20
-145.5580317833932
 30
0.0
 10
126.0104877386684
 20
-145.5580317833932
 30
0.0
 10
126.3694391183997
 20
-145.5580317833932
 30
0.0
 10
126.6609073485825
 20
-145.7268359500174
 30
0.0
 10
126.6609073485825
 20
-145.9356098388545
 30
0.0
  0
SPLINE
  5
93
330
82
100
AcDbEntity
  8
レイヤー 1
 62
   250
420
  2299925
370
     9
100
AcDbSpline
210
0.0
220
0.0
230
1.0
 70
     8
 71
     3
 72
    11
 73
     7
 74
     0
 42
0.0000000001
 43
0.0000000001
 40
0.0
 40
0.0
 40
0.0
 40
0.0
 40
1.0
 40
1.0
 40
1.0
 40
2.0
 40
2.0
 40
2.0
 40
2.0
 10
125.4737363634732
 20
-146.1416320610249
 30
0.0
 10
125.4737363634732
 20
-146.1416320610249
 30
0.0
 10
125.4551129044396
 20
-145.6903234500268
 30
0.0
 10
126.1896282896537
 20
-145.7275062277951
 30
0.0
 10
126.1896282896537
 20
-145.7275062277951
 30
0.0
 10
126.623015778597
 20
-145.7840212277811
 30
0.0
 10
126.5472391138636
 20
-146.123005394363
 30
0.0
  0
SPLINE
  5
94
330
82
100
AcDbEntity
  8
レイヤー 1
 62
   250
420
  2299925
370
     9
100
AcDbSpline
210
0.0
220
0.0
230
1.0
 70
     9
 71
     3
 72
    17
 73
    13
 74
     0
 42
0.0000000001
 43
0.0000000001
 40
0.0
 40
0.0
 40
0.0
 40
0.0
 40
1.0
 40
1.0
 40
1.0
 40
2.0
 40
2.0
 40
2.0
 40
3.0
 40
3.0
 40
3.0
 40
4.0
 40
4.0
 40
4.0
 40
4.0
 10
126.6609073485825
 20
-146.9698131719289
 30
0.0
 10
126.6609073485825
 20
-147.1772112274328
 30
0.0
 10
126.3694391183997
 20
-147.3460153940573
 30
0.0
 10
126.0104877386684
 20
-147.3460153940573
 30
0.0
 10
125.6521713589209
 20
-147.3460153940573
 30
0.0
 10
125.3614119218944
 20
-147.1772112274328
 30
0.0
 10
125.3614119218944
 20
-146.9698131719289
 30
0.0
 10
125.3614119218944
 20
-146.7610392830925
 30
0.0
 10
125.6521713589209
 20
-146.5925878942458
 30
0.0
 10
126.0104877386684
 20
-146.5925878942458
 30
0.0
 10
126.3694391183997
 20
-146.5925878942458
 30
0.0
 10
126.6609073485825
 20
-146.7610392830925
 30
0.0
 10
126.6609073485825
 20
-146.9698131719289
 30
0.0
  0
SPLINE
  5
95
330
82
100
AcDbEntity
  8
レイヤー 1
 62
   250
420
  2299925
370
     9
100
AcDbSpline
210
0.0
220
0.0
230
1.0
 70
     8
 71
     3
 72
    11
 73
     7
 74
     0
 42
0.0000000001
 43
0.0000000001
 40
0.0
 40
0.0
 40
0.0
 40
0.0
 40
1.0
 40
1.0
 40
1.0
 40
2.0
 40
2.0
 40
2.0
 40
2.0
 10
125.4737363634732
 20
-147.1758353940999
 30
0.0
 10
125.4737363634732
 20
-147.1758353940999
 30
0.0
 10
125.4551129044396
 20
-146.7245267831016
 30
0.0
 10
126.1896282896537
 20
-146.7617448386477
 30
0.0
 10
126.1896282896537
 20
-146.7617448386477
 30
0.0
 10
126.623015778597
 20
-146.8182245608558
 30
0.0
 10
126.5472391138636
 20
-147.1572440052156
 30
0.0
  0
SPLINE
  5
96
330
82
100
AcDbEntity
  8
レイヤー 1
 62
   250
420
  2299925
370
     9
100
AcDbSpline
210
0.0
220
0.0
230
1.0
 70
     9
 71
     3
 72
    17
 73
    13
 74
     0
 42
0.0000000001
 43
0.0000000001
 40
0.0
 40
0.0
 40
0.0
 40
0.0
 40
1.0
 40
1.0
 40
1.0
 40
2.0
 40
2.0
 40
2.0
 40
3.0
 40
3.0
 40
3.0
 40
4.0
 40
4.0
 40
4.0
 40
4.0
 10
126.6609073485825
 20
-148.1370137271928
 30
0.0
 10
126.6609073485825
 20
-148.3444117826967
 30
0.0
 10
126.3694391183997
 20
-148.5132159493208
 30
0.0
 10
126.0104877386684
 20
-148.5132159493208
 30
0.0
 10
125.6521713589209
 20
-148.5132159493208
 30
0.0
 10
125.3614119218944
 20
-148.3444117826967
 30
0.0
 10
125.3614119218944
 20
-148.1370137271928
 30
0.0
 10
125.3614119218944
 20
-147.9285926161338
 30
0.0
 10
125.6521713589209
 20
-147.7601059495092
 30
0.0
 10
126.0104877386684
 20
-147.7601059495092
 30
0.0
 10
126.3694391183997
 20
-147.7601059495092
 30
0.0
 10
126.6609073485825
 20
-147.9285926161338
 30
0.0
 10
126.6609073485825
 20
-148.1370137271928
 30
0.0
  0
SPLINE
  5
97
330
82
100
AcDbEntity
  8
レイヤー 1
 62
   250
420
  2299925
370
     9
100
AcDbSpline
210
0.0
220
0.0
230
1.0
 70
     8
 71
     3
 72
    11
 73
     7
 74
     0
 42
0.0000000001
 43
0.0000000001
 40
0.0
 40
0.0
 40
0.0
 40
0.0
 40
1.0
 40
1.0
 40
1.0
 40
2.0
 40
2.0
 40
2.0
 40
2.0
 10
125.4737363634732
 20
-148.3437062271411
 30
0.0
 10
125.4737363634732
 20
-148.3437062271411
 30
0.0
 10
125.4551129044396
 20
-147.8917273383651
 30
0.0
 10
126.1896282896537
 20
-147.9292628939115
 30
0.0
 10
126.1896282896537
 20
-147.9292628939115
 30
0.0
 10
126.623015778597
 20
-147.9854251161197
 30
0.0
 10
126.5472391138636
 20
-148.3244445604792
 30
0.0
  0
SPLINE
  5
98
330
82
100
AcDbEntity
  8
レイヤー 1
 62
   250
420
  2299925
370
     9
100
AcDbSpline
210
0.0
220
0.0
230
1.0
 70
     9
 71
     3
 72
    17
 73
    13
 74
     0
 42
0.0000000001
 43
0.0000000001
 40
0.0
 40
0.0
 40
0.0
 40
0.0
 40
1.0
 40
1.0
 40
1.0
 40
2.0
 40
2.0
 40
2.0
 40
3.0
 40
3.0
 40
3.0
 40
4.0
 40
4.0
 40
4.0
 40
4.0
 10
119.8857717838118
 20
-148.661347338173
 30
0.0
 10
119.8857717838118
 20
-148.8687453936765
 30
0.0
 10
119.5950123467852
 20
-149.0382551158563
 30
0.0
 10
119.2360256892771
 20
-149.0382551158563
 30
0.0
 10
118.8770743095458
 20
-149.0382551158563
 30
0.0
 10
118.5862795947424
 20
-148.8687453936765
 30
0.0
 10
118.5862795947424
 20
-148.661347338173
 30
0.0
 10
118.5862795947424
 20
-148.4525734493363
 30
0.0
 10
118.8770743095458
 20
-148.2844748382669
 30
0.0
 10
119.2360256892771
 20
-148.2844748382669
 30
0.0
 10
119.5950123467852
 20
-148.2844748382669
 30
0.0
 10
119.8857717838118
 20
-148.4525734493363
 30
0.0
 10
119.8857717838118
 20
-148.661347338173
 30
0.0
  0
SPLINE
  5
99
330
82
100
AcDbEntity
  8
レイヤー 1
 62
   250
420
  2299925
370
     9
100
AcDbSpline
210
0.0
220
0.0
230
1.0
 70
     8
 71
     3
 72
    11
 73
     7
 74
     0
 42
0.0000000001
 43
0.0000000001
 40
0.0
 40
0.0
 40
0.0
 40
0.0
 40
1.0
 40
1.0
 40
1.0
 40
2.0
 40
2.0
 40
2.0
 40
2.0
 10
118.6993095918587
 20
-148.8677223381214
 30
0.0
 10
118.6993095918587
 20
-148.8677223381214
 30
0.0
 10
118.6806829256673
 20
-148.4160609493453
 30
0.0
 10
119.4152045726165
 20
-148.4536317826692
 30
0.0
 10
119.4152045726165
 20
-148.4536317826692
 30
0.0
 10
119.8478834514451
 20
-148.5101115048773
 30
0.0
 10
119.7727770644723
 20
-148.8491309492371
 30
0.0
  0
SPLINE
  5
9A
330
82
100
AcDbEntity
  8
レイヤー 1
 62
   250
420
  2299925
370
     9
100
AcDbSpline
210
0.0
220
0.0
230
1.0
 70
     9
 71
     3
 72
    17
 73
    13
 74
     0
 42
0.0000000001
 43
0.0000000001
 40
0.0
 40
0.0
 40
0.0
 40
0.0
 40
1.0
 40
1.0
 40
1.0
 40
2.0
 40
2.0
 40
2.0
 40
3.0
 40
3.0
 40
3.0
 40
4.0
 40
4.0
 40
4.0
 40
4.0
 10
124.3775147247734
 20
-148.9859028936471
 30
0.0
 10
124.3775147247734
 20
-149.1946415047063
 30
0.0
 10
124.08672000997
 20
-149.3627753935532
 30
0.0
 10
123.7284389079994
 20
-149.3627753935532
 30
0.0
 10
123.3694522504912
 20
-149.3627753935532
 30
0.0
 10
123.078022535704
 20
-149.1946415047063
 30
0.0
 10
123.078022535704
 20
-148.9859028936471
 30
0.0
 10
123.078022535704
 20
-148.7777992825881
 30
0.0
 10
123.3694522504912
 20
-148.6096653937412
 30
0.0
 10
123.7284389079994
 20
-148.6096653937412
 30
0.0
 10
124.08672000997
 20
-148.6096653937412
 30
0.0
 10
124.3775147247734
 20
-148.7777992825881
 30
0.0
 10
124.3775147247734
 20
-148.9859028936471
 30
0.0
  0
SPLINE
  5
9B
330
82
100
AcDbEntity
  8
レイヤー 1
 62
   250
420
  2299925
370
     9
100
AcDbSpline
210
0.0
220
0.0
230
1.0
 70
     8
 71
     3
 72
    11
 73
     7
 74
     0
 42
0.0000000001
 43
0.0000000001
 40
0.0
 40
0.0
 40
0.0
 40
0.0
 40
1.0
 40
1.0
 40
1.0
 40
2.0
 40
2.0
 40
2.0
 40
2.0
 10
123.1910172550435
 20
-149.1929481713732
 30
0.0
 10
123.1910172550435
 20
-149.1929481713732
 30
0.0
 10
123.172390588852
 20
-148.7412867825974
 30
0.0
 10
123.906909181224
 20
-148.7785048381436
 30
0.0
 10
123.906909181224
 20
-148.7785048381436
 30
0.0
 10
124.3402966701674
 20
-148.8349845603517
 30
0.0
 10
124.2638144498964
 20
-149.1746742824892
 30
0.0
  0
SPLINE
  5
9C
330
82
100
AcDbEntity
  8
レイヤー 1
 62
   250
420
  2299925
370
     9
100
AcDbSpline
210
0.0
220
0.0
230
1.0
 70
     9
 71
     3
 72
    17
 73
    13
 74
     0
 42
0.0000000001
 43
0.0000000001
 40
0.0
 40
0.0
 40
0.0
 40
0.0
 40
1.0
 40
1.0
 40
1.0
 40
2.0
 40
2.0
 40
2.0
 40
3.0
 40
3.0
 40
3.0
 40
4.0
 40
4.0
 40
4.0
 40
4.0
 10
122.2201728353674
 20
-147.6857051161948
 30
0.0
 10
122.2201728353674
 20
-147.8931031716983
 30
0.0
 10
121.9294133983408
 20
-148.0622601161
 30
0.0
 10
121.5711322963702
 20
-148.0622601161
 30
0.0
 10
121.2121456388621
 20
-148.0622601161
 30
0.0
 10
120.9213862018355
 20
-147.8931031716983
 30
0.0
 10
120.9213862018355
 20
-147.6857051161948
 30
0.0
 10
120.9213862018355
 20
-147.4772840051355
 30
0.0
 10
121.2121456388621
 20
-147.3087973385108
 30
0.0
 10
121.5711322963702
 20
-147.3087973385108
 30
0.0
 10
121.9294133983408
 20
-147.3087973385108
 30
0.0
 10
122.2201728353674
 20
-147.4772840051355
 30
0.0
 10
122.2201728353674
 20
-147.6857051161948
 30
0.0
  0
SPLINE
  5
9D
330
82
100
AcDbEntity
  8
レイヤー 1
 62
   250
420
  2299925
370
     9
100
AcDbSpline
210
0.0
220
0.0
230
1.0
 70
     8
 71
     3
 72
    11
 73
     7
 74
     0
 42
0.0000000001
 43
0.0000000001
 40
0.0
 40
0.0
 40
0.0
 40
0.0
 40
1.0
 40
1.0
 40
1.0
 40
2.0
 40
2.0
 40
2.0
 40
2.0
 10
121.0336753656374
 20
-147.8923976161428
 30
0.0
 10
121.0336753656374
 20
-147.8923976161428
 30
0.0
 10
121.0150839772229
 20
-147.4404187273671
 30
0.0
 10
121.7488970140573
 20
-147.4779542829131
 30
0.0
 10
121.7488970140573
 20
-147.4779542829131
 30
0.0
 10
122.1822845030007
 20
-147.5341165051213
 30
0.0
 10
122.1071781160279
 20
-147.8734534494811
 30
0.0
  0
SPLINE
  5
9E
330
82
100
AcDbEntity
  8
レイヤー 1
 62
   250
420
  2299925
370
     9
100
AcDbSpline
210
0.0
220
0.0
230
1.0
 70
     9
 71
     3
 72
    17
 73
    13
 74
     0
 42
0.0000000001
 43
0.0000000001
 40
0.0
 40
0.0
 40
0.0
 40
0.0
 40
1.0
 40
1.0
 40
1.0
 40
2.0
 40
2.0
 40
2.0
 40
3.0
 40
3.0
 40
3.0
 40
4.0
 40
4.0
 40
4.0
 40
4.0
 10
122.2201728353674
 20
-148.7199084492692
 30
0.0
 10
122.2201728353674
 20
-148.9280120603283
 30
0.0
 10
121.9294133983408
 20
-149.0961459491751
 30
0.0
 10
121.5711322963702
 20
-149.0961459491751
 30
0.0
 10
121.2121456388621
 20
-149.0961459491751
 30
0.0
 10
120.9213862018355
 20
-148.9280120603283
 30
0.0
 10
120.9213862018355
 20
-148.7199084492692
 30
0.0
 10
120.9213862018355
 20
-148.511840115988
 30
0.0
 10
121.2121456388621
 20
-148.3430359493635
 30
0.0
 10
121.5711322963702
 20
-148.3430359493635
 30
0.0
 10
121.9294133983408
 20
-148.3430359493635
 30
0.0
 10
122.2201728353674
 20
-148.511840115988
 30
0.0
 10
122.2201728353674
 20
-148.7199084492692
 30
0.0
  0
SPLINE
  5
9F
330
82
100
AcDbEntity
  8
レイヤー 1
 62
   250
420
  2299925
370
     9
100
AcDbSpline
210
0.0
220
0.0
230
1.0
 70
     8
 71
     3
 72
    11
 73
     7
 74
     0
 42
0.0000000001
 43
0.0000000001
 40
0.0
 40
0.0
 40
0.0
 40
0.0
 40
1.0
 40
1.0
 40
1.0
 40
2.0
 40
2.0
 40
2.0
 40
2.0
 10
121.0336753656374
 20
-148.9266362269954
 30
0.0
 10
121.0336753656374
 20
-148.9266362269954
 30
0.0
 10
121.0150839772229
 20
-148.4753276159971
 30
0.0
 10
121.7488970140573
 20
-148.5121928937657
 30
0.0
 10
121.7488970140573
 20
-148.5121928937657
 30
0.0
 10
122.1822845030007
 20
-148.5683551159739
 30
0.0
 10
122.1071781160279
 20
-148.9083623381113
 30
0.0
  0
SPLINE
  5
A0
330
82
100
AcDbEntity
  8
レイヤー 1
 62
   250
420
  2299925
370
     9
100
AcDbSpline
210
0.0
220
0.0
230
1.0
 70
     9
 71
     3
 72
    17
 73
    13
 74
     0
 42
0.0000000001
 43
0.0000000001
 40
0.0
 40
0.0
 40
0.0
 40
0.0
 40
1.0
 40
1.0
 40
1.0
 40
2.0
 40
2.0
 40
2.0
 40
3.0
 40
3.0
 40
3.0
 40
4.0
 40
4.0
 40
4.0
 40
4.0
 10
124.2658990158483
 20
-148.0381301161066
 30
0.0
 10
124.2658990158483
 20
-148.2462337271657
 30
0.0
 10
123.9744308461681
 20
-148.4143323382347
 30
0.0
 10
123.6161497441975
 20
-148.4143323382347
 30
0.0
 10
123.2571630866893
 20
-148.4143323382347
 30
0.0
 10
122.9664036496628
 20
-148.2462337271657
 30
0.0
 10
122.9664036496628
 20
-148.0381301161066
 30
0.0
 10
122.9664036496628
 20
-147.8297090050473
 30
0.0
 10
123.2571630866893
 20
-147.6612576162005
 30
0.0
 10
123.6161497441975
 20
-147.6612576162005
 30
0.0
 10
123.9744308461681
 20
-147.6612576162005
 30
0.0
 10
124.2658990158483
 20
-147.8297090050473
 30
0.0
 10
124.2658990158483
 20
-148.0381301161066
 30
0.0
  0
SPLINE
  5
A1
330
82
100
AcDbEntity
  8
レイヤー 1
 62
   250
420
  2299925
370
     9
100
AcDbSpline
210
0.0
220
0.0
230
1.0
 70
     8
 71
     3
 72
    11
 73
     7
 74
     0
 42
0.0000000001
 43
0.0000000001
 40
0.0
 40
0.0
 40
0.0
 40
0.0
 40
1.0
 40
1.0
 40
1.0
 40
2.0
 40
2.0
 40
2.0
 40
2.0
 10
123.0793983690023
 20
-148.2448578938325
 30
0.0
 10
123.0793983690023
 20
-148.2448578938325
 30
0.0
 10
123.0607717028108
 20
-147.7931965050567
 30
0.0
 10
123.7945879048546
 20
-147.8304145606028
 30
0.0
 10
123.7945879048546
 20
-147.8304145606028
 30
0.0
 10
124.2286777841261
 20
-147.8868942828109
 30
0.0
 10
124.1528658416158
 20
-148.2262312271706
 30
0.0
  0
SPLINE
  5
A2
330
82
100
AcDbEntity
  8
レイヤー 1
 62
   250
420
  2299925
370
     9
100
AcDbSpline
210
0.0
220
0.0
230
1.0
 70
     9
 71
     3
 72
    17
 73
    13
 74
     0
 42
0.0000000001
 43
0.0000000001
 40
0.0
 40
0.0
 40
0.0
 40
0.0
 40
1.0
 40
1.0
 40
1.0
 40
2.0
 40
2.0
 40
2.0
 40
3.0
 40
3.0
 40
3.0
 40
4.0
 40
4.0
 40
4.0
 40
4.0
 10
122.2201728353674
 20
-149.8871090045327
 30
0.0
 10
122.2201728353674
 20
-150.0952126155921
 30
0.0
 10
121.9294133983408
 20
-150.2633112266608
 30
0.0
 10
121.5711322963702
 20
-150.2633112266608
 30
0.0
 10
121.2121456388621
 20
-150.2633112266608
 30
0.0
 10
120.9213862018355
 20
-150.0952126155921
 30
0.0
 10
120.9213862018355
 20
-149.8871090045327
 30
0.0
 10
120.9213862018355
 20
-149.6790406712522
 30
0.0
 10
121.2121456388621
 20
-149.5109067824047
 30
0.0
 10
121.5711322963702
 20
-149.5109067824047
 30
0.0
 10
121.9294133983408
 20
-149.5109067824047
 30
0.0
 10
122.2201728353674
 20
-149.6790406712522
 30
0.0
 10
122.2201728353674
 20
-149.8871090045327
 30
0.0
  0
SPLINE
  5
A3
330
82
100
AcDbEntity
  8
レイヤー 1
 62
   250
420
  2299925
370
     9
100
AcDbSpline
210
0.0
220
0.0
230
1.0
 70
     8
 71
     3
 72
    11
 73
     7
 74
     0
 42
0.0000000001
 43
0.0000000001
 40
0.0
 40
0.0
 40
0.0
 40
0.0
 40
1.0
 40
1.0
 40
1.0
 40
2.0
 40
2.0
 40
2.0
 40
2.0
 10
121.0336753656374
 20
-150.0934840044815
 30
0.0
 10
121.0336753656374
 20
-150.0934840044815
 30
0.0
 10
121.0150839772229
 20
-149.6425281712609
 30
0.0
 10
121.7488970140573
 20
-149.6797109490295
 30
0.0
 10
121.7488970140573
 20
-149.6797109490295
 30
0.0
 10
122.1822845030007
 20
-149.7355556712375
 30
0.0
 10
122.1071781160279
 20
-150.0748926155972
 30
0.0
  0
LINE
  5
A4
330
82
100
AcDbEntity
  8
レイヤー 1
 62
   250
420
  2299925
370
     9
100
AcDbLine
 10
116.8609846387583
 20
-148.7337020603769
 30
0.0
 11
122.2656490163483
 21
-151.3195984486193
 31
0.0
  0
LINE
  5
A5
330
82
100
AcDbEntity
  8
レイヤー 1
 62
   250
420
  2299925
370
     9
100
AcDbLine
 10
125.8347691320402
 20
-144.9578862279876
 30
0.0
 11
116.8375601949115
 21
-148.7226953937131
 31
0.0
  0
ENDBLK
  5
85
330
82
100
AcDbEntity
  8
0
100
AcDbBlockEnd
  0
BLOCK
  5
A9
330
A7
100
AcDbEntity
  8
0
100
AcDbBlockBegin
  2
Block_3
 70
     0
 10
0.0
 20
0.0
 30
0.0
  3
Block_3
  1

  0
LINE
  5
AB
330
A7
100
AcDbEntity
  8
レイヤー 1
 62
    18
420
        0
370
    25
100
AcDbLine
 10
109.5566856584398
 20
-152.6309792816249
 30
0.0
 11
104.0569507987498
 21
-152.6309792816249
 31
0.0
  0
LINE
  5
AC
330
A7
100
AcDbEntity
  8
レイヤー 1
 62
    18
420
        0
370
    25
100
AcDbLine
 10
84.80696156763571
 20
-147.1307151163333
 30
0.0
 11
84.80696156763571
 21
-147.6309187273195
 31
0.0
  0
LINE
  5
AD
330
A7
100
AcDbEntity
  8
レイヤー 1
 62
    18
420
        0
370
    25
100
AcDbLine
 10
104.8975496661932
 20
-147.6309187273195
 30
0.0
 11
84.80696156763571
 21
-147.6309187273195
 31
0.0
  0
LINE
  5
AE
330
A7
100
AcDbEntity
  8
レイヤー 1
 62
    18
420
        0
370
    25
100
AcDbLine
 10
108.8056570664891
 20
-151.6308542818752
 30
0.0
 11
104.9926232748788
 21
-151.6308542818752
 31
0.0
  0
LINE
  5
AF
330
A7
100
AcDbEntity
  8
レイヤー 1
 62
    18
420
        0
370
    25
100
AcDbLine
 10
104.0569507987498
 20
-152.6309792816249
 30
0.0
 11
104.8975496661932
 21
-147.6309187273195
 31
0.0
  0
LINE
  5
B0
330
A7
100
AcDbEntity
  8
レイヤー 1
 62
    18
420
        0
370
    25
100
AcDbLine
 10
104.9926232748788
 20
-151.6308542818752
 30
0.0
 11
105.8084218651771
 21
-146.3686445609681
 31
0.0
  0
LINE
  5
B1
330
A7
100
AcDbEntity
  8
レイヤー 1
 62
    18
420
        0
370
    25
100
AcDbLine
 10
84.80696156763571
 20
-147.1307151163333
 30
0.0
 11
85.32064347002885
 21
-147.512773449571
 31
0.0
  0
LINE
  5
B2
330
A7
100
AcDbEntity
  8
レイヤー 1
 62
    18
420
        0
370
    25
100
AcDbLine
 10
85.32064347002885
 20
-147.512773449571
 30
0.0
 11
85.80602820881408
 21
-147.0952256718978
 31
0.0
  0
LINE
  5
B3
330
A7
100
AcDbEntity
  8
レイヤー 1
 62
    18
420
        0
370
    25
100
AcDbLine
 10
86.32006291422364
 20
-147.4772840051355
 30
0.0
 11
86.8054476277612
 21
-147.0593834496845
 31
0.0
  0
LINE
  5
B4
330
A7
100
AcDbEntity
  8
レイヤー 1
 62
    18
420
        0
370
    25
100
AcDbLine
 10
85.80602820881408
 20
-147.0952256718978
 30
0.0
 11
86.32006291422364
 21
-147.4772840051355
 31
0.0
  0
LINE
  5
B5
330
A7
100
AcDbEntity
  8
レイヤー 1
 62
    18
420
        0
370
    25
100
AcDbLine
 10
86.8054476277612
 20
-147.0593834496845
 30
0.0
 11
87.31948235841811
 21
-147.4414417829222
 31
0.0
  0
LINE
  5
B6
330
A7
100
AcDbEntity
  8
レイヤー 1
 62
    18
420
        0
370
    25
100
AcDbLine
 10
87.31948235841811
 20
-147.4414417829222
 30
0.0
 11
87.80486704670833
 21
-147.0238940052491
 31
0.0
  0
LINE
  5
B7
330
A7
100
AcDbEntity
  8
レイヤー 1
 62
    18
420
        0
370
    25
100
AcDbLine
 10
87.80486704670833
 20
-147.0238940052491
 30
0.0
 11
88.31890180261256
 21
-147.4056348384868
 31
0.0
  0
LINE
  5
B8
330
A7
100
AcDbEntity
  8
レイヤー 1
 62
    18
420
        0
370
    25
100
AcDbLine
 10
88.31890180261256
 20
-147.4056348384868
 30
0.0
 11
88.80397124693573
 21
-146.9880870608133
 31
0.0
  0
LINE
  5
B9
330
A7
100
AcDbEntity
  8
レイヤー 1
 62
    18
420
        0
370
    25
100
AcDbLine
 10
88.80397124693573
 20
-146.9880870608133
 30
0.0
 11
89.31796846902956
 21
-147.3697926162736
 31
0.0
  0
LINE
  5
BA
330
A7
100
AcDbEntity
  8
レイヤー 1
 62
    18
420
        0
370
    25
100
AcDbLine
 10
89.31796846902956
 20
-147.3697926162736
 30
0.0
 11
89.80374346890826
 21
-146.9522448386001
 31
0.0
  0
LINE
  5
BB
330
A7
100
AcDbEntity
  8
レイヤー 1
 62
    18
420
        0
370
    25
100
AcDbLine
 10
89.80374346890826
 20
-146.9522448386001
 30
0.0
 11
90.31774069100178
 21
-147.3343031718381
 31
0.0
  0
LINE
  5
BC
330
A7
100
AcDbEntity
  8
レイヤー 1
 62
    18
420
        0
370
    25
100
AcDbLine
 10
90.31774069100178
 20
-147.3343031718381
 30
0.0
 11
90.80281013532497
 21
-146.9167553941646
 31
0.0
  0
LINE
  5
BD
330
A7
100
AcDbEntity
  8
レイヤー 1
 62
    18
420
        0
370
    25
100
AcDbLine
 10
90.80281013532497
 20
-146.9167553941646
 30
0.0
 11
91.3168073574188
 21
-147.2988137274026
 31
0.0
  0
LINE
  5
BE
330
A7
100
AcDbEntity
  8
レイヤー 1
 62
    18
420
        0
370
    25
100
AcDbLine
 10
91.3168073574188
 20
-147.2988137274026
 30
0.0
 11
91.80187680174197
 21
-146.8809484497292
 31
0.0
  0
LINE
  5
BF
330
A7
100
AcDbEntity
  8
レイヤー 1
 62
    18
420
        0
370
    25
100
AcDbLine
 10
92.3159069316221
 20
-147.2630067829669
 30
0.0
 11
92.80164902371421
 21
-146.8454590052934
 31
0.0
  0
LINE
  5
C0
330
A7
100
AcDbEntity
  8
レイヤー 1
 62
    18
420
        0
370
    25
100
AcDbLine
 10
91.80187680174197
 20
-146.8809484497292
 30
0.0
 11
92.3159069316221
 21
-147.2630067829669
 31
0.0
  0
LINE
  5
C1
330
A7
100
AcDbEntity
  8
レイヤー 1
 62
    18
420
        0
370
    25
100
AcDbLine
 10
92.80164902371421
 20
-146.8454590052934
 30
0.0
 11
93.31564624580805
 21
-147.2271645607536
 31
0.0
  0
LINE
  5
C2
330
A7
100
AcDbEntity
  8
レイヤー 1
 62
    18
420
        0
370
    25
100
AcDbLine
 10
93.31564624580805
 20
-147.2271645607536
 30
0.0
 11
93.80071569013123
 21
-146.8096167830801
 31
0.0
  0
LINE
  5
C3
330
A7
100
AcDbEntity
  8
レイヤー 1
 62
    18
420
        0
370
    25
100
AcDbLine
 10
94.31474576951638
 20
-147.1913223385404
 30
0.0
 11
94.80048791210345
 21
-146.7737745608672
 31
0.0
  0
LINE
  5
C4
330
A7
100
AcDbEntity
  8
レイヤー 1
 62
    18
420
        0
370
    25
100
AcDbLine
 10
93.80071569013123
 20
-146.8096167830801
 30
0.0
 11
94.31474576951638
 21
-147.1913223385404
 31
0.0
  0
LINE
  5
C5
330
A7
100
AcDbEntity
  8
レイヤー 1
 62
    18
420
        0
370
    25
100
AcDbLine
 10
95.31451796623228
 20
-147.1558681718824
 30
0.0
 11
95.79958739830159
 21
-146.7383203942092
 31
0.0
  0
LINE
  5
C6
330
A7
100
AcDbEntity
  8
レイヤー 1
 62
    18
420
        0
370
    25
100
AcDbLine
 10
94.80048791210345
 20
-146.7737745608672
 30
0.0
 11
95.31451796623228
 21
-147.1558681718824
 31
0.0
  0
LINE
  5
C7
330
A7
100
AcDbEntity
  8
レイヤー 1
 62
    18
420
        0
370
    25
100
AcDbLine
 10
95.79958739830159
 20
-146.7383203942092
 30
0.0
 11
96.31358460741063
 21
-147.1203787274469
 31
0.0
  0
LINE
  5
C8
330
A7
100
AcDbEntity
  8
レイヤー 1
 62
    18
420
        0
370
    25
100
AcDbLine
 10
96.31358460741063
 20
-147.1203787274469
 30
0.0
 11
96.79932680049269
 21
-146.702478171996
 31
0.0
  0
LINE
  5
C9
330
A7
100
AcDbEntity
  8
レイヤー 1
 62
    18
420
        0
370
    25
100
AcDbLine
 10
96.79932680049269
 20
-146.702478171996
 30
0.0
 11
97.312651248589
 21
-147.0845365052337
 31
0.0
  0
LINE
  5
CA
330
A7
100
AcDbEntity
  8
レイヤー 1
 62
    18
420
        0
370
    25
100
AcDbLine
 10
97.312651248589
 20
-147.0845365052337
 30
0.0
 11
97.79842623619584
 21
-146.6669887275602
 31
0.0
  0
LINE
  5
CB
330
A7
100
AcDbEntity
  8
レイヤー 1
 62
    18
420
        0
370
    25
100
AcDbLine
 10
97.79842623619584
 20
-146.6669887275602
 30
0.0
 11
98.3124234453049
 21
-147.0486942830204
 31
0.0
  0
LINE
  5
CC
330
A7
100
AcDbEntity
  8
レイヤー 1
 62
    18
420
        0
370
    25
100
AcDbLine
 10
98.3124234453049
 20
-147.0486942830204
 30
0.0
 11
98.7974928773742
 21
-146.6311465053469
 31
0.0
  0
LINE
  5
CD
330
A7
100
AcDbEntity
  8
レイヤー 1
 62
    18
420
        0
370
    25
100
AcDbLine
 10
98.7974928773742
 20
-146.6311465053469
 30
0.0
 11
99.31149008648326
 21
-147.012887338585
 31
0.0
  0
LINE
  5
CE
330
A7
100
AcDbEntity
  8
レイヤー 1
 62
    18
420
        0
370
    25
100
AcDbLine
 10
99.31149008648326
 20
-147.012887338585
 30
0.0
 11
99.79726507409012
 21
-146.5953395609115
 31
0.0
  0
LINE
  5
CF
330
A7
100
AcDbEntity
  8
レイヤー 1
 62
    18
420
        0
370
    25
100
AcDbLine
 10
99.79726507409012
 20
-146.5953395609115
 30
0.0
 11
100.3112622831995
 21
-146.9773978941495
 31
0.0
  0
LINE
  5
D0
330
A7
100
AcDbEntity
  8
レイヤー 1
 62
    18
420
        0
370
    25
100
AcDbLine
 10
100.3112622831995
 20
-146.9773978941495
 30
0.0
 11
100.7963317152684
 21
-146.5598501164761
 31
0.0
  0
LINE
  5
D1
330
A7
100
AcDbEntity
  8
レイヤー 1
 62
    18
420
        0
370
    25
100
AcDbLine
 10
100.7963317152684
 20
-146.5598501164761
 30
0.0
 11
101.3103642021544
 21
-146.9419084497137
 31
0.0
  0
LINE
  5
D2
330
A7
100
AcDbEntity
  8
レイヤー 1
 62
    18
420
        0
370
    25
100
AcDbLine
 10
101.3103642021544
 20
-146.9419084497137
 30
0.0
 11
101.7961039119843
 21
-146.5240078942628
 31
0.0
  0
LINE
  5
D3
330
A7
100
AcDbEntity
  8
レイヤー 1
 62
    18
420
        0
370
    25
100
AcDbLine
 10
101.7961039119843
 20
-146.5240078942628
 30
0.0
 11
102.3101011210934
 21
-146.9060662275008
 31
0.0
  0
LINE
  5
D4
330
A7
100
AcDbEntity
  8
レイヤー 1
 62
    18
420
        0
370
    25
100
AcDbLine
 10
102.3101011210934
 20
-146.9060662275008
 30
0.0
 11
102.7951705531627
 21
-146.4885537276048
 31
0.0
  0
LINE
  5
D5
330
A7
100
AcDbEntity
  8
レイヤー 1
 62
    18
420
        0
370
    25
100
AcDbLine
 10
102.7951705531627
 20
-146.4885537276048
 30
0.0
 11
103.3092030400486
 21
-146.870259283065
 31
0.0
  0
LINE
  5
D6
330
A7
100
AcDbEntity
  8
レイヤー 1
 62
    18
420
        0
370
    25
100
AcDbLine
 10
103.3092030400486
 20
-146.870259283065
 30
0.0
 11
103.7942724721179
 21
-146.4527115053912
 31
0.0
  0
LINE
  5
D7
330
A7
100
AcDbEntity
  8
レイヤー 1
 62
    18
420
        0
370
    25
100
AcDbLine
 10
103.7942724721179
 20
-146.4527115053912
 30
0.0
 11
104.3084460701114
 21
-146.8344170608518
 31
0.0
  0
LINE
  5
D8
330
A7
100
AcDbEntity
  8
レイヤー 1
 62
    18
420
        0
370
    25
100
AcDbLine
 10
104.3084460701114
 20
-146.8344170608518
 30
0.0
 11
104.7941857799413
 21
-146.4168692831786
 31
0.0
  0
LINE
  5
D9
330
A7
100
AcDbEntity
  8
レイヤー 1
 62
    18
420
        0
370
    25
100
AcDbLine
 10
104.8682182669362
 20
-146.3686445609681
 30
0.0
 11
105.8084218651771
 21
-146.3686445609681
 31
0.0
  0
LINE
  5
DA
330
A7
100
AcDbEntity
  8
レイヤー 1
 62
    18
420
        0
370
    25
100
AcDbLine
 10
108.8056570664891
 20
-151.6308542818752
 30
0.0
 11
108.8056570664891
 21
-146.3686445609681
 31
0.0
  0
LINE
  5
DB
330
A7
100
AcDbEntity
  8
レイヤー 1
 62
    18
420
        0
370
    25
100
AcDbLine
 10
109.5566856584398
 20
-152.6309792816249
 30
0.0
 11
109.5573912139774
 21
-146.3686445609681
 31
0.0
  0
LINE
  5
DC
330
A7
100
AcDbEntity
  8
レイヤー 1
 62
    18
420
        0
370
    25
100
AcDbLine
 10
108.8056570664891
 20
-146.3686445609681
 30
0.0
 11
109.5573912139774
 21
-146.3686445609681
 31
0.0
  0
SPLINE
  5
DD
330
A7
100
AcDbEntity
  8
レイヤー 1
 62
    18
420
        0
370
     9
100
AcDbSpline
210
0.0
220
0.0
230
1.0
 70
     9
 71
     3
 72
    17
 73
    13
 74
     0
 42
0.0000000001
 43
0.0000000001
 40
0.0
 40
0.0
 40
0.0
 40
0.0
 40
1.0
 40
1.0
 40
1.0
 40
2.0
 40
2.0
 40
2.0
 40
3.0
 40
3.0
 40
3.0
 40
4.0
 40
4.0
 40
4.0
 40
4.0
 10
84.90686823175355
 20
-142.3685326175238
 30
0.0
 10
84.90686823175355
 20
-142.3134287286486
 30
0.0
 10
84.86210073289598
 20
-142.2686259508822
 30
0.0
 10
84.80696156763571
 20
-142.2686259508822
 30
0.0
 10
84.75150490238387
 20
-142.2686259508822
 30
0.0
 10
84.70670212574878
 20
-142.3134287286486
 30
0.0
 10
84.70670212574878
 20
-142.3685326175238
 30
0.0
 10
84.70670212574878
 20
-142.4240245619543
 30
0.0
 10
84.75150490238387
 20
-142.4684392841655
 30
0.0
 10
84.80696156763571
 20
-142.4684392841655
 30
0.0
 10
84.86210073289598
 20
-142.4684392841655
 30
0.0
 10
84.90686823175355
 20
-142.4240245619543
 30
0.0
 10
84.90686823175355
 20
-142.3685326175238
 30
0.0
  0
SPLINE
  5
DE
330
A7
100
AcDbEntity
  8
レイヤー 1
 62
    18
420
        0
370
     9
100
AcDbSpline
210
0.0
220
0.0
230
1.0
 70
     9
 71
     3
 72
    17
 73
    13
 74
     0
 42
0.0000000001
 43
0.0000000001
 40
0.0
 40
0.0
 40
0.0
 40
0.0
 40
1.0
 40
1.0
 40
1.0
 40
2.0
 40
2.0
 40
2.0
 40
3.0
 40
3.0
 40
3.0
 40
4.0
 40
4.0
 40
4.0
 40
4.0
 10
80.90675638936046
 20
-147.1307151163333
 30
0.0
 10
80.90675638936046
 20
-147.0755759496805
 30
0.0
 10
80.86198889050256
 20
-147.0308084496917
 30
0.0
 10
80.80653222525072
 20
-147.0308084496917
 30
0.0
 10
80.75139305999078
 20
-147.0308084496917
 30
0.0
 10
80.70662556113289
 20
-147.0755759496805
 30
0.0
 10
80.70662556113289
 20
-147.1307151163333
 30
0.0
 10
80.70662556113289
 20
-147.1858190052085
 30
0.0
 10
80.75139305999078
 20
-147.2306217829749
 30
0.0
 10
80.80653222525072
 20
-147.2306217829749
 30
0.0
 10
80.86198889050256
 20
-147.2306217829749
 30
0.0
 10
80.90675638936046
 20
-147.1858190052085
 30
0.0
 10
80.90675638936046
 20
-147.1307151163333
 30
0.0
  0
SPLINE
  5
DF
330
A7
100
AcDbEntity
  8
レイヤー 1
 62
    18
420
        0
370
     9
100
AcDbSpline
210
0.0
220
0.0
230
1.0
 70
     9
 71
     3
 72
    17
 73
    13
 74
     0
 42
0.0000000001
 43
0.0000000001
 40
0.0
 40
0.0
 40
0.0
 40
0.0
 40
1.0
 40
1.0
 40
1.0
 40
2.0
 40
2.0
 40
2.0
 40
3.0
 40
3.0
 40
3.0
 40
4.0
 40
4.0
 40
4.0
 40
4.0
 10
80.90675638936046
 20
-147.6309187273195
 30
0.0
 10
80.90675638936046
 20
-147.5758148384442
 30
0.0
 10
80.86198889050256
 20
-147.5310120606778
 30
0.0
 10
80.80653222525072
 20
-147.5310120606778
 30
0.0
 10
80.75139305999078
 20
-147.5310120606778
 30
0.0
 10
80.70662556113289
 20
-147.5758148384442
 30
0.0
 10
80.70662556113289
 20
-147.6309187273195
 30
0.0
 10
80.70662556113289
 20
-147.6860578939722
 30
0.0
 10
80.75139305999078
 20
-147.7308253939611
 30
0.0
 10
80.80653222525072
 20
-147.7308253939611
 30
0.0
 10
80.86198889050256
 20
-147.7308253939611
 30
0.0
 10
80.90675638936046
 20
-147.6860578939722
 30
0.0
 10
80.90675638936046
 20
-147.6309187273195
 30
0.0
  0
SPLINE
  5
E0
330
A7
100
AcDbEntity
  8
レイヤー 1
 62
    18
420
        0
370
     9
100
AcDbSpline
210
0.0
220
0.0
230
1.0
 70
     9
 71
     3
 72
    17
 73
    13
 74
     0
 42
0.0000000001
 43
0.0000000001
 40
0.0
 40
0.0
 40
0.0
 40
0.0
 40
1.0
 40
1.0
 40
1.0
 40
2.0
 40
2.0
 40
2.0
 40
3.0
 40
3.0
 40
3.0
 40
4.0
 40
4.0
 40
4.0
 40
4.0
 10
80.90675638936046
 20
-152.6299209482916
 30
0.0
 10
80.90675638936046
 20
-152.5748170594167
 30
0.0
 10
80.86198889050256
 20
-152.53001428165
 30
0.0
 10
80.80653222525072
 20
-152.53001428165
 30
0.0
 10
80.75139305999078
 20
-152.53001428165
 30
0.0
 10
80.70662556113289
 20
-152.5748170594167
 30
0.0
 10
80.70662556113289
 20
-152.6299209482916
 30
0.0
 10
80.70662556113289
 20
-152.6850601149447
 30
0.0
 10
80.75139305999078
 20
-152.7298276149339
 30
0.0
 10
80.80653222525072
 20
-152.7298276149339
 30
0.0
 10
80.86198889050256
 20
-152.7298276149339
 30
0.0
 10
80.90675638936046
 20
-152.6850601149447
 30
0.0
 10
80.90675638936046
 20
-152.6299209482916
 30
0.0
  0
CIRCLE
  5
E1
330
A7
100
AcDbEntity
  8
レイヤー 1
 62
    18
420
        0
370
     9
100
AcDbCircle
 10
108.8056570664891
 20
-142.3685326175238
 30
0.0
 40
0.0999066653797365
  0
SPLINE
  5
E2
330
A7
100
AcDbEntity
  8
レイヤー 1
 62
    18
420
        0
370
     9
100
AcDbSpline
210
0.0
220
0.0
230
1.0
 70
     9
 71
     3
 72
    17
 73
    13
 74
     0
 42
0.0000000001
 43
0.0000000001
 40
0.0
 40
0.0
 40
0.0
 40
0.0
 40
1.0
 40
1.0
 40
1.0
 40
2.0
 40
2.0
 40
2.0
 40
3.0
 40
3.0
 40
3.0
 40
4.0
 40
4.0
 40
4.0
 40
4.0
 10
105.908328529295
 20
-142.3685326175238
 30
0.0
 10
105.908328529295
 20
-142.3134287286486
 30
0.0
 10
105.8635610304371
 20
-142.2686259508822
 30
0.0
 10
105.8084218651771
 20
-142.2686259508822
 30
0.0
 10
105.7526124221565
 20
-142.2686259508822
 30
0.0
 10
105.7078449232986
 20
-142.3134287286486
 30
0.0
 10
105.7078449232986
 20
-142.3685326175238
 30
0.0
 10
105.7078449232986
 20
-142.4240245619543
 30
0.0
 10
105.7526124221565
 20
-142.4684392841655
 30
0.0
 10
105.8084218651771
 20
-142.4684392841655
 30
0.0
 10
105.8635610304371
 20
-142.4684392841655
 30
0.0
 10
105.908328529295
 20
-142.4240245619543
 30
0.0
 10
105.908328529295
 20
-142.3685326175238
 30
0.0
  0
LINE
  5
E3
330
A7
100
AcDbEntity
  8
レイヤー 1
 62
    18
420
        0
370
     9
100
AcDbLine
 10
105.8084218651771
 20
-142.3685326175238
 30
0.0
 11
108.8056570664891
 21
-142.3685326175238
 31
0.0
  0
LINE
  5
E4
330
A7
100
AcDbEntity
  8
レイヤー 1
 62
    18
420
        0
370
     9
100
AcDbLine
 10
105.8084218651771
 20
-143.8285740060479
 30
0.0
 11
105.8084218651771
 21
-141.3687956733294
 31
0.0
  0
LINE
  5
E5
330
A7
100
AcDbEntity
  8
レイヤー 1
 62
    18
420
        0
370
     9
100
AcDbLine
 10
108.8056570664891
 20
-143.8285740060479
 30
0.0
 11
108.8056570664891
 21
-141.3687956733294
 31
0.0
  0
INSERT
  5
E7
330
A7
100
AcDbEntity
  8
レイヤー 1
100
AcDbBlockReference
  2
Block_4
 10
0.0
 20
0.0
 30
0.0
  0
INSERT
  5
ED
330
A7
100
AcDbEntity
  8
レイヤー 1
100
AcDbBlockReference
  2
Block_5
 10
0.0
 20
0.0
 30
0.0
  0
LINE
  5
103
330
A7
100
AcDbEntity
  8
レイヤー 1
 62
    18
420
        0
370
     9
100
AcDbLine
 10
80.80653222525072
 20
-147.1307151163333
 30
0.0
 11
80.80653222525072
 21
-141.8731267843143
 31
0.0
  0
LINE
  5
104
330
A7
100
AcDbEntity
  8
レイヤー 1
 62
    18
420
        0
370
     9
100
AcDbLine
 10
80.80653222525072
 20
-147.1307151163333
 30
0.0
 11
80.80653222525072
 21
-147.6309187273195
 31
0.0
  0
LINE
  5
105
330
A7
100
AcDbEntity
  8
レイヤー 1
 62
    18
420
        0
370
     9
100
AcDbLine
 10
82.26653829911397
 20
-147.1307151163333
 30
0.0
 11
79.80676002853481
 21
-147.1307151163333
 31
0.0
  0
LINE
  5
106
330
A7
100
AcDbEntity
  8
レイヤー 1
 62
    18
420
        0
370
     9
100
AcDbLine
 10
82.26653829911397
 20
-147.6309187273195
 30
0.0
 11
79.80676002853481
 21
-147.6309187273195
 31
0.0
  0
INSERT
  5
108
330
A7
100
AcDbEntity
  8
レイヤー 1
100
AcDbBlockReference
  2
Block_8
 10
0.0
 20
0.0
 30
0.0
  0
LINE
  5
116
330
A7
100
AcDbEntity
  8
レイヤー 1
 62
    18
420
        0
370
     9
100
AcDbLine
 10
84.80696156763571
 20
-142.3685326175238
 30
0.0
 11
105.8084218651771
 21
-142.3685326175238
 31
0.0
  0
LINE
  5
117
330
A7
100
AcDbEntity
  8
レイヤー 1
 62
    18
420
        0
370
     9
100
AcDbLine
 10
84.80696156763571
 20
-144.590644561413
 30
0.0
 11
84.80696156763571
 21
-141.3687956733294
 31
0.0
  0
INSERT
  5
119
330
A7
100
AcDbEntity
  8
レイヤー 1
100
AcDbBlockReference
  2
Block_10
 10
0.0
 20
0.0
 30
0.0
  0
LINE
  5
124
330
A7
100
AcDbEntity
  8
レイヤー 1
 62
    18
420
        0
370
     9
100
AcDbLine
 10
80.80653222525072
 20
-147.6309187273195
 30
0.0
 11
80.80653222525072
 21
-152.6309792816249
 31
0.0
  0
LINE
  5
125
330
A7
100
AcDbEntity
  8
レイヤー 1
 62
    18
420
        0
370
     9
100
AcDbLine
 10
101.5163511413436
 20
-152.6309792816249
 30
0.0
 11
79.80676002853481
 21
-152.6309792816249
 31
0.0
  0
INSERT
  5
127
330
A7
100
AcDbEntity
  8
レイヤー 1
100
AcDbBlockReference
  2
Block_12
 10
0.0
 20
0.0
 30
0.0
  0
LINE
  5
12C
330
A7
100
AcDbEntity
  8
レイヤー 1
 62
    18
420
        0
370
     9
100
AcDbLine
 10
107.7576629088642
 20
-149.7069453934671
 30
0.0
 11
115.7571782780299
 21
-149.7069453934671
 31
0.0
  0
INSERT
  5
12E
330
A7
100
AcDbEntity
  8
レイヤー 1
100
AcDbBlockReference
  2
Block_13
 10
0.0
 20
0.0
 30
0.0
  0
ENDBLK
  5
AA
330
A7
100
AcDbEntity
  8
0
100
AcDbBlockEnd
  0
BLOCK
  5
E8
330
E6
100
AcDbEntity
  8
0
100
AcDbBlockBegin
  2
Block_4
 70
     0
 10
0.0
 20
0.0
 30
0.0
  3
Block_4
  1

  0
SPLINE
  5
EA
330
E6
100
AcDbEntity
  8
レイヤー 1
100
AcDbSpline
210
0.0
220
0.0
230
1.0
 70
     9
 71
     3
 72
    62
 73
    58
 74
     0
 42
0.0000000001
 43
0.0000000001
 40
0.0
 40
0.0
 40
0.0
 40
0.0
 40
1.0
 40
1.0
 40
1.0
 40
2.0
 40
2.0
 40
2.0
 40
3.0
 40
3.0
 40
3.0
 40
4.0
 40
4.0
 40
4.0
 40
5.0
 40
5.0
 40
5.0
 40
6.0
 40
6.0
 40
6.0
 40
7.0
 40
7.0
 40
7.0
 40
8.0
 40
8.0
 40
8.0
 40
9.0
 40
9.0
 40
9.0
 40
10.0
 40
10.0
 40
10.0
 40
11.0
 40
11.0
 40
11.0
 40
12.0
 40
12.0
 40
12.0
 40
13.0
 40
13.0
 40
13.0
 40
14.0
 40
14.0
 40
14.0
 40
15.0
 40
15.0
 40
15.0
 40
16.0
 40
16.0
 40
16.0
 40
17.0
 40
17.0
 40
17.0
 40
18.0
 40
18.0
 40
18.0
 40
19.0
 40
19.0
 40
19.0
 40
19.0
 10
107.3005994740429
 20
-141.706079066136
 30
0.0
 10
107.2051703291015
 20
-141.706079066136
 30
0.0
 10
106.9874402944337
 20
-141.6848917289017
 30
0.0
 10
106.8623833283191
 20
-141.4986843179239
 30
0.0
 10
106.7883137753862
 20
-141.386546459879
 30
0.0
 10
106.7841796608039
 20
-141.2871554551296
 30
0.0
 10
106.7800455462216
 20
-141.2025783609667
 30
0.0
 10
106.7800455462216
 20
-141.2025783609667
 30
0.0
 10
107.0001871477291
 20
-141.2025783609667
 30
0.0
 10
107.0001871477291
 20
-141.2025783609667
 30
0.0
 10
107.0022542050202
 20
-141.2766479138996
 30
0.0
 10
107.012589491476
 20
-141.5114311712193
 30
0.0
 10
107.2961208499121
 20
-141.5114311712193
 30
0.0
 10
107.4335801597735
 20
-141.5114311712193
 30
0.0
 10
107.5861978897701
 20
-141.441667987643
 30
0.0
 10
107.5861978897701
 20
-141.2130859021967
 30
0.0
 10
107.5861978897701
 20
-141.0968139295695
 30
0.0
 10
107.5479573298838
 20
-141.0480658284533
 30
0.0
 10
107.5162624514195
 20
-141.0163709499889
 30
0.0
 10
107.4421928984867
 20
-140.9423013970561
 30
0.0
 10
107.3257486710852
 20
-140.9297267985349
 30
0.0
 10
107.2709716528697
 20
-140.9297267985349
 30
0.0
 10
107.2516791181523
 20
-140.9297267985349
 30
0.0
 10
107.2158501251057
 20
-140.9317938558261
 30
0.0
 10
107.1882893612237
 20
-140.9359279704084
 30
0.0
 10
107.1882893612237
 20
-140.9359279704084
 30
0.0
 10
107.1882893612237
 20
-140.741452330266
 30
0.0
 10
107.1882893612237
 20
-140.741452330266
 30
0.0
 10
107.22652992111
 20
-140.7476535021395
 30
0.0
 10
107.2685600860301
 20
-140.7498928142049
 30
0.0
 10
107.275105767452
 20
-140.7498928142049
 30
0.0
 10
107.3405625816718
 20
-140.7498928142049
 30
0.0
 10
107.5393445911707
 20
-140.7287054769706
 30
0.0
 10
107.5393445911707
 20
-140.4916829075854
 30
0.0
 10
107.5393445911707
 20
-140.3140882353208
 30
0.0
 10
107.4084309627312
 20
-140.2589667075568
 30
0.0
 10
107.2981879072032
 20
-140.2589667075568
 30
0.0
 10
107.0339490834846
 20
-140.2589667075568
 30
0.0
 10
107.0253363447714
 20
-140.4916829075854
 30
0.0
 10
107.0212022301891
 20
-140.5636854032271
 30
0.0
 10
107.0212022301891
 20
-140.5636854032271
 30
0.0
 10
106.8179415965594
 20
-140.5636854032271
 30
0.0
 10
106.8179415965594
 20
-140.5636854032271
 30
0.0
 10
106.8265543352725
 20
-140.4388006918868
 30
0.0
 10
106.8541150991545
 20
-140.062251755349
 30
0.0
 10
107.3109347604986
 20
-140.062251755349
 30
0.0
 10
107.5352104765884
 20
-140.062251755349
 30
0.0
 10
107.7763671605559
 20
-140.1892035239805
 30
0.0
 10
107.7763671605559
 20
-140.4853094809377
 30
0.0
 10
107.7763671605559
 20
-140.6715168919155
 30
0.0
 10
107.681282525163
 20
-140.7540269287872
 30
0.0
 10
107.5817192656393
 20
-140.8153496284246
 30
0.0
 10
107.6430419652767
 20
-140.8429103923066
 30
0.0
 10
107.8249430068979
 20
-140.9233533718872
 30
0.0
 10
107.8249430068979
 20
-141.2005113036755
 30
0.0
 10
107.8249430068979
 20
-141.5389919351014
 30
0.0
 10
107.577585151057
 20
-141.706079066136
 30
0.0
 10
107.3005994740429
 20
-141.706079066136
 30
0.0
  0
HATCH
  5
EB
330
E6
100
AcDbEntity
  8
レイヤー 1
 62
    18
420
        0
440
 33554687
100
AcDbHatch
 10
0.0
 20
0.0
 30
0.0
210
0.0
220
0.0
230
1.0
  2
SOLID
 70
     1
 71
     1
 91
        1
 92
        1
 93
        1
 72
     4
 94
        3
 73
     0
 74
     0
 95
       62
 96
       58
 40
0.0
 40
0.0
 40
0.0
 40
0.0
 40
1.0
 40
1.0
 40
1.0
 40
2.0
 40
2.0
 40
2.0
 40
3.0
 40
3.0
 40
3.0
 40
4.0
 40
4.0
 40
4.0
 40
5.0
 40
5.0
 40
5.0
 40
6.0
 40
6.0
 40
6.0
 40
7.0
 40
7.0
 40
7.0
 40
8.0
 40
8.0
 40
8.0
 40
9.0
 40
9.0
 40
9.0
 40
10.0
 40
10.0
 40
10.0
 40
11.0
 40
11.0
 40
11.0
 40
12.0
 40
12.0
 40
12.0
 40
13.0
 40
13.0
 40
13.0
 40
14.0
 40
14.0
 40
14.0
 40
15.0
 40
15.0
 40
15.0
 40
16.0
 40
16.0
 40
16.0
 40
17.0
 40
17.0
 40
17.0
 40
18.0
 40
18.0
 40
18.0
 40
19.0
 40
19.0
 40
19.0
 40
19.0
 10
107.3005994740429
 20
-141.706079066136
 10
107.2051703291015
 20
-141.706079066136
 10
106.9874402944337
 20
-141.6848917289017
 10
106.8623833283191
 20
-141.4986843179239
 10
106.7883137753862
 20
-141.386546459879
 10
106.7841796608039
 20
-141.2871554551296
 10
106.7800455462216
 20
-141.2025783609667
 10
106.7800455462216
 20
-141.2025783609667
 10
107.0001871477291
 20
-141.2025783609667
 10
107.0001871477291
 20
-141.2025783609667
 10
107.0022542050202
 20
-141.2766479138996
 10
107.012589491476
 20
-141.5114311712193
 10
107.2961208499121
 20
-141.5114311712193
 10
107.4335801597735
 20
-141.5114311712193
 10
107.5861978897701
 20
-141.441667987643
 10
107.5861978897701
 20
-141.2130859021967
 10
107.5861978897701
 20
-141.0968139295695
 10
107.5479573298838
 20
-141.0480658284533
 10
107.5162624514195
 20
-141.0163709499889
 10
107.4421928984867
 20
-140.9423013970561
 10
107.3257486710852
 20
-140.9297267985349
 10
107.2709716528697
 20
-140.9297267985349
 10
107.2516791181523
 20
-140.9297267985349
 10
107.2158501251057
 20
-140.9317938558261
 10
107.1882893612237
 20
-140.9359279704084
 10
107.1882893612237
 20
-140.9359279704084
 10
107.1882893612237
 20
-140.741452330266
 10
107.1882893612237
 20
-140.741452330266
 10
107.22652992111
 20
-140.7476535021395
 10
107.2685600860301
 20
-140.7498928142049
 10
107.275105767452
 20
-140.7498928142049
 10
107.3405625816718
 20
-140.7498928142049
 10
107.5393445911707
 20
-140.7287054769706
 10
107.5393445911707
 20
-140.4916829075854
 10
107.5393445911707
 20
-140.3140882353208
 10
107.4084309627312
 20
-140.2589667075568
 10
107.2981879072032
 20
-140.2589667075568
 10
107.0339490834846
 20
-140.2589667075568
 10
107.0253363447714
 20
-140.4916829075854
 10
107.0212022301891
 20
-140.5636854032271
 10
107.0212022301891
 20
-140.5636854032271
 10
106.8179415965594
 20
-140.5636854032271
 10
106.8179415965594
 20
-140.5636854032271
 10
106.8265543352725
 20
-140.4388006918868
 10
106.8541150991545
 20
-140.062251755349
 10
107.3109347604986
 20
-140.062251755349
 10
107.5352104765884
 20
-140.062251755349
 10
107.7763671605559
 20
-140.1892035239805
 10
107.7763671605559
 20
-140.4853094809377
 10
107.7763671605559
 20
-140.6715168919155
 10
107.681282525163
 20
-140.7540269287872
 10
107.5817192656393
 20
-140.8153496284246
 10
107.6430419652767
 20
-140.8429103923066
 10
107.8249430068979
 20
-140.9233533718872
 10
107.8249430068979
 20
-141.2005113036755
 10
107.8249430068979
 20
-141.5389919351014
 10
107.577585151057
 20
-141.706079066136
 10
107.3005994740429
 20
-141.706079066136
 97
        0
 97
        1
330
EA
 75
     2
 76
     1
 98
        1
 10
0.0
 20
0.0
450
        0
451
        0
460
0.0
461
0.0
452
        0
462
0.0
453
        0
470

  0
ENDBLK
  5
E9
330
E6
100
AcDbEntity
  8
0
100
AcDbBlockEnd
  0
BLOCK
  5
EE
330
EC
100
AcDbEntity
  8
0
100
AcDbBlockBegin
  2
Block_5
 70
     0
 10
0.0
 20
0.0
 30
0.0
  3
Block_5
  1

  0
SPLINE
  5
F0
330
EC
100
AcDbEntity
  8
レイヤー 1
 62
    18
420
        0
370
     9
100
AcDbSpline
210
0.0
220
0.0
230
1.0
 70
     9
 71
     3
 72
    17
 73
    13
 74
     0
 42
0.0000000001
 43
0.0000000001
 40
0.0
 40
0.0
 40
0.0
 40
0.0
 40
1.0
 40
1.0
 40
1.0
 40
2.0
 40
2.0
 40
2.0
 40
3.0
 40
3.0
 40
3.0
 40
4.0
 40
4.0
 40
4.0
 40
4.0
 10
104.1568601319865
 20
-156.6307384472918
 30
0.0
 10
104.1568601319865
 20
-156.5755992806387
 30
0.0
 10
104.1120573542198
 20
-156.5308317806501
 30
0.0
 10
104.0569507987498
 20
-156.5308317806501
 30
0.0
 10
104.0018116334898
 20
-156.5308317806501
 30
0.0
 10
103.9568677457475
 20
-156.5755992806387
 30
0.0
 10
103.9568677457475
 20
-156.6307384472918
 30
0.0
 10
103.9568677457475
 20
-156.6858423361667
 30
0.0
 10
104.0018116334898
 20
-156.7306451139334
 30
0.0
 10
104.0569507987498
 20
-156.7306451139334
 30
0.0
 10
104.1120573542198
 20
-156.7306451139334
 30
0.0
 10
104.1568601319865
 20
-156.6858423361667
 30
0.0
 10
104.1568601319865
 20
-156.6307384472918
 30
0.0
  0
CIRCLE
  5
F1
330
EC
100
AcDbEntity
  8
レイヤー 1
 62
    18
420
        0
370
     9
100
AcDbCircle
 10
109.5566856584398
 20
-156.6307384472918
 30
0.0
 40
0.0999066653797365
  0
LINE
  5
F2
330
EC
100
AcDbEntity
  8
レイヤー 1
 62
    18
420
        0
370
     9
100
AcDbLine
 10
109.5566856584398
 20
-156.6307384472918
 30
0.0
 11
104.0569507987498
 21
-156.6307384472918
 31
0.0
  0
LINE
  5
F3
330
EC
100
AcDbEntity
  8
レイヤー 1
 62
    18
420
        0
370
     9
100
AcDbLine
 10
109.5566856584398
 20
-155.1706970587674
 30
0.0
 11
109.5566856584398
 21
-157.6308281692639
 31
0.0
  0
LINE
  5
F4
330
EC
100
AcDbEntity
  8
レイヤー 1
 62
    18
420
        0
370
     9
100
AcDbLine
 10
104.0569507987498
 20
-155.1706970587674
 30
0.0
 11
104.0569507987498
 21
-157.6308281692639
 31
0.0
  0
INSERT
  5
F6
330
EC
100
AcDbEntity
  8
レイヤー 1
100
AcDbBlockReference
  2
Block_6
 10
0.0
 20
0.0
 30
0.0
  0
ENDBLK
  5
EF
330
EC
100
AcDbEntity
  8
0
100
AcDbBlockEnd
  0
BLOCK
  5
F7
330
F5
100
AcDbEntity
  8
0
100
AcDbBlockBegin
  2
Block_6
 70
     0
 10
0.0
 20
0.0
 30
0.0
  3
Block_6
  1

  0
INSERT
  5
FA
330
F5
100
AcDbEntity
  8
レイヤー 1
100
AcDbBlockReference
  2
Block_7
 10
0.0
 20
0.0
 30
0.0
  0
ENDBLK
  5
F8
330
F5
100
AcDbEntity
  8
0
100
AcDbBlockEnd
  0
BLOCK
  5
FB
330
F9
100
AcDbEntity
  8
0
100
AcDbBlockBegin
  2
Block_7
 70
     0
 10
0.0
 20
0.0
 30
0.0
  3
Block_7
  1

  0
SPLINE
  5
FD
330
F9
100
AcDbEntity
  8
レイヤー 1
100
AcDbSpline
210
0.0
220
0.0
230
1.0
 70
     9
 71
     3
 72
    53
 73
    49
 74
     0
 42
0.0000000001
 43
0.0000000001
 40
0.0
 40
0.0
 40
0.0
 40
0.0
 40
1.0
 40
1.0
 40
1.0
 40
2.0
 40
2.0
 40
2.0
 40
3.0
 40
3.0
 40
3.0
 40
4.0
 40
4.0
 40
4.0
 40
5.0
 40
5.0
 40
5.0
 40
6.0
 40
6.0
 40
6.0
 40
7.0
 40
7.0
 40
7.0
 40
8.0
 40
8.0
 40
8.0
 40
9.0
 40
9.0
 40
9.0
 40
10.0
 40
10.0
 40
10.0
 40
11.0
 40
11.0
 40
11.0
 40
12.0
 40
12.0
 40
12.0
 40
13.0
 40
13.0
 40
13.0
 40
14.0
 40
14.0
 40
14.0
 40
15.0
 40
15.0
 40
15.0
 40
16.0
 40
16.0
 40
16.0
 40
16.0
 10
105.9246283372341
 20
-155.9680853559733
 30
0.0
 10
105.8464246697189
 20
-155.9680853559733
 30
0.0
 10
105.7447943529041
 20
-155.9512043880955
 30
0.0
 10
105.6431640360892
 20
-155.8878146311669
 30
0.0
 10
105.4697034784069
 20
-155.7779160851875
 30
0.0
 10
105.4483438863983
 20
-155.6466579471994
 30
0.0
 10
105.4293958612294
 20
-155.5388264585111
 30
0.0
 10
105.4293958612294
 20
-155.5388264585111
 30
0.0
 10
105.6517767748023
 20
-155.5388264585111
 30
0.0
 10
105.6517767748023
 20
-155.5388264585111
 30
0.0
 10
105.7065537930178
 20
-155.73760846801
 30
0.0
 10
105.8336778164235
 20
-155.7672362891832
 30
0.0
 10
105.9266953945253
 20
-155.7672362891832
 30
0.0
 10
106.0662217616779
 20
-155.7672362891832
 30
0.0
 10
106.2184949821259
 20
-155.6676730296595
 30
0.0
 10
106.2184949821259
 20
-155.4351290844051
 30
0.0
 10
106.2184949821259
 20
-155.179158489851
 30
0.0
 10
106.0386609977959
 20
-155.1092230515005
 30
0.0
 10
105.9180826558121
 20
-155.1092230515005
 30
0.0
 10
105.8863877773478
 20
-155.1092230515005
 30
0.0
 10
105.7447943529041
 20
-155.1092230515005
 30
0.0
 10
105.6559108893846
 20
-155.2384141321973
 30
0.0
 10
105.6559108893846
 20
-155.2384141321973
 30
0.0
 10
105.4800387648626
 20
-155.2194661070284
 30
0.0
 10
105.4800387648626
 20
-155.2194661070284
 30
0.0
 10
105.4800387648626
 20
-155.2194661070284
 30
0.0
 10
105.6007893616206
 20
-154.3730061463026
 30
0.0
 10
105.6007893616206
 20
-154.3730061463026
 30
0.0
 10
105.6007893616206
 20
-154.3730061463026
 30
0.0
 10
106.3793809412871
 20
-154.3730061463026
 30
0.0
 10
106.3793809412871
 20
-154.3730061463026
 30
0.0
 10
106.3793809412871
 20
-154.3730061463026
 30
0.0
 10
106.3793809412871
 20
-154.5676540412192
 30
0.0
 10
106.3793809412871
 20
-154.5676540412192
 30
0.0
 10
106.3793809412871
 20
-154.5676540412192
 30
0.0
 10
105.7637423780729
 20
-154.5676540412192
 30
0.0
 10
105.7637423780729
 20
-154.5676540412192
 30
0.0
 10
105.7637423780729
 20
-154.5676540412192
 30
0.0
 10
105.6982855638532
 20
-154.9907117668079
 30
0.0
 10
105.6982855638532
 20
-154.9907117668079
 30
0.0
 10
105.7596082634906
 20
-154.9569498310524
 30
0.0
 10
105.8419460455881
 20
-154.916642213875
 30
0.0
 10
105.9604573302807
 20
-154.916642213875
 30
0.0
 10
106.2143608675436
 20
-154.916642213875
 30
0.0
 10
106.4513834369288
 20
-155.103021879627
 30
0.0
 10
106.4513834369288
 20
-155.4161810592362
 30
0.0
 10
106.4513834369288
 20
-155.7334743534277
 30
0.0
 10
106.227107720839
 20
-155.9680853559733
 30
0.0
 10
105.9246283372341
 20
-155.9680853559733
 30
0.0
  0
HATCH
  5
FE
330
F9
100
AcDbEntity
  8
レイヤー 1
 62
    18
420
        0
440
 33554687
100
AcDbHatch
 10
0.0
 20
0.0
 30
0.0
210
0.0
220
0.0
230
1.0
  2
SOLID
 70
     1
 71
     1
 91
        1
 92
        1
 93
        1
 72
     4
 94
        3
 73
     0
 74
     0
 95
       53
 96
       49
 40
0.0
 40
0.0
 40
0.0
 40
0.0
 40
1.0
 40
1.0
 40
1.0
 40
2.0
 40
2.0
 40
2.0
 40
3.0
 40
3.0
 40
3.0
 40
4.0
 40
4.0
 40
4.0
 40
5.0
 40
5.0
 40
5.0
 40
6.0
 40
6.0
 40
6.0
 40
7.0
 40
7.0
 40
7.0
 40
8.0
 40
8.0
 40
8.0
 40
9.0
 40
9.0
 40
9.0
 40
10.0
 40
10.0
 40
10.0
 40
11.0
 40
11.0
 40
11.0
 40
12.0
 40
12.0
 40
12.0
 40
13.0
 40
13.0
 40
13.0
 40
14.0
 40
14.0
 40
14.0
 40
15.0
 40
15.0
 40
15.0
 40
16.0
 40
16.0
 40
16.0
 40
16.0
 10
105.9246283372341
 20
-155.9680853559733
 10
105.8464246697189
 20
-155.9680853559733
 10
105.7447943529041
 20
-155.9512043880955
 10
105.6431640360892
 20
-155.8878146311669
 10
105.4697034784069
 20
-155.7779160851875
 10
105.4483438863983
 20
-155.6466579471994
 10
105.4293958612294
 20
-155.5388264585111
 10
105.4293958612294
 20
-155.5388264585111
 10
105.6517767748023
 20
-155.5388264585111
 10
105.6517767748023
 20
-155.5388264585111
 10
105.7065537930178
 20
-155.73760846801
 10
105.8336778164235
 20
-155.7672362891832
 10
105.9266953945253
 20
-155.7672362891832
 10
106.0662217616779
 20
-155.7672362891832
 10
106.2184949821259
 20
-155.6676730296595
 10
106.2184949821259
 20
-155.4351290844051
 10
106.2184949821259
 20
-155.179158489851
 10
106.0386609977959
 20
-155.1092230515005
 10
105.9180826558121
 20
-155.1092230515005
 10
105.8863877773478
 20
-155.1092230515005
 10
105.7447943529041
 20
-155.1092230515005
 10
105.6559108893846
 20
-155.2384141321973
 10
105.6559108893846
 20
-155.2384141321973
 10
105.4800387648626
 20
-155.2194661070284
 10
105.4800387648626
 20
-155.2194661070284
 10
105.4800387648626
 20
-155.2194661070284
 10
105.6007893616206
 20
-154.3730061463026
 10
105.6007893616206
 20
-154.3730061463026
 10
105.6007893616206
 20
-154.3730061463026
 10
106.3793809412871
 20
-154.3730061463026
 10
106.3793809412871
 20
-154.3730061463026
 10
106.3793809412871
 20
-154.3730061463026
 10
106.3793809412871
 20
-154.5676540412192
 10
106.3793809412871
 20
-154.5676540412192
 10
106.3793809412871
 20
-154.5676540412192
 10
105.7637423780729
 20
-154.5676540412192
 10
105.7637423780729
 20
-154.5676540412192
 10
105.7637423780729
 20
-154.5676540412192
 10
105.6982855638532
 20
-154.9907117668079
 10
105.6982855638532
 20
-154.9907117668079
 10
105.7596082634906
 20
-154.9569498310524
 10
105.8419460455881
 20
-154.916642213875
 10
105.9604573302807
 20
-154.916642213875
 10
106.2143608675436
 20
-154.916642213875
 10
106.4513834369288
 20
-155.103021879627
 10
106.4513834369288
 20
-155.4161810592362
 10
106.4513834369288
 20
-155.7334743534277
 10
106.227107720839
 20
-155.9680853559733
 10
105.9246283372341
 20
-155.9680853559733
 97
        0
 97
        1
330
FD
 75
     2
 76
     1
 98
        1
 10
0.0
 20
0.0
450
        0
451
        0
460
0.0
461
0.0
452
        0
462
0.0
453
        0
470

  0
SPLINE
  5
FF
330
F9
100
AcDbEntity
  8
レイヤー 1
100
AcDbSpline
210
0.0
220
0.0
230
1.0
 70
    11
 71
     3
 72
    17
 73
    13
 74
     0
 42
0.0000000001
 43
0.0000000001
 40
0.0
 40
0.0
 40
0.0
 40
0.0
 40
1.0
 40
1.0
 40
1.0
 40
2.0
 40
2.0
 40
2.0
 40
3.0
 40
3.0
 40
3.0
 40
4.0
 40
4.0
 40
4.0
 40
4.0
 10
106.6804822866979
 20
-155.9174424523401
 30
0.0
 10
106.6804822866979
 20
-155.9174424523401
 30
0.0
 10
106.6804822866979
 20
-155.6656059723683
 30
0.0
 10
106.6804822866979
 20
-155.6656059723683
 30
0.0
 10
106.6804822866979
 20
-155.6656059723683
 30
0.0
 10
106.9323187666697
 20
-155.6656059723683
 30
0.0
 10
106.9323187666697
 20
-155.6656059723683
 30
0.0
 10
106.9323187666697
 20
-155.6656059723683
 30
0.0
 10
106.9323187666697
 20
-155.9174424523401
 30
0.0
 10
106.9323187666697
 20
-155.9174424523401
 30
0.0
 10
106.9323187666697
 20
-155.9174424523401
 30
0.0
 10
106.6804822866979
 20
-155.9174424523401
 30
0.0
 10
106.6804822866979
 20
-155.9174424523401
 30
0.0
  0
HATCH
  5
100
330
F9
100
AcDbEntity
  8
レイヤー 1
 62
    18
420
        0
440
 33554687
100
AcDbHatch
 10
0.0
 20
0.0
 30
0.0
210
0.0
220
0.0
230
1.0
  2
SOLID
 70
     1
 71
     1
 91
        1
 92
        1
 93
        1
 72
     4
 94
        3
 73
     0
 74
     0
 95
       17
 96
       13
 40
0.0
 40
0.0
 40
0.0
 40
0.0
 40
1.0
 40
1.0
 40
1.0
 40
2.0
 40
2.0
 40
2.0
 40
3.0
 40
3.0
 40
3.0
 40
4.0
 40
4.0
 40
4.0
 40
4.0
 10
106.6804822866979
 20
-155.9174424523401
 10
106.6804822866979
 20
-155.9174424523401
 10
106.6804822866979
 20
-155.6656059723683
 10
106.6804822866979
 20
-155.6656059723683
 10
106.6804822866979
 20
-155.6656059723683
 10
106.9323187666697
 20
-155.6656059723683
 10
106.9323187666697
 20
-155.6656059723683
 10
106.9323187666697
 20
-155.6656059723683
 10
106.9323187666697
 20
-155.9174424523401
 10
106.9323187666697
 20
-155.9174424523401
 10
106.9323187666697
 20
-155.9174424523401
 10
106.6804822866979
 20
-155.9174424523401
 10
106.6804822866979
 20
-155.9174424523401
 97
        0
 97
        1
330
FF
 75
     2
 76
     1
 98
        1
 10
0.0
 20
0.0
450
        0
451
        0
460
0.0
461
0.0
452
        0
462
0.0
453
        0
470

  0
SPLINE
  5
101
330
F9
100
AcDbEntity
  8
レイヤー 1
100
AcDbSpline
210
0.0
220
0.0
230
1.0
 70
     9
 71
     3
 72
    53
 73
    49
 74
     0
 42
0.0000000001
 43
0.0000000001
 40
0.0
 40
0.0
 40
0.0
 40
0.0
 40
1.0
 40
1.0
 40
1.0
 40
2.0
 40
2.0
 40
2.0
 40
3.0
 40
3.0
 40
3.0
 40
4.0
 40
4.0
 40
4.0
 40
5.0
 40
5.0
 40
5.0
 40
6.0
 40
6.0
 40
6.0
 40
7.0
 40
7.0
 40
7.0
 40
8.0
 40
8.0
 40
8.0
 40
9.0
 40
9.0
 40
9.0
 40
10.0
 40
10.0
 40
10.0
 40
11.0
 40
11.0
 40
11.0
 40
12.0
 40
12.0
 40
12.0
 40
13.0
 40
13.0
 40
13.0
 40
14.0
 40
14.0
 40
14.0
 40
15.0
 40
15.0
 40
15.0
 40
16.0
 40
16.0
 40
16.0
 40
16.0
 10
107.6495876466987
 20
-155.9680853559733
 30
0.0
 10
107.5713839791835
 20
-155.9680853559733
 30
0.0
 10
107.4697536623687
 20
-155.9512043880955
 30
0.0
 10
107.3681233455538
 20
-155.8878146311669
 30
0.0
 10
107.1948350426457
 20
-155.7779160851875
 30
0.0
 10
107.1734754506372
 20
-155.6466579471994
 30
0.0
 10
107.1545274254683
 20
-155.5388264585111
 30
0.0
 10
107.1545274254683
 20
-155.5388264585111
 30
0.0
 10
107.3767360842669
 20
-155.5388264585111
 30
0.0
 10
107.3767360842669
 20
-155.5388264585111
 30
0.0
 10
107.4315131024824
 20
-155.73760846801
 30
0.0
 10
107.5586371258881
 20
-155.7672362891832
 30
0.0
 10
107.6516547039898
 20
-155.7672362891832
 30
0.0
 10
107.7911810711425
 20
-155.7672362891832
 30
0.0
 10
107.9434542915905
 20
-155.6676730296595
 30
0.0
 10
107.9434542915905
 20
-155.4351290844051
 30
0.0
 10
107.9434542915905
 20
-155.179158489851
 30
0.0
 10
107.7636203072605
 20
-155.1092230515005
 30
0.0
 10
107.6430419652767
 20
-155.1092230515005
 30
0.0
 10
107.6113470868124
 20
-155.1092230515005
 30
0.0
 10
107.4697536623687
 20
-155.1092230515005
 30
0.0
 10
107.3808701988492
 20
-155.2384141321973
 30
0.0
 10
107.3808701988492
 20
-155.2384141321973
 30
0.0
 10
107.2051703291015
 20
-155.2194661070284
 30
0.0
 10
107.2051703291015
 20
-155.2194661070284
 30
0.0
 10
107.2051703291015
 20
-155.2194661070284
 30
0.0
 10
107.3257486710852
 20
-154.3730061463026
 30
0.0
 10
107.3257486710852
 20
-154.3730061463026
 30
0.0
 10
107.3257486710852
 20
-154.3730061463026
 30
0.0
 10
108.1043402507517
 20
-154.3730061463026
 30
0.0
 10
108.1043402507517
 20
-154.3730061463026
 30
0.0
 10
108.1043402507517
 20
-154.3730061463026
 30
0.0
 10
108.1043402507517
 20
-154.5676540412192
 30
0.0
 10
108.1043402507517
 20
-154.5676540412192
 30
0.0
 10
108.1043402507517
 20
-154.5676540412192
 30
0.0
 10
107.4887016875375
 20
-154.5676540412192
 30
0.0
 10
107.4887016875375
 20
-154.5676540412192
 30
0.0
 10
107.4887016875375
 20
-154.5676540412192
 30
0.0
 10
107.4232448733178
 20
-154.9907117668079
 30
0.0
 10
107.4232448733178
 20
-154.9907117668079
 30
0.0
 10
107.4845675729552
 20
-154.9569498310524
 30
0.0
 10
107.5669053550527
 20
-154.916642213875
 30
0.0
 10
107.6854166397453
 20
-154.916642213875
 30
0.0
 10
107.9393201770082
 20
-154.916642213875
 30
0.0
 10
108.1763427463934
 20
-155.103021879627
 30
0.0
 10
108.1763427463934
 20
-155.4161810592362
 30
0.0
 10
108.1763427463934
 20
-155.7334743534277
 30
0.0
 10
107.9520670303036
 20
-155.9680853559733
 30
0.0
 10
107.6495876466987
 20
-155.9680853559733
 30
0.0
  0
HATCH
  5
102
330
F9
100
AcDbEntity
  8
レイヤー 1
 62
    18
420
        0
440
 33554687
100
AcDbHatch
 10
0.0
 20
0.0
 30
0.0
210
0.0
220
0.0
230
1.0
  2
SOLID
 70
     1
 71
     1
 91
        1
 92
        1
 93
        1
 72
     4
 94
        3
 73
     0
 74
     0
 95
       53
 96
       49
 40
0.0
 40
0.0
 40
0.0
 40
0.0
 40
1.0
 40
1.0
 40
1.0
 40
2.0
 40
2.0
 40
2.0
 40
3.0
 40
3.0
 40
3.0
 40
4.0
 40
4.0
 40
4.0
 40
5.0
 40
5.0
 40
5.0
 40
6.0
 40
6.0
 40
6.0
 40
7.0
 40
7.0
 40
7.0
 40
8.0
 40
8.0
 40
8.0
 40
9.0
 40
9.0
 40
9.0
 40
10.0
 40
10.0
 40
10.0
 40
11.0
 40
11.0
 40
11.0
 40
12.0
 40
12.0
 40
12.0
 40
13.0
 40
13.0
 40
13.0
 40
14.0
 40
14.0
 40
14.0
 40
15.0
 40
15.0
 40
15.0
 40
16.0
 40
16.0
 40
16.0
 40
16.0
 10
107.6495876466987
 20
-155.9680853559733
 10
107.5713839791835
 20
-155.9680853559733
 10
107.4697536623687
 20
-155.9512043880955
 10
107.3681233455538
 20
-155.8878146311669
 10
107.1948350426457
 20
-155.7779160851875
 10
107.1734754506372
 20
-155.6466579471994
 10
107.1545274254683
 20
-155.5388264585111
 10
107.1545274254683
 20
-155.5388264585111
 10
107.3767360842669
 20
-155.5388264585111
 10
107.3767360842669
 20
-155.5388264585111
 10
107.4315131024824
 20
-155.73760846801
 10
107.5586371258881
 20
-155.7672362891832
 10
107.6516547039898
 20
-155.7672362891832
 10
107.7911810711425
 20
-155.7672362891832
 10
107.9434542915905
 20
-155.6676730296595
 10
107.9434542915905
 20
-155.4351290844051
 10
107.9434542915905
 20
-155.179158489851
 10
107.7636203072605
 20
-155.1092230515005
 10
107.6430419652767
 20
-155.1092230515005
 10
107.6113470868124
 20
-155.1092230515005
 10
107.4697536623687
 20
-155.1092230515005
 10
107.3808701988492
 20
-155.2384141321973
 10
107.3808701988492
 20
-155.2384141321973
 10
107.2051703291015
 20
-155.2194661070284
 10
107.2051703291015
 20
-155.2194661070284
 10
107.2051703291015
 20
-155.2194661070284
 10
107.3257486710852
 20
-154.3730061463026
 10
107.3257486710852
 20
-154.3730061463026
 10
107.3257486710852
 20
-154.3730061463026
 10
108.1043402507517
 20
-154.3730061463026
 10
108.1043402507517
 20
-154.3730061463026
 10
108.1043402507517
 20
-154.3730061463026
 10
108.1043402507517
 20
-154.5676540412192
 10
108.1043402507517
 20
-154.5676540412192
 10
108.1043402507517
 20
-154.5676540412192
 10
107.4887016875375
 20
-154.5676540412192
 10
107.4887016875375
 20
-154.5676540412192
 10
107.4887016875375
 20
-154.5676540412192
 10
107.4232448733178
 20
-154.9907117668079
 10
107.4232448733178
 20
-154.9907117668079
 10
107.4845675729552
 20
-154.9569498310524
 10
107.5669053550527
 20
-154.916642213875
 10
107.6854166397453
 20
-154.916642213875
 10
107.9393201770082
 20
-154.916642213875
 10
108.1763427463934
 20
-155.103021879627
 10
108.1763427463934
 20
-155.4161810592362
 10
108.1763427463934
 20
-155.7334743534277
 10
107.9520670303036
 20
-155.9680853559733
 10
107.6495876466987
 20
-155.9680853559733
 97
        0
 97
        1
330
101
 75
     2
 76
     1
 98
        1
 10
0.0
 20
0.0
450
        0
451
        0
460
0.0
461
0.0
452
        0
462
0.0
453
        0
470

  0
ENDBLK
  5
FC
330
F9
100
AcDbEntity
  8
0
100
AcDbBlockEnd
  0
BLOCK
  5
109
330
107
100
AcDbEntity
  8
0
100
AcDbBlockBegin
  2
Block_8
 70
     0
 10
0.0
 20
0.0
 30
0.0
  3
Block_8
  1

  0
INSERT
  5
10C
330
107
100
AcDbEntity
  8
レイヤー 1
100
AcDbBlockReference
  2
Block_9
 10
0.0
 20
0.0
 30
0.0
  0
ENDBLK
  5
10A
330
107
100
AcDbEntity
  8
0
100
AcDbBlockEnd
  0
BLOCK
  5
10D
330
10B
100
AcDbEntity
  8
0
100
AcDbBlockBegin
  2
Block_9
 70
     0
 10
0.0
 20
0.0
 30
0.0
  3
Block_9
  1

  0
SPLINE
  5
10F
330
10B
100
AcDbEntity
  8
レイヤー 1
100
AcDbSpline
210
0.0
220
0.0
230
1.0
 70
     9
 71
     3
 72
    17
 73
    13
 74
     0
 42
0.0000000001
 43
0.0000000001
 40
0.0
 40
0.0
 40
0.0
 40
0.0
 40
1.0
 40
1.0
 40
1.0
 40
2.0
 40
2.0
 40
2.0
 40
3.0
 40
3.0
 40
3.0
 40
4.0
 40
4.0
 40
4.0
 40
4.0
 10
77.96216632165529
 20
-148.2858669334146
 30
0.0
 10
77.96216632165529
 20
-148.5356363560953
 30
0.0
 10
78.24552542531709
 20
-148.5821451451461
 30
0.0
 10
78.59037948339061
 20
-148.5821451451461
 30
0.0
 10
78.90991208964752
 20
-148.5821451451461
 30
0.0
 10
79.21876489990018
 20
-148.545971642551
 30
0.0
 10
79.21876489990018
 20
-148.2858669334146
 30
0.0
 10
79.21876489990018
 20
-148.0383368227994
 30
0.0
 10
78.93730059875526
 20
-147.9895887216831
 30
0.0
 10
78.59037948339061
 20
-147.9895887216831
 30
0.0
 10
78.27101913190794
 20
-147.9895887216831
 30
0.0
 10
77.96216632165529
 20
-148.0278292815694
 30
0.0
 10
77.96216632165529
 20
-148.2858669334146
 30
0.0
  0
SPLINE
  5
110
330
10B
100
AcDbEntity
  8
レイヤー 1
100
AcDbSpline
210
0.0
220
0.0
230
1.0
 70
     9
 71
     3
 72
    29
 73
    25
 74
     0
 42
0.0000000001
 43
0.0000000001
 40
0.0
 40
0.0
 40
0.0
 40
0.0
 40
1.0
 40
1.0
 40
1.0
 40
2.0
 40
2.0
 40
2.0
 40
3.0
 40
3.0
 40
3.0
 40
4.0
 40
4.0
 40
4.0
 40
5.0
 40
5.0
 40
5.0
 40
6.0
 40
6.0
 40
6.0
 40
7.0
 40
7.0
 40
7.0
 40
8.0
 40
8.0
 40
8.0
 40
8.0
 10
79.18483070937046
 20
-147.8881306596425
 30
0.0
 10
79.39429251487365
 20
-147.9959621483309
 30
0.0
 10
79.4134127948168
 20
-148.1694227060132
 30
0.0
 10
79.4134127948168
 20
-148.2858669334146
 30
0.0
 10
79.4134127948168
 20
-148.4467528925758
 30
0.0
 10
79.36690400576591
 20
-148.5883463170195
 30
0.0
 10
79.18483070937046
 20
-148.6834309524125
 30
0.0
 10
78.99035506922811
 20
-148.7871283265185
 30
0.0
 10
78.75333249984293
 20
-148.8064208612359
 30
0.0
 10
78.59037948339061
 20
-148.8064208612359
 30
0.0
 10
78.44654674688142
 20
-148.8064208612359
 30
0.0
 10
78.19488252168392
 20
-148.7891953838096
 30
0.0
 10
77.99592825741074
 20
-148.6834309524125
 30
0.0
 10
77.79283987855527
 20
-148.5755994637241
 30
0.0
 10
77.76958548402983
 20
-148.414713504563
 30
0.0
 10
77.76958548402983
 20
-148.2858669334146
 30
0.0
 10
77.76958548402983
 20
-148.1270480315446
 30
0.0
 10
77.81402721578955
 20
-147.9833875498097
 30
0.0
 10
77.99592825741074
 20
-147.8881306596425
 30
0.0
 10
78.18850909503621
 20
-147.7887396548931
 30
0.0
 10
78.41691892570827
 20
-147.7654852603676
 30
0.0
 10
78.59037948339061
 20
-147.7654852603676
 30
0.0
 10
78.76177298378178
 20
-147.7654852603676
 30
0.0
 10
78.99242212651926
 20
-147.7865003428276
 30
0.0
 10
79.18483070937046
 20
-147.8881306596425
 30
0.0
  0
HATCH
  5
111
330
10B
100
AcDbEntity
  8
レイヤー 1
 62
    18
420
        0
440
 33554687
100
AcDbHatch
 10
0.0
 20
0.0
 30
0.0
210
0.0
220
0.0
230
1.0
  2
SOLID
 70
     1
 71
     1
 91
        2
 92
        1
 93
        1
 72
     4
 94
        3
 73
     0
 74
     0
 95
       17
 96
       13
 40
0.0
 40
0.0
 40
0.0
 40
0.0
 40
1.0
 40
1.0
 40
1.0
 40
2.0
 40
2.0
 40
2.0
 40
3.0
 40
3.0
 40
3.0
 40
4.0
 40
4.0
 40
4.0
 40
4.0
 10
77.96216632165529
 20
-148.2858669334146
 10
77.96216632165529
 20
-148.5356363560953
 10
78.24552542531709
 20
-148.5821451451461
 10
78.59037948339061
 20
-148.5821451451461
 10
78.90991208964752
 20
-148.5821451451461
 10
79.21876489990018
 20
-148.545971642551
 10
79.21876489990018
 20
-148.2858669334146
 10
79.21876489990018
 20
-148.0383368227994
 10
78.93730059875526
 20
-147.9895887216831
 10
78.59037948339061
 20
-147.9895887216831
 10
78.27101913190794
 20
-147.9895887216831
 10
77.96216632165529
 20
-148.0278292815694
 10
77.96216632165529
 20
-148.2858669334146
 97
        0
 97
        1
330
10F
 92
        1
 93
        1
 72
     4
 94
        3
 73
     0
 74
     0
 95
       29
 96
       25
 40
0.0
 40
0.0
 40
0.0
 40
0.0
 40
1.0
 40
1.0
 40
1.0
 40
2.0
 40
2.0
 40
2.0
 40
3.0
 40
3.0
 40
3.0
 40
4.0
 40
4.0
 40
4.0
 40
5.0
 40
5.0
 40
5.0
 40
6.0
 40
6.0
 40
6.0
 40
7.0
 40
7.0
 40
7.0
 40
8.0
 40
8.0
 40
8.0
 40
8.0
 10
79.18483070937046
 20
-147.8881306596425
 10
79.39429251487365
 20
-147.9959621483309
 10
79.4134127948168
 20
-148.1694227060132
 10
79.4134127948168
 20
-148.2858669334146
 10
79.4134127948168
 20
-148.4467528925758
 10
79.36690400576591
 20
-148.5883463170195
 10
79.18483070937046
 20
-148.6834309524125
 10
78.99035506922811
 20
-148.7871283265185
 10
78.75333249984293
 20
-148.8064208612359
 10
78.59037948339061
 20
-148.8064208612359
 10
78.44654674688142
 20
-148.8064208612359
 10
78.19488252168392
 20
-148.7891953838096
 10
77.99592825741074
 20
-148.6834309524125
 10
77.79283987855527
 20
-148.5755994637241
 10
77.76958548402983
 20
-148.414713504563
 10
77.76958548402983
 20
-148.2858669334146
 10
77.76958548402983
 20
-148.1270480315446
 10
77.81402721578955
 20
-147.9833875498097
 10
77.99592825741074
 20
-147.8881306596425
 10
78.18850909503621
 20
-147.7887396548931
 10
78.41691892570827
 20
-147.7654852603676
 10
78.59037948339061
 20
-147.7654852603676
 10
78.76177298378178
 20
-147.7654852603676
 10
78.99242212651926
 20
-147.7865003428276
 10
79.18483070937046
 20
-147.8881306596425
 97
        0
 97
        1
330
110
 75
     2
 76
     1
 98
        1
 10
0.0
 20
0.0
450
        0
451
        0
460
0.0
461
0.0
452
        0
462
0.0
453
        0
470

  0
SPLINE
  5
112
330
10B
100
AcDbEntity
  8
レイヤー 1
100
AcDbSpline
210
0.0
220
0.0
230
1.0
 70
    11
 71
     3
 72
    17
 73
    13
 74
     0
 42
0.0000000001
 43
0.0000000001
 40
0.0
 40
0.0
 40
0.0
 40
0.0
 40
1.0
 40
1.0
 40
1.0
 40
2.0
 40
2.0
 40
2.0
 40
3.0
 40
3.0
 40
3.0
 40
4.0
 40
4.0
 40
4.0
 40
4.0
 10
79.36259763640935
 20
-147.5489610091197
 30
0.0
 10
79.36259763640935
 20
-147.5489610091197
 30
0.0
 10
79.11093341121186
 20
-147.5489610091197
 30
0.0
 10
79.11093341121186
 20
-147.5489610091197
 30
0.0
 10
79.11093341121186
 20
-147.5489610091197
 30
0.0
 10
79.11093341121186
 20
-147.2972967839222
 30
0.0
 10
79.11093341121186
 20
-147.2972967839222
 30
0.0
 10
79.11093341121186
 20
-147.2972967839222
 30
0.0
 10
79.36259763640935
 20
-147.2972967839222
 30
0.0
 10
79.36259763640935
 20
-147.2972967839222
 30
0.0
 10
79.36259763640935
 20
-147.2972967839222
 30
0.0
 10
79.36259763640935
 20
-147.5489610091197
 30
0.0
 10
79.36259763640935
 20
-147.5489610091197
 30
0.0
  0
HATCH
  5
113
330
10B
100
AcDbEntity
  8
レイヤー 1
 62
    18
420
        0
440
 33554687
100
AcDbHatch
 10
0.0
 20
0.0
 30
0.0
210
0.0
220
0.0
230
1.0
  2
SOLID
 70
     1
 71
     1
 91
        1
 92
        1
 93
        1
 72
     4
 94
        3
 73
     0
 74
     0
 95
       17
 96
       13
 40
0.0
 40
0.0
 40
0.0
 40
0.0
 40
1.0
 40
1.0
 40
1.0
 40
2.0
 40
2.0
 40
2.0
 40
3.0
 40
3.0
 40
3.0
 40
4.0
 40
4.0
 40
4.0
 40
4.0
 10
79.36259763640935
 20
-147.5489610091197
 10
79.36259763640935
 20
-147.5489610091197
 10
79.11093341121186
 20
-147.5489610091197
 10
79.11093341121186
 20
-147.5489610091197
 10
79.11093341121186
 20
-147.5489610091197
 10
79.11093341121186
 20
-147.2972967839222
 10
79.11093341121186
 20
-147.2972967839222
 10
79.11093341121186
 20
-147.2972967839222
 10
79.36259763640935
 20
-147.2972967839222
 10
79.36259763640935
 20
-147.2972967839222
 10
79.36259763640935
 20
-147.2972967839222
 10
79.36259763640935
 20
-147.5489610091197
 10
79.36259763640935
 20
-147.5489610091197
 97
        0
 97
        1
330
112
 75
     2
 76
     1
 98
        1
 10
0.0
 20
0.0
450
        0
451
        0
460
0.0
461
0.0
452
        0
462
0.0
453
        0
470

  0
SPLINE
  5
114
330
10B
100
AcDbEntity
  8
レイヤー 1
100
AcDbSpline
210
0.0
220
0.0
230
1.0
 70
     9
 71
     3
 72
    53
 73
    49
 74
     0
 42
0.0000000001
 43
0.0000000001
 40
0.0
 40
0.0
 40
0.0
 40
0.0
 40
1.0
 40
1.0
 40
1.0
 40
2.0
 40
2.0
 40
2.0
 40
3.0
 40
3.0
 40
3.0
 40
4.0
 40
4.0
 40
4.0
 40
5.0
 40
5.0
 40
5.0
 40
6.0
 40
6.0
 40
6.0
 40
7.0
 40
7.0
 40
7.0
 40
8.0
 40
8.0
 40
8.0
 40
9.0
 40
9.0
 40
9.0
 40
10.0
 40
10.0
 40
10.0
 40
11.0
 40
11.0
 40
11.0
 40
12.0
 40
12.0
 40
12.0
 40
13.0
 40
13.0
 40
13.0
 40
14.0
 40
14.0
 40
14.0
 40
15.0
 40
15.0
 40
15.0
 40
16.0
 40
16.0
 40
16.0
 40
16.0
 10
79.4134127948168
 20
-146.5796833943446
 30
0.0
 10
79.4134127948168
 20
-146.6580593166341
 30
0.0
 10
79.39653182693906
 20
-146.7595173786747
 30
0.0
 10
79.33296981523621
 20
-146.8611476954896
 30
0.0
 10
79.22289901448248
 20
-147.0346082531719
 30
0.0
 10
79.09181313126872
 20
-147.0557955904062
 30
0.0
 10
78.9839816425804
 20
-147.074743615575
 30
0.0
 10
78.9839816425804
 20
-147.074743615575
 30
0.0
 10
78.9839816425804
 20
-146.8527072115507
 30
0.0
 10
78.9839816425804
 20
-146.8527072115507
 30
0.0
 10
79.18276365207931
 20
-146.7975856837867
 30
0.0
 10
79.21239147325247
 20
-146.6706339151552
 30
0.0
 10
79.21239147325247
 20
-146.5776163370535
 30
0.0
 10
79.21239147325247
 20
-146.4379177151266
 30
0.0
 10
79.113000468503
 20
-146.2856444946786
 30
0.0
 10
78.88028426847438
 20
-146.2856444946786
 30
0.0
 10
78.62431367392031
 20
-146.2856444946786
 30
0.0
 10
78.554550490344
 20
-146.4654784790086
 30
0.0
 10
78.554550490344
 20
-146.5860568209924
 30
0.0
 10
78.554550490344
 20
-146.6177516994567
 30
0.0
 10
78.554550490344
 20
-146.7595173786747
 30
0.0
 10
78.68356931626661
 20
-146.8484008421941
 30
0.0
 10
78.68356931626661
 20
-146.8484008421941
 30
0.0
 10
78.66444903632348
 20
-147.0239284571676
 30
0.0
 10
78.66444903632348
 20
-147.0239284571676
 30
0.0
 10
78.66444903632348
 20
-147.0239284571676
 30
0.0
 10
77.81833358514612
 20
-146.9033501151839
 30
0.0
 10
77.81833358514612
 20
-146.9033501151839
 30
0.0
 10
77.81833358514612
 20
-146.9033501151839
 30
0.0
 10
77.81833358514612
 20
-146.1249307902917
 30
0.0
 10
77.81833358514612
 20
-146.1249307902917
 30
0.0
 10
77.81833358514612
 20
-146.1249307902917
 30
0.0
 10
78.01298148006273
 20
-146.1249307902917
 30
0.0
 10
78.01298148006273
 20
-146.1249307902917
 30
0.0
 10
78.01298148006273
 20
-146.1249307902917
 30
0.0
 10
78.01298148006273
 20
-146.7405693535058
 30
0.0
 10
78.01298148006273
 20
-146.7405693535058
 30
0.0
 10
78.01298148006273
 20
-146.7405693535058
 30
0.0
 10
78.43603920565141
 20
-146.8060261677256
 30
0.0
 10
78.43603920565141
 20
-146.8060261677256
 30
0.0
 10
78.40210501512171
 20
-146.7447034680881
 30
0.0
 10
78.36196965271854
 20
-146.6621934312164
 30
0.0
 10
78.36196965271854
 20
-146.543854401298
 30
0.0
 10
78.36196965271854
 20
-146.2899508640351
 30
0.0
 10
78.54817706369629
 20
-146.05292829465
 30
0.0
 10
78.86116398853125
 20
-146.05292829465
 30
0.0
 10
79.17862953749701
 20
-146.05292829465
 30
0.0
 10
79.4134127948168
 20
-146.2772040107397
 30
0.0
 10
79.4134127948168
 20
-146.5796833943446
 30
0.0
  0
HATCH
  5
115
330
10B
100
AcDbEntity
  8
レイヤー 1
 62
    18
420
        0
440
 33554687
100
AcDbHatch
 10
0.0
 20
0.0
 30
0.0
210
0.0
220
0.0
230
1.0
  2
SOLID
 70
     1
 71
     1
 91
        1
 92
        1
 93
        1
 72
     4
 94
        3
 73
     0
 74
     0
 95
       53
 96
       49
 40
0.0
 40
0.0
 40
0.0
 40
0.0
 40
1.0
 40
1.0
 40
1.0
 40
2.0
 40
2.0
 40
2.0
 40
3.0
 40
3.0
 40
3.0
 40
4.0
 40
4.0
 40
4.0
 40
5.0
 40
5.0
 40
5.0
 40
6.0
 40
6.0
 40
6.0
 40
7.0
 40
7.0
 40
7.0
 40
8.0
 40
8.0
 40
8.0
 40
9.0
 40
9.0
 40
9.0
 40
10.0
 40
10.0
 40
10.0
 40
11.0
 40
11.0
 40
11.0
 40
12.0
 40
12.0
 40
12.0
 40
13.0
 40
13.0
 40
13.0
 40
14.0
 40
14.0
 40
14.0
 40
15.0
 40
15.0
 40
15.0
 40
16.0
 40
16.0
 40
16.0
 40
16.0
 10
79.4134127948168
 20
-146.5796833943446
 10
79.4134127948168
 20
-146.6580593166341
 10
79.39653182693906
 20
-146.7595173786747
 10
79.33296981523621
 20
-146.8611476954896
 10
79.22289901448248
 20
-147.0346082531719
 10
79.09181313126872
 20
-147.0557955904062
 10
78.9839816425804
 20
-147.074743615575
 10
78.9839816425804
 20
-147.074743615575
 10
78.9839816425804
 20
-146.8527072115507
 10
78.9839816425804
 20
-146.8527072115507
 10
79.18276365207931
 20
-146.7975856837867
 10
79.21239147325247
 20
-146.6706339151552
 10
79.21239147325247
 20
-146.5776163370535
 10
79.21239147325247
 20
-146.4379177151266
 10
79.113000468503
 20
-146.2856444946786
 10
78.88028426847438
 20
-146.2856444946786
 10
78.62431367392031
 20
-146.2856444946786
 10
78.554550490344
 20
-146.4654784790086
 10
78.554550490344
 20
-146.5860568209924
 10
78.554550490344
 20
-146.6177516994567
 10
78.554550490344
 20
-146.7595173786747
 10
78.68356931626661
 20
-146.8484008421941
 10
78.68356931626661
 20
-146.8484008421941
 10
78.66444903632348
 20
-147.0239284571676
 10
78.66444903632348
 20
-147.0239284571676
 10
78.66444903632348
 20
-147.0239284571676
 10
77.81833358514612
 20
-146.9033501151839
 10
77.81833358514612
 20
-146.9033501151839
 10
77.81833358514612
 20
-146.9033501151839
 10
77.81833358514612
 20
-146.1249307902917
 10
77.81833358514612
 20
-146.1249307902917
 10
77.81833358514612
 20
-146.1249307902917
 10
78.01298148006273
 20
-146.1249307902917
 10
78.01298148006273
 20
-146.1249307902917
 10
78.01298148006273
 20
-146.1249307902917
 10
78.01298148006273
 20
-146.7405693535058
 10
78.01298148006273
 20
-146.7405693535058
 10
78.01298148006273
 20
-146.7405693535058
 10
78.43603920565141
 20
-146.8060261677256
 10
78.43603920565141
 20
-146.8060261677256
 10
78.40210501512171
 20
-146.7447034680881
 10
78.36196965271854
 20
-146.6621934312164
 10
78.36196965271854
 20
-146.543854401298
 10
78.36196965271854
 20
-146.2899508640351
 10
78.54817706369629
 20
-146.05292829465
 10
78.86116398853125
 20
-146.05292829465
 10
79.17862953749701
 20
-146.05292829465
 10
79.4134127948168
 20
-146.2772040107397
 10
79.4134127948168
 20
-146.5796833943446
 97
        0
 97
        1
330
114
 75
     2
 76
     1
 98
        1
 10
0.0
 20
0.0
450
        0
451
        0
460
0.0
461
0.0
452
        0
462
0.0
453
        0
470

  0
ENDBLK
  5
10E
330
10B
100
AcDbEntity
  8
0
100
AcDbBlockEnd
  0
BLOCK
  5
11A
330
118
100
AcDbEntity
  8
0
100
AcDbBlockBegin
  2
Block_10
 70
     0
 10
0.0
 20
0.0
 30
0.0
  3
Block_10
  1

  0
INSERT
  5
11D
330
118
100
AcDbEntity
  8
レイヤー 1
100
AcDbBlockReference
  2
Block_11
 10
0.0
 20
0.0
 30
0.0
  0
ENDBLK
  5
11B
330
118
100
AcDbEntity
  8
0
100
AcDbBlockEnd
  0
BLOCK
  5
11E
330
11C
100
AcDbEntity
  8
0
100
AcDbBlockBegin
  2
Block_11
 70
     0
 10
0.0
 20
0.0
 30
0.0
  3
Block_11
  1

  0
SPLINE
  5
120
330
11C
100
AcDbEntity
  8
レイヤー 1
100
AcDbSpline
210
0.0
220
0.0
230
1.0
 70
     9
 71
     3
 72
    44
 73
    40
 74
     0
 42
0.0000000001
 43
0.0000000001
 40
0.0
 40
0.0
 40
0.0
 40
0.0
 40
1.0
 40
1.0
 40
1.0
 40
2.0
 40
2.0
 40
2.0
 40
3.0
 40
3.0
 40
3.0
 40
4.0
 40
4.0
 40
4.0
 40
5.0
 40
5.0
 40
5.0
 40
6.0
 40
6.0
 40
6.0
 40
7.0
 40
7.0
 40
7.0
 40
8.0
 40
8.0
 40
8.0
 40
9.0
 40
9.0
 40
9.0
 40
10.0
 40
10.0
 40
10.0
 40
11.0
 40
11.0
 40
11.0
 40
12.0
 40
12.0
 40
12.0
 40
13.0
 40
13.0
 40
13.0
 40
13.0
 10
94.73547496546544
 20
-141.0730427707213
 30
0.0
 10
94.51774493079765
 20
-141.2316894178171
 30
0.0
 10
94.42472735269591
 20
-141.3057589707499
 30
0.0
 10
94.37580699680536
 20
-141.4495917072591
 30
0.0
 10
94.37580699680536
 20
-141.4495917072591
 30
0.0
 10
95.15439857647182
 20
-141.4495917072591
 30
0.0
 10
95.15439857647182
 20
-141.4495917072591
 30
0.0
 10
95.15439857647182
 20
-141.4495917072591
 30
0.0
 10
95.15439857647182
 20
-141.6547471434057
 30
0.0
 10
95.15439857647182
 20
-141.6547471434057
 30
0.0
 10
95.15439857647182
 20
-141.6547471434057
 30
0.0
 10
94.12638208367326
 20
-141.6547471434057
 30
0.0
 10
94.12638208367326
 20
-141.6547471434057
 30
0.0
 10
94.15807696213757
 20
-141.2971462320368
 30
0.0
 10
94.22353377635731
 20
-141.2189425645216
 30
0.0
 10
94.60869545160823
 20
-140.920597295499
 30
0.0
 10
94.8646660461623
 20
-140.7218152860001
 30
0.0
 10
94.93012286038206
 20
-140.6541191597149
 30
0.0
 10
94.93012286038206
 20
-140.5166598498535
 30
0.0
 10
94.93012286038206
 20
-140.3981485651609
 30
0.0
 10
94.85812036474033
 20
-140.2670626819471
 30
0.0
 10
94.66140541253258
 20
-140.2670626819471
 30
0.0
 10
94.4013007033962
 20
-140.2670626819471
 30
0.0
 10
94.39268796468308
 20
-140.4975395699103
 30
0.0
 10
94.38855385010077
 20
-140.6139837973118
 30
0.0
 10
94.38855385010077
 20
-140.6139837973118
 30
0.0
 10
94.16427813401101
 20
-140.6139837973118
 30
0.0
 10
94.16427813401101
 20
-140.6139837973118
 30
0.0
 10
94.17289087272413
 20
-140.4870320286803
 30
0.0
 10
94.18357066872841
 20
-140.3748941706354
 30
0.0
 10
94.26384139353473
 20
-140.2563828859428
 30
0.0
 10
94.37373993951421
 20
-140.0956691815559
 30
0.0
 10
94.56011960526621
 20
-140.0617349910262
 30
0.0
 10
94.67621932311914
 20
-140.0617349910262
 30
0.0
 10
94.95354950968176
 20
-140.0617349910262
 30
0.0
 10
95.16094425789381
 20
-140.2458753447128
 30
0.0
 10
95.16094425789381
 20
-140.5187269071446
 30
0.0
 10
95.16094425789381
 20
-140.7471367378167
 30
0.0
 10
95.04450003049235
 20
-140.8466999973404
 30
0.0
 10
94.73547496546544
 20
-141.0730427707213
 30
0.0
  0
HATCH
  5
121
330
11C
100
AcDbEntity
  8
レイヤー 1
 62
    18
420
        0
440
 33554687
100
AcDbHatch
 10
0.0
 20
0.0
 30
0.0
210
0.0
220
0.0
230
1.0
  2
SOLID
 70
     1
 71
     1
 91
        1
 92
        1
 93
        1
 72
     4
 94
        3
 73
     0
 74
     0
 95
       44
 96
       40
 40
0.0
 40
0.0
 40
0.0
 40
0.0
 40
1.0
 40
1.0
 40
1.0
 40
2.0
 40
2.0
 40
2.0
 40
3.0
 40
3.0
 40
3.0
 40
4.0
 40
4.0
 40
4.0
 40
5.0
 40
5.0
 40
5.0
 40
6.0
 40
6.0
 40
6.0
 40
7.0
 40
7.0
 40
7.0
 40
8.0
 40
8.0
 40
8.0
 40
9.0
 40
9.0
 40
9.0
 40
10.0
 40
10.0
 40
10.0
 40
11.0
 40
11.0
 40
11.0
 40
12.0
 40
12.0
 40
12.0
 40
13.0
 40
13.0
 40
13.0
 40
13.0
 10
94.73547496546544
 20
-141.0730427707213
 10
94.51774493079765
 20
-141.2316894178171
 10
94.42472735269591
 20
-141.3057589707499
 10
94.37580699680536
 20
-141.4495917072591
 10
94.37580699680536
 20
-141.4495917072591
 10
95.15439857647182
 20
-141.4495917072591
 10
95.15439857647182
 20
-141.4495917072591
 10
95.15439857647182
 20
-141.4495917072591
 10
95.15439857647182
 20
-141.6547471434057
 10
95.15439857647182
 20
-141.6547471434057
 10
95.15439857647182
 20
-141.6547471434057
 10
94.12638208367326
 20
-141.6547471434057
 10
94.12638208367326
 20
-141.6547471434057
 10
94.15807696213757
 20
-141.2971462320368
 10
94.22353377635731
 20
-141.2189425645216
 10
94.60869545160823
 20
-140.920597295499
 10
94.8646660461623
 20
-140.7218152860001
 10
94.93012286038206
 20
-140.6541191597149
 10
94.93012286038206
 20
-140.5166598498535
 10
94.93012286038206
 20
-140.3981485651609
 10
94.85812036474033
 20
-140.2670626819471
 10
94.66140541253258
 20
-140.2670626819471
 10
94.4013007033962
 20
-140.2670626819471
 10
94.39268796468308
 20
-140.4975395699103
 10
94.38855385010077
 20
-140.6139837973118
 10
94.38855385010077
 20
-140.6139837973118
 10
94.16427813401101
 20
-140.6139837973118
 10
94.16427813401101
 20
-140.6139837973118
 10
94.17289087272413
 20
-140.4870320286803
 10
94.18357066872841
 20
-140.3748941706354
 10
94.26384139353473
 20
-140.2563828859428
 10
94.37373993951421
 20
-140.0956691815559
 10
94.56011960526621
 20
-140.0617349910262
 10
94.67621932311914
 20
-140.0617349910262
 10
94.95354950968176
 20
-140.0617349910262
 10
95.16094425789381
 20
-140.2458753447128
 10
95.16094425789381
 20
-140.5187269071446
 10
95.16094425789381
 20
-140.7471367378167
 10
95.04450003049235
 20
-140.8466999973404
 10
94.73547496546544
 20
-141.0730427707213
 97
        0
 97
        1
330
120
 75
     2
 76
     1
 98
        1
 10
0.0
 20
0.0
450
        0
451
        0
460
0.0
461
0.0
452
        0
462
0.0
453
        0
470

  0
SPLINE
  5
122
330
11C
100
AcDbEntity
  8
レイヤー 1
100
AcDbSpline
210
0.0
220
0.0
230
1.0
 70
    11
 71
     3
 72
    26
 73
    22
 74
     0
 42
0.0000000001
 43
0.0000000001
 40
0.0
 40
0.0
 40
0.0
 40
0.0
 40
1.0
 40
1.0
 40
1.0
 40
2.0
 40
2.0
 40
2.0
 40
3.0
 40
3.0
 40
3.0
 40
4.0
 40
4.0
 40
4.0
 40
5.0
 40
5.0
 40
5.0
 40
6.0
 40
6.0
 40
6.0
 40
7.0
 40
7.0
 40
7.0
 40
7.0
 10
95.77072615878302
 20
-141.6547471434057
 30
0.0
 10
95.77072615878302
 20
-141.6547471434057
 30
0.0
 10
95.77072615878302
 20
-140.5504217856089
 30
0.0
 10
95.77072615878302
 20
-140.5504217856089
 30
0.0
 10
95.77072615878302
 20
-140.5504217856089
 30
0.0
 10
95.44068601129607
 20
-140.5504217856089
 30
0.0
 10
95.44068601129607
 20
-140.5504217856089
 30
0.0
 10
95.44068601129607
 20
-140.5504217856089
 30
0.0
 10
95.44068601129607
 20
-140.4024549345174
 30
0.0
 10
95.44068601129607
 20
-140.4024549345174
 30
0.0
 10
95.77279321607417
 20
-140.3876410239309
 30
0.0
 10
95.81930200512504
 20
-140.2246880074785
 30
0.0
 10
95.84892982629819
 20
-140.1104830921425
 30
0.0
 10
95.84892982629819
 20
-140.1104830921425
 30
0.0
 10
95.99500187487278
 20
-140.1104830921425
 30
0.0
 10
95.99500187487278
 20
-140.1104830921425
 30
0.0
 10
95.99500187487278
 20
-140.1104830921425
 30
0.0
 10
95.99500187487278
 20
-141.6547471434057
 30
0.0
 10
95.99500187487278
 20
-141.6547471434057
 30
0.0
 10
95.99500187487278
 20
-141.6547471434057
 30
0.0
 10
95.77072615878302
 20
-141.6547471434057
 30
0.0
 10
95.77072615878302
 20
-141.6547471434057
 30
0.0
  0
HATCH
  5
123
330
11C
100
AcDbEntity
  8
レイヤー 1
 62
    18
420
        0
440
 33554687
100
AcDbHatch
 10
0.0
 20
0.0
 30
0.0
210
0.0
220
0.0
230
1.0
  2
SOLID
 70
     1
 71
     1
 91
        1
 92
        1
 93
        1
 72
     4
 94
        3
 73
     0
 74
     0
 95
       26
 96
       22
 40
0.0
 40
0.0
 40
0.0
 40
0.0
 40
1.0
 40
1.0
 40
1.0
 40
2.0
 40
2.0
 40
2.0
 40
3.0
 40
3.0
 40
3.0
 40
4.0
 40
4.0
 40
4.0
 40
5.0
 40
5.0
 40
5.0
 40
6.0
 40
6.0
 40
6.0
 40
7.0
 40
7.0
 40
7.0
 40
7.0
 10
95.77072615878302
 20
-141.6547471434057
 10
95.77072615878302
 20
-141.6547471434057
 10
95.77072615878302
 20
-140.5504217856089
 10
95.77072615878302
 20
-140.5504217856089
 10
95.77072615878302
 20
-140.5504217856089
 10
95.44068601129607
 20
-140.5504217856089
 10
95.44068601129607
 20
-140.5504217856089
 10
95.44068601129607
 20
-140.5504217856089
 10
95.44068601129607
 20
-140.4024549345174
 10
95.44068601129607
 20
-140.4024549345174
 10
95.77279321607417
 20
-140.3876410239309
 10
95.81930200512504
 20
-140.2246880074785
 10
95.84892982629819
 20
-140.1104830921425
 10
95.84892982629819
 20
-140.1104830921425
 10
95.99500187487278
 20
-140.1104830921425
 10
95.99500187487278
 20
-140.1104830921425
 10
95.99500187487278
 20
-140.1104830921425
 10
95.99500187487278
 20
-141.6547471434057
 10
95.99500187487278
 20
-141.6547471434057
 10
95.99500187487278
 20
-141.6547471434057
 10
95.77072615878302
 20
-141.6547471434057
 10
95.77072615878302
 20
-141.6547471434057
 97
        0
 97
        1
330
122
 75
     2
 76
     1
 98
        1
 10
0.0
 20
0.0
450
        0
451
        0
460
0.0
461
0.0
452
        0
462
0.0
453
        0
470

  0
ENDBLK
  5
11F
330
11C
100
AcDbEntity
  8
0
100
AcDbBlockEnd
  0
BLOCK
  5
128
330
126
100
AcDbEntity
  8
0
100
AcDbBlockBegin
  2
Block_12
 70
     0
 10
0.0
 20
0.0
 30
0.0
  3
Block_12
  1

  0
SPLINE
  5
12A
330
126
100
AcDbEntity
  8
レイヤー 1
100
AcDbSpline
210
0.0
220
0.0
230
1.0
 70
     9
 71
     3
 72
    53
 73
    49
 74
     0
 42
0.0000000001
 43
0.0000000001
 40
0.0
 40
0.0
 40
0.0
 40
0.0
 40
1.0
 40
1.0
 40
1.0
 40
2.0
 40
2.0
 40
2.0
 40
3.0
 40
3.0
 40
3.0
 40
4.0
 40
4.0
 40
4.0
 40
5.0
 40
5.0
 40
5.0
 40
6.0
 40
6.0
 40
6.0
 40
7.0
 40
7.0
 40
7.0
 40
8.0
 40
8.0
 40
8.0
 40
9.0
 40
9.0
 40
9.0
 40
10.0
 40
10.0
 40
10.0
 40
11.0
 40
11.0
 40
11.0
 40
12.0
 40
12.0
 40
12.0
 40
13.0
 40
13.0
 40
13.0
 40
14.0
 40
14.0
 40
14.0
 40
15.0
 40
15.0
 40
15.0
 40
16.0
 40
16.0
 40
16.0
 40
16.0
 10
80.14411754723829
 20
-150.1496635909348
 30
0.0
 10
80.14411754723829
 20
-150.22786725845
 30
0.0
 10
80.1270643245863
 20
-150.3294975752648
 30
0.0
 10
80.0636745676577
 20
-150.4311278920797
 30
0.0
 10
79.95360376690396
 20
-150.6044161949878
 30
0.0
 10
79.82251788369021
 20
-150.6257757869963
 30
0.0
 10
79.71468639500189
 20
-150.6447238121652
 30
0.0
 10
79.71468639500189
 20
-150.6447238121652
 30
0.0
 10
79.71468639500189
 20
-150.4225151533666
 30
0.0
 10
79.71468639500189
 20
-150.4225151533666
 30
0.0
 10
79.91346840450081
 20
-150.3677381351511
 30
0.0
 10
79.94309622567396
 20
-150.2406141117454
 30
0.0
 10
79.94309622567396
 20
-150.1475965336436
 30
0.0
 10
79.94309622567396
 20
-150.008070166491
 30
0.0
 10
79.84370522092449
 20
-149.855796946043
 30
0.0
 10
79.61098902089587
 20
-149.855796946043
 30
0.0
 10
79.3550184263418
 20
-149.855796946043
 30
0.0
 10
79.2852552427655
 20
-150.035630930373
 30
0.0
 10
79.2852552427655
 20
-150.1562092723568
 30
0.0
 10
79.2852552427655
 20
-150.1879041508211
 30
0.0
 10
79.2852552427655
 20
-150.3294975752648
 30
0.0
 10
79.4142740686881
 20
-150.4183810387843
 30
0.0
 10
79.4142740686881
 20
-150.4183810387843
 30
0.0
 10
79.39515378874496
 20
-150.594080908532
 30
0.0
 10
79.39515378874496
 20
-150.594080908532
 30
0.0
 10
79.39515378874496
 20
-150.594080908532
 30
0.0
 10
78.54903833756761
 20
-150.4735025665483
 30
0.0
 10
78.54903833756761
 20
-150.4735025665483
 30
0.0
 10
78.54903833756761
 20
-150.4735025665483
 30
0.0
 10
78.54903833756761
 20
-149.6949109868818
 30
0.0
 10
78.54903833756761
 20
-149.6949109868818
 30
0.0
 10
78.54903833756761
 20
-149.6949109868818
 30
0.0
 10
78.74368623248422
 20
-149.6949109868818
 30
0.0
 10
78.74368623248422
 20
-149.6949109868818
 30
0.0
 10
78.74368623248422
 20
-149.6949109868818
 30
0.0
 10
78.74368623248422
 20
-150.3105495500959
 30
0.0
 10
78.74368623248422
 20
-150.3105495500959
 30
0.0
 10
78.74368623248422
 20
-150.3105495500959
 30
0.0
 10
79.1667439580729
 20
-150.3760063643157
 30
0.0
 10
79.1667439580729
 20
-150.3760063643157
 30
0.0
 10
79.13280976754319
 20
-150.3146836646783
 30
0.0
 10
79.09267440514003
 20
-150.2323458825808
 30
0.0
 10
79.09267440514003
 20
-150.1138345978882
 30
0.0
 10
79.09267440514003
 20
-149.8599310606253
 30
0.0
 10
79.27888181611779
 20
-149.6229084912401
 30
0.0
 10
79.59186874095273
 20
-149.6229084912401
 30
0.0
 10
79.9093342899185
 20
-149.6229084912401
 30
0.0
 10
80.14411754723829
 20
-149.8471842073299
 30
0.0
 10
80.14411754723829
 20
-150.1496635909348
 30
0.0
  0
HATCH
  5
12B
330
126
100
AcDbEntity
  8
レイヤー 1
 62
    18
420
        0
440
 33554687
100
AcDbHatch
 10
0.0
 20
0.0
 30
0.0
210
0.0
220
0.0
230
1.0
  2
SOLID
 70
     1
 71
     1
 91
        1
 92
        1
 93
        1
 72
     4
 94
        3
 73
     0
 74
     0
 95
       53
 96
       49
 40
0.0
 40
0.0
 40
0.0
 40
0.0
 40
1.0
 40
1.0
 40
1.0
 40
2.0
 40
2.0
 40
2.0
 40
3.0
 40
3.0
 40
3.0
 40
4.0
 40
4.0
 40
4.0
 40
5.0
 40
5.0
 40
5.0
 40
6.0
 40
6.0
 40
6.0
 40
7.0
 40
7.0
 40
7.0
 40
8.0
 40
8.0
 40
8.0
 40
9.0
 40
9.0
 40
9.0
 40
10.0
 40
10.0
 40
10.0
 40
11.0
 40
11.0
 40
11.0
 40
12.0
 40
12.0
 40
12.0
 40
13.0
 40
13.0
 40
13.0
 40
14.0
 40
14.0
 40
14.0
 40
15.0
 40
15.0
 40
15.0
 40
16.0
 40
16.0
 40
16.0
 40
16.0
 10
80.14411754723829
 20
-150.1496635909348
 10
80.14411754723829
 20
-150.22786725845
 10
80.1270643245863
 20
-150.3294975752648
 10
80.0636745676577
 20
-150.4311278920797
 10
79.95360376690396
 20
-150.6044161949878
 10
79.82251788369021
 20
-150.6257757869963
 10
79.71468639500189
 20
-150.6447238121652
 10
79.71468639500189
 20
-150.6447238121652
 10
79.71468639500189
 20
-150.4225151533666
 10
79.71468639500189
 20
-150.4225151533666
 10
79.91346840450081
 20
-150.3677381351511
 10
79.94309622567396
 20
-150.2406141117454
 10
79.94309622567396
 20
-150.1475965336436
 10
79.94309622567396
 20
-150.008070166491
 10
79.84370522092449
 20
-149.855796946043
 10
79.61098902089587
 20
-149.855796946043
 10
79.3550184263418
 20
-149.855796946043
 10
79.2852552427655
 20
-150.035630930373
 10
79.2852552427655
 20
-150.1562092723568
 10
79.2852552427655
 20
-150.1879041508211
 10
79.2852552427655
 20
-150.3294975752648
 10
79.4142740686881
 20
-150.4183810387843
 10
79.4142740686881
 20
-150.4183810387843
 10
79.39515378874496
 20
-150.594080908532
 10
79.39515378874496
 20
-150.594080908532
 10
79.39515378874496
 20
-150.594080908532
 10
78.54903833756761
 20
-150.4735025665483
 10
78.54903833756761
 20
-150.4735025665483
 10
78.54903833756761
 20
-150.4735025665483
 10
78.54903833756761
 20
-149.6949109868818
 10
78.54903833756761
 20
-149.6949109868818
 10
78.54903833756761
 20
-149.6949109868818
 10
78.74368623248422
 20
-149.6949109868818
 10
78.74368623248422
 20
-149.6949109868818
 10
78.74368623248422
 20
-149.6949109868818
 10
78.74368623248422
 20
-150.3105495500959
 10
78.74368623248422
 20
-150.3105495500959
 10
78.74368623248422
 20
-150.3105495500959
 10
79.1667439580729
 20
-150.3760063643157
 10
79.1667439580729
 20
-150.3760063643157
 10
79.13280976754319
 20
-150.3146836646783
 10
79.09267440514003
 20
-150.2323458825808
 10
79.09267440514003
 20
-150.1138345978882
 10
79.09267440514003
 20
-149.8599310606253
 10
79.27888181611779
 20
-149.6229084912401
 10
79.59186874095273
 20
-149.6229084912401
 10
79.9093342899185
 20
-149.6229084912401
 10
80.14411754723829
 20
-149.8471842073299
 10
80.14411754723829
 20
-150.1496635909348
 97
        0
 97
        1
330
12A
 75
     2
 76
     1
 98
        1
 10
0.0
 20
0.0
450
        0
451
        0
460
0.0
461
0.0
452
        0
462
0.0
453
        0
470

  0
ENDBLK
  5
129
330
126
100
AcDbEntity
  8
0
100
AcDbBlockEnd
  0
BLOCK
  5
12F
330
12D
100
AcDbEntity
  8
0
100
AcDbBlockBegin
  2
Block_13
 70
     0
 10
0.0
 20
0.0
 30
0.0
  3
Block_13
  1

  0
SPLINE
  5
131
330
12D
100
AcDbEntity
  8
レイヤー 1
100
AcDbSpline
210
0.0
220
0.0
230
1.0
 70
    11
 71
     3
 72
    26
 73
    22
 74
     0
 42
0.0000000001
 43
0.0000000001
 40
0.0
 40
0.0
 40
0.0
 40
0.0
 40
1.0
 40
1.0
 40
1.0
 40
2.0
 40
2.0
 40
2.0
 40
3.0
 40
3.0
 40
3.0
 40
4.0
 40
4.0
 40
4.0
 40
5.0
 40
5.0
 40
5.0
 40
6.0
 40
6.0
 40
6.0
 40
7.0
 40
7.0
 40
7.0
 40
7.0
 10
112.7173231055012
 20
-148.9394015469665
 30
0.0
 10
112.7173231055012
 20
-148.9394015469665
 30
0.0
 10
112.7173231055012
 20
-147.8352484439439
 30
0.0
 10
112.7173231055012
 20
-147.8352484439439
 30
0.0
 10
112.7173231055012
 20
-147.8352484439439
 30
0.0
 10
112.3872829580143
 20
-147.8352484439439
 30
0.0
 10
112.3872829580143
 20
-147.8352484439439
 30
0.0
 10
112.3872829580143
 20
-147.8352484439439
 30
0.0
 10
112.3872829580143
 20
-147.6871093380782
 30
0.0
 10
112.3872829580143
 20
-147.6871093380782
 30
0.0
 10
112.7193901627923
 20
-147.6724676822659
 30
0.0
 10
112.7658989518432
 20
-147.5095146658136
 30
0.0
 10
112.7955267730164
 20
-147.3953097504775
 30
0.0
 10
112.7955267730164
 20
-147.3953097504775
 30
0.0
 10
112.941598821591
 20
-147.3953097504775
 30
0.0
 10
112.941598821591
 20
-147.3953097504775
 30
0.0
 10
112.941598821591
 20
-147.3953097504775
 30
0.0
 10
112.941598821591
 20
-148.9394015469665
 30
0.0
 10
112.941598821591
 20
-148.9394015469665
 30
0.0
 10
112.941598821591
 20
-148.9394015469665
 30
0.0
 10
112.7173231055012
 20
-148.9394015469665
 30
0.0
 10
112.7173231055012
 20
-148.9394015469665
 30
0.0
  0
HATCH
  5
132
330
12D
100
AcDbEntity
  8
レイヤー 1
 62
    18
420
        0
440
 33554687
100
AcDbHatch
 10
0.0
 20
0.0
 30
0.0
210
0.0
220
0.0
230
1.0
  2
SOLID
 70
     1
 71
     1
 91
        1
 92
        1
 93
        1
 72
     4
 94
        3
 73
     0
 74
     0
 95
       26
 96
       22
 40
0.0
 40
0.0
 40
0.0
 40
0.0
 40
1.0
 40
1.0
 40
1.0
 40
2.0
 40
2.0
 40
2.0
 40
3.0
 40
3.0
 40
3.0
 40
4.0
 40
4.0
 40
4.0
 40
5.0
 40
5.0
 40
5.0
 40
6.0
 40
6.0
 40
6.0
 40
7.0
 40
7.0
 40
7.0
 40
7.0
 10
112.7173231055012
 20
-148.9394015469665
 10
112.7173231055012
 20
-148.9394015469665
 10
112.7173231055012
 20
-147.8352484439439
 10
112.7173231055012
 20
-147.8352484439439
 10
112.7173231055012
 20
-147.8352484439439
 10
112.3872829580143
 20
-147.8352484439439
 10
112.3872829580143
 20
-147.8352484439439
 10
112.3872829580143
 20
-147.8352484439439
 10
112.3872829580143
 20
-147.6871093380782
 10
112.3872829580143
 20
-147.6871093380782
 10
112.7193901627923
 20
-147.6724676822659
 10
112.7658989518432
 20
-147.5095146658136
 10
112.7955267730164
 20
-147.3953097504775
 10
112.7955267730164
 20
-147.3953097504775
 10
112.941598821591
 20
-147.3953097504775
 10
112.941598821591
 20
-147.3953097504775
 10
112.941598821591
 20
-147.3953097504775
 10
112.941598821591
 20
-148.9394015469665
 10
112.941598821591
 20
-148.9394015469665
 10
112.941598821591
 20
-148.9394015469665
 10
112.7173231055012
 20
-148.9394015469665
 10
112.7173231055012
 20
-148.9394015469665
 97
        0
 97
        1
330
131
 75
     2
 76
     1
 98
        1
 10
0.0
 20
0.0
450
        0
451
        0
460
0.0
461
0.0
452
        0
462
0.0
453
        0
470

  0
ENDBLK
  5
130
330
12D
100
AcDbEntity
  8
0
100
AcDbBlockEnd
  0
BLOCK
  5
137
330
135
100
AcDbEntity
  8
0
100
AcDbBlockBegin
  2
Block_14
 70
     0
 10
0.0
 20
0.0
 30
0.0
  3
Block_14
  1

  0
INSERT
  5
13A
330
135
100
AcDbEntity
  8
レイヤー 1
100
AcDbBlockReference
  2
Block_15
 10
0.0
 20
0.0
 30
0.0
  0
INSERT
  5
155
330
135
100
AcDbEntity
  8
レイヤー 1
100
AcDbBlockReference
  2
Block_17
 10
0.0
 20
0.0
 30
0.0
  0
ENDBLK
  5
138
330
135
100
AcDbEntity
  8
0
100
AcDbBlockEnd
  0
BLOCK
  5
13B
330
139
100
AcDbEntity
  8
0
100
AcDbBlockBegin
  2
Block_15
 70
     0
 10
0.0
 20
0.0
 30
0.0
  3
Block_15
  1

  0
INSERT
  5
13E
330
139
100
AcDbEntity
  8
レイヤー 1
100
AcDbBlockReference
  2
Block_16
 10
0.0
 20
0.0
 30
0.0
  0
ENDBLK
  5
13C
330
139
100
AcDbEntity
  8
0
100
AcDbBlockEnd
  0
BLOCK
  5
13F
330
13D
100
AcDbEntity
  8
0
100
AcDbBlockBegin
  2
Block_16
 70
     0
 10
0.0
 20
0.0
 30
0.0
  3
Block_16
  1

  0
SPLINE
  5
141
330
13D
100
AcDbEntity
  8
レイヤー 1
100
AcDbSpline
210
0.0
220
0.0
230
1.0
 70
     9
 71
     3
 72
    17
 73
    13
 74
     0
 42
0.0000000001
 43
0.0000000001
 40
0.0
 40
0.0
 40
0.0
 40
0.0
 40
1.0
 40
1.0
 40
1.0
 40
2.0
 40
2.0
 40
2.0
 40
3.0
 40
3.0
 40
3.0
 40
4.0
 40
4.0
 40
4.0
 40
4.0
 10
91.14292939344691
 20
-154.8501518710097
 30
0.0
 10
91.12604842556917
 20
-154.8797796921828
 30
0.0
 10
91.07523326716174
 20
-154.9727972702846
 30
0.0
 10
91.06472572593174
 20
-154.9917452954534
 30
0.0
 10
91.25506725149179
 20
-155.0510009377997
 30
0.0
 10
91.27625458872607
 20
-155.0575466192217
 30
0.0
 10
91.3482570843678
 20
-155.0847628735552
 30
0.0
 10
91.40320635735752
 20
-154.9982909768754
 30
0.0
 10
91.42646075188297
 20
-154.9242214239425
 30
0.0
 10
91.44127466246954
 20
-154.8501518710097
 30
0.0
 10
91.44127466246954
 20
-154.8501518710097
 30
0.0
 10
91.14292939344691
 20
-154.8501518710097
 30
0.0
 10
91.14292939344691
 20
-154.8501518710097
 30
0.0
  0
SPLINE
  5
142
330
13D
100
AcDbEntity
  8
レイヤー 1
100
AcDbSpline
210
0.0
220
0.0
230
1.0
 70
    11
 71
     3
 72
    20
 73
    16
 74
     0
 42
0.0000000001
 43
0.0000000001
 40
0.0
 40
0.0
 40
0.0
 40
0.0
 40
1.0
 40
1.0
 40
1.0
 40
2.0
 40
2.0
 40
2.0
 40
3.0
 40
3.0
 40
3.0
 40
4.0
 40
4.0
 40
4.0
 40
5.0
 40
5.0
 40
5.0
 40
5.0
 10
91.07953963651832
 20
-153.9995577957015
 30
0.0
 10
91.07953963651832
 20
-153.9995577957015
 30
0.0
 10
91.047844758054
 20
-153.9995577957015
 30
0.0
 10
91.047844758054
 20
-153.9995577957015
 30
0.0
 10
91.09435354710489
 20
-154.0991210552252
 30
0.0
 10
91.12604842556917
 20
-154.1793917800315
 30
0.0
 10
91.1599826160989
 20
-154.3065158034372
 30
0.0
 10
91.1599826160989
 20
-154.3065158034372
 30
0.0
 10
91.36720510953667
 20
-154.3065158034372
 30
0.0
 10
91.36720510953667
 20
-154.3065158034372
 30
0.0
 10
91.39889998800098
 20
-154.2134982253355
 30
0.0
 10
91.42215438252641
 20
-154.1287488763983
 30
0.0
 10
91.4455810318261
 20
-153.9995577957015
 30
0.0
 10
91.4455810318261
 20
-153.9995577957015
 30
0.0
 10
91.07953963651832
 20
-153.9995577957015
 30
0.0
 10
91.07953963651832
 20
-153.9995577957015
 30
0.0
  0
SPLINE
  5
143
330
13D
100
AcDbEntity
  8
レイヤー 1
100
AcDbSpline
210
0.0
220
0.0
230
1.0
 70
     9
 71
     3
 72
   242
 73
   238
 74
     0
 42
0.0000000001
 43
0.0000000001
 40
0.0
 40
0.0
 40
0.0
 40
0.0
 40
1.0
 40
1.0
 40
1.0
 40
2.0
 40
2.0
 40
2.0
 40
3.0
 40
3.0
 40
3.0
 40
4.0
 40
4.0
 40
4.0
 40
5.0
 40
5.0
 40
5.0
 40
6.0
 40
6.0
 40
6.0
 40
7.0
 40
7.0
 40
7.0
 40
8.0
 40
8.0
 40
8.0
 40
9.0
 40
9.0
 40
9.0
 40
10.0
 40
10.0
 40
10.0
 40
11.0
 40
11.0
 40
11.0
 40
12.0
 40
12.0
 40
12.0
 40
13.0
 40
13.0
 40
13.0
 40
14.0
 40
14.0
 40
14.0
 40
15.0
 40
15.0
 40
15.0
 40
16.0
 40
16.0
 40
16.0
 40
17.0
 40
17.0
 40
17.0
 40
18.0
 40
18.0
 40
18.0
 40
19.0
 40
19.0
 40
19.0
 40
20.0
 40
20.0
 40
20.0
 40
21.0
 40
21.0
 40
21.0
 40
22.0
 40
22.0
 40
22.0
 40
23.0
 40
23.0
 40
23.0
 40
24.0
 40
24.0
 40
24.0
 40
25.0
 40
25.0
 40
25.0
 40
26.0
 40
26.0
 40
26.0
 40
27.0
 40
27.0
 40
27.0
 40
28.0
 40
28.0
 40
28.0
 40
29.0
 40
29.0
 40
29.0
 40
30.0
 40
30.0
 40
30.0
 40
31.0
 40
31.0
 40
31.0
 40
32.0
 40
32.0
 40
32.0
 40
33.0
 40
33.0
 40
33.0
 40
34.0
 40
34.0
 40
34.0
 40
35.0
 40
35.0
 40
35.0
 40
36.0
 40
36.0
 40
36.0
 40
37.0
 40
37.0
 40
37.0
 40
38.0
 40
38.0
 40
38.0
 40
39.0
 40
39.0
 40
39.0
 40
40.0
 40
40.0
 40
40.0
 40
41.0
 40
41.0
 40
41.0
 40
42.0
 40
42.0
 40
42.0
 40
43.0
 40
43.0
 40
43.0
 40
44.0
 40
44.0
 40
44.0
 40
45.0
 40
45.0
 40
45.0
 40
46.0
 40
46.0
 40
46.0
 40
47.0
 40
47.0
 40
47.0
 40
48.0
 40
48.0
 40
48.0
 40
49.0
 40
49.0
 40
49.0
 40
50.0
 40
50.0
 40
50.0
 40
51.0
 40
51.0
 40
51.0
 40
52.0
 40
52.0
 40
52.0
 40
53.0
 40
53.0
 40
53.0
 40
54.0
 40
54.0
 40
54.0
 40
55.0
 40
55.0
 40
55.0
 40
56.0
 40
56.0
 40
56.0
 40
57.0
 40
57.0
 40
57.0
 40
58.0
 40
58.0
 40
58.0
 40
59.0
 40
59.0
 40
59.0
 40
60.0
 40
60.0
 40
60.0
 40
61.0
 40
61.0
 40
61.0
 40
62.0
 40
62.0
 40
62.0
 40
63.0
 40
63.0
 40
63.0
 40
64.0
 40
64.0
 40
64.0
 40
65.0
 40
65.0
 40
65.0
 40
66.0
 40
66.0
 40
66.0
 40
67.0
 40
67.0
 40
67.0
 40
68.0
 40
68.0
 40
68.0
 40
69.0
 40
69.0
 40
69.0
 40
70.0
 40
70.0
 40
70.0
 40
71.0
 40
71.0
 40
71.0
 40
72.0
 40
72.0
 40
72.0
 40
73.0
 40
73.0
 40
73.0
 40
74.0
 40
74.0
 40
74.0
 40
75.0
 40
75.0
 40
75.0
 40
76.0
 40
76.0
 40
76.0
 40
77.0
 40
77.0
 40
77.0
 40
78.0
 40
78.0
 40
78.0
 40
79.0
 40
79.0
 40
79.0
 40
79.0
 10
91.70775279825361
 20
-154.4649901957587
 30
0.0
 10
91.70775279825361
 20
-154.4649901957587
 30
0.0
 10
91.45402151576496
 20
-154.4649901957587
 30
0.0
 10
91.45402151576496
 20
-154.4649901957587
 30
0.0
 10
91.45402151576496
 20
-154.4649901957587
 30
0.0
 10
91.17686358397662
 20
-154.4649901957587
 30
0.0
 10
91.17686358397662
 20
-154.4649901957587
 30
0.0
 10
91.17686358397662
 20
-154.4649901957587
 30
0.0
 10
91.30381535260807
 20
-154.5073648702273
 30
0.0
 10
91.30381535260807
 20
-154.5073648702273
 30
0.0
 10
91.31432289383809
 20
-154.5114989848096
 30
0.0
 10
91.32706974713352
 20
-154.5180446662316
 30
0.0
 10
91.32706974713352
 20
-154.530791519527
 30
0.0
 10
91.32706974713352
 20
-154.551806601987
 30
0.0
 10
91.29537486866921
 20
-154.5580077738605
 30
0.0
 10
91.27418753143492
 20
-154.5624863979913
 30
0.0
 10
91.26350773543064
 20
-154.5855685377425
 30
0.0
 10
91.23387991425749
 20
-154.6513698615108
 30
0.0
 10
91.21493188908862
 20
-154.6958115932705
 30
0.0
 10
91.21493188908862
 20
-154.6958115932705
 30
0.0
 10
91.48571639422927
 20
-154.6958115932705
 30
0.0
 10
91.48571639422927
 20
-154.6958115932705
 30
0.0
 10
91.57666691503987
 20
-154.6958115932705
 30
0.0
 10
91.77338186724764
 20
-154.6913329691396
 30
0.0
 10
91.91514754646567
 20
-154.683064739975
 30
0.0
 10
91.91514754646567
 20
-154.683064739975
 30
0.0
 10
91.91514754646567
 20
-154.8608316670139
 30
0.0
 10
91.91514754646567
 20
-154.8608316670139
 30
0.0
 10
91.83263750959392
 20
-154.8563530428831
 30
0.0
 10
91.81145017235964
 20
-154.8563530428831
 30
0.0
 10
91.63161618802959
 20
-154.8522189283008
 30
0.0
 10
91.59992130956529
 20
-155.00655920604
 30
0.0
 10
91.55547957780559
 20
-155.0871744403949
 30
0.0
 10
91.51103784604584
 20
-155.1567653691969
 30
0.0
 10
91.63161618802959
 20
-155.2160210115432
 30
0.0
 10
91.73738061942676
 20
-155.2838893926026
 30
0.0
 10
91.84107799353279
 20
-155.3662271747001
 30
0.0
 10
91.84107799353279
 20
-155.3662271747001
 30
0.0
 10
91.72256670884019
 20
-155.5333143057347
 30
0.0
 10
91.72256670884019
 20
-155.5333143057347
 30
0.0
 10
91.69931231431474
 20
-155.5143662805658
 30
0.0
 10
91.6867377157936
 20
-155.5057535418527
 30
0.0
 10
91.5745998577487
 20
-155.4213487024641
 30
0.0
 10
91.52585175663244
 20
-155.3831081425778
 30
0.0
 10
91.46659611428614
 20
-155.3472791495312
 30
0.0
 10
91.3863253894798
 20
-155.3028374177715
 30
0.0
 10
91.17479652668547
 20
-155.488872573975
 30
0.0
 10
90.96946883576459
 20
-155.5122992232747
 30
0.0
 10
90.67973630545507
 20
-155.5419270444478
 30
0.0
 10
90.67973630545507
 20
-155.5419270444478
 30
0.0
 10
90.57603893134904
 20
-155.3620930601178
 30
0.0
 10
90.57603893134904
 20
-155.3620930601178
 30
0.0
 10
90.89333222554056
 20
-155.3579589455355
 30
0.0
 10
91.06885984051404
 20
-155.3324652389447
 30
0.0
 10
91.22130531573635
 20
-155.2225666929652
 30
0.0
 10
91.10279403104376
 20
-155.1715792797835
 30
0.0
 10
91.01391056752431
 20
-155.1440185159015
 30
0.0
 10
90.97790931970344
 20
-155.1316161721546
 30
0.0
 10
90.95896129453457
 20
-155.1588324264881
 30
0.0
 10
90.94414738394799
 20
-155.1781249612054
 30
0.0
 10
90.91658662006599
 20
-155.2118868969609
 30
0.0
 10
90.91658662006599
 20
-155.2118868969609
 30
0.0
 10
90.71987166785822
 20
-155.1292046053149
 30
0.0
 10
90.71987166785822
 20
-155.1292046053149
 30
0.0
 10
90.80238170472997
 20
-155.0489338805086
 30
0.0
 10
90.86370440436741
 20
-154.9538492451157
 30
0.0
 10
90.92089298942255
 20
-154.8522189283008
 30
0.0
 10
90.73037920908824
 20
-154.8563530428831
 30
0.0
 10
90.70936412662822
 20
-154.8563530428831
 30
0.0
 10
90.62685408975649
 20
-154.8608316670139
 30
0.0
 10
90.62685408975649
 20
-154.8608316670139
 30
0.0
 10
90.62685408975649
 20
-154.683064739975
 30
0.0
 10
90.62685408975649
 20
-154.683064739975
 30
0.0
 10
90.76638045690911
 20
-154.6892659118485
 30
0.0
 10
90.97584226241229
 20
-154.6934000264308
 30
0.0
 10
91.00116371422888
 20
-154.6934000264308
 30
0.0
 10
91.01821693688085
 20
-154.6596380906754
 30
0.0
 10
91.07316620987061
 20
-154.5390597486916
 30
0.0
 10
91.09228648981375
 20
-154.4649901957587
 30
0.0
 10
91.07316620987061
 20
-154.4649901957587
 30
0.0
 10
90.89539928283171
 20
-154.4715358771807
 30
0.0
 10
90.70075138791509
 20
-154.4842827304761
 30
0.0
 10
90.70075138791509
 20
-154.4842827304761
 30
0.0
 10
90.70075138791509
 20
-154.6172634162068
 30
0.0
 10
90.70075138791509
 20
-154.6172634162068
 30
0.0
 10
90.65217554157307
 20
-154.6427571227976
 30
0.0
 10
90.59291989922677
 20
-154.6744520012619
 30
0.0
 10
90.45959470394761
 20
-154.7402533250302
 30
0.0
 10
90.45959470394761
 20
-154.7402533250302
 30
0.0
 10
90.45959470394761
 20
-154.8859808640562
 30
0.0
 10
90.45959470394761
 20
-154.8859808640562
 30
0.0
 10
90.45959470394761
 20
-154.8859808640562
 30
0.0
 10
90.45959470394761
 20
-155.3534803214047
 30
0.0
 10
90.45959470394761
 20
-155.3534803214047
 30
0.0
 10
90.45959470394761
 20
-155.4806043448104
 30
0.0
 10
90.423765710901
 20
-155.5398599871567
 30
0.0
 10
90.14023435246494
 20
-155.5312472484436
 30
0.0
 10
90.14023435246494
 20
-155.5312472484436
 30
0.0
 10
90.03653697835892
 20
-155.3238525002315
 30
0.0
 10
90.03653697835892
 20
-155.3238525002315
 30
0.0
 10
90.10009899006178
 20
-155.3365993535269
 30
0.0
 10
90.14867483640381
 20
-155.3407334681093
 30
0.0
 10
90.18881019880696
 20
-155.3407334681093
 30
0.0
 10
90.26511906380525
 20
-155.3407334681093
 30
0.0
 10
90.27562660503527
 20
-155.3176513283581
 30
0.0
 10
90.27562660503527
 20
-155.2521945141383
 30
0.0
 10
90.27562660503527
 20
-155.2521945141383
 30
0.0
 10
90.27562660503527
 20
-154.8225911071277
 30
0.0
 10
90.27562660503527
 20
-154.8225911071277
 30
0.0
 10
90.17830265757694
 20
-154.8628987243051
 30
0.0
 10
90.16142168969924
 20
-154.8690998961785
 30
0.0
 10
90.11491290064837
 20
-154.8880479213474
 30
0.0
 10
90.11060653129179
 20
-154.909407513356
 30
0.0
 10
90.10630016193523
 20
-154.9390353345291
 30
0.0
 10
90.08735213676635
 20
-154.9390353345291
 30
0.0
 10
90.0789116528275
 20
-154.9390353345291
 30
0.0
 10
90.06823185682321
 20
-154.9349012199468
 30
0.0
 10
90.06203068494977
 20
-154.9114745706471
 30
0.0
 10
90.06203068494977
 20
-154.9114745706471
 30
0.0
 10
90.00914846925118
 20
-154.7188937330217
 30
0.0
 10
90.00914846925118
 20
-154.7188937330217
 30
0.0
 10
90.15504826305152
 20
-154.6723849439708
 30
0.0
 10
90.22067733204552
 20
-154.6493028042196
 30
0.0
 10
90.27562660503527
 20
-154.627943212211
 30
0.0
 10
90.27562660503527
 20
-154.627943212211
 30
0.0
 10
90.27562660503527
 20
-154.2155652826266
 30
0.0
 10
90.27562660503527
 20
-154.2155652826266
 30
0.0
 10
90.27562660503527
 20
-154.2155652826266
 30
0.0
 10
90.22274438933669
 20
-154.2155652826266
 30
0.0
 10
90.22274438933669
 20
-154.2155652826266
 30
0.0
 10
90.22274438933669
 20
-154.2155652826266
 30
0.0
 10
90.14454072182152
 20
-154.2155652826266
 30
0.0
 10
90.14454072182152
 20
-154.2155652826266
 30
0.0
 10
90.07684459553635
 20
-154.2155652826266
 30
0.0
 10
90.06823185682321
 20
-154.2155652826266
 30
0.0
 10
90.03240286377662
 20
-154.2217664545001
 30
0.0
 10
90.03240286377662
 20
-154.2217664545001
 30
0.0
 10
90.03240286377662
 20
-154.0271185595835
 30
0.0
 10
90.03240286377662
 20
-154.0271185595835
 30
0.0
 10
90.05979137288436
 20
-154.0336642410055
 30
0.0
 10
90.06823185682321
 20
-154.0336642410055
 30
0.0
 10
90.1381672951738
 20
-154.0336642410055
 30
0.0
 10
90.1381672951738
 20
-154.0336642410055
 30
0.0
 10
90.27132023567871
 20
-154.0336642410055
 30
0.0
 10
90.27132023567871
 20
-154.0336642410055
 30
0.0
 10
90.27132023567871
 20
-153.9637288026549
 30
0.0
 10
90.27132023567871
 20
-153.8810465110089
 30
0.0
 10
90.26925317838756
 20
-153.8769123964266
 30
0.0
 10
90.26081269444869
 20
-153.6970784120965
 30
0.0
 10
90.26081269444869
 20
-153.6781303869277
 30
0.0
 10
90.25874563715754
 20
-153.6316215978768
 30
0.0
 10
90.25874563715754
 20
-153.6316215978768
 30
0.0
 10
90.47440861453418
 20
-153.6398898270414
 30
0.0
 10
90.47440861453418
 20
-153.6398898270414
 30
0.0
 10
90.48508841053845
 20
-153.6398898270414
 30
0.0
 10
90.50627574777275
 20
-153.6423013938811
 30
0.0
 10
90.50627574777275
 20
-153.6591823617588
 30
0.0
 10
90.50627574777275
 20
-153.6781303869277
 30
0.0
 10
90.49146183718617
 20
-153.6888101829319
 30
0.0
 10
90.46596813059531
 20
-153.7077582081008
 30
0.0
 10
90.46596813059531
 20
-153.758401111734
 30
0.0
 10
90.45959470394761
 20
-153.9868109424061
 30
0.0
 10
90.46183401601302
 20
-154.0336642410055
 30
0.0
 10
90.59085284193562
 20
-154.0336642410055
 30
0.0
 10
90.60359969523105
 20
-154.0336642410055
 30
0.0
 10
90.70075138791509
 20
-154.0250515022923
 30
0.0
 10
90.70075138791509
 20
-154.0250515022923
 30
0.0
 10
90.70075138791509
 20
-154.219699397209
 30
0.0
 10
90.70075138791509
 20
-154.219699397209
 30
0.0
 10
90.66268308280308
 20
-154.2176323399178
 30
0.0
 10
90.59498695651793
 20
-154.2134982253355
 30
0.0
 10
90.45959470394761
 20
-154.2155652826266
 30
0.0
 10
90.45959470394761
 20
-154.2155652826266
 30
0.0
 10
90.45959470394761
 20
-154.5538736592782
 30
0.0
 10
90.45959470394761
 20
-154.5538736592782
 30
0.0
 10
90.5147162317116
 20
-154.530791519527
 30
0.0
 10
90.58017304593134
 20
-154.503230755645
 30
0.0
 10
90.62892114704764
 20
-154.4798041063453
 30
0.0
 10
90.62892114704764
 20
-154.4798041063453
 30
0.0
 10
90.62892114704764
 20
-154.3020371793064
 30
0.0
 10
90.62892114704764
 20
-154.3020371793064
 30
0.0
 10
90.74312606238366
 20
-154.3147840326018
 30
0.0
 10
90.86163734707627
 20
-154.3147840326018
 30
0.0
 10
90.97790931970344
 20
-154.3147840326018
 30
0.0
 10
90.95465492517801
 20
-154.219699397209
 30
0.0
 10
90.92726641607027
 20
-154.1370171055629
 30
0.0
 10
90.86370440436741
 20
-154.0040364198323
 30
0.0
 10
90.81926267260769
 20
-154.0061034771234
 30
0.0
 10
90.73675263573596
 20
-154.0102375917058
 30
0.0
 10
90.69868433062394
 20
-154.0123046489969
 30
0.0
 10
90.69868433062394
 20
-154.0123046489969
 30
0.0
 10
90.69868433062394
 20
-153.8324706646669
 30
0.0
 10
90.69868433062394
 20
-153.8324706646669
 30
0.0
 10
90.82356904196425
 20
-153.84108340338
 30
0.0
 10
90.99702959964657
 20
-153.8452175179623
 30
0.0
 10
91.07953963651832
 20
-153.8452175179623
 30
0.0
 10
91.07953963651832
 20
-153.8452175179623
 30
0.0
 10
91.16204967339005
 20
-153.8452175179623
 30
0.0
 10
91.16204967339005
 20
-153.8452175179623
 30
0.0
 10
91.16204967339005
 20
-153.68226450151
 30
0.0
 10
91.16204967339005
 20
-153.6719292150542
 30
0.0
 10
91.1599826160989
 20
-153.6168076872902
 30
0.0
 10
91.1599826160989
 20
-153.6168076872902
 30
0.0
 10
91.38408607741439
 20
-153.6423013938811
 30
0.0
 10
91.38408607741439
 20
-153.6423013938811
 30
0.0
 10
91.38839244677097
 20
-153.6423013938811
 30
0.0
 10
91.40957978400525
 20
-153.6443684511722
 30
0.0
 10
91.40957978400525
 20
-153.6612494190499
 30
0.0
 10
91.40957978400525
 20
-153.6760633296365
 30
0.0
 10
91.39889998800098
 20
-153.6843315588011
 30
0.0
 10
91.37151147889325
 20
-153.6991454693877
 30
0.0
 10
91.36513805224552
 20
-153.764946793156
 30
0.0
 10
91.36307099495438
 20
-153.785961875616
 30
0.0
 10
91.36307099495438
 20
-153.8452175179623
 30
0.0
 10
91.36307099495438
 20
-153.8452175179623
 30
0.0
 10
91.45815563034727
 20
-153.8452175179623
 30
0.0
 10
91.45815563034727
 20
-153.8452175179623
 30
0.0
 10
91.54066566721899
 20
-153.8452175179623
 30
0.0
 10
91.71412622490134
 20
-153.84108340338
 30
0.0
 10
91.83901093624163
 20
-153.8324706646669
 30
0.0
 10
91.83901093624163
 20
-153.8324706646669
 30
0.0
 10
91.83901093624163
 20
-154.0123046489969
 30
0.0
 10
91.83901093624163
 20
-154.0123046489969
 30
0.0
 10
91.80938311506848
 20
-154.0102375917058
 30
0.0
 10
91.69087183037589
 20
-154.0061034771234
 30
0.0
 10
91.65073646797273
 20
-154.0040364198323
 30
0.0
 10
91.63592255738617
 20
-154.0546793234655
 30
0.0
 10
91.60198836685644
 20
-154.1666449267361
 30
0.0
 10
91.5365315526367
 20
-154.3065158034372
 30
0.0
 10
91.57873397233101
 20
-154.3065158034372
 30
0.0
 10
91.85589190411937
 20
-154.2872232687198
 30
0.0
 10
91.91721460375681
 20
-154.2851562114287
 30
0.0
 10
91.91721460375681
 20
-154.2851562114287
 30
0.0
 10
91.91721460375681
 20
-154.4694688198896
 30
0.0
 10
91.91721460375681
 20
-154.4694688198896
 30
0.0
 10
91.88758678258366
 20
-154.4694688198896
 30
0.0
 10
91.87070581470594
 20
-154.4649901957587
 30
0.0
 10
91.70775279825361
 20
-154.4649901957587
 30
0.0
  0
HATCH
  5
144
330
13D
100
AcDbEntity
  8
レイヤー 1
 62
    18
420
        0
440
 33554687
100
AcDbHatch
 10
0.0
 20
0.0
 30
0.0
210
0.0
220
0.0
230
1.0
  2
SOLID
 70
     1
 71
     1
 91
        3
 92
        1
 93
        1
 72
     4
 94
        3
 73
     0
 74
     0
 95
       17
 96
       13
 40
0.0
 40
0.0
 40
0.0
 40
0.0
 40
1.0
 40
1.0
 40
1.0
 40
2.0
 40
2.0
 40
2.0
 40
3.0
 40
3.0
 40
3.0
 40
4.0
 40
4.0
 40
4.0
 40
4.0
 10
91.14292939344691
 20
-154.8501518710097
 10
91.12604842556917
 20
-154.8797796921828
 10
91.07523326716174
 20
-154.9727972702846
 10
91.06472572593174
 20
-154.9917452954534
 10
91.25506725149179
 20
-155.0510009377997
 10
91.27625458872607
 20
-155.0575466192217
 10
91.3482570843678
 20
-155.0847628735552
 10
91.40320635735752
 20
-154.9982909768754
 10
91.42646075188297
 20
-154.9242214239425
 10
91.44127466246954
 20
-154.8501518710097
 10
91.44127466246954
 20
-154.8501518710097
 10
91.14292939344691
 20
-154.8501518710097
 10
91.14292939344691
 20
-154.8501518710097
 97
        0
 97
        1
330
141
 92
        1
 93
        1
 72
     4
 94
        3
 73
     0
 74
     0
 95
       20
 96
       16
 40
0.0
 40
0.0
 40
0.0
 40
0.0
 40
1.0
 40
1.0
 40
1.0
 40
2.0
 40
2.0
 40
2.0
 40
3.0
 40
3.0
 40
3.0
 40
4.0
 40
4.0
 40
4.0
 40
5.0
 40
5.0
 40
5.0
 40
5.0
 10
91.07953963651832
 20
-153.9995577957015
 10
91.07953963651832
 20
-153.9995577957015
 10
91.047844758054
 20
-153.9995577957015
 10
91.047844758054
 20
-153.9995577957015
 10
91.09435354710489
 20
-154.0991210552252
 10
91.12604842556917
 20
-154.1793917800315
 10
91.1599826160989
 20
-154.3065158034372
 10
91.1599826160989
 20
-154.3065158034372
 10
91.36720510953667
 20
-154.3065158034372
 10
91.36720510953667
 20
-154.3065158034372
 10
91.39889998800098
 20
-154.2134982253355
 10
91.42215438252641
 20
-154.1287488763983
 10
91.4455810318261
 20
-153.9995577957015
 10
91.4455810318261
 20
-153.9995577957015
 10
91.07953963651832
 20
-153.9995577957015
 10
91.07953963651832
 20
-153.9995577957015
 97
        0
 97
        1
330
142
 92
        1
 93
        1
 72
     4
 94
        3
 73
     0
 74
     0
 95
      242
 96
      238
 40
0.0
 40
0.0
 40
0.0
 40
0.0
 40
1.0
 40
1.0
 40
1.0
 40
2.0
 40
2.0
 40
2.0
 40
3.0
 40
3.0
 40
3.0
 40
4.0
 40
4.0
 40
4.0
 40
5.0
 40
5.0
 40
5.0
 40
6.0
 40
6.0
 40
6.0
 40
7.0
 40
7.0
 40
7.0
 40
8.0
 40
8.0
 40
8.0
 40
9.0
 40
9.0
 40
9.0
 40
10.0
 40
10.0
 40
10.0
 40
11.0
 40
11.0
 40
11.0
 40
12.0
 40
12.0
 40
12.0
 40
13.0
 40
13.0
 40
13.0
 40
14.0
 40
14.0
 40
14.0
 40
15.0
 40
15.0
 40
15.0
 40
16.0
 40
16.0
 40
16.0
 40
17.0
 40
17.0
 40
17.0
 40
18.0
 40
18.0
 40
18.0
 40
19.0
 40
19.0
 40
19.0
 40
20.0
 40
20.0
 40
20.0
 40
21.0
 40
21.0
 40
21.0
 40
22.0
 40
22.0
 40
22.0
 40
23.0
 40
23.0
 40
23.0
 40
24.0
 40
24.0
 40
24.0
 40
25.0
 40
25.0
 40
25.0
 40
26.0
 40
26.0
 40
26.0
 40
27.0
 40
27.0
 40
27.0
 40
28.0
 40
28.0
 40
28.0
 40
29.0
 40
29.0
 40
29.0
 40
30.0
 40
30.0
 40
30.0
 40
31.0
 40
31.0
 40
31.0
 40
32.0
 40
32.0
 40
32.0
 40
33.0
 40
33.0
 40
33.0
 40
34.0
 40
34.0
 40
34.0
 40
35.0
 40
35.0
 40
35.0
 40
36.0
 40
36.0
 40
36.0
 40
37.0
 40
37.0
 40
37.0
 40
38.0
 40
38.0
 40
38.0
 40
39.0
 40
39.0
 40
39.0
 40
40.0
 40
40.0
 40
40.0
 40
41.0
 40
41.0
 40
41.0
 40
42.0
 40
42.0
 40
42.0
 40
43.0
 40
43.0
 40
43.0
 40
44.0
 40
44.0
 40
44.0
 40
45.0
 40
45.0
 40
45.0
 40
46.0
 40
46.0
 40
46.0
 40
47.0
 40
47.0
 40
47.0
 40
48.0
 40
48.0
 40
48.0
 40
49.0
 40
49.0
 40
49.0
 40
50.0
 40
50.0
 40
50.0
 40
51.0
 40
51.0
 40
51.0
 40
52.0
 40
52.0
 40
52.0
 40
53.0
 40
53.0
 40
53.0
 40
54.0
 40
54.0
 40
54.0
 40
55.0
 40
55.0
 40
55.0
 40
56.0
 40
56.0
 40
56.0
 40
57.0
 40
57.0
 40
57.0
 40
58.0
 40
58.0
 40
58.0
 40
59.0
 40
59.0
 40
59.0
 40
60.0
 40
60.0
 40
60.0
 40
61.0
 40
61.0
 40
61.0
 40
62.0
 40
62.0
 40
62.0
 40
63.0
 40
63.0
 40
63.0
 40
64.0
 40
64.0
 40
64.0
 40
65.0
 40
65.0
 40
65.0
 40
66.0
 40
66.0
 40
66.0
 40
67.0
 40
67.0
 40
67.0
 40
68.0
 40
68.0
 40
68.0
 40
69.0
 40
69.0
 40
69.0
 40
70.0
 40
70.0
 40
70.0
 40
71.0
 40
71.0
 40
71.0
 40
72.0
 40
72.0
 40
72.0
 40
73.0
 40
73.0
 40
73.0
 40
74.0
 40
74.0
 40
74.0
 40
75.0
 40
75.0
 40
75.0
 40
76.0
 40
76.0
 40
76.0
 40
77.0
 40
77.0
 40
77.0
 40
78.0
 40
78.0
 40
78.0
 40
79.0
 40
79.0
 40
79.0
 40
79.0
 10
91.70775279825361
 20
-154.4649901957587
 10
91.70775279825361
 20
-154.4649901957587
 10
91.45402151576496
 20
-154.4649901957587
 10
91.45402151576496
 20
-154.4649901957587
 10
91.45402151576496
 20
-154.4649901957587
 10
91.17686358397662
 20
-154.4649901957587
 10
91.17686358397662
 20
-154.4649901957587
 10
91.17686358397662
 20
-154.4649901957587
 10
91.30381535260807
 20
-154.5073648702273
 10
91.30381535260807
 20
-154.5073648702273
 10
91.31432289383809
 20
-154.5114989848096
 10
91.32706974713352
 20
-154.5180446662316
 10
91.32706974713352
 20
-154.530791519527
 10
91.32706974713352
 20
-154.551806601987
 10
91.29537486866921
 20
-154.5580077738605
 10
91.27418753143492
 20
-154.5624863979913
 10
91.26350773543064
 20
-154.5855685377425
 10
91.23387991425749
 20
-154.6513698615108
 10
91.21493188908862
 20
-154.6958115932705
 10
91.21493188908862
 20
-154.6958115932705
 10
91.48571639422927
 20
-154.6958115932705
 10
91.48571639422927
 20
-154.6958115932705
 10
91.57666691503987
 20
-154.6958115932705
 10
91.77338186724764
 20
-154.6913329691396
 10
91.91514754646567
 20
-154.683064739975
 10
91.91514754646567
 20
-154.683064739975
 10
91.91514754646567
 20
-154.8608316670139
 10
91.91514754646567
 20
-154.8608316670139
 10
91.83263750959392
 20
-154.8563530428831
 10
91.81145017235964
 20
-154.8563530428831
 10
91.63161618802959
 20
-154.8522189283008
 10
91.59992130956529
 20
-155.00655920604
 10
91.55547957780559
 20
-155.0871744403949
 10
91.51103784604584
 20
-155.1567653691969
 10
91.63161618802959
 20
-155.2160210115432
 10
91.73738061942676
 20
-155.2838893926026
 10
91.84107799353279
 20
-155.3662271747001
 10
91.84107799353279
 20
-155.3662271747001
 10
91.72256670884019
 20
-155.5333143057347
 10
91.72256670884019
 20
-155.5333143057347
 10
91.69931231431474
 20
-155.5143662805658
 10
91.6867377157936
 20
-155.5057535418527
 10
91.5745998577487
 20
-155.4213487024641
 10
91.52585175663244
 20
-155.3831081425778
 10
91.46659611428614
 20
-155.3472791495312
 10
91.3863253894798
 20
-155.3028374177715
 10
91.17479652668547
 20
-155.488872573975
 10
90.96946883576459
 20
-155.5122992232747
 10
90.67973630545507
 20
-155.5419270444478
 10
90.67973630545507
 20
-155.5419270444478
 10
90.57603893134904
 20
-155.3620930601178
 10
90.57603893134904
 20
-155.3620930601178
 10
90.89333222554056
 20
-155.3579589455355
 10
91.06885984051404
 20
-155.3324652389447
 10
91.22130531573635
 20
-155.2225666929652
 10
91.10279403104376
 20
-155.1715792797835
 10
91.01391056752431
 20
-155.1440185159015
 10
90.97790931970344
 20
-155.1316161721546
 10
90.95896129453457
 20
-155.1588324264881
 10
90.94414738394799
 20
-155.1781249612054
 10
90.91658662006599
 20
-155.2118868969609
 10
90.91658662006599
 20
-155.2118868969609
 10
90.71987166785822
 20
-155.1292046053149
 10
90.71987166785822
 20
-155.1292046053149
 10
90.80238170472997
 20
-155.0489338805086
 10
90.86370440436741
 20
-154.9538492451157
 10
90.92089298942255
 20
-154.8522189283008
 10
90.73037920908824
 20
-154.8563530428831
 10
90.70936412662822
 20
-154.8563530428831
 10
90.62685408975649
 20
-154.8608316670139
 10
90.62685408975649
 20
-154.8608316670139
 10
90.62685408975649
 20
-154.683064739975
 10
90.62685408975649
 20
-154.683064739975
 10
90.76638045690911
 20
-154.6892659118485
 10
90.97584226241229
 20
-154.6934000264308
 10
91.00116371422888
 20
-154.6934000264308
 10
91.01821693688085
 20
-154.6596380906754
 10
91.07316620987061
 20
-154.5390597486916
 10
91.09228648981375
 20
-154.4649901957587
 10
91.07316620987061
 20
-154.4649901957587
 10
90.89539928283171
 20
-154.4715358771807
 10
90.70075138791509
 20
-154.4842827304761
 10
90.70075138791509
 20
-154.4842827304761
 10
90.70075138791509
 20
-154.6172634162068
 10
90.70075138791509
 20
-154.6172634162068
 10
90.65217554157307
 20
-154.6427571227976
 10
90.59291989922677
 20
-154.6744520012619
 10
90.45959470394761
 20
-154.7402533250302
 10
90.45959470394761
 20
-154.7402533250302
 10
90.45959470394761
 20
-154.8859808640562
 10
90.45959470394761
 20
-154.8859808640562
 10
90.45959470394761
 20
-154.8859808640562
 10
90.45959470394761
 20
-155.3534803214047
 10
90.45959470394761
 20
-155.3534803214047
 10
90.45959470394761
 20
-155.4806043448104
 10
90.423765710901
 20
-155.5398599871567
 10
90.14023435246494
 20
-155.5312472484436
 10
90.14023435246494
 20
-155.5312472484436
 10
90.03653697835892
 20
-155.3238525002315
 10
90.03653697835892
 20
-155.3238525002315
 10
90.10009899006178
 20
-155.3365993535269
 10
90.14867483640381
 20
-155.3407334681093
 10
90.18881019880696
 20
-155.3407334681093
 10
90.26511906380525
 20
-155.3407334681093
 10
90.27562660503527
 20
-155.3176513283581
 10
90.27562660503527
 20
-155.2521945141383
 10
90.27562660503527
 20
-155.2521945141383
 10
90.27562660503527
 20
-154.8225911071277
 10
90.27562660503527
 20
-154.8225911071277
 10
90.17830265757694
 20
-154.8628987243051
 10
90.16142168969924
 20
-154.8690998961785
 10
90.11491290064837
 20
-154.8880479213474
 10
90.11060653129179
 20
-154.909407513356
 10
90.10630016193523
 20
-154.9390353345291
 10
90.08735213676635
 20
-154.9390353345291
 10
90.0789116528275
 20
-154.9390353345291
 10
90.06823185682321
 20
-154.9349012199468
 10
90.06203068494977
 20
-154.9114745706471
 10
90.06203068494977
 20
-154.9114745706471
 10
90.00914846925118
 20
-154.7188937330217
 10
90.00914846925118
 20
-154.7188937330217
 10
90.15504826305152
 20
-154.6723849439708
 10
90.22067733204552
 20
-154.6493028042196
 10
90.27562660503527
 20
-154.627943212211
 10
90.27562660503527
 20
-154.627943212211
 10
90.27562660503527
 20
-154.2155652826266
 10
90.27562660503527
 20
-154.2155652826266
 10
90.27562660503527
 20
-154.2155652826266
 10
90.22274438933669
 20
-154.2155652826266
 10
90.22274438933669
 20
-154.2155652826266
 10
90.22274438933669
 20
-154.2155652826266
 10
90.14454072182152
 20
-154.2155652826266
 10
90.14454072182152
 20
-154.2155652826266
 10
90.07684459553635
 20
-154.2155652826266
 10
90.06823185682321
 20
-154.2155652826266
 10
90.03240286377662
 20
-154.2217664545001
 10
90.03240286377662
 20
-154.2217664545001
 10
90.03240286377662
 20
-154.0271185595835
 10
90.03240286377662
 20
-154.0271185595835
 10
90.05979137288436
 20
-154.0336642410055
 10
90.06823185682321
 20
-154.0336642410055
 10
90.1381672951738
 20
-154.0336642410055
 10
90.1381672951738
 20
-154.0336642410055
 10
90.27132023567871
 20
-154.0336642410055
 10
90.27132023567871
 20
-154.0336642410055
 10
90.27132023567871
 20
-153.9637288026549
 10
90.27132023567871
 20
-153.8810465110089
 10
90.26925317838756
 20
-153.8769123964266
 10
90.26081269444869
 20
-153.6970784120965
 10
90.26081269444869
 20
-153.6781303869277
 10
90.25874563715754
 20
-153.6316215978768
 10
90.25874563715754
 20
-153.6316215978768
 10
90.47440861453418
 20
-153.6398898270414
 10
90.47440861453418
 20
-153.6398898270414
 10
90.48508841053845
 20
-153.6398898270414
 10
90.50627574777275
 20
-153.6423013938811
 10
90.50627574777275
 20
-153.6591823617588
 10
90.50627574777275
 20
-153.6781303869277
 10
90.49146183718617
 20
-153.6888101829319
 10
90.46596813059531
 20
-153.7077582081008
 10
90.46596813059531
 20
-153.758401111734
 10
90.45959470394761
 20
-153.9868109424061
 10
90.46183401601302
 20
-154.0336642410055
 10
90.59085284193562
 20
-154.0336642410055
 10
90.60359969523105
 20
-154.0336642410055
 10
90.70075138791509
 20
-154.0250515022923
 10
90.70075138791509
 20
-154.0250515022923
 10
90.70075138791509
 20
-154.219699397209
 10
90.70075138791509
 20
-154.219699397209
 10
90.66268308280308
 20
-154.2176323399178
 10
90.59498695651793
 20
-154.2134982253355
 10
90.45959470394761
 20
-154.2155652826266
 10
90.45959470394761
 20
-154.2155652826266
 10
90.45959470394761
 20
-154.5538736592782
 10
90.45959470394761
 20
-154.5538736592782
 10
90.5147162317116
 20
-154.530791519527
 10
90.58017304593134
 20
-154.503230755645
 10
90.62892114704764
 20
-154.4798041063453
 10
90.62892114704764
 20
-154.4798041063453
 10
90.62892114704764
 20
-154.3020371793064
 10
90.62892114704764
 20
-154.3020371793064
 10
90.74312606238366
 20
-154.3147840326018
 10
90.86163734707627
 20
-154.3147840326018
 10
90.97790931970344
 20
-154.3147840326018
 10
90.95465492517801
 20
-154.219699397209
 10
90.92726641607027
 20
-154.1370171055629
 10
90.86370440436741
 20
-154.0040364198323
 10
90.81926267260769
 20
-154.0061034771234
 10
90.73675263573596
 20
-154.0102375917058
 10
90.69868433062394
 20
-154.0123046489969
 10
90.69868433062394
 20
-154.0123046489969
 10
90.69868433062394
 20
-153.8324706646669
 10
90.69868433062394
 20
-153.8324706646669
 10
90.82356904196425
 20
-153.84108340338
 10
90.99702959964657
 20
-153.8452175179623
 10
91.07953963651832
 20
-153.8452175179623
 10
91.07953963651832
 20
-153.8452175179623
 10
91.16204967339005
 20
-153.8452175179623
 10
91.16204967339005
 20
-153.8452175179623
 10
91.16204967339005
 20
-153.68226450151
 10
91.16204967339005
 20
-153.6719292150542
 10
91.1599826160989
 20
-153.6168076872902
 10
91.1599826160989
 20
-153.6168076872902
 10
91.38408607741439
 20
-153.6423013938811
 10
91.38408607741439
 20
-153.6423013938811
 10
91.38839244677097
 20
-153.6423013938811
 10
91.40957978400525
 20
-153.6443684511722
 10
91.40957978400525
 20
-153.6612494190499
 10
91.40957978400525
 20
-153.6760633296365
 10
91.39889998800098
 20
-153.6843315588011
 10
91.37151147889325
 20
-153.6991454693877
 10
91.36513805224552
 20
-153.764946793156
 10
91.36307099495438
 20
-153.785961875616
 10
91.36307099495438
 20
-153.8452175179623
 10
91.36307099495438
 20
-153.8452175179623
 10
91.45815563034727
 20
-153.8452175179623
 10
91.45815563034727
 20
-153.8452175179623
 10
91.54066566721899
 20
-153.8452175179623
 10
91.71412622490134
 20
-153.84108340338
 10
91.83901093624163
 20
-153.8324706646669
 10
91.83901093624163
 20
-153.8324706646669
 10
91.83901093624163
 20
-154.0123046489969
 10
91.83901093624163
 20
-154.0123046489969
 10
91.80938311506848
 20
-154.0102375917058
 10
91.69087183037589
 20
-154.0061034771234
 10
91.65073646797273
 20
-154.0040364198323
 10
91.63592255738617
 20
-154.0546793234655
 10
91.60198836685644
 20
-154.1666449267361
 10
91.5365315526367
 20
-154.3065158034372
 10
91.57873397233101
 20
-154.3065158034372
 10
91.85589190411937
 20
-154.2872232687198
 10
91.91721460375681
 20
-154.2851562114287
 10
91.91721460375681
 20
-154.2851562114287
 10
91.91721460375681
 20
-154.4694688198896
 10
91.91721460375681
 20
-154.4694688198896
 10
91.88758678258366
 20
-154.4694688198896
 10
91.87070581470594
 20
-154.4649901957587
 10
91.70775279825361
 20
-154.4649901957587
 97
        0
 97
        1
330
143
 75
     2
 76
     1
 98
        1
 10
0.0
 20
0.0
450
        0
451
        0
460
0.0
461
0.0
452
        0
462
0.0
453
        0
470

  0
SPLINE
  5
145
330
13D
100
AcDbEntity
  8
レイヤー 1
100
AcDbSpline
210
0.0
220
0.0
230
1.0
 70
    11
 71
     3
 72
    17
 73
    13
 74
     0
 42
0.0000000001
 43
0.0000000001
 40
0.0
 40
0.0
 40
0.0
 40
0.0
 40
1.0
 40
1.0
 40
1.0
 40
2.0
 40
2.0
 40
2.0
 40
3.0
 40
3.0
 40
3.0
 40
4.0
 40
4.0
 40
4.0
 40
4.0
 10
93.56431475525475
 20
-155.2645968578852
 30
0.0
 10
93.56431475525475
 20
-155.2645968578852
 30
0.0
 10
92.85772567123002
 20
-155.2645968578852
 30
0.0
 10
92.85772567123002
 20
-155.2645968578852
 30
0.0
 10
92.85772567123002
 20
-155.2645968578852
 30
0.0
 10
92.85772567123002
 20
-155.3789740279955
 30
0.0
 10
92.85772567123002
 20
-155.3789740279955
 30
0.0
 10
92.85772567123002
 20
-155.3789740279955
 30
0.0
 10
93.56431475525475
 20
-155.3789740279955
 30
0.0
 10
93.56431475525475
 20
-155.3789740279955
 30
0.0
 10
93.56431475525475
 20
-155.3789740279955
 30
0.0
 10
93.56431475525475
 20
-155.2645968578852
 30
0.0
 10
93.56431475525475
 20
-155.2645968578852
 30
0.0
  0
SPLINE
  5
146
330
13D
100
AcDbEntity
  8
レイヤー 1
100
AcDbSpline
210
0.0
220
0.0
230
1.0
 70
    11
 71
     3
 72
    17
 73
    13
 74
     0
 42
0.0000000001
 43
0.0000000001
 40
0.0
 40
0.0
 40
0.0
 40
0.0
 40
1.0
 40
1.0
 40
1.0
 40
2.0
 40
2.0
 40
2.0
 40
3.0
 40
3.0
 40
3.0
 40
4.0
 40
4.0
 40
4.0
 40
4.0
 10
93.56431475525475
 20
-155.0213731166266
 30
0.0
 10
93.56431475525475
 20
-155.0213731166266
 30
0.0
 10
92.85772567123002
 20
-155.0213731166266
 30
0.0
 10
92.85772567123002
 20
-155.0213731166266
 30
0.0
 10
92.85772567123002
 20
-155.0213731166266
 30
0.0
 10
92.85772567123002
 20
-155.1357502867369
 30
0.0
 10
92.85772567123002
 20
-155.1357502867369
 30
0.0
 10
92.85772567123002
 20
-155.1357502867369
 30
0.0
 10
93.56431475525475
 20
-155.1357502867369
 30
0.0
 10
93.56431475525475
 20
-155.1357502867369
 30
0.0
 10
93.56431475525475
 20
-155.1357502867369
 30
0.0
 10
93.56431475525475
 20
-155.0213731166266
 30
0.0
 10
93.56431475525475
 20
-155.0213731166266
 30
0.0
  0
SPLINE
  5
147
330
13D
100
AcDbEntity
  8
レイヤー 1
100
AcDbSpline
210
0.0
220
0.0
230
1.0
 70
    11
 71
     3
 72
    17
 73
    13
 74
     0
 42
0.0000000001
 43
0.0000000001
 40
0.0
 40
0.0
 40
0.0
 40
0.0
 40
1.0
 40
1.0
 40
1.0
 40
2.0
 40
2.0
 40
2.0
 40
3.0
 40
3.0
 40
3.0
 40
4.0
 40
4.0
 40
4.0
 40
4.0
 10
93.56431475525475
 20
-154.7888291713722
 30
0.0
 10
93.56431475525475
 20
-154.7888291713722
 30
0.0
 10
92.85772567123002
 20
-154.7888291713722
 30
0.0
 10
92.85772567123002
 20
-154.7888291713722
 30
0.0
 10
92.85772567123002
 20
-154.7888291713722
 30
0.0
 10
92.85772567123002
 20
-154.8966606600606
 30
0.0
 10
92.85772567123002
 20
-154.8966606600606
 30
0.0
 10
92.85772567123002
 20
-154.8966606600606
 30
0.0
 10
93.56431475525475
 20
-154.8966606600606
 30
0.0
 10
93.56431475525475
 20
-154.8966606600606
 30
0.0
 10
93.56431475525475
 20
-154.8966606600606
 30
0.0
 10
93.56431475525475
 20
-154.7888291713722
 30
0.0
 10
93.56431475525475
 20
-154.7888291713722
 30
0.0
  0
SPLINE
  5
148
330
13D
100
AcDbEntity
  8
レイヤー 1
100
AcDbSpline
210
0.0
220
0.0
230
1.0
 70
     9
 71
     3
 72
   203
 73
   199
 74
     0
 42
0.0000000001
 43
0.0000000001
 40
0.0
 40
0.0
 40
0.0
 40
0.0
 40
1.0
 40
1.0
 40
1.0
 40
2.0
 40
2.0
 40
2.0
 40
3.0
 40
3.0
 40
3.0
 40
4.0
 40
4.0
 40
4.0
 40
5.0
 40
5.0
 40
5.0
 40
6.0
 40
6.0
 40
6.0
 40
7.0
 40
7.0
 40
7.0
 40
8.0
 40
8.0
 40
8.0
 40
9.0
 40
9.0
 40
9.0
 40
10.0
 40
10.0
 40
10.0
 40
11.0
 40
11.0
 40
11.0
 40
12.0
 40
12.0
 40
12.0
 40
13.0
 40
13.0
 40
13.0
 40
14.0
 40
14.0
 40
14.0
 40
15.0
 40
15.0
 40
15.0
 40
16.0
 40
16.0
 40
16.0
 40
17.0
 40
17.0
 40
17.0
 40
18.0
 40
18.0
 40
18.0
 40
19.0
 40
19.0
 40
19.0
 40
20.0
 40
20.0
 40
20.0
 40
21.0
 40
21.0
 40
21.0
 40
22.0
 40
22.0
 40
22.0
 40
23.0
 40
23.0
 40
23.0
 40
24.0
 40
24.0
 40
24.0
 40
25.0
 40
25.0
 40
25.0
 40
26.0
 40
26.0
 40
26.0
 40
27.0
 40
27.0
 40
27.0
 40
28.0
 40
28.0
 40
28.0
 40
29.0
 40
29.0
 40
29.0
 40
30.0
 40
30.0
 40
30.0
 40
31.0
 40
31.0
 40
31.0
 40
32.0
 40
32.0
 40
32.0
 40
33.0
 40
33.0
 40
33.0
 40
34.0
 40
34.0
 40
34.0
 40
35.0
 40
35.0
 40
35.0
 40
36.0
 40
36.0
 40
36.0
 40
37.0
 40
37.0
 40
37.0
 40
38.0
 40
38.0
 40
38.0
 40
39.0
 40
39.0
 40
39.0
 40
40.0
 40
40.0
 40
40.0
 40
41.0
 40
41.0
 40
41.0
 40
42.0
 40
42.0
 40
42.0
 40
43.0
 40
43.0
 40
43.0
 40
44.0
 40
44.0
 40
44.0
 40
45.0
 40
45.0
 40
45.0
 40
46.0
 40
46.0
 40
46.0
 40
47.0
 40
47.0
 40
47.0
 40
48.0
 40
48.0
 40
48.0
 40
49.0
 40
49.0
 40
49.0
 40
50.0
 40
50.0
 40
50.0
 40
51.0
 40
51.0
 40
51.0
 40
52.0
 40
52.0
 40
52.0
 40
53.0
 40
53.0
 40
53.0
 40
54.0
 40
54.0
 40
54.0
 40
55.0
 40
55.0
 40
55.0
 40
56.0
 40
56.0
 40
56.0
 40
57.0
 40
57.0
 40
57.0
 40
58.0
 40
58.0
 40
58.0
 40
59.0
 40
59.0
 40
59.0
 40
60.0
 40
60.0
 40
60.0
 40
61.0
 40
61.0
 40
61.0
 40
62.0
 40
62.0
 40
62.0
 40
63.0
 40
63.0
 40
63.0
 40
64.0
 40
64.0
 40
64.0
 40
65.0
 40
65.0
 40
65.0
 40
66.0
 40
66.0
 40
66.0
 40
66.0
 10
93.3992946815113
 20
-154.5328585768181
 30
0.0
 10
93.3992946815113
 20
-154.5328585768181
 30
0.0
 10
92.84084470335228
 20
-154.5328585768181
 30
0.0
 10
92.84084470335228
 20
-154.5328585768181
 30
0.0
 10
92.83016490734802
 20
-154.5773003085779
 30
0.0
 10
92.82172442340915
 20
-154.6089951870422
 30
0.0
 10
92.80897757011372
 20
-154.6468912373799
 30
0.0
 10
92.83447127670457
 20
-154.6468912373799
 30
0.0
 10
92.84928518729115
 20
-154.6493028042196
 30
0.0
 10
92.85565861393887
 20
-154.6493028042196
 30
0.0
 10
92.85565861393887
 20
-154.6493028042196
 30
0.0
 10
93.04393308220777
 20
-154.6493028042196
 30
0.0
 10
93.04393308220777
 20
-154.6493028042196
 30
0.0
 10
93.04393308220777
 20
-154.6493028042196
 30
0.0
 10
93.41824270668016
 20
-154.6493028042196
 30
0.0
 10
93.41824270668016
 20
-154.6493028042196
 30
0.0
 10
93.46905786508761
 20
-154.6493028042196
 30
0.0
 10
93.75258922352365
 20
-154.6365559509242
 30
0.0
 10
93.78428410198797
 20
-154.6365559509242
 30
0.0
 10
93.7822170446968
 20
-154.6641167148062
 30
0.0
 10
93.77997773263139
 20
-154.683064739975
 30
0.0
 10
93.77997773263139
 20
-154.7126925611482
 30
0.0
 10
93.77791067534024
 20
-154.7443874396125
 30
0.0
 10
93.77791067534024
 20
-154.8797796921828
 30
0.0
 10
93.77791067534024
 20
-154.9073404560648
 30
0.0
 10
93.77791067534024
 20
-154.9073404560648
 30
0.0
 10
93.77791067534024
 20
-155.1526312546146
 30
0.0
 10
93.77791067534024
 20
-155.1526312546146
 30
0.0
 10
93.77791067534024
 20
-155.1970729863743
 30
0.0
 10
93.7822170446968
 20
-155.3937879385821
 30
0.0
 10
93.78635115927911
 20
-155.5460611590301
 30
0.0
 10
93.78635115927911
 20
-155.5460611590301
 30
0.0
 10
93.56000838589819
 20
-155.5460611590301
 30
0.0
 10
93.56000838589819
 20
-155.5460611590301
 30
0.0
 10
93.56000838589819
 20
-155.5460611590301
 30
0.0
 10
93.5622476979636
 20
-155.5122992232747
 30
0.0
 10
93.5622476979636
 20
-155.5122992232747
 30
0.0
 10
93.5622476979636
 20
-155.5122992232747
 30
0.0
 10
92.85979272852117
 20
-155.5122992232747
 30
0.0
 10
92.85979272852117
 20
-155.5122992232747
 30
0.0
 10
92.85979272852117
 20
-155.5122992232747
 30
0.0
 10
92.86185978581231
 20
-155.5460611590301
 30
0.0
 10
92.86185978581231
 20
-155.5460611590301
 30
0.0
 10
92.86185978581231
 20
-155.5460611590301
 30
0.0
 10
92.64395749637026
 20
-155.5460611590301
 30
0.0
 10
92.64395749637026
 20
-155.5460611590301
 30
0.0
 10
92.64826386572684
 20
-155.4909396312661
 30
0.0
 10
92.64826386572684
 20
-155.4785372875192
 30
0.0
 10
92.65463729237454
 20
-155.3641601174089
 30
0.0
 10
92.65670434966569
 20
-155.3365993535269
 30
0.0
 10
92.65877140695684
 20
-155.2032741582478
 30
0.0
 10
92.65877140695684
 20
-155.1843261330789
 30
0.0
 10
92.65877140695684
 20
-155.1843261330789
 30
0.0
 10
92.65877140695684
 20
-154.9814100089977
 30
0.0
 10
92.65877140695684
 20
-154.9814100089977
 30
0.0
 10
92.51924503980422
 20
-155.2308349221298
 30
0.0
 10
92.34991859670419
 20
-155.3620930601178
 30
0.0
 10
92.24415416530701
 20
-155.4275498743375
 30
0.0
 10
92.24415416530701
 20
-155.4275498743375
 30
0.0
 10
92.07069360762469
 20
-155.2880235071849
 30
0.0
 10
92.07069360762469
 20
-155.2880235071849
 30
0.0
 10
92.15957707114414
 20
-155.2373806035517
 30
0.0
 10
92.30340980765332
 20
-155.1505641973235
 30
0.0
 10
92.44086911751479
 20
-154.9559163024068
 30
0.0
 10
92.53199189309965
 20
-154.8287922790011
 30
0.0
 10
92.59744870731939
 20
-154.6851317972662
 30
0.0
 10
92.6313828978491
 20
-154.5328585768181
 30
0.0
 10
92.40280081240276
 20
-154.5349256341093
 30
0.0
 10
92.22296682807273
 20
-154.5411268059828
 30
0.0
 10
92.12788219267983
 20
-154.5431938632739
 30
0.0
 10
92.12788219267983
 20
-154.5431938632739
 30
0.0
 10
92.12788219267983
 20
-154.3657714457835
 30
0.0
 10
92.12788219267983
 20
-154.3657714457835
 30
0.0
 10
92.3245971448876
 20
-154.371972617657
 30
0.0
 10
92.60812850332367
 20
-154.3761067322393
 30
0.0
 10
92.75833466648057
 20
-154.3761067322393
 30
0.0
 10
92.75833466648057
 20
-154.3761067322393
 30
0.0
 10
92.97193058656604
 20
-154.3761067322393
 30
0.0
 10
92.97193058656604
 20
-154.3761067322393
 30
0.0
 10
92.97193058656604
 20
-154.3761067322393
 30
0.0
 10
92.97193058656604
 20
-154.268275243551
 30
0.0
 10
92.97193058656604
 20
-154.268275243551
 30
0.0
 10
92.97193058656604
 20
-154.268275243551
 30
0.0
 10
92.82603079276572
 20
-154.268275243551
 30
0.0
 10
92.82603079276572
 20
-154.268275243551
 30
0.0
 10
92.65670434966569
 20
-154.268275243551
 30
0.0
 10
92.48755016133992
 20
-154.2724093581333
 30
0.0
 10
92.32029077553105
 20
-154.2789550395552
 30
0.0
 10
92.32029077553105
 20
-154.2789550395552
 30
0.0
 10
92.32029077553105
 20
-154.1077337939383
 30
0.0
 10
92.32029077553105
 20
-154.1077337939383
 30
0.0
 10
92.47480330804449
 20
-154.1180690803941
 30
0.0
 10
92.66101071902225
 20
-154.1180690803941
 30
0.0
 10
92.82603079276572
 20
-154.1180690803941
 30
0.0
 10
92.82603079276572
 20
-154.1180690803941
 30
0.0
 10
92.97193058656604
 20
-154.1180690803941
 30
0.0
 10
92.97193058656604
 20
-154.1180690803941
 30
0.0
 10
92.97193058656604
 20
-154.1180690803941
 30
0.0
 10
92.97193058656604
 20
-153.9995577957015
 30
0.0
 10
92.97193058656604
 20
-153.9995577957015
 30
0.0
 10
92.97193058656604
 20
-153.9995577957015
 30
0.0
 10
92.84084470335228
 20
-153.9995577957015
 30
0.0
 10
92.84084470335228
 20
-153.9995577957015
 30
0.0
 10
92.79416365952716
 20
-153.9995577957015
 30
0.0
 10
92.59107528067167
 20
-154.0081705344146
 30
0.0
 10
92.54887286097737
 20
-154.0081705344146
 30
0.0
 10
92.34578448212188
 20
-154.0123046489969
 30
0.0
 10
92.26964787189787
 20
-154.014371706288
 30
0.0
 10
92.19127194960844
 20
-154.0164387635792
 30
0.0
 10
92.19127194960844
 20
-154.0164387635792
 30
0.0
 10
92.19127194960844
 20
-153.8324706646669
 30
0.0
 10
92.19127194960844
 20
-153.8324706646669
 30
0.0
 10
92.30547686494446
 20
-153.84108340338
 30
0.0
 10
92.34991859670419
 20
-153.84108340338
 30
0.0
 10
92.73284095988971
 20
-153.8493516325446
 30
0.0
 10
92.66945120296112
 20
-153.7542669971517
 30
0.0
 10
92.64189043907911
 20
-153.7267062332697
 30
0.0
 10
92.60588919125826
 20
-153.6908772402231
 30
0.0
 10
92.60588919125826
 20
-153.6908772402231
 30
0.0
 10
92.781589061006
 20
-153.6081949485771
 30
0.0
 10
92.781589061006
 20
-153.6081949485771
 30
0.0
 10
92.82172442340915
 20
-153.6443684511722
 30
0.0
 10
92.86616615516889
 20
-153.6867431256408
 30
0.0
 10
92.94023570810175
 20
-153.7966416716202
 30
0.0
 10
92.94023570810175
 20
-153.7966416716202
 30
0.0
 10
92.82603079276572
 20
-153.8517631993843
 30
0.0
 10
92.82603079276572
 20
-153.8517631993843
 30
0.0
 10
92.82603079276572
 20
-153.8517631993843
 30
0.0
 10
92.83653833399574
 20
-153.8517631993843
 30
0.0
 10
92.83653833399574
 20
-153.8517631993843
 30
0.0
 10
92.83653833399574
 20
-153.8517631993843
 30
0.0
 10
93.35898706433388
 20
-153.8517631993843
 30
0.0
 10
93.35898706433388
 20
-153.8517631993843
 30
0.0
 10
93.35898706433388
 20
-153.8517631993843
 30
0.0
 10
93.26390242894097
 20
-153.8073214676245
 30
0.0
 10
93.26390242894097
 20
-153.8073214676245
 30
0.0
 10
93.29146319282298
 20
-153.7690809077383
 30
0.0
 10
93.34847952310386
 20
-153.6888101829319
 30
0.0
 10
93.36329343369042
 20
-153.6147406299991
 30
0.0
 10
93.36329343369042
 20
-153.6147406299991
 30
0.0
 10
93.57688935377593
 20
-153.6781303869277
 30
0.0
 10
93.57688935377593
 20
-153.6781303869277
 30
0.0
 10
93.58550209248905
 20
-153.6801974442188
 30
0.0
 10
93.60651717494908
 20
-153.6908772402231
 30
0.0
 10
93.60651717494908
 20
-153.7118923226831
 30
0.0
 10
93.60651717494908
 20
-153.7501328825694
 30
0.0
 10
93.54106036072932
 20
-153.7501328825694
 30
0.0
 10
93.52194008078617
 20
-153.7501328825694
 30
0.0
 10
93.51143253955617
 20
-153.7690809077383
 30
0.0
 10
93.48817814503075
 20
-153.8093885249157
 30
0.0
 10
93.4585503238576
 20
-153.8493516325446
 30
0.0
 10
93.85835365492082
 20
-153.8431504606711
 30
0.0
 10
93.88798147609398
 20
-153.84108340338
 30
0.0
 10
93.964118086318
 20
-153.834537721958
 30
0.0
 10
93.964118086318
 20
-153.834537721958
 30
0.0
 10
93.964118086318
 20
-154.0164387635792
 30
0.0
 10
93.964118086318
 20
-154.0164387635792
 30
0.0
 10
93.94499780637486
 20
-154.0164387635792
 30
0.0
 10
93.91967635455827
 20
-154.014371706288
 30
0.0
 10
93.69970700782507
 20
-154.0061034771234
 30
0.0
 10
93.64889184941764
 20
-154.0040364198323
 30
0.0
 10
93.42892250268445
 20
-153.9995577957015
 30
0.0
 10
93.3844807709247
 20
-153.9995577957015
 30
0.0
 10
93.3844807709247
 20
-153.9995577957015
 30
0.0
 10
93.16864553877381
 20
-153.9995577957015
 30
0.0
 10
93.16864553877381
 20
-153.9995577957015
 30
0.0
 10
93.16864553877381
 20
-153.9995577957015
 30
0.0
 10
93.16864553877381
 20
-154.1180690803941
 30
0.0
 10
93.16864553877381
 20
-154.1180690803941
 30
0.0
 10
93.16864553877381
 20
-154.1180690803941
 30
0.0
 10
93.34210609645614
 20
-154.1180690803941
 30
0.0
 10
93.34210609645614
 20
-154.1180690803941
 30
0.0
 10
93.50505911290845
 20
-154.1180690803941
 30
0.0
 10
93.69540063846852
 20
-154.1180690803941
 30
0.0
 10
93.85198022827312
 20
-154.1077337939383
 30
0.0
 10
93.85198022827312
 20
-154.1077337939383
 30
0.0
 10
93.85198022827312
 20
-154.2789550395552
 30
0.0
 10
93.85198022827312
 20
-154.2789550395552
 30
0.0
 10
93.64251842276992
 20
-154.2703423008421
 30
0.0
 10
93.44580347056217
 20
-154.268275243551
 30
0.0
 10
93.34210609645614
 20
-154.268275243551
 30
0.0
 10
93.34210609645614
 20
-154.268275243551
 30
0.0
 10
93.16864553877381
 20
-154.268275243551
 30
0.0
 10
93.16864553877381
 20
-154.268275243551
 30
0.0
 10
93.16864553877381
 20
-154.268275243551
 30
0.0
 10
93.16864553877381
 20
-154.3761067322393
 30
0.0
 10
93.16864553877381
 20
-154.3761067322393
 30
0.0
 10
93.16864553877381
 20
-154.3761067322393
 30
0.0
 10
93.3992946815113
 20
-154.3761067322393
 30
0.0
 10
93.3992946815113
 20
-154.3761067322393
 30
0.0
 10
93.53261987679045
 20
-154.3761067322393
 30
0.0
 10
93.82028534980882
 20
-154.371972617657
 30
0.0
 10
94.029747155312
 20
-154.3657714457835
 30
0.0
 10
94.029747155312
 20
-154.3657714457835
 30
0.0
 10
94.029747155312
 20
-154.5431938632739
 30
0.0
 10
94.029747155312
 20
-154.5431938632739
 30
0.0
 10
93.83716631768654
 20
-154.5369926914005
 30
0.0
 10
93.52400713807734
 20
-154.5328585768181
 30
0.0
 10
93.3992946815113
 20
-154.5328585768181
 30
0.0
  0
HATCH
  5
149
330
13D
100
AcDbEntity
  8
レイヤー 1
 62
    18
420
        0
440
 33554687
100
AcDbHatch
 10
0.0
 20
0.0
 30
0.0
210
0.0
220
0.0
230
1.0
  2
SOLID
 70
     1
 71
     1
 91
        4
 92
        1
 93
        1
 72
     4
 94
        3
 73
     0
 74
     0
 95
       17
 96
       13
 40
0.0
 40
0.0
 40
0.0
 40
0.0
 40
1.0
 40
1.0
 40
1.0
 40
2.0
 40
2.0
 40
2.0
 40
3.0
 40
3.0
 40
3.0
 40
4.0
 40
4.0
 40
4.0
 40
4.0
 10
93.56431475525475
 20
-155.2645968578852
 10
93.56431475525475
 20
-155.2645968578852
 10
92.85772567123002
 20
-155.2645968578852
 10
92.85772567123002
 20
-155.2645968578852
 10
92.85772567123002
 20
-155.2645968578852
 10
92.85772567123002
 20
-155.3789740279955
 10
92.85772567123002
 20
-155.3789740279955
 10
92.85772567123002
 20
-155.3789740279955
 10
93.56431475525475
 20
-155.3789740279955
 10
93.56431475525475
 20
-155.3789740279955
 10
93.56431475525475
 20
-155.3789740279955
 10
93.56431475525475
 20
-155.2645968578852
 10
93.56431475525475
 20
-155.2645968578852
 97
        0
 97
        1
330
145
 92
        1
 93
        1
 72
     4
 94
        3
 73
     0
 74
     0
 95
       17
 96
       13
 40
0.0
 40
0.0
 40
0.0
 40
0.0
 40
1.0
 40
1.0
 40
1.0
 40
2.0
 40
2.0
 40
2.0
 40
3.0
 40
3.0
 40
3.0
 40
4.0
 40
4.0
 40
4.0
 40
4.0
 10
93.56431475525475
 20
-155.0213731166266
 10
93.56431475525475
 20
-155.0213731166266
 10
92.85772567123002
 20
-155.0213731166266
 10
92.85772567123002
 20
-155.0213731166266
 10
92.85772567123002
 20
-155.0213731166266
 10
92.85772567123002
 20
-155.1357502867369
 10
92.85772567123002
 20
-155.1357502867369
 10
92.85772567123002
 20
-155.1357502867369
 10
93.56431475525475
 20
-155.1357502867369
 10
93.56431475525475
 20
-155.1357502867369
 10
93.56431475525475
 20
-155.1357502867369
 10
93.56431475525475
 20
-155.0213731166266
 10
93.56431475525475
 20
-155.0213731166266
 97
        0
 97
        1
330
146
 92
        1
 93
        1
 72
     4
 94
        3
 73
     0
 74
     0
 95
       17
 96
       13
 40
0.0
 40
0.0
 40
0.0
 40
0.0
 40
1.0
 40
1.0
 40
1.0
 40
2.0
 40
2.0
 40
2.0
 40
3.0
 40
3.0
 40
3.0
 40
4.0
 40
4.0
 40
4.0
 40
4.0
 10
93.56431475525475
 20
-154.7888291713722
 10
93.56431475525475
 20
-154.7888291713722
 10
92.85772567123002
 20
-154.7888291713722
 10
92.85772567123002
 20
-154.7888291713722
 10
92.85772567123002
 20
-154.7888291713722
 10
92.85772567123002
 20
-154.8966606600606
 10
92.85772567123002
 20
-154.8966606600606
 10
92.85772567123002
 20
-154.8966606600606
 10
93.56431475525475
 20
-154.8966606600606
 10
93.56431475525475
 20
-154.8966606600606
 10
93.56431475525475
 20
-154.8966606600606
 10
93.56431475525475
 20
-154.7888291713722
 10
93.56431475525475
 20
-154.7888291713722
 97
        0
 97
        1
330
147
 92
        1
 93
        1
 72
     4
 94
        3
 73
     0
 74
     0
 95
      203
 96
      199
 40
0.0
 40
0.0
 40
0.0
 40
0.0
 40
1.0
 40
1.0
 40
1.0
 40
2.0
 40
2.0
 40
2.0
 40
3.0
 40
3.0
 40
3.0
 40
4.0
 40
4.0
 40
4.0
 40
5.0
 40
5.0
 40
5.0
 40
6.0
 40
6.0
 40
6.0
 40
7.0
 40
7.0
 40
7.0
 40
8.0
 40
8.0
 40
8.0
 40
9.0
 40
9.0
 40
9.0
 40
10.0
 40
10.0
 40
10.0
 40
11.0
 40
11.0
 40
11.0
 40
12.0
 40
12.0
 40
12.0
 40
13.0
 40
13.0
 40
13.0
 40
14.0
 40
14.0
 40
14.0
 40
15.0
 40
15.0
 40
15.0
 40
16.0
 40
16.0
 40
16.0
 40
17.0
 40
17.0
 40
17.0
 40
18.0
 40
18.0
 40
18.0
 40
19.0
 40
19.0
 40
19.0
 40
20.0
 40
20.0
 40
20.0
 40
21.0
 40
21.0
 40
21.0
 40
22.0
 40
22.0
 40
22.0
 40
23.0
 40
23.0
 40
23.0
 40
24.0
 40
24.0
 40
24.0
 40
25.0
 40
25.0
 40
25.0
 40
26.0
 40
26.0
 40
26.0
 40
27.0
 40
27.0
 40
27.0
 40
28.0
 40
28.0
 40
28.0
 40
29.0
 40
29.0
 40
29.0
 40
30.0
 40
30.0
 40
30.0
 40
31.0
 40
31.0
 40
31.0
 40
32.0
 40
32.0
 40
32.0
 40
33.0
 40
33.0
 40
33.0
 40
34.0
 40
34.0
 40
34.0
 40
35.0
 40
35.0
 40
35.0
 40
36.0
 40
36.0
 40
36.0
 40
37.0
 40
37.0
 40
37.0
 40
38.0
 40
38.0
 40
38.0
 40
39.0
 40
39.0
 40
39.0
 40
40.0
 40
40.0
 40
40.0
 40
41.0
 40
41.0
 40
41.0
 40
42.0
 40
42.0
 40
42.0
 40
43.0
 40
43.0
 40
43.0
 40
44.0
 40
44.0
 40
44.0
 40
45.0
 40
45.0
 40
45.0
 40
46.0
 40
46.0
 40
46.0
 40
47.0
 40
47.0
 40
47.0
 40
48.0
 40
48.0
 40
48.0
 40
49.0
 40
49.0
 40
49.0
 40
50.0
 40
50.0
 40
50.0
 40
51.0
 40
51.0
 40
51.0
 40
52.0
 40
52.0
 40
52.0
 40
53.0
 40
53.0
 40
53.0
 40
54.0
 40
54.0
 40
54.0
 40
55.0
 40
55.0
 40
55.0
 40
56.0
 40
56.0
 40
56.0
 40
57.0
 40
57.0
 40
57.0
 40
58.0
 40
58.0
 40
58.0
 40
59.0
 40
59.0
 40
59.0
 40
60.0
 40
60.0
 40
60.0
 40
61.0
 40
61.0
 40
61.0
 40
62.0
 40
62.0
 40
62.0
 40
63.0
 40
63.0
 40
63.0
 40
64.0
 40
64.0
 40
64.0
 40
65.0
 40
65.0
 40
65.0
 40
66.0
 40
66.0
 40
66.0
 40
66.0
 10
93.3992946815113
 20
-154.5328585768181
 10
93.3992946815113
 20
-154.5328585768181
 10
92.84084470335228
 20
-154.5328585768181
 10
92.84084470335228
 20
-154.5328585768181
 10
92.83016490734802
 20
-154.5773003085779
 10
92.82172442340915
 20
-154.6089951870422
 10
92.80897757011372
 20
-154.6468912373799
 10
92.83447127670457
 20
-154.6468912373799
 10
92.84928518729115
 20
-154.6493028042196
 10
92.85565861393887
 20
-154.6493028042196
 10
92.85565861393887
 20
-154.6493028042196
 10
93.04393308220777
 20
-154.6493028042196
 10
93.04393308220777
 20
-154.6493028042196
 10
93.04393308220777
 20
-154.6493028042196
 10
93.41824270668016
 20
-154.6493028042196
 10
93.41824270668016
 20
-154.6493028042196
 10
93.46905786508761
 20
-154.6493028042196
 10
93.75258922352365
 20
-154.6365559509242
 10
93.78428410198797
 20
-154.6365559509242
 10
93.7822170446968
 20
-154.6641167148062
 10
93.77997773263139
 20
-154.683064739975
 10
93.77997773263139
 20
-154.7126925611482
 10
93.77791067534024
 20
-154.7443874396125
 10
93.77791067534024
 20
-154.8797796921828
 10
93.77791067534024
 20
-154.9073404560648
 10
93.77791067534024
 20
-154.9073404560648
 10
93.77791067534024
 20
-155.1526312546146
 10
93.77791067534024
 20
-155.1526312546146
 10
93.77791067534024
 20
-155.1970729863743
 10
93.7822170446968
 20
-155.3937879385821
 10
93.78635115927911
 20
-155.5460611590301
 10
93.78635115927911
 20
-155.5460611590301
 10
93.56000838589819
 20
-155.5460611590301
 10
93.56000838589819
 20
-155.5460611590301
 10
93.56000838589819
 20
-155.5460611590301
 10
93.5622476979636
 20
-155.5122992232747
 10
93.5622476979636
 20
-155.5122992232747
 10
93.5622476979636
 20
-155.5122992232747
 10
92.85979272852117
 20
-155.5122992232747
 10
92.85979272852117
 20
-155.5122992232747
 10
92.85979272852117
 20
-155.5122992232747
 10
92.86185978581231
 20
-155.5460611590301
 10
92.86185978581231
 20
-155.5460611590301
 10
92.86185978581231
 20
-155.5460611590301
 10
92.64395749637026
 20
-155.5460611590301
 10
92.64395749637026
 20
-155.5460611590301
 10
92.64826386572684
 20
-155.4909396312661
 10
92.64826386572684
 20
-155.4785372875192
 10
92.65463729237454
 20
-155.3641601174089
 10
92.65670434966569
 20
-155.3365993535269
 10
92.65877140695684
 20
-155.2032741582478
 10
92.65877140695684
 20
-155.1843261330789
 10
92.65877140695684
 20
-155.1843261330789
 10
92.65877140695684
 20
-154.9814100089977
 10
92.65877140695684
 20
-154.9814100089977
 10
92.51924503980422
 20
-155.2308349221298
 10
92.34991859670419
 20
-155.3620930601178
 10
92.24415416530701
 20
-155.4275498743375
 10
92.24415416530701
 20
-155.4275498743375
 10
92.07069360762469
 20
-155.2880235071849
 10
92.07069360762469
 20
-155.2880235071849
 10
92.15957707114414
 20
-155.2373806035517
 10
92.30340980765332
 20
-155.1505641973235
 10
92.44086911751479
 20
-154.9559163024068
 10
92.53199189309965
 20
-154.8287922790011
 10
92.59744870731939
 20
-154.6851317972662
 10
92.6313828978491
 20
-154.5328585768181
 10
92.40280081240276
 20
-154.5349256341093
 10
92.22296682807273
 20
-154.5411268059828
 10
92.12788219267983
 20
-154.5431938632739
 10
92.12788219267983
 20
-154.5431938632739
 10
92.12788219267983
 20
-154.3657714457835
 10
92.12788219267983
 20
-154.3657714457835
 10
92.3245971448876
 20
-154.371972617657
 10
92.60812850332367
 20
-154.3761067322393
 10
92.75833466648057
 20
-154.3761067322393
 10
92.75833466648057
 20
-154.3761067322393
 10
92.97193058656604
 20
-154.3761067322393
 10
92.97193058656604
 20
-154.3761067322393
 10
92.97193058656604
 20
-154.3761067322393
 10
92.97193058656604
 20
-154.268275243551
 10
92.97193058656604
 20
-154.268275243551
 10
92.97193058656604
 20
-154.268275243551
 10
92.82603079276572
 20
-154.268275243551
 10
92.82603079276572
 20
-154.268275243551
 10
92.65670434966569
 20
-154.268275243551
 10
92.48755016133992
 20
-154.2724093581333
 10
92.32029077553105
 20
-154.2789550395552
 10
92.32029077553105
 20
-154.2789550395552
 10
92.32029077553105
 20
-154.1077337939383
 10
92.32029077553105
 20
-154.1077337939383
 10
92.47480330804449
 20
-154.1180690803941
 10
92.66101071902225
 20
-154.1180690803941
 10
92.82603079276572
 20
-154.1180690803941
 10
92.82603079276572
 20
-154.1180690803941
 10
92.97193058656604
 20
-154.1180690803941
 10
92.97193058656604
 20
-154.1180690803941
 10
92.97193058656604
 20
-154.1180690803941
 10
92.97193058656604
 20
-153.9995577957015
 10
92.97193058656604
 20
-153.9995577957015
 10
92.97193058656604
 20
-153.9995577957015
 10
92.84084470335228
 20
-153.9995577957015
 10
92.84084470335228
 20
-153.9995577957015
 10
92.79416365952716
 20
-153.9995577957015
 10
92.59107528067167
 20
-154.0081705344146
 10
92.54887286097737
 20
-154.0081705344146
 10
92.34578448212188
 20
-154.0123046489969
 10
92.26964787189787
 20
-154.014371706288
 10
92.19127194960844
 20
-154.0164387635792
 10
92.19127194960844
 20
-154.0164387635792
 10
92.19127194960844
 20
-153.8324706646669
 10
92.19127194960844
 20
-153.8324706646669
 10
92.30547686494446
 20
-153.84108340338
 10
92.34991859670419
 20
-153.84108340338
 10
92.73284095988971
 20
-153.8493516325446
 10
92.66945120296112
 20
-153.7542669971517
 10
92.64189043907911
 20
-153.7267062332697
 10
92.60588919125826
 20
-153.6908772402231
 10
92.60588919125826
 20
-153.6908772402231
 10
92.781589061006
 20
-153.6081949485771
 10
92.781589061006
 20
-153.6081949485771
 10
92.82172442340915
 20
-153.6443684511722
 10
92.86616615516889
 20
-153.6867431256408
 10
92.94023570810175
 20
-153.7966416716202
 10
92.94023570810175
 20
-153.7966416716202
 10
92.82603079276572
 20
-153.8517631993843
 10
92.82603079276572
 20
-153.8517631993843
 10
92.82603079276572
 20
-153.8517631993843
 10
92.83653833399574
 20
-153.8517631993843
 10
92.83653833399574
 20
-153.8517631993843
 10
92.83653833399574
 20
-153.8517631993843
 10
93.35898706433388
 20
-153.8517631993843
 10
93.35898706433388
 20
-153.8517631993843
 10
93.35898706433388
 20
-153.8517631993843
 10
93.26390242894097
 20
-153.8073214676245
 10
93.26390242894097
 20
-153.8073214676245
 10
93.29146319282298
 20
-153.7690809077383
 10
93.34847952310386
 20
-153.6888101829319
 10
93.36329343369042
 20
-153.6147406299991
 10
93.36329343369042
 20
-153.6147406299991
 10
93.57688935377593
 20
-153.6781303869277
 10
93.57688935377593
 20
-153.6781303869277
 10
93.58550209248905
 20
-153.6801974442188
 10
93.60651717494908
 20
-153.6908772402231
 10
93.60651717494908
 20
-153.7118923226831
 10
93.60651717494908
 20
-153.7501328825694
 10
93.54106036072932
 20
-153.7501328825694
 10
93.52194008078617
 20
-153.7501328825694
 10
93.51143253955617
 20
-153.7690809077383
 10
93.48817814503075
 20
-153.8093885249157
 10
93.4585503238576
 20
-153.8493516325446
 10
93.85835365492082
 20
-153.8431504606711
 10
93.88798147609398
 20
-153.84108340338
 10
93.964118086318
 20
-153.834537721958
 10
93.964118086318
 20
-153.834537721958
 10
93.964118086318
 20
-154.0164387635792
 10
93.964118086318
 20
-154.0164387635792
 10
93.94499780637486
 20
-154.0164387635792
 10
93.91967635455827
 20
-154.014371706288
 10
93.69970700782507
 20
-154.0061034771234
 10
93.64889184941764
 20
-154.0040364198323
 10
93.42892250268445
 20
-153.9995577957015
 10
93.3844807709247
 20
-153.9995577957015
 10
93.3844807709247
 20
-153.9995577957015
 10
93.16864553877381
 20
-153.9995577957015
 10
93.16864553877381
 20
-153.9995577957015
 10
93.16864553877381
 20
-153.9995577957015
 10
93.16864553877381
 20
-154.1180690803941
 10
93.16864553877381
 20
-154.1180690803941
 10
93.16864553877381
 20
-154.1180690803941
 10
93.34210609645614
 20
-154.1180690803941
 10
93.34210609645614
 20
-154.1180690803941
 10
93.50505911290845
 20
-154.1180690803941
 10
93.69540063846852
 20
-154.1180690803941
 10
93.85198022827312
 20
-154.1077337939383
 10
93.85198022827312
 20
-154.1077337939383
 10
93.85198022827312
 20
-154.2789550395552
 10
93.85198022827312
 20
-154.2789550395552
 10
93.64251842276992
 20
-154.2703423008421
 10
93.44580347056217
 20
-154.268275243551
 10
93.34210609645614
 20
-154.268275243551
 10
93.34210609645614
 20
-154.268275243551
 10
93.16864553877381
 20
-154.268275243551
 10
93.16864553877381
 20
-154.268275243551
 10
93.16864553877381
 20
-154.268275243551
 10
93.16864553877381
 20
-154.3761067322393
 10
93.16864553877381
 20
-154.3761067322393
 10
93.16864553877381
 20
-154.3761067322393
 10
93.3992946815113
 20
-154.3761067322393
 10
93.3992946815113
 20
-154.3761067322393
 10
93.53261987679045
 20
-154.3761067322393
 10
93.82028534980882
 20
-154.371972617657
 10
94.029747155312
 20
-154.3657714457835
 10
94.029747155312
 20
-154.3657714457835
 10
94.029747155312
 20
-154.5431938632739
 10
94.029747155312
 20
-154.5431938632739
 10
93.83716631768654
 20
-154.5369926914005
 10
93.52400713807734
 20
-154.5328585768181
 10
93.3992946815113
 20
-154.5328585768181
 97
        0
 97
        1
330
148
 75
     2
 76
     1
 98
        1
 10
0.0
 20
0.0
450
        0
451
        0
460
0.0
461
0.0
452
        0
462
0.0
453
        0
470

  0
SPLINE
  5
14A
330
13D
100
AcDbEntity
  8
レイヤー 1
100
AcDbSpline
210
0.0
220
0.0
230
1.0
 70
     9
 71
     3
 72
    29
 73
    25
 74
     0
 42
0.0000000001
 43
0.0000000001
 40
0.0
 40
0.0
 40
0.0
 40
0.0
 40
1.0
 40
1.0
 40
1.0
 40
2.0
 40
2.0
 40
2.0
 40
3.0
 40
3.0
 40
3.0
 40
4.0
 40
4.0
 40
4.0
 40
5.0
 40
5.0
 40
5.0
 40
6.0
 40
6.0
 40
6.0
 40
7.0
 40
7.0
 40
7.0
 40
8.0
 40
8.0
 40
8.0
 40
8.0
 10
95.2748046636813
 20
-153.9806097705326
 30
0.0
 10
95.2748046636813
 20
-153.9806097705326
 30
0.0
 10
94.92151012166893
 20
-153.9806097705326
 30
0.0
 10
94.92151012166893
 20
-153.9806097705326
 30
0.0
 10
94.80937226362405
 20
-153.9806097705326
 30
0.0
 10
94.66967364169716
 20
-153.9868109424061
 30
0.0
 10
94.56184215300885
 20
-153.9995577957015
 30
0.0
 10
94.56184215300885
 20
-153.9995577957015
 30
0.0
 10
94.56184215300885
 20
-153.764946793156
 30
0.0
 10
94.56184215300885
 20
-153.764946793156
 30
0.0
 10
94.68035343770145
 20
-153.7797607037425
 30
0.0
 10
94.86432153661379
 20
-153.7838948183248
 30
0.0
 10
94.92151012166893
 20
-153.7838948183248
 30
0.0
 10
94.92151012166893
 20
-153.7838948183248
 30
0.0
 10
95.2748046636813
 20
-153.7838948183248
 30
0.0
 10
95.2748046636813
 20
-153.7838948183248
 30
0.0
 10
95.29375268885017
 20
-153.7838948183248
 30
0.0
 10
95.49684106770566
 20
-153.7838948183248
 30
0.0
 10
95.63860674692369
 20
-153.764946793156
 30
0.0
 10
95.63860674692369
 20
-153.764946793156
 30
0.0
 10
95.63860674692369
 20
-153.9995577957015
 30
0.0
 10
95.63860674692369
 20
-153.9995577957015
 30
0.0
 10
95.48202715711907
 20
-153.9806097705326
 30
0.0
 10
95.29168563155904
 20
-153.9806097705326
 30
0.0
 10
95.2748046636813
 20
-153.9806097705326
 30
0.0
  0
SPLINE
  5
14B
330
13D
100
AcDbEntity
  8
レイヤー 1
100
AcDbSpline
210
0.0
220
0.0
230
1.0
 70
     9
 71
     3
 72
    47
 73
    43
 74
     0
 42
0.0000000001
 43
0.0000000001
 40
0.0
 40
0.0
 40
0.0
 40
0.0
 40
1.0
 40
1.0
 40
1.0
 40
2.0
 40
2.0
 40
2.0
 40
3.0
 40
3.0
 40
3.0
 40
4.0
 40
4.0
 40
4.0
 40
5.0
 40
5.0
 40
5.0
 40
6.0
 40
6.0
 40
6.0
 40
7.0
 40
7.0
 40
7.0
 40
8.0
 40
8.0
 40
8.0
 40
9.0
 40
9.0
 40
9.0
 40
10.0
 40
10.0
 40
10.0
 40
11.0
 40
11.0
 40
11.0
 40
12.0
 40
12.0
 40
12.0
 40
13.0
 40
13.0
 40
13.0
 40
14.0
 40
14.0
 40
14.0
 40
14.0
 10
95.37626272572191
 20
-154.5094319275184
 30
0.0
 10
95.37626272572191
 20
-154.5094319275184
 30
0.0
 10
95.2748046636813
 20
-154.5094319275184
 30
0.0
 10
95.2748046636813
 20
-154.5094319275184
 30
0.0
 10
95.2748046636813
 20
-154.5962483337468
 30
0.0
 10
95.25361732644702
 20
-154.98554412358
 30
0.0
 10
95.05690237423925
 20
-155.2056857250875
 30
0.0
 10
94.90445689901696
 20
-155.3748399134132
 30
0.0
 10
94.69723440557917
 20
-155.4444308422153
 30
0.0
 10
94.61265731141628
 20
-155.4719916060973
 30
0.0
 10
94.61265731141628
 20
-155.4719916060973
 30
0.0
 10
94.41800941649967
 20
-155.3049044750626
 30
0.0
 10
94.41800941649967
 20
-155.3049044750626
 30
0.0
 10
94.51533336395797
 20
-155.2921576217672
 30
0.0
 10
94.69086097893145
 20
-155.269075482016
 30
0.0
 10
94.87913544720035
 20
-155.0806287589729
 30
0.0
 10
94.95320500013324
 20
-155.0086262633312
 30
0.0
 10
95.05690237423925
 20
-154.8690998961785
 30
0.0
 10
95.05690237423925
 20
-154.5094319275184
 30
0.0
 10
95.05690237423925
 20
-154.5094319275184
 30
0.0
 10
94.82625323150179
 20
-154.5094319275184
 30
0.0
 10
94.82625323150179
 20
-154.5094319275184
 30
0.0
 10
94.64004582052401
 20
-154.5094319275184
 30
0.0
 10
94.45383840954626
 20
-154.5139105516493
 30
0.0
 10
94.26780325334277
 20
-154.5283799526873
 30
0.0
 10
94.26780325334277
 20
-154.5283799526873
 30
0.0
 10
94.26780325334277
 20
-154.3085828607284
 30
0.0
 10
94.26780325334277
 20
-154.3085828607284
 30
0.0
 10
94.45607772161167
 20
-154.323396771315
 30
0.0
 10
94.74167613733888
 20
-154.3275308858973
 30
0.0
 10
94.82625323150179
 20
-154.3275308858973
 30
0.0
 10
94.82625323150179
 20
-154.3275308858973
 30
0.0
 10
95.37626272572191
 20
-154.3275308858973
 30
0.0
 10
95.37626272572191
 20
-154.3275308858973
 30
0.0
 10
95.39538300566505
 20
-154.3275308858973
 30
0.0
 10
95.71267629985655
 20
-154.3275308858973
 30
0.0
 10
95.94108613052862
 20
-154.3085828607284
 30
0.0
 10
95.94108613052862
 20
-154.3085828607284
 30
0.0
 10
95.94108613052862
 20
-154.5283799526873
 30
0.0
 10
95.94108613052862
 20
-154.5283799526873
 30
0.0
 10
95.75281166225972
 20
-154.5139105516493
 30
0.0
 10
95.56453719399081
 20
-154.5094319275184
 30
0.0
 10
95.37626272572191
 20
-154.5094319275184
 30
0.0
  0
HATCH
  5
14C
330
13D
100
AcDbEntity
  8
レイヤー 1
 62
    18
420
        0
440
 33554687
100
AcDbHatch
 10
0.0
 20
0.0
 30
0.0
210
0.0
220
0.0
230
1.0
  2
SOLID
 70
     1
 71
     1
 91
        2
 92
        1
 93
        1
 72
     4
 94
        3
 73
     0
 74
     0
 95
       29
 96
       25
 40
0.0
 40
0.0
 40
0.0
 40
0.0
 40
1.0
 40
1.0
 40
1.0
 40
2.0
 40
2.0
 40
2.0
 40
3.0
 40
3.0
 40
3.0
 40
4.0
 40
4.0
 40
4.0
 40
5.0
 40
5.0
 40
5.0
 40
6.0
 40
6.0
 40
6.0
 40
7.0
 40
7.0
 40
7.0
 40
8.0
 40
8.0
 40
8.0
 40
8.0
 10
95.2748046636813
 20
-153.9806097705326
 10
95.2748046636813
 20
-153.9806097705326
 10
94.92151012166893
 20
-153.9806097705326
 10
94.92151012166893
 20
-153.9806097705326
 10
94.80937226362405
 20
-153.9806097705326
 10
94.66967364169716
 20
-153.9868109424061
 10
94.56184215300885
 20
-153.9995577957015
 10
94.56184215300885
 20
-153.9995577957015
 10
94.56184215300885
 20
-153.764946793156
 10
94.56184215300885
 20
-153.764946793156
 10
94.68035343770145
 20
-153.7797607037425
 10
94.86432153661379
 20
-153.7838948183248
 10
94.92151012166893
 20
-153.7838948183248
 10
94.92151012166893
 20
-153.7838948183248
 10
95.2748046636813
 20
-153.7838948183248
 10
95.2748046636813
 20
-153.7838948183248
 10
95.29375268885017
 20
-153.7838948183248
 10
95.49684106770566
 20
-153.7838948183248
 10
95.63860674692369
 20
-153.764946793156
 10
95.63860674692369
 20
-153.764946793156
 10
95.63860674692369
 20
-153.9995577957015
 10
95.63860674692369
 20
-153.9995577957015
 10
95.48202715711907
 20
-153.9806097705326
 10
95.29168563155904
 20
-153.9806097705326
 10
95.2748046636813
 20
-153.9806097705326
 97
        0
 97
        1
330
14A
 92
        1
 93
        1
 72
     4
 94
        3
 73
     0
 74
     0
 95
       47
 96
       43
 40
0.0
 40
0.0
 40
0.0
 40
0.0
 40
1.0
 40
1.0
 40
1.0
 40
2.0
 40
2.0
 40
2.0
 40
3.0
 40
3.0
 40
3.0
 40
4.0
 40
4.0
 40
4.0
 40
5.0
 40
5.0
 40
5.0
 40
6.0
 40
6.0
 40
6.0
 40
7.0
 40
7.0
 40
7.0
 40
8.0
 40
8.0
 40
8.0
 40
9.0
 40
9.0
 40
9.0
 40
10.0
 40
10.0
 40
10.0
 40
11.0
 40
11.0
 40
11.0
 40
12.0
 40
12.0
 40
12.0
 40
13.0
 40
13.0
 40
13.0
 40
14.0
 40
14.0
 40
14.0
 40
14.0
 10
95.37626272572191
 20
-154.5094319275184
 10
95.37626272572191
 20
-154.5094319275184
 10
95.2748046636813
 20
-154.5094319275184
 10
95.2748046636813
 20
-154.5094319275184
 10
95.2748046636813
 20
-154.5962483337468
 10
95.25361732644702
 20
-154.98554412358
 10
95.05690237423925
 20
-155.2056857250875
 10
94.90445689901696
 20
-155.3748399134132
 10
94.69723440557917
 20
-155.4444308422153
 10
94.61265731141628
 20
-155.4719916060973
 10
94.61265731141628
 20
-155.4719916060973
 10
94.41800941649967
 20
-155.3049044750626
 10
94.41800941649967
 20
-155.3049044750626
 10
94.51533336395797
 20
-155.2921576217672
 10
94.69086097893145
 20
-155.269075482016
 10
94.87913544720035
 20
-155.0806287589729
 10
94.95320500013324
 20
-155.0086262633312
 10
95.05690237423925
 20
-154.8690998961785
 10
95.05690237423925
 20
-154.5094319275184
 10
95.05690237423925
 20
-154.5094319275184
 10
94.82625323150179
 20
-154.5094319275184
 10
94.82625323150179
 20
-154.5094319275184
 10
94.64004582052401
 20
-154.5094319275184
 10
94.45383840954626
 20
-154.5139105516493
 10
94.26780325334277
 20
-154.5283799526873
 10
94.26780325334277
 20
-154.5283799526873
 10
94.26780325334277
 20
-154.3085828607284
 10
94.26780325334277
 20
-154.3085828607284
 10
94.45607772161167
 20
-154.323396771315
 10
94.74167613733888
 20
-154.3275308858973
 10
94.82625323150179
 20
-154.3275308858973
 10
94.82625323150179
 20
-154.3275308858973
 10
95.37626272572191
 20
-154.3275308858973
 10
95.37626272572191
 20
-154.3275308858973
 10
95.39538300566505
 20
-154.3275308858973
 10
95.71267629985655
 20
-154.3275308858973
 10
95.94108613052862
 20
-154.3085828607284
 10
95.94108613052862
 20
-154.3085828607284
 10
95.94108613052862
 20
-154.5283799526873
 10
95.94108613052862
 20
-154.5283799526873
 10
95.75281166225972
 20
-154.5139105516493
 10
95.56453719399081
 20
-154.5094319275184
 10
95.37626272572191
 20
-154.5094319275184
 97
        0
 97
        1
330
14B
 75
     2
 76
     1
 98
        1
 10
0.0
 20
0.0
450
        0
451
        0
460
0.0
461
0.0
452
        0
462
0.0
453
        0
470

  0
SPLINE
  5
14D
330
13D
100
AcDbEntity
  8
レイヤー 1
100
AcDbSpline
210
0.0
220
0.0
230
1.0
 70
     9
 71
     3
 72
    29
 73
    25
 74
     0
 42
0.0000000001
 43
0.0000000001
 40
0.0
 40
0.0
 40
0.0
 40
0.0
 40
1.0
 40
1.0
 40
1.0
 40
2.0
 40
2.0
 40
2.0
 40
3.0
 40
3.0
 40
3.0
 40
4.0
 40
4.0
 40
4.0
 40
5.0
 40
5.0
 40
5.0
 40
6.0
 40
6.0
 40
6.0
 40
7.0
 40
7.0
 40
7.0
 40
8.0
 40
8.0
 40
8.0
 40
8.0
 10
97.22197263194452
 20
-154.6723849439708
 30
0.0
 10
97.22197263194452
 20
-154.6723849439708
 30
0.0
 10
96.7375922067184
 20
-154.6723849439708
 30
0.0
 10
96.7375922067184
 20
-154.6723849439708
 30
0.0
 10
96.71003144283638
 20
-154.6723849439708
 30
0.0
 10
96.39273814864488
 20
-154.6723849439708
 30
0.0
 10
96.18120928585055
 20
-154.6978786505616
 30
0.0
 10
96.18120928585055
 20
-154.6978786505616
 30
0.0
 10
96.18120928585055
 20
-154.4670572530499
 30
0.0
 10
96.18120928585055
 20
-154.4670572530499
 30
0.0
 10
96.3398559329463
 20
-154.4904839023496
 30
0.0
 10
96.53019745850635
 20
-154.4925509596407
 30
0.0
 10
96.7375922067184
 20
-154.4925509596407
 30
0.0
 10
96.7375922067184
 20
-154.4925509596407
 30
0.0
 10
97.22197263194452
 20
-154.4925509596407
 30
0.0
 10
97.22197263194452
 20
-154.4925509596407
 30
0.0
 10
97.40818004292227
 20
-154.4925509596407
 30
0.0
 10
97.59438745390001
 20
-154.4904839023496
 30
0.0
 10
97.77835555281235
 20
-154.4670572530499
 30
0.0
 10
97.77835555281235
 20
-154.4670572530499
 30
0.0
 10
97.77835555281235
 20
-154.6978786505616
 30
0.0
 10
97.77835555281235
 20
-154.6978786505616
 30
0.0
 10
97.59438745390001
 20
-154.6744520012619
 30
0.0
 10
97.34685734328483
 20
-154.6723849439708
 30
0.0
 10
97.22197263194452
 20
-154.6723849439708
 30
0.0
  0
HATCH
  5
14E
330
13D
100
AcDbEntity
  8
レイヤー 1
 62
    18
420
        0
440
 33554687
100
AcDbHatch
 10
0.0
 20
0.0
 30
0.0
210
0.0
220
0.0
230
1.0
  2
SOLID
 70
     1
 71
     1
 91
        1
 92
        1
 93
        1
 72
     4
 94
        3
 73
     0
 74
     0
 95
       29
 96
       25
 40
0.0
 40
0.0
 40
0.0
 40
0.0
 40
1.0
 40
1.0
 40
1.0
 40
2.0
 40
2.0
 40
2.0
 40
3.0
 40
3.0
 40
3.0
 40
4.0
 40
4.0
 40
4.0
 40
5.0
 40
5.0
 40
5.0
 40
6.0
 40
6.0
 40
6.0
 40
7.0
 40
7.0
 40
7.0
 40
8.0
 40
8.0
 40
8.0
 40
8.0
 10
97.22197263194452
 20
-154.6723849439708
 10
97.22197263194452
 20
-154.6723849439708
 10
96.7375922067184
 20
-154.6723849439708
 10
96.7375922067184
 20
-154.6723849439708
 10
96.71003144283638
 20
-154.6723849439708
 10
96.39273814864488
 20
-154.6723849439708
 10
96.18120928585055
 20
-154.6978786505616
 10
96.18120928585055
 20
-154.6978786505616
 10
96.18120928585055
 20
-154.4670572530499
 10
96.18120928585055
 20
-154.4670572530499
 10
96.3398559329463
 20
-154.4904839023496
 10
96.53019745850635
 20
-154.4925509596407
 10
96.7375922067184
 20
-154.4925509596407
 10
96.7375922067184
 20
-154.4925509596407
 10
97.22197263194452
 20
-154.4925509596407
 10
97.22197263194452
 20
-154.4925509596407
 10
97.40818004292227
 20
-154.4925509596407
 10
97.59438745390001
 20
-154.4904839023496
 10
97.77835555281235
 20
-154.4670572530499
 10
97.77835555281235
 20
-154.4670572530499
 10
97.77835555281235
 20
-154.6978786505616
 10
97.77835555281235
 20
-154.6978786505616
 10
97.59438745390001
 20
-154.6744520012619
 10
97.34685734328483
 20
-154.6723849439708
 10
97.22197263194452
 20
-154.6723849439708
 97
        0
 97
        1
330
14D
 75
     2
 76
     1
 98
        1
 10
0.0
 20
0.0
450
        0
451
        0
460
0.0
461
0.0
452
        0
462
0.0
453
        0
470

  0
SPLINE
  5
14F
330
13D
100
AcDbEntity
  8
レイヤー 1
100
AcDbSpline
210
0.0
220
0.0
230
1.0
 70
     9
 71
     3
 72
    47
 73
    43
 74
     0
 42
0.0000000001
 43
0.0000000001
 40
0.0
 40
0.0
 40
0.0
 40
0.0
 40
1.0
 40
1.0
 40
1.0
 40
2.0
 40
2.0
 40
2.0
 40
3.0
 40
3.0
 40
3.0
 40
4.0
 40
4.0
 40
4.0
 40
5.0
 40
5.0
 40
5.0
 40
6.0
 40
6.0
 40
6.0
 40
7.0
 40
7.0
 40
7.0
 40
8.0
 40
8.0
 40
8.0
 40
9.0
 40
9.0
 40
9.0
 40
10.0
 40
10.0
 40
10.0
 40
11.0
 40
11.0
 40
11.0
 40
12.0
 40
12.0
 40
12.0
 40
13.0
 40
13.0
 40
13.0
 40
14.0
 40
14.0
 40
14.0
 40
14.0
 10
99.44216441741376
 20
-154.0781059727652
 30
0.0
 10
99.37240123383746
 20
-154.3571587070704
 30
0.0
 10
99.29626462361344
 20
-154.6617051479665
 30
0.0
 10
98.98310544400423
 20
-154.9938123527446
 30
0.0
 10
98.74625512939331
 20
-155.2435817754252
 30
0.0
 10
98.50079207606924
 20
-155.3431450349489
 30
0.0
 10
98.39502764467209
 20
-155.385175199869
 30
0.0
 10
98.39502764467209
 20
-155.385175199869
 30
0.0
 10
98.20037974975548
 20
-155.2032741582478
 30
0.0
 10
98.20037974975548
 20
-155.2032741582478
 30
0.0
 10
98.38658716073322
 20
-155.1567653691969
 30
0.0
 10
98.74832218668444
 20
-155.0637477910951
 30
0.0
 10
99.04442814364168
 20
-154.5686875698647
 30
0.0
 10
99.20531410280284
 20
-154.3020371793064
 30
0.0
 10
99.21788870132401
 20
-154.1287488763983
 30
0.0
 10
99.22650144003712
 20
-154.0377983555877
 30
0.0
 10
99.22650144003712
 20
-154.0377983555877
 30
0.0
 10
98.72076142280246
 20
-154.0377983555877
 30
0.0
 10
98.72076142280246
 20
-154.0377983555877
 30
0.0
 10
98.60242239288412
 20
-154.0377983555877
 30
0.0
 10
98.18143172458659
 20
-154.0567463807566
 30
0.0
 10
98.02898624936428
 20
-154.0674261767609
 30
0.0
 10
98.02898624936428
 20
-154.0674261767609
 30
0.0
 10
98.02898624936428
 20
-153.8579643712577
 30
0.0
 10
98.02898624936428
 20
-153.8579643712577
 30
0.0
 10
98.17075192858233
 20
-153.8707112245531
 30
0.0
 10
98.44790986037068
 20
-153.8748453391354
 30
0.0
 10
98.56435408777212
 20
-153.8748453391354
 30
0.0
 10
98.56435408777212
 20
-153.8748453391354
 30
0.0
 10
98.91971568707564
 20
-153.8748453391354
 30
0.0
 10
98.91971568707564
 20
-153.8748453391354
 30
0.0
 10
98.94710419618336
 20
-153.8748453391354
 30
0.0
 10
99.10799015534454
 20
-153.8727782818443
 30
0.0
 10
99.21788870132401
 20
-153.8579643712577
 30
0.0
 10
99.27507728637916
 20
-153.8517631993843
 30
0.0
 10
99.29195825425686
 20
-153.8324706646669
 30
0.0
 10
99.31521264878231
 20
-153.8093885249157
 30
0.0
 10
99.31521264878231
 20
-153.8093885249157
 30
0.0
 10
99.50348711705123
 20
-153.9595946880726
 30
0.0
 10
99.50348711705123
 20
-153.9595946880726
 30
0.0
 10
99.48867320646463
 20
-153.9892225092457
 30
0.0
 10
99.47816566523464
 20
-154.0081705344146
 30
0.0
 10
99.44216441741376
 20
-154.0781059727652
 30
0.0
  0
HATCH
  5
150
330
13D
100
AcDbEntity
  8
レイヤー 1
 62
    18
420
        0
440
 33554687
100
AcDbHatch
 10
0.0
 20
0.0
 30
0.0
210
0.0
220
0.0
230
1.0
  2
SOLID
 70
     1
 71
     1
 91
        1
 92
        1
 93
        1
 72
     4
 94
        3
 73
     0
 74
     0
 95
       47
 96
       43
 40
0.0
 40
0.0
 40
0.0
 40
0.0
 40
1.0
 40
1.0
 40
1.0
 40
2.0
 40
2.0
 40
2.0
 40
3.0
 40
3.0
 40
3.0
 40
4.0
 40
4.0
 40
4.0
 40
5.0
 40
5.0
 40
5.0
 40
6.0
 40
6.0
 40
6.0
 40
7.0
 40
7.0
 40
7.0
 40
8.0
 40
8.0
 40
8.0
 40
9.0
 40
9.0
 40
9.0
 40
10.0
 40
10.0
 40
10.0
 40
11.0
 40
11.0
 40
11.0
 40
12.0
 40
12.0
 40
12.0
 40
13.0
 40
13.0
 40
13.0
 40
14.0
 40
14.0
 40
14.0
 40
14.0
 10
99.44216441741376
 20
-154.0781059727652
 10
99.37240123383746
 20
-154.3571587070704
 10
99.29626462361344
 20
-154.6617051479665
 10
98.98310544400423
 20
-154.9938123527446
 10
98.74625512939331
 20
-155.2435817754252
 10
98.50079207606924
 20
-155.3431450349489
 10
98.39502764467209
 20
-155.385175199869
 10
98.39502764467209
 20
-155.385175199869
 10
98.20037974975548
 20
-155.2032741582478
 10
98.20037974975548
 20
-155.2032741582478
 10
98.38658716073322
 20
-155.1567653691969
 10
98.74832218668444
 20
-155.0637477910951
 10
99.04442814364168
 20
-154.5686875698647
 10
99.20531410280284
 20
-154.3020371793064
 10
99.21788870132401
 20
-154.1287488763983
 10
99.22650144003712
 20
-154.0377983555877
 10
99.22650144003712
 20
-154.0377983555877
 10
98.72076142280246
 20
-154.0377983555877
 10
98.72076142280246
 20
-154.0377983555877
 10
98.60242239288412
 20
-154.0377983555877
 10
98.18143172458659
 20
-154.0567463807566
 10
98.02898624936428
 20
-154.0674261767609
 10
98.02898624936428
 20
-154.0674261767609
 10
98.02898624936428
 20
-153.8579643712577
 10
98.02898624936428
 20
-153.8579643712577
 10
98.17075192858233
 20
-153.8707112245531
 10
98.44790986037068
 20
-153.8748453391354
 10
98.56435408777212
 20
-153.8748453391354
 10
98.56435408777212
 20
-153.8748453391354
 10
98.91971568707564
 20
-153.8748453391354
 10
98.91971568707564
 20
-153.8748453391354
 10
98.94710419618336
 20
-153.8748453391354
 10
99.10799015534454
 20
-153.8727782818443
 10
99.21788870132401
 20
-153.8579643712577
 10
99.27507728637916
 20
-153.8517631993843
 10
99.29195825425686
 20
-153.8324706646669
 10
99.31521264878231
 20
-153.8093885249157
 10
99.31521264878231
 20
-153.8093885249157
 10
99.50348711705123
 20
-153.9595946880726
 10
99.50348711705123
 20
-153.9595946880726
 10
99.48867320646463
 20
-153.9892225092457
 10
99.47816566523464
 20
-154.0081705344146
 10
99.44216441741376
 20
-154.0781059727652
 97
        0
 97
        1
330
14F
 75
     2
 76
     1
 98
        1
 10
0.0
 20
0.0
450
        0
451
        0
460
0.0
461
0.0
452
        0
462
0.0
453
        0
470

  0
SPLINE
  5
151
330
13D
100
AcDbEntity
  8
レイヤー 1
100
AcDbSpline
210
0.0
220
0.0
230
1.0
 70
    11
 71
     3
 72
    17
 73
    13
 74
     0
 42
0.0000000001
 43
0.0000000001
 40
0.0
 40
0.0
 40
0.0
 40
0.0
 40
1.0
 40
1.0
 40
1.0
 40
2.0
 40
2.0
 40
2.0
 40
3.0
 40
3.0
 40
3.0
 40
4.0
 40
4.0
 40
4.0
 40
4.0
 10
99.83249373589258
 20
-153.8600314285489
 30
0.0
 10
99.83249373589258
 20
-153.9192870708952
 30
0.0
 10
99.87900252494345
 20
-153.9657958599461
 30
0.0
 10
99.93825816728975
 20
-153.9657958599461
 30
0.0
 10
99.99751380963605
 20
-153.9657958599461
 30
0.0
 10
100.046089655978
 20
-153.9192870708952
 30
0.0
 10
100.046089655978
 20
-153.8600314285489
 30
0.0
 10
100.046089655978
 20
-153.8007757862026
 30
0.0
 10
99.99751380963605
 20
-153.7521999398605
 30
0.0
 10
99.93825816728975
 20
-153.7521999398605
 30
0.0
 10
99.87900252494345
 20
-153.7521999398605
 30
0.0
 10
99.83249373589258
 20
-153.8007757862026
 30
0.0
 10
99.83249373589258
 20
-153.8600314285489
 30
0.0
  0
SPLINE
  5
152
330
13D
100
AcDbEntity
  8
レイヤー 1
100
AcDbSpline
210
0.0
220
0.0
230
1.0
 70
     9
 71
     3
 72
    17
 73
    13
 74
     0
 42
0.0000000001
 43
0.0000000001
 40
0.0
 40
0.0
 40
0.0
 40
0.0
 40
1.0
 40
1.0
 40
1.0
 40
2.0
 40
2.0
 40
2.0
 40
3.0
 40
3.0
 40
3.0
 40
4.0
 40
4.0
 40
4.0
 40
4.0
 10
100.1477199727929
 20
-153.8600314285489
 30
0.0
 10
100.1477199727929
 20
-153.9744085986592
 30
0.0
 10
100.0545301399169
 20
-154.0694932340521
 30
0.0
 10
99.93825816728975
 20
-154.0694932340521
 30
0.0
 10
99.82405325195372
 20
-154.0694932340521
 30
0.0
 10
99.72879636178655
 20
-153.9744085986592
 30
0.0
 10
99.72879636178655
 20
-153.8600314285489
 30
0.0
 10
99.72879636178655
 20
-153.7435872011474
 30
0.0
 10
99.82405325195372
 20
-153.6505696230457
 30
0.0
 10
99.93825816728975
 20
-153.6505696230457
 30
0.0
 10
100.0524630826258
 20
-153.6505696230457
 30
0.0
 10
100.1477199727929
 20
-153.7435872011474
 30
0.0
 10
100.1477199727929
 20
-153.8600314285489
 30
0.0
  0
HATCH
  5
153
330
13D
100
AcDbEntity
  8
レイヤー 1
 62
    18
420
        0
440
 33554687
100
AcDbHatch
 10
0.0
 20
0.0
 30
0.0
210
0.0
220
0.0
230
1.0
  2
SOLID
 70
     1
 71
     1
 91
        2
 92
        1
 93
        1
 72
     4
 94
        3
 73
     0
 74
     0
 95
       17
 96
       13
 40
0.0
 40
0.0
 40
0.0
 40
0.0
 40
1.0
 40
1.0
 40
1.0
 40
2.0
 40
2.0
 40
2.0
 40
3.0
 40
3.0
 40
3.0
 40
4.0
 40
4.0
 40
4.0
 40
4.0
 10
99.83249373589258
 20
-153.8600314285489
 10
99.83249373589258
 20
-153.9192870708952
 10
99.87900252494345
 20
-153.9657958599461
 10
99.93825816728975
 20
-153.9657958599461
 10
99.99751380963605
 20
-153.9657958599461
 10
100.046089655978
 20
-153.9192870708952
 10
100.046089655978
 20
-153.8600314285489
 10
100.046089655978
 20
-153.8007757862026
 10
99.99751380963605
 20
-153.7521999398605
 10
99.93825816728975
 20
-153.7521999398605
 10
99.87900252494345
 20
-153.7521999398605
 10
99.83249373589258
 20
-153.8007757862026
 10
99.83249373589258
 20
-153.8600314285489
 97
        0
 97
        1
330
151
 92
        1
 93
        1
 72
     4
 94
        3
 73
     0
 74
     0
 95
       17
 96
       13
 40
0.0
 40
0.0
 40
0.0
 40
0.0
 40
1.0
 40
1.0
 40
1.0
 40
2.0
 40
2.0
 40
2.0
 40
3.0
 40
3.0
 40
3.0
 40
4.0
 40
4.0
 40
4.0
 40
4.0
 10
100.1477199727929
 20
-153.8600314285489
 10
100.1477199727929
 20
-153.9744085986592
 10
100.0545301399169
 20
-154.0694932340521
 10
99.93825816728975
 20
-154.0694932340521
 10
99.82405325195372
 20
-154.0694932340521
 10
99.72879636178655
 20
-153.9744085986592
 10
99.72879636178655
 20
-153.8600314285489
 10
99.72879636178655
 20
-153.7435872011474
 10
99.82405325195372
 20
-153.6505696230457
 10
99.93825816728975
 20
-153.6505696230457
 10
100.0524630826258
 20
-153.6505696230457
 10
100.1477199727929
 20
-153.7435872011474
 10
100.1477199727929
 20
-153.8600314285489
 97
        0
 97
        1
330
152
 75
     2
 76
     1
 98
        1
 10
0.0
 20
0.0
450
        0
451
        0
460
0.0
461
0.0
452
        0
462
0.0
453
        0
470

  0
ENDBLK
  5
140
330
13D
100
AcDbEntity
  8
0
100
AcDbBlockEnd
  0
BLOCK
  5
156
330
154
100
AcDbEntity
  8
0
100
AcDbBlockBegin
  2
Block_17
 70
     0
 10
0.0
 20
0.0
 30
0.0
  3
Block_17
  1

  0
INSERT
  5
159
330
154
100
AcDbEntity
  8
レイヤー 1
100
AcDbBlockReference
  2
Block_18
 10
0.0
 20
0.0
 30
0.0
  0
LINE
  5
15E
330
154
100
AcDbEntity
  8
レイヤー 1
 62
    18
420
        0
370
     9
100
AcDbLine
 10
89.58738255678813
 20
-148.4241748382322
 30
0.0
 11
94.37521187908487
 21
-153.366309281441
 31
0.0
  0
ENDBLK
  5
157
330
154
100
AcDbEntity
  8
0
100
AcDbBlockEnd
  0
BLOCK
  5
15A
330
158
100
AcDbEntity
  8
0
100
AcDbBlockBegin
  2
Block_18
 70
     0
 10
0.0
 20
0.0
 30
0.0
  3
Block_18
  1

  0
LINE
  5
15C
330
158
100
AcDbEntity
  8
レイヤー 1
 62
    18
420
        0
370
     9
100
AcDbLine
 10
89.54533144674982
 20
-148.3714698382453
 30
0.0
 11
90.40180531378824
 21
-148.8882187270046
 31
0.0
  0
LINE
  5
15D
330
158
100
AcDbEntity
  8
レイヤー 1
 62
    18
420
        0
370
     9
100
AcDbLine
 10
90.02902504552087
 20
-149.247029004693
 30
0.0
 11
89.54533144674982
 21
-148.3714698382453
 31
0.0
  0
ENDBLK
  5
15B
330
158
100
AcDbEntity
  8
0
100
AcDbBlockEnd
  0
ENDSEC
  0
SECTION
  2
ENTITIES
  0
INSERT
  5
7A
330
70
100
AcDbEntity
  8
レイヤー 1
100
AcDbBlockReference
  2
Block_0
 10
0.0
 20
0.0
 30
0.0
  0
INSERT
  5
A8
330
70
100
AcDbEntity
  8
レイヤー 1
100
AcDbBlockReference
  2
Block_3
 10
0.0
 20
0.0
 30
0.0
  0
LINE
  5
133
330
70
100
AcDbEntity
  8
レイヤー 1
  6
AI-Linetype-0
 62
   154
420
    23468
370
    25
100
AcDbLine
 10
84.79835379007754
 20
-148.1309812271943
 30
0.0
 11
94.79875686827934
 21
-148.1309812271943
 31
0.0
  0
INSERT
  5
136
330
70
100
AcDbEntity
  8
レイヤー 1
100
AcDbBlockReference
  2
Block_14
 10
0.0
 20
0.0
 30
0.0
  0
ENDSEC
  0
SECTION
  2
OBJECTS
  0
DICTIONARY
  5
C
330
0
100
AcDbDictionary
281
     1
  3
ACAD_COLOR
350
63
  3
ACAD_DETAILVIEWSTYLE
350
6A
  3
ACAD_GROUP
350
D
  3
ACAD_LAYOUT
350
62
  3
ACAD_MATERIAL
350
10
  3
ACAD_MLEADERSTYLE
350
66
  3
ACAD_MLINESTYLE
350
5F
  3
ACAD_PLOTSETTINGS
350
61
  3
ACAD_PLOTSTYLENAME
350
E
  3
ACAD_SCALELIST
350
42
  3
ACAD_SECTIONVIEWSTYLE
350
68
  3
ACAD_TABLESTYLE
350
64
  3
ACAD_VISUALSTYLE
350
29
  3
ACDB_RECOMPOSE_DATA
350
167
  3
AcDbVariableDictionary
350
15F
  0
DICTIONARY
  5
63
102
{ACAD_REACTORS
330
C
102
}
330
C
100
AcDbDictionary
281
     1
  0
DICTIONARY
  5
6A
102
{ACAD_REACTORS
330
C
102
}
330
C
100
AcDbDictionary
281
     1
  3
Imperial24
350
6B
  0
DICTIONARY
  5
D
102
{ACAD_REACTORS
330
C
102
}
330
C
100
AcDbDictionary
281
     1
  0
DICTIONARY
  5
62
102
{ACAD_REACTORS
330
C
102
}
330
C
100
AcDbDictionary
281
     1
  3
Layout1
350
6F
  3
Layout2
350
77
  3
Model
350
73
  0
DICTIONARY
  5
10
102
{ACAD_REACTORS
330
C
102
}
330
C
100
AcDbDictionary
281
     1
  3
ByBlock
350
19
  3
ByLayer
350
11
  3
Global
350
21
  0
DICTIONARY
  5
66
102
{ACAD_REACTORS
330
C
102
}
330
C
100
AcDbDictionary
281
     1
  3
Standard
350
67
  0
DICTIONARY
  5
5F
102
{ACAD_REACTORS
330
C
102
}
330
C
100
AcDbDictionary
281
     1
  3
Standard
350
60
  0
DICTIONARY
  5
61
102
{ACAD_REACTORS
330
C
102
}
330
C
100
AcDbDictionary
281
     1
  0
ACDBDICTIONARYWDFLT
  5
E
102
{ACAD_REACTORS
330
C
102
}
330
C
100
AcDbDictionary
281
     1
  3
Normal
350
F
100
AcDbDictionaryWithDefault
340
F
  0
DICTIONARY
  5
42
102
{ACAD_REACTORS
330
C
102
}
330
C
100
AcDbDictionary
281
     1
  3
A0
350
43
  3
A1
350
44
  3
A2
350
45
  3
A3
350
46
  3
A4
350
47
  3
A5
350
48
  3
A6
350
49
  3
A7
350
4A
  3
A8
350
4B
  3
A9
350
4C
  3
B0
350
4D
  3
B1
350
4E
  3
B2
350
4F
  3
B3
350
50
  3
B4
350
51
  3
B5
350
52
  3
B6
350
53
  0
DICTIONARY
  5
68
102
{ACAD_REACTORS
330
C
102
}
330
C
100
AcDbDictionary
281
     1
  3
Imperial24
350
69
  0
DICTIONARY
  5
64
102
{ACAD_REACTORS
330
C
102
}
330
C
100
AcDbDictionary
281
     1
  3
Standard
350
65
  0
DICTIONARY
  5
29
102
{ACAD_REACTORS
330
C
102
}
330
C
100
AcDbDictionary
281
     1
  3
2dWireframe
350
2F
  3
Basic
350
2E
  3
Brighten
350
35
  3
ColorChange
350
39
  3
Conceptual
350
32
  3
Dim
350
34
  3
EdgeColorOff
350
41
  3
Facepattern
350
38
  3
Flat
350
2A
  3
FlatWithEdges
350
2B
  3
Gouraud
350
2C
  3
GouraudWithEdges
350
2D
  3
Hidden
350
31
  3
JitterOff
350
3F
  3
Linepattern
350
37
  3
OverhangOff
350
40
  3
Realistic
350
33
  3
Shaded
350
3E
  3
Shaded with edges
350
3D
  3
Shades of Gray
350
3A
  3
Sketchy
350
3B
  3
Thicken
350
36
  3
Wireframe
350
30
  3
X-Ray
350
3C
  0
XRECORD
  5
167
102
{ACAD_REACTORS
330
C
102
}
330
C
100
AcDbXrecord
280
     1
 90
        1
330
65
  0
DICTIONARY
  5
15F
102
{ACAD_REACTORS
330
C
102
}
330
C
100
AcDbDictionary
281
     1
  3
CANNOSCALE
350
164
  3
CMLEADERSTYLE
350
161
  3
CTABLESTYLE
350
160
  3
CVIEWDETAILSTYLE
350
162
  3
CVIEWSECTIONSTYLE
350
163
  0
ACDBDETAILVIEWSTYLE
  5
6B
102
{ACAD_XDICTIONARY
360
19C
102
}
102
{ACAD_REACTORS
330
6A
102
}
330
6A
100
AcDbModelDocViewStyle
 70
     0
  3
Imperial24
290
     0
100
AcDbDetailViewStyle
 70
     0
 71
     0
 90
        3
 71
     1
340
55
 62
   256
 40
0.24
340
0
 62
   256
 40
0.24
300

 40
0.36
280
     3
 71
     2
340
5D
 90
       25
 62
   256
 71
     3
340
55
 62
   256
 40
0.24
 90
        1
 40
0.75
 90
        1
300
%<\AcVar ViewType \f "%tc1">% %<\AcVar ViewDetailId>%\PSCALE %<\AcVar ViewScale \f "%sn">%
 71
     4
340
5D
 90
       25
 62
   256
340
5D
 90
       25
 62
   256
280
     0
  0
LAYOUT
  5
6F
102
{ACAD_REACTORS
330
62
102
}
330
62
100
AcDbPlotSettings
  1

  2

  4

  6

 40
0.0
 41
0.0
 42
0.0
 43
0.0
 44
0.0
 45
0.0
 46
0.0
 47
0.0
 48
0.0
 49
0.0
140
0.0
141
0.0
142
1.0
143
1.0
 70
   688
 72
     0
 73
     0
 74
     5
  7

 75
    16
147
1.0
 76
     0
 77
     2
 78
   300
148
0.0
149
0.0
100
AcDbLayout
  1
Layout1
 70
     1
 71
     1
 10
0.0
 20
0.0
 11
12.0
 21
9.0
 12
0.0
 22
0.0
 32
0.0
 14
0.0
 24
0.0
 34
0.0
 15
0.0
 25
0.0
 35
0.0
146
0.0
 13
0.0
 23
0.0
 33
0.0
 16
1.0
 26
0.0
 36
0.0
 17
0.0
 27
1.0
 37
0.0
 76
     0
330
6C
  0
LAYOUT
  5
77
102
{ACAD_REACTORS
330
62
102
}
330
62
100
AcDbPlotSettings
  1

  2

  4

  6

 40
0.0
 41
0.0
 42
0.0
 43
0.0
 44
0.0
 45
0.0
 46
0.0
 47
0.0
 48
0.0
 49
0.0
140
0.0
141
0.0
142
1.0
143
1.0
 70
   688
 72
     0
 73
     0
 74
     5
  7

 75
    16
147
1.0
 76
     0
 77
     2
 78
   300
148
0.0
149
0.0
100
AcDbLayout
  1
Layout2
 70
     1
 71
     2
 10
0.0
 20
0.0
 11
12.0
 21
9.0
 12
0.0
 22
0.0
 32
0.0
 14
0.0
 24
0.0
 34
0.0
 15
0.0
 25
0.0
 35
0.0
146
0.0
 13
0.0
 23
0.0
 33
0.0
 16
1.0
 26
0.0
 36
0.0
 17
0.0
 27
1.0
 37
0.0
 76
     0
330
74
  0
LAYOUT
  5
73
102
{ACAD_REACTORS
330
62
102
}
330
62
100
AcDbPlotSettings
  1

  2

  4

  6

 40
0.0
 41
0.0
 42
0.0
 43
0.0
 44
0.0
 45
0.0
 46
0.0
 47
0.0
 48
0.0
 49
0.0
140
0.0
141
0.0
142
1.0
143
1.0
 70
  1712
 72
     0
 73
     0
 74
     0
  7

 75
     0
147
1.0
 76
     0
 77
     2
 78
   300
148
0.0
149
0.0
100
AcDbLayout
  1
Model
 70
     1
 71
     0
 10
0.0
 20
0.0
 11
12.0
 21
9.0
 12
0.0
 22
0.0
 32
0.0
 14
0.0
 24
0.0
 34
0.0
 15
0.0
 25
0.0
 35
0.0
146
0.0
 13
0.0
 23
0.0
 33
0.0
 16
1.0
 26
0.0
 36
0.0
 17
0.0
 27
1.0
 37
0.0
 76
     0
330
70
  0
MATERIAL
  5
19
102
{ACAD_XDICTIONARY
360
1A
102
}
102
{ACAD_REACTORS
330
10
102
}
330
10
100
AcDbMaterial
  1
ByBlock
 72
     0
 43
0.0208333333333333
 43
0.0
 43
0.0
 43
0.0
 43
0.0
 43
0.0208333333333333
 43
0.0
 43
0.0
 43
0.0
 43
0.0
 43
1.0
 43
0.0
 43
0.0
 43
0.0
 43
0.0
 43
1.0
 77
     0
 47
0.0208333333333333
 47
0.0
 47
0.0
 47
0.0
 47
0.0
 47
0.0208333333333333
 47
0.0
 47
0.0
 47
0.0
 47
0.0
 47
1.0
 47
0.0
 47
0.0
 47
0.0
 47
0.0
 47
1.0
171
     0
 49
0.0208333333333333
 49
0.0
 49
0.0
 49
0.0
 49
0.0
 49
0.0208333333333333
 49
0.0
 49
0.0
 49
0.0
 49
0.0
 49
1.0
 49
0.0
 49
0.0
 49
0.0
 49
0.0
 49
1.0
175
     0
142
0.0208333333333333
142
0.0
142
0.0
142
0.0
142
0.0
142
0.0208333333333333
142
0.0
142
0.0
142
0.0
142
0.0
142
1.0
142
0.0
142
0.0
142
0.0
142
0.0
142
1.0
179
     0
144
0.0208333333333333
144
0.0
144
0.0
144
0.0
144
0.0
144
0.0208333333333333
144
0.0
144
0.0
144
0.0
144
0.0
144
1.0
144
0.0
144
0.0
144
0.0
144
0.0
144
1.0
147
0.0208333333333333
147
0.0
147
0.0
147
0.0
147
0.0
147
0.0208333333333333
147
0.0
147
0.0
147
0.0
147
0.0
147
1.0
147
0.0
147
0.0
147
0.0
147
0.0
147
1.0
  0
MATERIAL
  5
11
102
{ACAD_XDICTIONARY
360
12
102
}
102
{ACAD_REACTORS
330
10
102
}
330
10
100
AcDbMaterial
  1
ByLayer
 72
     0
 43
0.0208333333333333
 43
0.0
 43
0.0
 43
0.0
 43
0.0
 43
0.0208333333333333
 43
0.0
 43
0.0
 43
0.0
 43
0.0
 43
1.0
 43
0.0
 43
0.0
 43
0.0
 43
0.0
 43
1.0
 77
     0
 47
0.0208333333333333
 47
0.0
 47
0.0
 47
0.0
 47
0.0
 47
0.0208333333333333
 47
0.0
 47
0.0
 47
0.0
 47
0.0
 47
1.0
 47
0.0
 47
0.0
 47
0.0
 47
0.0
 47
1.0
171
     0
 49
0.0208333333333333
 49
0.0
 49
0.0
 49
0.0
 49
0.0
 49
0.0208333333333333
 49
0.0
 49
0.0
 49
0.0
 49
0.0
 49
1.0
 49
0.0
 49
0.0
 49
0.0
 49
0.0
 49
1.0
175
     0
142
0.0208333333333333
142
0.0
142
0.0
142
0.0
142
0.0
142
0.0208333333333333
142
0.0
142
0.0
142
0.0
142
0.0
142
1.0
142
0.0
142
0.0
142
0.0
142
0.0
142
1.0
179
     0
144
0.0208333333333333
144
0.0
144
0.0
144
0.0
144
0.0
144
0.0208333333333333
144
0.0
144
0.0
144
0.0
144
0.0
144
1.0
144
0.0
144
0.0
144
0.0
144
0.0
144
1.0
147
0.0208333333333333
147
0.0
147
0.0
147
0.0
147
0.0
147
0.0208333333333333
147
0.0
147
0.0
147
0.0
147
0.0
147
1.0
147
0.0
147
0.0
147
0.0
147
0.0
147
1.0
  0
MATERIAL
  5
21
102
{ACAD_XDICTIONARY
360
22
102
}
102
{ACAD_REACTORS
330
10
102
}
330
10
100
AcDbMaterial
  1
Global
 72
     0
 43
0.0208333333333333
 43
0.0
 43
0.0
 43
0.0
 43
0.0
 43
0.0208333333333333
 43
0.0
 43
0.0
 43
0.0
 43
0.0
 43
1.0
 43
0.0
 43
0.0
 43
0.0
 43
0.0
 43
1.0
 77
     0
 47
0.0208333333333333
 47
0.0
 47
0.0
 47
0.0
 47
0.0
 47
0.0208333333333333
 47
0.0
 47
0.0
 47
0.0
 47
0.0
 47
1.0
 47
0.0
 47
0.0
 47
0.0
 47
0.0
 47
1.0
171
     0
 49
0.0208333333333333
 49
0.0
 49
0.0
 49
0.0
 49
0.0
 49
0.0208333333333333
 49
0.0
 49
0.0
 49
0.0
 49
0.0
 49
1.0
 49
0.0
 49
0.0
 49
0.0
 49
0.0
 49
1.0
175
     0
142
0.0208333333333333
142
0.0
142
0.0
142
0.0
142
0.0
142
0.0208333333333333
142
0.0
142
0.0
142
0.0
142
0.0
142
1.0
142
0.0
142
0.0
142
0.0
142
0.0
142
1.0
179
     0
144
0.0208333333333333
144
0.0
144
0.0
144
0.0
144
0.0
144
0.0208333333333333
144
0.0
144
0.0
144
0.0
144
0.0
144
1.0
144
0.0
144
0.0
144
0.0
144
0.0
144
1.0
147
0.0208333333333333
147
0.0
147
0.0
147
0.0
147
0.0
147
0.0208333333333333
147
0.0
147
0.0
147
0.0
147
0.0
147
1.0
147
0.0
147
0.0
147
0.0
147
0.0
147
1.0
  0
MLEADERSTYLE
  5
67
102
{ACAD_XDICTIONARY
360
198
102
}
102
{ACAD_REACTORS
330
66
102
}
330
66
100
AcDbMLeaderStyle
179
     2
170
     2
171
     1
172
     0
 90
        2
 40
0.0
 41
0.0
173
     1
 91
-1056964608
340
5B
 92
       -2
290
     1
 42
0.09
291
     1
 43
0.36
  3
Standard
 44
0.18
300

342
55
174
     1
178
     6
175
     1
176
     0
 93
-1056964608
 45
0.18
292
     0
297
     0
 46
0.18
 94
-1056964608
 47
1.0
 49
1.0
140
1.0
293
     1
141
0.0
294
     1
177
     0
142
1.0
295
     0
296
     0
143
0.125
271
     0
272
     9
273
     9
  0
MLINESTYLE
  5
60
102
{ACAD_REACTORS
330
5F
102
}
330
5F
100
AcDbMlineStyle
  2
STANDARD
 70
     0
  3

 62
   256
 51
90.0
 52
90.0
 71
     2
 49
0.5
 62
   256
  6
BYLAYER
 49
-0.5
 62
   256
  6
BYLAYER
  0
ACDBPLACEHOLDER
  5
F
102
{ACAD_REACTORS
330
E
102
}
330
E
  0
SCALE
  5
43
102
{ACAD_REACTORS
330
42
102
}
330
42
100
AcDbScale
 70
     0
300
1:1
140
1.0
141
1.0
290
     1
  0
SCALE
  5
44
102
{ACAD_REACTORS
330
42
102
}
330
42
100
AcDbScale
 70
     0
300
1/128" = 1'-0"
140
0.0078125
141
12.0
290
     0
  0
SCALE
  5
45
102
{ACAD_REACTORS
330
42
102
}
330
42
100
AcDbScale
 70
     0
300
1/64" = 1'-0"
140
0.015625
141
12.0
290
     0
  0
SCALE
  5
46
102
{ACAD_REACTORS
330
42
102
}
330
42
100
AcDbScale
 70
     0
300
1/32" = 1'-0"
140
0.03125
141
12.0
290
     0
  0
SCALE
  5
47
102
{ACAD_REACTORS
330
42
102
}
330
42
100
AcDbScale
 70
     0
300
1/16" = 1'-0"
140
0.0625
141
12.0
290
     0
  0
SCALE
  5
48
102
{ACAD_REACTORS
330
42
102
}
330
42
100
AcDbScale
 70
     0
300
3/32" = 1'-0"
140
0.09375
141
12.0
290
     0
  0
SCALE
  5
49
102
{ACAD_REACTORS
330
42
102
}
330
42
100
AcDbScale
 70
     0
300
1/8" = 1'-0"
140
0.125
141
12.0
290
     0
  0
SCALE
  5
4A
102
{ACAD_REACTORS
330
42
102
}
330
42
100
AcDbScale
 70
     0
300
3/16" = 1'-0"
140
0.1875
141
12.0
290
     0
  0
SCALE
  5
4B
102
{ACAD_REACTORS
330
42
102
}
330
42
100
AcDbScale
 70
     0
300
1/4" = 1'-0"
140
0.25
141
12.0
290
     0
  0
SCALE
  5
4C
102
{ACAD_REACTORS
330
42
102
}
330
42
100
AcDbScale
 70
     0
300
3/8" = 1'-0"
140
0.375
141
12.0
290
     0
  0
SCALE
  5
4D
102
{ACAD_REACTORS
330
42
102
}
330
42
100
AcDbScale
 70
     0
300
1/2" = 1'-0"
140
0.5
141
12.0
290
     0
  0
SCALE
  5
4E
102
{ACAD_REACTORS
330
42
102
}
330
42
100
AcDbScale
 70
     0
300
3/4" = 1'-0"
140
0.75
141
12.0
290
     0
  0
SCALE
  5
4F
102
{ACAD_REACTORS
330
42
102
}
330
42
100
AcDbScale
 70
     0
300
1" = 1'-0"
140
1.0
141
12.0
290
     0
  0
SCALE
  5
50
102
{ACAD_REACTORS
330
42
102
}
330
42
100
AcDbScale
 70
     0
300
1-1/2" = 1'-0"
140
1.5
141
12.0
290
     0
  0
SCALE
  5
51
102
{ACAD_REACTORS
330
42
102
}
330
42
100
AcDbScale
 70
     0
300
3" = 1'-0"
140
3.0
141
12.0
290
     0
  0
SCALE
  5
52
102
{ACAD_REACTORS
330
42
102
}
330
42
100
AcDbScale
 70
     0
300
6" = 1'-0"
140
6.0
141
12.0
290
     0
  0
SCALE
  5
53
102
{ACAD_REACTORS
330
42
102
}
330
42
100
AcDbScale
 70
     0
300
1'-0" = 1'-0"
140
12.0
141
12.0
290
     0
  0
ACDBSECTIONVIEWSTYLE
  5
69
102
{ACAD_XDICTIONARY
360
19A
102
}
102
{ACAD_REACTORS
330
68
102
}
330
68
100
AcDbModelDocViewStyle
 70
     0
  3
Imperial24
290
     0
100
AcDbSectionViewStyle
 70
     0
 71
     0
 90
       78
 71
     1
340
55
 62
   256
 40
0.24
340
0
340
0
 62
   256
 40
0.24
300
I, O, Q, S, X, Z
 40
0.48
 90
        3
 40
0.18
 90
        1
 71
     2
340
5D
 90
       25
 62
   256
340
5D
 90
       50
 62
   256
 40
0.24
 40
0.0
 40
0.24
 71
     3
340
55
 62
   256
 40
0.24
 90
        1
 40
0.75
 90
        1
300
%<\AcVar ViewType \f "%tc1">% %<\AcVar ViewSectionStartId>%-%<\AcVar ViewSectionEndId>%\PSCALE %<\AcVar ViewScale \f "%sn">%
 71
     4
 62
   256
 62
   257
300
ANSI31
 40
1.0
 90
        0
290
     0
290
     0
 90
        6
 40
0.0
 40
1.570796326794896
 40
0.2617993877991494
 40
1.308996938995747
 40
-0.2617993877991494
 40
1.832595714594046
  0
TABLESTYLE
  5
65
102
{ACAD_XDICTIONARY
360
165
102
}
102
{ACAD_REACTORS
330
64
102
}
330
64
100
AcDbTableStyle
280
     0
  3
Standard
 70
     0
 71
     0
 40
0.06
 41
0.06
280
     0
281
     0
  7
Standard
140
0.18
170
     2
 62
     0
 63
     7
283
     0
 90
      512
 91
        0
  1

274
    -2
284
     1
 64
     0
275
    -2
285
     1
 65
     0
276
    -2
286
     1
 66
     0
277
    -2
287
     1
 67
     0
278
    -2
288
     1
 68
     0
279
    -2
289
     1
 69
     0
  7
Standard
140
0.25
170
     5
 62
     0
 63
     7
283
     0
 90
      512
 91
        0
  1

274
    -2
284
     1
 64
     0
275
    -2
285
     1
 65
     0
276
    -2
286
     1
 66
     0
277
    -2
287
     1
 67
     0
278
    -2
288
     1
 68
     0
279
    -2
289
     1
 69
     0
  7
Standard
140
0.18
170
     5
 62
     0
 63
     7
283
     0
 90
      512
 91
        0
  1

274
    -2
284
     1
 64
     0
275
    -2
285
     1
 65
     0
276
    -2
286
     1
 66
     0
277
    -2
287
     1
 67
     0
278
    -2
288
     1
 68
     0
279
    -2
289
     1
 69
     0
  0
VISUALSTYLE
  5
2F
102
{ACAD_XDICTIONARY
360
172
102
}
102
{ACAD_REACTORS
330
29
102
}
330
29
100
AcDbVisualStyle
  2
2dWireframe
 70
     4
177
     2
291
     0
 71
     0
176
     1
 72
     2
176
     1
 73
     0
176
     1
 90
        0
176
     1
 40
0.6
176
     1
 41
30.0
176
     1
 63
     7
421
 16777215
176
     1
 74
     1
176
     1
 91
        4
176
     1
 64
     7
176
     1
 65
   257
176
     1
 75
     1
176
     1
175
     1
176
     1
 42
1.0
176
     1
 92
        0
176
     1
 66
   257
176
     1
 43
1.0
176
     1
 76
     1
176
     1
 77
     6
176
     1
 78
     2
176
     1
 67
     7
176
     1
 79
     5
176
     1
170
     0
176
     1
171
     0
176
     1
290
     0
176
     1
 93
        1
176
     1
 44
0.0
176
     1
173
     0
176
     1
1001
ACAD
1000
AcDbSavedByObjectVersion
1070
     0
  0
VISUALSTYLE
  5
2E
102
{ACAD_XDICTIONARY
360
170
102
}
102
{ACAD_REACTORS
330
29
102
}
330
29
100
AcDbVisualStyle
  2
Basic
 70
     7
177
     2
291
     1
 71
     1
176
     1
 72
     0
176
     1
 73
     1
176
     1
 90
        0
176
     1
 40
0.6
176
     1
 41
30.0
176
     1
 63
     7
421
 16777215
176
     1
 74
     0
176
     1
 91
        4
176
     1
 64
     7
176
     1
 65
   257
176
     1
 75
     1
176
     1
175
     1
176
     1
 42
1.0
176
     1
 92
        8
176
     1
 66
     7
176
     1
 43
1.0
176
     1
 76
     1
176
     1
 77
     6
176
     1
 78
     2
176
     1
 67
     7
176
     1
 79
     5
176
     1
170
     0
176
     1
171
     0
176
     1
290
     0
176
     1
 93
        1
176
     1
 44
0.0
176
     1
173
     0
176
     1
1001
ACAD
1000
AcDbSavedByObjectVersion
1070
     0
  0
VISUALSTYLE
  5
35
102
{ACAD_XDICTIONARY
360
17E
102
}
102
{ACAD_REACTORS
330
29
102
}
330
29
100
AcDbVisualStyle
  2
Brighten
 70
    12
177
     2
291
     1
 71
     2
176
     1
 72
     2
176
     1
 73
     0
176
     1
 90
        0
176
     1
 40
0.6
176
     1
 41
30.0
176
     1
 63
     7
421
 16777215
176
     1
 74
     1
176
     1
 91
        4
176
     1
 64
     7
176
     1
 65
   257
176
     1
 75
     1
176
     1
175
     1
176
     1
 42
1.0
176
     1
 92
        8
176
     1
 66
     7
176
     1
 43
1.0
176
     1
 76
     1
176
     1
 77
     6
176
     1
 78
     2
176
     1
 67
     7
176
     1
 79
     5
176
     1
170
     0
176
     1
171
     0
176
     1
290
     0
176
     1
 93
        1
176
     1
 44
50.0
176
     1
173
     0
176
     1
1001
ACAD
1000
AcDbSavedByObjectVersion
1070
     0
  0
VISUALSTYLE
  5
39
102
{ACAD_XDICTIONARY
360
186
102
}
102
{ACAD_REACTORS
330
29
102
}
330
29
100
AcDbVisualStyle
  2
ColorChange
 70
    16
177
     2
291
     1
 71
     2
176
     1
 72
     2
176
     1
 73
     3
176
     1
 90
        0
176
     1
 40
0.6
176
     1
 41
30.0
176
     1
 63
     8
421
  8421504
176
     1
 74
     1
176
     1
 91
        4
176
     1
 64
     7
176
     1
 65
   257
176
     1
 75
     1
176
     1
175
     1
176
     1
 42
1.0
176
     1
 92
        8
176
     1
 66
     8
424
  8421504
176
     1
 43
1.0
176
     1
 76
     1
176
     1
 77
     6
176
     1
 78
     2
176
     1
 67
     7
176
     1
 79
     5
176
     1
170
     0
176
     1
171
     0
176
     1
290
     0
176
     1
 93
        1
176
     1
 44
0.0
176
     1
173
     0
176
     1
1001
ACAD
1000
AcDbSavedByObjectVersion
1070
     0
  0
VISUALSTYLE
  5
32
102
{ACAD_XDICTIONARY
360
178
102
}
102
{ACAD_REACTORS
330
29
102
}
330
29
100
AcDbVisualStyle
  2
Conceptual
 70
     9
177
     2
291
     0
 71
     3
176
     1
 72
     2
176
     1
 73
     0
176
     1
 90
        0
176
     1
 40
0.6
176
     1
 41
30.0
176
     1
 63
     7
421
 16777215
176
     1
 74
     2
176
     1
 91
        2
176
     1
 64
     7
176
     1
 65
   257
176
     1
 75
     1
176
     1
175
     1
176
     1
 42
179.0
176
     1
 92
        8
176
     1
 66
     7
176
     1
 43
1.0
176
     1
 76
     1
176
     1
 77
     6
176
     1
 78
     2
176
     1
 67
     7
176
     1
 79
     3
176
     1
170
     0
176
     1
171
     0
176
     1
290
     0
176
     1
 93
        1
176
     1
 44
0.0
176
     1
173
     0
176
     1
1001
ACAD
1000
AcDbSavedByObjectVersion
1070
     0
  0
VISUALSTYLE
  5
34
102
{ACAD_XDICTIONARY
360
17C
102
}
102
{ACAD_REACTORS
330
29
102
}
330
29
100
AcDbVisualStyle
  2
Dim
 70
    11
177
     2
291
     1
 71
     2
176
     1
 72
     2
176
     1
 73
     0
176
     1
 90
        0
176
     1
 40
0.6
176
     1
 41
30.0
176
     1
 63
     7
421
 16777215
176
     1
 74
     1
176
     1
 91
        4
176
     1
 64
     7
176
     1
 65
   257
176
     1
 75
     1
176
     1
175
     1
176
     1
 42
1.0
176
     1
 92
        8
176
     1
 66
     7
176
     1
 43
1.0
176
     1
 76
     1
176
     1
 77
     6
176
     1
 78
     2
176
     1
 67
     7
176
     1
 79
     5
176
     1
170
     0
176
     1
171
     0
176
     1
290
     0
176
     1
 93
        1
176
     1
 44
-50.0
176
     1
173
     0
176
     1
1001
ACAD
1000
AcDbSavedByObjectVersion
1070
     0
  0
VISUALSTYLE
  5
41
102
{ACAD_XDICTIONARY
360
196
102
}
102
{ACAD_REACTORS
330
29
102
}
330
29
100
AcDbVisualStyle
  2
EdgeColorOff
 70
    22
177
     2
291
     1
 71
     2
176
     0
 72
     2
176
     0
 73
     0
176
     0
 90
        0
176
     0
 40
0.6
176
     0
 41
30.0
176
     0
 63
     7
421
 16777215
176
     0
 74
     1
176
     0
 91
        4
176
     0
 64
     7
176
     0
 65
   257
176
     0
 75
     1
176
     0
175
     1
176
     0
 42
1.0
176
     0
 92
        8
176
     2
 66
     7
176
     0
 43
1.0
176
     0
 76
     1
176
     0
 77
     6
176
     0
 78
     2
176
     0
 67
     7
176
     0
 79
     5
176
     0
170
     0
176
     0
171
     0
176
     0
290
     0
176
     0
 93
        1
176
     0
 44
0.0
176
     0
173
     0
176
     0
1001
ACAD
1000
AcDbSavedByObjectVersion
1070
     0
  0
VISUALSTYLE
  5
38
102
{ACAD_XDICTIONARY
360
184
102
}
102
{ACAD_REACTORS
330
29
102
}
330
29
100
AcDbVisualStyle
  2
Facepattern
 70
    15
177
     2
291
     1
 71
     2
176
     1
 72
     2
176
     1
 73
     0
176
     1
 90
        0
176
     1
 40
0.6
176
     1
 41
30.0
176
     1
 63
     7
421
 16777215
176
     1
 74
     1
176
     1
 91
        4
176
     1
 64
     7
176
     1
 65
   257
176
     1
 75
     1
176
     1
175
     1
176
     1
 42
1.0
176
     1
 92
        8
176
     1
 66
     7
176
     1
 43
1.0
176
     1
 76
     1
176
     1
 77
     6
176
     1
 78
     2
176
     1
 67
     7
176
     1
 79
     5
176
     1
170
     0
176
     1
171
     0
176
     1
290
     0
176
     1
 93
        1
176
     1
 44
0.0
176
     1
173
     0
176
     1
1001
ACAD
1000
AcDbSavedByObjectVersion
1070
     0
  0
VISUALSTYLE
  5
2A
102
{ACAD_XDICTIONARY
360
168
102
}
102
{ACAD_REACTORS
330
29
102
}
330
29
100
AcDbVisualStyle
  2
Flat
 70
     0
177
     2
291
     1
 71
     2
176
     1
 72
     1
176
     1
 73
     1
176
     1
 90
        2
176
     1
 40
0.6
176
     1
 41
30.0
176
     1
 63
     7
421
 16777215
176
     1
 74
     0
176
     1
 91
        0
176
     1
 64
     7
176
     1
 65
   257
176
     1
 75
     1
176
     1
175
     1
176
     1
 42
1.0
176
     1
 92
        8
176
     1
 66
     7
176
     1
 43
1.0
176
     1
 76
     1
176
     1
 77
     6
176
     1
 78
     2
176
     1
 67
     7
176
     1
 79
     5
176
     1
170
     0
176
     1
171
     0
176
     1
290
     0
176
     1
 93
       13
176
     1
 44
0.0
176
     1
173
     0
176
     1
1001
ACAD
1000
AcDbSavedByObjectVersion
1070
     0
  0
VISUALSTYLE
  5
2B
102
{ACAD_XDICTIONARY
360
16A
102
}
102
{ACAD_REACTORS
330
29
102
}
330
29
100
AcDbVisualStyle
  2
FlatWithEdges
 70
     1
177
     2
291
     1
 71
     2
176
     1
 72
     1
176
     1
 73
     1
176
     1
 90
        2
176
     1
 40
0.6
176
     1
 41
30.0
176
     1
 63
     7
421
 16777215
176
     1
 74
     1
176
     1
 91
        0
176
     1
 64
     7
176
     1
 65
   257
176
     1
 75
     1
176
     1
175
     1
176
     1
 42
1.0
176
     1
 92
        0
176
     1
 66
   257
176
     1
 43
1.0
176
     1
 76
     1
176
     1
 77
     6
176
     1
 78
     2
176
     1
 67
     7
176
     1
 79
     5
176
     1
170
     0
176
     1
171
     0
176
     1
290
     0
176
     1
 93
       13
176
     1
 44
0.0
176
     1
173
     0
176
     1
1001
ACAD
1000
AcDbSavedByObjectVersion
1070
     0
  0
VISUALSTYLE
  5
2C
102
{ACAD_XDICTIONARY
360
16C
102
}
102
{ACAD_REACTORS
330
29
102
}
330
29
100
AcDbVisualStyle
  2
Gouraud
 70
     2
177
     2
291
     1
 71
     2
176
     1
 72
     2
176
     1
 73
     1
176
     1
 90
        2
176
     1
 40
0.6
176
     1
 41
30.0
176
     1
 63
     7
421
 16777215
176
     1
 74
     0
176
     1
 91
        0
176
     1
 64
     7
176
     1
 65
   257
176
     1
 75
     1
176
     1
175
     1
176
     1
 42
1.0
176
     1
 92
        0
176
     1
 66
     7
176
     1
 43
1.0
176
     1
 76
     1
176
     1
 77
     6
176
     1
 78
     2
176
     1
 67
     7
176
     1
 79
     5
176
     1
170
     0
176
     1
171
     0
176
     1
290
     0
176
     1
 93
       13
176
     1
 44
0.0
176
     1
173
     0
176
     1
1001
ACAD
1000
AcDbSavedByObjectVersion
1070
     0
  0
VISUALSTYLE
  5
2D
102
{ACAD_XDICTIONARY
360
16E
102
}
102
{ACAD_REACTORS
330
29
102
}
330
29
100
AcDbVisualStyle
  2
GouraudWithEdges
 70
     3
177
     2
291
     1
 71
     2
176
     1
 72
     2
176
     1
 73
     1
176
     1
 90
        2
176
     1
 40
0.6
176
     1
 41
30.0
176
     1
 63
     7
421
 16777215
176
     1
 74
     1
176
     1
 91
        0
176
     1
 64
     7
176
     1
 65
   257
176
     1
 75
     1
176
     1
175
     1
176
     1
 42
1.0
176
     1
 92
        0
176
     1
 66
   257
176
     1
 43
1.0
176
     1
 76
     1
176
     1
 77
     6
176
     1
 78
     2
176
     1
 67
     7
176
     1
 79
     5
176
     1
170
     0
176
     1
171
     0
176
     1
290
     0
176
     1
 93
       13
176
     1
 44
0.0
176
     1
173
     0
176
     1
1001
ACAD
1000
AcDbSavedByObjectVersion
1070
     0
  0
VISUALSTYLE
  5
31
102
{ACAD_XDICTIONARY
360
176
102
}
102
{ACAD_REACTORS
330
29
102
}
330
29
100
AcDbVisualStyle
  2
Hidden
 70
     6
177
     2
291
     0
 71
     1
176
     1
 72
     2
176
     1
 73
     2
176
     1
 90
        0
176
     1
 40
0.6
176
     1
 41
30.0
176
     1
 63
     7
421
 16777215
176
     1
 74
     2
176
     1
 91
        2
176
     1
 64
     7
176
     1
 65
   257
176
     1
 75
     2
176
     1
175
     1
176
     1
 42
40.0
176
     1
 92
        0
176
     1
 66
   257
176
     1
 43
1.0
176
     1
 76
     1
176
     1
 77
     6
176
     1
 78
     2
176
     1
 67
     7
176
     1
 79
     3
176
     1
170
     0
176
     1
171
     0
176
     1
290
     0
176
     1
 93
        1
176
     1
 44
0.0
176
     1
173
     0
176
     1
1001
ACAD
1000
AcDbSavedByObjectVersion
1070
     0
  0
VISUALSTYLE
  5
3F
102
{ACAD_XDICTIONARY
360
192
102
}
102
{ACAD_REACTORS
330
29
102
}
330
29
100
AcDbVisualStyle
  2
JitterOff
 70
    20
177
     2
291
     1
 71
     2
176
     0
 72
     2
176
     0
 73
     0
176
     0
 90
        0
176
     0
 40
0.6
176
     0
 41
30.0
176
     0
 63
     7
421
 16777215
176
     0
 74
     1
176
     0
 91
        4
176
     0
 64
     7
176
     0
 65
   257
176
     0
 75
     1
176
     0
175
     1
176
     0
 42
1.0
176
     0
 92
       10
176
     2
 66
     7
176
     0
 43
1.0
176
     0
 76
     1
176
     0
 77
     6
176
     0
 78
     2
176
     0
 67
     7
176
     0
 79
     5
176
     0
170
     0
176
     0
171
     0
176
     0
290
     0
176
     0
 93
        1
176
     0
 44
0.0
176
     0
173
     0
176
     0
1001
ACAD
1000
AcDbSavedByObjectVersion
1070
     0
  0
VISUALSTYLE
  5
37
102
{ACAD_XDICTIONARY
360
182
102
}
102
{ACAD_REACTORS
330
29
102
}
330
29
100
AcDbVisualStyle
  2
Linepattern
 70
    14
177
     2
291
     1
 71
     2
176
     1
 72
     2
176
     1
 73
     0
176
     1
 90
        0
176
     1
 40
0.6
176
     1
 41
30.0
176
     1
 63
     7
421
 16777215
176
     1
 74
     1
176
     1
 91
        4
176
     1
 64
     7
176
     1
 65
   257
176
     1
 75
     7
176
     1
175
     7
176
     1
 42
1.0
176
     1
 92
        8
176
     1
 66
     7
176
     1
 43
1.0
176
     1
 76
     1
176
     1
 77
     6
176
     1
 78
     2
176
     1
 67
     7
176
     1
 79
     5
176
     1
170
     0
176
     1
171
     0
176
     1
290
     0
176
     1
 93
        1
176
     1
 44
0.0
176
     1
173
     0
176
     1
1001
ACAD
1000
AcDbSavedByObjectVersion
1070
     0
  0
VISUALSTYLE
  5
40
102
{ACAD_XDICTIONARY
360
194
102
}
102
{ACAD_REACTORS
330
29
102
}
330
29
100
AcDbVisualStyle
  2
OverhangOff
 70
    21
177
     2
291
     1
 71
     2
176
     0
 72
     2
176
     0
 73
     0
176
     0
 90
        0
176
     0
 40
0.6
176
     0
 41
30.0
176
     0
 63
     7
421
 16777215
176
     0
 74
     1
176
     0
 91
        4
176
     0
 64
     7
176
     0
 65
   257
176
     0
 75
     1
176
     0
175
     1
176
     0
 42
1.0
176
     0
 92
        9
176
     2
 66
     7
176
     0
 43
1.0
176
     0
 76
     1
176
     0
 77
     6
176
     0
 78
     2
176
     0
 67
     7
176
     0
 79
     5
176
     0
170
     0
176
     0
171
     0
176
     0
290
     0
176
     0
 93
        1
176
     0
 44
0.0
176
     0
173
     0
176
     0
1001
ACAD
1000
AcDbSavedByObjectVersion
1070
     0
  0
VISUALSTYLE
  5
33
102
{ACAD_XDICTIONARY
360
17A
102
}
102
{ACAD_REACTORS
330
29
102
}
330
29
100
AcDbVisualStyle
  2
Realistic
 70
     8
177
     2
291
     0
 71
     2
176
     1
 72
     3
176
     1
 73
     0
176
     1
 90
        2
176
     1
 40
0.6
176
     1
 41
30.0
176
     1
 63
     7
421
 16777215
176
     1
 74
     0
176
     1
 91
        0
176
     1
 64
     7
176
     1
 65
   257
176
     1
 75
     1
176
     1
175
     1
176
     1
 42
1.0
176
     1
 92
        8
176
     1
 66
   257
176
     1
 43
1.0
176
     1
 76
     1
176
     1
 77
     6
176
     1
 78
     2
176
     1
 67
     7
176
     1
 79
     3
176
     1
170
     0
176
     1
171
     0
176
     1
290
     0
176
     1
 93
       13
176
     1
 44
0.0
176
     1
173
     0
176
     1
1001
ACAD
1000
AcDbSavedByObjectVersion
1070
     0
  0
VISUALSTYLE
  5
3E
102
{ACAD_XDICTIONARY
360
190
102
}
102
{ACAD_REACTORS
330
29
102
}
330
29
100
AcDbVisualStyle
  2
Shaded
 70
    27
177
     2
291
     0
 71
     2
176
     1
 72
     2
176
     1
 73
     1
176
     1
 90
        2
176
     1
 40
0.6
176
     1
 41
30.0
176
     1
 63
     7
421
 16777215
176
     1
 74
     0
176
     1
 91
        4
176
     1
 64
     7
176
     1
 65
   257
176
     1
 75
     1
176
     1
175
     1
176
     1
 42
1.0
176
     1
 92
        8
176
     1
 66
   257
176
     1
 43
1.0
176
     1
 76
     1
176
     1
 77
     6
176
     1
 78
     2
176
     1
 67
     8
425
  7895160
176
     1
 79
     3
176
     1
170
     0
176
     1
171
     0
176
     1
290
     0
176
     1
 93
        5
176
     1
 44
0.0
176
     1
173
     0
176
     1
1001
ACAD
1000
AcDbSavedByObjectVersion
1070
     0
  0
VISUALSTYLE
  5
3D
102
{ACAD_XDICTIONARY
360
18E
102
}
102
{ACAD_REACTORS
330
29
102
}
330
29
100
AcDbVisualStyle
  2
Shaded with edges
 70
    26
177
     2
291
     0
 71
     2
176
     1
 72
     2
176
     1
 73
     1
176
     1
 90
        2
176
     1
 40
0.6
176
     1
 41
30.0
176
     1
 63
     7
421
 16777215
176
     1
 74
     1
176
     1
 91
        2
176
     1
 64
     7
176
     1
 65
   257
176
     1
 75
     2
176
     1
175
     1
176
     1
 42
1.0
176
     1
 92
        8
176
     1
 66
   257
176
     1
 43
1.0
176
     1
 76
     1
176
     1
 77
     6
176
     1
 78
     2
176
     1
 67
     7
176
     1
 79
     3
176
     1
170
     0
176
     1
171
     0
176
     1
290
     0
176
     1
 93
        5
176
     1
 44
0.0
176
     1
173
     0
176
     1
1001
ACAD
1000
AcDbSavedByObjectVersion
1070
     0
  0
VISUALSTYLE
  5
3A
102
{ACAD_XDICTIONARY
360
188
102
}
102
{ACAD_REACTORS
330
29
102
}
330
29
100
AcDbVisualStyle
  2
Shades of Gray
 70
    23
177
     2
291
     0
 71
     2
176
     1
 72
     2
176
     1
 73
     3
176
     1
 90
        0
176
     1
 40
0.6
176
     1
 41
30.0
176
     1
 63
     7
421
 16777215
176
     1
 74
     2
176
     1
 91
        2
176
     1
 64
     7
176
     1
 65
     7
176
     1
 75
     1
176
     1
175
     1
176
     1
 42
40.0
176
     1
 92
        8
176
     1
 66
     7
176
     1
 43
1.0
176
     1
 76
     1
176
     1
 77
     6
176
     1
 78
     2
176
     1
 67
     7
176
     1
 79
     3
176
     1
170
     0
176
     1
171
     0
176
     1
290
     0
176
     1
 93
        1
176
     1
 44
0.0
176
     1
173
     0
176
     1
1001
ACAD
1000
AcDbSavedByObjectVersion
1070
     0
  0
VISUALSTYLE
  5
3B
102
{ACAD_XDICTIONARY
360
18A
102
}
102
{ACAD_REACTORS
330
29
102
}
330
29
100
AcDbVisualStyle
  2
Sketchy
 70
    24
177
     2
291
     0
 71
     1
176
     1
 72
     2
176
     1
 73
     2
176
     1
 90
        0
176
     1
 40
0.6
176
     1
 41
30.0
176
     1
 63
     7
421
 16777215
176
     1
 74
     2
176
     1
 91
        2
176
     1
 64
     7
176
     1
 65
     7
176
     1
 75
     1
176
     1
175
     1
176
     1
 42
40.0
176
     1
 92
       11
176
     1
 66
     7
176
     1
 43
1.0
176
     1
 76
     1
176
     1
 77
     6
176
     1
 78
     2
176
     1
 67
     7
176
     1
 79
     6
176
     1
170
     0
176
     1
171
     0
176
     1
290
     0
176
     1
 93
        1
176
     1
 44
0.0
176
     1
173
     0
176
     1
1001
ACAD
1000
AcDbSavedByObjectVersion
1070
     0
  0
VISUALSTYLE
  5
36
102
{ACAD_XDICTIONARY
360
180
102
}
102
{ACAD_REACTORS
330
29
102
}
330
29
100
AcDbVisualStyle
  2
Thicken
 70
    13
177
     2
291
     1
 71
     2
176
     1
 72
     2
176
     1
 73
     0
176
     1
 90
        0
176
     1
 40
0.6
176
     1
 41
30.0
176
     1
 63
     7
421
 16777215
176
     1
 74
     1
176
     1
 91
        4
176
     1
 64
     7
176
     1
 65
   257
176
     1
 75
     1
176
     1
175
     1
176
     1
 42
1.0
176
     1
 92
       12
176
     1
 66
     7
176
     1
 43
1.0
176
     1
 76
     1
176
     1
 77
     6
176
     1
 78
     2
176
     1
 67
     7
176
     1
 79
     5
176
     1
170
     0
176
     1
171
     0
176
     1
290
     0
176
     1
 93
        1
176
     1
 44
0.0
176
     1
173
     0
176
     1
1001
ACAD
1000
AcDbSavedByObjectVersion
1070
     0
  0
VISUALSTYLE
  5
30
102
{ACAD_XDICTIONARY
360
174
102
}
102
{ACAD_REACTORS
330
29
102
}
330
29
100
AcDbVisualStyle
  2
Wireframe
 70
     5
177
     2
291
     0
 71
     0
176
     1
 72
     2
176
     1
 73
     0
176
     1
 90
        0
176
     1
 40
0.6
176
     1
 41
30.0
176
     1
 63
     7
421
 16777215
176
     1
 74
     1
176
     1
 91
        4
176
     1
 64
     7
176
     1
 65
   257
176
     1
 75
     1
176
     1
175
     1
176
     1
 42
1.0
176
     1
 92
        0
176
     1
 66
   257
176
     1
 43
1.0
176
     1
 76
     1
176
     1
 77
     6
176
     1
 78
     2
176
     1
 67
     7
176
     1
 79
     3
176
     1
170
     0
176
     1
171
     0
176
     1
290
     0
176
     1
 93
        1
176
     1
 44
0.0
176
     1
173
     0
176
     1
1001
ACAD
1000
AcDbSavedByObjectVersion
1070
     0
  0
VISUALSTYLE
  5
3C
102
{ACAD_XDICTIONARY
360
18C
102
}
102
{ACAD_REACTORS
330
29
102
}
330
29
100
AcDbVisualStyle
  2
X-Ray
 70
    25
177
     2
291
     0
 71
     2
176
     1
 72
     2
176
     1
 73
     1
176
     1
 90
        1
176
     1
 40
0.5
176
     1
 41
30.0
176
     1
 63
     7
421
 16777215
176
     1
 74
     1
176
     1
 91
        0
176
     1
 64
     7
176
     1
 65
   257
176
     1
 75
     1
176
     1
175
     1
176
     1
 42
1.0
176
     1
 92
        8
176
     1
 66
     7
176
     1
 43
1.0
176
     1
 76
     1
176
     1
 77
     6
176
     1
 78
     2
176
     1
 67
     7
176
     1
 79
     3
176
     1
170
     0
176
     1
171
     0
176
     1
290
     0
176
     1
 93
       13
176
     1
 44
0.0
176
     1
173
     0
176
     1
1001
ACAD
1000
AcDbSavedByObjectVersion
1070
     0
  0
DICTIONARYVAR
  5
164
102
{ACAD_REACTORS
330
15F
102
}
330
15F
100
DictionaryVariables
280
     0
  1
1:1
  0
DICTIONARYVAR
  5
161
102
{ACAD_REACTORS
330
15F
102
}
330
15F
100
DictionaryVariables
280
     0
  1
STANDARD
  0
DICTIONARYVAR
  5
160
102
{ACAD_REACTORS
330
15F
102
}
330
15F
100
DictionaryVariables
280
     0
  1
STANDARD
  0
DICTIONARYVAR
  5
162
102
{ACAD_REACTORS
330
15F
102
}
330
15F
100
DictionaryVariables
280
     0
  1
Imperial24
  0
DICTIONARYVAR
  5
163
102
{ACAD_REACTORS
330
15F
102
}
330
15F
100
DictionaryVariables
280
     0
  1
Imperial24
  0
DICTIONARY
  5
19C
330
6B
100
AcDbDictionary
280
     1
281
     1
  3
ACAD_XREC_ROUNDTRIP
360
19D
  0
DICTIONARY
  5
1A
330
19
100
AcDbDictionary
280
     1
281
     1
  3
BUMPTILE
360
1C
  3
DIFFUSETILE
360
1B
  3
OPACITYTILE
360
1F
  3
REFLECTIONTILE
360
1E
  3
REFRACTIONTILE
360
20
  3
SPECULARTILE
360
1D
  0
DICTIONARY
  5
12
330
11
100
AcDbDictionary
280
     1
281
     1
  3
BUMPTILE
360
14
  3
DIFFUSETILE
360
13
  3
OPACITYTILE
360
17
  3
REFLECTIONTILE
360
16
  3
REFRACTIONTILE
360
18
  3
SPECULARTILE
360
15
  0
DICTIONARY
  5
22
330
21
100
AcDbDictionary
280
     1
281
     1
  3
BUMPTILE
360
24
  3
DIFFUSETILE
360
23
  3
OPACITYTILE
360
27
  3
REFLECTIONTILE
360
26
  3
REFRACTIONTILE
360
28
  3
SPECULARTILE
360
25
  0
DICTIONARY
  5
198
330
67
100
AcDbDictionary
280
     1
281
     1
  3
ACAD_XREC_ROUNDTRIP
360
199
  0
DICTIONARY
  5
19A
330
69
100
AcDbDictionary
280
     1
281
     1
  3
ACAD_XREC_ROUNDTRIP
360
19B
  0
DICTIONARY
  5
165
330
65
100
AcDbDictionary
280
     1
281
     1
  3
ACAD_ROUNDTRIP_2008_TABLESTYLE_CELLSTYLEMAP
360
166
  0
DICTIONARY
  5
172
330
2F
100
AcDbDictionary
280
     1
281
     1
  3
ACAD_XREC_ROUNDTRIP
360
173
  0
DICTIONARY
  5
170
330
2E
100
AcDbDictionary
280
     1
281
     1
  3
ACAD_XREC_ROUNDTRIP
360
171
  0
DICTIONARY
  5
17E
330
35
100
AcDbDictionary
280
     1
281
     1
  3
ACAD_XREC_ROUNDTRIP
360
17F
  0
DICTIONARY
  5
186
330
39
100
AcDbDictionary
280
     1
281
     1
  3
ACAD_XREC_ROUNDTRIP
360
187
  0
DICTIONARY
  5
178
330
32
100
AcDbDictionary
280
     1
281
     1
  3
ACAD_XREC_ROUNDTRIP
360
179
  0
DICTIONARY
  5
17C
330
34
100
AcDbDictionary
280
     1
281
     1
  3
ACAD_XREC_ROUNDTRIP
360
17D
  0
DICTIONARY
  5
196
330
41
100
AcDbDictionary
280
     1
281
     1
  3
ACAD_XREC_ROUNDTRIP
360
197
  0
DICTIONARY
  5
184
330
38
100
AcDbDictionary
280
     1
281
     1
  3
ACAD_XREC_ROUNDTRIP
360
185
  0
DICTIONARY
  5
168
330
2A
100
AcDbDictionary
280
     1
281
     1
  3
ACAD_XREC_ROUNDTRIP
360
169
  0
DICTIONARY
  5
16A
330
2B
100
AcDbDictionary
280
     1
281
     1
  3
ACAD_XREC_ROUNDTRIP
360
16B
  0
DICTIONARY
  5
16C
330
2C
100
AcDbDictionary
280
     1
281
     1
  3
ACAD_XREC_ROUNDTRIP
360
16D
  0
DICTIONARY
  5
16E
330
2D
100
AcDbDictionary
280
     1
281
     1
  3
ACAD_XREC_ROUNDTRIP
360
16F
  0
DICTIONARY
  5
176
330
31
100
AcDbDictionary
280
     1
281
     1
  3
ACAD_XREC_ROUNDTRIP
360
177
  0
DICTIONARY
  5
192
330
3F
100
AcDbDictionary
280
     1
281
     1
  3
ACAD_XREC_ROUNDTRIP
360
193
  0
DICTIONARY
  5
182
330
37
100
AcDbDictionary
280
     1
281
     1
  3
ACAD_XREC_ROUNDTRIP
360
183
  0
DICTIONARY
  5
194
330
40
100
AcDbDictionary
280
     1
281
     1
  3
ACAD_XREC_ROUNDTRIP
360
195
  0
DICTIONARY
  5
17A
330
33
100
AcDbDictionary
280
     1
281
     1
  3
ACAD_XREC_ROUNDTRIP
360
17B
  0
DICTIONARY
  5
190
330
3E
100
AcDbDictionary
280
     1
281
     1
  3
ACAD_XREC_ROUNDTRIP
360
191
  0
DICTIONARY
  5
18E
330
3D
100
AcDbDictionary
280
     1
281
     1
  3
ACAD_XREC_ROUNDTRIP
360
18F
  0
DICTIONARY
  5
188
330
3A
100
AcDbDictionary
280
     1
281
     1
  3
ACAD_XREC_ROUNDTRIP
360
189
  0
DICTIONARY
  5
18A
330
3B
100
AcDbDictionary
280
     1
281
     1
  3
ACAD_XREC_ROUNDTRIP
360
18B
  0
DICTIONARY
  5
180
330
36
100
AcDbDictionary
280
     1
281
     1
  3
ACAD_XREC_ROUNDTRIP
360
181
  0
DICTIONARY
  5
174
330
30
100
AcDbDictionary
280
     1
281
     1
  3
ACAD_XREC_ROUNDTRIP
360
175
  0
DICTIONARY
  5
18C
330
3C
100
AcDbDictionary
280
     1
281
     1
  3
ACAD_XREC_ROUNDTRIP
360
18D
  0
XRECORD
  5
19D
102
{ACAD_REACTORS
330
19C
102
}
330
19C
100
AcDbXrecord
280
     1
102
DISPLAYNAME
  1
Imperial24
102
FLAGS
 90
        0
  0
XRECORD
  5
1C
102
{ACAD_REACTORS
330
1A
102
}
330
1A
100
AcDbXrecord
280
     1
270
     1
271
     1
  0
XRECORD
  5
1B
102
{ACAD_REACTORS
330
1A
102
}
330
1A
100
AcDbXrecord
280
     1
270
     1
271
     1
  0
XRECORD
  5
1F
102
{ACAD_REACTORS
330
1A
102
}
330
1A
100
AcDbXrecord
280
     1
270
     1
271
     1
  0
XRECORD
  5
1E
102
{ACAD_REACTORS
330
1A
102
}
330
1A
100
AcDbXrecord
280
     1
270
     1
271
     1
  0
XRECORD
  5
20
102
{ACAD_REACTORS
330
1A
102
}
330
1A
100
AcDbXrecord
280
     1
270
     1
271
     1
  0
XRECORD
  5
1D
102
{ACAD_REACTORS
330
1A
102
}
330
1A
100
AcDbXrecord
280
     1
270
     1
271
     1
  0
XRECORD
  5
14
102
{ACAD_REACTORS
330
12
102
}
330
12
100
AcDbXrecord
280
     1
270
     1
271
     1
  0
XRECORD
  5
13
102
{ACAD_REACTORS
330
12
102
}
330
12
100
AcDbXrecord
280
     1
270
     1
271
     1
  0
XRECORD
  5
17
102
{ACAD_REACTORS
330
12
102
}
330
12
100
AcDbXrecord
280
     1
270
     1
271
     1
  0
XRECORD
  5
16
102
{ACAD_REACTORS
330
12
102
}
330
12
100
AcDbXrecord
280
     1
270
     1
271
     1
  0
XRECORD
  5
18
102
{ACAD_REACTORS
330
12
102
}
330
12
100
AcDbXrecord
280
     1
270
     1
271
     1
  0
XRECORD
  5
15
102
{ACAD_REACTORS
330
12
102
}
330
12
100
AcDbXrecord
280
     1
270
     1
271
     1
  0
XRECORD
  5
24
102
{ACAD_REACTORS
330
22
102
}
330
22
100
AcDbXrecord
280
     1
270
     1
271
     1
  0
XRECORD
  5
23
102
{ACAD_REACTORS
330
22
102
}
330
22
100
AcDbXrecord
280
     1
270
     1
271
     1
  0
XRECORD
  5
27
102
{ACAD_REACTORS
330
22
102
}
330
22
100
AcDbXrecord
280
     1
270
     1
271
     1
  0
XRECORD
  5
26
102
{ACAD_REACTORS
330
22
102
}
330
22
100
AcDbXrecord
280
     1
270
     1
271
     1
  0
XRECORD
  5
28
102
{ACAD_REACTORS
330
22
102
}
330
22
100
AcDbXrecord
280
     1
270
     1
271
     1
  0
XRECORD
  5
25
102
{ACAD_REACTORS
330
22
102
}
330
22
100
AcDbXrecord
280
     1
270
     1
271
     1
  0
XRECORD
  5
199
102
{ACAD_REACTORS
330
198
102
}
330
198
100
AcDbXrecord
280
     1
102
ACAD_ROUNDTRIP_2012_MLEADER_STYLE
298
     1
  0
XRECORD
  5
19B
102
{ACAD_REACTORS
330
19A
102
}
330
19A
100
AcDbXrecord
280
     1
102
DISPLAYNAME
  1
Imperial24
102
FLAGS
 90
        0
  0
CELLSTYLEMAP
  5
166
102
{ACAD_REACTORS
330
165
102
}
330
165
100
AcDbCellStyleMap
 90
        3
300
CELLSTYLE
  1
TABLEFORMAT_BEGIN
 90
        5
170
     1
 91
        0
 92
    32768
 62
   257
 93
        1
300
CONTENTFORMAT
  1
CONTENTFORMAT_BEGIN
 90
        0
 91
        0
 92
      512
 93
        0
300

 40
0.0
140
1.0
 94
        5
 62
     0
340
55
144
0.25
309
CONTENTFORMAT_END
171
     0
 94
        0
309
TABLEFORMAT_END
  1
CELLSTYLE_BEGIN
 90
        1
 91
        1
300
_TITLE
309
CELLSTYLE_END
300
CELLSTYLE
  1
TABLEFORMAT_BEGIN
 90
        5
170
     1
 91
        0
 92
        0
 62
   257
 93
        1
300
CONTENTFORMAT
  1
CONTENTFORMAT_BEGIN
 90
        0
 91
        0
 92
      512
 93
        0
300

 40
0.0
140
1.0
 94
        5
 62
     0
340
55
144
0.18
309
CONTENTFORMAT_END
171
     0
 94
        0
309
TABLEFORMAT_END
  1
CELLSTYLE_BEGIN
 90
        2
 91
        1
300
_HEADER
309
CELLSTYLE_END
300
CELLSTYLE
  1
TABLEFORMAT_BEGIN
 90
        5
170
     1
 91
        0
 92
        0
 62
   257
 93
        1
300
CONTENTFORMAT
  1
CONTENTFORMAT_BEGIN
 90
        0
 91
        0
 92
      512
 93
        0
300

 40
0.0
140
1.0
 94
        2
 62
     0
340
55
144
0.18
309
CONTENTFORMAT_END
171
     0
 94
        0
309
TABLEFORMAT_END
  1
CELLSTYLE_BEGIN
 90
        3
 91
        2
300
_DATA
309
CELLSTYLE_END
  0
XRECORD
  5
173
102
{ACAD_REACTORS
330
172
102
}
330
172
100
AcDbXrecord
280
     1
102
RTVSPost2010Prop28
280
     1
102
RTVSPost2010PropOp28
 70
     1
102
RTVSPost2010Prop29
280
     1
102
RTVSPost2010PropOp29
 70
     1
102
RTVSPost2010Prop30
280
     0
102
RTVSPost2010PropOp30
 70
     1
102
RTVSPost2010Prop31
280
     0
102
RTVSPost2010PropOp31
 70
     1
102
RTVSPost2010Prop32
280
     0
102
RTVSPost2010PropOp32
 70
     1
102
RTVSPost2010Prop33
280
     0
102
RTVSPost2010PropOp33
 70
     1
102
RTVSPost2010Prop34
280
     0
102
RTVSPost2010PropOp34
 70
     1
102
RTVSPost2010Prop35
280
     0
102
RTVSPost2010PropOp35
 70
     1
102
RTVSPost2010Prop36
280
     0
102
RTVSPost2010PropOp36
 70
     1
102
RTVSPost2010Prop37
 90
       50
102
RTVSPost2010PropOp37
 70
     1
102
RTVSPost2010Prop38
140
0.0
102
RTVSPost2010PropOp38
 70
     1
102
RTVSPost2010Prop39
140
1.0
102
RTVSPost2010PropOp39
 70
     1
102
RTVSPost2010Prop40
 90
        0
102
RTVSPost2010PropOp40
 70
     1
102
RTVSPost2010Prop41ColorIndex
 90
       18
102
RTVSPost2010Prop41ColorRGB
 90
        0
102
RTVSPost2010PropOp41
 70
     1
102
RTVSPost2010Prop42
 90
       50
102
RTVSPost2010PropOp42
 70
     1
102
RTVSPost2010Prop43
 90
        3
102
RTVSPost2010PropOp43
 70
     1
102
RTVSPost2010Prop44ColorIndex
 90
        5
102
RTVSPost2010Prop44ColorRGB
 90
      255
102
RTVSPost2010PropOp44
 70
     1
102
RTVSPost2010Prop45
280
     0
102
RTVSPost2010PropOp45
 70
     1
102
RTVSPost2010Prop46
 90
       50
102
RTVSPost2010PropOp46
 70
     1
102
RTVSPost2010Prop47
 90
       50
102
RTVSPost2010PropOp47
 70
     1
102
RTVSPost2010Prop48
 90
       50
102
RTVSPost2010PropOp48
 70
     1
102
RTVSPost2010Prop49
280
     0
102
RTVSPost2010PropOp49
 70
     1
102
RTVSPost2010Prop50
 90
       50
102
RTVSPost2010PropOp50
 70
     1
102
RTVSPost2010Prop51ColorIndex
 90
      256
102
RTVSPost2010Prop51ColorRGB
 90
-16777216
102
RTVSPost2010PropOp51
 70
     0
102
RTVSPost2010Prop52
140
1.0
102
RTVSPost2010PropOp52
 70
     0
102
RTVSPost2010Prop53
 90
        2
102
RTVSPost2010PropOp53
 70
     1
102
RTVSPost2010Prop54
  1
strokes_ogs.tif
102
RTVSPost2010PropOp54
 70
     1
102
RTVSPost2010Prop55
280
     0
102
RTVSPost2010PropOp55
 70
     1
102
RTVSPost2010Prop56
140
1.0
102
RTVSPost2010PropOp56
 70
     1
102
RTVSPost2010Prop57
140
1.0
102
RTVSPost2010PropOp57
 70
     1
  0
XRECORD
  5
171
102
{ACAD_REACTORS
330
170
102
}
330
170
100
AcDbXrecord
280
     1
102
RTVSPost2010Prop28
280
     0
102
RTVSPost2010PropOp28
 70
     1
102
RTVSPost2010Prop29
280
     1
102
RTVSPost2010PropOp29
 70
     1
102
RTVSPost2010Prop30
280
     1
102
RTVSPost2010PropOp30
 70
     1
102
RTVSPost2010Prop31
280
     0
102
RTVSPost2010PropOp31
 70
     1
102
RTVSPost2010Prop32
280
     0
102
RTVSPost2010PropOp32
 70
     1
102
RTVSPost2010Prop33
280
     0
102
RTVSPost2010PropOp33
 70
     1
102
RTVSPost2010Prop34
280
     0
102
RTVSPost2010PropOp34
 70
     1
102
RTVSPost2010Prop35
280
     0
102
RTVSPost2010PropOp35
 70
     1
102
RTVSPost2010Prop36
280
     0
102
RTVSPost2010PropOp36
 70
     1
102
RTVSPost2010Prop37
 90
       50
102
RTVSPost2010PropOp37
 70
     1
102
RTVSPost2010Prop38
140
0.0
102
RTVSPost2010PropOp38
 70
     1
102
RTVSPost2010Prop39
140
1.0
102
RTVSPost2010PropOp39
 70
     1
102
RTVSPost2010Prop40
 90
        0
102
RTVSPost2010PropOp40
 70
     1
102
RTVSPost2010Prop41ColorIndex
 90
       18
102
RTVSPost2010Prop41ColorRGB
 90
        0
102
RTVSPost2010PropOp41
 70
     1
102
RTVSPost2010Prop42
 90
       50
102
RTVSPost2010PropOp42
 70
     1
102
RTVSPost2010Prop43
 90
        3
102
RTVSPost2010PropOp43
 70
     1
102
RTVSPost2010Prop44ColorIndex
 90
        5
102
RTVSPost2010Prop44ColorRGB
 90
      255
102
RTVSPost2010PropOp44
 70
     1
102
RTVSPost2010Prop45
280
     0
102
RTVSPost2010PropOp45
 70
     1
102
RTVSPost2010Prop46
 90
       50
102
RTVSPost2010PropOp46
 70
     1
102
RTVSPost2010Prop47
 90
       50
102
RTVSPost2010PropOp47
 70
     1
102
RTVSPost2010Prop48
 90
       50
102
RTVSPost2010PropOp48
 70
     1
102
RTVSPost2010Prop49
280
     0
102
RTVSPost2010PropOp49
 70
     1
102
RTVSPost2010Prop50
 90
       50
102
RTVSPost2010PropOp50
 70
     1
102
RTVSPost2010Prop51ColorIndex
 90
      256
102
RTVSPost2010Prop51ColorRGB
 90
-16777216
102
RTVSPost2010PropOp51
 70
     0
102
RTVSPost2010Prop52
140
1.0
102
RTVSPost2010PropOp52
 70
     0
102
RTVSPost2010Prop53
 90
        2
102
RTVSPost2010PropOp53
 70
     1
102
RTVSPost2010Prop54
  1
strokes_ogs.tif
102
RTVSPost2010PropOp54
 70
     1
102
RTVSPost2010Prop55
280
     0
102
RTVSPost2010PropOp55
 70
     1
102
RTVSPost2010Prop56
140
1.0
102
RTVSPost2010PropOp56
 70
     1
102
RTVSPost2010Prop57
140
1.0
102
RTVSPost2010PropOp57
 70
     1
  0
XRECORD
  5
17F
102
{ACAD_REACTORS
330
17E
102
}
330
17E
100
AcDbXrecord
280
     1
102
RTVSPost2010Prop28
280
     0
102
RTVSPost2010PropOp28
 70
     1
102
RTVSPost2010Prop29
280
     1
102
RTVSPost2010PropOp29
 70
     1
102
RTVSPost2010Prop30
280
     1
102
RTVSPost2010PropOp30
 70
     1
102
RTVSPost2010Prop31
280
     0
102
RTVSPost2010PropOp31
 70
     1
102
RTVSPost2010Prop32
280
     0
102
RTVSPost2010PropOp32
 70
     1
102
RTVSPost2010Prop33
280
     0
102
RTVSPost2010PropOp33
 70
     1
102
RTVSPost2010Prop34
280
     0
102
RTVSPost2010PropOp34
 70
     1
102
RTVSPost2010Prop35
280
     0
102
RTVSPost2010PropOp35
 70
     1
102
RTVSPost2010Prop36
280
     0
102
RTVSPost2010PropOp36
 70
     1
102
RTVSPost2010Prop37
 90
       50
102
RTVSPost2010PropOp37
 70
     1
102
RTVSPost2010Prop38
140
0.0
102
RTVSPost2010PropOp38
 70
     1
102
RTVSPost2010Prop39
140
1.0
102
RTVSPost2010PropOp39
 70
     1
102
RTVSPost2010Prop40
 90
        0
102
RTVSPost2010PropOp40
 70
     1
102
RTVSPost2010Prop41ColorIndex
 90
       18
102
RTVSPost2010Prop41ColorRGB
 90
        0
102
RTVSPost2010PropOp41
 70
     1
102
RTVSPost2010Prop42
 90
       50
102
RTVSPost2010PropOp42
 70
     1
102
RTVSPost2010Prop43
 90
        3
102
RTVSPost2010PropOp43
 70
     1
102
RTVSPost2010Prop44ColorIndex
 90
        5
102
RTVSPost2010Prop44ColorRGB
 90
      255
102
RTVSPost2010PropOp44
 70
     1
102
RTVSPost2010Prop45
280
     0
102
RTVSPost2010PropOp45
 70
     1
102
RTVSPost2010Prop46
 90
       50
102
RTVSPost2010PropOp46
 70
     1
102
RTVSPost2010Prop47
 90
       50
102
RTVSPost2010PropOp47
 70
     1
102
RTVSPost2010Prop48
 90
       50
102
RTVSPost2010PropOp48
 70
     1
102
RTVSPost2010Prop49
280
     0
102
RTVSPost2010PropOp49
 70
     1
102
RTVSPost2010Prop50
 90
       50
102
RTVSPost2010PropOp50
 70
     1
102
RTVSPost2010Prop51ColorIndex
 90
      256
102
RTVSPost2010Prop51ColorRGB
 90
-16777216
102
RTVSPost2010PropOp51
 70
     0
102
RTVSPost2010Prop52
140
1.0
102
RTVSPost2010PropOp52
 70
     0
102
RTVSPost2010Prop53
 90
        2
102
RTVSPost2010PropOp53
 70
     1
102
RTVSPost2010Prop54
  1
strokes_ogs.tif
102
RTVSPost2010PropOp54
 70
     1
102
RTVSPost2010Prop55
280
     0
102
RTVSPost2010PropOp55
 70
     1
102
RTVSPost2010Prop56
140
1.0
102
RTVSPost2010PropOp56
 70
     1
102
RTVSPost2010Prop57
140
1.0
102
RTVSPost2010PropOp57
 70
     1
  0
XRECORD
  5
187
102
{ACAD_REACTORS
330
186
102
}
330
186
100
AcDbXrecord
280
     1
102
RTVSPost2010Prop28
280
     0
102
RTVSPost2010PropOp28
 70
     1
102
RTVSPost2010Prop29
280
     1
102
RTVSPost2010PropOp29
 70
     1
102
RTVSPost2010Prop30
280
     1
102
RTVSPost2010PropOp30
 70
     1
102
RTVSPost2010Prop31
280
     0
102
RTVSPost2010PropOp31
 70
     1
102
RTVSPost2010Prop32
280
     0
102
RTVSPost2010PropOp32
 70
     1
102
RTVSPost2010Prop33
280
     0
102
RTVSPost2010PropOp33
 70
     1
102
RTVSPost2010Prop34
280
     0
102
RTVSPost2010PropOp34
 70
     1
102
RTVSPost2010Prop35
280
     0
102
RTVSPost2010PropOp35
 70
     1
102
RTVSPost2010Prop36
280
     0
102
RTVSPost2010PropOp36
 70
     1
102
RTVSPost2010Prop37
 90
       50
102
RTVSPost2010PropOp37
 70
     1
102
RTVSPost2010Prop38
140
0.0
102
RTVSPost2010PropOp38
 70
     1
102
RTVSPost2010Prop39
140
1.0
102
RTVSPost2010PropOp39
 70
     1
102
RTVSPost2010Prop40
 90
        0
102
RTVSPost2010PropOp40
 70
     1
102
RTVSPost2010Prop41ColorIndex
 90
       18
102
RTVSPost2010Prop41ColorRGB
 90
        0
102
RTVSPost2010PropOp41
 70
     1
102
RTVSPost2010Prop42
 90
       50
102
RTVSPost2010PropOp42
 70
     1
102
RTVSPost2010Prop43
 90
        3
102
RTVSPost2010PropOp43
 70
     1
102
RTVSPost2010Prop44ColorIndex
 90
        5
102
RTVSPost2010Prop44ColorRGB
 90
      255
102
RTVSPost2010PropOp44
 70
     1
102
RTVSPost2010Prop45
280
     0
102
RTVSPost2010PropOp45
 70
     1
102
RTVSPost2010Prop46
 90
       50
102
RTVSPost2010PropOp46
 70
     1
102
RTVSPost2010Prop47
 90
       50
102
RTVSPost2010PropOp47
 70
     1
102
RTVSPost2010Prop48
 90
       50
102
RTVSPost2010PropOp48
 70
     1
102
RTVSPost2010Prop49
280
     0
102
RTVSPost2010PropOp49
 70
     1
102
RTVSPost2010Prop50
 90
       50
102
RTVSPost2010PropOp50
 70
     1
102
RTVSPost2010Prop51ColorIndex
 90
      256
102
RTVSPost2010Prop51ColorRGB
 90
-16777216
102
RTVSPost2010PropOp51
 70
     0
102
RTVSPost2010Prop52
140
1.0
102
RTVSPost2010PropOp52
 70
     0
102
RTVSPost2010Prop53
 90
        2
102
RTVSPost2010PropOp53
 70
     1
102
RTVSPost2010Prop54
  1
strokes_ogs.tif
102
RTVSPost2010PropOp54
 70
     1
102
RTVSPost2010Prop55
280
     0
102
RTVSPost2010PropOp55
 70
     1
102
RTVSPost2010Prop56
140
1.0
102
RTVSPost2010PropOp56
 70
     1
102
RTVSPost2010Prop57
140
1.0
102
RTVSPost2010PropOp57
 70
     1
  0
XRECORD
  5
179
102
{ACAD_REACTORS
330
178
102
}
330
178
100
AcDbXrecord
280
     1
102
RTVSPost2010Prop28
280
     0
102
RTVSPost2010PropOp28
 70
     1
102
RTVSPost2010Prop29
280
     1
102
RTVSPost2010PropOp29
 70
     1
102
RTVSPost2010Prop30
280
     1
102
RTVSPost2010PropOp30
 70
     1
102
RTVSPost2010Prop31
280
     0
102
RTVSPost2010PropOp31
 70
     1
102
RTVSPost2010Prop32
280
     0
102
RTVSPost2010PropOp32
 70
     1
102
RTVSPost2010Prop33
280
     0
102
RTVSPost2010PropOp33
 70
     1
102
RTVSPost2010Prop34
280
     0
102
RTVSPost2010PropOp34
 70
     1
102
RTVSPost2010Prop35
280
     0
102
RTVSPost2010PropOp35
 70
     1
102
RTVSPost2010Prop36
280
     0
102
RTVSPost2010PropOp36
 70
     1
102
RTVSPost2010Prop37
 90
       50
102
RTVSPost2010PropOp37
 70
     1
102
RTVSPost2010Prop38
140
0.0
102
RTVSPost2010PropOp38
 70
     1
102
RTVSPost2010Prop39
140
1.0
102
RTVSPost2010PropOp39
 70
     1
102
RTVSPost2010Prop40
 90
        0
102
RTVSPost2010PropOp40
 70
     1
102
RTVSPost2010Prop41ColorIndex
 90
       18
102
RTVSPost2010Prop41ColorRGB
 90
        0
102
RTVSPost2010PropOp41
 70
     1
102
RTVSPost2010Prop42
 90
       50
102
RTVSPost2010PropOp42
 70
     1
102
RTVSPost2010Prop43
 90
        3
102
RTVSPost2010PropOp43
 70
     1
102
RTVSPost2010Prop44ColorIndex
 90
        5
102
RTVSPost2010Prop44ColorRGB
 90
      255
102
RTVSPost2010PropOp44
 70
     1
102
RTVSPost2010Prop45
280
     0
102
RTVSPost2010PropOp45
 70
     1
102
RTVSPost2010Prop46
 90
       50
102
RTVSPost2010PropOp46
 70
     1
102
RTVSPost2010Prop47
 90
       50
102
RTVSPost2010PropOp47
 70
     1
102
RTVSPost2010Prop48
 90
       50
102
RTVSPost2010PropOp48
 70
     1
102
RTVSPost2010Prop49
280
     0
102
RTVSPost2010PropOp49
 70
     1
102
RTVSPost2010Prop50
 90
       50
102
RTVSPost2010PropOp50
 70
     1
102
RTVSPost2010Prop51ColorIndex
 90
      256
102
RTVSPost2010Prop51ColorRGB
 90
-16777216
102
RTVSPost2010PropOp51
 70
     0
102
RTVSPost2010Prop52
140
1.0
102
RTVSPost2010PropOp52
 70
     0
102
RTVSPost2010Prop53
 90
        2
102
RTVSPost2010PropOp53
 70
     1
102
RTVSPost2010Prop54
  1
strokes_ogs.tif
102
RTVSPost2010PropOp54
 70
     1
102
RTVSPost2010Prop55
280
     0
102
RTVSPost2010PropOp55
 70
     1
102
RTVSPost2010Prop56
140
1.0
102
RTVSPost2010PropOp56
 70
     1
102
RTVSPost2010Prop57
140
1.0
102
RTVSPost2010PropOp57
 70
     1
  0
XRECORD
  5
17D
102
{ACAD_REACTORS
330
17C
102
}
330
17C
100
AcDbXrecord
280
     1
102
RTVSPost2010Prop28
280
     0
102
RTVSPost2010PropOp28
 70
     1
102
RTVSPost2010Prop29
280
     1
102
RTVSPost2010PropOp29
 70
     1
102
RTVSPost2010Prop30
280
     1
102
RTVSPost2010PropOp30
 70
     1
102
RTVSPost2010Prop31
280
     0
102
RTVSPost2010PropOp31
 70
     1
102
RTVSPost2010Prop32
280
     0
102
RTVSPost2010PropOp32
 70
     1
102
RTVSPost2010Prop33
280
     0
102
RTVSPost2010PropOp33
 70
     1
102
RTVSPost2010Prop34
280
     0
102
RTVSPost2010PropOp34
 70
     1
102
RTVSPost2010Prop35
280
     0
102
RTVSPost2010PropOp35
 70
     1
102
RTVSPost2010Prop36
280
     0
102
RTVSPost2010PropOp36
 70
     1
102
RTVSPost2010Prop37
 90
       50
102
RTVSPost2010PropOp37
 70
     1
102
RTVSPost2010Prop38
140
0.0
102
RTVSPost2010PropOp38
 70
     1
102
RTVSPost2010Prop39
140
1.0
102
RTVSPost2010PropOp39
 70
     1
102
RTVSPost2010Prop40
 90
        0
102
RTVSPost2010PropOp40
 70
     1
102
RTVSPost2010Prop41ColorIndex
 90
       18
102
RTVSPost2010Prop41ColorRGB
 90
        0
102
RTVSPost2010PropOp41
 70
     1
102
RTVSPost2010Prop42
 90
       50
102
RTVSPost2010PropOp42
 70
     1
102
RTVSPost2010Prop43
 90
        3
102
RTVSPost2010PropOp43
 70
     1
102
RTVSPost2010Prop44ColorIndex
 90
        5
102
RTVSPost2010Prop44ColorRGB
 90
      255
102
RTVSPost2010PropOp44
 70
     1
102
RTVSPost2010Prop45
280
     0
102
RTVSPost2010PropOp45
 70
     1
102
RTVSPost2010Prop46
 90
       50
102
RTVSPost2010PropOp46
 70
     1
102
RTVSPost2010Prop47
 90
       50
102
RTVSPost2010PropOp47
 70
     1
102
RTVSPost2010Prop48
 90
       50
102
RTVSPost2010PropOp48
 70
     1
102
RTVSPost2010Prop49
280
     0
102
RTVSPost2010PropOp49
 70
     1
102
RTVSPost2010Prop50
 90
       50
102
RTVSPost2010PropOp50
 70
     1
102
RTVSPost2010Prop51ColorIndex
 90
      256
102
RTVSPost2010Prop51ColorRGB
 90
-16777216
102
RTVSPost2010PropOp51
 70
     0
102
RTVSPost2010Prop52
140
1.0
102
RTVSPost2010PropOp52
 70
     0
102
RTVSPost2010Prop53
 90
        2
102
RTVSPost2010PropOp53
 70
     1
102
RTVSPost2010Prop54
  1
strokes_ogs.tif
102
RTVSPost2010PropOp54
 70
     1
102
RTVSPost2010Prop55
280
     0
102
RTVSPost2010PropOp55
 70
     1
102
RTVSPost2010Prop56
140
1.0
102
RTVSPost2010PropOp56
 70
     1
102
RTVSPost2010Prop57
140
1.0
102
RTVSPost2010PropOp57
 70
     1
  0
XRECORD
  5
197
102
{ACAD_REACTORS
330
196
102
}
330
196
100
AcDbXrecord
280
     1
102
RTVSPost2010Prop28
280
     0
102
RTVSPost2010PropOp28
 70
     0
102
RTVSPost2010Prop29
280
     1
102
RTVSPost2010PropOp29
 70
     0
102
RTVSPost2010Prop30
280
     1
102
RTVSPost2010PropOp30
 70
     0
102
RTVSPost2010Prop31
280
     0
102
RTVSPost2010PropOp31
 70
     0
102
RTVSPost2010Prop32
280
     0
102
RTVSPost2010PropOp32
 70
     0
102
RTVSPost2010Prop33
280
     0
102
RTVSPost2010PropOp33
 70
     0
102
RTVSPost2010Prop34
280
     0
102
RTVSPost2010PropOp34
 70
     0
102
RTVSPost2010Prop35
280
     0
102
RTVSPost2010PropOp35
 70
     0
102
RTVSPost2010Prop36
280
     0
102
RTVSPost2010PropOp36
 70
     0
102
RTVSPost2010Prop37
 90
       50
102
RTVSPost2010PropOp37
 70
     0
102
RTVSPost2010Prop38
140
0.0
102
RTVSPost2010PropOp38
 70
     0
102
RTVSPost2010Prop39
140
1.0
102
RTVSPost2010PropOp39
 70
     0
102
RTVSPost2010Prop40
 90
        0
102
RTVSPost2010PropOp40
 70
     0
102
RTVSPost2010Prop41ColorIndex
 90
       18
102
RTVSPost2010Prop41ColorRGB
 90
        0
102
RTVSPost2010PropOp41
 70
     0
102
RTVSPost2010Prop42
 90
       50
102
RTVSPost2010PropOp42
 70
     0
102
RTVSPost2010Prop43
 90
        3
102
RTVSPost2010PropOp43
 70
     0
102
RTVSPost2010Prop44ColorIndex
 90
        5
102
RTVSPost2010Prop44ColorRGB
 90
      255
102
RTVSPost2010PropOp44
 70
     0
102
RTVSPost2010Prop45
280
     0
102
RTVSPost2010PropOp45
 70
     0
102
RTVSPost2010Prop46
 90
       50
102
RTVSPost2010PropOp46
 70
     0
102
RTVSPost2010Prop47
 90
       50
102
RTVSPost2010PropOp47
 70
     0
102
RTVSPost2010Prop48
 90
       50
102
RTVSPost2010PropOp48
 70
     0
102
RTVSPost2010Prop49
280
     0
102
RTVSPost2010PropOp49
 70
     0
102
RTVSPost2010Prop50
 90
       50
102
RTVSPost2010PropOp50
 70
     0
102
RTVSPost2010Prop51ColorIndex
 90
      256
102
RTVSPost2010Prop51ColorRGB
 90
-16777216
102
RTVSPost2010PropOp51
 70
     0
102
RTVSPost2010Prop52
140
1.0
102
RTVSPost2010PropOp52
 70
     0
102
RTVSPost2010Prop53
 90
        2
102
RTVSPost2010PropOp53
 70
     0
102
RTVSPost2010Prop54
  1
strokes_ogs.tif
102
RTVSPost2010PropOp54
 70
     0
102
RTVSPost2010Prop55
280
     0
102
RTVSPost2010PropOp55
 70
     0
102
RTVSPost2010Prop56
140
1.0
102
RTVSPost2010PropOp56
 70
     0
102
RTVSPost2010Prop57
140
1.0
102
RTVSPost2010PropOp57
 70
     0
  0
XRECORD
  5
185
102
{ACAD_REACTORS
330
184
102
}
330
184
100
AcDbXrecord
280
     1
102
RTVSPost2010Prop28
280
     0
102
RTVSPost2010PropOp28
 70
     1
102
RTVSPost2010Prop29
280
     1
102
RTVSPost2010PropOp29
 70
     1
102
RTVSPost2010Prop30
280
     1
102
RTVSPost2010PropOp30
 70
     1
102
RTVSPost2010Prop31
280
     0
102
RTVSPost2010PropOp31
 70
     1
102
RTVSPost2010Prop32
280
     0
102
RTVSPost2010PropOp32
 70
     1
102
RTVSPost2010Prop33
280
     0
102
RTVSPost2010PropOp33
 70
     1
102
RTVSPost2010Prop34
280
     0
102
RTVSPost2010PropOp34
 70
     1
102
RTVSPost2010Prop35
280
     0
102
RTVSPost2010PropOp35
 70
     1
102
RTVSPost2010Prop36
280
     0
102
RTVSPost2010PropOp36
 70
     1
102
RTVSPost2010Prop37
 90
       50
102
RTVSPost2010PropOp37
 70
     1
102
RTVSPost2010Prop38
140
0.0
102
RTVSPost2010PropOp38
 70
     1
102
RTVSPost2010Prop39
140
1.0
102
RTVSPost2010PropOp39
 70
     1
102
RTVSPost2010Prop40
 90
        0
102
RTVSPost2010PropOp40
 70
     1
102
RTVSPost2010Prop41ColorIndex
 90
       18
102
RTVSPost2010Prop41ColorRGB
 90
        0
102
RTVSPost2010PropOp41
 70
     1
102
RTVSPost2010Prop42
 90
       50
102
RTVSPost2010PropOp42
 70
     1
102
RTVSPost2010Prop43
 90
        3
102
RTVSPost2010PropOp43
 70
     1
102
RTVSPost2010Prop44ColorIndex
 90
        5
102
RTVSPost2010Prop44ColorRGB
 90
      255
102
RTVSPost2010PropOp44
 70
     1
102
RTVSPost2010Prop45
280
     0
102
RTVSPost2010PropOp45
 70
     1
102
RTVSPost2010Prop46
 90
       50
102
RTVSPost2010PropOp46
 70
     1
102
RTVSPost2010Prop47
 90
       50
102
RTVSPost2010PropOp47
 70
     1
102
RTVSPost2010Prop48
 90
       50
102
RTVSPost2010PropOp48
 70
     1
102
RTVSPost2010Prop49
280
     0
102
RTVSPost2010PropOp49
 70
     1
102
RTVSPost2010Prop50
 90
       50
102
RTVSPost2010PropOp50
 70
     1
102
RTVSPost2010Prop51ColorIndex
 90
      256
102
RTVSPost2010Prop51ColorRGB
 90
-16777216
102
RTVSPost2010PropOp51
 70
     0
102
RTVSPost2010Prop52
140
1.0
102
RTVSPost2010PropOp52
 70
     0
102
RTVSPost2010Prop53
 90
        2
102
RTVSPost2010PropOp53
 70
     1
102
RTVSPost2010Prop54
  1
strokes_ogs.tif
102
RTVSPost2010PropOp54
 70
     1
102
RTVSPost2010Prop55
280
     0
102
RTVSPost2010PropOp55
 70
     1
102
RTVSPost2010Prop56
140
1.0
102
RTVSPost2010PropOp56
 70
     1
102
RTVSPost2010Prop57
140
1.0
102
RTVSPost2010PropOp57
 70
     1
  0
XRECORD
  5
169
102
{ACAD_REACTORS
330
168
102
}
330
168
100
AcDbXrecord
280
     1
102
RTVSPost2010Prop28
280
     0
102
RTVSPost2010PropOp28
 70
     1
102
RTVSPost2010Prop29
280
     1
102
RTVSPost2010PropOp29
 70
     1
102
RTVSPost2010Prop30
280
     1
102
RTVSPost2010PropOp30
 70
     1
102
RTVSPost2010Prop31
280
     0
102
RTVSPost2010PropOp31
 70
     1
102
RTVSPost2010Prop32
280
     0
102
RTVSPost2010PropOp32
 70
     1
102
RTVSPost2010Prop33
280
     0
102
RTVSPost2010PropOp33
 70
     1
102
RTVSPost2010Prop34
280
     0
102
RTVSPost2010PropOp34
 70
     1
102
RTVSPost2010Prop35
280
     0
102
RTVSPost2010PropOp35
 70
     1
102
RTVSPost2010Prop36
280
     0
102
RTVSPost2010PropOp36
 70
     1
102
RTVSPost2010Prop37
 90
       50
102
RTVSPost2010PropOp37
 70
     1
102
RTVSPost2010Prop38
140
0.0
102
RTVSPost2010PropOp38
 70
     1
102
RTVSPost2010Prop39
140
1.0
102
RTVSPost2010PropOp39
 70
     1
102
RTVSPost2010Prop40
 90
        0
102
RTVSPost2010PropOp40
 70
     1
102
RTVSPost2010Prop41ColorIndex
 90
       18
102
RTVSPost2010Prop41ColorRGB
 90
        0
102
RTVSPost2010PropOp41
 70
     1
102
RTVSPost2010Prop42
 90
       50
102
RTVSPost2010PropOp42
 70
     1
102
RTVSPost2010Prop43
 90
        3
102
RTVSPost2010PropOp43
 70
     1
102
RTVSPost2010Prop44ColorIndex
 90
        5
102
RTVSPost2010Prop44ColorRGB
 90
      255
102
RTVSPost2010PropOp44
 70
     1
102
RTVSPost2010Prop45
280
     0
102
RTVSPost2010PropOp45
 70
     1
102
RTVSPost2010Prop46
 90
       50
102
RTVSPost2010PropOp46
 70
     1
102
RTVSPost2010Prop47
 90
       50
102
RTVSPost2010PropOp47
 70
     1
102
RTVSPost2010Prop48
 90
       50
102
RTVSPost2010PropOp48
 70
     1
102
RTVSPost2010Prop49
280
     0
102
RTVSPost2010PropOp49
 70
     1
102
RTVSPost2010Prop50
 90
       50
102
RTVSPost2010PropOp50
 70
     1
102
RTVSPost2010Prop51ColorIndex
 90
      256
102
RTVSPost2010Prop51ColorRGB
 90
-16777216
102
RTVSPost2010PropOp51
 70
     0
102
RTVSPost2010Prop52
140
1.0
102
RTVSPost2010PropOp52
 70
     0
102
RTVSPost2010Prop53
 90
        2
102
RTVSPost2010PropOp53
 70
     1
102
RTVSPost2010Prop54
  1
strokes_ogs.tif
102
RTVSPost2010PropOp54
 70
     1
102
RTVSPost2010Prop55
280
     0
102
RTVSPost2010PropOp55
 70
     1
102
RTVSPost2010Prop56
140
1.0
102
RTVSPost2010PropOp56
 70
     1
102
RTVSPost2010Prop57
140
1.0
102
RTVSPost2010PropOp57
 70
     1
  0
XRECORD
  5
16B
102
{ACAD_REACTORS
330
16A
102
}
330
16A
100
AcDbXrecord
280
     1
102
RTVSPost2010Prop28
280
     0
102
RTVSPost2010PropOp28
 70
     1
102
RTVSPost2010Prop29
280
     1
102
RTVSPost2010PropOp29
 70
     1
102
RTVSPost2010Prop30
280
     1
102
RTVSPost2010PropOp30
 70
     1
102
RTVSPost2010Prop31
280
     0
102
RTVSPost2010PropOp31
 70
     1
102
RTVSPost2010Prop32
280
     0
102
RTVSPost2010PropOp32
 70
     1
102
RTVSPost2010Prop33
280
     0
102
RTVSPost2010PropOp33
 70
     1
102
RTVSPost2010Prop34
280
     0
102
RTVSPost2010PropOp34
 70
     1
102
RTVSPost2010Prop35
280
     0
102
RTVSPost2010PropOp35
 70
     1
102
RTVSPost2010Prop36
280
     0
102
RTVSPost2010PropOp36
 70
     1
102
RTVSPost2010Prop37
 90
       50
102
RTVSPost2010PropOp37
 70
     1
102
RTVSPost2010Prop38
140
0.0
102
RTVSPost2010PropOp38
 70
     1
102
RTVSPost2010Prop39
140
1.0
102
RTVSPost2010PropOp39
 70
     1
102
RTVSPost2010Prop40
 90
        0
102
RTVSPost2010PropOp40
 70
     1
102
RTVSPost2010Prop41ColorIndex
 90
       18
102
RTVSPost2010Prop41ColorRGB
 90
        0
102
RTVSPost2010PropOp41
 70
     1
102
RTVSPost2010Prop42
 90
       50
102
RTVSPost2010PropOp42
 70
     1
102
RTVSPost2010Prop43
 90
        3
102
RTVSPost2010PropOp43
 70
     1
102
RTVSPost2010Prop44ColorIndex
 90
        5
102
RTVSPost2010Prop44ColorRGB
 90
      255
102
RTVSPost2010PropOp44
 70
     1
102
RTVSPost2010Prop45
280
     0
102
RTVSPost2010PropOp45
 70
     1
102
RTVSPost2010Prop46
 90
       50
102
RTVSPost2010PropOp46
 70
     1
102
RTVSPost2010Prop47
 90
       50
102
RTVSPost2010PropOp47
 70
     1
102
RTVSPost2010Prop48
 90
       50
102
RTVSPost2010PropOp48
 70
     1
102
RTVSPost2010Prop49
280
     0
102
RTVSPost2010PropOp49
 70
     1
102
RTVSPost2010Prop50
 90
       50
102
RTVSPost2010PropOp50
 70
     1
102
RTVSPost2010Prop51ColorIndex
 90
      256
102
RTVSPost2010Prop51ColorRGB
 90
-16777216
102
RTVSPost2010PropOp51
 70
     0
102
RTVSPost2010Prop52
140
1.0
102
RTVSPost2010PropOp52
 70
     0
102
RTVSPost2010Prop53
 90
        2
102
RTVSPost2010PropOp53
 70
     1
102
RTVSPost2010Prop54
  1
strokes_ogs.tif
102
RTVSPost2010PropOp54
 70
     1
102
RTVSPost2010Prop55
280
     0
102
RTVSPost2010PropOp55
 70
     1
102
RTVSPost2010Prop56
140
1.0
102
RTVSPost2010PropOp56
 70
     1
102
RTVSPost2010Prop57
140
1.0
102
RTVSPost2010PropOp57
 70
     1
  0
XRECORD
  5
16D
102
{ACAD_REACTORS
330
16C
102
}
330
16C
100
AcDbXrecord
280
     1
102
RTVSPost2010Prop28
280
     0
102
RTVSPost2010PropOp28
 70
     1
102
RTVSPost2010Prop29
280
     1
102
RTVSPost2010PropOp29
 70
     1
102
RTVSPost2010Prop30
280
     1
102
RTVSPost2010PropOp30
 70
     1
102
RTVSPost2010Prop31
280
     0
102
RTVSPost2010PropOp31
 70
     1
102
RTVSPost2010Prop32
280
     0
102
RTVSPost2010PropOp32
 70
     1
102
RTVSPost2010Prop33
280
     0
102
RTVSPost2010PropOp33
 70
     1
102
RTVSPost2010Prop34
280
     0
102
RTVSPost2010PropOp34
 70
     1
102
RTVSPost2010Prop35
280
     0
102
RTVSPost2010PropOp35
 70
     1
102
RTVSPost2010Prop36
280
     0
102
RTVSPost2010PropOp36
 70
     1
102
RTVSPost2010Prop37
 90
       50
102
RTVSPost2010PropOp37
 70
     1
102
RTVSPost2010Prop38
140
0.0
102
RTVSPost2010PropOp38
 70
     1
102
RTVSPost2010Prop39
140
1.0
102
RTVSPost2010PropOp39
 70
     1
102
RTVSPost2010Prop40
 90
        0
102
RTVSPost2010PropOp40
 70
     1
102
RTVSPost2010Prop41ColorIndex
 90
       18
102
RTVSPost2010Prop41ColorRGB
 90
        0
102
RTVSPost2010PropOp41
 70
     1
102
RTVSPost2010Prop42
 90
       50
102
RTVSPost2010PropOp42
 70
     1
102
RTVSPost2010Prop43
 90
        3
102
RTVSPost2010PropOp43
 70
     1
102
RTVSPost2010Prop44ColorIndex
 90
        5
102
RTVSPost2010Prop44ColorRGB
 90
      255
102
RTVSPost2010PropOp44
 70
     1
102
RTVSPost2010Prop45
280
     0
102
RTVSPost2010PropOp45
 70
     1
102
RTVSPost2010Prop46
 90
       50
102
RTVSPost2010PropOp46
 70
     1
102
RTVSPost2010Prop47
 90
       50
102
RTVSPost2010PropOp47
 70
     1
102
RTVSPost2010Prop48
 90
       50
102
RTVSPost2010PropOp48
 70
     1
102
RTVSPost2010Prop49
280
     0
102
RTVSPost2010PropOp49
 70
     1
102
RTVSPost2010Prop50
 90
       50
102
RTVSPost2010PropOp50
 70
     1
102
RTVSPost2010Prop51ColorIndex
 90
      256
102
RTVSPost2010Prop51ColorRGB
 90
-16777216
102
RTVSPost2010PropOp51
 70
     0
102
RTVSPost2010Prop52
140
1.0
102
RTVSPost2010PropOp52
 70
     0
102
RTVSPost2010Prop53
 90
        2
102
RTVSPost2010PropOp53
 70
     1
102
RTVSPost2010Prop54
  1
strokes_ogs.tif
102
RTVSPost2010PropOp54
 70
     1
102
RTVSPost2010Prop55
280
     0
102
RTVSPost2010PropOp55
 70
     1
102
RTVSPost2010Prop56
140
1.0
102
RTVSPost2010PropOp56
 70
     1
102
RTVSPost2010Prop57
140
1.0
102
RTVSPost2010PropOp57
 70
     1
  0
XRECORD
  5
16F
102
{ACAD_REACTORS
330
16E
102
}
330
16E
100
AcDbXrecord
280
     1
102
RTVSPost2010Prop28
280
     0
102
RTVSPost2010PropOp28
 70
     1
102
RTVSPost2010Prop29
280
     1
102
RTVSPost2010PropOp29
 70
     1
102
RTVSPost2010Prop30
280
     1
102
RTVSPost2010PropOp30
 70
     1
102
RTVSPost2010Prop31
280
     0
102
RTVSPost2010PropOp31
 70
     1
102
RTVSPost2010Prop32
280
     0
102
RTVSPost2010PropOp32
 70
     1
102
RTVSPost2010Prop33
280
     0
102
RTVSPost2010PropOp33
 70
     1
102
RTVSPost2010Prop34
280
     0
102
RTVSPost2010PropOp34
 70
     1
102
RTVSPost2010Prop35
280
     0
102
RTVSPost2010PropOp35
 70
     1
102
RTVSPost2010Prop36
280
     0
102
RTVSPost2010PropOp36
 70
     1
102
RTVSPost2010Prop37
 90
       50
102
RTVSPost2010PropOp37
 70
     1
102
RTVSPost2010Prop38
140
0.0
102
RTVSPost2010PropOp38
 70
     1
102
RTVSPost2010Prop39
140
1.0
102
RTVSPost2010PropOp39
 70
     1
102
RTVSPost2010Prop40
 90
        0
102
RTVSPost2010PropOp40
 70
     1
102
RTVSPost2010Prop41ColorIndex
 90
       18
102
RTVSPost2010Prop41ColorRGB
 90
        0
102
RTVSPost2010PropOp41
 70
     1
102
RTVSPost2010Prop42
 90
       50
102
RTVSPost2010PropOp42
 70
     1
102
RTVSPost2010Prop43
 90
        3
102
RTVSPost2010PropOp43
 70
     1
102
RTVSPost2010Prop44ColorIndex
 90
        5
102
RTVSPost2010Prop44ColorRGB
 90
      255
102
RTVSPost2010PropOp44
 70
     1
102
RTVSPost2010Prop45
280
     0
102
RTVSPost2010PropOp45
 70
     1
102
RTVSPost2010Prop46
 90
       50
102
RTVSPost2010PropOp46
 70
     1
102
RTVSPost2010Prop47
 90
       50
102
RTVSPost2010PropOp47
 70
     1
102
RTVSPost2010Prop48
 90
       50
102
RTVSPost2010PropOp48
 70
     1
102
RTVSPost2010Prop49
280
     0
102
RTVSPost2010PropOp49
 70
     1
102
RTVSPost2010Prop50
 90
       50
102
RTVSPost2010PropOp50
 70
     1
102
RTVSPost2010Prop51ColorIndex
 90
      256
102
RTVSPost2010Prop51ColorRGB
 90
-16777216
102
RTVSPost2010PropOp51
 70
     0
102
RTVSPost2010Prop52
140
1.0
102
RTVSPost2010PropOp52
 70
     0
102
RTVSPost2010Prop53
 90
        2
102
RTVSPost2010PropOp53
 70
     1
102
RTVSPost2010Prop54
  1
strokes_ogs.tif
102
RTVSPost2010PropOp54
 70
     1
102
RTVSPost2010Prop55
280
     0
102
RTVSPost2010PropOp55
 70
     1
102
RTVSPost2010Prop56
140
1.0
102
RTVSPost2010PropOp56
 70
     1
102
RTVSPost2010Prop57
140
1.0
102
RTVSPost2010PropOp57
 70
     1
  0
XRECORD
  5
177
102
{ACAD_REACTORS
330
176
102
}
330
176
100
AcDbXrecord
280
     1
102
RTVSPost2010Prop28
280
     0
102
RTVSPost2010PropOp28
 70
     1
102
RTVSPost2010Prop29
280
     1
102
RTVSPost2010PropOp29
 70
     1
102
RTVSPost2010Prop30
280
     1
102
RTVSPost2010PropOp30
 70
     1
102
RTVSPost2010Prop31
280
     0
102
RTVSPost2010PropOp31
 70
     1
102
RTVSPost2010Prop32
280
     0
102
RTVSPost2010PropOp32
 70
     1
102
RTVSPost2010Prop33
280
     0
102
RTVSPost2010PropOp33
 70
     1
102
RTVSPost2010Prop34
280
     0
102
RTVSPost2010PropOp34
 70
     1
102
RTVSPost2010Prop35
280
     0
102
RTVSPost2010PropOp35
 70
     1
102
RTVSPost2010Prop36
280
     0
102
RTVSPost2010PropOp36
 70
     1
102
RTVSPost2010Prop37
 90
       50
102
RTVSPost2010PropOp37
 70
     1
102
RTVSPost2010Prop38
140
0.0
102
RTVSPost2010PropOp38
 70
     1
102
RTVSPost2010Prop39
140
1.0
102
RTVSPost2010PropOp39
 70
     1
102
RTVSPost2010Prop40
 90
        0
102
RTVSPost2010PropOp40
 70
     1
102
RTVSPost2010Prop41ColorIndex
 90
       18
102
RTVSPost2010Prop41ColorRGB
 90
        0
102
RTVSPost2010PropOp41
 70
     1
102
RTVSPost2010Prop42
 90
       50
102
RTVSPost2010PropOp42
 70
     1
102
RTVSPost2010Prop43
 90
        3
102
RTVSPost2010PropOp43
 70
     1
102
RTVSPost2010Prop44ColorIndex
 90
        5
102
RTVSPost2010Prop44ColorRGB
 90
      255
102
RTVSPost2010PropOp44
 70
     1
102
RTVSPost2010Prop45
280
     0
102
RTVSPost2010PropOp45
 70
     1
102
RTVSPost2010Prop46
 90
       50
102
RTVSPost2010PropOp46
 70
     1
102
RTVSPost2010Prop47
 90
       50
102
RTVSPost2010PropOp47
 70
     1
102
RTVSPost2010Prop48
 90
       50
102
RTVSPost2010PropOp48
 70
     1
102
RTVSPost2010Prop49
280
     0
102
RTVSPost2010PropOp49
 70
     1
102
RTVSPost2010Prop50
 90
       50
102
RTVSPost2010PropOp50
 70
     1
102
RTVSPost2010Prop51ColorIndex
 90
      256
102
RTVSPost2010Prop51ColorRGB
 90
-16777216
102
RTVSPost2010PropOp51
 70
     0
102
RTVSPost2010Prop52
140
1.0
102
RTVSPost2010PropOp52
 70
     0
102
RTVSPost2010Prop53
 90
        2
102
RTVSPost2010PropOp53
 70
     1
102
RTVSPost2010Prop54
  1
strokes_ogs.tif
102
RTVSPost2010PropOp54
 70
     1
102
RTVSPost2010Prop55
280
     0
102
RTVSPost2010PropOp55
 70
     1
102
RTVSPost2010Prop56
140
1.0
102
RTVSPost2010PropOp56
 70
     1
102
RTVSPost2010Prop57
140
1.0
102
RTVSPost2010PropOp57
 70
     1
  0
XRECORD
  5
193
102
{ACAD_REACTORS
330
192
102
}
330
192
100
AcDbXrecord
280
     1
102
RTVSPost2010Prop28
280
     0
102
RTVSPost2010PropOp28
 70
     0
102
RTVSPost2010Prop29
280
     1
102
RTVSPost2010PropOp29
 70
     0
102
RTVSPost2010Prop30
280
     1
102
RTVSPost2010PropOp30
 70
     0
102
RTVSPost2010Prop31
280
     0
102
RTVSPost2010PropOp31
 70
     0
102
RTVSPost2010Prop32
280
     0
102
RTVSPost2010PropOp32
 70
     0
102
RTVSPost2010Prop33
280
     0
102
RTVSPost2010PropOp33
 70
     0
102
RTVSPost2010Prop34
280
     0
102
RTVSPost2010PropOp34
 70
     0
102
RTVSPost2010Prop35
280
     0
102
RTVSPost2010PropOp35
 70
     0
102
RTVSPost2010Prop36
280
     0
102
RTVSPost2010PropOp36
 70
     0
102
RTVSPost2010Prop37
 90
       50
102
RTVSPost2010PropOp37
 70
     0
102
RTVSPost2010Prop38
140
0.0
102
RTVSPost2010PropOp38
 70
     0
102
RTVSPost2010Prop39
140
1.0
102
RTVSPost2010PropOp39
 70
     0
102
RTVSPost2010Prop40
 90
        0
102
RTVSPost2010PropOp40
 70
     0
102
RTVSPost2010Prop41ColorIndex
 90
       18
102
RTVSPost2010Prop41ColorRGB
 90
        0
102
RTVSPost2010PropOp41
 70
     0
102
RTVSPost2010Prop42
 90
       50
102
RTVSPost2010PropOp42
 70
     0
102
RTVSPost2010Prop43
 90
        3
102
RTVSPost2010PropOp43
 70
     0
102
RTVSPost2010Prop44ColorIndex
 90
        5
102
RTVSPost2010Prop44ColorRGB
 90
      255
102
RTVSPost2010PropOp44
 70
     0
102
RTVSPost2010Prop45
280
     0
102
RTVSPost2010PropOp45
 70
     0
102
RTVSPost2010Prop46
 90
       50
102
RTVSPost2010PropOp46
 70
     0
102
RTVSPost2010Prop47
 90
       50
102
RTVSPost2010PropOp47
 70
     0
102
RTVSPost2010Prop48
 90
       50
102
RTVSPost2010PropOp48
 70
     0
102
RTVSPost2010Prop49
280
     0
102
RTVSPost2010PropOp49
 70
     0
102
RTVSPost2010Prop50
 90
       50
102
RTVSPost2010PropOp50
 70
     0
102
RTVSPost2010Prop51ColorIndex
 90
      256
102
RTVSPost2010Prop51ColorRGB
 90
-16777216
102
RTVSPost2010PropOp51
 70
     0
102
RTVSPost2010Prop52
140
1.0
102
RTVSPost2010PropOp52
 70
     0
102
RTVSPost2010Prop53
 90
        2
102
RTVSPost2010PropOp53
 70
     0
102
RTVSPost2010Prop54
  1
strokes_ogs.tif
102
RTVSPost2010PropOp54
 70
     0
102
RTVSPost2010Prop55
280
     0
102
RTVSPost2010PropOp55
 70
     0
102
RTVSPost2010Prop56
140
1.0
102
RTVSPost2010PropOp56
 70
     0
102
RTVSPost2010Prop57
140
1.0
102
RTVSPost2010PropOp57
 70
     0
  0
XRECORD
  5
183
102
{ACAD_REACTORS
330
182
102
}
330
182
100
AcDbXrecord
280
     1
102
RTVSPost2010Prop28
280
     0
102
RTVSPost2010PropOp28
 70
     1
102
RTVSPost2010Prop29
280
     1
102
RTVSPost2010PropOp29
 70
     1
102
RTVSPost2010Prop30
280
     1
102
RTVSPost2010PropOp30
 70
     1
102
RTVSPost2010Prop31
280
     0
102
RTVSPost2010PropOp31
 70
     1
102
RTVSPost2010Prop32
280
     0
102
RTVSPost2010PropOp32
 70
     1
102
RTVSPost2010Prop33
280
     0
102
RTVSPost2010PropOp33
 70
     1
102
RTVSPost2010Prop34
280
     0
102
RTVSPost2010PropOp34
 70
     1
102
RTVSPost2010Prop35
280
     0
102
RTVSPost2010PropOp35
 70
     1
102
RTVSPost2010Prop36
280
     0
102
RTVSPost2010PropOp36
 70
     1
102
RTVSPost2010Prop37
 90
       50
102
RTVSPost2010PropOp37
 70
     1
102
RTVSPost2010Prop38
140
0.0
102
RTVSPost2010PropOp38
 70
     1
102
RTVSPost2010Prop39
140
1.0
102
RTVSPost2010PropOp39
 70
     1
102
RTVSPost2010Prop40
 90
        0
102
RTVSPost2010PropOp40
 70
     1
102
RTVSPost2010Prop41ColorIndex
 90
       18
102
RTVSPost2010Prop41ColorRGB
 90
        0
102
RTVSPost2010PropOp41
 70
     1
102
RTVSPost2010Prop42
 90
       50
102
RTVSPost2010PropOp42
 70
     1
102
RTVSPost2010Prop43
 90
        3
102
RTVSPost2010PropOp43
 70
     1
102
RTVSPost2010Prop44ColorIndex
 90
        5
102
RTVSPost2010Prop44ColorRGB
 90
      255
102
RTVSPost2010PropOp44
 70
     1
102
RTVSPost2010Prop45
280
     0
102
RTVSPost2010PropOp45
 70
     1
102
RTVSPost2010Prop46
 90
       50
102
RTVSPost2010PropOp46
 70
     1
102
RTVSPost2010Prop47
 90
       50
102
RTVSPost2010PropOp47
 70
     1
102
RTVSPost2010Prop48
 90
       50
102
RTVSPost2010PropOp48
 70
     1
102
RTVSPost2010Prop49
280
     0
102
RTVSPost2010PropOp49
 70
     1
102
RTVSPost2010Prop50
 90
       50
102
RTVSPost2010PropOp50
 70
     1
102
RTVSPost2010Prop51ColorIndex
 90
      256
102
RTVSPost2010Prop51ColorRGB
 90
-16777216
102
RTVSPost2010PropOp51
 70
     0
102
RTVSPost2010Prop52
140
1.0
102
RTVSPost2010PropOp52
 70
     0
102
RTVSPost2010Prop53
 90
        2
102
RTVSPost2010PropOp53
 70
     1
102
RTVSPost2010Prop54
  1
strokes_ogs.tif
102
RTVSPost2010PropOp54
 70
     1
102
RTVSPost2010Prop55
280
     0
102
RTVSPost2010PropOp55
 70
     1
102
RTVSPost2010Prop56
140
1.0
102
RTVSPost2010PropOp56
 70
     1
102
RTVSPost2010Prop57
140
1.0
102
RTVSPost2010PropOp57
 70
     1
  0
XRECORD
  5
195
102
{ACAD_REACTORS
330
194
102
}
330
194
100
AcDbXrecord
280
     1
102
RTVSPost2010Prop28
280
     0
102
RTVSPost2010PropOp28
 70
     0
102
RTVSPost2010Prop29
280
     1
102
RTVSPost2010PropOp29
 70
     0
102
RTVSPost2010Prop30
280
     1
102
RTVSPost2010PropOp30
 70
     0
102
RTVSPost2010Prop31
280
     0
102
RTVSPost2010PropOp31
 70
     0
102
RTVSPost2010Prop32
280
     0
102
RTVSPost2010PropOp32
 70
     0
102
RTVSPost2010Prop33
280
     0
102
RTVSPost2010PropOp33
 70
     0
102
RTVSPost2010Prop34
280
     0
102
RTVSPost2010PropOp34
 70
     0
102
RTVSPost2010Prop35
280
     0
102
RTVSPost2010PropOp35
 70
     0
102
RTVSPost2010Prop36
280
     0
102
RTVSPost2010PropOp36
 70
     0
102
RTVSPost2010Prop37
 90
       50
102
RTVSPost2010PropOp37
 70
     0
102
RTVSPost2010Prop38
140
0.0
102
RTVSPost2010PropOp38
 70
     0
102
RTVSPost2010Prop39
140
1.0
102
RTVSPost2010PropOp39
 70
     0
102
RTVSPost2010Prop40
 90
        0
102
RTVSPost2010PropOp40
 70
     0
102
RTVSPost2010Prop41ColorIndex
 90
       18
102
RTVSPost2010Prop41ColorRGB
 90
        0
102
RTVSPost2010PropOp41
 70
     0
102
RTVSPost2010Prop42
 90
       50
102
RTVSPost2010PropOp42
 70
     0
102
RTVSPost2010Prop43
 90
        3
102
RTVSPost2010PropOp43
 70
     0
102
RTVSPost2010Prop44ColorIndex
 90
        5
102
RTVSPost2010Prop44ColorRGB
 90
      255
102
RTVSPost2010PropOp44
 70
     0
102
RTVSPost2010Prop45
280
     0
102
RTVSPost2010PropOp45
 70
     0
102
RTVSPost2010Prop46
 90
       50
102
RTVSPost2010PropOp46
 70
     0
102
RTVSPost2010Prop47
 90
       50
102
RTVSPost2010PropOp47
 70
     0
102
RTVSPost2010Prop48
 90
       50
102
RTVSPost2010PropOp48
 70
     0
102
RTVSPost2010Prop49
280
     0
102
RTVSPost2010PropOp49
 70
     0
102
RTVSPost2010Prop50
 90
       50
102
RTVSPost2010PropOp50
 70
     0
102
RTVSPost2010Prop51ColorIndex
 90
      256
102
RTVSPost2010Prop51ColorRGB
 90
-16777216
102
RTVSPost2010PropOp51
 70
     0
102
RTVSPost2010Prop52
140
1.0
102
RTVSPost2010PropOp52
 70
     0
102
RTVSPost2010Prop53
 90
        2
102
RTVSPost2010PropOp53
 70
     0
102
RTVSPost2010Prop54
  1
strokes_ogs.tif
102
RTVSPost2010PropOp54
 70
     0
102
RTVSPost2010Prop55
280
     0
102
RTVSPost2010PropOp55
 70
     0
102
RTVSPost2010Prop56
140
1.0
102
RTVSPost2010PropOp56
 70
     0
102
RTVSPost2010Prop57
140
1.0
102
RTVSPost2010PropOp57
 70
     0
  0
XRECORD
  5
17B
102
{ACAD_REACTORS
330
17A
102
}
330
17A
100
AcDbXrecord
280
     1
102
RTVSPost2010Prop28
280
     0
102
RTVSPost2010PropOp28
 70
     1
102
RTVSPost2010Prop29
280
     1
102
RTVSPost2010PropOp29
 70
     1
102
RTVSPost2010Prop30
280
     1
102
RTVSPost2010PropOp30
 70
     1
102
RTVSPost2010Prop31
280
     0
102
RTVSPost2010PropOp31
 70
     1
102
RTVSPost2010Prop32
280
     0
102
RTVSPost2010PropOp32
 70
     1
102
RTVSPost2010Prop33
280
     0
102
RTVSPost2010PropOp33
 70
     1
102
RTVSPost2010Prop34
280
     0
102
RTVSPost2010PropOp34
 70
     1
102
RTVSPost2010Prop35
280
     0
102
RTVSPost2010PropOp35
 70
     1
102
RTVSPost2010Prop36
280
     0
102
RTVSPost2010PropOp36
 70
     1
102
RTVSPost2010Prop37
 90
       50
102
RTVSPost2010PropOp37
 70
     1
102
RTVSPost2010Prop38
140
0.0
102
RTVSPost2010PropOp38
 70
     1
102
RTVSPost2010Prop39
140
1.0
102
RTVSPost2010PropOp39
 70
     1
102
RTVSPost2010Prop40
 90
        0
102
RTVSPost2010PropOp40
 70
     1
102
RTVSPost2010Prop41ColorIndex
 90
       18
102
RTVSPost2010Prop41ColorRGB
 90
        0
102
RTVSPost2010PropOp41
 70
     1
102
RTVSPost2010Prop42
 90
       50
102
RTVSPost2010PropOp42
 70
     1
102
RTVSPost2010Prop43
 90
        3
102
RTVSPost2010PropOp43
 70
     1
102
RTVSPost2010Prop44ColorIndex
 90
        5
102
RTVSPost2010Prop44ColorRGB
 90
      255
102
RTVSPost2010PropOp44
 70
     1
102
RTVSPost2010Prop45
280
     0
102
RTVSPost2010PropOp45
 70
     1
102
RTVSPost2010Prop46
 90
       50
102
RTVSPost2010PropOp46
 70
     1
102
RTVSPost2010Prop47
 90
       50
102
RTVSPost2010PropOp47
 70
     1
102
RTVSPost2010Prop48
 90
       50
102
RTVSPost2010PropOp48
 70
     1
102
RTVSPost2010Prop49
280
     0
102
RTVSPost2010PropOp49
 70
     1
102
RTVSPost2010Prop50
 90
       50
102
RTVSPost2010PropOp50
 70
     1
102
RTVSPost2010Prop51ColorIndex
 90
      256
102
RTVSPost2010Prop51ColorRGB
 90
-16777216
102
RTVSPost2010PropOp51
 70
     0
102
RTVSPost2010Prop52
140
1.0
102
RTVSPost2010PropOp52
 70
     0
102
RTVSPost2010Prop53
 90
        2
102
RTVSPost2010PropOp53
 70
     1
102
RTVSPost2010Prop54
  1
strokes_ogs.tif
102
RTVSPost2010PropOp54
 70
     1
102
RTVSPost2010Prop55
280
     0
102
RTVSPost2010PropOp55
 70
     1
102
RTVSPost2010Prop56
140
1.0
102
RTVSPost2010PropOp56
 70
     1
102
RTVSPost2010Prop57
140
1.0
102
RTVSPost2010PropOp57
 70
     1
  0
XRECORD
  5
191
102
{ACAD_REACTORS
330
190
102
}
330
190
100
AcDbXrecord
280
     1
102
RTVSPost2010Prop28
280
     0
102
RTVSPost2010PropOp28
 70
     1
102
RTVSPost2010Prop29
280
     1
102
RTVSPost2010PropOp29
 70
     1
102
RTVSPost2010Prop30
280
     1
102
RTVSPost2010PropOp30
 70
     1
102
RTVSPost2010Prop31
280
     0
102
RTVSPost2010PropOp31
 70
     1
102
RTVSPost2010Prop32
280
     0
102
RTVSPost2010PropOp32
 70
     1
102
RTVSPost2010Prop33
280
     0
102
RTVSPost2010PropOp33
 70
     1
102
RTVSPost2010Prop34
280
     0
102
RTVSPost2010PropOp34
 70
     1
102
RTVSPost2010Prop35
280
     0
102
RTVSPost2010PropOp35
 70
     1
102
RTVSPost2010Prop36
280
     0
102
RTVSPost2010PropOp36
 70
     1
102
RTVSPost2010Prop37
 90
       50
102
RTVSPost2010PropOp37
 70
     1
102
RTVSPost2010Prop38
140
0.0
102
RTVSPost2010PropOp38
 70
     1
102
RTVSPost2010Prop39
140
1.0
102
RTVSPost2010PropOp39
 70
     1
102
RTVSPost2010Prop40
 90
        0
102
RTVSPost2010PropOp40
 70
     1
102
RTVSPost2010Prop41ColorIndex
 90
       18
102
RTVSPost2010Prop41ColorRGB
 90
        0
102
RTVSPost2010PropOp41
 70
     1
102
RTVSPost2010Prop42
 90
       50
102
RTVSPost2010PropOp42
 70
     1
102
RTVSPost2010Prop43
 90
        3
102
RTVSPost2010PropOp43
 70
     1
102
RTVSPost2010Prop44ColorIndex
 90
        5
102
RTVSPost2010Prop44ColorRGB
 90
      255
102
RTVSPost2010PropOp44
 70
     1
102
RTVSPost2010Prop45
280
     0
102
RTVSPost2010PropOp45
 70
     1
102
RTVSPost2010Prop46
 90
       50
102
RTVSPost2010PropOp46
 70
     1
102
RTVSPost2010Prop47
 90
       50
102
RTVSPost2010PropOp47
 70
     1
102
RTVSPost2010Prop48
 90
       50
102
RTVSPost2010PropOp48
 70
     1
102
RTVSPost2010Prop49
280
     0
102
RTVSPost2010PropOp49
 70
     1
102
RTVSPost2010Prop50
 90
       50
102
RTVSPost2010PropOp50
 70
     1
102
RTVSPost2010Prop51ColorIndex
 90
      256
102
RTVSPost2010Prop51ColorRGB
 90
-16777216
102
RTVSPost2010PropOp51
 70
     0
102
RTVSPost2010Prop52
140
1.0
102
RTVSPost2010PropOp52
 70
     0
102
RTVSPost2010Prop53
 90
        2
102
RTVSPost2010PropOp53
 70
     1
102
RTVSPost2010Prop54
  1
strokes_ogs.tif
102
RTVSPost2010PropOp54
 70
     1
102
RTVSPost2010Prop55
280
     0
102
RTVSPost2010PropOp55
 70
     1
102
RTVSPost2010Prop56
140
1.0
102
RTVSPost2010PropOp56
 70
     1
102
RTVSPost2010Prop57
140
1.0
102
RTVSPost2010PropOp57
 70
     1
  0
XRECORD
  5
18F
102
{ACAD_REACTORS
330
18E
102
}
330
18E
100
AcDbXrecord
280
     1
102
RTVSPost2010Prop28
280
     0
102
RTVSPost2010PropOp28
 70
     1
102
RTVSPost2010Prop29
280
     1
102
RTVSPost2010PropOp29
 70
     1
102
RTVSPost2010Prop30
280
     1
102
RTVSPost2010PropOp30
 70
     1
102
RTVSPost2010Prop31
280
     0
102
RTVSPost2010PropOp31
 70
     1
102
RTVSPost2010Prop32
280
     0
102
RTVSPost2010PropOp32
 70
     1
102
RTVSPost2010Prop33
280
     0
102
RTVSPost2010PropOp33
 70
     1
102
RTVSPost2010Prop34
280
     0
102
RTVSPost2010PropOp34
 70
     1
102
RTVSPost2010Prop35
280
     0
102
RTVSPost2010PropOp35
 70
     1
102
RTVSPost2010Prop36
280
     0
102
RTVSPost2010PropOp36
 70
     1
102
RTVSPost2010Prop37
 90
       50
102
RTVSPost2010PropOp37
 70
     1
102
RTVSPost2010Prop38
140
0.0
102
RTVSPost2010PropOp38
 70
     1
102
RTVSPost2010Prop39
140
1.0
102
RTVSPost2010PropOp39
 70
     1
102
RTVSPost2010Prop40
 90
        0
102
RTVSPost2010PropOp40
 70
     1
102
RTVSPost2010Prop41ColorIndex
 90
       18
102
RTVSPost2010Prop41ColorRGB
 90
        0
102
RTVSPost2010PropOp41
 70
     1
102
RTVSPost2010Prop42
 90
       50
102
RTVSPost2010PropOp42
 70
     1
102
RTVSPost2010Prop43
 90
        3
102
RTVSPost2010PropOp43
 70
     1
102
RTVSPost2010Prop44ColorIndex
 90
        5
102
RTVSPost2010Prop44ColorRGB
 90
      255
102
RTVSPost2010PropOp44
 70
     1
102
RTVSPost2010Prop45
280
     0
102
RTVSPost2010PropOp45
 70
     1
102
RTVSPost2010Prop46
 90
       50
102
RTVSPost2010PropOp46
 70
     1
102
RTVSPost2010Prop47
 90
       50
102
RTVSPost2010PropOp47
 70
     1
102
RTVSPost2010Prop48
 90
       50
102
RTVSPost2010PropOp48
 70
     1
102
RTVSPost2010Prop49
280
     0
102
RTVSPost2010PropOp49
 70
     1
102
RTVSPost2010Prop50
 90
       50
102
RTVSPost2010PropOp50
 70
     1
102
RTVSPost2010Prop51ColorIndex
 90
      256
102
RTVSPost2010Prop51ColorRGB
 90
-16777216
102
RTVSPost2010PropOp51
 70
     0
102
RTVSPost2010Prop52
140
1.0
102
RTVSPost2010PropOp52
 70
     0
102
RTVSPost2010Prop53
 90
        2
102
RTVSPost2010PropOp53
 70
     1
102
RTVSPost2010Prop54
  1
strokes_ogs.tif
102
RTVSPost2010PropOp54
 70
     1
102
RTVSPost2010Prop55
280
     0
102
RTVSPost2010PropOp55
 70
     1
102
RTVSPost2010Prop56
140
1.0
102
RTVSPost2010PropOp56
 70
     1
102
RTVSPost2010Prop57
140
1.0
102
RTVSPost2010PropOp57
 70
     1
  0
XRECORD
  5
189
102
{ACAD_REACTORS
330
188
102
}
330
188
100
AcDbXrecord
280
     1
102
RTVSPost2010Prop28
280
     0
102
RTVSPost2010PropOp28
 70
     1
102
RTVSPost2010Prop29
280
     1
102
RTVSPost2010PropOp29
 70
     1
102
RTVSPost2010Prop30
280
     1
102
RTVSPost2010PropOp30
 70
     1
102
RTVSPost2010Prop31
280
     0
102
RTVSPost2010PropOp31
 70
     1
102
RTVSPost2010Prop32
280
     0
102
RTVSPost2010PropOp32
 70
     1
102
RTVSPost2010Prop33
280
     0
102
RTVSPost2010PropOp33
 70
     1
102
RTVSPost2010Prop34
280
     0
102
RTVSPost2010PropOp34
 70
     1
102
RTVSPost2010Prop35
280
     0
102
RTVSPost2010PropOp35
 70
     1
102
RTVSPost2010Prop36
280
     0
102
RTVSPost2010PropOp36
 70
     1
102
RTVSPost2010Prop37
 90
       50
102
RTVSPost2010PropOp37
 70
     1
102
RTVSPost2010Prop38
140
0.0
102
RTVSPost2010PropOp38
 70
     1
102
RTVSPost2010Prop39
140
1.0
102
RTVSPost2010PropOp39
 70
     1
102
RTVSPost2010Prop40
 90
        0
102
RTVSPost2010PropOp40
 70
     1
102
RTVSPost2010Prop41ColorIndex
 90
       18
102
RTVSPost2010Prop41ColorRGB
 90
        0
102
RTVSPost2010PropOp41
 70
     1
102
RTVSPost2010Prop42
 90
       50
102
RTVSPost2010PropOp42
 70
     1
102
RTVSPost2010Prop43
 90
        3
102
RTVSPost2010PropOp43
 70
     1
102
RTVSPost2010Prop44ColorIndex
 90
        5
102
RTVSPost2010Prop44ColorRGB
 90
      255
102
RTVSPost2010PropOp44
 70
     1
102
RTVSPost2010Prop45
280
     0
102
RTVSPost2010PropOp45
 70
     1
102
RTVSPost2010Prop46
 90
       50
102
RTVSPost2010PropOp46
 70
     1
102
RTVSPost2010Prop47
 90
       50
102
RTVSPost2010PropOp47
 70
     1
102
RTVSPost2010Prop48
 90
       50
102
RTVSPost2010PropOp48
 70
     1
102
RTVSPost2010Prop49
280
     0
102
RTVSPost2010PropOp49
 70
     1
102
RTVSPost2010Prop50
 90
       50
102
RTVSPost2010PropOp50
 70
     1
102
RTVSPost2010Prop51ColorIndex
 90
      256
102
RTVSPost2010Prop51ColorRGB
 90
-16777216
102
RTVSPost2010PropOp51
 70
     0
102
RTVSPost2010Prop52
140
1.0
102
RTVSPost2010PropOp52
 70
     0
102
RTVSPost2010Prop53
 90
        2
102
RTVSPost2010PropOp53
 70
     1
102
RTVSPost2010Prop54
  1
strokes_ogs.tif
102
RTVSPost2010PropOp54
 70
     1
102
RTVSPost2010Prop55
280
     0
102
RTVSPost2010PropOp55
 70
     1
102
RTVSPost2010Prop56
140
1.0
102
RTVSPost2010PropOp56
 70
     1
102
RTVSPost2010Prop57
140
1.0
102
RTVSPost2010PropOp57
 70
     1
  0
XRECORD
  5
18B
102
{ACAD_REACTORS
330
18A
102
}
330
18A
100
AcDbXrecord
280
     1
102
RTVSPost2010Prop28
280
     0
102
RTVSPost2010PropOp28
 70
     1
102
RTVSPost2010Prop29
280
     1
102
RTVSPost2010PropOp29
 70
     1
102
RTVSPost2010Prop30
280
     1
102
RTVSPost2010PropOp30
 70
     1
102
RTVSPost2010Prop31
280
     0
102
RTVSPost2010PropOp31
 70
     1
102
RTVSPost2010Prop32
280
     0
102
RTVSPost2010PropOp32
 70
     1
102
RTVSPost2010Prop33
280
     0
102
RTVSPost2010PropOp33
 70
     1
102
RTVSPost2010Prop34
280
     0
102
RTVSPost2010PropOp34
 70
     1
102
RTVSPost2010Prop35
280
     0
102
RTVSPost2010PropOp35
 70
     1
102
RTVSPost2010Prop36
280
     0
102
RTVSPost2010PropOp36
 70
     1
102
RTVSPost2010Prop37
 90
       50
102
RTVSPost2010PropOp37
 70
     1
102
RTVSPost2010Prop38
140
0.0
102
RTVSPost2010PropOp38
 70
     1
102
RTVSPost2010Prop39
140
1.0
102
RTVSPost2010PropOp39
 70
     1
102
RTVSPost2010Prop40
 90
        0
102
RTVSPost2010PropOp40
 70
     1
102
RTVSPost2010Prop41ColorIndex
 90
       18
102
RTVSPost2010Prop41ColorRGB
 90
        0
102
RTVSPost2010PropOp41
 70
     1
102
RTVSPost2010Prop42
 90
       50
102
RTVSPost2010PropOp42
 70
     1
102
RTVSPost2010Prop43
 90
        3
102
RTVSPost2010PropOp43
 70
     1
102
RTVSPost2010Prop44ColorIndex
 90
        5
102
RTVSPost2010Prop44ColorRGB
 90
      255
102
RTVSPost2010PropOp44
 70
     1
102
RTVSPost2010Prop45
280
     0
102
RTVSPost2010PropOp45
 70
     1
102
RTVSPost2010Prop46
 90
       50
102
RTVSPost2010PropOp46
 70
     1
102
RTVSPost2010Prop47
 90
       50
102
RTVSPost2010PropOp47
 70
     1
102
RTVSPost2010Prop48
 90
       50
102
RTVSPost2010PropOp48
 70
     1
102
RTVSPost2010Prop49
280
     0
102
RTVSPost2010PropOp49
 70
     1
102
RTVSPost2010Prop50
 90
       50
102
RTVSPost2010PropOp50
 70
     1
102
RTVSPost2010Prop51ColorIndex
 90
      256
102
RTVSPost2010Prop51ColorRGB
 90
-16777216
102
RTVSPost2010PropOp51
 70
     0
102
RTVSPost2010Prop52
140
1.0
102
RTVSPost2010PropOp52
 70
     0
102
RTVSPost2010Prop53
 90
        2
102
RTVSPost2010PropOp53
 70
     1
102
RTVSPost2010Prop54
  1
strokes_ogs.tif
102
RTVSPost2010PropOp54
 70
     1
102
RTVSPost2010Prop55
280
     0
102
RTVSPost2010PropOp55
 70
     1
102
RTVSPost2010Prop56
140
1.0
102
RTVSPost2010PropOp56
 70
     1
102
RTVSPost2010Prop57
140
1.0
102
RTVSPost2010PropOp57
 70
     1
  0
XRECORD
  5
181
102
{ACAD_REACTORS
330
180
102
}
330
180
100
AcDbXrecord
280
     1
102
RTVSPost2010Prop28
280
     0
102
RTVSPost2010PropOp28
 70
     1
102
RTVSPost2010Prop29
280
     1
102
RTVSPost2010PropOp29
 70
     1
102
RTVSPost2010Prop30
280
     1
102
RTVSPost2010PropOp30
 70
     1
102
RTVSPost2010Prop31
280
     0
102
RTVSPost2010PropOp31
 70
     1
102
RTVSPost2010Prop32
280
     0
102
RTVSPost2010PropOp32
 70
     1
102
RTVSPost2010Prop33
280
     0
102
RTVSPost2010PropOp33
 70
     1
102
RTVSPost2010Prop34
280
     0
102
RTVSPost2010PropOp34
 70
     1
102
RTVSPost2010Prop35
280
     0
102
RTVSPost2010PropOp35
 70
     1
102
RTVSPost2010Prop36
280
     0
102
RTVSPost2010PropOp36
 70
     1
102
RTVSPost2010Prop37
 90
       50
102
RTVSPost2010PropOp37
 70
     1
102
RTVSPost2010Prop38
140
0.0
102
RTVSPost2010PropOp38
 70
     1
102
RTVSPost2010Prop39
140
1.0
102
RTVSPost2010PropOp39
 70
     1
102
RTVSPost2010Prop40
 90
        0
102
RTVSPost2010PropOp40
 70
     1
102
RTVSPost2010Prop41ColorIndex
 90
       18
102
RTVSPost2010Prop41ColorRGB
 90
        0
102
RTVSPost2010PropOp41
 70
     1
102
RTVSPost2010Prop42
 90
       50
102
RTVSPost2010PropOp42
 70
     1
102
RTVSPost2010Prop43
 90
        3
102
RTVSPost2010PropOp43
 70
     1
102
RTVSPost2010Prop44ColorIndex
 90
        5
102
RTVSPost2010Prop44ColorRGB
 90
      255
102
RTVSPost2010PropOp44
 70
     1
102
RTVSPost2010Prop45
280
     0
102
RTVSPost2010PropOp45
 70
     1
102
RTVSPost2010Prop46
 90
       50
102
RTVSPost2010PropOp46
 70
     1
102
RTVSPost2010Prop47
 90
       50
102
RTVSPost2010PropOp47
 70
     1
102
RTVSPost2010Prop48
 90
       50
102
RTVSPost2010PropOp48
 70
     1
102
RTVSPost2010Prop49
280
     0
102
RTVSPost2010PropOp49
 70
     1
102
RTVSPost2010Prop50
 90
       50
102
RTVSPost2010PropOp50
 70
     1
102
RTVSPost2010Prop51ColorIndex
 90
      256
102
RTVSPost2010Prop51ColorRGB
 90
-16777216
102
RTVSPost2010PropOp51
 70
     0
102
RTVSPost2010Prop52
140
1.0
102
RTVSPost2010PropOp52
 70
     0
102
RTVSPost2010Prop53
 90
        2
102
RTVSPost2010PropOp53
 70
     1
102
RTVSPost2010Prop54
  1
strokes_ogs.tif
102
RTVSPost2010PropOp54
 70
     1
102
RTVSPost2010Prop55
280
     0
102
RTVSPost2010PropOp55
 70
     1
102
RTVSPost2010Prop56
140
1.0
102
RTVSPost2010PropOp56
 70
     1
102
RTVSPost2010Prop57
140
1.0
102
RTVSPost2010PropOp57
 70
     1
  0
XRECORD
  5
175
102
{ACAD_REACTORS
330
174
102
}
330
174
100
AcDbXrecord
280
     1
102
RTVSPost2010Prop28
280
     0
102
RTVSPost2010PropOp28
 70
     1
102
RTVSPost2010Prop29
280
     1
102
RTVSPost2010PropOp29
 70
     1
102
RTVSPost2010Prop30
280
     1
102
RTVSPost2010PropOp30
 70
     1
102
RTVSPost2010Prop31
280
     0
102
RTVSPost2010PropOp31
 70
     1
102
RTVSPost2010Prop32
280
     0
102
RTVSPost2010PropOp32
 70
     1
102
RTVSPost2010Prop33
280
     0
102
RTVSPost2010PropOp33
 70
     1
102
RTVSPost2010Prop34
280
     0
102
RTVSPost2010PropOp34
 70
     1
102
RTVSPost2010Prop35
280
     0
102
RTVSPost2010PropOp35
 70
     1
102
RTVSPost2010Prop36
280
     0
102
RTVSPost2010PropOp36
 70
     1
102
RTVSPost2010Prop37
 90
       50
102
RTVSPost2010PropOp37
 70
     1
102
RTVSPost2010Prop38
140
0.0
102
RTVSPost2010PropOp38
 70
     1
102
RTVSPost2010Prop39
140
1.0
102
RTVSPost2010PropOp39
 70
     1
102
RTVSPost2010Prop40
 90
        0
102
RTVSPost2010PropOp40
 70
     1
102
RTVSPost2010Prop41ColorIndex
 90
       18
102
RTVSPost2010Prop41ColorRGB
 90
        0
102
RTVSPost2010PropOp41
 70
     1
102
RTVSPost2010Prop42
 90
       50
102
RTVSPost2010PropOp42
 70
     1
102
RTVSPost2010Prop43
 90
        3
102
RTVSPost2010PropOp43
 70
     1
102
RTVSPost2010Prop44ColorIndex
 90
        5
102
RTVSPost2010Prop44ColorRGB
 90
      255
102
RTVSPost2010PropOp44
 70
     1
102
RTVSPost2010Prop45
280
     0
102
RTVSPost2010PropOp45
 70
     1
102
RTVSPost2010Prop46
 90
       50
102
RTVSPost2010PropOp46
 70
     1
102
RTVSPost2010Prop47
 90
       50
102
RTVSPost2010PropOp47
 70
     1
102
RTVSPost2010Prop48
 90
       50
102
RTVSPost2010PropOp48
 70
     1
102
RTVSPost2010Prop49
280
     0
102
RTVSPost2010PropOp49
 70
     1
102
RTVSPost2010Prop50
 90
       50
102
RTVSPost2010PropOp50
 70
     1
102
RTVSPost2010Prop51ColorIndex
 90
      256
102
RTVSPost2010Prop51ColorRGB
 90
-16777216
102
RTVSPost2010PropOp51
 70
     0
102
RTVSPost2010Prop52
140
1.0
102
RTVSPost2010PropOp52
 70
     0
102
RTVSPost2010Prop53
 90
        2
102
RTVSPost2010PropOp53
 70
     1
102
RTVSPost2010Prop54
  1
strokes_ogs.tif
102
RTVSPost2010PropOp54
 70
     1
102
RTVSPost2010Prop55
280
     0
102
RTVSPost2010PropOp55
 70
     1
102
RTVSPost2010Prop56
140
1.0
102
RTVSPost2010PropOp56
 70
     1
102
RTVSPost2010Prop57
140
1.0
102
RTVSPost2010PropOp57
 70
     1
  0
XRECORD
  5
18D
102
{ACAD_REACTORS
330
18C
102
}
330
18C
100
AcDbXrecord
280
     1
102
RTVSPost2010Prop28
280
     0
102
RTVSPost2010PropOp28
 70
     1
102
RTVSPost2010Prop29
280
     1
102
RTVSPost2010PropOp29
 70
     1
102
RTVSPost2010Prop30
280
     1
102
RTVSPost2010PropOp30
 70
     1
102
RTVSPost2010Prop31
280
     0
102
RTVSPost2010PropOp31
 70
     1
102
RTVSPost2010Prop32
280
     0
102
RTVSPost2010PropOp32
 70
     1
102
RTVSPost2010Prop33
280
     0
102
RTVSPost2010PropOp33
 70
     1
102
RTVSPost2010Prop34
280
     0
102
RTVSPost2010PropOp34
 70
     1
102
RTVSPost2010Prop35
280
     0
102
RTVSPost2010PropOp35
 70
     1
102
RTVSPost2010Prop36
280
     0
102
RTVSPost2010PropOp36
 70
     1
102
RTVSPost2010Prop37
 90
       50
102
RTVSPost2010PropOp37
 70
     1
102
RTVSPost2010Prop38
140
0.0
102
RTVSPost2010PropOp38
 70
     1
102
RTVSPost2010Prop39
140
1.0
102
RTVSPost2010PropOp39
 70
     1
102
RTVSPost2010Prop40
 90
        0
102
RTVSPost2010PropOp40
 70
     1
102
RTVSPost2010Prop41ColorIndex
 90
       18
102
RTVSPost2010Prop41ColorRGB
 90
        0
102
RTVSPost2010PropOp41
 70
     1
102
RTVSPost2010Prop42
 90
       50
102
RTVSPost2010PropOp42
 70
     1
102
RTVSPost2010Prop43
 90
        3
102
RTVSPost2010PropOp43
 70
     1
102
RTVSPost2010Prop44ColorIndex
 90
        5
102
RTVSPost2010Prop44ColorRGB
 90
      255
102
RTVSPost2010PropOp44
 70
     1
102
RTVSPost2010Prop45
280
     0
102
RTVSPost2010PropOp45
 70
     1
102
RTVSPost2010Prop46
 90
       50
102
RTVSPost2010PropOp46
 70
     1
102
RTVSPost2010Prop47
 90
       50
102
RTVSPost2010PropOp47
 70
     1
102
RTVSPost2010Prop48
 90
       50
102
RTVSPost2010PropOp48
 70
     1
102
RTVSPost2010Prop49
280
     0
102
RTVSPost2010PropOp49
 70
     1
102
RTVSPost2010Prop50
 90
       50
102
RTVSPost2010PropOp50
 70
     1
102
RTVSPost2010Prop51ColorIndex
 90
      256
102
RTVSPost2010Prop51ColorRGB
 90
-16777216
102
RTVSPost2010PropOp51
 70
     0
102
RTVSPost2010Prop52
140
1.0
102
RTVSPost2010PropOp52
 70
     0
102
RTVSPost2010Prop53
 90
        2
102
RTVSPost2010PropOp53
 70
     1
102
RTVSPost2010Prop54
  1
strokes_ogs.tif
102
RTVSPost2010PropOp54
 70
     1
102
RTVSPost2010Prop55
280
     0
102
RTVSPost2010PropOp55
 70
     1
102
RTVSPost2010Prop56
140
1.0
102
RTVSPost2010PropOp56
 70
     1
102
RTVSPost2010Prop57
140
1.0
102
RTVSPost2010PropOp57
 70
     1
  0
ENDSEC
  0
EOF
