  0
SECTION
  2
HEADER
  9
$ACADVER
  1
AC1024
  9
$ACADMAINTVER
 70
   226
  9
$DWGCODEPAGE
  3
ANSI_932
  9
$INSBASE
 10
0.0
 20
0.0
 30
0.0
  9
$EXTMIN
 10
1.000000000000000E+20
 20
1.000000000000000E+20
 30
1.000000000000000E+20
  9
$EXTMAX
 10
-1.000000000000000E+20
 20
-1.000000000000000E+20
 30
-1.000000000000000E+20
  9
$LIMMIN
 10
0.0
 20
0.0
  9
$LIMMAX
 10
12.0
 20
9.0
  9
$ORTHOMODE
 70
     0
  9
$REGENMODE
 70
     1
  9
$FILLMODE
 70
     1
  9
$QTEXTMODE
 70
     0
  9
$MIRRTEXT
 70
     0
  9
$LTSCALE
 40
1.0
  9
$ATTMODE
 70
     1
  9
$TEXTSIZE
 40
0.2
  9
$TRACEWID
 40
0.05
  9
$TEXTSTYLE
  7
Standard
  9
$CLAYER
  8
0
  9
$CELTYPE
  6
ByLayer
  9
$CECOLOR
 62
   256
  9
$CELTSCALE
 40
1.0
  9
$DISPSILH
 70
     0
  9
$DIMSCALE
 40
1.0
  9
$DIMASZ
 40
0.18
  9
$DIMEXO
 40
0.0625
  9
$DIMDLI
 40
0.38
  9
$DIMRND
 40
0.0
  9
$DIMDLE
 40
0.0
  9
$DIMEXE
 40
0.18
  9
$DIMTP
 40
0.0
  9
$DIMTM
 40
0.0
  9
$DIMTXT
 40
0.18
  9
$DIMCEN
 40
0.09
  9
$DIMTSZ
 40
0.0
  9
$DIMTOL
 70
     0
  9
$DIMLIM
 70
     0
  9
$DIMTIH
 70
     1
  9
$DIMTOH
 70
     1
  9
$DIMSE1
 70
     0
  9
$DIMSE2
 70
     0
  9
$DIMTAD
 70
     0
  9
$DIMZIN
 70
     0
  9
$DIMBLK
  1

  9
$DIMASO
 70
     1
  9
$DIMSHO
 70
     1
  9
$DIMPOST
  1

  9
$DIMAPOST
  1

  9
$DIMALT
 70
     0
  9
$DIMALTD
 70
     2
  9
$DIMALTF
 40
25.4
  9
$DIMLFAC
 40
1.0
  9
$DIMTOFL
 70
     0
  9
$DIMTVP
 40
0.0
  9
$DIMTIX
 70
     0
  9
$DIMSOXD
 70
     0
  9
$DIMSAH
 70
     0
  9
$DIMBLK1
  1

  9
$DIMBLK2
  1

  9
$DIMSTYLE
  2
Standard
  9
$DIMCLRD
 70
     0
  9
$DIMCLRE
 70
     0
  9
$DIMCLRT
 70
     0
  9
$DIMTFAC
 40
1.0
  9
$DIMGAP
 40
0.09
  9
$DIMJUST
 70
     0
  9
$DIMSD1
 70
     0
  9
$DIMSD2
 70
     0
  9
$DIMTOLJ
 70
     1
  9
$DIMTZIN
 70
     0
  9
$DIMALTZ
 70
     0
  9
$DIMALTTZ
 70
     0
  9
$DIMUPT
 70
     0
  9
$DIMDEC
 70
     4
  9
$DIMTDEC
 70
     4
  9
$DIMALTU
 70
     2
  9
$DIMALTTD
 70
     2
  9
$DIMTXSTY
  7
Standard
  9
$DIMAUNIT
 70
     0
  9
$DIMADEC
 70
     0
  9
$DIMALTRND
 40
0.0
  9
$DIMAZIN
 70
     0
  9
$DIMDSEP
 70
    46
  9
$DIMATFIT
 70
     3
  9
$DIMFRAC
 70
     0
  9
$DIMLDRBLK
  1

  9
$DIMLUNIT
 70
     2
  9
$DIMLWD
 70
    -2
  9
$DIMLWE
 70
    -2
  9
$DIMTMOVE
 70
     0
  9
$DIMFXL
 40
1.0
  9
$DIMFXLON
 70
     0
  9
$DIMJOGANG
 40
0.7853981633974483
  9
$DIMTFILL
 70
     0
  9
$DIMTFILLCLR
 70
     0
  9
$DIMARCSYM
 70
     0
  9
$DIMLTYPE
  6

  9
$DIMLTEX1
  6

  9
$DIMLTEX2
  6

  9
$DIMTXTDIRECTION
 70
     0
  9
$LUNITS
 70
     2
  9
$LUPREC
 70
     4
  9
$SKETCHINC
 40
0.1
  9
$FILLETRAD
 40
0.0
  9
$AUNITS
 70
     0
  9
$AUPREC
 70
     0
  9
$MENU
  1
.
  9
$ELEVATION
 40
0.0
  9
$PELEVATION
 40
0.0
  9
$THICKNESS
 40
0.0
  9
$LIMCHECK
 70
     0
  9
$CHAMFERA
 40
0.0
  9
$CHAMFERB
 40
0.0
  9
$CHAMFERC
 40
0.0
  9
$CHAMFERD
 40
0.0
  9
$SKPOLY
 70
     0
  9
$TDCREATE
 40
2459569.503634259
  9
$TDUCREATE
 40
2459569.128634259
  9
$TDUPDATE
 40
2459569.503634259
  9
$TDUUPDATE
 40
2459569.128634259
  9
$TDINDWG
 40
0.0000000000
  9
$TDUSRTIMER
 40
0.0000000000
  9
$USRTIMER
 70
     1
  9
$ANGBASE
 50
0.0
  9
$ANGDIR
 70
     0
  9
$PDMODE
 70
     0
  9
$PDSIZE
 40
0.0
  9
$PLINEWID
 40
0.0
  9
$SPLFRAME
 70
     0
  9
$SPLINETYPE
 70
     6
  9
$SPLINESEGS
 70
     8
  9
$HANDSEED
  5
168
  9
$SURFTAB1
 70
     6
  9
$SURFTAB2
 70
     6
  9
$SURFTYPE
 70
     6
  9
$SURFU
 70
     6
  9
$SURFV
 70
     6
  9
$UCSBASE
  2

  9
$UCSNAME
  2

  9
$UCSORG
 10
0.0
 20
0.0
 30
0.0
  9
$UCSXDIR
 10
1.0
 20
0.0
 30
0.0
  9
$UCSYDIR
 10
0.0
 20
1.0
 30
0.0
  9
$UCSORTHOREF
  2

  9
$UCSORTHOVIEW
 70
     0
  9
$UCSORGTOP
 10
0.0
 20
0.0
 30
0.0
  9
$UCSORGBOTTOM
 10
0.0
 20
0.0
 30
0.0
  9
$UCSORGLEFT
 10
0.0
 20
0.0
 30
0.0
  9
$UCSORGRIGHT
 10
0.0
 20
0.0
 30
0.0
  9
$UCSORGFRONT
 10
0.0
 20
0.0
 30
0.0
  9
$UCSORGBACK
 10
0.0
 20
0.0
 30
0.0
  9
$PUCSBASE
  2

  9
$PUCSNAME
  2

  9
$PUCSORG
 10
0.0
 20
0.0
 30
0.0
  9
$PUCSXDIR
 10
1.0
 20
0.0
 30
0.0
  9
$PUCSYDIR
 10
0.0
 20
1.0
 30
0.0
  9
$PUCSORTHOREF
  2

  9
$PUCSORTHOVIEW
 70
     0
  9
$PUCSORGTOP
 10
0.0
 20
0.0
 30
0.0
  9
$PUCSORGBOTTOM
 10
0.0
 20
0.0
 30
0.0
  9
$PUCSORGLEFT
 10
0.0
 20
0.0
 30
0.0
  9
$PUCSORGRIGHT
 10
0.0
 20
0.0
 30
0.0
  9
$PUCSORGFRONT
 10
0.0
 20
0.0
 30
0.0
  9
$PUCSORGBACK
 10
0.0
 20
0.0
 30
0.0
  9
$USERI1
 70
     0
  9
$USERI2
 70
     0
  9
$USERI3
 70
     0
  9
$USERI4
 70
     0
  9
$USERI5
 70
     0
  9
$USERR1
 40
0.0
  9
$USERR2
 40
0.0
  9
$USERR3
 40
0.0
  9
$USERR4
 40
0.0
  9
$USERR5
 40
0.0
  9
$WORLDVIEW
 70
     1
  9
$SHADEDGE
 70
     3
  9
$SHADEDIF
 70
    70
  9
$TILEMODE
 70
     1
  9
$MAXACTVP
 70
    64
  9
$PINSBASE
 10
0.0
 20
0.0
 30
0.0
  9
$PLIMCHECK
 70
     0
  9
$PEXTMIN
 10
1.000000000000000E+20
 20
1.000000000000000E+20
 30
1.000000000000000E+20
  9
$PEXTMAX
 10
-1.000000000000000E+20
 20
-1.000000000000000E+20
 30
-1.000000000000000E+20
  9
$PLIMMIN
 10
0.0
 20
0.0
  9
$PLIMMAX
 10
12.0
 20
9.0
  9
$UNITMODE
 70
     0
  9
$VISRETAIN
 70
     1
  9
$PLINEGEN
 70
     0
  9
$PSLTSCALE
 70
     1
  9
$TREEDEPTH
 70
  3020
  9
$CMLSTYLE
  2
Standard
  9
$CMLJUST
 70
     0
  9
$CMLSCALE
 40
1.0
  9
$PROXYGRAPHICS
 70
     1
  9
$MEASUREMENT
 70
     0
  9
$CELWEIGHT
370
    -1
  9
$ENDCAPS
280
     0
  9
$JOINSTYLE
280
     0
  9
$LWDISPLAY
290
     1
  9
$INSUNITS
 70
     4
  9
$HYPERLINKBASE
  1

  9
$STYLESHEET
  1

  9
$XEDIT
290
     1
  9
$CEPSNTYPE
380
     0
  9
$PSTYLEMODE
290
     1
  9
$FINGERPRINTGUID
  2
{AA49F3F4-EB4F-904D-AE83-3687792355B9}
  9
$VERSIONGUID
  2
{B1B07293-5758-2C40-BD03-F029B9DAF1BA}
  9
$EXTNAMES
290
     1
  9
$PSVPSCALE
 40
0.0
  9
$OLESTARTUP
290
     0
  9
$SORTENTS
280
   127
  9
$INDEXCTL
280
     0
  9
$HIDETEXT
280
     1
  9
$XCLIPFRAME
280
     2
  9
$HALOGAP
280
     0
  9
$OBSCOLOR
 70
   257
  9
$OBSLTYPE
280
     0
  9
$INTERSECTIONDISPLAY
280
     0
  9
$INTERSECTIONCOLOR
 70
   257
  9
$DIMASSOC
280
     2
  9
$PROJECTNAME
  1

  9
$CAMERADISPLAY
290
     0
  9
$LENSLENGTH
 40
50.0
  9
$CAMERAHEIGHT
 40
0.0
  9
$STEPSPERSEC
 40
2.0
  9
$STEPSIZE
 40
6.0
  9
$3DDWFPREC
 40
2.0
  9
$PSOLWIDTH
 40
0.25
  9
$PSOLHEIGHT
 40
4.0
  9
$LOFTANG1
 40
1.570796326794896
  9
$LOFTANG2
 40
1.570796326794896
  9
$LOFTMAG1
 40
0.0
  9
$LOFTMAG2
 40
0.0
  9
$LOFTPARAM
 70
     7
  9
$LOFTNORMALS
280
     1
  9
$LATITUDE
 40
37.795
  9
$LONGITUDE
 40
-122.394
  9
$NORTHDIRECTION
 40
0.0
  9
$TIMEZONE
 70
 -8000
  9
$LIGHTGLYPHDISPLAY
280
     1
  9
$TILEMODELIGHTSYNCH
280
     1
  9
$CMATERIAL
347
11
  9
$SOLIDHIST
280
     0
  9
$SHOWHIST
280
     1
  9
$DWFFRAME
280
     2
  9
$DGNFRAME
280
     0
  9
$REALWORLDSCALE
290
     1
  9
$INTERFERECOLOR
 62
     1
  9
$INTERFEREOBJVS
345
33
  9
$INTERFEREVPVS
346
30
  9
$CSHADOW
280
     0
  9
$SHADOWPLANELOCATION
 40
0.0
  0
ENDSEC
  0
SECTION
  2
CLASSES
  0
CLASS
  1
ACDBDICTIONARYWDFLT
  2
AcDbDictionaryWithDefault
  3
ObjectDBX Classes
 90
        0
 91
        1
280
     0
281
     0
  0
CLASS
  1
MATERIAL
  2
AcDbMaterial
  3
ObjectDBX Classes
 90
     1153
 91
        3
280
     0
281
     0
  0
CLASS
  1
VISUALSTYLE
  2
AcDbVisualStyle
  3
ObjectDBX Classes
 90
     4095
 91
       24
280
     0
281
     0
  0
CLASS
  1
SCALE
  2
AcDbScale
  3
ObjectDBX Classes
 90
     1153
 91
       17
280
     0
281
     0
  0
CLASS
  1
TABLESTYLE
  2
AcDbTableStyle
  3
ObjectDBX Classes
 90
     4095
 91
        1
280
     0
281
     0
  0
CLASS
  1
MLEADERSTYLE
  2
AcDbMLeaderStyle
  3
ACDB_MLEADERSTYLE_CLASS
 90
     4095
 91
        1
280
     0
281
     0
  0
CLASS
  1
ACDBSECTIONVIEWSTYLE
  2
AcDbSectionViewStyle
  3
ObjectDBX Classes
 90
     1025
 91
        1
280
     0
281
     0
  0
CLASS
  1
ACDBDETAILVIEWSTYLE
  2
AcDbDetailViewStyle
  3
ObjectDBX Classes
 90
     1025
 91
        1
280
     0
281
     0
  0
CLASS
  1
DICTIONARYVAR
  2
AcDbDictionaryVar
  3
ObjectDBX Classes
 90
        0
 91
        5
280
     0
281
     0
  0
CLASS
  1
CELLSTYLEMAP
  2
AcDbCellStyleMap
  3
ObjectDBX Classes
 90
     1152
 91
        1
280
     0
281
     0
  0
ENDSEC
  0
SECTION
  2
TABLES
  0
TABLE
  2
VPORT
  5
8
330
0
100
AcDbSymbolTable
 70
     1
  0
VPORT
  5
57
330
8
100
AcDbSymbolTableRecord
100
AcDbViewportTableRecord
  2
*Active
 70
     0
 10
0.0
 20
0.0
 11
1.0
 21
1.0
 12
0.0
 22
0.0
 13
0.0
 23
0.0
 14
1.0
 24
1.0
 15
0.0
 25
0.0
 16
0.0
 26
0.0
 36
1.0
 17
104.9999999737534
 27
-148.4999999628701
 37
0.0
 40
302.939999924255
 41
0.7070707070707534
 42
50.0
 43
0.0
 44
0.0
 50
0.0
 51
0.0
 71
     0
 72
   100
 73
     1
 74
     0
 75
     1
 76
     0
 77
     0
 78
     0
281
     0
 65
     1
110
0.0
120
0.0
130
0.0
111
1.0
121
0.0
131
0.0
112
0.0
122
1.0
132
0.0
 79
     0
146
0.0
 60
     3
 61
     5
292
     1
282
     1
141
0.0
142
0.0
 63
   250
421
  3355443
  0
ENDTAB
  0
TABLE
  2
LTYPE
  5
5
330
0
100
AcDbSymbolTable
 70
     2
  0
LTYPE
  5
5B
330
5
100
AcDbSymbolTableRecord
100
AcDbLinetypeTableRecord
  2
ByBlock
 70
     0
  3

 72
    65
 73
     0
 40
0.0
  0
LTYPE
  5
5C
330
5
100
AcDbSymbolTableRecord
100
AcDbLinetypeTableRecord
  2
ByLayer
 70
     0
  3

 72
    65
 73
     0
 40
0.0
  0
LTYPE
  5
5D
330
5
100
AcDbSymbolTableRecord
100
AcDbLinetypeTableRecord
  2
Continuous
 70
     0
  3
Solid line
 72
    65
 73
     0
 40
0.0
  0
LTYPE
  5
FE
330
5
100
AcDbSymbolTableRecord
100
AcDbLinetypeTableRecord
  2
AI-Linetype-0
 70
     0
  3
Adobe Illustrator Linetype No. 0
 72
    65
 73
     2
 40
1.411111110758333
 49
0.7055555553791667
 74
     0
 49
-0.7055555553791667
 74
     0
  0
ENDTAB
  0
TABLE
  2
LAYER
  5
2
330
0
100
AcDbSymbolTable
 70
     2
  0
LAYER
  5
54
330
2
100
AcDbSymbolTableRecord
100
AcDbLayerTableRecord
  2
0
 70
     0
 62
     7
  6
Continuous
370
    -3
390
F
347
21
  0
LAYER
  5
78
330
2
100
AcDbSymbolTableRecord
100
AcDbLayerTableRecord
  2
レイヤー 1
 70
     0
 62
     7
  6
Continuous
370
     0
390
F
347
21
  0
ENDTAB
  0
TABLE
  2
STYLE
  5
3
330
0
100
AcDbSymbolTable
 70
     2
  0
STYLE
  5
55
330
3
100
AcDbSymbolTableRecord
100
AcDbTextStyleTableRecord
  2
Standard
 70
     0
 40
0.0
 41
1.0
 50
0.0
 71
     0
 42
0.2
  3
txt
  4

  0
STYLE
  5
5A
330
3
100
AcDbSymbolTableRecord
100
AcDbTextStyleTableRecord
  2
Annotative
 70
     0
 40
0.0
 41
1.0
 50
0.0
 71
     0
 42
0.2
  3
txt
  4

1001
AcadAnnotative
1000
AnnotativeData
1002
{
1070
     1
1070
     1
1002
}
  0
ENDTAB
  0
TABLE
  2
VIEW
  5
6
330
0
100
AcDbSymbolTable
 70
     0
  0
ENDTAB
  0
TABLE
  2
UCS
  5
7
330
0
100
AcDbSymbolTable
 70
     0
  0
ENDTAB
  0
TABLE
  2
APPID
  5
9
330
0
100
AcDbSymbolTable
 70
     2
  0
APPID
  5
56
330
9
100
AcDbSymbolTableRecord
100
AcDbRegAppTableRecord
  2
ACAD
 70
     0
  0
APPID
  5
5E
330
9
100
AcDbSymbolTableRecord
100
AcDbRegAppTableRecord
  2
AcadAnnotative
 70
     0
  0
ENDTAB
  0
TABLE
  2
DIMSTYLE
  5
A
330
0
100
AcDbSymbolTable
 70
     2
100
AcDbDimStyleTable
 71
     0
  0
DIMSTYLE
105
58
330
A
100
AcDbSymbolTableRecord
100
AcDbDimStyleTableRecord
  2
Standard
 70
     0
340
55
  0
DIMSTYLE
105
59
330
A
100
AcDbSymbolTableRecord
100
AcDbDimStyleTableRecord
  2
Annotative
 70
     0
340
55
1001
AcadAnnotative
1000
AnnotativeData
1002
{
1070
     1
1070
     1
1002
}
  0
ENDTAB
  0
TABLE
  2
BLOCK_RECORD
  5
1
330
0
100
AcDbSymbolTable
 70
    15
  0
BLOCK_RECORD
  5
70
330
1
100
AcDbSymbolTableRecord
100
AcDbBlockTableRecord
  2
*Model_Space
340
73
 70
     0
280
     1
281
     0
  0
BLOCK_RECORD
  5
6C
330
1
100
AcDbSymbolTableRecord
100
AcDbBlockTableRecord
  2
*Paper_Space
340
6F
 70
     0
280
     1
281
     0
  0
BLOCK_RECORD
  5
74
330
1
100
AcDbSymbolTableRecord
100
AcDbBlockTableRecord
  2
*Paper_Space0
340
77
 70
     0
280
     1
281
     0
  0
BLOCK_RECORD
  5
B4
330
1
100
AcDbSymbolTableRecord
100
AcDbBlockTableRecord
  2
Block_0
340
0
102
{BLKREFS
331
B5
102
}
 70
     0
280
     1
281
     0
  0
BLOCK_RECORD
  5
BF
330
1
100
AcDbSymbolTableRecord
100
AcDbBlockTableRecord
  2
Block_1
340
0
102
{BLKREFS
331
C0
102
}
 70
     0
280
     1
281
     0
  0
BLOCK_RECORD
  5
C3
330
1
100
AcDbSymbolTableRecord
100
AcDbBlockTableRecord
  2
Block_2
340
0
102
{BLKREFS
331
C4
102
}
 70
     0
280
     1
281
     0
  0
BLOCK_RECORD
  5
D1
330
1
100
AcDbSymbolTableRecord
100
AcDbBlockTableRecord
  2
Block_3
340
0
102
{BLKREFS
331
D2
102
}
 70
     0
280
     1
281
     0
  0
BLOCK_RECORD
  5
D5
330
1
100
AcDbSymbolTableRecord
100
AcDbBlockTableRecord
  2
Block_4
340
0
102
{BLKREFS
331
D6
102
}
 70
     0
280
     1
281
     0
  0
BLOCK_RECORD
  5
E2
330
1
100
AcDbSymbolTableRecord
100
AcDbBlockTableRecord
  2
Block_5
340
0
102
{BLKREFS
331
E3
102
}
 70
     0
280
     1
281
     0
  0
BLOCK_RECORD
  5
E6
330
1
100
AcDbSymbolTableRecord
100
AcDbBlockTableRecord
  2
Block_6
340
0
102
{BLKREFS
331
E7
102
}
 70
     0
280
     1
281
     0
  0
BLOCK_RECORD
  5
F0
330
1
100
AcDbSymbolTableRecord
100
AcDbBlockTableRecord
  2
Block_7
340
0
102
{BLKREFS
331
F1
102
}
 70
     0
280
     1
281
     0
  0
BLOCK_RECORD
  5
F7
330
1
100
AcDbSymbolTableRecord
100
AcDbBlockTableRecord
  2
Block_8
340
0
102
{BLKREFS
331
F8
102
}
 70
     0
280
     1
281
     0
  0
BLOCK_RECORD
  5
FF
330
1
100
AcDbSymbolTableRecord
100
AcDbBlockTableRecord
  2
Block_9
340
0
102
{BLKREFS
331
100
102
}
 70
     0
280
     1
281
     0
  0
BLOCK_RECORD
  5
103
330
1
100
AcDbSymbolTableRecord
100
AcDbBlockTableRecord
  2
Block_10
340
0
102
{BLKREFS
331
104
102
}
 70
     0
280
     1
281
     0
  0
BLOCK_RECORD
  5
107
330
1
100
AcDbSymbolTableRecord
100
AcDbBlockTableRecord
  2
Block_11
340
0
102
{BLKREFS
331
108
102
}
 70
     0
280
     1
281
     0
  0
BLOCK_RECORD
  5
11E
330
1
100
AcDbSymbolTableRecord
100
AcDbBlockTableRecord
  2
Block_12
340
0
102
{BLKREFS
331
11F
102
}
 70
     0
280
     1
281
     0
  0
BLOCK_RECORD
  5
122
330
1
100
AcDbSymbolTableRecord
100
AcDbBlockTableRecord
  2
Block_13
340
0
102
{BLKREFS
331
123
102
}
 70
     0
280
     1
281
     0
  0
ENDTAB
  0
ENDSEC
  0
SECTION
  2
BLOCKS
  0
BLOCK
  5
71
330
70
100
AcDbEntity
  8
0
100
AcDbBlockBegin
  2
*Model_Space
 70
     0
 10
0.0
 20
0.0
 30
0.0
  3
*Model_Space
  1

  0
ENDBLK
  5
72
330
70
100
AcDbEntity
  8
0
100
AcDbBlockEnd
  0
BLOCK
  5
6D
330
6C
100
AcDbEntity
 67
     1
  8
0
100
AcDbBlockBegin
  2
*Paper_Space
 70
     0
 10
0.0
 20
0.0
 30
0.0
  3
*Paper_Space
  1

  0
ENDBLK
  5
6E
330
6C
100
AcDbEntity
 67
     1
  8
0
100
AcDbBlockEnd
  0
BLOCK
  5
75
330
74
100
AcDbEntity
 67
     1
  8
0
100
AcDbBlockBegin
  2
*Paper_Space0
 70
     0
 10
0.0
 20
0.0
 30
0.0
  3
*Paper_Space0
  1

  0
ENDBLK
  5
76
330
74
100
AcDbEntity
 67
     1
  8
0
100
AcDbBlockEnd
  0
BLOCK
  5
B6
330
B4
100
AcDbEntity
  8
0
100
AcDbBlockBegin
  2
Block_0
 70
     0
 10
0.0
 20
0.0
 30
0.0
  3
Block_0
  1

  0
SPLINE
  5
B8
330
B4
100
AcDbEntity
  8
レイヤー 1
100
AcDbSpline
210
0.0
220
0.0
230
1.0
 70
     9
 71
     3
 72
    62
 73
    58
 74
     0
 42
0.0000000001
 43
0.0000000001
 40
0.0
 40
0.0
 40
0.0
 40
0.0
 40
1.0
 40
1.0
 40
1.0
 40
2.0
 40
2.0
 40
2.0
 40
3.0
 40
3.0
 40
3.0
 40
4.0
 40
4.0
 40
4.0
 40
5.0
 40
5.0
 40
5.0
 40
6.0
 40
6.0
 40
6.0
 40
7.0
 40
7.0
 40
7.0
 40
8.0
 40
8.0
 40
8.0
 40
9.0
 40
9.0
 40
9.0
 40
10.0
 40
10.0
 40
10.0
 40
11.0
 40
11.0
 40
11.0
 40
12.0
 40
12.0
 40
12.0
 40
13.0
 40
13.0
 40
13.0
 40
14.0
 40
14.0
 40
14.0
 40
15.0
 40
15.0
 40
15.0
 40
16.0
 40
16.0
 40
16.0
 40
17.0
 40
17.0
 40
17.0
 40
18.0
 40
18.0
 40
18.0
 40
19.0
 40
19.0
 40
19.0
 40
19.0
 10
115.865795869471
 20
-141.7443196260222
 30
0.0
 10
115.7703667245296
 20
-141.7443196260222
 30
0.0
 10
115.5526366898618
 20
-141.723132288788
 30
0.0
 10
115.4275797237472
 20
-141.5369248778102
 30
0.0
 10
115.3535101708144
 20
-141.4247870197653
 30
0.0
 10
115.3493760562321
 20
-141.3253960150159
 30
0.0
 10
115.3452419416498
 20
-141.240818920853
 30
0.0
 10
115.3452419416498
 20
-141.240818920853
 30
0.0
 10
115.5653835431572
 20
-141.240818920853
 30
0.0
 10
115.5653835431572
 20
-141.240818920853
 30
0.0
 10
115.5674506004484
 20
-141.3148884737858
 30
0.0
 10
115.5777858869041
 20
-141.5496717311056
 30
0.0
 10
115.8613172453402
 20
-141.5496717311056
 30
0.0
 10
115.9987765552017
 20
-141.5496717311056
 30
0.0
 10
116.1513942851982
 20
-141.4799085475293
 30
0.0
 10
116.1513942851982
 20
-141.251326462083
 30
0.0
 10
116.1513942851982
 20
-141.1350544894558
 30
0.0
 10
116.113153725312
 20
-141.0863063883395
 30
0.0
 10
116.0814588468477
 20
-141.0546115098752
 30
0.0
 10
116.0073892939148
 20
-140.9805419569424
 30
0.0
 10
115.8909450665134
 20
-140.9679673584212
 30
0.0
 10
115.8361680482979
 20
-140.9679673584212
 30
0.0
 10
115.8168755135805
 20
-140.9679673584212
 30
0.0
 10
115.7810465205339
 20
-140.9700344157123
 30
0.0
 10
115.7534857566519
 20
-140.9741685302947
 30
0.0
 10
115.7534857566519
 20
-140.9741685302947
 30
0.0
 10
115.7534857566519
 20
-140.7796928901523
 30
0.0
 10
115.7534857566519
 20
-140.7796928901523
 30
0.0
 10
115.7917263165382
 20
-140.7858940620258
 30
0.0
 10
115.8337564814582
 20
-140.7881333740911
 30
0.0
 10
115.8403021628802
 20
-140.7881333740911
 30
0.0
 10
115.9057589770999
 20
-140.7881333740911
 30
0.0
 10
116.1045409865988
 20
-140.7669460368569
 30
0.0
 10
116.1045409865988
 20
-140.5299234674717
 30
0.0
 10
116.1045409865988
 20
-140.352328795207
 30
0.0
 10
115.9736273581593
 20
-140.2972072674431
 30
0.0
 10
115.8633843026314
 20
-140.2972072674431
 30
0.0
 10
115.5991454789127
 20
-140.2972072674431
 30
0.0
 10
115.5905327401996
 20
-140.5299234674717
 30
0.0
 10
115.5863986256173
 20
-140.6019259631134
 30
0.0
 10
115.5863986256173
 20
-140.6019259631134
 30
0.0
 10
115.3831379919875
 20
-140.6019259631134
 30
0.0
 10
115.3831379919875
 20
-140.6019259631134
 30
0.0
 10
115.3917507307006
 20
-140.4770412517731
 30
0.0
 10
115.4193114945826
 20
-140.1004923152353
 30
0.0
 10
115.8761311559268
 20
-140.1004923152353
 30
0.0
 10
116.1004068720165
 20
-140.1004923152353
 30
0.0
 10
116.341563555984
 20
-140.2274440838667
 30
0.0
 10
116.341563555984
 20
-140.5235500408239
 30
0.0
 10
116.341563555984
 20
-140.7097574518017
 30
0.0
 10
116.2464789205911
 20
-140.7922674886735
 30
0.0
 10
116.1469156610674
 20
-140.8535901883109
 30
0.0
 10
116.2082383607049
 20
-140.8811509521929
 30
0.0
 10
116.3901394023261
 20
-140.9615939317735
 30
0.0
 10
116.3901394023261
 20
-141.2387518635618
 30
0.0
 10
116.3901394023261
 20
-141.5772324949876
 30
0.0
 10
116.1427815464851
 20
-141.7443196260222
 30
0.0
 10
115.865795869471
 20
-141.7443196260222
 30
0.0
  0
HATCH
  5
B9
330
B4
100
AcDbEntity
  8
レイヤー 1
 62
    18
420
        0
440
 33554687
100
AcDbHatch
 10
0.0
 20
0.0
 30
0.0
210
0.0
220
0.0
230
1.0
  2
SOLID
 70
     1
 71
     1
 91
        1
 92
        1
 93
        1
 72
     4
 94
        3
 73
     0
 74
     0
 95
       62
 96
       58
 40
0.0
 40
0.0
 40
0.0
 40
0.0
 40
1.0
 40
1.0
 40
1.0
 40
2.0
 40
2.0
 40
2.0
 40
3.0
 40
3.0
 40
3.0
 40
4.0
 40
4.0
 40
4.0
 40
5.0
 40
5.0
 40
5.0
 40
6.0
 40
6.0
 40
6.0
 40
7.0
 40
7.0
 40
7.0
 40
8.0
 40
8.0
 40
8.0
 40
9.0
 40
9.0
 40
9.0
 40
10.0
 40
10.0
 40
10.0
 40
11.0
 40
11.0
 40
11.0
 40
12.0
 40
12.0
 40
12.0
 40
13.0
 40
13.0
 40
13.0
 40
14.0
 40
14.0
 40
14.0
 40
15.0
 40
15.0
 40
15.0
 40
16.0
 40
16.0
 40
16.0
 40
17.0
 40
17.0
 40
17.0
 40
18.0
 40
18.0
 40
18.0
 40
19.0
 40
19.0
 40
19.0
 40
19.0
 10
115.865795869471
 20
-141.7443196260222
 10
115.7703667245296
 20
-141.7443196260222
 10
115.5526366898618
 20
-141.723132288788
 10
115.4275797237472
 20
-141.5369248778102
 10
115.3535101708144
 20
-141.4247870197653
 10
115.3493760562321
 20
-141.3253960150159
 10
115.3452419416498
 20
-141.240818920853
 10
115.3452419416498
 20
-141.240818920853
 10
115.5653835431572
 20
-141.240818920853
 10
115.5653835431572
 20
-141.240818920853
 10
115.5674506004484
 20
-141.3148884737858
 10
115.5777858869041
 20
-141.5496717311056
 10
115.8613172453402
 20
-141.5496717311056
 10
115.9987765552017
 20
-141.5496717311056
 10
116.1513942851982
 20
-141.4799085475293
 10
116.1513942851982
 20
-141.251326462083
 10
116.1513942851982
 20
-141.1350544894558
 10
116.113153725312
 20
-141.0863063883395
 10
116.0814588468477
 20
-141.0546115098752
 10
116.0073892939148
 20
-140.9805419569424
 10
115.8909450665134
 20
-140.9679673584212
 10
115.8361680482979
 20
-140.9679673584212
 10
115.8168755135805
 20
-140.9679673584212
 10
115.7810465205339
 20
-140.9700344157123
 10
115.7534857566519
 20
-140.9741685302947
 10
115.7534857566519
 20
-140.9741685302947
 10
115.7534857566519
 20
-140.7796928901523
 10
115.7534857566519
 20
-140.7796928901523
 10
115.7917263165382
 20
-140.7858940620258
 10
115.8337564814582
 20
-140.7881333740911
 10
115.8403021628802
 20
-140.7881333740911
 10
115.9057589770999
 20
-140.7881333740911
 10
116.1045409865988
 20
-140.7669460368569
 10
116.1045409865988
 20
-140.5299234674717
 10
116.1045409865988
 20
-140.352328795207
 10
115.9736273581593
 20
-140.2972072674431
 10
115.8633843026314
 20
-140.2972072674431
 10
115.5991454789127
 20
-140.2972072674431
 10
115.5905327401996
 20
-140.5299234674717
 10
115.5863986256173
 20
-140.6019259631134
 10
115.5863986256173
 20
-140.6019259631134
 10
115.3831379919875
 20
-140.6019259631134
 10
115.3831379919875
 20
-140.6019259631134
 10
115.3917507307006
 20
-140.4770412517731
 10
115.4193114945826
 20
-140.1004923152353
 10
115.8761311559268
 20
-140.1004923152353
 10
116.1004068720165
 20
-140.1004923152353
 10
116.341563555984
 20
-140.2274440838667
 10
116.341563555984
 20
-140.5235500408239
 10
116.341563555984
 20
-140.7097574518017
 10
116.2464789205911
 20
-140.7922674886735
 10
116.1469156610674
 20
-140.8535901883109
 10
116.2082383607049
 20
-140.8811509521929
 10
116.3901394023261
 20
-140.9615939317735
 10
116.3901394023261
 20
-141.2387518635618
 10
116.3901394023261
 20
-141.5772324949876
 10
116.1427815464851
 20
-141.7443196260222
 10
115.865795869471
 20
-141.7443196260222
 97
        0
 97
        1
330
B8
 75
     2
 76
     1
 98
        1
 10
0.0
 20
0.0
450
        0
451
        0
460
0.0
461
0.0
452
        0
462
0.0
453
        0
470

  0
ENDBLK
  5
B7
330
B4
100
AcDbEntity
  8
0
100
AcDbBlockEnd
  0
BLOCK
  5
C1
330
BF
100
AcDbEntity
  8
0
100
AcDbBlockBegin
  2
Block_1
 70
     0
 10
0.0
 20
0.0
 30
0.0
  3
Block_1
  1

  0
INSERT
  5
C4
330
BF
100
AcDbEntity
  8
レイヤー 1
100
AcDbBlockReference
  2
Block_2
 10
0.0
 20
0.0
 30
0.0
  0
ENDBLK
  5
C2
330
BF
100
AcDbEntity
  8
0
100
AcDbBlockEnd
  0
BLOCK
  5
C5
330
C3
100
AcDbEntity
  8
0
100
AcDbBlockBegin
  2
Block_2
 70
     0
 10
0.0
 20
0.0
 30
0.0
  3
Block_2
  1

  0
SPLINE
  5
C7
330
C3
100
AcDbEntity
  8
レイヤー 1
100
AcDbSpline
210
0.0
220
0.0
230
1.0
 70
     9
 71
     3
 72
    53
 73
    49
 74
     0
 42
0.0000000001
 43
0.0000000001
 40
0.0
 40
0.0
 40
0.0
 40
0.0
 40
1.0
 40
1.0
 40
1.0
 40
2.0
 40
2.0
 40
2.0
 40
3.0
 40
3.0
 40
3.0
 40
4.0
 40
4.0
 40
4.0
 40
5.0
 40
5.0
 40
5.0
 40
6.0
 40
6.0
 40
6.0
 40
7.0
 40
7.0
 40
7.0
 40
8.0
 40
8.0
 40
8.0
 40
9.0
 40
9.0
 40
9.0
 40
10.0
 40
10.0
 40
10.0
 40
11.0
 40
11.0
 40
11.0
 40
12.0
 40
12.0
 40
12.0
 40
13.0
 40
13.0
 40
13.0
 40
14.0
 40
14.0
 40
14.0
 40
15.0
 40
15.0
 40
15.0
 40
16.0
 40
16.0
 40
16.0
 40
16.0
 10
114.4901692422108
 20
-156.006670425408
 30
0.0
 10
114.4119655746956
 20
-156.006670425408
 30
0.0
 10
114.3103352578807
 20
-155.9897894575303
 30
0.0
 10
114.2087049410659
 20
-155.9263997006017
 30
0.0
 10
114.0354166381578
 20
-155.8165011546222
 30
0.0
 10
114.0140570461493
 20
-155.6852430166342
 30
0.0
 10
113.9951090209804
 20
-155.5774115279459
 30
0.0
 10
113.9951090209804
 20
-155.5774115279459
 30
0.0
 10
114.217317679779
 20
-155.5774115279459
 30
0.0
 10
114.217317679779
 20
-155.5774115279459
 30
0.0
 10
114.2720946979945
 20
-155.7761935374448
 30
0.0
 10
114.3992187214002
 20
-155.805821358618
 30
0.0
 10
114.4922362995019
 20
-155.805821358618
 30
0.0
 10
114.6317626666546
 20
-155.805821358618
 30
0.0
 10
114.7840358871026
 20
-155.7062580990942
 30
0.0
 10
114.7840358871026
 20
-155.4737141538399
 30
0.0
 10
114.7840358871026
 20
-155.2177435592858
 30
0.0
 10
114.6042019027726
 20
-155.1478081209353
 30
0.0
 10
114.4836235607888
 20
-155.1478081209353
 30
0.0
 10
114.4519286823245
 20
-155.1478081209353
 30
0.0
 10
114.3103352578807
 20
-155.1478081209353
 30
0.0
 10
114.2214517943613
 20
-155.2769992016321
 30
0.0
 10
114.2214517943613
 20
-155.2769992016321
 30
0.0
 10
114.0457519246135
 20
-155.2580511764633
 30
0.0
 10
114.0457519246135
 20
-155.2580511764633
 30
0.0
 10
114.0457519246135
 20
-155.2580511764633
 30
0.0
 10
114.1663302665973
 20
-154.4115912157374
 30
0.0
 10
114.1663302665973
 20
-154.4115912157374
 30
0.0
 10
114.1663302665973
 20
-154.4115912157374
 30
0.0
 10
114.9449218462638
 20
-154.4115912157374
 30
0.0
 10
114.9449218462638
 20
-154.4115912157374
 30
0.0
 10
114.9449218462638
 20
-154.4115912157374
 30
0.0
 10
114.9449218462638
 20
-154.606239110654
 30
0.0
 10
114.9449218462638
 20
-154.606239110654
 30
0.0
 10
114.9449218462638
 20
-154.606239110654
 30
0.0
 10
114.3292832830496
 20
-154.606239110654
 30
0.0
 10
114.3292832830496
 20
-154.606239110654
 30
0.0
 10
114.3292832830496
 20
-154.606239110654
 30
0.0
 10
114.2638264688299
 20
-155.0292968362427
 30
0.0
 10
114.2638264688299
 20
-155.0292968362427
 30
0.0
 10
114.3251491684673
 20
-154.9955349004872
 30
0.0
 10
114.4074869505648
 20
-154.9552272833098
 30
0.0
 10
114.5259982352574
 20
-154.9552272833098
 30
0.0
 10
114.7799017725203
 20
-154.9552272833098
 30
0.0
 10
115.0169243419055
 20
-155.1416069490618
 30
0.0
 10
115.0169243419055
 20
-155.454766128671
 30
0.0
 10
115.0169243419055
 20
-155.7720594228625
 30
0.0
 10
114.7926486258157
 20
-156.006670425408
 30
0.0
 10
114.4901692422108
 20
-156.006670425408
 30
0.0
  0
HATCH
  5
C8
330
C3
100
AcDbEntity
  8
レイヤー 1
 62
    18
420
        0
440
 33554687
100
AcDbHatch
 10
0.0
 20
0.0
 30
0.0
210
0.0
220
0.0
230
1.0
  2
SOLID
 70
     1
 71
     1
 91
        1
 92
        1
 93
        1
 72
     4
 94
        3
 73
     0
 74
     0
 95
       53
 96
       49
 40
0.0
 40
0.0
 40
0.0
 40
0.0
 40
1.0
 40
1.0
 40
1.0
 40
2.0
 40
2.0
 40
2.0
 40
3.0
 40
3.0
 40
3.0
 40
4.0
 40
4.0
 40
4.0
 40
5.0
 40
5.0
 40
5.0
 40
6.0
 40
6.0
 40
6.0
 40
7.0
 40
7.0
 40
7.0
 40
8.0
 40
8.0
 40
8.0
 40
9.0
 40
9.0
 40
9.0
 40
10.0
 40
10.0
 40
10.0
 40
11.0
 40
11.0
 40
11.0
 40
12.0
 40
12.0
 40
12.0
 40
13.0
 40
13.0
 40
13.0
 40
14.0
 40
14.0
 40
14.0
 40
15.0
 40
15.0
 40
15.0
 40
16.0
 40
16.0
 40
16.0
 40
16.0
 10
114.4901692422108
 20
-156.006670425408
 10
114.4119655746956
 20
-156.006670425408
 10
114.3103352578807
 20
-155.9897894575303
 10
114.2087049410659
 20
-155.9263997006017
 10
114.0354166381578
 20
-155.8165011546222
 10
114.0140570461493
 20
-155.6852430166342
 10
113.9951090209804
 20
-155.5774115279459
 10
113.9951090209804
 20
-155.5774115279459
 10
114.217317679779
 20
-155.5774115279459
 10
114.217317679779
 20
-155.5774115279459
 10
114.2720946979945
 20
-155.7761935374448
 10
114.3992187214002
 20
-155.805821358618
 10
114.4922362995019
 20
-155.805821358618
 10
114.6317626666546
 20
-155.805821358618
 10
114.7840358871026
 20
-155.7062580990942
 10
114.7840358871026
 20
-155.4737141538399
 10
114.7840358871026
 20
-155.2177435592858
 10
114.6042019027726
 20
-155.1478081209353
 10
114.4836235607888
 20
-155.1478081209353
 10
114.4519286823245
 20
-155.1478081209353
 10
114.3103352578807
 20
-155.1478081209353
 10
114.2214517943613
 20
-155.2769992016321
 10
114.2214517943613
 20
-155.2769992016321
 10
114.0457519246135
 20
-155.2580511764633
 10
114.0457519246135
 20
-155.2580511764633
 10
114.0457519246135
 20
-155.2580511764633
 10
114.1663302665973
 20
-154.4115912157374
 10
114.1663302665973
 20
-154.4115912157374
 10
114.1663302665973
 20
-154.4115912157374
 10
114.9449218462638
 20
-154.4115912157374
 10
114.9449218462638
 20
-154.4115912157374
 10
114.9449218462638
 20
-154.4115912157374
 10
114.9449218462638
 20
-154.606239110654
 10
114.9449218462638
 20
-154.606239110654
 10
114.9449218462638
 20
-154.606239110654
 10
114.3292832830496
 20
-154.606239110654
 10
114.3292832830496
 20
-154.606239110654
 10
114.3292832830496
 20
-154.606239110654
 10
114.2638264688299
 20
-155.0292968362427
 10
114.2638264688299
 20
-155.0292968362427
 10
114.3251491684673
 20
-154.9955349004872
 10
114.4074869505648
 20
-154.9552272833098
 10
114.5259982352574
 20
-154.9552272833098
 10
114.7799017725203
 20
-154.9552272833098
 10
115.0169243419055
 20
-155.1416069490618
 10
115.0169243419055
 20
-155.454766128671
 10
115.0169243419055
 20
-155.7720594228625
 10
114.7926486258157
 20
-156.006670425408
 10
114.4901692422108
 20
-156.006670425408
 97
        0
 97
        1
330
C7
 75
     2
 76
     1
 98
        1
 10
0.0
 20
0.0
450
        0
451
        0
460
0.0
461
0.0
452
        0
462
0.0
453
        0
470

  0
SPLINE
  5
C9
330
C3
100
AcDbEntity
  8
レイヤー 1
100
AcDbSpline
210
0.0
220
0.0
230
1.0
 70
    11
 71
     3
 72
    17
 73
    13
 74
     0
 42
0.0000000001
 43
0.0000000001
 40
0.0
 40
0.0
 40
0.0
 40
0.0
 40
1.0
 40
1.0
 40
1.0
 40
2.0
 40
2.0
 40
2.0
 40
3.0
 40
3.0
 40
3.0
 40
4.0
 40
4.0
 40
4.0
 40
4.0
 10
115.2460231916746
 20
-155.9560275217749
 30
0.0
 10
115.2460231916746
 20
-155.9560275217749
 30
0.0
 10
115.2460231916746
 20
-155.7041910418031
 30
0.0
 10
115.2460231916746
 20
-155.7041910418031
 30
0.0
 10
115.2460231916746
 20
-155.7041910418031
 30
0.0
 10
115.4978596716463
 20
-155.7041910418031
 30
0.0
 10
115.4978596716463
 20
-155.7041910418031
 30
0.0
 10
115.4978596716463
 20
-155.7041910418031
 30
0.0
 10
115.4978596716463
 20
-155.9560275217749
 30
0.0
 10
115.4978596716463
 20
-155.9560275217749
 30
0.0
 10
115.4978596716463
 20
-155.9560275217749
 30
0.0
 10
115.2460231916746
 20
-155.9560275217749
 30
0.0
 10
115.2460231916746
 20
-155.9560275217749
 30
0.0
  0
HATCH
  5
CA
330
C3
100
AcDbEntity
  8
レイヤー 1
 62
    18
420
        0
440
 33554687
100
AcDbHatch
 10
0.0
 20
0.0
 30
0.0
210
0.0
220
0.0
230
1.0
  2
SOLID
 70
     1
 71
     1
 91
        1
 92
        1
 93
        1
 72
     4
 94
        3
 73
     0
 74
     0
 95
       17
 96
       13
 40
0.0
 40
0.0
 40
0.0
 40
0.0
 40
1.0
 40
1.0
 40
1.0
 40
2.0
 40
2.0
 40
2.0
 40
3.0
 40
3.0
 40
3.0
 40
4.0
 40
4.0
 40
4.0
 40
4.0
 10
115.2460231916746
 20
-155.9560275217749
 10
115.2460231916746
 20
-155.9560275217749
 10
115.2460231916746
 20
-155.7041910418031
 10
115.2460231916746
 20
-155.7041910418031
 10
115.2460231916746
 20
-155.7041910418031
 10
115.4978596716463
 20
-155.7041910418031
 10
115.4978596716463
 20
-155.7041910418031
 10
115.4978596716463
 20
-155.7041910418031
 10
115.4978596716463
 20
-155.9560275217749
 10
115.4978596716463
 20
-155.9560275217749
 10
115.4978596716463
 20
-155.9560275217749
 10
115.2460231916746
 20
-155.9560275217749
 10
115.2460231916746
 20
-155.9560275217749
 97
        0
 97
        1
330
C9
 75
     2
 76
     1
 98
        1
 10
0.0
 20
0.0
450
        0
451
        0
460
0.0
461
0.0
452
        0
462
0.0
453
        0
470

  0
SPLINE
  5
CB
330
C3
100
AcDbEntity
  8
レイヤー 1
100
AcDbSpline
210
0.0
220
0.0
230
1.0
 70
     9
 71
     3
 72
    53
 73
    49
 74
     0
 42
0.0000000001
 43
0.0000000001
 40
0.0
 40
0.0
 40
0.0
 40
0.0
 40
1.0
 40
1.0
 40
1.0
 40
2.0
 40
2.0
 40
2.0
 40
3.0
 40
3.0
 40
3.0
 40
4.0
 40
4.0
 40
4.0
 40
5.0
 40
5.0
 40
5.0
 40
6.0
 40
6.0
 40
6.0
 40
7.0
 40
7.0
 40
7.0
 40
8.0
 40
8.0
 40
8.0
 40
9.0
 40
9.0
 40
9.0
 40
10.0
 40
10.0
 40
10.0
 40
11.0
 40
11.0
 40
11.0
 40
12.0
 40
12.0
 40
12.0
 40
13.0
 40
13.0
 40
13.0
 40
14.0
 40
14.0
 40
14.0
 40
15.0
 40
15.0
 40
15.0
 40
16.0
 40
16.0
 40
16.0
 40
16.0
 10
116.2151285516754
 20
-156.006670425408
 30
0.0
 10
116.1369248841602
 20
-156.006670425408
 30
0.0
 10
116.0352945673453
 20
-155.9897894575303
 30
0.0
 10
115.9336642505305
 20
-155.9263997006017
 30
0.0
 10
115.7603759476224
 20
-155.8165011546222
 30
0.0
 10
115.7390163556138
 20
-155.6852430166342
 30
0.0
 10
115.720068330445
 20
-155.5774115279459
 30
0.0
 10
115.720068330445
 20
-155.5774115279459
 30
0.0
 10
115.9422769892436
 20
-155.5774115279459
 30
0.0
 10
115.9422769892436
 20
-155.5774115279459
 30
0.0
 10
115.997054007459
 20
-155.7761935374448
 30
0.0
 10
116.1241780308648
 20
-155.805821358618
 30
0.0
 10
116.2171956089665
 20
-155.805821358618
 30
0.0
 10
116.3567219761191
 20
-155.805821358618
 30
0.0
 10
116.5089951965672
 20
-155.7062580990942
 30
0.0
 10
116.5089951965672
 20
-155.4737141538399
 30
0.0
 10
116.5089951965672
 20
-155.2177435592858
 30
0.0
 10
116.3291612122371
 20
-155.1478081209353
 30
0.0
 10
116.2085828702534
 20
-155.1478081209353
 30
0.0
 10
116.1768879917891
 20
-155.1478081209353
 30
0.0
 10
116.0352945673453
 20
-155.1478081209353
 30
0.0
 10
115.9464111038259
 20
-155.2769992016321
 30
0.0
 10
115.9464111038259
 20
-155.2769992016321
 30
0.0
 10
115.7707112340781
 20
-155.2580511764633
 30
0.0
 10
115.7707112340781
 20
-155.2580511764633
 30
0.0
 10
115.7707112340781
 20
-155.2580511764633
 30
0.0
 10
115.8912895760619
 20
-154.4115912157374
 30
0.0
 10
115.8912895760619
 20
-154.4115912157374
 30
0.0
 10
115.8912895760619
 20
-154.4115912157374
 30
0.0
 10
116.6698811557283
 20
-154.4115912157374
 30
0.0
 10
116.6698811557283
 20
-154.4115912157374
 30
0.0
 10
116.6698811557283
 20
-154.4115912157374
 30
0.0
 10
116.6698811557283
 20
-154.606239110654
 30
0.0
 10
116.6698811557283
 20
-154.606239110654
 30
0.0
 10
116.6698811557283
 20
-154.606239110654
 30
0.0
 10
116.0542425925142
 20
-154.606239110654
 30
0.0
 10
116.0542425925142
 20
-154.606239110654
 30
0.0
 10
116.0542425925142
 20
-154.606239110654
 30
0.0
 10
115.9887857782945
 20
-155.0292968362427
 30
0.0
 10
115.9887857782945
 20
-155.0292968362427
 30
0.0
 10
116.0501084779319
 20
-154.9955349004872
 30
0.0
 10
116.1324462600294
 20
-154.9552272833098
 30
0.0
 10
116.250957544722
 20
-154.9552272833098
 30
0.0
 10
116.5048610819849
 20
-154.9552272833098
 30
0.0
 10
116.7418836513701
 20
-155.1416069490618
 30
0.0
 10
116.7418836513701
 20
-155.454766128671
 30
0.0
 10
116.7418836513701
 20
-155.7720594228625
 30
0.0
 10
116.5176079352803
 20
-156.006670425408
 30
0.0
 10
116.2151285516754
 20
-156.006670425408
 30
0.0
  0
HATCH
  5
CC
330
C3
100
AcDbEntity
  8
レイヤー 1
 62
    18
420
        0
440
 33554687
100
AcDbHatch
 10
0.0
 20
0.0
 30
0.0
210
0.0
220
0.0
230
1.0
  2
SOLID
 70
     1
 71
     1
 91
        1
 92
        1
 93
        1
 72
     4
 94
        3
 73
     0
 74
     0
 95
       53
 96
       49
 40
0.0
 40
0.0
 40
0.0
 40
0.0
 40
1.0
 40
1.0
 40
1.0
 40
2.0
 40
2.0
 40
2.0
 40
3.0
 40
3.0
 40
3.0
 40
4.0
 40
4.0
 40
4.0
 40
5.0
 40
5.0
 40
5.0
 40
6.0
 40
6.0
 40
6.0
 40
7.0
 40
7.0
 40
7.0
 40
8.0
 40
8.0
 40
8.0
 40
9.0
 40
9.0
 40
9.0
 40
10.0
 40
10.0
 40
10.0
 40
11.0
 40
11.0
 40
11.0
 40
12.0
 40
12.0
 40
12.0
 40
13.0
 40
13.0
 40
13.0
 40
14.0
 40
14.0
 40
14.0
 40
15.0
 40
15.0
 40
15.0
 40
16.0
 40
16.0
 40
16.0
 40
16.0
 10
116.2151285516754
 20
-156.006670425408
 10
116.1369248841602
 20
-156.006670425408
 10
116.0352945673453
 20
-155.9897894575303
 10
115.9336642505305
 20
-155.9263997006017
 10
115.7603759476224
 20
-155.8165011546222
 10
115.7390163556138
 20
-155.6852430166342
 10
115.720068330445
 20
-155.5774115279459
 10
115.720068330445
 20
-155.5774115279459
 10
115.9422769892436
 20
-155.5774115279459
 10
115.9422769892436
 20
-155.5774115279459
 10
115.997054007459
 20
-155.7761935374448
 10
116.1241780308648
 20
-155.805821358618
 10
116.2171956089665
 20
-155.805821358618
 10
116.3567219761191
 20
-155.805821358618
 10
116.5089951965672
 20
-155.7062580990942
 10
116.5089951965672
 20
-155.4737141538399
 10
116.5089951965672
 20
-155.2177435592858
 10
116.3291612122371
 20
-155.1478081209353
 10
116.2085828702534
 20
-155.1478081209353
 10
116.1768879917891
 20
-155.1478081209353
 10
116.0352945673453
 20
-155.1478081209353
 10
115.9464111038259
 20
-155.2769992016321
 10
115.9464111038259
 20
-155.2769992016321
 10
115.7707112340781
 20
-155.2580511764633
 10
115.7707112340781
 20
-155.2580511764633
 10
115.7707112340781
 20
-155.2580511764633
 10
115.8912895760619
 20
-154.4115912157374
 10
115.8912895760619
 20
-154.4115912157374
 10
115.8912895760619
 20
-154.4115912157374
 10
116.6698811557283
 20
-154.4115912157374
 10
116.6698811557283
 20
-154.4115912157374
 10
116.6698811557283
 20
-154.4115912157374
 10
116.6698811557283
 20
-154.606239110654
 10
116.6698811557283
 20
-154.606239110654
 10
116.6698811557283
 20
-154.606239110654
 10
116.0542425925142
 20
-154.606239110654
 10
116.0542425925142
 20
-154.606239110654
 10
116.0542425925142
 20
-154.606239110654
 10
115.9887857782945
 20
-155.0292968362427
 10
115.9887857782945
 20
-155.0292968362427
 10
116.0501084779319
 20
-154.9955349004872
 10
116.1324462600294
 20
-154.9552272833098
 10
116.250957544722
 20
-154.9552272833098
 10
116.5048610819849
 20
-154.9552272833098
 10
116.7418836513701
 20
-155.1416069490618
 10
116.7418836513701
 20
-155.454766128671
 10
116.7418836513701
 20
-155.7720594228625
 10
116.5176079352803
 20
-156.006670425408
 10
116.2151285516754
 20
-156.006670425408
 97
        0
 97
        1
330
CB
 75
     2
 76
     1
 98
        1
 10
0.0
 20
0.0
450
        0
451
        0
460
0.0
461
0.0
452
        0
462
0.0
453
        0
470

  0
ENDBLK
  5
C6
330
C3
100
AcDbEntity
  8
0
100
AcDbBlockEnd
  0
BLOCK
  5
D3
330
D1
100
AcDbEntity
  8
0
100
AcDbBlockBegin
  2
Block_3
 70
     0
 10
0.0
 20
0.0
 30
0.0
  3
Block_3
  1

  0
INSERT
  5
D6
330
D1
100
AcDbEntity
  8
レイヤー 1
100
AcDbBlockReference
  2
Block_4
 10
0.0
 20
0.0
 30
0.0
  0
ENDBLK
  5
D4
330
D1
100
AcDbEntity
  8
0
100
AcDbBlockEnd
  0
BLOCK
  5
D7
330
D5
100
AcDbEntity
  8
0
100
AcDbBlockBegin
  2
Block_4
 70
     0
 10
0.0
 20
0.0
 30
0.0
  3
Block_4
  1

  0
SPLINE
  5
D9
330
D5
100
AcDbEntity
  8
レイヤー 1
100
AcDbSpline
210
0.0
220
0.0
230
1.0
 70
     9
 71
     3
 72
    17
 73
    13
 74
     0
 42
0.0000000001
 43
0.0000000001
 40
0.0
 40
0.0
 40
0.0
 40
0.0
 40
1.0
 40
1.0
 40
1.0
 40
2.0
 40
2.0
 40
2.0
 40
3.0
 40
3.0
 40
3.0
 40
4.0
 40
4.0
 40
4.0
 40
4.0
 10
86.52736271708343
 20
-148.3242797480752
 30
0.0
 10
86.52736271708343
 20
-148.5740491707558
 30
0.0
 10
86.81072182074524
 20
-148.6205579598066
 30
0.0
 10
87.15557587881875
 20
-148.6205579598066
 30
0.0
 10
87.47510848507566
 20
-148.6205579598066
 30
0.0
 10
87.78396129532833
 20
-148.5843844572115
 30
0.0
 10
87.78396129532833
 20
-148.3242797480752
 30
0.0
 10
87.78396129532833
 20
-148.07674963746
 30
0.0
 10
87.5024969941834
 20
-148.0280015363437
 30
0.0
 10
87.15557587881875
 20
-148.0280015363437
 30
0.0
 10
86.8362155273361
 20
-148.0280015363437
 30
0.0
 10
86.52736271708343
 20
-148.06624209623
 30
0.0
 10
86.52736271708343
 20
-148.3242797480752
 30
0.0
  0
SPLINE
  5
DA
330
D5
100
AcDbEntity
  8
レイヤー 1
100
AcDbSpline
210
0.0
220
0.0
230
1.0
 70
     9
 71
     3
 72
    29
 73
    25
 74
     0
 42
0.0000000001
 43
0.0000000001
 40
0.0
 40
0.0
 40
0.0
 40
0.0
 40
1.0
 40
1.0
 40
1.0
 40
2.0
 40
2.0
 40
2.0
 40
3.0
 40
3.0
 40
3.0
 40
4.0
 40
4.0
 40
4.0
 40
5.0
 40
5.0
 40
5.0
 40
6.0
 40
6.0
 40
6.0
 40
7.0
 40
7.0
 40
7.0
 40
8.0
 40
8.0
 40
8.0
 40
8.0
 10
87.7500271047986
 20
-147.9265434743031
 30
0.0
 10
87.9594889103018
 20
-148.0343749629914
 30
0.0
 10
87.97860919024493
 20
-148.2078355206737
 30
0.0
 10
87.97860919024493
 20
-148.3242797480752
 30
0.0
 10
87.97860919024493
 20
-148.4851657072363
 30
0.0
 10
87.93210040119406
 20
-148.6267591316801
 30
0.0
 10
87.7500271047986
 20
-148.721843767073
 30
0.0
 10
87.55555146465626
 20
-148.825541141179
 30
0.0
 10
87.31852889527107
 20
-148.8448336758964
 30
0.0
 10
87.15557587881875
 20
-148.8448336758964
 30
0.0
 10
87.01174314230957
 20
-148.8448336758964
 30
0.0
 10
86.76007891711206
 20
-148.8276081984702
 30
0.0
 10
86.56112465283888
 20
-148.721843767073
 30
0.0
 10
86.35803627398342
 20
-148.6140122783847
 30
0.0
 10
86.33478187945797
 20
-148.4531263192235
 30
0.0
 10
86.33478187945797
 20
-148.3242797480752
 30
0.0
 10
86.33478187945797
 20
-148.1654608462052
 30
0.0
 10
86.3792236112177
 20
-148.0218003644702
 30
0.0
 10
86.56112465283888
 20
-147.9265434743031
 30
0.0
 10
86.75370549046435
 20
-147.8271524695536
 30
0.0
 10
86.98211532113642
 20
-147.8038980750282
 30
0.0
 10
87.15557587881875
 20
-147.8038980750282
 30
0.0
 10
87.32696937920993
 20
-147.8038980750282
 30
0.0
 10
87.55761852194741
 20
-147.8249131574882
 30
0.0
 10
87.7500271047986
 20
-147.9265434743031
 30
0.0
  0
HATCH
  5
DB
330
D5
100
AcDbEntity
  8
レイヤー 1
 62
    18
420
        0
440
 33554687
100
AcDbHatch
 10
0.0
 20
0.0
 30
0.0
210
0.0
220
0.0
230
1.0
  2
SOLID
 70
     1
 71
     1
 91
        2
 92
        1
 93
        1
 72
     4
 94
        3
 73
     0
 74
     0
 95
       17
 96
       13
 40
0.0
 40
0.0
 40
0.0
 40
0.0
 40
1.0
 40
1.0
 40
1.0
 40
2.0
 40
2.0
 40
2.0
 40
3.0
 40
3.0
 40
3.0
 40
4.0
 40
4.0
 40
4.0
 40
4.0
 10
86.52736271708343
 20
-148.3242797480752
 10
86.52736271708343
 20
-148.5740491707558
 10
86.81072182074524
 20
-148.6205579598066
 10
87.15557587881875
 20
-148.6205579598066
 10
87.47510848507566
 20
-148.6205579598066
 10
87.78396129532833
 20
-148.5843844572115
 10
87.78396129532833
 20
-148.3242797480752
 10
87.78396129532833
 20
-148.07674963746
 10
87.5024969941834
 20
-148.0280015363437
 10
87.15557587881875
 20
-148.0280015363437
 10
86.8362155273361
 20
-148.0280015363437
 10
86.52736271708343
 20
-148.06624209623
 10
86.52736271708343
 20
-148.3242797480752
 97
        0
 97
        1
330
D9
 92
        1
 93
        1
 72
     4
 94
        3
 73
     0
 74
     0
 95
       29
 96
       25
 40
0.0
 40
0.0
 40
0.0
 40
0.0
 40
1.0
 40
1.0
 40
1.0
 40
2.0
 40
2.0
 40
2.0
 40
3.0
 40
3.0
 40
3.0
 40
4.0
 40
4.0
 40
4.0
 40
5.0
 40
5.0
 40
5.0
 40
6.0
 40
6.0
 40
6.0
 40
7.0
 40
7.0
 40
7.0
 40
8.0
 40
8.0
 40
8.0
 40
8.0
 10
87.7500271047986
 20
-147.9265434743031
 10
87.9594889103018
 20
-148.0343749629914
 10
87.97860919024493
 20
-148.2078355206737
 10
87.97860919024493
 20
-148.3242797480752
 10
87.97860919024493
 20
-148.4851657072363
 10
87.93210040119406
 20
-148.6267591316801
 10
87.7500271047986
 20
-148.721843767073
 10
87.55555146465626
 20
-148.825541141179
 10
87.31852889527107
 20
-148.8448336758964
 10
87.15557587881875
 20
-148.8448336758964
 10
87.01174314230957
 20
-148.8448336758964
 10
86.76007891711206
 20
-148.8276081984702
 10
86.56112465283888
 20
-148.721843767073
 10
86.35803627398342
 20
-148.6140122783847
 10
86.33478187945797
 20
-148.4531263192235
 10
86.33478187945797
 20
-148.3242797480752
 10
86.33478187945797
 20
-148.1654608462052
 10
86.3792236112177
 20
-148.0218003644702
 10
86.56112465283888
 20
-147.9265434743031
 10
86.75370549046435
 20
-147.8271524695536
 10
86.98211532113642
 20
-147.8038980750282
 10
87.15557587881875
 20
-147.8038980750282
 10
87.32696937920993
 20
-147.8038980750282
 10
87.55761852194741
 20
-147.8249131574882
 10
87.7500271047986
 20
-147.9265434743031
 97
        0
 97
        1
330
DA
 75
     2
 76
     1
 98
        1
 10
0.0
 20
0.0
450
        0
451
        0
460
0.0
461
0.0
452
        0
462
0.0
453
        0
470

  0
SPLINE
  5
DC
330
D5
100
AcDbEntity
  8
レイヤー 1
100
AcDbSpline
210
0.0
220
0.0
230
1.0
 70
    11
 71
     3
 72
    17
 73
    13
 74
     0
 42
0.0000000001
 43
0.0000000001
 40
0.0
 40
0.0
 40
0.0
 40
0.0
 40
1.0
 40
1.0
 40
1.0
 40
2.0
 40
2.0
 40
2.0
 40
3.0
 40
3.0
 40
3.0
 40
4.0
 40
4.0
 40
4.0
 40
4.0
 10
87.92779403183748
 20
-147.5873738237802
 30
0.0
 10
87.92779403183748
 20
-147.5873738237802
 30
0.0
 10
87.67612980664001
 20
-147.5873738237802
 30
0.0
 10
87.67612980664001
 20
-147.5873738237802
 30
0.0
 10
87.67612980664001
 20
-147.5873738237802
 30
0.0
 10
87.67612980664001
 20
-147.3357095985827
 30
0.0
 10
87.67612980664001
 20
-147.3357095985827
 30
0.0
 10
87.67612980664001
 20
-147.3357095985827
 30
0.0
 10
87.92779403183748
 20
-147.3357095985827
 30
0.0
 10
87.92779403183748
 20
-147.3357095985827
 30
0.0
 10
87.92779403183748
 20
-147.3357095985827
 30
0.0
 10
87.92779403183748
 20
-147.5873738237802
 30
0.0
 10
87.92779403183748
 20
-147.5873738237802
 30
0.0
  0
HATCH
  5
DD
330
D5
100
AcDbEntity
  8
レイヤー 1
 62
    18
420
        0
440
 33554687
100
AcDbHatch
 10
0.0
 20
0.0
 30
0.0
210
0.0
220
0.0
230
1.0
  2
SOLID
 70
     1
 71
     1
 91
        1
 92
        1
 93
        1
 72
     4
 94
        3
 73
     0
 74
     0
 95
       17
 96
       13
 40
0.0
 40
0.0
 40
0.0
 40
0.0
 40
1.0
 40
1.0
 40
1.0
 40
2.0
 40
2.0
 40
2.0
 40
3.0
 40
3.0
 40
3.0
 40
4.0
 40
4.0
 40
4.0
 40
4.0
 10
87.92779403183748
 20
-147.5873738237802
 10
87.92779403183748
 20
-147.5873738237802
 10
87.67612980664001
 20
-147.5873738237802
 10
87.67612980664001
 20
-147.5873738237802
 10
87.67612980664001
 20
-147.5873738237802
 10
87.67612980664001
 20
-147.3357095985827
 10
87.67612980664001
 20
-147.3357095985827
 10
87.67612980664001
 20
-147.3357095985827
 10
87.92779403183748
 20
-147.3357095985827
 10
87.92779403183748
 20
-147.3357095985827
 10
87.92779403183748
 20
-147.3357095985827
 10
87.92779403183748
 20
-147.5873738237802
 10
87.92779403183748
 20
-147.5873738237802
 97
        0
 97
        1
330
DC
 75
     2
 76
     1
 98
        1
 10
0.0
 20
0.0
450
        0
451
        0
460
0.0
461
0.0
452
        0
462
0.0
453
        0
470

  0
SPLINE
  5
DE
330
D5
100
AcDbEntity
  8
レイヤー 1
100
AcDbSpline
210
0.0
220
0.0
230
1.0
 70
     9
 71
     3
 72
    53
 73
    49
 74
     0
 42
0.0000000001
 43
0.0000000001
 40
0.0
 40
0.0
 40
0.0
 40
0.0
 40
1.0
 40
1.0
 40
1.0
 40
2.0
 40
2.0
 40
2.0
 40
3.0
 40
3.0
 40
3.0
 40
4.0
 40
4.0
 40
4.0
 40
5.0
 40
5.0
 40
5.0
 40
6.0
 40
6.0
 40
6.0
 40
7.0
 40
7.0
 40
7.0
 40
8.0
 40
8.0
 40
8.0
 40
9.0
 40
9.0
 40
9.0
 40
10.0
 40
10.0
 40
10.0
 40
11.0
 40
11.0
 40
11.0
 40
12.0
 40
12.0
 40
12.0
 40
13.0
 40
13.0
 40
13.0
 40
14.0
 40
14.0
 40
14.0
 40
15.0
 40
15.0
 40
15.0
 40
16.0
 40
16.0
 40
16.0
 40
16.0
 10
87.97860919024493
 20
-146.6180962090052
 30
0.0
 10
87.97860919024493
 20
-146.6964721312946
 30
0.0
 10
87.96172822236721
 20
-146.7979301933352
 30
0.0
 10
87.89816621066435
 20
-146.8995605101501
 30
0.0
 10
87.78809540991062
 20
-147.0730210678324
 30
0.0
 10
87.65700952669687
 20
-147.0942084050667
 30
0.0
 10
87.54917803800855
 20
-147.1131564302356
 30
0.0
 10
87.54917803800855
 20
-147.1131564302356
 30
0.0
 10
87.54917803800855
 20
-146.8911200262112
 30
0.0
 10
87.54917803800855
 20
-146.8911200262112
 30
0.0
 10
87.74796004750745
 20
-146.8359984984472
 30
0.0
 10
87.7775878686806
 20
-146.7090467298158
 30
0.0
 10
87.7775878686806
 20
-146.616029151714
 30
0.0
 10
87.7775878686806
 20
-146.4763305297871
 30
0.0
 10
87.67819686393115
 20
-146.3240573093391
 30
0.0
 10
87.44548066390253
 20
-146.3240573093391
 30
0.0
 10
87.18951006934846
 20
-146.3240573093391
 30
0.0
 10
87.11974688577214
 20
-146.5038912936691
 30
0.0
 10
87.11974688577214
 20
-146.6244696356529
 30
0.0
 10
87.11974688577214
 20
-146.6561645141172
 30
0.0
 10
87.11974688577214
 20
-146.7979301933352
 30
0.0
 10
87.24876571169476
 20
-146.8868136568547
 30
0.0
 10
87.24876571169476
 20
-146.8868136568547
 30
0.0
 10
87.22964543175162
 20
-147.0623412718281
 30
0.0
 10
87.22964543175162
 20
-147.0623412718281
 30
0.0
 10
87.22964543175162
 20
-147.0623412718281
 30
0.0
 10
86.38352998057426
 20
-146.9417629298444
 30
0.0
 10
86.38352998057426
 20
-146.9417629298444
 30
0.0
 10
86.38352998057426
 20
-146.9417629298444
 30
0.0
 10
86.38352998057426
 20
-146.1633436049522
 30
0.0
 10
86.38352998057426
 20
-146.1633436049522
 30
0.0
 10
86.38352998057426
 20
-146.1633436049522
 30
0.0
 10
86.57817787549088
 20
-146.1633436049522
 30
0.0
 10
86.57817787549088
 20
-146.1633436049522
 30
0.0
 10
86.57817787549088
 20
-146.1633436049522
 30
0.0
 10
86.57817787549088
 20
-146.7789821681664
 30
0.0
 10
86.57817787549088
 20
-146.7789821681664
 30
0.0
 10
86.57817787549088
 20
-146.7789821681664
 30
0.0
 10
87.00123560107956
 20
-146.8444389823861
 30
0.0
 10
87.00123560107956
 20
-146.8444389823861
 30
0.0
 10
86.96730141054985
 20
-146.7831162827486
 30
0.0
 10
86.92716604814668
 20
-146.7006062458769
 30
0.0
 10
86.92716604814668
 20
-146.5822672159586
 30
0.0
 10
86.92716604814668
 20
-146.3283636786957
 30
0.0
 10
87.11337345912443
 20
-146.0913411093105
 30
0.0
 10
87.42636038395939
 20
-146.0913411093105
 30
0.0
 10
87.74382593292516
 20
-146.0913411093105
 30
0.0
 10
87.97860919024493
 20
-146.3156168254002
 30
0.0
 10
87.97860919024493
 20
-146.6180962090052
 30
0.0
  0
HATCH
  5
DF
330
D5
100
AcDbEntity
  8
レイヤー 1
 62
    18
420
        0
440
 33554687
100
AcDbHatch
 10
0.0
 20
0.0
 30
0.0
210
0.0
220
0.0
230
1.0
  2
SOLID
 70
     1
 71
     1
 91
        1
 92
        1
 93
        1
 72
     4
 94
        3
 73
     0
 74
     0
 95
       53
 96
       49
 40
0.0
 40
0.0
 40
0.0
 40
0.0
 40
1.0
 40
1.0
 40
1.0
 40
2.0
 40
2.0
 40
2.0
 40
3.0
 40
3.0
 40
3.0
 40
4.0
 40
4.0
 40
4.0
 40
5.0
 40
5.0
 40
5.0
 40
6.0
 40
6.0
 40
6.0
 40
7.0
 40
7.0
 40
7.0
 40
8.0
 40
8.0
 40
8.0
 40
9.0
 40
9.0
 40
9.0
 40
10.0
 40
10.0
 40
10.0
 40
11.0
 40
11.0
 40
11.0
 40
12.0
 40
12.0
 40
12.0
 40
13.0
 40
13.0
 40
13.0
 40
14.0
 40
14.0
 40
14.0
 40
15.0
 40
15.0
 40
15.0
 40
16.0
 40
16.0
 40
16.0
 40
16.0
 10
87.97860919024493
 20
-146.6180962090052
 10
87.97860919024493
 20
-146.6964721312946
 10
87.96172822236721
 20
-146.7979301933352
 10
87.89816621066435
 20
-146.8995605101501
 10
87.78809540991062
 20
-147.0730210678324
 10
87.65700952669687
 20
-147.0942084050667
 10
87.54917803800855
 20
-147.1131564302356
 10
87.54917803800855
 20
-147.1131564302356
 10
87.54917803800855
 20
-146.8911200262112
 10
87.54917803800855
 20
-146.8911200262112
 10
87.74796004750745
 20
-146.8359984984472
 10
87.7775878686806
 20
-146.7090467298158
 10
87.7775878686806
 20
-146.616029151714
 10
87.7775878686806
 20
-146.4763305297871
 10
87.67819686393115
 20
-146.3240573093391
 10
87.44548066390253
 20
-146.3240573093391
 10
87.18951006934846
 20
-146.3240573093391
 10
87.11974688577214
 20
-146.5038912936691
 10
87.11974688577214
 20
-146.6244696356529
 10
87.11974688577214
 20
-146.6561645141172
 10
87.11974688577214
 20
-146.7979301933352
 10
87.24876571169476
 20
-146.8868136568547
 10
87.24876571169476
 20
-146.8868136568547
 10
87.22964543175162
 20
-147.0623412718281
 10
87.22964543175162
 20
-147.0623412718281
 10
87.22964543175162
 20
-147.0623412718281
 10
86.38352998057426
 20
-146.9417629298444
 10
86.38352998057426
 20
-146.9417629298444
 10
86.38352998057426
 20
-146.9417629298444
 10
86.38352998057426
 20
-146.1633436049522
 10
86.38352998057426
 20
-146.1633436049522
 10
86.38352998057426
 20
-146.1633436049522
 10
86.57817787549088
 20
-146.1633436049522
 10
86.57817787549088
 20
-146.1633436049522
 10
86.57817787549088
 20
-146.1633436049522
 10
86.57817787549088
 20
-146.7789821681664
 10
86.57817787549088
 20
-146.7789821681664
 10
86.57817787549088
 20
-146.7789821681664
 10
87.00123560107956
 20
-146.8444389823861
 10
87.00123560107956
 20
-146.8444389823861
 10
86.96730141054985
 20
-146.7831162827486
 10
86.92716604814668
 20
-146.7006062458769
 10
86.92716604814668
 20
-146.5822672159586
 10
86.92716604814668
 20
-146.3283636786957
 10
87.11337345912443
 20
-146.0913411093105
 10
87.42636038395939
 20
-146.0913411093105
 10
87.74382593292516
 20
-146.0913411093105
 10
87.97860919024493
 20
-146.3156168254002
 10
87.97860919024493
 20
-146.6180962090052
 97
        0
 97
        1
330
DE
 75
     2
 76
     1
 98
        1
 10
0.0
 20
0.0
450
        0
451
        0
460
0.0
461
0.0
452
        0
462
0.0
453
        0
470

  0
ENDBLK
  5
D8
330
D5
100
AcDbEntity
  8
0
100
AcDbBlockEnd
  0
BLOCK
  5
E4
330
E2
100
AcDbEntity
  8
0
100
AcDbBlockBegin
  2
Block_5
 70
     0
 10
0.0
 20
0.0
 30
0.0
  3
Block_5
  1

  0
INSERT
  5
E7
330
E2
100
AcDbEntity
  8
レイヤー 1
100
AcDbBlockReference
  2
Block_6
 10
0.0
 20
0.0
 30
0.0
  0
ENDBLK
  5
E5
330
E2
100
AcDbEntity
  8
0
100
AcDbBlockEnd
  0
BLOCK
  5
E8
330
E6
100
AcDbEntity
  8
0
100
AcDbBlockBegin
  2
Block_6
 70
     0
 10
0.0
 20
0.0
 30
0.0
  3
Block_6
  1

  0
SPLINE
  5
EA
330
E6
100
AcDbEntity
  8
レイヤー 1
100
AcDbSpline
210
0.0
220
0.0
230
1.0
 70
     9
 71
     3
 72
    44
 73
    40
 74
     0
 42
0.0000000001
 43
0.0000000001
 40
0.0
 40
0.0
 40
0.0
 40
0.0
 40
1.0
 40
1.0
 40
1.0
 40
2.0
 40
2.0
 40
2.0
 40
3.0
 40
3.0
 40
3.0
 40
4.0
 40
4.0
 40
4.0
 40
5.0
 40
5.0
 40
5.0
 40
6.0
 40
6.0
 40
6.0
 40
7.0
 40
7.0
 40
7.0
 40
8.0
 40
8.0
 40
8.0
 40
9.0
 40
9.0
 40
9.0
 40
10.0
 40
10.0
 40
10.0
 40
11.0
 40
11.0
 40
11.0
 40
12.0
 40
12.0
 40
12.0
 40
13.0
 40
13.0
 40
13.0
 40
13.0
 10
103.3006713608936
 20
-141.1114555853818
 30
0.0
 10
103.0829413262258
 20
-141.2701022324776
 30
0.0
 10
102.989923748124
 20
-141.3441717854104
 30
0.0
 10
102.9410033922335
 20
-141.4880045219196
 30
0.0
 10
102.9410033922335
 20
-141.4880045219196
 30
0.0
 10
103.7195949718999
 20
-141.4880045219196
 30
0.0
 10
103.7195949718999
 20
-141.4880045219196
 30
0.0
 10
103.7195949718999
 20
-141.4880045219196
 30
0.0
 10
103.7195949718999
 20
-141.6931599580663
 30
0.0
 10
103.7195949718999
 20
-141.6931599580663
 30
0.0
 10
103.7195949718999
 20
-141.6931599580663
 30
0.0
 10
102.6915784791014
 20
-141.6931599580663
 30
0.0
 10
102.6915784791014
 20
-141.6931599580663
 30
0.0
 10
102.7232733575657
 20
-141.3355590466973
 30
0.0
 10
102.7887301717854
 20
-141.2573553791822
 30
0.0
 10
103.1738918470364
 20
-140.9590101101595
 30
0.0
 10
103.4298624415904
 20
-140.7602281006606
 30
0.0
 10
103.4953192558102
 20
-140.6925319743755
 30
0.0
 10
103.4953192558102
 20
-140.555072664514
 30
0.0
 10
103.4953192558102
 20
-140.4365613798214
 30
0.0
 10
103.4233167601684
 20
-140.3054754966077
 30
0.0
 10
103.2266018079607
 20
-140.3054754966077
 30
0.0
 10
102.9664970988243
 20
-140.3054754966077
 30
0.0
 10
102.9578843601112
 20
-140.5359523845709
 30
0.0
 10
102.9537502455289
 20
-140.6523966119723
 30
0.0
 10
102.9537502455289
 20
-140.6523966119723
 30
0.0
 10
102.7294745294391
 20
-140.6523966119723
 30
0.0
 10
102.7294745294391
 20
-140.6523966119723
 30
0.0
 10
102.7380872681523
 20
-140.5254448433408
 30
0.0
 10
102.7487670641565
 20
-140.4133069852959
 30
0.0
 10
102.8290377889629
 20
-140.2947957006034
 30
0.0
 10
102.9389363349423
 20
-140.1340819962165
 30
0.0
 10
103.1253160006943
 20
-140.1001478056867
 30
0.0
 10
103.2414157185473
 20
-140.1001478056867
 30
0.0
 10
103.5187459051099
 20
-140.1001478056867
 30
0.0
 10
103.7261406533219
 20
-140.2842881593733
 30
0.0
 10
103.7261406533219
 20
-140.5571397218051
 30
0.0
 10
103.7261406533219
 20
-140.7855495524772
 30
0.0
 10
103.6096964259205
 20
-140.8851128120009
 30
0.0
 10
103.3006713608936
 20
-141.1114555853818
 30
0.0
  0
HATCH
  5
EB
330
E6
100
AcDbEntity
  8
レイヤー 1
 62
    18
420
        0
440
 33554687
100
AcDbHatch
 10
0.0
 20
0.0
 30
0.0
210
0.0
220
0.0
230
1.0
  2
SOLID
 70
     1
 71
     1
 91
        1
 92
        1
 93
        1
 72
     4
 94
        3
 73
     0
 74
     0
 95
       44
 96
       40
 40
0.0
 40
0.0
 40
0.0
 40
0.0
 40
1.0
 40
1.0
 40
1.0
 40
2.0
 40
2.0
 40
2.0
 40
3.0
 40
3.0
 40
3.0
 40
4.0
 40
4.0
 40
4.0
 40
5.0
 40
5.0
 40
5.0
 40
6.0
 40
6.0
 40
6.0
 40
7.0
 40
7.0
 40
7.0
 40
8.0
 40
8.0
 40
8.0
 40
9.0
 40
9.0
 40
9.0
 40
10.0
 40
10.0
 40
10.0
 40
11.0
 40
11.0
 40
11.0
 40
12.0
 40
12.0
 40
12.0
 40
13.0
 40
13.0
 40
13.0
 40
13.0
 10
103.3006713608936
 20
-141.1114555853818
 10
103.0829413262258
 20
-141.2701022324776
 10
102.989923748124
 20
-141.3441717854104
 10
102.9410033922335
 20
-141.4880045219196
 10
102.9410033922335
 20
-141.4880045219196
 10
103.7195949718999
 20
-141.4880045219196
 10
103.7195949718999
 20
-141.4880045219196
 10
103.7195949718999
 20
-141.4880045219196
 10
103.7195949718999
 20
-141.6931599580663
 10
103.7195949718999
 20
-141.6931599580663
 10
103.7195949718999
 20
-141.6931599580663
 10
102.6915784791014
 20
-141.6931599580663
 10
102.6915784791014
 20
-141.6931599580663
 10
102.7232733575657
 20
-141.3355590466973
 10
102.7887301717854
 20
-141.2573553791822
 10
103.1738918470364
 20
-140.9590101101595
 10
103.4298624415904
 20
-140.7602281006606
 10
103.4953192558102
 20
-140.6925319743755
 10
103.4953192558102
 20
-140.555072664514
 10
103.4953192558102
 20
-140.4365613798214
 10
103.4233167601684
 20
-140.3054754966077
 10
103.2266018079607
 20
-140.3054754966077
 10
102.9664970988243
 20
-140.3054754966077
 10
102.9578843601112
 20
-140.5359523845709
 10
102.9537502455289
 20
-140.6523966119723
 10
102.9537502455289
 20
-140.6523966119723
 10
102.7294745294391
 20
-140.6523966119723
 10
102.7294745294391
 20
-140.6523966119723
 10
102.7380872681523
 20
-140.5254448433408
 10
102.7487670641565
 20
-140.4133069852959
 10
102.8290377889629
 20
-140.2947957006034
 10
102.9389363349423
 20
-140.1340819962165
 10
103.1253160006943
 20
-140.1001478056867
 10
103.2414157185473
 20
-140.1001478056867
 10
103.5187459051099
 20
-140.1001478056867
 10
103.7261406533219
 20
-140.2842881593733
 10
103.7261406533219
 20
-140.5571397218051
 10
103.7261406533219
 20
-140.7855495524772
 10
103.6096964259205
 20
-140.8851128120009
 10
103.3006713608936
 20
-141.1114555853818
 97
        0
 97
        1
330
EA
 75
     2
 76
     1
 98
        1
 10
0.0
 20
0.0
450
        0
451
        0
460
0.0
461
0.0
452
        0
462
0.0
453
        0
470

  0
SPLINE
  5
EC
330
E6
100
AcDbEntity
  8
レイヤー 1
100
AcDbSpline
210
0.0
220
0.0
230
1.0
 70
    11
 71
     3
 72
    26
 73
    22
 74
     0
 42
0.0000000001
 43
0.0000000001
 40
0.0
 40
0.0
 40
0.0
 40
0.0
 40
1.0
 40
1.0
 40
1.0
 40
2.0
 40
2.0
 40
2.0
 40
3.0
 40
3.0
 40
3.0
 40
4.0
 40
4.0
 40
4.0
 40
5.0
 40
5.0
 40
5.0
 40
6.0
 40
6.0
 40
6.0
 40
7.0
 40
7.0
 40
7.0
 40
7.0
 10
104.3359225542111
 20
-141.6931599580663
 30
0.0
 10
104.3359225542111
 20
-141.6931599580663
 30
0.0
 10
104.3359225542111
 20
-140.5888346002694
 30
0.0
 10
104.3359225542111
 20
-140.5888346002694
 30
0.0
 10
104.3359225542111
 20
-140.5888346002694
 30
0.0
 10
104.0058824067242
 20
-140.5888346002694
 30
0.0
 10
104.0058824067242
 20
-140.5888346002694
 30
0.0
 10
104.0058824067242
 20
-140.5888346002694
 30
0.0
 10
104.0058824067242
 20
-140.440867749178
 30
0.0
 10
104.0058824067242
 20
-140.440867749178
 30
0.0
 10
104.3379896115023
 20
-140.4260538385914
 30
0.0
 10
104.3844984005532
 20
-140.2631008221391
 30
0.0
 10
104.4141262217263
 20
-140.148895906803
 30
0.0
 10
104.4141262217263
 20
-140.148895906803
 30
0.0
 10
104.5601982703009
 20
-140.148895906803
 30
0.0
 10
104.5601982703009
 20
-140.148895906803
 30
0.0
 10
104.5601982703009
 20
-140.148895906803
 30
0.0
 10
104.5601982703009
 20
-141.6931599580663
 30
0.0
 10
104.5601982703009
 20
-141.6931599580663
 30
0.0
 10
104.5601982703009
 20
-141.6931599580663
 30
0.0
 10
104.3359225542111
 20
-141.6931599580663
 30
0.0
 10
104.3359225542111
 20
-141.6931599580663
 30
0.0
  0
HATCH
  5
ED
330
E6
100
AcDbEntity
  8
レイヤー 1
 62
    18
420
        0
440
 33554687
100
AcDbHatch
 10
0.0
 20
0.0
 30
0.0
210
0.0
220
0.0
230
1.0
  2
SOLID
 70
     1
 71
     1
 91
        1
 92
        1
 93
        1
 72
     4
 94
        3
 73
     0
 74
     0
 95
       26
 96
       22
 40
0.0
 40
0.0
 40
0.0
 40
0.0
 40
1.0
 40
1.0
 40
1.0
 40
2.0
 40
2.0
 40
2.0
 40
3.0
 40
3.0
 40
3.0
 40
4.0
 40
4.0
 40
4.0
 40
5.0
 40
5.0
 40
5.0
 40
6.0
 40
6.0
 40
6.0
 40
7.0
 40
7.0
 40
7.0
 40
7.0
 10
104.3359225542111
 20
-141.6931599580663
 10
104.3359225542111
 20
-141.6931599580663
 10
104.3359225542111
 20
-140.5888346002694
 10
104.3359225542111
 20
-140.5888346002694
 10
104.3359225542111
 20
-140.5888346002694
 10
104.0058824067242
 20
-140.5888346002694
 10
104.0058824067242
 20
-140.5888346002694
 10
104.0058824067242
 20
-140.5888346002694
 10
104.0058824067242
 20
-140.440867749178
 10
104.0058824067242
 20
-140.440867749178
 10
104.3379896115023
 20
-140.4260538385914
 10
104.3844984005532
 20
-140.2631008221391
 10
104.4141262217263
 20
-140.148895906803
 10
104.4141262217263
 20
-140.148895906803
 10
104.5601982703009
 20
-140.148895906803
 10
104.5601982703009
 20
-140.148895906803
 10
104.5601982703009
 20
-140.148895906803
 10
104.5601982703009
 20
-141.6931599580663
 10
104.5601982703009
 20
-141.6931599580663
 10
104.5601982703009
 20
-141.6931599580663
 10
104.3359225542111
 20
-141.6931599580663
 10
104.3359225542111
 20
-141.6931599580663
 97
        0
 97
        1
330
EC
 75
     2
 76
     1
 98
        1
 10
0.0
 20
0.0
450
        0
451
        0
460
0.0
461
0.0
452
        0
462
0.0
453
        0
470

  0
ENDBLK
  5
E9
330
E6
100
AcDbEntity
  8
0
100
AcDbBlockEnd
  0
BLOCK
  5
F2
330
F0
100
AcDbEntity
  8
0
100
AcDbBlockBegin
  2
Block_7
 70
     0
 10
0.0
 20
0.0
 30
0.0
  3
Block_7
  1

  0
SPLINE
  5
F4
330
F0
100
AcDbEntity
  8
レイヤー 1
100
AcDbSpline
210
0.0
220
0.0
230
1.0
 70
     9
 71
     3
 72
    53
 73
    49
 74
     0
 42
0.0000000001
 43
0.0000000001
 40
0.0
 40
0.0
 40
0.0
 40
0.0
 40
1.0
 40
1.0
 40
1.0
 40
2.0
 40
2.0
 40
2.0
 40
3.0
 40
3.0
 40
3.0
 40
4.0
 40
4.0
 40
4.0
 40
5.0
 40
5.0
 40
5.0
 40
6.0
 40
6.0
 40
6.0
 40
7.0
 40
7.0
 40
7.0
 40
8.0
 40
8.0
 40
8.0
 40
9.0
 40
9.0
 40
9.0
 40
10.0
 40
10.0
 40
10.0
 40
11.0
 40
11.0
 40
11.0
 40
12.0
 40
12.0
 40
12.0
 40
13.0
 40
13.0
 40
13.0
 40
14.0
 40
14.0
 40
14.0
 40
15.0
 40
15.0
 40
15.0
 40
16.0
 40
16.0
 40
16.0
 40
16.0
 10
88.70931394266643
 20
-150.1882486603696
 30
0.0
 10
88.70931394266643
 20
-150.2664523278848
 30
0.0
 10
88.69226072001444
 20
-150.3680826446996
 30
0.0
 10
88.62887096308584
 20
-150.4697129615145
 30
0.0
 10
88.51880016233211
 20
-150.6430012644226
 30
0.0
 10
88.38771427911835
 20
-150.6643608564311
 30
0.0
 10
88.27988279043003
 20
-150.6833088816
 30
0.0
 10
88.27988279043003
 20
-150.6833088816
 30
0.0
 10
88.27988279043003
 20
-150.4611002228014
 30
0.0
 10
88.27988279043003
 20
-150.4611002228014
 30
0.0
 10
88.47866479992894
 20
-150.4063232045859
 30
0.0
 10
88.5082926211021
 20
-150.2791991811802
 30
0.0
 10
88.5082926211021
 20
-150.1861816030784
 30
0.0
 10
88.5082926211021
 20
-150.0466552359258
 30
0.0
 10
88.40890161635263
 20
-149.8943820154778
 30
0.0
 10
88.17618541632402
 20
-149.8943820154778
 30
0.0
 10
87.92021482176995
 20
-149.8943820154778
 30
0.0
 10
87.85045163819365
 20
-150.0742159998078
 30
0.0
 10
87.85045163819365
 20
-150.1947943417915
 30
0.0
 10
87.85045163819365
 20
-150.2264892202559
 30
0.0
 10
87.85045163819365
 20
-150.3680826446996
 30
0.0
 10
87.97947046411625
 20
-150.4569661082191
 30
0.0
 10
87.97947046411625
 20
-150.4569661082191
 30
0.0
 10
87.96035018417311
 20
-150.6326659779668
 30
0.0
 10
87.96035018417311
 20
-150.6326659779668
 30
0.0
 10
87.96035018417311
 20
-150.6326659779668
 30
0.0
 10
87.11423473299575
 20
-150.5120876359831
 30
0.0
 10
87.11423473299575
 20
-150.5120876359831
 30
0.0
 10
87.11423473299575
 20
-150.5120876359831
 30
0.0
 10
87.11423473299575
 20
-149.7334960563166
 30
0.0
 10
87.11423473299575
 20
-149.7334960563166
 30
0.0
 10
87.11423473299575
 20
-149.7334960563166
 30
0.0
 10
87.30888262791237
 20
-149.7334960563166
 30
0.0
 10
87.30888262791237
 20
-149.7334960563166
 30
0.0
 10
87.30888262791237
 20
-149.7334960563166
 30
0.0
 10
87.30888262791237
 20
-150.3491346195308
 30
0.0
 10
87.30888262791237
 20
-150.3491346195308
 30
0.0
 10
87.30888262791237
 20
-150.3491346195308
 30
0.0
 10
87.73194035350105
 20
-150.4145914337505
 30
0.0
 10
87.73194035350105
 20
-150.4145914337505
 30
0.0
 10
87.69800616297134
 20
-150.353268734113
 30
0.0
 10
87.65787080056817
 20
-150.2709309520156
 30
0.0
 10
87.65787080056817
 20
-150.152419667323
 30
0.0
 10
87.65787080056817
 20
-149.8985161300601
 30
0.0
 10
87.84407821154593
 20
-149.6614935606749
 30
0.0
 10
88.15706513638088
 20
-149.6614935606749
 30
0.0
 10
88.47453068534665
 20
-149.6614935606749
 30
0.0
 10
88.70931394266643
 20
-149.8857692767647
 30
0.0
 10
88.70931394266643
 20
-150.1882486603696
 30
0.0
  0
HATCH
  5
F5
330
F0
100
AcDbEntity
  8
レイヤー 1
 62
    18
420
        0
440
 33554687
100
AcDbHatch
 10
0.0
 20
0.0
 30
0.0
210
0.0
220
0.0
230
1.0
  2
SOLID
 70
     1
 71
     1
 91
        1
 92
        1
 93
        1
 72
     4
 94
        3
 73
     0
 74
     0
 95
       53
 96
       49
 40
0.0
 40
0.0
 40
0.0
 40
0.0
 40
1.0
 40
1.0
 40
1.0
 40
2.0
 40
2.0
 40
2.0
 40
3.0
 40
3.0
 40
3.0
 40
4.0
 40
4.0
 40
4.0
 40
5.0
 40
5.0
 40
5.0
 40
6.0
 40
6.0
 40
6.0
 40
7.0
 40
7.0
 40
7.0
 40
8.0
 40
8.0
 40
8.0
 40
9.0
 40
9.0
 40
9.0
 40
10.0
 40
10.0
 40
10.0
 40
11.0
 40
11.0
 40
11.0
 40
12.0
 40
12.0
 40
12.0
 40
13.0
 40
13.0
 40
13.0
 40
14.0
 40
14.0
 40
14.0
 40
15.0
 40
15.0
 40
15.0
 40
16.0
 40
16.0
 40
16.0
 40
16.0
 10
88.70931394266643
 20
-150.1882486603696
 10
88.70931394266643
 20
-150.2664523278848
 10
88.69226072001444
 20
-150.3680826446996
 10
88.62887096308584
 20
-150.4697129615145
 10
88.51880016233211
 20
-150.6430012644226
 10
88.38771427911835
 20
-150.6643608564311
 10
88.27988279043003
 20
-150.6833088816
 10
88.27988279043003
 20
-150.6833088816
 10
88.27988279043003
 20
-150.4611002228014
 10
88.27988279043003
 20
-150.4611002228014
 10
88.47866479992894
 20
-150.4063232045859
 10
88.5082926211021
 20
-150.2791991811802
 10
88.5082926211021
 20
-150.1861816030784
 10
88.5082926211021
 20
-150.0466552359258
 10
88.40890161635263
 20
-149.8943820154778
 10
88.17618541632402
 20
-149.8943820154778
 10
87.92021482176995
 20
-149.8943820154778
 10
87.85045163819365
 20
-150.0742159998078
 10
87.85045163819365
 20
-150.1947943417915
 10
87.85045163819365
 20
-150.2264892202559
 10
87.85045163819365
 20
-150.3680826446996
 10
87.97947046411625
 20
-150.4569661082191
 10
87.97947046411625
 20
-150.4569661082191
 10
87.96035018417311
 20
-150.6326659779668
 10
87.96035018417311
 20
-150.6326659779668
 10
87.96035018417311
 20
-150.6326659779668
 10
87.11423473299575
 20
-150.5120876359831
 10
87.11423473299575
 20
-150.5120876359831
 10
87.11423473299575
 20
-150.5120876359831
 10
87.11423473299575
 20
-149.7334960563166
 10
87.11423473299575
 20
-149.7334960563166
 10
87.11423473299575
 20
-149.7334960563166
 10
87.30888262791237
 20
-149.7334960563166
 10
87.30888262791237
 20
-149.7334960563166
 10
87.30888262791237
 20
-149.7334960563166
 10
87.30888262791237
 20
-150.3491346195308
 10
87.30888262791237
 20
-150.3491346195308
 10
87.30888262791237
 20
-150.3491346195308
 10
87.73194035350105
 20
-150.4145914337505
 10
87.73194035350105
 20
-150.4145914337505
 10
87.69800616297134
 20
-150.353268734113
 10
87.65787080056817
 20
-150.2709309520156
 10
87.65787080056817
 20
-150.152419667323
 10
87.65787080056817
 20
-149.8985161300601
 10
87.84407821154593
 20
-149.6614935606749
 10
88.15706513638088
 20
-149.6614935606749
 10
88.47453068534665
 20
-149.6614935606749
 10
88.70931394266643
 20
-149.8857692767647
 10
88.70931394266643
 20
-150.1882486603696
 97
        0
 97
        1
330
F4
 75
     2
 76
     1
 98
        1
 10
0.0
 20
0.0
450
        0
451
        0
460
0.0
461
0.0
452
        0
462
0.0
453
        0
470

  0
ENDBLK
  5
F3
330
F0
100
AcDbEntity
  8
0
100
AcDbBlockEnd
  0
BLOCK
  5
F9
330
F7
100
AcDbEntity
  8
0
100
AcDbBlockBegin
  2
Block_8
 70
     0
 10
0.0
 20
0.0
 30
0.0
  3
Block_8
  1

  0
SPLINE
  5
FB
330
F7
100
AcDbEntity
  8
レイヤー 1
100
AcDbSpline
210
0.0
220
0.0
230
1.0
 70
    11
 71
     3
 72
    26
 73
    22
 74
     0
 42
0.0000000001
 43
0.0000000001
 40
0.0
 40
0.0
 40
0.0
 40
0.0
 40
1.0
 40
1.0
 40
1.0
 40
2.0
 40
2.0
 40
2.0
 40
3.0
 40
3.0
 40
3.0
 40
4.0
 40
4.0
 40
4.0
 40
5.0
 40
5.0
 40
5.0
 40
6.0
 40
6.0
 40
6.0
 40
7.0
 40
7.0
 40
7.0
 40
7.0
 10
121.2825195009294
 20
-148.9779866164013
 30
0.0
 10
121.2825195009294
 20
-148.9779866164013
 30
0.0
 10
121.2825195009294
 20
-147.8736612586045
 30
0.0
 10
121.2825195009294
 20
-147.8736612586045
 30
0.0
 10
121.2825195009294
 20
-147.8736612586045
 30
0.0
 10
120.9524793534424
 20
-147.8736612586045
 30
0.0
 10
120.9524793534424
 20
-147.8736612586045
 30
0.0
 10
120.9524793534424
 20
-147.8736612586045
 30
0.0
 10
120.9524793534424
 20
-147.7255221527387
 30
0.0
 10
120.9524793534424
 20
-147.7255221527387
 30
0.0
 10
121.2845865582205
 20
-147.7108804969264
 30
0.0
 10
121.3310953472714
 20
-147.5479274804741
 30
0.0
 10
121.3607231684445
 20
-147.4337225651381
 30
0.0
 10
121.3607231684445
 20
-147.4337225651381
 30
0.0
 10
121.5067952170191
 20
-147.4337225651381
 30
0.0
 10
121.5067952170191
 20
-147.4337225651381
 30
0.0
 10
121.5067952170191
 20
-147.4337225651381
 30
0.0
 10
121.5067952170191
 20
-148.9779866164013
 30
0.0
 10
121.5067952170191
 20
-148.9779866164013
 30
0.0
 10
121.5067952170191
 20
-148.9779866164013
 30
0.0
 10
121.2825195009294
 20
-148.9779866164013
 30
0.0
 10
121.2825195009294
 20
-148.9779866164013
 30
0.0
  0
HATCH
  5
FC
330
F7
100
AcDbEntity
  8
レイヤー 1
 62
    18
420
        0
440
 33554687
100
AcDbHatch
 10
0.0
 20
0.0
 30
0.0
210
0.0
220
0.0
230
1.0
  2
SOLID
 70
     1
 71
     1
 91
        1
 92
        1
 93
        1
 72
     4
 94
        3
 73
     0
 74
     0
 95
       26
 96
       22
 40
0.0
 40
0.0
 40
0.0
 40
0.0
 40
1.0
 40
1.0
 40
1.0
 40
2.0
 40
2.0
 40
2.0
 40
3.0
 40
3.0
 40
3.0
 40
4.0
 40
4.0
 40
4.0
 40
5.0
 40
5.0
 40
5.0
 40
6.0
 40
6.0
 40
6.0
 40
7.0
 40
7.0
 40
7.0
 40
7.0
 10
121.2825195009294
 20
-148.9779866164013
 10
121.2825195009294
 20
-148.9779866164013
 10
121.2825195009294
 20
-147.8736612586045
 10
121.2825195009294
 20
-147.8736612586045
 10
121.2825195009294
 20
-147.8736612586045
 10
120.9524793534424
 20
-147.8736612586045
 10
120.9524793534424
 20
-147.8736612586045
 10
120.9524793534424
 20
-147.8736612586045
 10
120.9524793534424
 20
-147.7255221527387
 10
120.9524793534424
 20
-147.7255221527387
 10
121.2845865582205
 20
-147.7108804969264
 10
121.3310953472714
 20
-147.5479274804741
 10
121.3607231684445
 20
-147.4337225651381
 10
121.3607231684445
 20
-147.4337225651381
 10
121.5067952170191
 20
-147.4337225651381
 10
121.5067952170191
 20
-147.4337225651381
 10
121.5067952170191
 20
-147.4337225651381
 10
121.5067952170191
 20
-148.9779866164013
 10
121.5067952170191
 20
-148.9779866164013
 10
121.5067952170191
 20
-148.9779866164013
 10
121.2825195009294
 20
-148.9779866164013
 10
121.2825195009294
 20
-148.9779866164013
 97
        0
 97
        1
330
FB
 75
     2
 76
     1
 98
        1
 10
0.0
 20
0.0
450
        0
451
        0
460
0.0
461
0.0
452
        0
462
0.0
453
        0
470

  0
ENDBLK
  5
FA
330
F7
100
AcDbEntity
  8
0
100
AcDbBlockEnd
  0
BLOCK
  5
101
330
FF
100
AcDbEntity
  8
0
100
AcDbBlockBegin
  2
Block_9
 70
     0
 10
0.0
 20
0.0
 30
0.0
  3
Block_9
  1

  0
INSERT
  5
104
330
FF
100
AcDbEntity
  8
レイヤー 1
100
AcDbBlockReference
  2
Block_10
 10
0.0
 20
0.0
 30
0.0
  0
INSERT
  5
11F
330
FF
100
AcDbEntity
  8
レイヤー 1
100
AcDbBlockReference
  2
Block_12
 10
0.0
 20
0.0
 30
0.0
  0
ENDBLK
  5
102
330
FF
100
AcDbEntity
  8
0
100
AcDbBlockEnd
  0
BLOCK
  5
105
330
103
100
AcDbEntity
  8
0
100
AcDbBlockBegin
  2
Block_10
 70
     0
 10
0.0
 20
0.0
 30
0.0
  3
Block_10
  1

  0
INSERT
  5
108
330
103
100
AcDbEntity
  8
レイヤー 1
100
AcDbBlockReference
  2
Block_11
 10
0.0
 20
0.0
 30
0.0
  0
ENDBLK
  5
106
330
103
100
AcDbEntity
  8
0
100
AcDbBlockEnd
  0
BLOCK
  5
109
330
107
100
AcDbEntity
  8
0
100
AcDbBlockBegin
  2
Block_11
 70
     0
 10
0.0
 20
0.0
 30
0.0
  3
Block_11
  1

  0
SPLINE
  5
10B
330
107
100
AcDbEntity
  8
レイヤー 1
100
AcDbSpline
210
0.0
220
0.0
230
1.0
 70
     9
 71
     3
 72
    17
 73
    13
 74
     0
 42
0.0000000001
 43
0.0000000001
 40
0.0
 40
0.0
 40
0.0
 40
0.0
 40
1.0
 40
1.0
 40
1.0
 40
2.0
 40
2.0
 40
2.0
 40
3.0
 40
3.0
 40
3.0
 40
4.0
 40
4.0
 40
4.0
 40
4.0
 10
99.70812578887505
 20
-154.8119113111234
 30
0.0
 10
99.69124482099733
 20
-154.8415391322965
 30
0.0
 10
99.6404296625899
 20
-154.9345567103983
 30
0.0
 10
99.62992212135988
 20
-154.9535047355672
 30
0.0
 10
99.82026364691995
 20
-155.0127603779135
 30
0.0
 10
99.84145098415423
 20
-155.0193060593354
 30
0.0
 10
99.91345347979596
 20
-155.0465223136689
 30
0.0
 10
99.96840275278568
 20
-154.9600504169891
 30
0.0
 10
99.99165714731113
 20
-154.8859808640562
 30
0.0
 10
100.0064710578977
 20
-154.8119113111234
 30
0.0
 10
100.0064710578977
 20
-154.8119113111234
 30
0.0
 10
99.70812578887505
 20
-154.8119113111234
 30
0.0
 10
99.70812578887505
 20
-154.8119113111234
 30
0.0
  0
SPLINE
  5
10C
330
107
100
AcDbEntity
  8
レイヤー 1
100
AcDbSpline
210
0.0
220
0.0
230
1.0
 70
    11
 71
     3
 72
    20
 73
    16
 74
     0
 42
0.0000000001
 43
0.0000000001
 40
0.0
 40
0.0
 40
0.0
 40
0.0
 40
1.0
 40
1.0
 40
1.0
 40
2.0
 40
2.0
 40
2.0
 40
3.0
 40
3.0
 40
3.0
 40
4.0
 40
4.0
 40
4.0
 40
5.0
 40
5.0
 40
5.0
 40
5.0
 10
99.64473603194647
 20
-153.9613172358152
 30
0.0
 10
99.64473603194647
 20
-153.9613172358152
 30
0.0
 10
99.61304115348216
 20
-153.9613172358152
 30
0.0
 10
99.61304115348216
 20
-153.9613172358152
 30
0.0
 10
99.65954994253303
 20
-154.0608804953389
 30
0.0
 10
99.69124482099733
 20
-154.1411512201453
 30
0.0
 10
99.72517901152706
 20
-154.268275243551
 30
0.0
 10
99.72517901152706
 20
-154.268275243551
 30
0.0
 10
99.93240150496482
 20
-154.268275243551
 30
0.0
 10
99.93240150496482
 20
-154.268275243551
 30
0.0
 10
99.96409638342912
 20
-154.1752576654492
 30
0.0
 10
99.98735077795457
 20
-154.0905083165121
 30
0.0
 10
100.0107774272542
 20
-153.9613172358152
 30
0.0
 10
100.0107774272542
 20
-153.9613172358152
 30
0.0
 10
99.64473603194647
 20
-153.9613172358152
 30
0.0
 10
99.64473603194647
 20
-153.9613172358152
 30
0.0
  0
SPLINE
  5
10D
330
107
100
AcDbEntity
  8
レイヤー 1
100
AcDbSpline
210
0.0
220
0.0
230
1.0
 70
     9
 71
     3
 72
   242
 73
   238
 74
     0
 42
0.0000000001
 43
0.0000000001
 40
0.0
 40
0.0
 40
0.0
 40
0.0
 40
1.0
 40
1.0
 40
1.0
 40
2.0
 40
2.0
 40
2.0
 40
3.0
 40
3.0
 40
3.0
 40
4.0
 40
4.0
 40
4.0
 40
5.0
 40
5.0
 40
5.0
 40
6.0
 40
6.0
 40
6.0
 40
7.0
 40
7.0
 40
7.0
 40
8.0
 40
8.0
 40
8.0
 40
9.0
 40
9.0
 40
9.0
 40
10.0
 40
10.0
 40
10.0
 40
11.0
 40
11.0
 40
11.0
 40
12.0
 40
12.0
 40
12.0
 40
13.0
 40
13.0
 40
13.0
 40
14.0
 40
14.0
 40
14.0
 40
15.0
 40
15.0
 40
15.0
 40
16.0
 40
16.0
 40
16.0
 40
17.0
 40
17.0
 40
17.0
 40
18.0
 40
18.0
 40
18.0
 40
19.0
 40
19.0
 40
19.0
 40
20.0
 40
20.0
 40
20.0
 40
21.0
 40
21.0
 40
21.0
 40
22.0
 40
22.0
 40
22.0
 40
23.0
 40
23.0
 40
23.0
 40
24.0
 40
24.0
 40
24.0
 40
25.0
 40
25.0
 40
25.0
 40
26.0
 40
26.0
 40
26.0
 40
27.0
 40
27.0
 40
27.0
 40
28.0
 40
28.0
 40
28.0
 40
29.0
 40
29.0
 40
29.0
 40
30.0
 40
30.0
 40
30.0
 40
31.0
 40
31.0
 40
31.0
 40
32.0
 40
32.0
 40
32.0
 40
33.0
 40
33.0
 40
33.0
 40
34.0
 40
34.0
 40
34.0
 40
35.0
 40
35.0
 40
35.0
 40
36.0
 40
36.0
 40
36.0
 40
37.0
 40
37.0
 40
37.0
 40
38.0
 40
38.0
 40
38.0
 40
39.0
 40
39.0
 40
39.0
 40
40.0
 40
40.0
 40
40.0
 40
41.0
 40
41.0
 40
41.0
 40
42.0
 40
42.0
 40
42.0
 40
43.0
 40
43.0
 40
43.0
 40
44.0
 40
44.0
 40
44.0
 40
45.0
 40
45.0
 40
45.0
 40
46.0
 40
46.0
 40
46.0
 40
47.0
 40
47.0
 40
47.0
 40
48.0
 40
48.0
 40
48.0
 40
49.0
 40
49.0
 40
49.0
 40
50.0
 40
50.0
 40
50.0
 40
51.0
 40
51.0
 40
51.0
 40
52.0
 40
52.0
 40
52.0
 40
53.0
 40
53.0
 40
53.0
 40
54.0
 40
54.0
 40
54.0
 40
55.0
 40
55.0
 40
55.0
 40
56.0
 40
56.0
 40
56.0
 40
57.0
 40
57.0
 40
57.0
 40
58.0
 40
58.0
 40
58.0
 40
59.0
 40
59.0
 40
59.0
 40
60.0
 40
60.0
 40
60.0
 40
61.0
 40
61.0
 40
61.0
 40
62.0
 40
62.0
 40
62.0
 40
63.0
 40
63.0
 40
63.0
 40
64.0
 40
64.0
 40
64.0
 40
65.0
 40
65.0
 40
65.0
 40
66.0
 40
66.0
 40
66.0
 40
67.0
 40
67.0
 40
67.0
 40
68.0
 40
68.0
 40
68.0
 40
69.0
 40
69.0
 40
69.0
 40
70.0
 40
70.0
 40
70.0
 40
71.0
 40
71.0
 40
71.0
 40
72.0
 40
72.0
 40
72.0
 40
73.0
 40
73.0
 40
73.0
 40
74.0
 40
74.0
 40
74.0
 40
75.0
 40
75.0
 40
75.0
 40
76.0
 40
76.0
 40
76.0
 40
77.0
 40
77.0
 40
77.0
 40
78.0
 40
78.0
 40
78.0
 40
79.0
 40
79.0
 40
79.0
 40
79.0
 10
100.2729491936817
 20
-154.4267496358725
 30
0.0
 10
100.2729491936817
 20
-154.4267496358725
 30
0.0
 10
100.0192179111931
 20
-154.4267496358725
 30
0.0
 10
100.0192179111931
 20
-154.4267496358725
 30
0.0
 10
100.0192179111931
 20
-154.4267496358725
 30
0.0
 10
99.74205997940478
 20
-154.4267496358725
 30
0.0
 10
99.74205997940478
 20
-154.4267496358725
 30
0.0
 10
99.74205997940478
 20
-154.4267496358725
 30
0.0
 10
99.86901174803623
 20
-154.469124310341
 30
0.0
 10
99.86901174803623
 20
-154.469124310341
 30
0.0
 10
99.87951928926625
 20
-154.4732584249233
 30
0.0
 10
99.89226614256168
 20
-154.4798041063453
 30
0.0
 10
99.89226614256168
 20
-154.4925509596407
 30
0.0
 10
99.89226614256168
 20
-154.5135660421008
 30
0.0
 10
99.86057126409736
 20
-154.5197672139742
 30
0.0
 10
99.83938392686308
 20
-154.524245838105
 30
0.0
 10
99.8287041308588
 20
-154.5473279778562
 30
0.0
 10
99.79907630968565
 20
-154.6131293016245
 30
0.0
 10
99.78012828451678
 20
-154.6575710333842
 30
0.0
 10
99.78012828451678
 20
-154.6575710333842
 30
0.0
 10
100.0509127896574
 20
-154.6575710333842
 30
0.0
 10
100.0509127896574
 20
-154.6575710333842
 30
0.0
 10
100.141863310468
 20
-154.6575710333842
 30
0.0
 10
100.3385782626758
 20
-154.6530924092534
 30
0.0
 10
100.4803439418938
 20
-154.6448241800888
 30
0.0
 10
100.4803439418938
 20
-154.6448241800888
 30
0.0
 10
100.4803439418938
 20
-154.8225911071277
 30
0.0
 10
100.4803439418938
 20
-154.8225911071277
 30
0.0
 10
100.397833905022
 20
-154.8181124829968
 30
0.0
 10
100.3766465677878
 20
-154.8181124829968
 30
0.0
 10
100.1968125834577
 20
-154.8139783684146
 30
0.0
 10
100.1651177049934
 20
-154.9683186461537
 30
0.0
 10
100.1206759732337
 20
-155.0489338805086
 30
0.0
 10
100.076234241474
 20
-155.1185248093106
 30
0.0
 10
100.1968125834577
 20
-155.1777804516569
 30
0.0
 10
100.3025770148549
 20
-155.2456488327163
 30
0.0
 10
100.4062743889609
 20
-155.3279866148138
 30
0.0
 10
100.4062743889609
 20
-155.3279866148138
 30
0.0
 10
100.2877631042683
 20
-155.4950737458484
 30
0.0
 10
100.2877631042683
 20
-155.4950737458484
 30
0.0
 10
100.2645087097429
 20
-155.4761257206796
 30
0.0
 10
100.2519341112217
 20
-155.4675129819664
 30
0.0
 10
100.1397962531768
 20
-155.3831081425778
 30
0.0
 10
100.0910481520606
 20
-155.3448675826915
 30
0.0
 10
100.0317925097143
 20
-155.3090385896449
 30
0.0
 10
99.95152178490796
 20
-155.2645968578852
 30
0.0
 10
99.73999292211361
 20
-155.4506320140887
 30
0.0
 10
99.53466523119274
 20
-155.4740586633884
 30
0.0
 10
99.24493270088321
 20
-155.5036864845616
 30
0.0
 10
99.24493270088321
 20
-155.5036864845616
 30
0.0
 10
99.1412353267772
 20
-155.3238525002315
 30
0.0
 10
99.1412353267772
 20
-155.3238525002315
 30
0.0
 10
99.4585286209687
 20
-155.3197183856492
 30
0.0
 10
99.63405623594219
 20
-155.2942246790584
 30
0.0
 10
99.78650171116449
 20
-155.1843261330789
 30
0.0
 10
99.6679904264719
 20
-155.1333387198972
 30
0.0
 10
99.57910696295245
 20
-155.1057779560152
 30
0.0
 10
99.54310571513159
 20
-155.0933756122683
 30
0.0
 10
99.52415768996273
 20
-155.1205918666018
 30
0.0
 10
99.50934377937613
 20
-155.1398844013192
 30
0.0
 10
99.48178301549415
 20
-155.1736463370746
 30
0.0
 10
99.48178301549415
 20
-155.1736463370746
 30
0.0
 10
99.28506806328638
 20
-155.0909640454286
 30
0.0
 10
99.28506806328638
 20
-155.0909640454286
 30
0.0
 10
99.36757810015812
 20
-155.0106933206223
 30
0.0
 10
99.42890079979555
 20
-154.9156086852294
 30
0.0
 10
99.48608938485071
 20
-154.8139783684146
 30
0.0
 10
99.29557560451639
 20
-154.8181124829968
 30
0.0
 10
99.27456052205636
 20
-154.8181124829968
 30
0.0
 10
99.19205048518463
 20
-154.8225911071277
 30
0.0
 10
99.19205048518463
 20
-154.8225911071277
 30
0.0
 10
99.19205048518463
 20
-154.6448241800888
 30
0.0
 10
99.19205048518463
 20
-154.6448241800888
 30
0.0
 10
99.33157685233725
 20
-154.6510253519622
 30
0.0
 10
99.54103865784045
 20
-154.6551594665445
 30
0.0
 10
99.56636010965702
 20
-154.6551594665445
 30
0.0
 10
99.58341333230901
 20
-154.6213975307891
 30
0.0
 10
99.63836260529875
 20
-154.5008191888053
 30
0.0
 10
99.65748288524189
 20
-154.4267496358725
 30
0.0
 10
99.63836260529875
 20
-154.4267496358725
 30
0.0
 10
99.46059567825985
 20
-154.4332953172944
 30
0.0
 10
99.26594778334324
 20
-154.4460421705899
 30
0.0
 10
99.26594778334324
 20
-154.4460421705899
 30
0.0
 10
99.26594778334324
 20
-154.5790228563205
 30
0.0
 10
99.26594778334324
 20
-154.5790228563205
 30
0.0
 10
99.21737193700122
 20
-154.6045165629114
 30
0.0
 10
99.15811629465492
 20
-154.6362114413757
 30
0.0
 10
99.02479109937575
 20
-154.7020127651439
 30
0.0
 10
99.02479109937575
 20
-154.7020127651439
 30
0.0
 10
99.02479109937575
 20
-154.84774030417
 30
0.0
 10
99.02479109937575
 20
-154.84774030417
 30
0.0
 10
99.02479109937575
 20
-154.84774030417
 30
0.0
 10
99.02479109937575
 20
-155.3152397615184
 30
0.0
 10
99.02479109937575
 20
-155.3152397615184
 30
0.0
 10
99.02479109937575
 20
-155.4423637849241
 30
0.0
 10
98.98896210632916
 20
-155.5016194272704
 30
0.0
 10
98.7054307478931
 20
-155.4930066885573
 30
0.0
 10
98.7054307478931
 20
-155.4930066885573
 30
0.0
 10
98.60173337378707
 20
-155.2856119403452
 30
0.0
 10
98.60173337378707
 20
-155.2856119403452
 30
0.0
 10
98.66529538548993
 20
-155.2983587936407
 30
0.0
 10
98.71387123183197
 20
-155.3028374177715
 30
0.0
 10
98.75400659423512
 20
-155.3028374177715
 30
0.0
 10
98.83031545923341
 20
-155.3028374177715
 30
0.0
 10
98.84082300046342
 20
-155.2794107684718
 30
0.0
 10
98.84082300046342
 20
-155.2139539542521
 30
0.0
 10
98.84082300046342
 20
-155.2139539542521
 30
0.0
 10
98.84082300046342
 20
-154.7843505472414
 30
0.0
 10
98.84082300046342
 20
-154.7843505472414
 30
0.0
 10
98.7434990530051
 20
-154.8246581644188
 30
0.0
 10
98.72661808512738
 20
-154.8308593362923
 30
0.0
 10
98.68010929607651
 20
-154.8498073614611
 30
0.0
 10
98.67580292671995
 20
-154.8711669534697
 30
0.0
 10
98.67149655736339
 20
-154.9007947746428
 30
0.0
 10
98.6525485321945
 20
-154.9007947746428
 30
0.0
 10
98.64410804825565
 20
-154.9007947746428
 30
0.0
 10
98.63342825225137
 20
-154.896316150512
 30
0.0
 10
98.62722708037793
 20
-154.8732340107608
 30
0.0
 10
98.62722708037793
 20
-154.8732340107608
 30
0.0
 10
98.57434486467933
 20
-154.6806531731354
 30
0.0
 10
98.57434486467933
 20
-154.6806531731354
 30
0.0
 10
98.72024465847967
 20
-154.6341443840845
 30
0.0
 10
98.78587372747368
 20
-154.6110622443333
 30
0.0
 10
98.84082300046342
 20
-154.5897026523248
 30
0.0
 10
98.84082300046342
 20
-154.5897026523248
 30
0.0
 10
98.84082300046342
 20
-154.1773247227404
 30
0.0
 10
98.84082300046342
 20
-154.1773247227404
 30
0.0
 10
98.84082300046342
 20
-154.1773247227404
 30
0.0
 10
98.78794078476483
 20
-154.1773247227404
 30
0.0
 10
98.78794078476483
 20
-154.1773247227404
 30
0.0
 10
98.78794078476483
 20
-154.1773247227404
 30
0.0
 10
98.70973711724966
 20
-154.1773247227404
 30
0.0
 10
98.70973711724966
 20
-154.1773247227404
 30
0.0
 10
98.64204099096449
 20
-154.1773247227404
 30
0.0
 10
98.63342825225137
 20
-154.1773247227404
 30
0.0
 10
98.59759925920478
 20
-154.1835258946138
 30
0.0
 10
98.59759925920478
 20
-154.1835258946138
 30
0.0
 10
98.59759925920478
 20
-153.9888779996972
 30
0.0
 10
98.59759925920478
 20
-153.9888779996972
 30
0.0
 10
98.62498776831252
 20
-153.9954236811192
 30
0.0
 10
98.63342825225137
 20
-153.9954236811192
 30
0.0
 10
98.70336369060195
 20
-153.9954236811192
 30
0.0
 10
98.70336369060195
 20
-153.9954236811192
 30
0.0
 10
98.83651663110684
 20
-153.9954236811192
 30
0.0
 10
98.83651663110684
 20
-153.9954236811192
 30
0.0
 10
98.83651663110684
 20
-153.9254882427686
 30
0.0
 10
98.83651663110684
 20
-153.8428059511226
 30
0.0
 10
98.8344495738157
 20
-153.8386718365403
 30
0.0
 10
98.82600908987683
 20
-153.6588378522103
 30
0.0
 10
98.82600908987683
 20
-153.6398898270414
 30
0.0
 10
98.8239420325857
 20
-153.5933810379905
 30
0.0
 10
98.8239420325857
 20
-153.5933810379905
 30
0.0
 10
99.03960500996234
 20
-153.6016492671551
 30
0.0
 10
99.03960500996234
 20
-153.6016492671551
 30
0.0
 10
99.0502848059666
 20
-153.6016492671551
 30
0.0
 10
99.0714721432009
 20
-153.6040608339948
 30
0.0
 10
99.0714721432009
 20
-153.6209418018725
 30
0.0
 10
99.0714721432009
 20
-153.6398898270414
 30
0.0
 10
99.05665823261431
 20
-153.6505696230457
 30
0.0
 10
99.03116452602347
 20
-153.6695176482145
 30
0.0
 10
99.03116452602347
 20
-153.7201605518477
 30
0.0
 10
99.02479109937575
 20
-153.9489148920683
 30
0.0
 10
99.02703041144116
 20
-153.9954236811192
 30
0.0
 10
99.15604923736378
 20
-153.9954236811192
 30
0.0
 10
99.16879609065921
 20
-153.9954236811192
 30
0.0
 10
99.26594778334324
 20
-153.9868109424061
 30
0.0
 10
99.26594778334324
 20
-153.9868109424061
 30
0.0
 10
99.26594778334324
 20
-154.1814588373227
 30
0.0
 10
99.26594778334324
 20
-154.1814588373227
 30
0.0
 10
99.22787947823124
 20
-154.1793917800315
 30
0.0
 10
99.16018335194607
 20
-154.1752576654492
 30
0.0
 10
99.02479109937575
 20
-154.1773247227404
 30
0.0
 10
99.02479109937575
 20
-154.1773247227404
 30
0.0
 10
99.02479109937575
 20
-154.5156330993919
 30
0.0
 10
99.02479109937575
 20
-154.5156330993919
 30
0.0
 10
99.07991262713975
 20
-154.4925509596407
 30
0.0
 10
99.14536944135949
 20
-154.4649901957587
 30
0.0
 10
99.19411754247578
 20
-154.441563546459
 30
0.0
 10
99.19411754247578
 20
-154.441563546459
 30
0.0
 10
99.19411754247578
 20
-154.2637966194201
 30
0.0
 10
99.19411754247578
 20
-154.2637966194201
 30
0.0
 10
99.30832245781182
 20
-154.2765434727156
 30
0.0
 10
99.42683374250442
 20
-154.2765434727156
 30
0.0
 10
99.54310571513159
 20
-154.2765434727156
 30
0.0
 10
99.51985132060615
 20
-154.1814588373227
 30
0.0
 10
99.49246281149841
 20
-154.0987765456767
 30
0.0
 10
99.42890079979555
 20
-153.9657958599461
 30
0.0
 10
99.38445906803584
 20
-153.9678629172372
 30
0.0
 10
99.3019490311641
 20
-153.9719970318195
 30
0.0
 10
99.2638807260521
 20
-153.9740640891106
 30
0.0
 10
99.2638807260521
 20
-153.9740640891106
 30
0.0
 10
99.2638807260521
 20
-153.7942301047806
 30
0.0
 10
99.2638807260521
 20
-153.7942301047806
 30
0.0
 10
99.3887654373924
 20
-153.8028428434937
 30
0.0
 10
99.56222599507473
 20
-153.806976958076
 30
0.0
 10
99.64473603194647
 20
-153.806976958076
 30
0.0
 10
99.64473603194647
 20
-153.806976958076
 30
0.0
 10
99.72724606881818
 20
-153.806976958076
 30
0.0
 10
99.72724606881818
 20
-153.806976958076
 30
0.0
 10
99.72724606881818
 20
-153.6440239416237
 30
0.0
 10
99.72724606881818
 20
-153.633688655168
 30
0.0
 10
99.72517901152706
 20
-153.5785671274039
 30
0.0
 10
99.72517901152706
 20
-153.5785671274039
 30
0.0
 10
99.94928247284255
 20
-153.6040608339948
 30
0.0
 10
99.94928247284255
 20
-153.6040608339948
 30
0.0
 10
99.95358884219911
 20
-153.6040608339948
 30
0.0
 10
99.97477617943339
 20
-153.606127891286
 30
0.0
 10
99.97477617943339
 20
-153.6230088591637
 30
0.0
 10
99.97477617943339
 20
-153.6378227697502
 30
0.0
 10
99.96409638342912
 20
-153.6460909989149
 30
0.0
 10
99.93670787432138
 20
-153.6609049095014
 30
0.0
 10
99.93033444767368
 20
-153.7267062332697
 30
0.0
 10
99.92826739038251
 20
-153.7477213157297
 30
0.0
 10
99.92826739038251
 20
-153.806976958076
 30
0.0
 10
99.92826739038251
 20
-153.806976958076
 30
0.0
 10
100.0233520257754
 20
-153.806976958076
 30
0.0
 10
100.0233520257754
 20
-153.806976958076
 30
0.0
 10
100.1058620626471
 20
-153.806976958076
 30
0.0
 10
100.2793226203295
 20
-153.8028428434937
 30
0.0
 10
100.4042073316698
 20
-153.7942301047806
 30
0.0
 10
100.4042073316698
 20
-153.7942301047806
 30
0.0
 10
100.4042073316698
 20
-153.9740640891106
 30
0.0
 10
100.4042073316698
 20
-153.9740640891106
 30
0.0
 10
100.3745795104966
 20
-153.9719970318195
 30
0.0
 10
100.256068225804
 20
-153.9678629172372
 30
0.0
 10
100.2159328634009
 20
-153.9657958599461
 30
0.0
 10
100.2011189528143
 20
-154.0164387635792
 30
0.0
 10
100.1671847622846
 20
-154.1284043668498
 30
0.0
 10
100.1017279480648
 20
-154.268275243551
 30
0.0
 10
100.1439303677591
 20
-154.268275243551
 30
0.0
 10
100.4210882995475
 20
-154.2489827088336
 30
0.0
 10
100.4824109991849
 20
-154.2469156515424
 30
0.0
 10
100.4824109991849
 20
-154.2469156515424
 30
0.0
 10
100.4824109991849
 20
-154.4312282600033
 30
0.0
 10
100.4824109991849
 20
-154.4312282600033
 30
0.0
 10
100.4527831780118
 20
-154.4312282600033
 30
0.0
 10
100.4359022101341
 20
-154.4267496358725
 30
0.0
 10
100.2729491936817
 20
-154.4267496358725
 30
0.0
  0
HATCH
  5
10E
330
107
100
AcDbEntity
  8
レイヤー 1
 62
    18
420
        0
440
 33554687
100
AcDbHatch
 10
0.0
 20
0.0
 30
0.0
210
0.0
220
0.0
230
1.0
  2
SOLID
 70
     1
 71
     1
 91
        3
 92
        1
 93
        1
 72
     4
 94
        3
 73
     0
 74
     0
 95
       17
 96
       13
 40
0.0
 40
0.0
 40
0.0
 40
0.0
 40
1.0
 40
1.0
 40
1.0
 40
2.0
 40
2.0
 40
2.0
 40
3.0
 40
3.0
 40
3.0
 40
4.0
 40
4.0
 40
4.0
 40
4.0
 10
99.70812578887505
 20
-154.8119113111234
 10
99.69124482099733
 20
-154.8415391322965
 10
99.6404296625899
 20
-154.9345567103983
 10
99.62992212135988
 20
-154.9535047355672
 10
99.82026364691995
 20
-155.0127603779135
 10
99.84145098415423
 20
-155.0193060593354
 10
99.91345347979596
 20
-155.0465223136689
 10
99.96840275278568
 20
-154.9600504169891
 10
99.99165714731113
 20
-154.8859808640562
 10
100.0064710578977
 20
-154.8119113111234
 10
100.0064710578977
 20
-154.8119113111234
 10
99.70812578887505
 20
-154.8119113111234
 10
99.70812578887505
 20
-154.8119113111234
 97
        0
 97
        1
330
10B
 92
        1
 93
        1
 72
     4
 94
        3
 73
     0
 74
     0
 95
       20
 96
       16
 40
0.0
 40
0.0
 40
0.0
 40
0.0
 40
1.0
 40
1.0
 40
1.0
 40
2.0
 40
2.0
 40
2.0
 40
3.0
 40
3.0
 40
3.0
 40
4.0
 40
4.0
 40
4.0
 40
5.0
 40
5.0
 40
5.0
 40
5.0
 10
99.64473603194647
 20
-153.9613172358152
 10
99.64473603194647
 20
-153.9613172358152
 10
99.61304115348216
 20
-153.9613172358152
 10
99.61304115348216
 20
-153.9613172358152
 10
99.65954994253303
 20
-154.0608804953389
 10
99.69124482099733
 20
-154.1411512201453
 10
99.72517901152706
 20
-154.268275243551
 10
99.72517901152706
 20
-154.268275243551
 10
99.93240150496482
 20
-154.268275243551
 10
99.93240150496482
 20
-154.268275243551
 10
99.96409638342912
 20
-154.1752576654492
 10
99.98735077795457
 20
-154.0905083165121
 10
100.0107774272542
 20
-153.9613172358152
 10
100.0107774272542
 20
-153.9613172358152
 10
99.64473603194647
 20
-153.9613172358152
 10
99.64473603194647
 20
-153.9613172358152
 97
        0
 97
        1
330
10C
 92
        1
 93
        1
 72
     4
 94
        3
 73
     0
 74
     0
 95
      242
 96
      238
 40
0.0
 40
0.0
 40
0.0
 40
0.0
 40
1.0
 40
1.0
 40
1.0
 40
2.0
 40
2.0
 40
2.0
 40
3.0
 40
3.0
 40
3.0
 40
4.0
 40
4.0
 40
4.0
 40
5.0
 40
5.0
 40
5.0
 40
6.0
 40
6.0
 40
6.0
 40
7.0
 40
7.0
 40
7.0
 40
8.0
 40
8.0
 40
8.0
 40
9.0
 40
9.0
 40
9.0
 40
10.0
 40
10.0
 40
10.0
 40
11.0
 40
11.0
 40
11.0
 40
12.0
 40
12.0
 40
12.0
 40
13.0
 40
13.0
 40
13.0
 40
14.0
 40
14.0
 40
14.0
 40
15.0
 40
15.0
 40
15.0
 40
16.0
 40
16.0
 40
16.0
 40
17.0
 40
17.0
 40
17.0
 40
18.0
 40
18.0
 40
18.0
 40
19.0
 40
19.0
 40
19.0
 40
20.0
 40
20.0
 40
20.0
 40
21.0
 40
21.0
 40
21.0
 40
22.0
 40
22.0
 40
22.0
 40
23.0
 40
23.0
 40
23.0
 40
24.0
 40
24.0
 40
24.0
 40
25.0
 40
25.0
 40
25.0
 40
26.0
 40
26.0
 40
26.0
 40
27.0
 40
27.0
 40
27.0
 40
28.0
 40
28.0
 40
28.0
 40
29.0
 40
29.0
 40
29.0
 40
30.0
 40
30.0
 40
30.0
 40
31.0
 40
31.0
 40
31.0
 40
32.0
 40
32.0
 40
32.0
 40
33.0
 40
33.0
 40
33.0
 40
34.0
 40
34.0
 40
34.0
 40
35.0
 40
35.0
 40
35.0
 40
36.0
 40
36.0
 40
36.0
 40
37.0
 40
37.0
 40
37.0
 40
38.0
 40
38.0
 40
38.0
 40
39.0
 40
39.0
 40
39.0
 40
40.0
 40
40.0
 40
40.0
 40
41.0
 40
41.0
 40
41.0
 40
42.0
 40
42.0
 40
42.0
 40
43.0
 40
43.0
 40
43.0
 40
44.0
 40
44.0
 40
44.0
 40
45.0
 40
45.0
 40
45.0
 40
46.0
 40
46.0
 40
46.0
 40
47.0
 40
47.0
 40
47.0
 40
48.0
 40
48.0
 40
48.0
 40
49.0
 40
49.0
 40
49.0
 40
50.0
 40
50.0
 40
50.0
 40
51.0
 40
51.0
 40
51.0
 40
52.0
 40
52.0
 40
52.0
 40
53.0
 40
53.0
 40
53.0
 40
54.0
 40
54.0
 40
54.0
 40
55.0
 40
55.0
 40
55.0
 40
56.0
 40
56.0
 40
56.0
 40
57.0
 40
57.0
 40
57.0
 40
58.0
 40
58.0
 40
58.0
 40
59.0
 40
59.0
 40
59.0
 40
60.0
 40
60.0
 40
60.0
 40
61.0
 40
61.0
 40
61.0
 40
62.0
 40
62.0
 40
62.0
 40
63.0
 40
63.0
 40
63.0
 40
64.0
 40
64.0
 40
64.0
 40
65.0
 40
65.0
 40
65.0
 40
66.0
 40
66.0
 40
66.0
 40
67.0
 40
67.0
 40
67.0
 40
68.0
 40
68.0
 40
68.0
 40
69.0
 40
69.0
 40
69.0
 40
70.0
 40
70.0
 40
70.0
 40
71.0
 40
71.0
 40
71.0
 40
72.0
 40
72.0
 40
72.0
 40
73.0
 40
73.0
 40
73.0
 40
74.0
 40
74.0
 40
74.0
 40
75.0
 40
75.0
 40
75.0
 40
76.0
 40
76.0
 40
76.0
 40
77.0
 40
77.0
 40
77.0
 40
78.0
 40
78.0
 40
78.0
 40
79.0
 40
79.0
 40
79.0
 40
79.0
 10
100.2729491936817
 20
-154.4267496358725
 10
100.2729491936817
 20
-154.4267496358725
 10
100.0192179111931
 20
-154.4267496358725
 10
100.0192179111931
 20
-154.4267496358725
 10
100.0192179111931
 20
-154.4267496358725
 10
99.74205997940478
 20
-154.4267496358725
 10
99.74205997940478
 20
-154.4267496358725
 10
99.74205997940478
 20
-154.4267496358725
 10
99.86901174803623
 20
-154.469124310341
 10
99.86901174803623
 20
-154.469124310341
 10
99.87951928926625
 20
-154.4732584249233
 10
99.89226614256168
 20
-154.4798041063453
 10
99.89226614256168
 20
-154.4925509596407
 10
99.89226614256168
 20
-154.5135660421008
 10
99.86057126409736
 20
-154.5197672139742
 10
99.83938392686308
 20
-154.524245838105
 10
99.8287041308588
 20
-154.5473279778562
 10
99.79907630968565
 20
-154.6131293016245
 10
99.78012828451678
 20
-154.6575710333842
 10
99.78012828451678
 20
-154.6575710333842
 10
100.0509127896574
 20
-154.6575710333842
 10
100.0509127896574
 20
-154.6575710333842
 10
100.141863310468
 20
-154.6575710333842
 10
100.3385782626758
 20
-154.6530924092534
 10
100.4803439418938
 20
-154.6448241800888
 10
100.4803439418938
 20
-154.6448241800888
 10
100.4803439418938
 20
-154.8225911071277
 10
100.4803439418938
 20
-154.8225911071277
 10
100.397833905022
 20
-154.8181124829968
 10
100.3766465677878
 20
-154.8181124829968
 10
100.1968125834577
 20
-154.8139783684146
 10
100.1651177049934
 20
-154.9683186461537
 10
100.1206759732337
 20
-155.0489338805086
 10
100.076234241474
 20
-155.1185248093106
 10
100.1968125834577
 20
-155.1777804516569
 10
100.3025770148549
 20
-155.2456488327163
 10
100.4062743889609
 20
-155.3279866148138
 10
100.4062743889609
 20
-155.3279866148138
 10
100.2877631042683
 20
-155.4950737458484
 10
100.2877631042683
 20
-155.4950737458484
 10
100.2645087097429
 20
-155.4761257206796
 10
100.2519341112217
 20
-155.4675129819664
 10
100.1397962531768
 20
-155.3831081425778
 10
100.0910481520606
 20
-155.3448675826915
 10
100.0317925097143
 20
-155.3090385896449
 10
99.95152178490796
 20
-155.2645968578852
 10
99.73999292211361
 20
-155.4506320140887
 10
99.53466523119274
 20
-155.4740586633884
 10
99.24493270088321
 20
-155.5036864845616
 10
99.24493270088321
 20
-155.5036864845616
 10
99.1412353267772
 20
-155.3238525002315
 10
99.1412353267772
 20
-155.3238525002315
 10
99.4585286209687
 20
-155.3197183856492
 10
99.63405623594219
 20
-155.2942246790584
 10
99.78650171116449
 20
-155.1843261330789
 10
99.6679904264719
 20
-155.1333387198972
 10
99.57910696295245
 20
-155.1057779560152
 10
99.54310571513159
 20
-155.0933756122683
 10
99.52415768996273
 20
-155.1205918666018
 10
99.50934377937613
 20
-155.1398844013192
 10
99.48178301549415
 20
-155.1736463370746
 10
99.48178301549415
 20
-155.1736463370746
 10
99.28506806328638
 20
-155.0909640454286
 10
99.28506806328638
 20
-155.0909640454286
 10
99.36757810015812
 20
-155.0106933206223
 10
99.42890079979555
 20
-154.9156086852294
 10
99.48608938485071
 20
-154.8139783684146
 10
99.29557560451639
 20
-154.8181124829968
 10
99.27456052205636
 20
-154.8181124829968
 10
99.19205048518463
 20
-154.8225911071277
 10
99.19205048518463
 20
-154.8225911071277
 10
99.19205048518463
 20
-154.6448241800888
 10
99.19205048518463
 20
-154.6448241800888
 10
99.33157685233725
 20
-154.6510253519622
 10
99.54103865784045
 20
-154.6551594665445
 10
99.56636010965702
 20
-154.6551594665445
 10
99.58341333230901
 20
-154.6213975307891
 10
99.63836260529875
 20
-154.5008191888053
 10
99.65748288524189
 20
-154.4267496358725
 10
99.63836260529875
 20
-154.4267496358725
 10
99.46059567825985
 20
-154.4332953172944
 10
99.26594778334324
 20
-154.4460421705899
 10
99.26594778334324
 20
-154.4460421705899
 10
99.26594778334324
 20
-154.5790228563205
 10
99.26594778334324
 20
-154.5790228563205
 10
99.21737193700122
 20
-154.6045165629114
 10
99.15811629465492
 20
-154.6362114413757
 10
99.02479109937575
 20
-154.7020127651439
 10
99.02479109937575
 20
-154.7020127651439
 10
99.02479109937575
 20
-154.84774030417
 10
99.02479109937575
 20
-154.84774030417
 10
99.02479109937575
 20
-154.84774030417
 10
99.02479109937575
 20
-155.3152397615184
 10
99.02479109937575
 20
-155.3152397615184
 10
99.02479109937575
 20
-155.4423637849241
 10
98.98896210632916
 20
-155.5016194272704
 10
98.7054307478931
 20
-155.4930066885573
 10
98.7054307478931
 20
-155.4930066885573
 10
98.60173337378707
 20
-155.2856119403452
 10
98.60173337378707
 20
-155.2856119403452
 10
98.66529538548993
 20
-155.2983587936407
 10
98.71387123183197
 20
-155.3028374177715
 10
98.75400659423512
 20
-155.3028374177715
 10
98.83031545923341
 20
-155.3028374177715
 10
98.84082300046342
 20
-155.2794107684718
 10
98.84082300046342
 20
-155.2139539542521
 10
98.84082300046342
 20
-155.2139539542521
 10
98.84082300046342
 20
-154.7843505472414
 10
98.84082300046342
 20
-154.7843505472414
 10
98.7434990530051
 20
-154.8246581644188
 10
98.72661808512738
 20
-154.8308593362923
 10
98.68010929607651
 20
-154.8498073614611
 10
98.67580292671995
 20
-154.8711669534697
 10
98.67149655736339
 20
-154.9007947746428
 10
98.6525485321945
 20
-154.9007947746428
 10
98.64410804825565
 20
-154.9007947746428
 10
98.63342825225137
 20
-154.896316150512
 10
98.62722708037793
 20
-154.8732340107608
 10
98.62722708037793
 20
-154.8732340107608
 10
98.57434486467933
 20
-154.6806531731354
 10
98.57434486467933
 20
-154.6806531731354
 10
98.72024465847967
 20
-154.6341443840845
 10
98.78587372747368
 20
-154.6110622443333
 10
98.84082300046342
 20
-154.5897026523248
 10
98.84082300046342
 20
-154.5897026523248
 10
98.84082300046342
 20
-154.1773247227404
 10
98.84082300046342
 20
-154.1773247227404
 10
98.84082300046342
 20
-154.1773247227404
 10
98.78794078476483
 20
-154.1773247227404
 10
98.78794078476483
 20
-154.1773247227404
 10
98.78794078476483
 20
-154.1773247227404
 10
98.70973711724966
 20
-154.1773247227404
 10
98.70973711724966
 20
-154.1773247227404
 10
98.64204099096449
 20
-154.1773247227404
 10
98.63342825225137
 20
-154.1773247227404
 10
98.59759925920478
 20
-154.1835258946138
 10
98.59759925920478
 20
-154.1835258946138
 10
98.59759925920478
 20
-153.9888779996972
 10
98.59759925920478
 20
-153.9888779996972
 10
98.62498776831252
 20
-153.9954236811192
 10
98.63342825225137
 20
-153.9954236811192
 10
98.70336369060195
 20
-153.9954236811192
 10
98.70336369060195
 20
-153.9954236811192
 10
98.83651663110684
 20
-153.9954236811192
 10
98.83651663110684
 20
-153.9954236811192
 10
98.83651663110684
 20
-153.9254882427686
 10
98.83651663110684
 20
-153.8428059511226
 10
98.8344495738157
 20
-153.8386718365403
 10
98.82600908987683
 20
-153.6588378522103
 10
98.82600908987683
 20
-153.6398898270414
 10
98.8239420325857
 20
-153.5933810379905
 10
98.8239420325857
 20
-153.5933810379905
 10
99.03960500996234
 20
-153.6016492671551
 10
99.03960500996234
 20
-153.6016492671551
 10
99.0502848059666
 20
-153.6016492671551
 10
99.0714721432009
 20
-153.6040608339948
 10
99.0714721432009
 20
-153.6209418018725
 10
99.0714721432009
 20
-153.6398898270414
 10
99.05665823261431
 20
-153.6505696230457
 10
99.03116452602347
 20
-153.6695176482145
 10
99.03116452602347
 20
-153.7201605518477
 10
99.02479109937575
 20
-153.9489148920683
 10
99.02703041144116
 20
-153.9954236811192
 10
99.15604923736378
 20
-153.9954236811192
 10
99.16879609065921
 20
-153.9954236811192
 10
99.26594778334324
 20
-153.9868109424061
 10
99.26594778334324
 20
-153.9868109424061
 10
99.26594778334324
 20
-154.1814588373227
 10
99.26594778334324
 20
-154.1814588373227
 10
99.22787947823124
 20
-154.1793917800315
 10
99.16018335194607
 20
-154.1752576654492
 10
99.02479109937575
 20
-154.1773247227404
 10
99.02479109937575
 20
-154.1773247227404
 10
99.02479109937575
 20
-154.5156330993919
 10
99.02479109937575
 20
-154.5156330993919
 10
99.07991262713975
 20
-154.4925509596407
 10
99.14536944135949
 20
-154.4649901957587
 10
99.19411754247578
 20
-154.441563546459
 10
99.19411754247578
 20
-154.441563546459
 10
99.19411754247578
 20
-154.2637966194201
 10
99.19411754247578
 20
-154.2637966194201
 10
99.30832245781182
 20
-154.2765434727156
 10
99.42683374250442
 20
-154.2765434727156
 10
99.54310571513159
 20
-154.2765434727156
 10
99.51985132060615
 20
-154.1814588373227
 10
99.49246281149841
 20
-154.0987765456767
 10
99.42890079979555
 20
-153.9657958599461
 10
99.38445906803584
 20
-153.9678629172372
 10
99.3019490311641
 20
-153.9719970318195
 10
99.2638807260521
 20
-153.9740640891106
 10
99.2638807260521
 20
-153.9740640891106
 10
99.2638807260521
 20
-153.7942301047806
 10
99.2638807260521
 20
-153.7942301047806
 10
99.3887654373924
 20
-153.8028428434937
 10
99.56222599507473
 20
-153.806976958076
 10
99.64473603194647
 20
-153.806976958076
 10
99.64473603194647
 20
-153.806976958076
 10
99.72724606881818
 20
-153.806976958076
 10
99.72724606881818
 20
-153.806976958076
 10
99.72724606881818
 20
-153.6440239416237
 10
99.72724606881818
 20
-153.633688655168
 10
99.72517901152706
 20
-153.5785671274039
 10
99.72517901152706
 20
-153.5785671274039
 10
99.94928247284255
 20
-153.6040608339948
 10
99.94928247284255
 20
-153.6040608339948
 10
99.95358884219911
 20
-153.6040608339948
 10
99.97477617943339
 20
-153.606127891286
 10
99.97477617943339
 20
-153.6230088591637
 10
99.97477617943339
 20
-153.6378227697502
 10
99.96409638342912
 20
-153.6460909989149
 10
99.93670787432138
 20
-153.6609049095014
 10
99.93033444767368
 20
-153.7267062332697
 10
99.92826739038251
 20
-153.7477213157297
 10
99.92826739038251
 20
-153.806976958076
 10
99.92826739038251
 20
-153.806976958076
 10
100.0233520257754
 20
-153.806976958076
 10
100.0233520257754
 20
-153.806976958076
 10
100.1058620626471
 20
-153.806976958076
 10
100.2793226203295
 20
-153.8028428434937
 10
100.4042073316698
 20
-153.7942301047806
 10
100.4042073316698
 20
-153.7942301047806
 10
100.4042073316698
 20
-153.9740640891106
 10
100.4042073316698
 20
-153.9740640891106
 10
100.3745795104966
 20
-153.9719970318195
 10
100.256068225804
 20
-153.9678629172372
 10
100.2159328634009
 20
-153.9657958599461
 10
100.2011189528143
 20
-154.0164387635792
 10
100.1671847622846
 20
-154.1284043668498
 10
100.1017279480648
 20
-154.268275243551
 10
100.1439303677591
 20
-154.268275243551
 10
100.4210882995475
 20
-154.2489827088336
 10
100.4824109991849
 20
-154.2469156515424
 10
100.4824109991849
 20
-154.2469156515424
 10
100.4824109991849
 20
-154.4312282600033
 10
100.4824109991849
 20
-154.4312282600033
 10
100.4527831780118
 20
-154.4312282600033
 10
100.4359022101341
 20
-154.4267496358725
 10
100.2729491936817
 20
-154.4267496358725
 97
        0
 97
        1
330
10D
 75
     2
 76
     1
 98
        1
 10
0.0
 20
0.0
450
        0
451
        0
460
0.0
461
0.0
452
        0
462
0.0
453
        0
470

  0
SPLINE
  5
10F
330
107
100
AcDbEntity
  8
レイヤー 1
100
AcDbSpline
210
0.0
220
0.0
230
1.0
 70
    11
 71
     3
 72
    17
 73
    13
 74
     0
 42
0.0000000001
 43
0.0000000001
 40
0.0
 40
0.0
 40
0.0
 40
0.0
 40
1.0
 40
1.0
 40
1.0
 40
2.0
 40
2.0
 40
2.0
 40
3.0
 40
3.0
 40
3.0
 40
4.0
 40
4.0
 40
4.0
 40
4.0
 10
102.1295111506829
 20
-155.2263562979989
 30
0.0
 10
102.1295111506829
 20
-155.2263562979989
 30
0.0
 10
101.4229220666581
 20
-155.2263562979989
 30
0.0
 10
101.4229220666581
 20
-155.2263562979989
 30
0.0
 10
101.4229220666581
 20
-155.2263562979989
 30
0.0
 10
101.4229220666581
 20
-155.3407334681093
 30
0.0
 10
101.4229220666581
 20
-155.3407334681093
 30
0.0
 10
101.4229220666581
 20
-155.3407334681093
 30
0.0
 10
102.1295111506829
 20
-155.3407334681093
 30
0.0
 10
102.1295111506829
 20
-155.3407334681093
 30
0.0
 10
102.1295111506829
 20
-155.3407334681093
 30
0.0
 10
102.1295111506829
 20
-155.2263562979989
 30
0.0
 10
102.1295111506829
 20
-155.2263562979989
 30
0.0
  0
SPLINE
  5
110
330
107
100
AcDbEntity
  8
レイヤー 1
100
AcDbSpline
210
0.0
220
0.0
230
1.0
 70
    11
 71
     3
 72
    17
 73
    13
 74
     0
 42
0.0000000001
 43
0.0000000001
 40
0.0
 40
0.0
 40
0.0
 40
0.0
 40
1.0
 40
1.0
 40
1.0
 40
2.0
 40
2.0
 40
2.0
 40
3.0
 40
3.0
 40
3.0
 40
4.0
 40
4.0
 40
4.0
 40
4.0
 10
102.1295111506829
 20
-154.9831325567403
 30
0.0
 10
102.1295111506829
 20
-154.9831325567403
 30
0.0
 10
101.4229220666581
 20
-154.9831325567403
 30
0.0
 10
101.4229220666581
 20
-154.9831325567403
 30
0.0
 10
101.4229220666581
 20
-154.9831325567403
 30
0.0
 10
101.4229220666581
 20
-155.0975097268506
 30
0.0
 10
101.4229220666581
 20
-155.0975097268506
 30
0.0
 10
101.4229220666581
 20
-155.0975097268506
 30
0.0
 10
102.1295111506829
 20
-155.0975097268506
 30
0.0
 10
102.1295111506829
 20
-155.0975097268506
 30
0.0
 10
102.1295111506829
 20
-155.0975097268506
 30
0.0
 10
102.1295111506829
 20
-154.9831325567403
 30
0.0
 10
102.1295111506829
 20
-154.9831325567403
 30
0.0
  0
SPLINE
  5
111
330
107
100
AcDbEntity
  8
レイヤー 1
100
AcDbSpline
210
0.0
220
0.0
230
1.0
 70
    11
 71
     3
 72
    17
 73
    13
 74
     0
 42
0.0000000001
 43
0.0000000001
 40
0.0
 40
0.0
 40
0.0
 40
0.0
 40
1.0
 40
1.0
 40
1.0
 40
2.0
 40
2.0
 40
2.0
 40
3.0
 40
3.0
 40
3.0
 40
4.0
 40
4.0
 40
4.0
 40
4.0
 10
102.1295111506829
 20
-154.7505886114859
 30
0.0
 10
102.1295111506829
 20
-154.7505886114859
 30
0.0
 10
101.4229220666581
 20
-154.7505886114859
 30
0.0
 10
101.4229220666581
 20
-154.7505886114859
 30
0.0
 10
101.4229220666581
 20
-154.7505886114859
 30
0.0
 10
101.4229220666581
 20
-154.8584201001743
 30
0.0
 10
101.4229220666581
 20
-154.8584201001743
 30
0.0
 10
101.4229220666581
 20
-154.8584201001743
 30
0.0
 10
102.1295111506829
 20
-154.8584201001743
 30
0.0
 10
102.1295111506829
 20
-154.8584201001743
 30
0.0
 10
102.1295111506829
 20
-154.8584201001743
 30
0.0
 10
102.1295111506829
 20
-154.7505886114859
 30
0.0
 10
102.1295111506829
 20
-154.7505886114859
 30
0.0
  0
SPLINE
  5
112
330
107
100
AcDbEntity
  8
レイヤー 1
100
AcDbSpline
210
0.0
220
0.0
230
1.0
 70
     9
 71
     3
 72
   203
 73
   199
 74
     0
 42
0.0000000001
 43
0.0000000001
 40
0.0
 40
0.0
 40
0.0
 40
0.0
 40
1.0
 40
1.0
 40
1.0
 40
2.0
 40
2.0
 40
2.0
 40
3.0
 40
3.0
 40
3.0
 40
4.0
 40
4.0
 40
4.0
 40
5.0
 40
5.0
 40
5.0
 40
6.0
 40
6.0
 40
6.0
 40
7.0
 40
7.0
 40
7.0
 40
8.0
 40
8.0
 40
8.0
 40
9.0
 40
9.0
 40
9.0
 40
10.0
 40
10.0
 40
10.0
 40
11.0
 40
11.0
 40
11.0
 40
12.0
 40
12.0
 40
12.0
 40
13.0
 40
13.0
 40
13.0
 40
14.0
 40
14.0
 40
14.0
 40
15.0
 40
15.0
 40
15.0
 40
16.0
 40
16.0
 40
16.0
 40
17.0
 40
17.0
 40
17.0
 40
18.0
 40
18.0
 40
18.0
 40
19.0
 40
19.0
 40
19.0
 40
20.0
 40
20.0
 40
20.0
 40
21.0
 40
21.0
 40
21.0
 40
22.0
 40
22.0
 40
22.0
 40
23.0
 40
23.0
 40
23.0
 40
24.0
 40
24.0
 40
24.0
 40
25.0
 40
25.0
 40
25.0
 40
26.0
 40
26.0
 40
26.0
 40
27.0
 40
27.0
 40
27.0
 40
28.0
 40
28.0
 40
28.0
 40
29.0
 40
29.0
 40
29.0
 40
30.0
 40
30.0
 40
30.0
 40
31.0
 40
31.0
 40
31.0
 40
32.0
 40
32.0
 40
32.0
 40
33.0
 40
33.0
 40
33.0
 40
34.0
 40
34.0
 40
34.0
 40
35.0
 40
35.0
 40
35.0
 40
36.0
 40
36.0
 40
36.0
 40
37.0
 40
37.0
 40
37.0
 40
38.0
 40
38.0
 40
38.0
 40
39.0
 40
39.0
 40
39.0
 40
40.0
 40
40.0
 40
40.0
 40
41.0
 40
41.0
 40
41.0
 40
42.0
 40
42.0
 40
42.0
 40
43.0
 40
43.0
 40
43.0
 40
44.0
 40
44.0
 40
44.0
 40
45.0
 40
45.0
 40
45.0
 40
46.0
 40
46.0
 40
46.0
 40
47.0
 40
47.0
 40
47.0
 40
48.0
 40
48.0
 40
48.0
 40
49.0
 40
49.0
 40
49.0
 40
50.0
 40
50.0
 40
50.0
 40
51.0
 40
51.0
 40
51.0
 40
52.0
 40
52.0
 40
52.0
 40
53.0
 40
53.0
 40
53.0
 40
54.0
 40
54.0
 40
54.0
 40
55.0
 40
55.0
 40
55.0
 40
56.0
 40
56.0
 40
56.0
 40
57.0
 40
57.0
 40
57.0
 40
58.0
 40
58.0
 40
58.0
 40
59.0
 40
59.0
 40
59.0
 40
60.0
 40
60.0
 40
60.0
 40
61.0
 40
61.0
 40
61.0
 40
62.0
 40
62.0
 40
62.0
 40
63.0
 40
63.0
 40
63.0
 40
64.0
 40
64.0
 40
64.0
 40
65.0
 40
65.0
 40
65.0
 40
66.0
 40
66.0
 40
66.0
 40
66.0
 10
101.9644910769394
 20
-154.4946180169319
 30
0.0
 10
101.9644910769394
 20
-154.4946180169319
 30
0.0
 10
101.4060410987804
 20
-154.4946180169319
 30
0.0
 10
101.4060410987804
 20
-154.4946180169319
 30
0.0
 10
101.3953613027761
 20
-154.5390597486916
 30
0.0
 10
101.3869208188373
 20
-154.5707546271559
 30
0.0
 10
101.3741739655418
 20
-154.6086506774936
 30
0.0
 10
101.3996676721327
 20
-154.6086506774936
 30
0.0
 10
101.4144815827193
 20
-154.6110622443333
 30
0.0
 10
101.420855009367
 20
-154.6110622443333
 30
0.0
 10
101.420855009367
 20
-154.6110622443333
 30
0.0
 10
101.6091294776359
 20
-154.6110622443333
 30
0.0
 10
101.6091294776359
 20
-154.6110622443333
 30
0.0
 10
101.6091294776359
 20
-154.6110622443333
 30
0.0
 10
101.9834391021083
 20
-154.6110622443333
 30
0.0
 10
101.9834391021083
 20
-154.6110622443333
 30
0.0
 10
102.0342542605157
 20
-154.6110622443333
 30
0.0
 10
102.3177856189518
 20
-154.5983153910379
 30
0.0
 10
102.3494804974161
 20
-154.5983153910379
 30
0.0
 10
102.3474134401249
 20
-154.6255316453714
 30
0.0
 10
102.3451741280595
 20
-154.6448241800888
 30
0.0
 10
102.3451741280595
 20
-154.6744520012619
 30
0.0
 10
102.3431070707684
 20
-154.7061468797262
 30
0.0
 10
102.3431070707684
 20
-154.8415391322965
 30
0.0
 10
102.3431070707684
 20
-154.8690998961785
 30
0.0
 10
102.3431070707684
 20
-154.8690998961785
 30
0.0
 10
102.3431070707684
 20
-155.1143906947283
 30
0.0
 10
102.3431070707684
 20
-155.1143906947283
 30
0.0
 10
102.3431070707684
 20
-155.1588324264881
 30
0.0
 10
102.3474134401249
 20
-155.3555473786958
 30
0.0
 10
102.3515475547072
 20
-155.5078205991439
 30
0.0
 10
102.3515475547072
 20
-155.5078205991439
 30
0.0
 10
102.1252047813263
 20
-155.5078205991439
 30
0.0
 10
102.1252047813263
 20
-155.5078205991439
 30
0.0
 10
102.1252047813263
 20
-155.5078205991439
 30
0.0
 10
102.1274440933917
 20
-155.4740586633884
 30
0.0
 10
102.1274440933917
 20
-155.4740586633884
 30
0.0
 10
102.1274440933917
 20
-155.4740586633884
 30
0.0
 10
101.4249891239493
 20
-155.4740586633884
 30
0.0
 10
101.4249891239493
 20
-155.4740586633884
 30
0.0
 10
101.4249891239493
 20
-155.4740586633884
 30
0.0
 10
101.4270561812404
 20
-155.5078205991439
 30
0.0
 10
101.4270561812404
 20
-155.5078205991439
 30
0.0
 10
101.4270561812404
 20
-155.5078205991439
 30
0.0
 10
101.2091538917984
 20
-155.5078205991439
 30
0.0
 10
101.2091538917984
 20
-155.5078205991439
 30
0.0
 10
101.213460261155
 20
-155.4526990713799
 30
0.0
 10
101.213460261155
 20
-155.4402967276329
 30
0.0
 10
101.2198336878027
 20
-155.3259195575227
 30
0.0
 10
101.2219007450938
 20
-155.2983587936407
 30
0.0
 10
101.223967802385
 20
-155.1650335983615
 30
0.0
 10
101.223967802385
 20
-155.1460855731926
 30
0.0
 10
101.223967802385
 20
-155.1460855731926
 30
0.0
 10
101.223967802385
 20
-154.9431694491114
 30
0.0
 10
101.223967802385
 20
-154.9431694491114
 30
0.0
 10
101.0844414352323
 20
-155.1925943622435
 30
0.0
 10
100.9151149921323
 20
-155.3238525002315
 30
0.0
 10
100.8093505607351
 20
-155.3893093144513
 30
0.0
 10
100.8093505607351
 20
-155.3893093144513
 30
0.0
 10
100.6358900030528
 20
-155.2497829472987
 30
0.0
 10
100.6358900030528
 20
-155.2497829472987
 30
0.0
 10
100.7247734665723
 20
-155.1991400436655
 30
0.0
 10
100.8686062030814
 20
-155.1123236374372
 30
0.0
 10
101.0060655129429
 20
-154.9176757425206
 30
0.0
 10
101.0971882885278
 20
-154.7905517191148
 30
0.0
 10
101.1626451027475
 20
-154.6468912373799
 30
0.0
 10
101.1965792932772
 20
-154.4946180169319
 30
0.0
 10
100.9679972078309
 20
-154.496685074223
 30
0.0
 10
100.7881632235009
 20
-154.5028862460965
 30
0.0
 10
100.693078588108
 20
-154.5049533033876
 30
0.0
 10
100.693078588108
 20
-154.5049533033876
 30
0.0
 10
100.693078588108
 20
-154.3275308858973
 30
0.0
 10
100.693078588108
 20
-154.3275308858973
 30
0.0
 10
100.8897935403157
 20
-154.3337320577707
 30
0.0
 10
101.1733248987518
 20
-154.337866172353
 30
0.0
 10
101.3235310619087
 20
-154.337866172353
 30
0.0
 10
101.3235310619087
 20
-154.337866172353
 30
0.0
 10
101.5371269819942
 20
-154.337866172353
 30
0.0
 10
101.5371269819942
 20
-154.337866172353
 30
0.0
 10
101.5371269819942
 20
-154.337866172353
 30
0.0
 10
101.5371269819942
 20
-154.2300346836647
 30
0.0
 10
101.5371269819942
 20
-154.2300346836647
 30
0.0
 10
101.5371269819942
 20
-154.2300346836647
 30
0.0
 10
101.3912271881938
 20
-154.2300346836647
 30
0.0
 10
101.3912271881938
 20
-154.2300346836647
 30
0.0
 10
101.2219007450938
 20
-154.2300346836647
 30
0.0
 10
101.0527465567681
 20
-154.234168798247
 30
0.0
 10
100.8854871709592
 20
-154.240714479669
 30
0.0
 10
100.8854871709592
 20
-154.240714479669
 30
0.0
 10
100.8854871709592
 20
-154.0694932340521
 30
0.0
 10
100.8854871709592
 20
-154.0694932340521
 30
0.0
 10
101.0399997034726
 20
-154.0798285205078
 30
0.0
 10
101.2262071144504
 20
-154.0798285205078
 30
0.0
 10
101.3912271881938
 20
-154.0798285205078
 30
0.0
 10
101.3912271881938
 20
-154.0798285205078
 30
0.0
 10
101.5371269819942
 20
-154.0798285205078
 30
0.0
 10
101.5371269819942
 20
-154.0798285205078
 30
0.0
 10
101.5371269819942
 20
-154.0798285205078
 30
0.0
 10
101.5371269819942
 20
-153.9613172358152
 30
0.0
 10
101.5371269819942
 20
-153.9613172358152
 30
0.0
 10
101.5371269819942
 20
-153.9613172358152
 30
0.0
 10
101.4060410987804
 20
-153.9613172358152
 30
0.0
 10
101.4060410987804
 20
-153.9613172358152
 30
0.0
 10
101.3593600549553
 20
-153.9613172358152
 30
0.0
 10
101.1562716760998
 20
-153.9699299745283
 30
0.0
 10
101.1140692564055
 20
-153.9699299745283
 30
0.0
 10
100.91098087755
 20
-153.9740640891106
 30
0.0
 10
100.834844267326
 20
-153.9761311464018
 30
0.0
 10
100.7564683450365
 20
-153.9781982036929
 30
0.0
 10
100.7564683450365
 20
-153.9781982036929
 30
0.0
 10
100.7564683450365
 20
-153.7942301047806
 30
0.0
 10
100.7564683450365
 20
-153.7942301047806
 30
0.0
 10
100.8706732603726
 20
-153.8028428434937
 30
0.0
 10
100.9151149921323
 20
-153.8028428434937
 30
0.0
 10
101.2980373553178
 20
-153.8111110726583
 30
0.0
 10
101.2346475983892
 20
-153.7160264372654
 30
0.0
 10
101.2070868345072
 20
-153.6884656733834
 30
0.0
 10
101.1710855866864
 20
-153.6526366803368
 30
0.0
 10
101.1710855866864
 20
-153.6526366803368
 30
0.0
 10
101.3467854564341
 20
-153.5699543886908
 30
0.0
 10
101.3467854564341
 20
-153.5699543886908
 30
0.0
 10
101.3869208188373
 20
-153.606127891286
 30
0.0
 10
101.431362550597
 20
-153.6485025657545
 30
0.0
 10
101.5054321035299
 20
-153.758401111734
 30
0.0
 10
101.5054321035299
 20
-153.758401111734
 30
0.0
 10
101.3912271881938
 20
-153.8131781299495
 30
0.0
 10
101.3912271881938
 20
-153.8131781299495
 30
0.0
 10
101.3912271881938
 20
-153.8131781299495
 30
0.0
 10
101.4017347294239
 20
-153.8131781299495
 30
0.0
 10
101.4017347294239
 20
-153.8131781299495
 30
0.0
 10
101.4017347294239
 20
-153.8131781299495
 30
0.0
 10
101.924183459762
 20
-153.8131781299495
 30
0.0
 10
101.924183459762
 20
-153.8131781299495
 30
0.0
 10
101.924183459762
 20
-153.8131781299495
 30
0.0
 10
101.8290988243691
 20
-153.7690809077383
 30
0.0
 10
101.8290988243691
 20
-153.7690809077383
 30
0.0
 10
101.8566595882511
 20
-153.730840347852
 30
0.0
 10
101.913675918532
 20
-153.6505696230457
 30
0.0
 10
101.9284898291185
 20
-153.5765000701128
 30
0.0
 10
101.9284898291185
 20
-153.5765000701128
 30
0.0
 10
102.142085749204
 20
-153.6398898270414
 30
0.0
 10
102.142085749204
 20
-153.6398898270414
 30
0.0
 10
102.1506984879172
 20
-153.6419568843326
 30
0.0
 10
102.1717135703772
 20
-153.6526366803368
 30
0.0
 10
102.1717135703772
 20
-153.6736517627969
 30
0.0
 10
102.1717135703772
 20
-153.7118923226831
 30
0.0
 10
102.1062567561574
 20
-153.7118923226831
 30
0.0
 10
102.0871364762143
 20
-153.7118923226831
 30
0.0
 10
102.0766289349843
 20
-153.730840347852
 30
0.0
 10
102.0533745404589
 20
-153.7711479650294
 30
0.0
 10
102.0237467192857
 20
-153.8111110726583
 30
0.0
 10
102.4235500503489
 20
-153.8049099007849
 30
0.0
 10
102.4531778715221
 20
-153.8028428434937
 30
0.0
 10
102.5293144817461
 20
-153.7962971620717
 30
0.0
 10
102.5293144817461
 20
-153.7962971620717
 30
0.0
 10
102.5293144817461
 20
-153.9781982036929
 30
0.0
 10
102.5293144817461
 20
-153.9781982036929
 30
0.0
 10
102.510194201803
 20
-153.9781982036929
 30
0.0
 10
102.4848727499864
 20
-153.9761311464018
 30
0.0
 10
102.2649034032532
 20
-153.9678629172372
 30
0.0
 10
102.2140882448458
 20
-153.9657958599461
 30
0.0
 10
101.9941188981126
 20
-153.9613172358152
 30
0.0
 10
101.9496771663528
 20
-153.9613172358152
 30
0.0
 10
101.9496771663528
 20
-153.9613172358152
 30
0.0
 10
101.7338419342019
 20
-153.9613172358152
 30
0.0
 10
101.7338419342019
 20
-153.9613172358152
 30
0.0
 10
101.7338419342019
 20
-153.9613172358152
 30
0.0
 10
101.7338419342019
 20
-154.0798285205078
 30
0.0
 10
101.7338419342019
 20
-154.0798285205078
 30
0.0
 10
101.7338419342019
 20
-154.0798285205078
 30
0.0
 10
101.9073024918843
 20
-154.0798285205078
 30
0.0
 10
101.9073024918843
 20
-154.0798285205078
 30
0.0
 10
102.0702555083366
 20
-154.0798285205078
 30
0.0
 10
102.2605970338966
 20
-154.0798285205078
 30
0.0
 10
102.4171766237012
 20
-154.0694932340521
 30
0.0
 10
102.4171766237012
 20
-154.0694932340521
 30
0.0
 10
102.4171766237012
 20
-154.240714479669
 30
0.0
 10
102.4171766237012
 20
-154.240714479669
 30
0.0
 10
102.2077148181981
 20
-154.2321017409558
 30
0.0
 10
102.0109998659903
 20
-154.2300346836647
 30
0.0
 10
101.9073024918843
 20
-154.2300346836647
 30
0.0
 10
101.9073024918843
 20
-154.2300346836647
 30
0.0
 10
101.7338419342019
 20
-154.2300346836647
 30
0.0
 10
101.7338419342019
 20
-154.2300346836647
 30
0.0
 10
101.7338419342019
 20
-154.2300346836647
 30
0.0
 10
101.7338419342019
 20
-154.337866172353
 30
0.0
 10
101.7338419342019
 20
-154.337866172353
 30
0.0
 10
101.7338419342019
 20
-154.337866172353
 30
0.0
 10
101.9644910769394
 20
-154.337866172353
 30
0.0
 10
101.9644910769394
 20
-154.337866172353
 30
0.0
 10
102.0978162722186
 20
-154.337866172353
 30
0.0
 10
102.385481745237
 20
-154.3337320577707
 30
0.0
 10
102.5949435507401
 20
-154.3275308858973
 30
0.0
 10
102.5949435507401
 20
-154.3275308858973
 30
0.0
 10
102.5949435507401
 20
-154.5049533033876
 30
0.0
 10
102.5949435507401
 20
-154.5049533033876
 30
0.0
 10
102.4023627131147
 20
-154.4987521315142
 30
0.0
 10
102.0892035335055
 20
-154.4946180169319
 30
0.0
 10
101.9644910769394
 20
-154.4946180169319
 30
0.0
  0
HATCH
  5
113
330
107
100
AcDbEntity
  8
レイヤー 1
 62
    18
420
        0
440
 33554687
100
AcDbHatch
 10
0.0
 20
0.0
 30
0.0
210
0.0
220
0.0
230
1.0
  2
SOLID
 70
     1
 71
     1
 91
        4
 92
        1
 93
        1
 72
     4
 94
        3
 73
     0
 74
     0
 95
       17
 96
       13
 40
0.0
 40
0.0
 40
0.0
 40
0.0
 40
1.0
 40
1.0
 40
1.0
 40
2.0
 40
2.0
 40
2.0
 40
3.0
 40
3.0
 40
3.0
 40
4.0
 40
4.0
 40
4.0
 40
4.0
 10
102.1295111506829
 20
-155.2263562979989
 10
102.1295111506829
 20
-155.2263562979989
 10
101.4229220666581
 20
-155.2263562979989
 10
101.4229220666581
 20
-155.2263562979989
 10
101.4229220666581
 20
-155.2263562979989
 10
101.4229220666581
 20
-155.3407334681093
 10
101.4229220666581
 20
-155.3407334681093
 10
101.4229220666581
 20
-155.3407334681093
 10
102.1295111506829
 20
-155.3407334681093
 10
102.1295111506829
 20
-155.3407334681093
 10
102.1295111506829
 20
-155.3407334681093
 10
102.1295111506829
 20
-155.2263562979989
 10
102.1295111506829
 20
-155.2263562979989
 97
        0
 97
        1
330
10F
 92
        1
 93
        1
 72
     4
 94
        3
 73
     0
 74
     0
 95
       17
 96
       13
 40
0.0
 40
0.0
 40
0.0
 40
0.0
 40
1.0
 40
1.0
 40
1.0
 40
2.0
 40
2.0
 40
2.0
 40
3.0
 40
3.0
 40
3.0
 40
4.0
 40
4.0
 40
4.0
 40
4.0
 10
102.1295111506829
 20
-154.9831325567403
 10
102.1295111506829
 20
-154.9831325567403
 10
101.4229220666581
 20
-154.9831325567403
 10
101.4229220666581
 20
-154.9831325567403
 10
101.4229220666581
 20
-154.9831325567403
 10
101.4229220666581
 20
-155.0975097268506
 10
101.4229220666581
 20
-155.0975097268506
 10
101.4229220666581
 20
-155.0975097268506
 10
102.1295111506829
 20
-155.0975097268506
 10
102.1295111506829
 20
-155.0975097268506
 10
102.1295111506829
 20
-155.0975097268506
 10
102.1295111506829
 20
-154.9831325567403
 10
102.1295111506829
 20
-154.9831325567403
 97
        0
 97
        1
330
110
 92
        1
 93
        1
 72
     4
 94
        3
 73
     0
 74
     0
 95
       17
 96
       13
 40
0.0
 40
0.0
 40
0.0
 40
0.0
 40
1.0
 40
1.0
 40
1.0
 40
2.0
 40
2.0
 40
2.0
 40
3.0
 40
3.0
 40
3.0
 40
4.0
 40
4.0
 40
4.0
 40
4.0
 10
102.1295111506829
 20
-154.7505886114859
 10
102.1295111506829
 20
-154.7505886114859
 10
101.4229220666581
 20
-154.7505886114859
 10
101.4229220666581
 20
-154.7505886114859
 10
101.4229220666581
 20
-154.7505886114859
 10
101.4229220666581
 20
-154.8584201001743
 10
101.4229220666581
 20
-154.8584201001743
 10
101.4229220666581
 20
-154.8584201001743
 10
102.1295111506829
 20
-154.8584201001743
 10
102.1295111506829
 20
-154.8584201001743
 10
102.1295111506829
 20
-154.8584201001743
 10
102.1295111506829
 20
-154.7505886114859
 10
102.1295111506829
 20
-154.7505886114859
 97
        0
 97
        1
330
111
 92
        1
 93
        1
 72
     4
 94
        3
 73
     0
 74
     0
 95
      203
 96
      199
 40
0.0
 40
0.0
 40
0.0
 40
0.0
 40
1.0
 40
1.0
 40
1.0
 40
2.0
 40
2.0
 40
2.0
 40
3.0
 40
3.0
 40
3.0
 40
4.0
 40
4.0
 40
4.0
 40
5.0
 40
5.0
 40
5.0
 40
6.0
 40
6.0
 40
6.0
 40
7.0
 40
7.0
 40
7.0
 40
8.0
 40
8.0
 40
8.0
 40
9.0
 40
9.0
 40
9.0
 40
10.0
 40
10.0
 40
10.0
 40
11.0
 40
11.0
 40
11.0
 40
12.0
 40
12.0
 40
12.0
 40
13.0
 40
13.0
 40
13.0
 40
14.0
 40
14.0
 40
14.0
 40
15.0
 40
15.0
 40
15.0
 40
16.0
 40
16.0
 40
16.0
 40
17.0
 40
17.0
 40
17.0
 40
18.0
 40
18.0
 40
18.0
 40
19.0
 40
19.0
 40
19.0
 40
20.0
 40
20.0
 40
20.0
 40
21.0
 40
21.0
 40
21.0
 40
22.0
 40
22.0
 40
22.0
 40
23.0
 40
23.0
 40
23.0
 40
24.0
 40
24.0
 40
24.0
 40
25.0
 40
25.0
 40
25.0
 40
26.0
 40
26.0
 40
26.0
 40
27.0
 40
27.0
 40
27.0
 40
28.0
 40
28.0
 40
28.0
 40
29.0
 40
29.0
 40
29.0
 40
30.0
 40
30.0
 40
30.0
 40
31.0
 40
31.0
 40
31.0
 40
32.0
 40
32.0
 40
32.0
 40
33.0
 40
33.0
 40
33.0
 40
34.0
 40
34.0
 40
34.0
 40
35.0
 40
35.0
 40
35.0
 40
36.0
 40
36.0
 40
36.0
 40
37.0
 40
37.0
 40
37.0
 40
38.0
 40
38.0
 40
38.0
 40
39.0
 40
39.0
 40
39.0
 40
40.0
 40
40.0
 40
40.0
 40
41.0
 40
41.0
 40
41.0
 40
42.0
 40
42.0
 40
42.0
 40
43.0
 40
43.0
 40
43.0
 40
44.0
 40
44.0
 40
44.0
 40
45.0
 40
45.0
 40
45.0
 40
46.0
 40
46.0
 40
46.0
 40
47.0
 40
47.0
 40
47.0
 40
48.0
 40
48.0
 40
48.0
 40
49.0
 40
49.0
 40
49.0
 40
50.0
 40
50.0
 40
50.0
 40
51.0
 40
51.0
 40
51.0
 40
52.0
 40
52.0
 40
52.0
 40
53.0
 40
53.0
 40
53.0
 40
54.0
 40
54.0
 40
54.0
 40
55.0
 40
55.0
 40
55.0
 40
56.0
 40
56.0
 40
56.0
 40
57.0
 40
57.0
 40
57.0
 40
58.0
 40
58.0
 40
58.0
 40
59.0
 40
59.0
 40
59.0
 40
60.0
 40
60.0
 40
60.0
 40
61.0
 40
61.0
 40
61.0
 40
62.0
 40
62.0
 40
62.0
 40
63.0
 40
63.0
 40
63.0
 40
64.0
 40
64.0
 40
64.0
 40
65.0
 40
65.0
 40
65.0
 40
66.0
 40
66.0
 40
66.0
 40
66.0
 10
101.9644910769394
 20
-154.4946180169319
 10
101.9644910769394
 20
-154.4946180169319
 10
101.4060410987804
 20
-154.4946180169319
 10
101.4060410987804
 20
-154.4946180169319
 10
101.3953613027761
 20
-154.5390597486916
 10
101.3869208188373
 20
-154.5707546271559
 10
101.3741739655418
 20
-154.6086506774936
 10
101.3996676721327
 20
-154.6086506774936
 10
101.4144815827193
 20
-154.6110622443333
 10
101.420855009367
 20
-154.6110622443333
 10
101.420855009367
 20
-154.6110622443333
 10
101.6091294776359
 20
-154.6110622443333
 10
101.6091294776359
 20
-154.6110622443333
 10
101.6091294776359
 20
-154.6110622443333
 10
101.9834391021083
 20
-154.6110622443333
 10
101.9834391021083
 20
-154.6110622443333
 10
102.0342542605157
 20
-154.6110622443333
 10
102.3177856189518
 20
-154.5983153910379
 10
102.3494804974161
 20
-154.5983153910379
 10
102.3474134401249
 20
-154.6255316453714
 10
102.3451741280595
 20
-154.6448241800888
 10
102.3451741280595
 20
-154.6744520012619
 10
102.3431070707684
 20
-154.7061468797262
 10
102.3431070707684
 20
-154.8415391322965
 10
102.3431070707684
 20
-154.8690998961785
 10
102.3431070707684
 20
-154.8690998961785
 10
102.3431070707684
 20
-155.1143906947283
 10
102.3431070707684
 20
-155.1143906947283
 10
102.3431070707684
 20
-155.1588324264881
 10
102.3474134401249
 20
-155.3555473786958
 10
102.3515475547072
 20
-155.5078205991439
 10
102.3515475547072
 20
-155.5078205991439
 10
102.1252047813263
 20
-155.5078205991439
 10
102.1252047813263
 20
-155.5078205991439
 10
102.1252047813263
 20
-155.5078205991439
 10
102.1274440933917
 20
-155.4740586633884
 10
102.1274440933917
 20
-155.4740586633884
 10
102.1274440933917
 20
-155.4740586633884
 10
101.4249891239493
 20
-155.4740586633884
 10
101.4249891239493
 20
-155.4740586633884
 10
101.4249891239493
 20
-155.4740586633884
 10
101.4270561812404
 20
-155.5078205991439
 10
101.4270561812404
 20
-155.5078205991439
 10
101.4270561812404
 20
-155.5078205991439
 10
101.2091538917984
 20
-155.5078205991439
 10
101.2091538917984
 20
-155.5078205991439
 10
101.213460261155
 20
-155.4526990713799
 10
101.213460261155
 20
-155.4402967276329
 10
101.2198336878027
 20
-155.3259195575227
 10
101.2219007450938
 20
-155.2983587936407
 10
101.223967802385
 20
-155.1650335983615
 10
101.223967802385
 20
-155.1460855731926
 10
101.223967802385
 20
-155.1460855731926
 10
101.223967802385
 20
-154.9431694491114
 10
101.223967802385
 20
-154.9431694491114
 10
101.0844414352323
 20
-155.1925943622435
 10
100.9151149921323
 20
-155.3238525002315
 10
100.8093505607351
 20
-155.3893093144513
 10
100.8093505607351
 20
-155.3893093144513
 10
100.6358900030528
 20
-155.2497829472987
 10
100.6358900030528
 20
-155.2497829472987
 10
100.7247734665723
 20
-155.1991400436655
 10
100.8686062030814
 20
-155.1123236374372
 10
101.0060655129429
 20
-154.9176757425206
 10
101.0971882885278
 20
-154.7905517191148
 10
101.1626451027475
 20
-154.6468912373799
 10
101.1965792932772
 20
-154.4946180169319
 10
100.9679972078309
 20
-154.496685074223
 10
100.7881632235009
 20
-154.5028862460965
 10
100.693078588108
 20
-154.5049533033876
 10
100.693078588108
 20
-154.5049533033876
 10
100.693078588108
 20
-154.3275308858973
 10
100.693078588108
 20
-154.3275308858973
 10
100.8897935403157
 20
-154.3337320577707
 10
101.1733248987518
 20
-154.337866172353
 10
101.3235310619087
 20
-154.337866172353
 10
101.3235310619087
 20
-154.337866172353
 10
101.5371269819942
 20
-154.337866172353
 10
101.5371269819942
 20
-154.337866172353
 10
101.5371269819942
 20
-154.337866172353
 10
101.5371269819942
 20
-154.2300346836647
 10
101.5371269819942
 20
-154.2300346836647
 10
101.5371269819942
 20
-154.2300346836647
 10
101.3912271881938
 20
-154.2300346836647
 10
101.3912271881938
 20
-154.2300346836647
 10
101.2219007450938
 20
-154.2300346836647
 10
101.0527465567681
 20
-154.234168798247
 10
100.8854871709592
 20
-154.240714479669
 10
100.8854871709592
 20
-154.240714479669
 10
100.8854871709592
 20
-154.0694932340521
 10
100.8854871709592
 20
-154.0694932340521
 10
101.0399997034726
 20
-154.0798285205078
 10
101.2262071144504
 20
-154.0798285205078
 10
101.3912271881938
 20
-154.0798285205078
 10
101.3912271881938
 20
-154.0798285205078
 10
101.5371269819942
 20
-154.0798285205078
 10
101.5371269819942
 20
-154.0798285205078
 10
101.5371269819942
 20
-154.0798285205078
 10
101.5371269819942
 20
-153.9613172358152
 10
101.5371269819942
 20
-153.9613172358152
 10
101.5371269819942
 20
-153.9613172358152
 10
101.4060410987804
 20
-153.9613172358152
 10
101.4060410987804
 20
-153.9613172358152
 10
101.3593600549553
 20
-153.9613172358152
 10
101.1562716760998
 20
-153.9699299745283
 10
101.1140692564055
 20
-153.9699299745283
 10
100.91098087755
 20
-153.9740640891106
 10
100.834844267326
 20
-153.9761311464018
 10
100.7564683450365
 20
-153.9781982036929
 10
100.7564683450365
 20
-153.9781982036929
 10
100.7564683450365
 20
-153.7942301047806
 10
100.7564683450365
 20
-153.7942301047806
 10
100.8706732603726
 20
-153.8028428434937
 10
100.9151149921323
 20
-153.8028428434937
 10
101.2980373553178
 20
-153.8111110726583
 10
101.2346475983892
 20
-153.7160264372654
 10
101.2070868345072
 20
-153.6884656733834
 10
101.1710855866864
 20
-153.6526366803368
 10
101.1710855866864
 20
-153.6526366803368
 10
101.3467854564341
 20
-153.5699543886908
 10
101.3467854564341
 20
-153.5699543886908
 10
101.3869208188373
 20
-153.606127891286
 10
101.431362550597
 20
-153.6485025657545
 10
101.5054321035299
 20
-153.758401111734
 10
101.5054321035299
 20
-153.758401111734
 10
101.3912271881938
 20
-153.8131781299495
 10
101.3912271881938
 20
-153.8131781299495
 10
101.3912271881938
 20
-153.8131781299495
 10
101.4017347294239
 20
-153.8131781299495
 10
101.4017347294239
 20
-153.8131781299495
 10
101.4017347294239
 20
-153.8131781299495
 10
101.924183459762
 20
-153.8131781299495
 10
101.924183459762
 20
-153.8131781299495
 10
101.924183459762
 20
-153.8131781299495
 10
101.8290988243691
 20
-153.7690809077383
 10
101.8290988243691
 20
-153.7690809077383
 10
101.8566595882511
 20
-153.730840347852
 10
101.913675918532
 20
-153.6505696230457
 10
101.9284898291185
 20
-153.5765000701128
 10
101.9284898291185
 20
-153.5765000701128
 10
102.142085749204
 20
-153.6398898270414
 10
102.142085749204
 20
-153.6398898270414
 10
102.1506984879172
 20
-153.6419568843326
 10
102.1717135703772
 20
-153.6526366803368
 10
102.1717135703772
 20
-153.6736517627969
 10
102.1717135703772
 20
-153.7118923226831
 10
102.1062567561574
 20
-153.7118923226831
 10
102.0871364762143
 20
-153.7118923226831
 10
102.0766289349843
 20
-153.730840347852
 10
102.0533745404589
 20
-153.7711479650294
 10
102.0237467192857
 20
-153.8111110726583
 10
102.4235500503489
 20
-153.8049099007849
 10
102.4531778715221
 20
-153.8028428434937
 10
102.5293144817461
 20
-153.7962971620717
 10
102.5293144817461
 20
-153.7962971620717
 10
102.5293144817461
 20
-153.9781982036929
 10
102.5293144817461
 20
-153.9781982036929
 10
102.510194201803
 20
-153.9781982036929
 10
102.4848727499864
 20
-153.9761311464018
 10
102.2649034032532
 20
-153.9678629172372
 10
102.2140882448458
 20
-153.9657958599461
 10
101.9941188981126
 20
-153.9613172358152
 10
101.9496771663528
 20
-153.9613172358152
 10
101.9496771663528
 20
-153.9613172358152
 10
101.7338419342019
 20
-153.9613172358152
 10
101.7338419342019
 20
-153.9613172358152
 10
101.7338419342019
 20
-153.9613172358152
 10
101.7338419342019
 20
-154.0798285205078
 10
101.7338419342019
 20
-154.0798285205078
 10
101.7338419342019
 20
-154.0798285205078
 10
101.9073024918843
 20
-154.0798285205078
 10
101.9073024918843
 20
-154.0798285205078
 10
102.0702555083366
 20
-154.0798285205078
 10
102.2605970338966
 20
-154.0798285205078
 10
102.4171766237012
 20
-154.0694932340521
 10
102.4171766237012
 20
-154.0694932340521
 10
102.4171766237012
 20
-154.240714479669
 10
102.4171766237012
 20
-154.240714479669
 10
102.2077148181981
 20
-154.2321017409558
 10
102.0109998659903
 20
-154.2300346836647
 10
101.9073024918843
 20
-154.2300346836647
 10
101.9073024918843
 20
-154.2300346836647
 10
101.7338419342019
 20
-154.2300346836647
 10
101.7338419342019
 20
-154.2300346836647
 10
101.7338419342019
 20
-154.2300346836647
 10
101.7338419342019
 20
-154.337866172353
 10
101.7338419342019
 20
-154.337866172353
 10
101.7338419342019
 20
-154.337866172353
 10
101.9644910769394
 20
-154.337866172353
 10
101.9644910769394
 20
-154.337866172353
 10
102.0978162722186
 20
-154.337866172353
 10
102.385481745237
 20
-154.3337320577707
 10
102.5949435507401
 20
-154.3275308858973
 10
102.5949435507401
 20
-154.3275308858973
 10
102.5949435507401
 20
-154.5049533033876
 10
102.5949435507401
 20
-154.5049533033876
 10
102.4023627131147
 20
-154.4987521315142
 10
102.0892035335055
 20
-154.4946180169319
 10
101.9644910769394
 20
-154.4946180169319
 97
        0
 97
        1
330
112
 75
     2
 76
     1
 98
        1
 10
0.0
 20
0.0
450
        0
451
        0
460
0.0
461
0.0
452
        0
462
0.0
453
        0
470

  0
SPLINE
  5
114
330
107
100
AcDbEntity
  8
レイヤー 1
100
AcDbSpline
210
0.0
220
0.0
230
1.0
 70
     9
 71
     3
 72
    29
 73
    25
 74
     0
 42
0.0000000001
 43
0.0000000001
 40
0.0
 40
0.0
 40
0.0
 40
0.0
 40
1.0
 40
1.0
 40
1.0
 40
2.0
 40
2.0
 40
2.0
 40
3.0
 40
3.0
 40
3.0
 40
4.0
 40
4.0
 40
4.0
 40
5.0
 40
5.0
 40
5.0
 40
6.0
 40
6.0
 40
6.0
 40
7.0
 40
7.0
 40
7.0
 40
8.0
 40
8.0
 40
8.0
 40
8.0
 10
103.8400010591094
 20
-153.9423692106463
 30
0.0
 10
103.8400010591094
 20
-153.9423692106463
 30
0.0
 10
103.4867065170971
 20
-153.9423692106463
 30
0.0
 10
103.4867065170971
 20
-153.9423692106463
 30
0.0
 10
103.3745686590522
 20
-153.9423692106463
 30
0.0
 10
103.2348700371253
 20
-153.9489148920683
 30
0.0
 10
103.127038548437
 20
-153.9613172358152
 30
0.0
 10
103.127038548437
 20
-153.9613172358152
 30
0.0
 10
103.127038548437
 20
-153.7267062332697
 30
0.0
 10
103.127038548437
 20
-153.7267062332697
 30
0.0
 10
103.2455498331296
 20
-153.7415201438563
 30
0.0
 10
103.4295179320419
 20
-153.7456542584386
 30
0.0
 10
103.4867065170971
 20
-153.7456542584386
 30
0.0
 10
103.4867065170971
 20
-153.7456542584386
 30
0.0
 10
103.8400010591094
 20
-153.7456542584386
 30
0.0
 10
103.8400010591094
 20
-153.7456542584386
 30
0.0
 10
103.8589490842783
 20
-153.7456542584386
 30
0.0
 10
104.0620374631338
 20
-153.7456542584386
 30
0.0
 10
104.2038031423518
 20
-153.7267062332697
 30
0.0
 10
104.2038031423518
 20
-153.7267062332697
 30
0.0
 10
104.2038031423518
 20
-153.9613172358152
 30
0.0
 10
104.2038031423518
 20
-153.9613172358152
 30
0.0
 10
104.0472235525472
 20
-153.9423692106463
 30
0.0
 10
103.8568820269871
 20
-153.9423692106463
 30
0.0
 10
103.8400010591094
 20
-153.9423692106463
 30
0.0
  0
SPLINE
  5
115
330
107
100
AcDbEntity
  8
レイヤー 1
100
AcDbSpline
210
0.0
220
0.0
230
1.0
 70
     9
 71
     3
 72
    47
 73
    43
 74
     0
 42
0.0000000001
 43
0.0000000001
 40
0.0
 40
0.0
 40
0.0
 40
0.0
 40
1.0
 40
1.0
 40
1.0
 40
2.0
 40
2.0
 40
2.0
 40
3.0
 40
3.0
 40
3.0
 40
4.0
 40
4.0
 40
4.0
 40
5.0
 40
5.0
 40
5.0
 40
6.0
 40
6.0
 40
6.0
 40
7.0
 40
7.0
 40
7.0
 40
8.0
 40
8.0
 40
8.0
 40
9.0
 40
9.0
 40
9.0
 40
10.0
 40
10.0
 40
10.0
 40
11.0
 40
11.0
 40
11.0
 40
12.0
 40
12.0
 40
12.0
 40
13.0
 40
13.0
 40
13.0
 40
14.0
 40
14.0
 40
14.0
 40
14.0
 10
103.94145912115
 20
-154.4711913676322
 30
0.0
 10
103.94145912115
 20
-154.4711913676322
 30
0.0
 10
103.8400010591094
 20
-154.4711913676322
 30
0.0
 10
103.8400010591094
 20
-154.4711913676322
 30
0.0
 10
103.8400010591094
 20
-154.5580077738605
 30
0.0
 10
103.8188137218751
 20
-154.9473035636937
 30
0.0
 10
103.6220987696674
 20
-155.1671006556527
 30
0.0
 10
103.4696532944451
 20
-155.3365993535269
 30
0.0
 10
103.2624308010073
 20
-155.406190282329
 30
0.0
 10
103.1778537068444
 20
-155.433751046211
 30
0.0
 10
103.1778537068444
 20
-155.433751046211
 30
0.0
 10
102.9832058119278
 20
-155.2666639151764
 30
0.0
 10
102.9832058119278
 20
-155.2666639151764
 30
0.0
 10
103.0805297593861
 20
-155.2539170618809
 30
0.0
 10
103.2560573743596
 20
-155.2308349221298
 30
0.0
 10
103.4443318426285
 20
-155.0423881990866
 30
0.0
 10
103.5184013955614
 20
-154.9703857034449
 30
0.0
 10
103.6220987696674
 20
-154.8308593362923
 30
0.0
 10
103.6220987696674
 20
-154.4711913676322
 30
0.0
 10
103.6220987696674
 20
-154.4711913676322
 30
0.0
 10
103.3914496269299
 20
-154.4711913676322
 30
0.0
 10
103.3914496269299
 20
-154.4711913676322
 30
0.0
 10
103.2052422159521
 20
-154.4711913676322
 30
0.0
 10
103.0190348049744
 20
-154.475669991763
 30
0.0
 10
102.8329996487709
 20
-154.4904839023496
 30
0.0
 10
102.8329996487709
 20
-154.4904839023496
 30
0.0
 10
102.8329996487709
 20
-154.2703423008421
 30
0.0
 10
102.8329996487709
 20
-154.2703423008421
 30
0.0
 10
103.0212741170398
 20
-154.2851562114287
 30
0.0
 10
103.306872532767
 20
-154.289290326011
 30
0.0
 10
103.3914496269299
 20
-154.289290326011
 30
0.0
 10
103.3914496269299
 20
-154.289290326011
 30
0.0
 10
103.94145912115
 20
-154.289290326011
 30
0.0
 10
103.94145912115
 20
-154.289290326011
 30
0.0
 10
103.9605794010932
 20
-154.289290326011
 30
0.0
 10
104.2778726952847
 20
-154.289290326011
 30
0.0
 10
104.5062825259567
 20
-154.2703423008421
 30
0.0
 10
104.5062825259567
 20
-154.2703423008421
 30
0.0
 10
104.5062825259567
 20
-154.4904839023496
 30
0.0
 10
104.5062825259567
 20
-154.4904839023496
 30
0.0
 10
104.3180080576878
 20
-154.475669991763
 30
0.0
 10
104.1297335894189
 20
-154.4711913676322
 30
0.0
 10
103.94145912115
 20
-154.4711913676322
 30
0.0
  0
HATCH
  5
116
330
107
100
AcDbEntity
  8
レイヤー 1
 62
    18
420
        0
440
 33554687
100
AcDbHatch
 10
0.0
 20
0.0
 30
0.0
210
0.0
220
0.0
230
1.0
  2
SOLID
 70
     1
 71
     1
 91
        2
 92
        1
 93
        1
 72
     4
 94
        3
 73
     0
 74
     0
 95
       29
 96
       25
 40
0.0
 40
0.0
 40
0.0
 40
0.0
 40
1.0
 40
1.0
 40
1.0
 40
2.0
 40
2.0
 40
2.0
 40
3.0
 40
3.0
 40
3.0
 40
4.0
 40
4.0
 40
4.0
 40
5.0
 40
5.0
 40
5.0
 40
6.0
 40
6.0
 40
6.0
 40
7.0
 40
7.0
 40
7.0
 40
8.0
 40
8.0
 40
8.0
 40
8.0
 10
103.8400010591094
 20
-153.9423692106463
 10
103.8400010591094
 20
-153.9423692106463
 10
103.4867065170971
 20
-153.9423692106463
 10
103.4867065170971
 20
-153.9423692106463
 10
103.3745686590522
 20
-153.9423692106463
 10
103.2348700371253
 20
-153.9489148920683
 10
103.127038548437
 20
-153.9613172358152
 10
103.127038548437
 20
-153.9613172358152
 10
103.127038548437
 20
-153.7267062332697
 10
103.127038548437
 20
-153.7267062332697
 10
103.2455498331296
 20
-153.7415201438563
 10
103.4295179320419
 20
-153.7456542584386
 10
103.4867065170971
 20
-153.7456542584386
 10
103.4867065170971
 20
-153.7456542584386
 10
103.8400010591094
 20
-153.7456542584386
 10
103.8400010591094
 20
-153.7456542584386
 10
103.8589490842783
 20
-153.7456542584386
 10
104.0620374631338
 20
-153.7456542584386
 10
104.2038031423518
 20
-153.7267062332697
 10
104.2038031423518
 20
-153.7267062332697
 10
104.2038031423518
 20
-153.9613172358152
 10
104.2038031423518
 20
-153.9613172358152
 10
104.0472235525472
 20
-153.9423692106463
 10
103.8568820269871
 20
-153.9423692106463
 10
103.8400010591094
 20
-153.9423692106463
 97
        0
 97
        1
330
114
 92
        1
 93
        1
 72
     4
 94
        3
 73
     0
 74
     0
 95
       47
 96
       43
 40
0.0
 40
0.0
 40
0.0
 40
0.0
 40
1.0
 40
1.0
 40
1.0
 40
2.0
 40
2.0
 40
2.0
 40
3.0
 40
3.0
 40
3.0
 40
4.0
 40
4.0
 40
4.0
 40
5.0
 40
5.0
 40
5.0
 40
6.0
 40
6.0
 40
6.0
 40
7.0
 40
7.0
 40
7.0
 40
8.0
 40
8.0
 40
8.0
 40
9.0
 40
9.0
 40
9.0
 40
10.0
 40
10.0
 40
10.0
 40
11.0
 40
11.0
 40
11.0
 40
12.0
 40
12.0
 40
12.0
 40
13.0
 40
13.0
 40
13.0
 40
14.0
 40
14.0
 40
14.0
 40
14.0
 10
103.94145912115
 20
-154.4711913676322
 10
103.94145912115
 20
-154.4711913676322
 10
103.8400010591094
 20
-154.4711913676322
 10
103.8400010591094
 20
-154.4711913676322
 10
103.8400010591094
 20
-154.5580077738605
 10
103.8188137218751
 20
-154.9473035636937
 10
103.6220987696674
 20
-155.1671006556527
 10
103.4696532944451
 20
-155.3365993535269
 10
103.2624308010073
 20
-155.406190282329
 10
103.1778537068444
 20
-155.433751046211
 10
103.1778537068444
 20
-155.433751046211
 10
102.9832058119278
 20
-155.2666639151764
 10
102.9832058119278
 20
-155.2666639151764
 10
103.0805297593861
 20
-155.2539170618809
 10
103.2560573743596
 20
-155.2308349221298
 10
103.4443318426285
 20
-155.0423881990866
 10
103.5184013955614
 20
-154.9703857034449
 10
103.6220987696674
 20
-154.8308593362923
 10
103.6220987696674
 20
-154.4711913676322
 10
103.6220987696674
 20
-154.4711913676322
 10
103.3914496269299
 20
-154.4711913676322
 10
103.3914496269299
 20
-154.4711913676322
 10
103.2052422159521
 20
-154.4711913676322
 10
103.0190348049744
 20
-154.475669991763
 10
102.8329996487709
 20
-154.4904839023496
 10
102.8329996487709
 20
-154.4904839023496
 10
102.8329996487709
 20
-154.2703423008421
 10
102.8329996487709
 20
-154.2703423008421
 10
103.0212741170398
 20
-154.2851562114287
 10
103.306872532767
 20
-154.289290326011
 10
103.3914496269299
 20
-154.289290326011
 10
103.3914496269299
 20
-154.289290326011
 10
103.94145912115
 20
-154.289290326011
 10
103.94145912115
 20
-154.289290326011
 10
103.9605794010932
 20
-154.289290326011
 10
104.2778726952847
 20
-154.289290326011
 10
104.5062825259567
 20
-154.2703423008421
 10
104.5062825259567
 20
-154.2703423008421
 10
104.5062825259567
 20
-154.4904839023496
 10
104.5062825259567
 20
-154.4904839023496
 10
104.3180080576878
 20
-154.475669991763
 10
104.1297335894189
 20
-154.4711913676322
 10
103.94145912115
 20
-154.4711913676322
 97
        0
 97
        1
330
115
 75
     2
 76
     1
 98
        1
 10
0.0
 20
0.0
450
        0
451
        0
460
0.0
461
0.0
452
        0
462
0.0
453
        0
470

  0
SPLINE
  5
117
330
107
100
AcDbEntity
  8
レイヤー 1
100
AcDbSpline
210
0.0
220
0.0
230
1.0
 70
     9
 71
     3
 72
    29
 73
    25
 74
     0
 42
0.0000000001
 43
0.0000000001
 40
0.0
 40
0.0
 40
0.0
 40
0.0
 40
1.0
 40
1.0
 40
1.0
 40
2.0
 40
2.0
 40
2.0
 40
3.0
 40
3.0
 40
3.0
 40
4.0
 40
4.0
 40
4.0
 40
5.0
 40
5.0
 40
5.0
 40
6.0
 40
6.0
 40
6.0
 40
7.0
 40
7.0
 40
7.0
 40
8.0
 40
8.0
 40
8.0
 40
8.0
 10
105.7871690273726
 20
-154.6341443840845
 30
0.0
 10
105.7871690273726
 20
-154.6341443840845
 30
0.0
 10
105.3027886021465
 20
-154.6341443840845
 30
0.0
 10
105.3027886021465
 20
-154.6341443840845
 30
0.0
 10
105.2752278382645
 20
-154.6341443840845
 30
0.0
 10
104.957934544073
 20
-154.6341443840845
 30
0.0
 10
104.7464056812787
 20
-154.6596380906754
 30
0.0
 10
104.7464056812787
 20
-154.6596380906754
 30
0.0
 10
104.7464056812787
 20
-154.4288166931636
 30
0.0
 10
104.7464056812787
 20
-154.4288166931636
 30
0.0
 10
104.9050523283744
 20
-154.4522433424633
 30
0.0
 10
105.0953938539345
 20
-154.4543103997545
 30
0.0
 10
105.3027886021465
 20
-154.4543103997545
 30
0.0
 10
105.3027886021465
 20
-154.4543103997545
 30
0.0
 10
105.7871690273726
 20
-154.4543103997545
 30
0.0
 10
105.7871690273726
 20
-154.4543103997545
 30
0.0
 10
105.9735486931246
 20
-154.4543103997545
 30
0.0
 10
106.1595838493281
 20
-154.4522433424633
 30
0.0
 10
106.3435519482405
 20
-154.4288166931636
 30
0.0
 10
106.3435519482405
 20
-154.4288166931636
 30
0.0
 10
106.3435519482405
 20
-154.6596380906754
 30
0.0
 10
106.3435519482405
 20
-154.6596380906754
 30
0.0
 10
106.1595838493281
 20
-154.6362114413757
 30
0.0
 10
105.9122259934872
 20
-154.6341443840845
 30
0.0
 10
105.7871690273726
 20
-154.6341443840845
 30
0.0
  0
HATCH
  5
118
330
107
100
AcDbEntity
  8
レイヤー 1
 62
    18
420
        0
440
 33554687
100
AcDbHatch
 10
0.0
 20
0.0
 30
0.0
210
0.0
220
0.0
230
1.0
  2
SOLID
 70
     1
 71
     1
 91
        1
 92
        1
 93
        1
 72
     4
 94
        3
 73
     0
 74
     0
 95
       29
 96
       25
 40
0.0
 40
0.0
 40
0.0
 40
0.0
 40
1.0
 40
1.0
 40
1.0
 40
2.0
 40
2.0
 40
2.0
 40
3.0
 40
3.0
 40
3.0
 40
4.0
 40
4.0
 40
4.0
 40
5.0
 40
5.0
 40
5.0
 40
6.0
 40
6.0
 40
6.0
 40
7.0
 40
7.0
 40
7.0
 40
8.0
 40
8.0
 40
8.0
 40
8.0
 10
105.7871690273726
 20
-154.6341443840845
 10
105.7871690273726
 20
-154.6341443840845
 10
105.3027886021465
 20
-154.6341443840845
 10
105.3027886021465
 20
-154.6341443840845
 10
105.2752278382645
 20
-154.6341443840845
 10
104.957934544073
 20
-154.6341443840845
 10
104.7464056812787
 20
-154.6596380906754
 10
104.7464056812787
 20
-154.6596380906754
 10
104.7464056812787
 20
-154.4288166931636
 10
104.7464056812787
 20
-154.4288166931636
 10
104.9050523283744
 20
-154.4522433424633
 10
105.0953938539345
 20
-154.4543103997545
 10
105.3027886021465
 20
-154.4543103997545
 10
105.3027886021465
 20
-154.4543103997545
 10
105.7871690273726
 20
-154.4543103997545
 10
105.7871690273726
 20
-154.4543103997545
 10
105.9735486931246
 20
-154.4543103997545
 10
106.1595838493281
 20
-154.4522433424633
 10
106.3435519482405
 20
-154.4288166931636
 10
106.3435519482405
 20
-154.4288166931636
 10
106.3435519482405
 20
-154.6596380906754
 10
106.3435519482405
 20
-154.6596380906754
 10
106.1595838493281
 20
-154.6362114413757
 10
105.9122259934872
 20
-154.6341443840845
 10
105.7871690273726
 20
-154.6341443840845
 97
        0
 97
        1
330
117
 75
     2
 76
     1
 98
        1
 10
0.0
 20
0.0
450
        0
451
        0
460
0.0
461
0.0
452
        0
462
0.0
453
        0
470

  0
SPLINE
  5
119
330
107
100
AcDbEntity
  8
レイヤー 1
100
AcDbSpline
210
0.0
220
0.0
230
1.0
 70
     9
 71
     3
 72
    47
 73
    43
 74
     0
 42
0.0000000001
 43
0.0000000001
 40
0.0
 40
0.0
 40
0.0
 40
0.0
 40
1.0
 40
1.0
 40
1.0
 40
2.0
 40
2.0
 40
2.0
 40
3.0
 40
3.0
 40
3.0
 40
4.0
 40
4.0
 40
4.0
 40
5.0
 40
5.0
 40
5.0
 40
6.0
 40
6.0
 40
6.0
 40
7.0
 40
7.0
 40
7.0
 40
8.0
 40
8.0
 40
8.0
 40
9.0
 40
9.0
 40
9.0
 40
10.0
 40
10.0
 40
10.0
 40
11.0
 40
11.0
 40
11.0
 40
12.0
 40
12.0
 40
12.0
 40
13.0
 40
13.0
 40
13.0
 40
14.0
 40
14.0
 40
14.0
 40
14.0
 10
108.0075330676162
 20
-154.0398654128789
 30
0.0
 10
107.9375976292656
 20
-154.3189181471842
 30
0.0
 10
107.8614610190416
 20
-154.6234645880802
 30
0.0
 10
107.5483018394324
 20
-154.9555717928583
 30
0.0
 10
107.3112792700471
 20
-155.2053412155389
 30
0.0
 10
107.0659884714974
 20
-155.3049044750626
 30
0.0
 10
106.9602240401002
 20
-155.3469346399827
 30
0.0
 10
106.9602240401002
 20
-155.3469346399827
 30
0.0
 10
106.7655761451836
 20
-155.1650335983615
 30
0.0
 10
106.7655761451836
 20
-155.1650335983615
 30
0.0
 10
106.9516113013871
 20
-155.1185248093106
 30
0.0
 10
107.3136908368868
 20
-155.0255072312089
 30
0.0
 10
107.6096245390698
 20
-154.5304470099785
 30
0.0
 10
107.770510498231
 20
-154.2637966194201
 30
0.0
 10
107.7832573515264
 20
-154.0905083165121
 30
0.0
 10
107.791525580691
 20
-153.9995577957015
 30
0.0
 10
107.791525580691
 20
-153.9995577957015
 30
0.0
 10
107.2861300730048
 20
-153.9995577957015
 30
0.0
 10
107.2861300730048
 20
-153.9995577957015
 30
0.0
 10
107.1676187883122
 20
-153.9995577957015
 30
0.0
 10
106.7466281200147
 20
-154.0185058208704
 30
0.0
 10
106.5943548995667
 20
-154.0291856168746
 30
0.0
 10
106.5943548995667
 20
-154.0291856168746
 30
0.0
 10
106.5943548995667
 20
-153.8197238113714
 30
0.0
 10
106.5943548995667
 20
-153.8197238113714
 30
0.0
 10
106.7359483240104
 20
-153.8324706646669
 30
0.0
 10
107.013278510573
 20
-153.8366047792492
 30
0.0
 10
107.129378228426
 20
-153.8366047792492
 30
0.0
 10
107.129378228426
 20
-153.8366047792492
 30
0.0
 10
107.4849120825038
 20
-153.8366047792492
 30
0.0
 10
107.4849120825038
 20
-153.8366047792492
 30
0.0
 10
107.5124728463858
 20
-153.8366047792492
 30
0.0
 10
107.6730142959984
 20
-153.834537721958
 30
0.0
 10
107.7832573515264
 20
-153.8197238113714
 30
0.0
 10
107.8404459365815
 20
-153.8131781299495
 30
0.0
 10
107.8573269044593
 20
-153.7942301047806
 30
0.0
 10
107.8804090442104
 20
-153.7711479650294
 30
0.0
 10
107.8804090442104
 20
-153.7711479650294
 30
0.0
 10
108.0688557672536
 20
-153.9213541281863
 30
0.0
 10
108.0688557672536
 20
-153.9213541281863
 30
0.0
 10
108.054041856667
 20
-153.9509819493595
 30
0.0
 10
108.0433620606628
 20
-153.9699299745283
 30
0.0
 10
108.0075330676162
 20
-154.0398654128789
 30
0.0
  0
HATCH
  5
11A
330
107
100
AcDbEntity
  8
レイヤー 1
 62
    18
420
        0
440
 33554687
100
AcDbHatch
 10
0.0
 20
0.0
 30
0.0
210
0.0
220
0.0
230
1.0
  2
SOLID
 70
     1
 71
     1
 91
        1
 92
        1
 93
        1
 72
     4
 94
        3
 73
     0
 74
     0
 95
       47
 96
       43
 40
0.0
 40
0.0
 40
0.0
 40
0.0
 40
1.0
 40
1.0
 40
1.0
 40
2.0
 40
2.0
 40
2.0
 40
3.0
 40
3.0
 40
3.0
 40
4.0
 40
4.0
 40
4.0
 40
5.0
 40
5.0
 40
5.0
 40
6.0
 40
6.0
 40
6.0
 40
7.0
 40
7.0
 40
7.0
 40
8.0
 40
8.0
 40
8.0
 40
9.0
 40
9.0
 40
9.0
 40
10.0
 40
10.0
 40
10.0
 40
11.0
 40
11.0
 40
11.0
 40
12.0
 40
12.0
 40
12.0
 40
13.0
 40
13.0
 40
13.0
 40
14.0
 40
14.0
 40
14.0
 40
14.0
 10
108.0075330676162
 20
-154.0398654128789
 10
107.9375976292656
 20
-154.3189181471842
 10
107.8614610190416
 20
-154.6234645880802
 10
107.5483018394324
 20
-154.9555717928583
 10
107.3112792700471
 20
-155.2053412155389
 10
107.0659884714974
 20
-155.3049044750626
 10
106.9602240401002
 20
-155.3469346399827
 10
106.9602240401002
 20
-155.3469346399827
 10
106.7655761451836
 20
-155.1650335983615
 10
106.7655761451836
 20
-155.1650335983615
 10
106.9516113013871
 20
-155.1185248093106
 10
107.3136908368868
 20
-155.0255072312089
 10
107.6096245390698
 20
-154.5304470099785
 10
107.770510498231
 20
-154.2637966194201
 10
107.7832573515264
 20
-154.0905083165121
 10
107.791525580691
 20
-153.9995577957015
 10
107.791525580691
 20
-153.9995577957015
 10
107.2861300730048
 20
-153.9995577957015
 10
107.2861300730048
 20
-153.9995577957015
 10
107.1676187883122
 20
-153.9995577957015
 10
106.7466281200147
 20
-154.0185058208704
 10
106.5943548995667
 20
-154.0291856168746
 10
106.5943548995667
 20
-154.0291856168746
 10
106.5943548995667
 20
-153.8197238113714
 10
106.5943548995667
 20
-153.8197238113714
 10
106.7359483240104
 20
-153.8324706646669
 10
107.013278510573
 20
-153.8366047792492
 10
107.129378228426
 20
-153.8366047792492
 10
107.129378228426
 20
-153.8366047792492
 10
107.4849120825038
 20
-153.8366047792492
 10
107.4849120825038
 20
-153.8366047792492
 10
107.5124728463858
 20
-153.8366047792492
 10
107.6730142959984
 20
-153.834537721958
 10
107.7832573515264
 20
-153.8197238113714
 10
107.8404459365815
 20
-153.8131781299495
 10
107.8573269044593
 20
-153.7942301047806
 10
107.8804090442104
 20
-153.7711479650294
 10
107.8804090442104
 20
-153.7711479650294
 10
108.0688557672536
 20
-153.9213541281863
 10
108.0688557672536
 20
-153.9213541281863
 10
108.054041856667
 20
-153.9509819493595
 10
108.0433620606628
 20
-153.9699299745283
 10
108.0075330676162
 20
-154.0398654128789
 97
        0
 97
        1
330
119
 75
     2
 76
     1
 98
        1
 10
0.0
 20
0.0
450
        0
451
        0
460
0.0
461
0.0
452
        0
462
0.0
453
        0
470

  0
SPLINE
  5
11B
330
107
100
AcDbEntity
  8
レイヤー 1
100
AcDbSpline
210
0.0
220
0.0
230
1.0
 70
    11
 71
     3
 72
    17
 73
    13
 74
     0
 42
0.0000000001
 43
0.0000000001
 40
0.0
 40
0.0
 40
0.0
 40
0.0
 40
1.0
 40
1.0
 40
1.0
 40
2.0
 40
2.0
 40
2.0
 40
3.0
 40
3.0
 40
3.0
 40
4.0
 40
4.0
 40
4.0
 40
4.0
 10
108.3975178765464
 20
-153.8217908686626
 30
0.0
 10
108.3975178765464
 20
-153.8810465110089
 30
0.0
 10
108.4443711751458
 20
-153.9275553000598
 30
0.0
 10
108.5032823079436
 20
-153.9275553000598
 30
0.0
 10
108.5625379502899
 20
-153.9275553000598
 30
0.0
 10
108.6114583061805
 20
-153.8810465110089
 30
0.0
 10
108.6114583061805
 20
-153.8217908686626
 30
0.0
 10
108.6114583061805
 20
-153.7625352263163
 30
0.0
 10
108.5625379502899
 20
-153.7139593799743
 30
0.0
 10
108.5032823079436
 20
-153.7139593799743
 30
0.0
 10
108.4443711751458
 20
-153.7139593799743
 30
0.0
 10
108.3975178765464
 20
-153.7625352263163
 30
0.0
 10
108.3975178765464
 20
-153.8217908686626
 30
0.0
  0
SPLINE
  5
11C
330
107
100
AcDbEntity
  8
レイヤー 1
100
AcDbSpline
210
0.0
220
0.0
230
1.0
 70
     9
 71
     3
 72
    17
 73
    13
 74
     0
 42
0.0000000001
 43
0.0000000001
 40
0.0
 40
0.0
 40
0.0
 40
0.0
 40
1.0
 40
1.0
 40
1.0
 40
2.0
 40
2.0
 40
2.0
 40
3.0
 40
3.0
 40
3.0
 40
4.0
 40
4.0
 40
4.0
 40
4.0
 10
108.7127441134468
 20
-153.8217908686626
 30
0.0
 10
108.7127441134468
 20
-153.9361680387729
 30
0.0
 10
108.6197265353451
 20
-154.0312526741658
 30
0.0
 10
108.5032823079436
 20
-154.0312526741658
 30
0.0
 10
108.3892496473818
 20
-154.0312526741658
 30
0.0
 10
108.2941650119889
 20
-153.9361680387729
 30
0.0
 10
108.2941650119889
 20
-153.8217908686626
 30
0.0
 10
108.2941650119889
 20
-153.7053466412612
 30
0.0
 10
108.3892496473818
 20
-153.6123290631594
 30
0.0
 10
108.5032823079436
 20
-153.6123290631594
 30
0.0
 10
108.6176594780539
 20
-153.6123290631594
 30
0.0
 10
108.7127441134468
 20
-153.7053466412612
 30
0.0
 10
108.7127441134468
 20
-153.8217908686626
 30
0.0
  0
HATCH
  5
11D
330
107
100
AcDbEntity
  8
レイヤー 1
 62
    18
420
        0
440
 33554687
100
AcDbHatch
 10
0.0
 20
0.0
 30
0.0
210
0.0
220
0.0
230
1.0
  2
SOLID
 70
     1
 71
     1
 91
        2
 92
        1
 93
        1
 72
     4
 94
        3
 73
     0
 74
     0
 95
       17
 96
       13
 40
0.0
 40
0.0
 40
0.0
 40
0.0
 40
1.0
 40
1.0
 40
1.0
 40
2.0
 40
2.0
 40
2.0
 40
3.0
 40
3.0
 40
3.0
 40
4.0
 40
4.0
 40
4.0
 40
4.0
 10
108.3975178765464
 20
-153.8217908686626
 10
108.3975178765464
 20
-153.8810465110089
 10
108.4443711751458
 20
-153.9275553000598
 10
108.5032823079436
 20
-153.9275553000598
 10
108.5625379502899
 20
-153.9275553000598
 10
108.6114583061805
 20
-153.8810465110089
 10
108.6114583061805
 20
-153.8217908686626
 10
108.6114583061805
 20
-153.7625352263163
 10
108.5625379502899
 20
-153.7139593799743
 10
108.5032823079436
 20
-153.7139593799743
 10
108.4443711751458
 20
-153.7139593799743
 10
108.3975178765464
 20
-153.7625352263163
 10
108.3975178765464
 20
-153.8217908686626
 97
        0
 97
        1
330
11B
 92
        1
 93
        1
 72
     4
 94
        3
 73
     0
 74
     0
 95
       17
 96
       13
 40
0.0
 40
0.0
 40
0.0
 40
0.0
 40
1.0
 40
1.0
 40
1.0
 40
2.0
 40
2.0
 40
2.0
 40
3.0
 40
3.0
 40
3.0
 40
4.0
 40
4.0
 40
4.0
 40
4.0
 10
108.7127441134468
 20
-153.8217908686626
 10
108.7127441134468
 20
-153.9361680387729
 10
108.6197265353451
 20
-154.0312526741658
 10
108.5032823079436
 20
-154.0312526741658
 10
108.3892496473818
 20
-154.0312526741658
 10
108.2941650119889
 20
-153.9361680387729
 10
108.2941650119889
 20
-153.8217908686626
 10
108.2941650119889
 20
-153.7053466412612
 10
108.3892496473818
 20
-153.6123290631594
 10
108.5032823079436
 20
-153.6123290631594
 10
108.6176594780539
 20
-153.6123290631594
 10
108.7127441134468
 20
-153.7053466412612
 10
108.7127441134468
 20
-153.8217908686626
 97
        0
 97
        1
330
11C
 75
     2
 76
     1
 98
        1
 10
0.0
 20
0.0
450
        0
451
        0
460
0.0
461
0.0
452
        0
462
0.0
453
        0
470

  0
ENDBLK
  5
10A
330
107
100
AcDbEntity
  8
0
100
AcDbBlockEnd
  0
BLOCK
  5
120
330
11E
100
AcDbEntity
  8
0
100
AcDbBlockBegin
  2
Block_12
 70
     0
 10
0.0
 20
0.0
 30
0.0
  3
Block_12
  1

  0
INSERT
  5
123
330
11E
100
AcDbEntity
  8
レイヤー 1
100
AcDbBlockReference
  2
Block_13
 10
0.0
 20
0.0
 30
0.0
  0
LINE
  5
128
330
11E
100
AcDbEntity
  8
レイヤー 1
 62
    18
420
        0
370
     9
100
AcDbLine
 10
98.15257983827207
 20
-148.385503090195
 30
0.0
 11
102.9404091605688
 21
-153.3276375334034
 31
0.0
  0
ENDBLK
  5
121
330
11E
100
AcDbEntity
  8
0
100
AcDbBlockEnd
  0
BLOCK
  5
124
330
122
100
AcDbEntity
  8
0
100
AcDbBlockBegin
  2
Block_13
 70
     0
 10
0.0
 20
0.0
 30
0.0
  3
Block_13
  1

  0
LINE
  5
126
330
122
100
AcDbEntity
  8
レイヤー 1
 62
    18
420
        0
370
     9
100
AcDbLine
 10
98.11052872823376
 20
-148.3327980902081
 30
0.0
 11
98.96700259527218
 21
-148.8495469789677
 31
0.0
  0
LINE
  5
127
330
122
100
AcDbEntity
  8
レイヤー 1
 62
    18
420
        0
370
     9
100
AcDbLine
 10
98.59422232700515
 20
-149.2083572566555
 30
0.0
 11
98.11052872823376
 21
-148.3327980902081
 31
0.0
  0
ENDBLK
  5
125
330
122
100
AcDbEntity
  8
0
100
AcDbBlockEnd
  0
ENDSEC
  0
SECTION
  2
ENTITIES
  0
LINE
  5
79
330
70
100
AcDbEntity
  8
レイヤー 1
 62
    18
420
        0
370
    25
100
AcDbLine
 10
118.1218829399241
 20
-152.6691072557907
 30
0.0
 11
112.622148080234
 21
-152.6691072557907
 31
0.0
  0
LINE
  5
7A
330
70
100
AcDbEntity
  8
レイヤー 1
 62
    18
420
        0
370
    25
100
AcDbLine
 10
93.37215884911964
 20
-147.1688430904991
 30
0.0
 11
93.37215884911964
 21
-147.6690819792628
 31
0.0
  0
LINE
  5
7B
330
70
100
AcDbEntity
  8
レイヤー 1
 62
    18
420
        0
370
    25
100
AcDbLine
 10
113.4627469476775
 20
-147.6690819792628
 30
0.0
 11
93.37215884911964
 21
-147.6690819792628
 31
0.0
  0
LINE
  5
7C
330
70
100
AcDbEntity
  8
レイヤー 1
 62
    18
420
        0
370
    25
100
AcDbLine
 10
117.3708543479733
 20
-151.6690175338186
 30
0.0
 11
113.557820556363
 21
-151.6690175338186
 31
0.0
  0
LINE
  5
7D
330
70
100
AcDbEntity
  8
レイヤー 1
 62
    18
420
        0
370
    25
100
AcDbLine
 10
112.6752058566582
 20
-152.6691072557907
 30
0.0
 11
113.4627469476775
 21
-147.6690819792628
 31
0.0
  0
LINE
  5
7E
330
70
100
AcDbEntity
  8
レイヤー 1
 62
    18
420
        0
370
    25
100
AcDbLine
 10
113.557820556363
 20
-151.6690175338186
 30
0.0
 11
114.3736191466614
 21
-146.4068078129118
 31
0.0
  0
LINE
  5
7F
330
70
100
AcDbEntity
  8
レイヤー 1
 62
    18
420
        0
370
    25
100
AcDbLine
 10
93.37215884911964
 20
-147.1688430904991
 30
0.0
 11
93.88584075151278
 21
-147.5509014237368
 31
0.0
  0
LINE
  5
80
330
70
100
AcDbEntity
  8
レイヤー 1
 62
    18
420
        0
370
    25
100
AcDbLine
 10
93.88584075151278
 20
-147.5509014237368
 30
0.0
 11
94.37122549029799
 21
-147.1333889238412
 31
0.0
  0
LINE
  5
81
330
70
100
AcDbEntity
  8
レイヤー 1
 62
    18
420
        0
370
    25
100
AcDbLine
 10
94.88526019570757
 20
-147.5154472570792
 30
0.0
 11
95.37064490924512
 21
-147.0975467016279
 31
0.0
  0
LINE
  5
82
330
70
100
AcDbEntity
  8
レイヤー 1
 62
    18
420
        0
370
    25
100
AcDbLine
 10
94.37122549029799
 20
-147.1333889238412
 30
0.0
 11
94.88526019570757
 21
-147.5154472570792
 31
0.0
  0
LINE
  5
83
330
70
100
AcDbEntity
  8
レイヤー 1
 62
    18
420
        0
370
    25
100
AcDbLine
 10
95.37064490924512
 20
-147.0975467016279
 30
0.0
 11
95.88467963990202
 21
-147.4796050348659
 31
0.0
  0
LINE
  5
84
330
70
100
AcDbEntity
  8
レイヤー 1
 62
    18
420
        0
370
    25
100
AcDbLine
 10
95.88467963990202
 20
-147.4796050348659
 30
0.0
 11
96.37006432819227
 21
-147.0620572571924
 31
0.0
  0
LINE
  5
85
330
70
100
AcDbEntity
  8
レイヤー 1
 62
    18
420
        0
370
    25
100
AcDbLine
 10
96.37006432819227
 20
-147.0620572571924
 30
0.0
 11
96.88409908409649
 21
-147.4437628126527
 31
0.0
  0
LINE
  5
86
330
70
100
AcDbEntity
  8
レイヤー 1
 62
    18
420
        0
370
    25
100
AcDbLine
 10
96.88409908409649
 20
-147.4437628126527
 30
0.0
 11
97.36916852841966
 21
-147.0262150349792
 31
0.0
  0
LINE
  5
87
330
70
100
AcDbEntity
  8
レイヤー 1
 62
    18
420
        0
370
    25
100
AcDbLine
 10
97.36916852841966
 20
-147.0262150349792
 30
0.0
 11
97.8831657505135
 21
-147.4079558682172
 31
0.0
  0
LINE
  5
88
330
70
100
AcDbEntity
  8
レイヤー 1
 62
    18
420
        0
370
    25
100
AcDbLine
 10
97.8831657505135
 20
-147.4079558682172
 30
0.0
 11
98.3689407503922
 21
-146.9904080905438
 31
0.0
  0
LINE
  5
89
330
70
100
AcDbEntity
  8
レイヤー 1
 62
    18
420
        0
370
    25
100
AcDbLine
 10
98.3689407503922
 20
-146.9904080905438
 30
0.0
 11
98.88293797248572
 21
-147.3724664237814
 31
0.0
  0
LINE
  5
8A
330
70
100
AcDbEntity
  8
レイヤー 1
 62
    18
420
        0
370
    25
100
AcDbLine
 10
98.88293797248572
 20
-147.3724664237814
 30
0.0
 11
99.3680074168089
 21
-146.9549186461083
 31
0.0
  0
LINE
  5
8B
330
70
100
AcDbEntity
  8
レイヤー 1
 62
    18
420
        0
370
    25
100
AcDbLine
 10
99.3680074168089
 20
-146.9549186461083
 30
0.0
 11
99.88200463890274
 21
-147.336976979346
 31
0.0
  0
LINE
  5
8C
330
70
100
AcDbEntity
  8
レイヤー 1
 62
    18
420
        0
370
    25
100
AcDbLine
 10
99.88200463890274
 20
-147.336976979346
 30
0.0
 11
100.3670740832259
 21
-146.919076423895
 31
0.0
  0
LINE
  5
8D
330
70
100
AcDbEntity
  8
レイヤー 1
 62
    18
420
        0
370
    25
100
AcDbLine
 10
100.881104213106
 20
-147.3011347571327
 30
0.0
 11
101.3668463051981
 21
-146.8835869794595
 31
0.0
  0
LINE
  5
8E
330
70
100
AcDbEntity
  8
レイヤー 1
 62
    18
420
        0
370
    25
100
AcDbLine
 10
100.3670740832259
 20
-146.919076423895
 30
0.0
 11
100.881104213106
 21
-147.3011347571327
 31
0.0
  0
LINE
  5
8F
330
70
100
AcDbEntity
  8
レイヤー 1
 62
    18
420
        0
370
    25
100
AcDbLine
 10
101.3668463051981
 20
-146.8835869794595
 30
0.0
 11
101.880843527292
 21
-147.2653278126973
 31
0.0
  0
LINE
  5
90
330
70
100
AcDbEntity
  8
レイヤー 1
 62
    18
420
        0
370
    25
100
AcDbLine
 10
101.880843527292
 20
-147.2653278126973
 30
0.0
 11
102.3659129716151
 21
-146.8477800350238
 31
0.0
  0
LINE
  5
91
330
70
100
AcDbEntity
  8
レイヤー 1
 62
    18
420
        0
370
    25
100
AcDbLine
 10
102.8799430510003
 20
-147.229485590484
 30
0.0
 11
103.3656851935873
 21
-146.8119378128106
 31
0.0
  0
LINE
  5
92
330
70
100
AcDbEntity
  8
レイヤー 1
 62
    18
420
        0
370
    25
100
AcDbLine
 10
102.3659129716151
 20
-146.8477800350238
 30
0.0
 11
102.8799430510003
 21
-147.229485590484
 31
0.0
  0
LINE
  5
93
330
70
100
AcDbEntity
  8
レイヤー 1
 62
    18
420
        0
370
    25
100
AcDbLine
 10
103.8797152477162
 20
-147.1939961460483
 30
0.0
 11
104.3647846797855
 21
-146.7764483683751
 31
0.0
  0
LINE
  5
94
330
70
100
AcDbEntity
  8
レイヤー 1
 62
    18
420
        0
370
    25
100
AcDbLine
 10
103.3656851935873
 20
-146.8119378128106
 30
0.0
 11
103.8797152477162
 21
-147.1939961460483
 31
0.0
  0
LINE
  5
95
330
70
100
AcDbEntity
  8
レイヤー 1
 62
    18
420
        0
370
    25
100
AcDbLine
 10
104.3647846797855
 20
-146.7764483683751
 30
0.0
 11
104.8787818888945
 21
-147.1585067016128
 31
0.0
  0
LINE
  5
96
330
70
100
AcDbEntity
  8
レイヤー 1
 62
    18
420
        0
370
    25
100
AcDbLine
 10
104.8787818888945
 20
-147.1585067016128
 30
0.0
 11
105.3645240819766
 21
-146.7406414239393
 31
0.0
  0
LINE
  5
97
330
70
100
AcDbEntity
  8
レイヤー 1
 62
    18
420
        0
370
    25
100
AcDbLine
 10
105.3645240819766
 20
-146.7406414239393
 30
0.0
 11
105.8778485300732
 21
-147.1226997571774
 31
0.0
  0
LINE
  5
98
330
70
100
AcDbEntity
  8
レイヤー 1
 62
    18
420
        0
370
    25
100
AcDbLine
 10
105.8778485300732
 20
-147.1226997571774
 30
0.0
 11
106.3636235176801
 21
-146.7051519795039
 31
0.0
  0
LINE
  5
99
330
70
100
AcDbEntity
  8
レイヤー 1
 62
    18
420
        0
370
    25
100
AcDbLine
 10
106.3636235176801
 20
-146.7051519795039
 30
0.0
 11
106.8776207267891
 21
-147.0868575349641
 31
0.0
  0
LINE
  5
9A
330
70
100
AcDbEntity
  8
レイヤー 1
 62
    18
420
        0
370
    25
100
AcDbLine
 10
106.8776207267891
 20
-147.0868575349641
 30
0.0
 11
107.3626901588584
 21
-146.6693097572906
 31
0.0
  0
LINE
  5
9B
330
70
100
AcDbEntity
  8
レイヤー 1
 62
    18
420
        0
370
    25
100
AcDbLine
 10
107.3626901588584
 20
-146.6693097572906
 30
0.0
 11
107.8766873679675
 21
-147.0510505905287
 31
0.0
  0
LINE
  5
9C
330
70
100
AcDbEntity
  8
レイヤー 1
 62
    18
420
        0
370
    25
100
AcDbLine
 10
107.8766873679675
 20
-147.0510505905287
 30
0.0
 11
108.3624623555743
 21
-146.6335028128552
 31
0.0
  0
LINE
  5
9D
330
70
100
AcDbEntity
  8
レイヤー 1
 62
    18
420
        0
370
    25
100
AcDbLine
 10
108.3624623555743
 20
-146.6335028128552
 30
0.0
 11
108.8764595646834
 21
-147.0155611460932
 31
0.0
  0
LINE
  5
9E
330
70
100
AcDbEntity
  8
レイヤー 1
 62
    18
420
        0
370
    25
100
AcDbLine
 10
108.8764595646834
 20
-147.0155611460932
 30
0.0
 11
109.3615289967527
 21
-146.5980133684197
 31
0.0
  0
LINE
  5
9F
330
70
100
AcDbEntity
  8
レイヤー 1
 62
    18
420
        0
370
    25
100
AcDbLine
 10
109.3615289967527
 20
-146.5980133684197
 30
0.0
 11
109.8755614836386
 21
-146.9800717016574
 31
0.0
  0
LINE
  5
A0
330
70
100
AcDbEntity
  8
レイヤー 1
 62
    18
420
        0
370
    25
100
AcDbLine
 10
109.8755614836386
 20
-146.9800717016574
 30
0.0
 11
110.3613011934686
 21
-146.5621711462065
 31
0.0
  0
LINE
  5
A1
330
70
100
AcDbEntity
  8
レイヤー 1
 62
    18
420
        0
370
    25
100
AcDbLine
 10
110.3613011934686
 20
-146.5621711462065
 30
0.0
 11
110.8752984025777
 21
-146.9442294794442
 31
0.0
  0
LINE
  5
A2
330
70
100
AcDbEntity
  8
レイヤー 1
 62
    18
420
        0
370
    25
100
AcDbLine
 10
110.8752984025777
 20
-146.9442294794442
 30
0.0
 11
111.360367834647
 21
-146.526681701771
 31
0.0
  0
LINE
  5
A3
330
70
100
AcDbEntity
  8
レイヤー 1
 62
    18
420
        0
370
    25
100
AcDbLine
 10
111.360367834647
 20
-146.526681701771
 30
0.0
 11
111.8744003215329
 21
-146.9084225350087
 31
0.0
  0
LINE
  5
A4
330
70
100
AcDbEntity
  8
レイヤー 1
 62
    18
420
        0
370
    25
100
AcDbLine
 10
111.8744003215329
 20
-146.9084225350087
 30
0.0
 11
112.3594697536022
 21
-146.4908747573352
 31
0.0
  0
LINE
  5
A5
330
70
100
AcDbEntity
  8
レイヤー 1
 62
    18
420
        0
370
    25
100
AcDbLine
 10
112.3594697536022
 20
-146.4908747573352
 30
0.0
 11
112.8736433515956
 21
-146.8725803127955
 31
0.0
  0
LINE
  5
A6
330
70
100
AcDbEntity
  8
レイヤー 1
 62
    18
420
        0
370
    25
100
AcDbLine
 10
112.8736433515956
 20
-146.8725803127955
 30
0.0
 11
113.3593830614256
 21
-146.455032535122
 31
0.0
  0
LINE
  5
A7
330
70
100
AcDbEntity
  8
レイヤー 1
 62
    18
420
        0
370
    25
100
AcDbLine
 10
113.4334155484205
 20
-146.4068078129118
 30
0.0
 11
114.3736191466614
 21
-146.4068078129118
 31
0.0
  0
LINE
  5
A8
330
70
100
AcDbEntity
  8
レイヤー 1
 62
    18
420
        0
370
    25
100
AcDbLine
 10
117.3708543479733
 20
-151.6690175338186
 30
0.0
 11
117.3708543479733
 21
-146.4068078129118
 31
0.0
  0
LINE
  5
A9
330
70
100
AcDbEntity
  8
レイヤー 1
 62
    18
420
        0
370
    25
100
AcDbLine
 10
118.1218829399241
 20
-152.6691072557907
 30
0.0
 11
118.1225884954617
 21
-146.4068078129118
 31
0.0
  0
LINE
  5
AA
330
70
100
AcDbEntity
  8
レイヤー 1
 62
    18
420
        0
370
    25
100
AcDbLine
 10
117.3708543479733
 20
-146.4068078129118
 30
0.0
 11
118.1225884954617
 21
-146.4068078129118
 31
0.0
  0
SPLINE
  5
AB
330
70
100
AcDbEntity
  8
レイヤー 1
 62
    18
420
        0
370
     9
100
AcDbSpline
210
0.0
220
0.0
230
1.0
 70
     9
 71
     3
 72
    17
 73
    13
 74
     0
 42
0.0000000001
 43
0.0000000001
 40
0.0
 40
0.0
 40
0.0
 40
0.0
 40
1.0
 40
1.0
 40
1.0
 40
2.0
 40
2.0
 40
2.0
 40
3.0
 40
3.0
 40
3.0
 40
4.0
 40
4.0
 40
4.0
 40
4.0
 10
93.47206551323749
 20
-142.4066958694675
 30
0.0
 10
93.47206551323749
 20
-142.3515919805923
 30
0.0
 10
93.42729801437959
 20
-142.3067892028259
 30
0.0
 10
93.37215884911964
 20
-142.3067892028259
 30
0.0
 10
93.31670218386781
 20
-142.3067892028259
 30
0.0
 10
93.27189940723304
 20
-142.3515919805923
 30
0.0
 10
93.27189940723304
 20
-142.4066958694675
 30
0.0
 10
93.27189940723304
 20
-142.4621525361202
 30
0.0
 10
93.31670218386781
 20
-142.5066025361092
 30
0.0
 10
93.37215884911964
 20
-142.5066025361092
 30
0.0
 10
93.42729801437959
 20
-142.5066025361092
 30
0.0
 10
93.47206551323749
 20
-142.4621525361202
 30
0.0
 10
93.47206551323749
 20
-142.4066958694675
 30
0.0
  0
SPLINE
  5
AC
330
70
100
AcDbEntity
  8
レイヤー 1
 62
    18
420
        0
370
     9
100
AcDbSpline
210
0.0
220
0.0
230
1.0
 70
     9
 71
     3
 72
    17
 73
    13
 74
     0
 42
0.0000000001
 43
0.0000000001
 40
0.0
 40
0.0
 40
0.0
 40
0.0
 40
1.0
 40
1.0
 40
1.0
 40
2.0
 40
2.0
 40
2.0
 40
3.0
 40
3.0
 40
3.0
 40
4.0
 40
4.0
 40
4.0
 40
4.0
 10
89.47195367084439
 20
-147.1688430904991
 30
0.0
 10
89.47195367084439
 20
-147.1137392016236
 30
0.0
 10
89.4271861719865
 20
-147.0689364238575
 30
0.0
 10
89.37172950673465
 20
-147.0689364238575
 30
0.0
 10
89.3165903414747
 20
-147.0689364238575
 30
0.0
 10
89.27182284261682
 20
-147.1137392016236
 30
0.0
 10
89.27182284261682
 20
-147.1688430904991
 30
0.0
 10
89.27182284261682
 20
-147.2239822571516
 30
0.0
 10
89.3165903414747
 20
-147.2687497571407
 30
0.0
 10
89.37172950673465
 20
-147.2687497571407
 30
0.0
 10
89.4271861719865
 20
-147.2687497571407
 30
0.0
 10
89.47195367084439
 20
-147.2239822571516
 30
0.0
 10
89.47195367084439
 20
-147.1688430904991
 30
0.0
  0
SPLINE
  5
AD
330
70
100
AcDbEntity
  8
レイヤー 1
 62
    18
420
        0
370
     9
100
AcDbSpline
210
0.0
220
0.0
230
1.0
 70
     9
 71
     3
 72
    17
 73
    13
 74
     0
 42
0.0000000001
 43
0.0000000001
 40
0.0
 40
0.0
 40
0.0
 40
0.0
 40
1.0
 40
1.0
 40
1.0
 40
2.0
 40
2.0
 40
2.0
 40
3.0
 40
3.0
 40
3.0
 40
4.0
 40
4.0
 40
4.0
 40
4.0
 10
89.47195367084439
 20
-147.6690819792628
 30
0.0
 10
89.47195367084439
 20
-147.6139780903879
 30
0.0
 10
89.4271861719865
 20
-147.5691753126212
 30
0.0
 10
89.37172950673465
 20
-147.5691753126212
 30
0.0
 10
89.3165903414747
 20
-147.5691753126212
 30
0.0
 10
89.27182284261682
 20
-147.6139780903879
 30
0.0
 10
89.27182284261682
 20
-147.6690819792628
 30
0.0
 10
89.27182284261682
 20
-147.7242211459159
 30
0.0
 10
89.3165903414747
 20
-147.7689886459045
 30
0.0
 10
89.37172950673465
 20
-147.7689886459045
 30
0.0
 10
89.4271861719865
 20
-147.7689886459045
 30
0.0
 10
89.47195367084439
 20
-147.7242211459159
 30
0.0
 10
89.47195367084439
 20
-147.6690819792628
 30
0.0
  0
SPLINE
  5
AE
330
70
100
AcDbEntity
  8
レイヤー 1
 62
    18
420
        0
370
     9
100
AcDbSpline
210
0.0
220
0.0
230
1.0
 70
     9
 71
     3
 72
    17
 73
    13
 74
     0
 42
0.0000000001
 43
0.0000000001
 40
0.0
 40
0.0
 40
0.0
 40
0.0
 40
1.0
 40
1.0
 40
1.0
 40
2.0
 40
2.0
 40
2.0
 40
3.0
 40
3.0
 40
3.0
 40
4.0
 40
4.0
 40
4.0
 40
4.0
 10
89.47195367084439
 20
-152.6680842002356
 30
0.0
 10
89.47195367084439
 20
-152.6129803113601
 30
0.0
 10
89.4271861719865
 20
-152.5681775335933
 30
0.0
 10
89.37172950673465
 20
-152.5681775335933
 30
0.0
 10
89.3165903414747
 20
-152.5681775335933
 30
0.0
 10
89.27182284261682
 20
-152.6129803113601
 30
0.0
 10
89.27182284261682
 20
-152.6680842002356
 30
0.0
 10
89.27182284261682
 20
-152.7232233668881
 30
0.0
 10
89.3165903414747
 20
-152.7679908668773
 30
0.0
 10
89.37172950673465
 20
-152.7679908668773
 30
0.0
 10
89.4271861719865
 20
-152.7679908668773
 30
0.0
 10
89.47195367084439
 20
-152.7232233668881
 30
0.0
 10
89.47195367084439
 20
-152.6680842002356
 30
0.0
  0
CIRCLE
  5
AF
330
70
100
AcDbEntity
  8
レイヤー 1
 62
    18
420
        0
370
     9
100
AcDbCircle
 10
117.3708543479733
 20
-142.4066958694675
 30
0.0
 40
0.0999066653797365
  0
SPLINE
  5
B0
330
70
100
AcDbEntity
  8
レイヤー 1
 62
    18
420
        0
370
     9
100
AcDbSpline
210
0.0
220
0.0
230
1.0
 70
     9
 71
     3
 72
    17
 73
    13
 74
     0
 42
0.0000000001
 43
0.0000000001
 40
0.0
 40
0.0
 40
0.0
 40
0.0
 40
1.0
 40
1.0
 40
1.0
 40
2.0
 40
2.0
 40
2.0
 40
3.0
 40
3.0
 40
3.0
 40
4.0
 40
4.0
 40
4.0
 40
4.0
 10
114.4735258107792
 20
-142.4066958694675
 30
0.0
 10
114.4735258107792
 20
-142.3515919805923
 30
0.0
 10
114.4287583119213
 20
-142.3067892028259
 30
0.0
 10
114.3736191466614
 20
-142.3067892028259
 30
0.0
 10
114.3178097036408
 20
-142.3067892028259
 30
0.0
 10
114.2730422047829
 20
-142.3515919805923
 30
0.0
 10
114.2730422047829
 20
-142.4066958694675
 30
0.0
 10
114.2730422047829
 20
-142.4621525361202
 30
0.0
 10
114.3178097036408
 20
-142.5066025361092
 30
0.0
 10
114.3736191466614
 20
-142.5066025361092
 30
0.0
 10
114.4287583119213
 20
-142.5066025361092
 30
0.0
 10
114.4735258107792
 20
-142.4621525361202
 30
0.0
 10
114.4735258107792
 20
-142.4066958694675
 30
0.0
  0
LINE
  5
B1
330
70
100
AcDbEntity
  8
レイヤー 1
 62
    18
420
        0
370
     9
100
AcDbLine
 10
114.3736191466614
 20
-142.4066958694675
 30
0.0
 11
117.3708543479733
 21
-142.4066958694675
 31
0.0
  0
LINE
  5
B2
330
70
100
AcDbEntity
  8
レイヤー 1
 62
    18
420
        0
370
     9
100
AcDbLine
 10
114.3736191466614
 20
-143.8667372579912
 30
0.0
 11
114.3736191466614
 21
-141.4069236474953
 31
0.0
  0
LINE
  5
B3
330
70
100
AcDbEntity
  8
レイヤー 1
 62
    18
420
        0
370
     9
100
AcDbLine
 10
117.3708543479733
 20
-143.8667372579912
 30
0.0
 11
117.3708543479733
 21
-141.4069236474953
 31
0.0
  0
INSERT
  5
B5
330
70
100
AcDbEntity
  8
レイヤー 1
100
AcDbBlockReference
  2
Block_0
 10
0.0
 20
0.0
 30
0.0
  0
SPLINE
  5
BA
330
70
100
AcDbEntity
  8
レイヤー 1
 62
    18
420
        0
370
     9
100
AcDbSpline
210
0.0
220
0.0
230
1.0
 70
     9
 71
     3
 72
    17
 73
    13
 74
     0
 42
0.0000000001
 43
0.0000000001
 40
0.0
 40
0.0
 40
0.0
 40
0.0
 40
1.0
 40
1.0
 40
1.0
 40
2.0
 40
2.0
 40
2.0
 40
3.0
 40
3.0
 40
3.0
 40
4.0
 40
4.0
 40
4.0
 40
4.0
 10
112.7220574134708
 20
-156.668866421457
 30
0.0
 10
112.7220574134708
 20
-156.6137625325827
 30
0.0
 10
112.6772546357041
 20
-156.568959754816
 30
0.0
 10
112.622148080234
 20
-156.568959754816
 30
0.0
 10
112.5670089149741
 20
-156.568959754816
 30
0.0
 10
112.5220650272318
 20
-156.6137625325827
 30
0.0
 10
112.5220650272318
 20
-156.668866421457
 30
0.0
 10
112.5220650272318
 20
-156.7240055881107
 30
0.0
 10
112.5670089149741
 20
-156.7687730880993
 30
0.0
 10
112.622148080234
 20
-156.7687730880993
 30
0.0
 10
112.6772546357041
 20
-156.7687730880993
 30
0.0
 10
112.7220574134708
 20
-156.7240055881107
 30
0.0
 10
112.7220574134708
 20
-156.668866421457
 30
0.0
  0
CIRCLE
  5
BB
330
70
100
AcDbEntity
  8
レイヤー 1
 62
    18
420
        0
370
     9
100
AcDbCircle
 10
118.1218829399241
 20
-156.6688664214573
 30
0.0
 40
0.0999066653795761
  0
LINE
  5
BC
330
70
100
AcDbEntity
  8
レイヤー 1
 62
    18
420
        0
370
     9
100
AcDbLine
 10
118.1218829399241
 20
-156.668866421457
 30
0.0
 11
112.622148080234
 21
-156.668866421457
 31
0.0
  0
LINE
  5
BD
330
70
100
AcDbEntity
  8
レイヤー 1
 62
    18
420
        0
370
     9
100
AcDbLine
 10
118.1218829399241
 20
-155.2088603107114
 30
0.0
 11
118.1218829399241
 21
-157.6689914212073
 31
0.0
  0
LINE
  5
BE
330
70
100
AcDbEntity
  8
レイヤー 1
 62
    18
420
        0
370
     9
100
AcDbLine
 10
112.622148080234
 20
-155.2088603107114
 30
0.0
 11
112.622148080234
 21
-157.6689914212073
 31
0.0
  0
INSERT
  5
C0
330
70
100
AcDbEntity
  8
レイヤー 1
100
AcDbBlockReference
  2
Block_1
 10
0.0
 20
0.0
 30
0.0
  0
LINE
  5
CD
330
70
100
AcDbEntity
  8
レイヤー 1
 62
    18
420
        0
370
     9
100
AcDbLine
 10
89.37172950673465
 20
-147.1688430904991
 30
0.0
 11
89.37172950673465
 21
-141.911290036258
 31
0.0
  0
LINE
  5
CE
330
70
100
AcDbEntity
  8
レイヤー 1
 62
    18
420
        0
370
     9
100
AcDbLine
 10
89.37172950673465
 20
-147.1688430904991
 30
0.0
 11
89.37172950673465
 21
-147.6690819792628
 31
0.0
  0
LINE
  5
CF
330
70
100
AcDbEntity
  8
レイヤー 1
 62
    18
420
        0
370
     9
100
AcDbLine
 10
90.8317355805979
 20
-147.1688430904991
 30
0.0
 11
88.37195731001843
 21
-147.1688430904991
 31
0.0
  0
LINE
  5
D0
330
70
100
AcDbEntity
  8
レイヤー 1
 62
    18
420
        0
370
     9
100
AcDbLine
 10
90.8317355805979
 20
-147.6690819792628
 30
0.0
 11
88.37195731001843
 21
-147.6690819792628
 31
0.0
  0
INSERT
  5
D2
330
70
100
AcDbEntity
  8
レイヤー 1
100
AcDbBlockReference
  2
Block_3
 10
0.0
 20
0.0
 30
0.0
  0
LINE
  5
E0
330
70
100
AcDbEntity
  8
レイヤー 1
 62
    18
420
        0
370
     9
100
AcDbLine
 10
93.37215884911964
 20
-142.4066958694675
 30
0.0
 11
114.3736191466614
 21
-142.4066958694675
 31
0.0
  0
LINE
  5
E1
330
70
100
AcDbEntity
  8
レイヤー 1
 62
    18
420
        0
370
     9
100
AcDbLine
 10
93.37215884911964
 20
-144.6287725355785
 30
0.0
 11
93.37215884911964
 21
-141.4069236474953
 31
0.0
  0
INSERT
  5
E3
330
70
100
AcDbEntity
  8
レイヤー 1
100
AcDbBlockReference
  2
Block_5
 10
0.0
 20
0.0
 30
0.0
  0
LINE
  5
EE
330
70
100
AcDbEntity
  8
レイヤー 1
 62
    18
420
        0
370
     9
100
AcDbLine
 10
89.37172950673465
 20
-147.6690819792628
 30
0.0
 11
89.37172950673465
 21
-152.6691072557907
 31
0.0
  0
LINE
  5
EF
330
70
100
AcDbEntity
  8
レイヤー 1
 62
    18
420
        0
370
     9
100
AcDbLine
 10
110.0815484228279
 20
-152.6691072557907
 30
0.0
 11
88.37195731001843
 21
-152.6691072557907
 31
0.0
  0
INSERT
  5
F1
330
70
100
AcDbEntity
  8
レイヤー 1
100
AcDbBlockReference
  2
Block_7
 10
0.0
 20
0.0
 30
0.0
  0
LINE
  5
F6
330
70
100
AcDbEntity
  8
レイヤー 1
 62
    18
420
        0
370
     9
100
AcDbLine
 10
116.3228601903478
 20
-149.7451086454111
 30
0.0
 11
124.3223755595141
 21
-149.7451086454111
 31
0.0
  0
INSERT
  5
F8
330
70
100
AcDbEntity
  8
レイヤー 1
100
AcDbBlockReference
  2
Block_8
 10
0.0
 20
0.0
 30
0.0
  0
LINE
  5
FD
330
70
100
AcDbEntity
  8
レイヤー 1
  6
AI-Linetype-0
 62
   154
420
    23468
370
    25
100
AcDbLine
 10
93.36355107156148
 20
-148.169144479138
 30
0.0
 11
103.3639541497632
 21
-148.169144479138
 31
0.0
  0
INSERT
  5
100
330
70
100
AcDbEntity
  8
レイヤー 1
100
AcDbBlockReference
  2
Block_9
 10
0.0
 20
0.0
 30
0.0
  0
ENDSEC
  0
SECTION
  2
OBJECTS
  0
DICTIONARY
  5
C
330
0
100
AcDbDictionary
281
     1
  3
ACAD_COLOR
350
63
  3
ACAD_DETAILVIEWSTYLE
350
6A
  3
ACAD_GROUP
350
D
  3
ACAD_LAYOUT
350
62
  3
ACAD_MATERIAL
350
10
  3
ACAD_MLEADERSTYLE
350
66
  3
ACAD_MLINESTYLE
350
5F
  3
ACAD_PLOTSETTINGS
350
61
  3
ACAD_PLOTSTYLENAME
350
E
  3
ACAD_SCALELIST
350
42
  3
ACAD_SECTIONVIEWSTYLE
350
68
  3
ACAD_TABLESTYLE
350
64
  3
ACAD_VISUALSTYLE
350
29
  3
ACDB_RECOMPOSE_DATA
350
131
  3
AcDbVariableDictionary
350
129
  0
DICTIONARY
  5
63
102
{ACAD_REACTORS
330
C
102
}
330
C
100
AcDbDictionary
281
     1
  0
DICTIONARY
  5
6A
102
{ACAD_REACTORS
330
C
102
}
330
C
100
AcDbDictionary
281
     1
  3
Imperial24
350
6B
  0
DICTIONARY
  5
D
102
{ACAD_REACTORS
330
C
102
}
330
C
100
AcDbDictionary
281
     1
  0
DICTIONARY
  5
62
102
{ACAD_REACTORS
330
C
102
}
330
C
100
AcDbDictionary
281
     1
  3
Layout1
350
6F
  3
Layout2
350
77
  3
Model
350
73
  0
DICTIONARY
  5
10
102
{ACAD_REACTORS
330
C
102
}
330
C
100
AcDbDictionary
281
     1
  3
ByBlock
350
19
  3
ByLayer
350
11
  3
Global
350
21
  0
DICTIONARY
  5
66
102
{ACAD_REACTORS
330
C
102
}
330
C
100
AcDbDictionary
281
     1
  3
Standard
350
67
  0
DICTIONARY
  5
5F
102
{ACAD_REACTORS
330
C
102
}
330
C
100
AcDbDictionary
281
     1
  3
Standard
350
60
  0
DICTIONARY
  5
61
102
{ACAD_REACTORS
330
C
102
}
330
C
100
AcDbDictionary
281
     1
  0
ACDBDICTIONARYWDFLT
  5
E
102
{ACAD_REACTORS
330
C
102
}
330
C
100
AcDbDictionary
281
     1
  3
Normal
350
F
100
AcDbDictionaryWithDefault
340
F
  0
DICTIONARY
  5
42
102
{ACAD_REACTORS
330
C
102
}
330
C
100
AcDbDictionary
281
     1
  3
A0
350
43
  3
A1
350
44
  3
A2
350
45
  3
A3
350
46
  3
A4
350
47
  3
A5
350
48
  3
A6
350
49
  3
A7
350
4A
  3
A8
350
4B
  3
A9
350
4C
  3
B0
350
4D
  3
B1
350
4E
  3
B2
350
4F
  3
B3
350
50
  3
B4
350
51
  3
B5
350
52
  3
B6
350
53
  0
DICTIONARY
  5
68
102
{ACAD_REACTORS
330
C
102
}
330
C
100
AcDbDictionary
281
     1
  3
Imperial24
350
69
  0
DICTIONARY
  5
64
102
{ACAD_REACTORS
330
C
102
}
330
C
100
AcDbDictionary
281
     1
  3
Standard
350
65
  0
DICTIONARY
  5
29
102
{ACAD_REACTORS
330
C
102
}
330
C
100
AcDbDictionary
281
     1
  3
2dWireframe
350
2F
  3
Basic
350
2E
  3
Brighten
350
35
  3
ColorChange
350
39
  3
Conceptual
350
32
  3
Dim
350
34
  3
EdgeColorOff
350
41
  3
Facepattern
350
38
  3
Flat
350
2A
  3
FlatWithEdges
350
2B
  3
Gouraud
350
2C
  3
GouraudWithEdges
350
2D
  3
Hidden
350
31
  3
JitterOff
350
3F
  3
Linepattern
350
37
  3
OverhangOff
350
40
  3
Realistic
350
33
  3
Shaded
350
3E
  3
Shaded with edges
350
3D
  3
Shades of Gray
350
3A
  3
Sketchy
350
3B
  3
Thicken
350
36
  3
Wireframe
350
30
  3
X-Ray
350
3C
  0
XRECORD
  5
131
102
{ACAD_REACTORS
330
C
102
}
330
C
100
AcDbXrecord
280
     1
 90
        1
330
65
  0
DICTIONARY
  5
129
102
{ACAD_REACTORS
330
C
102
}
330
C
100
AcDbDictionary
281
     1
  3
CANNOSCALE
350
12E
  3
CMLEADERSTYLE
350
12B
  3
CTABLESTYLE
350
12A
  3
CVIEWDETAILSTYLE
350
12C
  3
CVIEWSECTIONSTYLE
350
12D
  0
ACDBDETAILVIEWSTYLE
  5
6B
102
{ACAD_XDICTIONARY
360
166
102
}
102
{ACAD_REACTORS
330
6A
102
}
330
6A
100
AcDbModelDocViewStyle
 70
     0
  3
Imperial24
290
     0
100
AcDbDetailViewStyle
 70
     0
 71
     0
 90
        3
 71
     1
340
55
 62
   256
 40
0.24
340
0
 62
   256
 40
0.24
300

 40
0.36
280
     3
 71
     2
340
5D
 90
       25
 62
   256
 71
     3
340
55
 62
   256
 40
0.24
 90
        1
 40
0.75
 90
        1
300
%<\AcVar ViewType \f "%tc1">% %<\AcVar ViewDetailId>%\PSCALE %<\AcVar ViewScale \f "%sn">%
 71
     4
340
5D
 90
       25
 62
   256
340
5D
 90
       25
 62
   256
280
     0
  0
LAYOUT
  5
6F
102
{ACAD_REACTORS
330
62
102
}
330
62
100
AcDbPlotSettings
  1

  2

  4

  6

 40
0.0
 41
0.0
 42
0.0
 43
0.0
 44
0.0
 45
0.0
 46
0.0
 47
0.0
 48
0.0
 49
0.0
140
0.0
141
0.0
142
1.0
143
1.0
 70
   688
 72
     0
 73
     0
 74
     5
  7

 75
    16
147
1.0
 76
     0
 77
     2
 78
   300
148
0.0
149
0.0
100
AcDbLayout
  1
Layout1
 70
     1
 71
     1
 10
0.0
 20
0.0
 11
12.0
 21
9.0
 12
0.0
 22
0.0
 32
0.0
 14
0.0
 24
0.0
 34
0.0
 15
0.0
 25
0.0
 35
0.0
146
0.0
 13
0.0
 23
0.0
 33
0.0
 16
1.0
 26
0.0
 36
0.0
 17
0.0
 27
1.0
 37
0.0
 76
     0
330
6C
  0
LAYOUT
  5
77
102
{ACAD_REACTORS
330
62
102
}
330
62
100
AcDbPlotSettings
  1

  2

  4

  6

 40
0.0
 41
0.0
 42
0.0
 43
0.0
 44
0.0
 45
0.0
 46
0.0
 47
0.0
 48
0.0
 49
0.0
140
0.0
141
0.0
142
1.0
143
1.0
 70
   688
 72
     0
 73
     0
 74
     5
  7

 75
    16
147
1.0
 76
     0
 77
     2
 78
   300
148
0.0
149
0.0
100
AcDbLayout
  1
Layout2
 70
     1
 71
     2
 10
0.0
 20
0.0
 11
12.0
 21
9.0
 12
0.0
 22
0.0
 32
0.0
 14
0.0
 24
0.0
 34
0.0
 15
0.0
 25
0.0
 35
0.0
146
0.0
 13
0.0
 23
0.0
 33
0.0
 16
1.0
 26
0.0
 36
0.0
 17
0.0
 27
1.0
 37
0.0
 76
     0
330
74
  0
LAYOUT
  5
73
102
{ACAD_REACTORS
330
62
102
}
330
62
100
AcDbPlotSettings
  1

  2

  4

  6

 40
0.0
 41
0.0
 42
0.0
 43
0.0
 44
0.0
 45
0.0
 46
0.0
 47
0.0
 48
0.0
 49
0.0
140
0.0
141
0.0
142
1.0
143
1.0
 70
  1712
 72
     0
 73
     0
 74
     0
  7

 75
     0
147
1.0
 76
     0
 77
     2
 78
   300
148
0.0
149
0.0
100
AcDbLayout
  1
Model
 70
     1
 71
     0
 10
0.0
 20
0.0
 11
12.0
 21
9.0
 12
0.0
 22
0.0
 32
0.0
 14
0.0
 24
0.0
 34
0.0
 15
0.0
 25
0.0
 35
0.0
146
0.0
 13
0.0
 23
0.0
 33
0.0
 16
1.0
 26
0.0
 36
0.0
 17
0.0
 27
1.0
 37
0.0
 76
     0
330
70
  0
MATERIAL
  5
19
102
{ACAD_XDICTIONARY
360
1A
102
}
102
{ACAD_REACTORS
330
10
102
}
330
10
100
AcDbMaterial
  1
ByBlock
 72
     0
 43
0.0208333333333333
 43
0.0
 43
0.0
 43
0.0
 43
0.0
 43
0.0208333333333333
 43
0.0
 43
0.0
 43
0.0
 43
0.0
 43
1.0
 43
0.0
 43
0.0
 43
0.0
 43
0.0
 43
1.0
 77
     0
 47
0.0208333333333333
 47
0.0
 47
0.0
 47
0.0
 47
0.0
 47
0.0208333333333333
 47
0.0
 47
0.0
 47
0.0
 47
0.0
 47
1.0
 47
0.0
 47
0.0
 47
0.0
 47
0.0
 47
1.0
171
     0
 49
0.0208333333333333
 49
0.0
 49
0.0
 49
0.0
 49
0.0
 49
0.0208333333333333
 49
0.0
 49
0.0
 49
0.0
 49
0.0
 49
1.0
 49
0.0
 49
0.0
 49
0.0
 49
0.0
 49
1.0
175
     0
142
0.0208333333333333
142
0.0
142
0.0
142
0.0
142
0.0
142
0.0208333333333333
142
0.0
142
0.0
142
0.0
142
0.0
142
1.0
142
0.0
142
0.0
142
0.0
142
0.0
142
1.0
179
     0
144
0.0208333333333333
144
0.0
144
0.0
144
0.0
144
0.0
144
0.0208333333333333
144
0.0
144
0.0
144
0.0
144
0.0
144
1.0
144
0.0
144
0.0
144
0.0
144
0.0
144
1.0
147
0.0208333333333333
147
0.0
147
0.0
147
0.0
147
0.0
147
0.0208333333333333
147
0.0
147
0.0
147
0.0
147
0.0
147
1.0
147
0.0
147
0.0
147
0.0
147
0.0
147
1.0
  0
MATERIAL
  5
11
102
{ACAD_XDICTIONARY
360
12
102
}
102
{ACAD_REACTORS
330
10
102
}
330
10
100
AcDbMaterial
  1
ByLayer
 72
     0
 43
0.0208333333333333
 43
0.0
 43
0.0
 43
0.0
 43
0.0
 43
0.0208333333333333
 43
0.0
 43
0.0
 43
0.0
 43
0.0
 43
1.0
 43
0.0
 43
0.0
 43
0.0
 43
0.0
 43
1.0
 77
     0
 47
0.0208333333333333
 47
0.0
 47
0.0
 47
0.0
 47
0.0
 47
0.0208333333333333
 47
0.0
 47
0.0
 47
0.0
 47
0.0
 47
1.0
 47
0.0
 47
0.0
 47
0.0
 47
0.0
 47
1.0
171
     0
 49
0.0208333333333333
 49
0.0
 49
0.0
 49
0.0
 49
0.0
 49
0.0208333333333333
 49
0.0
 49
0.0
 49
0.0
 49
0.0
 49
1.0
 49
0.0
 49
0.0
 49
0.0
 49
0.0
 49
1.0
175
     0
142
0.0208333333333333
142
0.0
142
0.0
142
0.0
142
0.0
142
0.0208333333333333
142
0.0
142
0.0
142
0.0
142
0.0
142
1.0
142
0.0
142
0.0
142
0.0
142
0.0
142
1.0
179
     0
144
0.0208333333333333
144
0.0
144
0.0
144
0.0
144
0.0
144
0.0208333333333333
144
0.0
144
0.0
144
0.0
144
0.0
144
1.0
144
0.0
144
0.0
144
0.0
144
0.0
144
1.0
147
0.0208333333333333
147
0.0
147
0.0
147
0.0
147
0.0
147
0.0208333333333333
147
0.0
147
0.0
147
0.0
147
0.0
147
1.0
147
0.0
147
0.0
147
0.0
147
0.0
147
1.0
  0
MATERIAL
  5
21
102
{ACAD_XDICTIONARY
360
22
102
}
102
{ACAD_REACTORS
330
10
102
}
330
10
100
AcDbMaterial
  1
Global
 72
     0
 43
0.0208333333333333
 43
0.0
 43
0.0
 43
0.0
 43
0.0
 43
0.0208333333333333
 43
0.0
 43
0.0
 43
0.0
 43
0.0
 43
1.0
 43
0.0
 43
0.0
 43
0.0
 43
0.0
 43
1.0
 77
     0
 47
0.0208333333333333
 47
0.0
 47
0.0
 47
0.0
 47
0.0
 47
0.0208333333333333
 47
0.0
 47
0.0
 47
0.0
 47
0.0
 47
1.0
 47
0.0
 47
0.0
 47
0.0
 47
0.0
 47
1.0
171
     0
 49
0.0208333333333333
 49
0.0
 49
0.0
 49
0.0
 49
0.0
 49
0.0208333333333333
 49
0.0
 49
0.0
 49
0.0
 49
0.0
 49
1.0
 49
0.0
 49
0.0
 49
0.0
 49
0.0
 49
1.0
175
     0
142
0.0208333333333333
142
0.0
142
0.0
142
0.0
142
0.0
142
0.0208333333333333
142
0.0
142
0.0
142
0.0
142
0.0
142
1.0
142
0.0
142
0.0
142
0.0
142
0.0
142
1.0
179
     0
144
0.0208333333333333
144
0.0
144
0.0
144
0.0
144
0.0
144
0.0208333333333333
144
0.0
144
0.0
144
0.0
144
0.0
144
1.0
144
0.0
144
0.0
144
0.0
144
0.0
144
1.0
147
0.0208333333333333
147
0.0
147
0.0
147
0.0
147
0.0
147
0.0208333333333333
147
0.0
147
0.0
147
0.0
147
0.0
147
1.0
147
0.0
147
0.0
147
0.0
147
0.0
147
1.0
  0
MLEADERSTYLE
  5
67
102
{ACAD_XDICTIONARY
360
162
102
}
102
{ACAD_REACTORS
330
66
102
}
330
66
100
AcDbMLeaderStyle
179
     2
170
     2
171
     1
172
     0
 90
        2
 40
0.0
 41
0.0
173
     1
 91
-1056964608
340
5B
 92
       -2
290
     1
 42
0.09
291
     1
 43
0.36
  3
Standard
 44
0.18
300

342
55
174
     1
178
     6
175
     1
176
     0
 93
-1056964608
 45
0.18
292
     0
297
     0
 46
0.18
 94
-1056964608
 47
1.0
 49
1.0
140
1.0
293
     1
141
0.0
294
     1
177
     0
142
1.0
295
     0
296
     0
143
0.125
271
     0
272
     9
273
     9
  0
MLINESTYLE
  5
60
102
{ACAD_REACTORS
330
5F
102
}
330
5F
100
AcDbMlineStyle
  2
STANDARD
 70
     0
  3

 62
   256
 51
90.0
 52
90.0
 71
     2
 49
0.5
 62
   256
  6
BYLAYER
 49
-0.5
 62
   256
  6
BYLAYER
  0
ACDBPLACEHOLDER
  5
F
102
{ACAD_REACTORS
330
E
102
}
330
E
  0
SCALE
  5
43
102
{ACAD_REACTORS
330
42
102
}
330
42
100
AcDbScale
 70
     0
300
1:1
140
1.0
141
1.0
290
     1
  0
SCALE
  5
44
102
{ACAD_REACTORS
330
42
102
}
330
42
100
AcDbScale
 70
     0
300
1/128" = 1'-0"
140
0.0078125
141
12.0
290
     0
  0
SCALE
  5
45
102
{ACAD_REACTORS
330
42
102
}
330
42
100
AcDbScale
 70
     0
300
1/64" = 1'-0"
140
0.015625
141
12.0
290
     0
  0
SCALE
  5
46
102
{ACAD_REACTORS
330
42
102
}
330
42
100
AcDbScale
 70
     0
300
1/32" = 1'-0"
140
0.03125
141
12.0
290
     0
  0
SCALE
  5
47
102
{ACAD_REACTORS
330
42
102
}
330
42
100
AcDbScale
 70
     0
300
1/16" = 1'-0"
140
0.0625
141
12.0
290
     0
  0
SCALE
  5
48
102
{ACAD_REACTORS
330
42
102
}
330
42
100
AcDbScale
 70
     0
300
3/32" = 1'-0"
140
0.09375
141
12.0
290
     0
  0
SCALE
  5
49
102
{ACAD_REACTORS
330
42
102
}
330
42
100
AcDbScale
 70
     0
300
1/8" = 1'-0"
140
0.125
141
12.0
290
     0
  0
SCALE
  5
4A
102
{ACAD_REACTORS
330
42
102
}
330
42
100
AcDbScale
 70
     0
300
3/16" = 1'-0"
140
0.1875
141
12.0
290
     0
  0
SCALE
  5
4B
102
{ACAD_REACTORS
330
42
102
}
330
42
100
AcDbScale
 70
     0
300
1/4" = 1'-0"
140
0.25
141
12.0
290
     0
  0
SCALE
  5
4C
102
{ACAD_REACTORS
330
42
102
}
330
42
100
AcDbScale
 70
     0
300
3/8" = 1'-0"
140
0.375
141
12.0
290
     0
  0
SCALE
  5
4D
102
{ACAD_REACTORS
330
42
102
}
330
42
100
AcDbScale
 70
     0
300
1/2" = 1'-0"
140
0.5
141
12.0
290
     0
  0
SCALE
  5
4E
102
{ACAD_REACTORS
330
42
102
}
330
42
100
AcDbScale
 70
     0
300
3/4" = 1'-0"
140
0.75
141
12.0
290
     0
  0
SCALE
  5
4F
102
{ACAD_REACTORS
330
42
102
}
330
42
100
AcDbScale
 70
     0
300
1" = 1'-0"
140
1.0
141
12.0
290
     0
  0
SCALE
  5
50
102
{ACAD_REACTORS
330
42
102
}
330
42
100
AcDbScale
 70
     0
300
1-1/2" = 1'-0"
140
1.5
141
12.0
290
     0
  0
SCALE
  5
51
102
{ACAD_REACTORS
330
42
102
}
330
42
100
AcDbScale
 70
     0
300
3" = 1'-0"
140
3.0
141
12.0
290
     0
  0
SCALE
  5
52
102
{ACAD_REACTORS
330
42
102
}
330
42
100
AcDbScale
 70
     0
300
6" = 1'-0"
140
6.0
141
12.0
290
     0
  0
SCALE
  5
53
102
{ACAD_REACTORS
330
42
102
}
330
42
100
AcDbScale
 70
     0
300
1'-0" = 1'-0"
140
12.0
141
12.0
290
     0
  0
ACDBSECTIONVIEWSTYLE
  5
69
102
{ACAD_XDICTIONARY
360
164
102
}
102
{ACAD_REACTORS
330
68
102
}
330
68
100
AcDbModelDocViewStyle
 70
     0
  3
Imperial24
290
     0
100
AcDbSectionViewStyle
 70
     0
 71
     0
 90
       78
 71
     1
340
55
 62
   256
 40
0.24
340
0
340
0
 62
   256
 40
0.24
300
I, O, Q, S, X, Z
 40
0.48
 90
        3
 40
0.18
 90
        1
 71
     2
340
5D
 90
       25
 62
   256
340
5D
 90
       50
 62
   256
 40
0.24
 40
0.0
 40
0.24
 71
     3
340
55
 62
   256
 40
0.24
 90
        1
 40
0.75
 90
        1
300
%<\AcVar ViewType \f "%tc1">% %<\AcVar ViewSectionStartId>%-%<\AcVar ViewSectionEndId>%\PSCALE %<\AcVar ViewScale \f "%sn">%
 71
     4
 62
   256
 62
   257
300
ANSI31
 40
1.0
 90
        0
290
     0
290
     0
 90
        6
 40
0.0
 40
1.570796326794896
 40
0.2617993877991494
 40
1.308996938995747
 40
-0.2617993877991494
 40
1.832595714594046
  0
TABLESTYLE
  5
65
102
{ACAD_XDICTIONARY
360
12F
102
}
102
{ACAD_REACTORS
330
64
102
}
330
64
100
AcDbTableStyle
280
     0
  3
Standard
 70
     0
 71
     0
 40
0.06
 41
0.06
280
     0
281
     0
  7
Standard
140
0.18
170
     2
 62
     0
 63
     7
283
     0
 90
      512
 91
        0
  1

274
    -2
284
     1
 64
     0
275
    -2
285
     1
 65
     0
276
    -2
286
     1
 66
     0
277
    -2
287
     1
 67
     0
278
    -2
288
     1
 68
     0
279
    -2
289
     1
 69
     0
  7
Standard
140
0.25
170
     5
 62
     0
 63
     7
283
     0
 90
      512
 91
        0
  1

274
    -2
284
     1
 64
     0
275
    -2
285
     1
 65
     0
276
    -2
286
     1
 66
     0
277
    -2
287
     1
 67
     0
278
    -2
288
     1
 68
     0
279
    -2
289
     1
 69
     0
  7
Standard
140
0.18
170
     5
 62
     0
 63
     7
283
     0
 90
      512
 91
        0
  1

274
    -2
284
     1
 64
     0
275
    -2
285
     1
 65
     0
276
    -2
286
     1
 66
     0
277
    -2
287
     1
 67
     0
278
    -2
288
     1
 68
     0
279
    -2
289
     1
 69
     0
  0
VISUALSTYLE
  5
2F
102
{ACAD_XDICTIONARY
360
13C
102
}
102
{ACAD_REACTORS
330
29
102
}
330
29
100
AcDbVisualStyle
  2
2dWireframe
 70
     4
177
     2
291
     0
 71
     0
176
     1
 72
     2
176
     1
 73
     0
176
     1
 90
        0
176
     1
 40
0.6
176
     1
 41
30.0
176
     1
 63
     7
421
 16777215
176
     1
 74
     1
176
     1
 91
        4
176
     1
 64
     7
176
     1
 65
   257
176
     1
 75
     1
176
     1
175
     1
176
     1
 42
1.0
176
     1
 92
        0
176
     1
 66
   257
176
     1
 43
1.0
176
     1
 76
     1
176
     1
 77
     6
176
     1
 78
     2
176
     1
 67
     7
176
     1
 79
     5
176
     1
170
     0
176
     1
171
     0
176
     1
290
     0
176
     1
 93
        1
176
     1
 44
0.0
176
     1
173
     0
176
     1
1001
ACAD
1000
AcDbSavedByObjectVersion
1070
     0
  0
VISUALSTYLE
  5
2E
102
{ACAD_XDICTIONARY
360
13A
102
}
102
{ACAD_REACTORS
330
29
102
}
330
29
100
AcDbVisualStyle
  2
Basic
 70
     7
177
     2
291
     1
 71
     1
176
     1
 72
     0
176
     1
 73
     1
176
     1
 90
        0
176
     1
 40
0.6
176
     1
 41
30.0
176
     1
 63
     7
421
 16777215
176
     1
 74
     0
176
     1
 91
        4
176
     1
 64
     7
176
     1
 65
   257
176
     1
 75
     1
176
     1
175
     1
176
     1
 42
1.0
176
     1
 92
        8
176
     1
 66
     7
176
     1
 43
1.0
176
     1
 76
     1
176
     1
 77
     6
176
     1
 78
     2
176
     1
 67
     7
176
     1
 79
     5
176
     1
170
     0
176
     1
171
     0
176
     1
290
     0
176
     1
 93
        1
176
     1
 44
0.0
176
     1
173
     0
176
     1
1001
ACAD
1000
AcDbSavedByObjectVersion
1070
     0
  0
VISUALSTYLE
  5
35
102
{ACAD_XDICTIONARY
360
148
102
}
102
{ACAD_REACTORS
330
29
102
}
330
29
100
AcDbVisualStyle
  2
Brighten
 70
    12
177
     2
291
     1
 71
     2
176
     1
 72
     2
176
     1
 73
     0
176
     1
 90
        0
176
     1
 40
0.6
176
     1
 41
30.0
176
     1
 63
     7
421
 16777215
176
     1
 74
     1
176
     1
 91
        4
176
     1
 64
     7
176
     1
 65
   257
176
     1
 75
     1
176
     1
175
     1
176
     1
 42
1.0
176
     1
 92
        8
176
     1
 66
     7
176
     1
 43
1.0
176
     1
 76
     1
176
     1
 77
     6
176
     1
 78
     2
176
     1
 67
     7
176
     1
 79
     5
176
     1
170
     0
176
     1
171
     0
176
     1
290
     0
176
     1
 93
        1
176
     1
 44
50.0
176
     1
173
     0
176
     1
1001
ACAD
1000
AcDbSavedByObjectVersion
1070
     0
  0
VISUALSTYLE
  5
39
102
{ACAD_XDICTIONARY
360
150
102
}
102
{ACAD_REACTORS
330
29
102
}
330
29
100
AcDbVisualStyle
  2
ColorChange
 70
    16
177
     2
291
     1
 71
     2
176
     1
 72
     2
176
     1
 73
     3
176
     1
 90
        0
176
     1
 40
0.6
176
     1
 41
30.0
176
     1
 63
     8
421
  8421504
176
     1
 74
     1
176
     1
 91
        4
176
     1
 64
     7
176
     1
 65
   257
176
     1
 75
     1
176
     1
175
     1
176
     1
 42
1.0
176
     1
 92
        8
176
     1
 66
     8
424
  8421504
176
     1
 43
1.0
176
     1
 76
     1
176
     1
 77
     6
176
     1
 78
     2
176
     1
 67
     7
176
     1
 79
     5
176
     1
170
     0
176
     1
171
     0
176
     1
290
     0
176
     1
 93
        1
176
     1
 44
0.0
176
     1
173
     0
176
     1
1001
ACAD
1000
AcDbSavedByObjectVersion
1070
     0
  0
VISUALSTYLE
  5
32
102
{ACAD_XDICTIONARY
360
142
102
}
102
{ACAD_REACTORS
330
29
102
}
330
29
100
AcDbVisualStyle
  2
Conceptual
 70
     9
177
     2
291
     0
 71
     3
176
     1
 72
     2
176
     1
 73
     0
176
     1
 90
        0
176
     1
 40
0.6
176
     1
 41
30.0
176
     1
 63
     7
421
 16777215
176
     1
 74
     2
176
     1
 91
        2
176
     1
 64
     7
176
     1
 65
   257
176
     1
 75
     1
176
     1
175
     1
176
     1
 42
179.0
176
     1
 92
        8
176
     1
 66
     7
176
     1
 43
1.0
176
     1
 76
     1
176
     1
 77
     6
176
     1
 78
     2
176
     1
 67
     7
176
     1
 79
     3
176
     1
170
     0
176
     1
171
     0
176
     1
290
     0
176
     1
 93
        1
176
     1
 44
0.0
176
     1
173
     0
176
     1
1001
ACAD
1000
AcDbSavedByObjectVersion
1070
     0
  0
VISUALSTYLE
  5
34
102
{ACAD_XDICTIONARY
360
146
102
}
102
{ACAD_REACTORS
330
29
102
}
330
29
100
AcDbVisualStyle
  2
Dim
 70
    11
177
     2
291
     1
 71
     2
176
     1
 72
     2
176
     1
 73
     0
176
     1
 90
        0
176
     1
 40
0.6
176
     1
 41
30.0
176
     1
 63
     7
421
 16777215
176
     1
 74
     1
176
     1
 91
        4
176
     1
 64
     7
176
     1
 65
   257
176
     1
 75
     1
176
     1
175
     1
176
     1
 42
1.0
176
     1
 92
        8
176
     1
 66
     7
176
     1
 43
1.0
176
     1
 76
     1
176
     1
 77
     6
176
     1
 78
     2
176
     1
 67
     7
176
     1
 79
     5
176
     1
170
     0
176
     1
171
     0
176
     1
290
     0
176
     1
 93
        1
176
     1
 44
-50.0
176
     1
173
     0
176
     1
1001
ACAD
1000
AcDbSavedByObjectVersion
1070
     0
  0
VISUALSTYLE
  5
41
102
{ACAD_XDICTIONARY
360
160
102
}
102
{ACAD_REACTORS
330
29
102
}
330
29
100
AcDbVisualStyle
  2
EdgeColorOff
 70
    22
177
     2
291
     1
 71
     2
176
     0
 72
     2
176
     0
 73
     0
176
     0
 90
        0
176
     0
 40
0.6
176
     0
 41
30.0
176
     0
 63
     7
421
 16777215
176
     0
 74
     1
176
     0
 91
        4
176
     0
 64
     7
176
     0
 65
   257
176
     0
 75
     1
176
     0
175
     1
176
     0
 42
1.0
176
     0
 92
        8
176
     2
 66
     7
176
     0
 43
1.0
176
     0
 76
     1
176
     0
 77
     6
176
     0
 78
     2
176
     0
 67
     7
176
     0
 79
     5
176
     0
170
     0
176
     0
171
     0
176
     0
290
     0
176
     0
 93
        1
176
     0
 44
0.0
176
     0
173
     0
176
     0
1001
ACAD
1000
AcDbSavedByObjectVersion
1070
     0
  0
VISUALSTYLE
  5
38
102
{ACAD_XDICTIONARY
360
14E
102
}
102
{ACAD_REACTORS
330
29
102
}
330
29
100
AcDbVisualStyle
  2
Facepattern
 70
    15
177
     2
291
     1
 71
     2
176
     1
 72
     2
176
     1
 73
     0
176
     1
 90
        0
176
     1
 40
0.6
176
     1
 41
30.0
176
     1
 63
     7
421
 16777215
176
     1
 74
     1
176
     1
 91
        4
176
     1
 64
     7
176
     1
 65
   257
176
     1
 75
     1
176
     1
175
     1
176
     1
 42
1.0
176
     1
 92
        8
176
     1
 66
     7
176
     1
 43
1.0
176
     1
 76
     1
176
     1
 77
     6
176
     1
 78
     2
176
     1
 67
     7
176
     1
 79
     5
176
     1
170
     0
176
     1
171
     0
176
     1
290
     0
176
     1
 93
        1
176
     1
 44
0.0
176
     1
173
     0
176
     1
1001
ACAD
1000
AcDbSavedByObjectVersion
1070
     0
  0
VISUALSTYLE
  5
2A
102
{ACAD_XDICTIONARY
360
132
102
}
102
{ACAD_REACTORS
330
29
102
}
330
29
100
AcDbVisualStyle
  2
Flat
 70
     0
177
     2
291
     1
 71
     2
176
     1
 72
     1
176
     1
 73
     1
176
     1
 90
        2
176
     1
 40
0.6
176
     1
 41
30.0
176
     1
 63
     7
421
 16777215
176
     1
 74
     0
176
     1
 91
        0
176
     1
 64
     7
176
     1
 65
   257
176
     1
 75
     1
176
     1
175
     1
176
     1
 42
1.0
176
     1
 92
        8
176
     1
 66
     7
176
     1
 43
1.0
176
     1
 76
     1
176
     1
 77
     6
176
     1
 78
     2
176
     1
 67
     7
176
     1
 79
     5
176
     1
170
     0
176
     1
171
     0
176
     1
290
     0
176
     1
 93
       13
176
     1
 44
0.0
176
     1
173
     0
176
     1
1001
ACAD
1000
AcDbSavedByObjectVersion
1070
     0
  0
VISUALSTYLE
  5
2B
102
{ACAD_XDICTIONARY
360
134
102
}
102
{ACAD_REACTORS
330
29
102
}
330
29
100
AcDbVisualStyle
  2
FlatWithEdges
 70
     1
177
     2
291
     1
 71
     2
176
     1
 72
     1
176
     1
 73
     1
176
     1
 90
        2
176
     1
 40
0.6
176
     1
 41
30.0
176
     1
 63
     7
421
 16777215
176
     1
 74
     1
176
     1
 91
        0
176
     1
 64
     7
176
     1
 65
   257
176
     1
 75
     1
176
     1
175
     1
176
     1
 42
1.0
176
     1
 92
        0
176
     1
 66
   257
176
     1
 43
1.0
176
     1
 76
     1
176
     1
 77
     6
176
     1
 78
     2
176
     1
 67
     7
176
     1
 79
     5
176
     1
170
     0
176
     1
171
     0
176
     1
290
     0
176
     1
 93
       13
176
     1
 44
0.0
176
     1
173
     0
176
     1
1001
ACAD
1000
AcDbSavedByObjectVersion
1070
     0
  0
VISUALSTYLE
  5
2C
102
{ACAD_XDICTIONARY
360
136
102
}
102
{ACAD_REACTORS
330
29
102
}
330
29
100
AcDbVisualStyle
  2
Gouraud
 70
     2
177
     2
291
     1
 71
     2
176
     1
 72
     2
176
     1
 73
     1
176
     1
 90
        2
176
     1
 40
0.6
176
     1
 41
30.0
176
     1
 63
     7
421
 16777215
176
     1
 74
     0
176
     1
 91
        0
176
     1
 64
     7
176
     1
 65
   257
176
     1
 75
     1
176
     1
175
     1
176
     1
 42
1.0
176
     1
 92
        0
176
     1
 66
     7
176
     1
 43
1.0
176
     1
 76
     1
176
     1
 77
     6
176
     1
 78
     2
176
     1
 67
     7
176
     1
 79
     5
176
     1
170
     0
176
     1
171
     0
176
     1
290
     0
176
     1
 93
       13
176
     1
 44
0.0
176
     1
173
     0
176
     1
1001
ACAD
1000
AcDbSavedByObjectVersion
1070
     0
  0
VISUALSTYLE
  5
2D
102
{ACAD_XDICTIONARY
360
138
102
}
102
{ACAD_REACTORS
330
29
102
}
330
29
100
AcDbVisualStyle
  2
GouraudWithEdges
 70
     3
177
     2
291
     1
 71
     2
176
     1
 72
     2
176
     1
 73
     1
176
     1
 90
        2
176
     1
 40
0.6
176
     1
 41
30.0
176
     1
 63
     7
421
 16777215
176
     1
 74
     1
176
     1
 91
        0
176
     1
 64
     7
176
     1
 65
   257
176
     1
 75
     1
176
     1
175
     1
176
     1
 42
1.0
176
     1
 92
        0
176
     1
 66
   257
176
     1
 43
1.0
176
     1
 76
     1
176
     1
 77
     6
176
     1
 78
     2
176
     1
 67
     7
176
     1
 79
     5
176
     1
170
     0
176
     1
171
     0
176
     1
290
     0
176
     1
 93
       13
176
     1
 44
0.0
176
     1
173
     0
176
     1
1001
ACAD
1000
AcDbSavedByObjectVersion
1070
     0
  0
VISUALSTYLE
  5
31
102
{ACAD_XDICTIONARY
360
140
102
}
102
{ACAD_REACTORS
330
29
102
}
330
29
100
AcDbVisualStyle
  2
Hidden
 70
     6
177
     2
291
     0
 71
     1
176
     1
 72
     2
176
     1
 73
     2
176
     1
 90
        0
176
     1
 40
0.6
176
     1
 41
30.0
176
     1
 63
     7
421
 16777215
176
     1
 74
     2
176
     1
 91
        2
176
     1
 64
     7
176
     1
 65
   257
176
     1
 75
     2
176
     1
175
     1
176
     1
 42
40.0
176
     1
 92
        0
176
     1
 66
   257
176
     1
 43
1.0
176
     1
 76
     1
176
     1
 77
     6
176
     1
 78
     2
176
     1
 67
     7
176
     1
 79
     3
176
     1
170
     0
176
     1
171
     0
176
     1
290
     0
176
     1
 93
        1
176
     1
 44
0.0
176
     1
173
     0
176
     1
1001
ACAD
1000
AcDbSavedByObjectVersion
1070
     0
  0
VISUALSTYLE
  5
3F
102
{ACAD_XDICTIONARY
360
15C
102
}
102
{ACAD_REACTORS
330
29
102
}
330
29
100
AcDbVisualStyle
  2
JitterOff
 70
    20
177
     2
291
     1
 71
     2
176
     0
 72
     2
176
     0
 73
     0
176
     0
 90
        0
176
     0
 40
0.6
176
     0
 41
30.0
176
     0
 63
     7
421
 16777215
176
     0
 74
     1
176
     0
 91
        4
176
     0
 64
     7
176
     0
 65
   257
176
     0
 75
     1
176
     0
175
     1
176
     0
 42
1.0
176
     0
 92
       10
176
     2
 66
     7
176
     0
 43
1.0
176
     0
 76
     1
176
     0
 77
     6
176
     0
 78
     2
176
     0
 67
     7
176
     0
 79
     5
176
     0
170
     0
176
     0
171
     0
176
     0
290
     0
176
     0
 93
        1
176
     0
 44
0.0
176
     0
173
     0
176
     0
1001
ACAD
1000
AcDbSavedByObjectVersion
1070
     0
  0
VISUALSTYLE
  5
37
102
{ACAD_XDICTIONARY
360
14C
102
}
102
{ACAD_REACTORS
330
29
102
}
330
29
100
AcDbVisualStyle
  2
Linepattern
 70
    14
177
     2
291
     1
 71
     2
176
     1
 72
     2
176
     1
 73
     0
176
     1
 90
        0
176
     1
 40
0.6
176
     1
 41
30.0
176
     1
 63
     7
421
 16777215
176
     1
 74
     1
176
     1
 91
        4
176
     1
 64
     7
176
     1
 65
   257
176
     1
 75
     7
176
     1
175
     7
176
     1
 42
1.0
176
     1
 92
        8
176
     1
 66
     7
176
     1
 43
1.0
176
     1
 76
     1
176
     1
 77
     6
176
     1
 78
     2
176
     1
 67
     7
176
     1
 79
     5
176
     1
170
     0
176
     1
171
     0
176
     1
290
     0
176
     1
 93
        1
176
     1
 44
0.0
176
     1
173
     0
176
     1
1001
ACAD
1000
AcDbSavedByObjectVersion
1070
     0
  0
VISUALSTYLE
  5
40
102
{ACAD_XDICTIONARY
360
15E
102
}
102
{ACAD_REACTORS
330
29
102
}
330
29
100
AcDbVisualStyle
  2
OverhangOff
 70
    21
177
     2
291
     1
 71
     2
176
     0
 72
     2
176
     0
 73
     0
176
     0
 90
        0
176
     0
 40
0.6
176
     0
 41
30.0
176
     0
 63
     7
421
 16777215
176
     0
 74
     1
176
     0
 91
        4
176
     0
 64
     7
176
     0
 65
   257
176
     0
 75
     1
176
     0
175
     1
176
     0
 42
1.0
176
     0
 92
        9
176
     2
 66
     7
176
     0
 43
1.0
176
     0
 76
     1
176
     0
 77
     6
176
     0
 78
     2
176
     0
 67
     7
176
     0
 79
     5
176
     0
170
     0
176
     0
171
     0
176
     0
290
     0
176
     0
 93
        1
176
     0
 44
0.0
176
     0
173
     0
176
     0
1001
ACAD
1000
AcDbSavedByObjectVersion
1070
     0
  0
VISUALSTYLE
  5
33
102
{ACAD_XDICTIONARY
360
144
102
}
102
{ACAD_REACTORS
330
29
102
}
330
29
100
AcDbVisualStyle
  2
Realistic
 70
     8
177
     2
291
     0
 71
     2
176
     1
 72
     3
176
     1
 73
     0
176
     1
 90
        2
176
     1
 40
0.6
176
     1
 41
30.0
176
     1
 63
     7
421
 16777215
176
     1
 74
     0
176
     1
 91
        0
176
     1
 64
     7
176
     1
 65
   257
176
     1
 75
     1
176
     1
175
     1
176
     1
 42
1.0
176
     1
 92
        8
176
     1
 66
   257
176
     1
 43
1.0
176
     1
 76
     1
176
     1
 77
     6
176
     1
 78
     2
176
     1
 67
     7
176
     1
 79
     3
176
     1
170
     0
176
     1
171
     0
176
     1
290
     0
176
     1
 93
       13
176
     1
 44
0.0
176
     1
173
     0
176
     1
1001
ACAD
1000
AcDbSavedByObjectVersion
1070
     0
  0
VISUALSTYLE
  5
3E
102
{ACAD_XDICTIONARY
360
15A
102
}
102
{ACAD_REACTORS
330
29
102
}
330
29
100
AcDbVisualStyle
  2
Shaded
 70
    27
177
     2
291
     0
 71
     2
176
     1
 72
     2
176
     1
 73
     1
176
     1
 90
        2
176
     1
 40
0.6
176
     1
 41
30.0
176
     1
 63
     7
421
 16777215
176
     1
 74
     0
176
     1
 91
        4
176
     1
 64
     7
176
     1
 65
   257
176
     1
 75
     1
176
     1
175
     1
176
     1
 42
1.0
176
     1
 92
        8
176
     1
 66
   257
176
     1
 43
1.0
176
     1
 76
     1
176
     1
 77
     6
176
     1
 78
     2
176
     1
 67
     8
425
  7895160
176
     1
 79
     3
176
     1
170
     0
176
     1
171
     0
176
     1
290
     0
176
     1
 93
        5
176
     1
 44
0.0
176
     1
173
     0
176
     1
1001
ACAD
1000
AcDbSavedByObjectVersion
1070
     0
  0
VISUALSTYLE
  5
3D
102
{ACAD_XDICTIONARY
360
158
102
}
102
{ACAD_REACTORS
330
29
102
}
330
29
100
AcDbVisualStyle
  2
Shaded with edges
 70
    26
177
     2
291
     0
 71
     2
176
     1
 72
     2
176
     1
 73
     1
176
     1
 90
        2
176
     1
 40
0.6
176
     1
 41
30.0
176
     1
 63
     7
421
 16777215
176
     1
 74
     1
176
     1
 91
        2
176
     1
 64
     7
176
     1
 65
   257
176
     1
 75
     2
176
     1
175
     1
176
     1
 42
1.0
176
     1
 92
        8
176
     1
 66
   257
176
     1
 43
1.0
176
     1
 76
     1
176
     1
 77
     6
176
     1
 78
     2
176
     1
 67
     7
176
     1
 79
     3
176
     1
170
     0
176
     1
171
     0
176
     1
290
     0
176
     1
 93
        5
176
     1
 44
0.0
176
     1
173
     0
176
     1
1001
ACAD
1000
AcDbSavedByObjectVersion
1070
     0
  0
VISUALSTYLE
  5
3A
102
{ACAD_XDICTIONARY
360
152
102
}
102
{ACAD_REACTORS
330
29
102
}
330
29
100
AcDbVisualStyle
  2
Shades of Gray
 70
    23
177
     2
291
     0
 71
     2
176
     1
 72
     2
176
     1
 73
     3
176
     1
 90
        0
176
     1
 40
0.6
176
     1
 41
30.0
176
     1
 63
     7
421
 16777215
176
     1
 74
     2
176
     1
 91
        2
176
     1
 64
     7
176
     1
 65
     7
176
     1
 75
     1
176
     1
175
     1
176
     1
 42
40.0
176
     1
 92
        8
176
     1
 66
     7
176
     1
 43
1.0
176
     1
 76
     1
176
     1
 77
     6
176
     1
 78
     2
176
     1
 67
     7
176
     1
 79
     3
176
     1
170
     0
176
     1
171
     0
176
     1
290
     0
176
     1
 93
        1
176
     1
 44
0.0
176
     1
173
     0
176
     1
1001
ACAD
1000
AcDbSavedByObjectVersion
1070
     0
  0
VISUALSTYLE
  5
3B
102
{ACAD_XDICTIONARY
360
154
102
}
102
{ACAD_REACTORS
330
29
102
}
330
29
100
AcDbVisualStyle
  2
Sketchy
 70
    24
177
     2
291
     0
 71
     1
176
     1
 72
     2
176
     1
 73
     2
176
     1
 90
        0
176
     1
 40
0.6
176
     1
 41
30.0
176
     1
 63
     7
421
 16777215
176
     1
 74
     2
176
     1
 91
        2
176
     1
 64
     7
176
     1
 65
     7
176
     1
 75
     1
176
     1
175
     1
176
     1
 42
40.0
176
     1
 92
       11
176
     1
 66
     7
176
     1
 43
1.0
176
     1
 76
     1
176
     1
 77
     6
176
     1
 78
     2
176
     1
 67
     7
176
     1
 79
     6
176
     1
170
     0
176
     1
171
     0
176
     1
290
     0
176
     1
 93
        1
176
     1
 44
0.0
176
     1
173
     0
176
     1
1001
ACAD
1000
AcDbSavedByObjectVersion
1070
     0
  0
VISUALSTYLE
  5
36
102
{ACAD_XDICTIONARY
360
14A
102
}
102
{ACAD_REACTORS
330
29
102
}
330
29
100
AcDbVisualStyle
  2
Thicken
 70
    13
177
     2
291
     1
 71
     2
176
     1
 72
     2
176
     1
 73
     0
176
     1
 90
        0
176
     1
 40
0.6
176
     1
 41
30.0
176
     1
 63
     7
421
 16777215
176
     1
 74
     1
176
     1
 91
        4
176
     1
 64
     7
176
     1
 65
   257
176
     1
 75
     1
176
     1
175
     1
176
     1
 42
1.0
176
     1
 92
       12
176
     1
 66
     7
176
     1
 43
1.0
176
     1
 76
     1
176
     1
 77
     6
176
     1
 78
     2
176
     1
 67
     7
176
     1
 79
     5
176
     1
170
     0
176
     1
171
     0
176
     1
290
     0
176
     1
 93
        1
176
     1
 44
0.0
176
     1
173
     0
176
     1
1001
ACAD
1000
AcDbSavedByObjectVersion
1070
     0
  0
VISUALSTYLE
  5
30
102
{ACAD_XDICTIONARY
360
13E
102
}
102
{ACAD_REACTORS
330
29
102
}
330
29
100
AcDbVisualStyle
  2
Wireframe
 70
     5
177
     2
291
     0
 71
     0
176
     1
 72
     2
176
     1
 73
     0
176
     1
 90
        0
176
     1
 40
0.6
176
     1
 41
30.0
176
     1
 63
     7
421
 16777215
176
     1
 74
     1
176
     1
 91
        4
176
     1
 64
     7
176
     1
 65
   257
176
     1
 75
     1
176
     1
175
     1
176
     1
 42
1.0
176
     1
 92
        0
176
     1
 66
   257
176
     1
 43
1.0
176
     1
 76
     1
176
     1
 77
     6
176
     1
 78
     2
176
     1
 67
     7
176
     1
 79
     3
176
     1
170
     0
176
     1
171
     0
176
     1
290
     0
176
     1
 93
        1
176
     1
 44
0.0
176
     1
173
     0
176
     1
1001
ACAD
1000
AcDbSavedByObjectVersion
1070
     0
  0
VISUALSTYLE
  5
3C
102
{ACAD_XDICTIONARY
360
156
102
}
102
{ACAD_REACTORS
330
29
102
}
330
29
100
AcDbVisualStyle
  2
X-Ray
 70
    25
177
     2
291
     0
 71
     2
176
     1
 72
     2
176
     1
 73
     1
176
     1
 90
        1
176
     1
 40
0.5
176
     1
 41
30.0
176
     1
 63
     7
421
 16777215
176
     1
 74
     1
176
     1
 91
        0
176
     1
 64
     7
176
     1
 65
   257
176
     1
 75
     1
176
     1
175
     1
176
     1
 42
1.0
176
     1
 92
        8
176
     1
 66
     7
176
     1
 43
1.0
176
     1
 76
     1
176
     1
 77
     6
176
     1
 78
     2
176
     1
 67
     7
176
     1
 79
     3
176
     1
170
     0
176
     1
171
     0
176
     1
290
     0
176
     1
 93
       13
176
     1
 44
0.0
176
     1
173
     0
176
     1
1001
ACAD
1000
AcDbSavedByObjectVersion
1070
     0
  0
DICTIONARYVAR
  5
12E
102
{ACAD_REACTORS
330
129
102
}
330
129
100
DictionaryVariables
280
     0
  1
1:1
  0
DICTIONARYVAR
  5
12B
102
{ACAD_REACTORS
330
129
102
}
330
129
100
DictionaryVariables
280
     0
  1
STANDARD
  0
DICTIONARYVAR
  5
12A
102
{ACAD_REACTORS
330
129
102
}
330
129
100
DictionaryVariables
280
     0
  1
STANDARD
  0
DICTIONARYVAR
  5
12C
102
{ACAD_REACTORS
330
129
102
}
330
129
100
DictionaryVariables
280
     0
  1
Imperial24
  0
DICTIONARYVAR
  5
12D
102
{ACAD_REACTORS
330
129
102
}
330
129
100
DictionaryVariables
280
     0
  1
Imperial24
  0
DICTIONARY
  5
166
330
6B
100
AcDbDictionary
280
     1
281
     1
  3
ACAD_XREC_ROUNDTRIP
360
167
  0
DICTIONARY
  5
1A
330
19
100
AcDbDictionary
280
     1
281
     1
  3
BUMPTILE
360
1C
  3
DIFFUSETILE
360
1B
  3
OPACITYTILE
360
1F
  3
REFLECTIONTILE
360
1E
  3
REFRACTIONTILE
360
20
  3
SPECULARTILE
360
1D
  0
DICTIONARY
  5
12
330
11
100
AcDbDictionary
280
     1
281
     1
  3
BUMPTILE
360
14
  3
DIFFUSETILE
360
13
  3
OPACITYTILE
360
17
  3
REFLECTIONTILE
360
16
  3
REFRACTIONTILE
360
18
  3
SPECULARTILE
360
15
  0
DICTIONARY
  5
22
330
21
100
AcDbDictionary
280
     1
281
     1
  3
BUMPTILE
360
24
  3
DIFFUSETILE
360
23
  3
OPACITYTILE
360
27
  3
REFLECTIONTILE
360
26
  3
REFRACTIONTILE
360
28
  3
SPECULARTILE
360
25
  0
DICTIONARY
  5
162
330
67
100
AcDbDictionary
280
     1
281
     1
  3
ACAD_XREC_ROUNDTRIP
360
163
  0
DICTIONARY
  5
164
330
69
100
AcDbDictionary
280
     1
281
     1
  3
ACAD_XREC_ROUNDTRIP
360
165
  0
DICTIONARY
  5
12F
330
65
100
AcDbDictionary
280
     1
281
     1
  3
ACAD_ROUNDTRIP_2008_TABLESTYLE_CELLSTYLEMAP
360
130
  0
DICTIONARY
  5
13C
330
2F
100
AcDbDictionary
280
     1
281
     1
  3
ACAD_XREC_ROUNDTRIP
360
13D
  0
DICTIONARY
  5
13A
330
2E
100
AcDbDictionary
280
     1
281
     1
  3
ACAD_XREC_ROUNDTRIP
360
13B
  0
DICTIONARY
  5
148
330
35
100
AcDbDictionary
280
     1
281
     1
  3
ACAD_XREC_ROUNDTRIP
360
149
  0
DICTIONARY
  5
150
330
39
100
AcDbDictionary
280
     1
281
     1
  3
ACAD_XREC_ROUNDTRIP
360
151
  0
DICTIONARY
  5
142
330
32
100
AcDbDictionary
280
     1
281
     1
  3
ACAD_XREC_ROUNDTRIP
360
143
  0
DICTIONARY
  5
146
330
34
100
AcDbDictionary
280
     1
281
     1
  3
ACAD_XREC_ROUNDTRIP
360
147
  0
DICTIONARY
  5
160
330
41
100
AcDbDictionary
280
     1
281
     1
  3
ACAD_XREC_ROUNDTRIP
360
161
  0
DICTIONARY
  5
14E
330
38
100
AcDbDictionary
280
     1
281
     1
  3
ACAD_XREC_ROUNDTRIP
360
14F
  0
DICTIONARY
  5
132
330
2A
100
AcDbDictionary
280
     1
281
     1
  3
ACAD_XREC_ROUNDTRIP
360
133
  0
DICTIONARY
  5
134
330
2B
100
AcDbDictionary
280
     1
281
     1
  3
ACAD_XREC_ROUNDTRIP
360
135
  0
DICTIONARY
  5
136
330
2C
100
AcDbDictionary
280
     1
281
     1
  3
ACAD_XREC_ROUNDTRIP
360
137
  0
DICTIONARY
  5
138
330
2D
100
AcDbDictionary
280
     1
281
     1
  3
ACAD_XREC_ROUNDTRIP
360
139
  0
DICTIONARY
  5
140
330
31
100
AcDbDictionary
280
     1
281
     1
  3
ACAD_XREC_ROUNDTRIP
360
141
  0
DICTIONARY
  5
15C
330
3F
100
AcDbDictionary
280
     1
281
     1
  3
ACAD_XREC_ROUNDTRIP
360
15D
  0
DICTIONARY
  5
14C
330
37
100
AcDbDictionary
280
     1
281
     1
  3
ACAD_XREC_ROUNDTRIP
360
14D
  0
DICTIONARY
  5
15E
330
40
100
AcDbDictionary
280
     1
281
     1
  3
ACAD_XREC_ROUNDTRIP
360
15F
  0
DICTIONARY
  5
144
330
33
100
AcDbDictionary
280
     1
281
     1
  3
ACAD_XREC_ROUNDTRIP
360
145
  0
DICTIONARY
  5
15A
330
3E
100
AcDbDictionary
280
     1
281
     1
  3
ACAD_XREC_ROUNDTRIP
360
15B
  0
DICTIONARY
  5
158
330
3D
100
AcDbDictionary
280
     1
281
     1
  3
ACAD_XREC_ROUNDTRIP
360
159
  0
DICTIONARY
  5
152
330
3A
100
AcDbDictionary
280
     1
281
     1
  3
ACAD_XREC_ROUNDTRIP
360
153
  0
DICTIONARY
  5
154
330
3B
100
AcDbDictionary
280
     1
281
     1
  3
ACAD_XREC_ROUNDTRIP
360
155
  0
DICTIONARY
  5
14A
330
36
100
AcDbDictionary
280
     1
281
     1
  3
ACAD_XREC_ROUNDTRIP
360
14B
  0
DICTIONARY
  5
13E
330
30
100
AcDbDictionary
280
     1
281
     1
  3
ACAD_XREC_ROUNDTRIP
360
13F
  0
DICTIONARY
  5
156
330
3C
100
AcDbDictionary
280
     1
281
     1
  3
ACAD_XREC_ROUNDTRIP
360
157
  0
XRECORD
  5
167
102
{ACAD_REACTORS
330
166
102
}
330
166
100
AcDbXrecord
280
     1
102
DISPLAYNAME
  1
Imperial24
102
FLAGS
 90
        0
  0
XRECORD
  5
1C
102
{ACAD_REACTORS
330
1A
102
}
330
1A
100
AcDbXrecord
280
     1
270
     1
271
     1
  0
XRECORD
  5
1B
102
{ACAD_REACTORS
330
1A
102
}
330
1A
100
AcDbXrecord
280
     1
270
     1
271
     1
  0
XRECORD
  5
1F
102
{ACAD_REACTORS
330
1A
102
}
330
1A
100
AcDbXrecord
280
     1
270
     1
271
     1
  0
XRECORD
  5
1E
102
{ACAD_REACTORS
330
1A
102
}
330
1A
100
AcDbXrecord
280
     1
270
     1
271
     1
  0
XRECORD
  5
20
102
{ACAD_REACTORS
330
1A
102
}
330
1A
100
AcDbXrecord
280
     1
270
     1
271
     1
  0
XRECORD
  5
1D
102
{ACAD_REACTORS
330
1A
102
}
330
1A
100
AcDbXrecord
280
     1
270
     1
271
     1
  0
XRECORD
  5
14
102
{ACAD_REACTORS
330
12
102
}
330
12
100
AcDbXrecord
280
     1
270
     1
271
     1
  0
XRECORD
  5
13
102
{ACAD_REACTORS
330
12
102
}
330
12
100
AcDbXrecord
280
     1
270
     1
271
     1
  0
XRECORD
  5
17
102
{ACAD_REACTORS
330
12
102
}
330
12
100
AcDbXrecord
280
     1
270
     1
271
     1
  0
XRECORD
  5
16
102
{ACAD_REACTORS
330
12
102
}
330
12
100
AcDbXrecord
280
     1
270
     1
271
     1
  0
XRECORD
  5
18
102
{ACAD_REACTORS
330
12
102
}
330
12
100
AcDbXrecord
280
     1
270
     1
271
     1
  0
XRECORD
  5
15
102
{ACAD_REACTORS
330
12
102
}
330
12
100
AcDbXrecord
280
     1
270
     1
271
     1
  0
XRECORD
  5
24
102
{ACAD_REACTORS
330
22
102
}
330
22
100
AcDbXrecord
280
     1
270
     1
271
     1
  0
XRECORD
  5
23
102
{ACAD_REACTORS
330
22
102
}
330
22
100
AcDbXrecord
280
     1
270
     1
271
     1
  0
XRECORD
  5
27
102
{ACAD_REACTORS
330
22
102
}
330
22
100
AcDbXrecord
280
     1
270
     1
271
     1
  0
XRECORD
  5
26
102
{ACAD_REACTORS
330
22
102
}
330
22
100
AcDbXrecord
280
     1
270
     1
271
     1
  0
XRECORD
  5
28
102
{ACAD_REACTORS
330
22
102
}
330
22
100
AcDbXrecord
280
     1
270
     1
271
     1
  0
XRECORD
  5
25
102
{ACAD_REACTORS
330
22
102
}
330
22
100
AcDbXrecord
280
     1
270
     1
271
     1
  0
XRECORD
  5
163
102
{ACAD_REACTORS
330
162
102
}
330
162
100
AcDbXrecord
280
     1
102
ACAD_ROUNDTRIP_2012_MLEADER_STYLE
298
     1
  0
XRECORD
  5
165
102
{ACAD_REACTORS
330
164
102
}
330
164
100
AcDbXrecord
280
     1
102
DISPLAYNAME
  1
Imperial24
102
FLAGS
 90
        0
  0
CELLSTYLEMAP
  5
130
102
{ACAD_REACTORS
330
12F
102
}
330
12F
100
AcDbCellStyleMap
 90
        3
300
CELLSTYLE
  1
TABLEFORMAT_BEGIN
 90
        5
170
     1
 91
        0
 92
    32768
 62
   257
 93
        1
300
CONTENTFORMAT
  1
CONTENTFORMAT_BEGIN
 90
        0
 91
        0
 92
      512
 93
        0
300

 40
0.0
140
1.0
 94
        5
 62
     0
340
55
144
0.25
309
CONTENTFORMAT_END
171
     0
 94
        0
309
TABLEFORMAT_END
  1
CELLSTYLE_BEGIN
 90
        1
 91
        1
300
_TITLE
309
CELLSTYLE_END
300
CELLSTYLE
  1
TABLEFORMAT_BEGIN
 90
        5
170
     1
 91
        0
 92
        0
 62
   257
 93
        1
300
CONTENTFORMAT
  1
CONTENTFORMAT_BEGIN
 90
        0
 91
        0
 92
      512
 93
        0
300

 40
0.0
140
1.0
 94
        5
 62
     0
340
55
144
0.18
309
CONTENTFORMAT_END
171
     0
 94
        0
309
TABLEFORMAT_END
  1
CELLSTYLE_BEGIN
 90
        2
 91
        1
300
_HEADER
309
CELLSTYLE_END
300
CELLSTYLE
  1
TABLEFORMAT_BEGIN
 90
        5
170
     1
 91
        0
 92
        0
 62
   257
 93
        1
300
CONTENTFORMAT
  1
CONTENTFORMAT_BEGIN
 90
        0
 91
        0
 92
      512
 93
        0
300

 40
0.0
140
1.0
 94
        2
 62
     0
340
55
144
0.18
309
CONTENTFORMAT_END
171
     0
 94
        0
309
TABLEFORMAT_END
  1
CELLSTYLE_BEGIN
 90
        3
 91
        2
300
_DATA
309
CELLSTYLE_END
  0
XRECORD
  5
13D
102
{ACAD_REACTORS
330
13C
102
}
330
13C
100
AcDbXrecord
280
     1
102
RTVSPost2010Prop28
280
     1
102
RTVSPost2010PropOp28
 70
     1
102
RTVSPost2010Prop29
280
     1
102
RTVSPost2010PropOp29
 70
     1
102
RTVSPost2010Prop30
280
     0
102
RTVSPost2010PropOp30
 70
     1
102
RTVSPost2010Prop31
280
     0
102
RTVSPost2010PropOp31
 70
     1
102
RTVSPost2010Prop32
280
     0
102
RTVSPost2010PropOp32
 70
     1
102
RTVSPost2010Prop33
280
     0
102
RTVSPost2010PropOp33
 70
     1
102
RTVSPost2010Prop34
280
     0
102
RTVSPost2010PropOp34
 70
     1
102
RTVSPost2010Prop35
280
     0
102
RTVSPost2010PropOp35
 70
     1
102
RTVSPost2010Prop36
280
     0
102
RTVSPost2010PropOp36
 70
     1
102
RTVSPost2010Prop37
 90
       50
102
RTVSPost2010PropOp37
 70
     1
102
RTVSPost2010Prop38
140
0.0
102
RTVSPost2010PropOp38
 70
     1
102
RTVSPost2010Prop39
140
1.0
102
RTVSPost2010PropOp39
 70
     1
102
RTVSPost2010Prop40
 90
        0
102
RTVSPost2010PropOp40
 70
     1
102
RTVSPost2010Prop41ColorIndex
 90
       18
102
RTVSPost2010Prop41ColorRGB
 90
        0
102
RTVSPost2010PropOp41
 70
     1
102
RTVSPost2010Prop42
 90
       50
102
RTVSPost2010PropOp42
 70
     1
102
RTVSPost2010Prop43
 90
        3
102
RTVSPost2010PropOp43
 70
     1
102
RTVSPost2010Prop44ColorIndex
 90
        5
102
RTVSPost2010Prop44ColorRGB
 90
      255
102
RTVSPost2010PropOp44
 70
     1
102
RTVSPost2010Prop45
280
     0
102
RTVSPost2010PropOp45
 70
     1
102
RTVSPost2010Prop46
 90
       50
102
RTVSPost2010PropOp46
 70
     1
102
RTVSPost2010Prop47
 90
       50
102
RTVSPost2010PropOp47
 70
     1
102
RTVSPost2010Prop48
 90
       50
102
RTVSPost2010PropOp48
 70
     1
102
RTVSPost2010Prop49
280
     0
102
RTVSPost2010PropOp49
 70
     1
102
RTVSPost2010Prop50
 90
       50
102
RTVSPost2010PropOp50
 70
     1
102
RTVSPost2010Prop51ColorIndex
 90
      256
102
RTVSPost2010Prop51ColorRGB
 90
-16777216
102
RTVSPost2010PropOp51
 70
     0
102
RTVSPost2010Prop52
140
1.0
102
RTVSPost2010PropOp52
 70
     0
102
RTVSPost2010Prop53
 90
        2
102
RTVSPost2010PropOp53
 70
     1
102
RTVSPost2010Prop54
  1
strokes_ogs.tif
102
RTVSPost2010PropOp54
 70
     1
102
RTVSPost2010Prop55
280
     0
102
RTVSPost2010PropOp55
 70
     1
102
RTVSPost2010Prop56
140
1.0
102
RTVSPost2010PropOp56
 70
     1
102
RTVSPost2010Prop57
140
1.0
102
RTVSPost2010PropOp57
 70
     1
  0
XRECORD
  5
13B
102
{ACAD_REACTORS
330
13A
102
}
330
13A
100
AcDbXrecord
280
     1
102
RTVSPost2010Prop28
280
     0
102
RTVSPost2010PropOp28
 70
     1
102
RTVSPost2010Prop29
280
     1
102
RTVSPost2010PropOp29
 70
     1
102
RTVSPost2010Prop30
280
     1
102
RTVSPost2010PropOp30
 70
     1
102
RTVSPost2010Prop31
280
     0
102
RTVSPost2010PropOp31
 70
     1
102
RTVSPost2010Prop32
280
     0
102
RTVSPost2010PropOp32
 70
     1
102
RTVSPost2010Prop33
280
     0
102
RTVSPost2010PropOp33
 70
     1
102
RTVSPost2010Prop34
280
     0
102
RTVSPost2010PropOp34
 70
     1
102
RTVSPost2010Prop35
280
     0
102
RTVSPost2010PropOp35
 70
     1
102
RTVSPost2010Prop36
280
     0
102
RTVSPost2010PropOp36
 70
     1
102
RTVSPost2010Prop37
 90
       50
102
RTVSPost2010PropOp37
 70
     1
102
RTVSPost2010Prop38
140
0.0
102
RTVSPost2010PropOp38
 70
     1
102
RTVSPost2010Prop39
140
1.0
102
RTVSPost2010PropOp39
 70
     1
102
RTVSPost2010Prop40
 90
        0
102
RTVSPost2010PropOp40
 70
     1
102
RTVSPost2010Prop41ColorIndex
 90
       18
102
RTVSPost2010Prop41ColorRGB
 90
        0
102
RTVSPost2010PropOp41
 70
     1
102
RTVSPost2010Prop42
 90
       50
102
RTVSPost2010PropOp42
 70
     1
102
RTVSPost2010Prop43
 90
        3
102
RTVSPost2010PropOp43
 70
     1
102
RTVSPost2010Prop44ColorIndex
 90
        5
102
RTVSPost2010Prop44ColorRGB
 90
      255
102
RTVSPost2010PropOp44
 70
     1
102
RTVSPost2010Prop45
280
     0
102
RTVSPost2010PropOp45
 70
     1
102
RTVSPost2010Prop46
 90
       50
102
RTVSPost2010PropOp46
 70
     1
102
RTVSPost2010Prop47
 90
       50
102
RTVSPost2010PropOp47
 70
     1
102
RTVSPost2010Prop48
 90
       50
102
RTVSPost2010PropOp48
 70
     1
102
RTVSPost2010Prop49
280
     0
102
RTVSPost2010PropOp49
 70
     1
102
RTVSPost2010Prop50
 90
       50
102
RTVSPost2010PropOp50
 70
     1
102
RTVSPost2010Prop51ColorIndex
 90
      256
102
RTVSPost2010Prop51ColorRGB
 90
-16777216
102
RTVSPost2010PropOp51
 70
     0
102
RTVSPost2010Prop52
140
1.0
102
RTVSPost2010PropOp52
 70
     0
102
RTVSPost2010Prop53
 90
        2
102
RTVSPost2010PropOp53
 70
     1
102
RTVSPost2010Prop54
  1
strokes_ogs.tif
102
RTVSPost2010PropOp54
 70
     1
102
RTVSPost2010Prop55
280
     0
102
RTVSPost2010PropOp55
 70
     1
102
RTVSPost2010Prop56
140
1.0
102
RTVSPost2010PropOp56
 70
     1
102
RTVSPost2010Prop57
140
1.0
102
RTVSPost2010PropOp57
 70
     1
  0
XRECORD
  5
149
102
{ACAD_REACTORS
330
148
102
}
330
148
100
AcDbXrecord
280
     1
102
RTVSPost2010Prop28
280
     0
102
RTVSPost2010PropOp28
 70
     1
102
RTVSPost2010Prop29
280
     1
102
RTVSPost2010PropOp29
 70
     1
102
RTVSPost2010Prop30
280
     1
102
RTVSPost2010PropOp30
 70
     1
102
RTVSPost2010Prop31
280
     0
102
RTVSPost2010PropOp31
 70
     1
102
RTVSPost2010Prop32
280
     0
102
RTVSPost2010PropOp32
 70
     1
102
RTVSPost2010Prop33
280
     0
102
RTVSPost2010PropOp33
 70
     1
102
RTVSPost2010Prop34
280
     0
102
RTVSPost2010PropOp34
 70
     1
102
RTVSPost2010Prop35
280
     0
102
RTVSPost2010PropOp35
 70
     1
102
RTVSPost2010Prop36
280
     0
102
RTVSPost2010PropOp36
 70
     1
102
RTVSPost2010Prop37
 90
       50
102
RTVSPost2010PropOp37
 70
     1
102
RTVSPost2010Prop38
140
0.0
102
RTVSPost2010PropOp38
 70
     1
102
RTVSPost2010Prop39
140
1.0
102
RTVSPost2010PropOp39
 70
     1
102
RTVSPost2010Prop40
 90
        0
102
RTVSPost2010PropOp40
 70
     1
102
RTVSPost2010Prop41ColorIndex
 90
       18
102
RTVSPost2010Prop41ColorRGB
 90
        0
102
RTVSPost2010PropOp41
 70
     1
102
RTVSPost2010Prop42
 90
       50
102
RTVSPost2010PropOp42
 70
     1
102
RTVSPost2010Prop43
 90
        3
102
RTVSPost2010PropOp43
 70
     1
102
RTVSPost2010Prop44ColorIndex
 90
        5
102
RTVSPost2010Prop44ColorRGB
 90
      255
102
RTVSPost2010PropOp44
 70
     1
102
RTVSPost2010Prop45
280
     0
102
RTVSPost2010PropOp45
 70
     1
102
RTVSPost2010Prop46
 90
       50
102
RTVSPost2010PropOp46
 70
     1
102
RTVSPost2010Prop47
 90
       50
102
RTVSPost2010PropOp47
 70
     1
102
RTVSPost2010Prop48
 90
       50
102
RTVSPost2010PropOp48
 70
     1
102
RTVSPost2010Prop49
280
     0
102
RTVSPost2010PropOp49
 70
     1
102
RTVSPost2010Prop50
 90
       50
102
RTVSPost2010PropOp50
 70
     1
102
RTVSPost2010Prop51ColorIndex
 90
      256
102
RTVSPost2010Prop51ColorRGB
 90
-16777216
102
RTVSPost2010PropOp51
 70
     0
102
RTVSPost2010Prop52
140
1.0
102
RTVSPost2010PropOp52
 70
     0
102
RTVSPost2010Prop53
 90
        2
102
RTVSPost2010PropOp53
 70
     1
102
RTVSPost2010Prop54
  1
strokes_ogs.tif
102
RTVSPost2010PropOp54
 70
     1
102
RTVSPost2010Prop55
280
     0
102
RTVSPost2010PropOp55
 70
     1
102
RTVSPost2010Prop56
140
1.0
102
RTVSPost2010PropOp56
 70
     1
102
RTVSPost2010Prop57
140
1.0
102
RTVSPost2010PropOp57
 70
     1
  0
XRECORD
  5
151
102
{ACAD_REACTORS
330
150
102
}
330
150
100
AcDbXrecord
280
     1
102
RTVSPost2010Prop28
280
     0
102
RTVSPost2010PropOp28
 70
     1
102
RTVSPost2010Prop29
280
     1
102
RTVSPost2010PropOp29
 70
     1
102
RTVSPost2010Prop30
280
     1
102
RTVSPost2010PropOp30
 70
     1
102
RTVSPost2010Prop31
280
     0
102
RTVSPost2010PropOp31
 70
     1
102
RTVSPost2010Prop32
280
     0
102
RTVSPost2010PropOp32
 70
     1
102
RTVSPost2010Prop33
280
     0
102
RTVSPost2010PropOp33
 70
     1
102
RTVSPost2010Prop34
280
     0
102
RTVSPost2010PropOp34
 70
     1
102
RTVSPost2010Prop35
280
     0
102
RTVSPost2010PropOp35
 70
     1
102
RTVSPost2010Prop36
280
     0
102
RTVSPost2010PropOp36
 70
     1
102
RTVSPost2010Prop37
 90
       50
102
RTVSPost2010PropOp37
 70
     1
102
RTVSPost2010Prop38
140
0.0
102
RTVSPost2010PropOp38
 70
     1
102
RTVSPost2010Prop39
140
1.0
102
RTVSPost2010PropOp39
 70
     1
102
RTVSPost2010Prop40
 90
        0
102
RTVSPost2010PropOp40
 70
     1
102
RTVSPost2010Prop41ColorIndex
 90
       18
102
RTVSPost2010Prop41ColorRGB
 90
        0
102
RTVSPost2010PropOp41
 70
     1
102
RTVSPost2010Prop42
 90
       50
102
RTVSPost2010PropOp42
 70
     1
102
RTVSPost2010Prop43
 90
        3
102
RTVSPost2010PropOp43
 70
     1
102
RTVSPost2010Prop44ColorIndex
 90
        5
102
RTVSPost2010Prop44ColorRGB
 90
      255
102
RTVSPost2010PropOp44
 70
     1
102
RTVSPost2010Prop45
280
     0
102
RTVSPost2010PropOp45
 70
     1
102
RTVSPost2010Prop46
 90
       50
102
RTVSPost2010PropOp46
 70
     1
102
RTVSPost2010Prop47
 90
       50
102
RTVSPost2010PropOp47
 70
     1
102
RTVSPost2010Prop48
 90
       50
102
RTVSPost2010PropOp48
 70
     1
102
RTVSPost2010Prop49
280
     0
102
RTVSPost2010PropOp49
 70
     1
102
RTVSPost2010Prop50
 90
       50
102
RTVSPost2010PropOp50
 70
     1
102
RTVSPost2010Prop51ColorIndex
 90
      256
102
RTVSPost2010Prop51ColorRGB
 90
-16777216
102
RTVSPost2010PropOp51
 70
     0
102
RTVSPost2010Prop52
140
1.0
102
RTVSPost2010PropOp52
 70
     0
102
RTVSPost2010Prop53
 90
        2
102
RTVSPost2010PropOp53
 70
     1
102
RTVSPost2010Prop54
  1
strokes_ogs.tif
102
RTVSPost2010PropOp54
 70
     1
102
RTVSPost2010Prop55
280
     0
102
RTVSPost2010PropOp55
 70
     1
102
RTVSPost2010Prop56
140
1.0
102
RTVSPost2010PropOp56
 70
     1
102
RTVSPost2010Prop57
140
1.0
102
RTVSPost2010PropOp57
 70
     1
  0
XRECORD
  5
143
102
{ACAD_REACTORS
330
142
102
}
330
142
100
AcDbXrecord
280
     1
102
RTVSPost2010Prop28
280
     0
102
RTVSPost2010PropOp28
 70
     1
102
RTVSPost2010Prop29
280
     1
102
RTVSPost2010PropOp29
 70
     1
102
RTVSPost2010Prop30
280
     1
102
RTVSPost2010PropOp30
 70
     1
102
RTVSPost2010Prop31
280
     0
102
RTVSPost2010PropOp31
 70
     1
102
RTVSPost2010Prop32
280
     0
102
RTVSPost2010PropOp32
 70
     1
102
RTVSPost2010Prop33
280
     0
102
RTVSPost2010PropOp33
 70
     1
102
RTVSPost2010Prop34
280
     0
102
RTVSPost2010PropOp34
 70
     1
102
RTVSPost2010Prop35
280
     0
102
RTVSPost2010PropOp35
 70
     1
102
RTVSPost2010Prop36
280
     0
102
RTVSPost2010PropOp36
 70
     1
102
RTVSPost2010Prop37
 90
       50
102
RTVSPost2010PropOp37
 70
     1
102
RTVSPost2010Prop38
140
0.0
102
RTVSPost2010PropOp38
 70
     1
102
RTVSPost2010Prop39
140
1.0
102
RTVSPost2010PropOp39
 70
     1
102
RTVSPost2010Prop40
 90
        0
102
RTVSPost2010PropOp40
 70
     1
102
RTVSPost2010Prop41ColorIndex
 90
       18
102
RTVSPost2010Prop41ColorRGB
 90
        0
102
RTVSPost2010PropOp41
 70
     1
102
RTVSPost2010Prop42
 90
       50
102
RTVSPost2010PropOp42
 70
     1
102
RTVSPost2010Prop43
 90
        3
102
RTVSPost2010PropOp43
 70
     1
102
RTVSPost2010Prop44ColorIndex
 90
        5
102
RTVSPost2010Prop44ColorRGB
 90
      255
102
RTVSPost2010PropOp44
 70
     1
102
RTVSPost2010Prop45
280
     0
102
RTVSPost2010PropOp45
 70
     1
102
RTVSPost2010Prop46
 90
       50
102
RTVSPost2010PropOp46
 70
     1
102
RTVSPost2010Prop47
 90
       50
102
RTVSPost2010PropOp47
 70
     1
102
RTVSPost2010Prop48
 90
       50
102
RTVSPost2010PropOp48
 70
     1
102
RTVSPost2010Prop49
280
     0
102
RTVSPost2010PropOp49
 70
     1
102
RTVSPost2010Prop50
 90
       50
102
RTVSPost2010PropOp50
 70
     1
102
RTVSPost2010Prop51ColorIndex
 90
      256
102
RTVSPost2010Prop51ColorRGB
 90
-16777216
102
RTVSPost2010PropOp51
 70
     0
102
RTVSPost2010Prop52
140
1.0
102
RTVSPost2010PropOp52
 70
     0
102
RTVSPost2010Prop53
 90
        2
102
RTVSPost2010PropOp53
 70
     1
102
RTVSPost2010Prop54
  1
strokes_ogs.tif
102
RTVSPost2010PropOp54
 70
     1
102
RTVSPost2010Prop55
280
     0
102
RTVSPost2010PropOp55
 70
     1
102
RTVSPost2010Prop56
140
1.0
102
RTVSPost2010PropOp56
 70
     1
102
RTVSPost2010Prop57
140
1.0
102
RTVSPost2010PropOp57
 70
     1
  0
XRECORD
  5
147
102
{ACAD_REACTORS
330
146
102
}
330
146
100
AcDbXrecord
280
     1
102
RTVSPost2010Prop28
280
     0
102
RTVSPost2010PropOp28
 70
     1
102
RTVSPost2010Prop29
280
     1
102
RTVSPost2010PropOp29
 70
     1
102
RTVSPost2010Prop30
280
     1
102
RTVSPost2010PropOp30
 70
     1
102
RTVSPost2010Prop31
280
     0
102
RTVSPost2010PropOp31
 70
     1
102
RTVSPost2010Prop32
280
     0
102
RTVSPost2010PropOp32
 70
     1
102
RTVSPost2010Prop33
280
     0
102
RTVSPost2010PropOp33
 70
     1
102
RTVSPost2010Prop34
280
     0
102
RTVSPost2010PropOp34
 70
     1
102
RTVSPost2010Prop35
280
     0
102
RTVSPost2010PropOp35
 70
     1
102
RTVSPost2010Prop36
280
     0
102
RTVSPost2010PropOp36
 70
     1
102
RTVSPost2010Prop37
 90
       50
102
RTVSPost2010PropOp37
 70
     1
102
RTVSPost2010Prop38
140
0.0
102
RTVSPost2010PropOp38
 70
     1
102
RTVSPost2010Prop39
140
1.0
102
RTVSPost2010PropOp39
 70
     1
102
RTVSPost2010Prop40
 90
        0
102
RTVSPost2010PropOp40
 70
     1
102
RTVSPost2010Prop41ColorIndex
 90
       18
102
RTVSPost2010Prop41ColorRGB
 90
        0
102
RTVSPost2010PropOp41
 70
     1
102
RTVSPost2010Prop42
 90
       50
102
RTVSPost2010PropOp42
 70
     1
102
RTVSPost2010Prop43
 90
        3
102
RTVSPost2010PropOp43
 70
     1
102
RTVSPost2010Prop44ColorIndex
 90
        5
102
RTVSPost2010Prop44ColorRGB
 90
      255
102
RTVSPost2010PropOp44
 70
     1
102
RTVSPost2010Prop45
280
     0
102
RTVSPost2010PropOp45
 70
     1
102
RTVSPost2010Prop46
 90
       50
102
RTVSPost2010PropOp46
 70
     1
102
RTVSPost2010Prop47
 90
       50
102
RTVSPost2010PropOp47
 70
     1
102
RTVSPost2010Prop48
 90
       50
102
RTVSPost2010PropOp48
 70
     1
102
RTVSPost2010Prop49
280
     0
102
RTVSPost2010PropOp49
 70
     1
102
RTVSPost2010Prop50
 90
       50
102
RTVSPost2010PropOp50
 70
     1
102
RTVSPost2010Prop51ColorIndex
 90
      256
102
RTVSPost2010Prop51ColorRGB
 90
-16777216
102
RTVSPost2010PropOp51
 70
     0
102
RTVSPost2010Prop52
140
1.0
102
RTVSPost2010PropOp52
 70
     0
102
RTVSPost2010Prop53
 90
        2
102
RTVSPost2010PropOp53
 70
     1
102
RTVSPost2010Prop54
  1
strokes_ogs.tif
102
RTVSPost2010PropOp54
 70
     1
102
RTVSPost2010Prop55
280
     0
102
RTVSPost2010PropOp55
 70
     1
102
RTVSPost2010Prop56
140
1.0
102
RTVSPost2010PropOp56
 70
     1
102
RTVSPost2010Prop57
140
1.0
102
RTVSPost2010PropOp57
 70
     1
  0
XRECORD
  5
161
102
{ACAD_REACTORS
330
160
102
}
330
160
100
AcDbXrecord
280
     1
102
RTVSPost2010Prop28
280
     0
102
RTVSPost2010PropOp28
 70
     0
102
RTVSPost2010Prop29
280
     1
102
RTVSPost2010PropOp29
 70
     0
102
RTVSPost2010Prop30
280
     1
102
RTVSPost2010PropOp30
 70
     0
102
RTVSPost2010Prop31
280
     0
102
RTVSPost2010PropOp31
 70
     0
102
RTVSPost2010Prop32
280
     0
102
RTVSPost2010PropOp32
 70
     0
102
RTVSPost2010Prop33
280
     0
102
RTVSPost2010PropOp33
 70
     0
102
RTVSPost2010Prop34
280
     0
102
RTVSPost2010PropOp34
 70
     0
102
RTVSPost2010Prop35
280
     0
102
RTVSPost2010PropOp35
 70
     0
102
RTVSPost2010Prop36
280
     0
102
RTVSPost2010PropOp36
 70
     0
102
RTVSPost2010Prop37
 90
       50
102
RTVSPost2010PropOp37
 70
     0
102
RTVSPost2010Prop38
140
0.0
102
RTVSPost2010PropOp38
 70
     0
102
RTVSPost2010Prop39
140
1.0
102
RTVSPost2010PropOp39
 70
     0
102
RTVSPost2010Prop40
 90
        0
102
RTVSPost2010PropOp40
 70
     0
102
RTVSPost2010Prop41ColorIndex
 90
       18
102
RTVSPost2010Prop41ColorRGB
 90
        0
102
RTVSPost2010PropOp41
 70
     0
102
RTVSPost2010Prop42
 90
       50
102
RTVSPost2010PropOp42
 70
     0
102
RTVSPost2010Prop43
 90
        3
102
RTVSPost2010PropOp43
 70
     0
102
RTVSPost2010Prop44ColorIndex
 90
        5
102
RTVSPost2010Prop44ColorRGB
 90
      255
102
RTVSPost2010PropOp44
 70
     0
102
RTVSPost2010Prop45
280
     0
102
RTVSPost2010PropOp45
 70
     0
102
RTVSPost2010Prop46
 90
       50
102
RTVSPost2010PropOp46
 70
     0
102
RTVSPost2010Prop47
 90
       50
102
RTVSPost2010PropOp47
 70
     0
102
RTVSPost2010Prop48
 90
       50
102
RTVSPost2010PropOp48
 70
     0
102
RTVSPost2010Prop49
280
     0
102
RTVSPost2010PropOp49
 70
     0
102
RTVSPost2010Prop50
 90
       50
102
RTVSPost2010PropOp50
 70
     0
102
RTVSPost2010Prop51ColorIndex
 90
      256
102
RTVSPost2010Prop51ColorRGB
 90
-16777216
102
RTVSPost2010PropOp51
 70
     0
102
RTVSPost2010Prop52
140
1.0
102
RTVSPost2010PropOp52
 70
     0
102
RTVSPost2010Prop53
 90
        2
102
RTVSPost2010PropOp53
 70
     0
102
RTVSPost2010Prop54
  1
strokes_ogs.tif
102
RTVSPost2010PropOp54
 70
     0
102
RTVSPost2010Prop55
280
     0
102
RTVSPost2010PropOp55
 70
     0
102
RTVSPost2010Prop56
140
1.0
102
RTVSPost2010PropOp56
 70
     0
102
RTVSPost2010Prop57
140
1.0
102
RTVSPost2010PropOp57
 70
     0
  0
XRECORD
  5
14F
102
{ACAD_REACTORS
330
14E
102
}
330
14E
100
AcDbXrecord
280
     1
102
RTVSPost2010Prop28
280
     0
102
RTVSPost2010PropOp28
 70
     1
102
RTVSPost2010Prop29
280
     1
102
RTVSPost2010PropOp29
 70
     1
102
RTVSPost2010Prop30
280
     1
102
RTVSPost2010PropOp30
 70
     1
102
RTVSPost2010Prop31
280
     0
102
RTVSPost2010PropOp31
 70
     1
102
RTVSPost2010Prop32
280
     0
102
RTVSPost2010PropOp32
 70
     1
102
RTVSPost2010Prop33
280
     0
102
RTVSPost2010PropOp33
 70
     1
102
RTVSPost2010Prop34
280
     0
102
RTVSPost2010PropOp34
 70
     1
102
RTVSPost2010Prop35
280
     0
102
RTVSPost2010PropOp35
 70
     1
102
RTVSPost2010Prop36
280
     0
102
RTVSPost2010PropOp36
 70
     1
102
RTVSPost2010Prop37
 90
       50
102
RTVSPost2010PropOp37
 70
     1
102
RTVSPost2010Prop38
140
0.0
102
RTVSPost2010PropOp38
 70
     1
102
RTVSPost2010Prop39
140
1.0
102
RTVSPost2010PropOp39
 70
     1
102
RTVSPost2010Prop40
 90
        0
102
RTVSPost2010PropOp40
 70
     1
102
RTVSPost2010Prop41ColorIndex
 90
       18
102
RTVSPost2010Prop41ColorRGB
 90
        0
102
RTVSPost2010PropOp41
 70
     1
102
RTVSPost2010Prop42
 90
       50
102
RTVSPost2010PropOp42
 70
     1
102
RTVSPost2010Prop43
 90
        3
102
RTVSPost2010PropOp43
 70
     1
102
RTVSPost2010Prop44ColorIndex
 90
        5
102
RTVSPost2010Prop44ColorRGB
 90
      255
102
RTVSPost2010PropOp44
 70
     1
102
RTVSPost2010Prop45
280
     0
102
RTVSPost2010PropOp45
 70
     1
102
RTVSPost2010Prop46
 90
       50
102
RTVSPost2010PropOp46
 70
     1
102
RTVSPost2010Prop47
 90
       50
102
RTVSPost2010PropOp47
 70
     1
102
RTVSPost2010Prop48
 90
       50
102
RTVSPost2010PropOp48
 70
     1
102
RTVSPost2010Prop49
280
     0
102
RTVSPost2010PropOp49
 70
     1
102
RTVSPost2010Prop50
 90
       50
102
RTVSPost2010PropOp50
 70
     1
102
RTVSPost2010Prop51ColorIndex
 90
      256
102
RTVSPost2010Prop51ColorRGB
 90
-16777216
102
RTVSPost2010PropOp51
 70
     0
102
RTVSPost2010Prop52
140
1.0
102
RTVSPost2010PropOp52
 70
     0
102
RTVSPost2010Prop53
 90
        2
102
RTVSPost2010PropOp53
 70
     1
102
RTVSPost2010Prop54
  1
strokes_ogs.tif
102
RTVSPost2010PropOp54
 70
     1
102
RTVSPost2010Prop55
280
     0
102
RTVSPost2010PropOp55
 70
     1
102
RTVSPost2010Prop56
140
1.0
102
RTVSPost2010PropOp56
 70
     1
102
RTVSPost2010Prop57
140
1.0
102
RTVSPost2010PropOp57
 70
     1
  0
XRECORD
  5
133
102
{ACAD_REACTORS
330
132
102
}
330
132
100
AcDbXrecord
280
     1
102
RTVSPost2010Prop28
280
     0
102
RTVSPost2010PropOp28
 70
     1
102
RTVSPost2010Prop29
280
     1
102
RTVSPost2010PropOp29
 70
     1
102
RTVSPost2010Prop30
280
     1
102
RTVSPost2010PropOp30
 70
     1
102
RTVSPost2010Prop31
280
     0
102
RTVSPost2010PropOp31
 70
     1
102
RTVSPost2010Prop32
280
     0
102
RTVSPost2010PropOp32
 70
     1
102
RTVSPost2010Prop33
280
     0
102
RTVSPost2010PropOp33
 70
     1
102
RTVSPost2010Prop34
280
     0
102
RTVSPost2010PropOp34
 70
     1
102
RTVSPost2010Prop35
280
     0
102
RTVSPost2010PropOp35
 70
     1
102
RTVSPost2010Prop36
280
     0
102
RTVSPost2010PropOp36
 70
     1
102
RTVSPost2010Prop37
 90
       50
102
RTVSPost2010PropOp37
 70
     1
102
RTVSPost2010Prop38
140
0.0
102
RTVSPost2010PropOp38
 70
     1
102
RTVSPost2010Prop39
140
1.0
102
RTVSPost2010PropOp39
 70
     1
102
RTVSPost2010Prop40
 90
        0
102
RTVSPost2010PropOp40
 70
     1
102
RTVSPost2010Prop41ColorIndex
 90
       18
102
RTVSPost2010Prop41ColorRGB
 90
        0
102
RTVSPost2010PropOp41
 70
     1
102
RTVSPost2010Prop42
 90
       50
102
RTVSPost2010PropOp42
 70
     1
102
RTVSPost2010Prop43
 90
        3
102
RTVSPost2010PropOp43
 70
     1
102
RTVSPost2010Prop44ColorIndex
 90
        5
102
RTVSPost2010Prop44ColorRGB
 90
      255
102
RTVSPost2010PropOp44
 70
     1
102
RTVSPost2010Prop45
280
     0
102
RTVSPost2010PropOp45
 70
     1
102
RTVSPost2010Prop46
 90
       50
102
RTVSPost2010PropOp46
 70
     1
102
RTVSPost2010Prop47
 90
       50
102
RTVSPost2010PropOp47
 70
     1
102
RTVSPost2010Prop48
 90
       50
102
RTVSPost2010PropOp48
 70
     1
102
RTVSPost2010Prop49
280
     0
102
RTVSPost2010PropOp49
 70
     1
102
RTVSPost2010Prop50
 90
       50
102
RTVSPost2010PropOp50
 70
     1
102
RTVSPost2010Prop51ColorIndex
 90
      256
102
RTVSPost2010Prop51ColorRGB
 90
-16777216
102
RTVSPost2010PropOp51
 70
     0
102
RTVSPost2010Prop52
140
1.0
102
RTVSPost2010PropOp52
 70
     0
102
RTVSPost2010Prop53
 90
        2
102
RTVSPost2010PropOp53
 70
     1
102
RTVSPost2010Prop54
  1
strokes_ogs.tif
102
RTVSPost2010PropOp54
 70
     1
102
RTVSPost2010Prop55
280
     0
102
RTVSPost2010PropOp55
 70
     1
102
RTVSPost2010Prop56
140
1.0
102
RTVSPost2010PropOp56
 70
     1
102
RTVSPost2010Prop57
140
1.0
102
RTVSPost2010PropOp57
 70
     1
  0
XRECORD
  5
135
102
{ACAD_REACTORS
330
134
102
}
330
134
100
AcDbXrecord
280
     1
102
RTVSPost2010Prop28
280
     0
102
RTVSPost2010PropOp28
 70
     1
102
RTVSPost2010Prop29
280
     1
102
RTVSPost2010PropOp29
 70
     1
102
RTVSPost2010Prop30
280
     1
102
RTVSPost2010PropOp30
 70
     1
102
RTVSPost2010Prop31
280
     0
102
RTVSPost2010PropOp31
 70
     1
102
RTVSPost2010Prop32
280
     0
102
RTVSPost2010PropOp32
 70
     1
102
RTVSPost2010Prop33
280
     0
102
RTVSPost2010PropOp33
 70
     1
102
RTVSPost2010Prop34
280
     0
102
RTVSPost2010PropOp34
 70
     1
102
RTVSPost2010Prop35
280
     0
102
RTVSPost2010PropOp35
 70
     1
102
RTVSPost2010Prop36
280
     0
102
RTVSPost2010PropOp36
 70
     1
102
RTVSPost2010Prop37
 90
       50
102
RTVSPost2010PropOp37
 70
     1
102
RTVSPost2010Prop38
140
0.0
102
RTVSPost2010PropOp38
 70
     1
102
RTVSPost2010Prop39
140
1.0
102
RTVSPost2010PropOp39
 70
     1
102
RTVSPost2010Prop40
 90
        0
102
RTVSPost2010PropOp40
 70
     1
102
RTVSPost2010Prop41ColorIndex
 90
       18
102
RTVSPost2010Prop41ColorRGB
 90
        0
102
RTVSPost2010PropOp41
 70
     1
102
RTVSPost2010Prop42
 90
       50
102
RTVSPost2010PropOp42
 70
     1
102
RTVSPost2010Prop43
 90
        3
102
RTVSPost2010PropOp43
 70
     1
102
RTVSPost2010Prop44ColorIndex
 90
        5
102
RTVSPost2010Prop44ColorRGB
 90
      255
102
RTVSPost2010PropOp44
 70
     1
102
RTVSPost2010Prop45
280
     0
102
RTVSPost2010PropOp45
 70
     1
102
RTVSPost2010Prop46
 90
       50
102
RTVSPost2010PropOp46
 70
     1
102
RTVSPost2010Prop47
 90
       50
102
RTVSPost2010PropOp47
 70
     1
102
RTVSPost2010Prop48
 90
       50
102
RTVSPost2010PropOp48
 70
     1
102
RTVSPost2010Prop49
280
     0
102
RTVSPost2010PropOp49
 70
     1
102
RTVSPost2010Prop50
 90
       50
102
RTVSPost2010PropOp50
 70
     1
102
RTVSPost2010Prop51ColorIndex
 90
      256
102
RTVSPost2010Prop51ColorRGB
 90
-16777216
102
RTVSPost2010PropOp51
 70
     0
102
RTVSPost2010Prop52
140
1.0
102
RTVSPost2010PropOp52
 70
     0
102
RTVSPost2010Prop53
 90
        2
102
RTVSPost2010PropOp53
 70
     1
102
RTVSPost2010Prop54
  1
strokes_ogs.tif
102
RTVSPost2010PropOp54
 70
     1
102
RTVSPost2010Prop55
280
     0
102
RTVSPost2010PropOp55
 70
     1
102
RTVSPost2010Prop56
140
1.0
102
RTVSPost2010PropOp56
 70
     1
102
RTVSPost2010Prop57
140
1.0
102
RTVSPost2010PropOp57
 70
     1
  0
XRECORD
  5
137
102
{ACAD_REACTORS
330
136
102
}
330
136
100
AcDbXrecord
280
     1
102
RTVSPost2010Prop28
280
     0
102
RTVSPost2010PropOp28
 70
     1
102
RTVSPost2010Prop29
280
     1
102
RTVSPost2010PropOp29
 70
     1
102
RTVSPost2010Prop30
280
     1
102
RTVSPost2010PropOp30
 70
     1
102
RTVSPost2010Prop31
280
     0
102
RTVSPost2010PropOp31
 70
     1
102
RTVSPost2010Prop32
280
     0
102
RTVSPost2010PropOp32
 70
     1
102
RTVSPost2010Prop33
280
     0
102
RTVSPost2010PropOp33
 70
     1
102
RTVSPost2010Prop34
280
     0
102
RTVSPost2010PropOp34
 70
     1
102
RTVSPost2010Prop35
280
     0
102
RTVSPost2010PropOp35
 70
     1
102
RTVSPost2010Prop36
280
     0
102
RTVSPost2010PropOp36
 70
     1
102
RTVSPost2010Prop37
 90
       50
102
RTVSPost2010PropOp37
 70
     1
102
RTVSPost2010Prop38
140
0.0
102
RTVSPost2010PropOp38
 70
     1
102
RTVSPost2010Prop39
140
1.0
102
RTVSPost2010PropOp39
 70
     1
102
RTVSPost2010Prop40
 90
        0
102
RTVSPost2010PropOp40
 70
     1
102
RTVSPost2010Prop41ColorIndex
 90
       18
102
RTVSPost2010Prop41ColorRGB
 90
        0
102
RTVSPost2010PropOp41
 70
     1
102
RTVSPost2010Prop42
 90
       50
102
RTVSPost2010PropOp42
 70
     1
102
RTVSPost2010Prop43
 90
        3
102
RTVSPost2010PropOp43
 70
     1
102
RTVSPost2010Prop44ColorIndex
 90
        5
102
RTVSPost2010Prop44ColorRGB
 90
      255
102
RTVSPost2010PropOp44
 70
     1
102
RTVSPost2010Prop45
280
     0
102
RTVSPost2010PropOp45
 70
     1
102
RTVSPost2010Prop46
 90
       50
102
RTVSPost2010PropOp46
 70
     1
102
RTVSPost2010Prop47
 90
       50
102
RTVSPost2010PropOp47
 70
     1
102
RTVSPost2010Prop48
 90
       50
102
RTVSPost2010PropOp48
 70
     1
102
RTVSPost2010Prop49
280
     0
102
RTVSPost2010PropOp49
 70
     1
102
RTVSPost2010Prop50
 90
       50
102
RTVSPost2010PropOp50
 70
     1
102
RTVSPost2010Prop51ColorIndex
 90
      256
102
RTVSPost2010Prop51ColorRGB
 90
-16777216
102
RTVSPost2010PropOp51
 70
     0
102
RTVSPost2010Prop52
140
1.0
102
RTVSPost2010PropOp52
 70
     0
102
RTVSPost2010Prop53
 90
        2
102
RTVSPost2010PropOp53
 70
     1
102
RTVSPost2010Prop54
  1
strokes_ogs.tif
102
RTVSPost2010PropOp54
 70
     1
102
RTVSPost2010Prop55
280
     0
102
RTVSPost2010PropOp55
 70
     1
102
RTVSPost2010Prop56
140
1.0
102
RTVSPost2010PropOp56
 70
     1
102
RTVSPost2010Prop57
140
1.0
102
RTVSPost2010PropOp57
 70
     1
  0
XRECORD
  5
139
102
{ACAD_REACTORS
330
138
102
}
330
138
100
AcDbXrecord
280
     1
102
RTVSPost2010Prop28
280
     0
102
RTVSPost2010PropOp28
 70
     1
102
RTVSPost2010Prop29
280
     1
102
RTVSPost2010PropOp29
 70
     1
102
RTVSPost2010Prop30
280
     1
102
RTVSPost2010PropOp30
 70
     1
102
RTVSPost2010Prop31
280
     0
102
RTVSPost2010PropOp31
 70
     1
102
RTVSPost2010Prop32
280
     0
102
RTVSPost2010PropOp32
 70
     1
102
RTVSPost2010Prop33
280
     0
102
RTVSPost2010PropOp33
 70
     1
102
RTVSPost2010Prop34
280
     0
102
RTVSPost2010PropOp34
 70
     1
102
RTVSPost2010Prop35
280
     0
102
RTVSPost2010PropOp35
 70
     1
102
RTVSPost2010Prop36
280
     0
102
RTVSPost2010PropOp36
 70
     1
102
RTVSPost2010Prop37
 90
       50
102
RTVSPost2010PropOp37
 70
     1
102
RTVSPost2010Prop38
140
0.0
102
RTVSPost2010PropOp38
 70
     1
102
RTVSPost2010Prop39
140
1.0
102
RTVSPost2010PropOp39
 70
     1
102
RTVSPost2010Prop40
 90
        0
102
RTVSPost2010PropOp40
 70
     1
102
RTVSPost2010Prop41ColorIndex
 90
       18
102
RTVSPost2010Prop41ColorRGB
 90
        0
102
RTVSPost2010PropOp41
 70
     1
102
RTVSPost2010Prop42
 90
       50
102
RTVSPost2010PropOp42
 70
     1
102
RTVSPost2010Prop43
 90
        3
102
RTVSPost2010PropOp43
 70
     1
102
RTVSPost2010Prop44ColorIndex
 90
        5
102
RTVSPost2010Prop44ColorRGB
 90
      255
102
RTVSPost2010PropOp44
 70
     1
102
RTVSPost2010Prop45
280
     0
102
RTVSPost2010PropOp45
 70
     1
102
RTVSPost2010Prop46
 90
       50
102
RTVSPost2010PropOp46
 70
     1
102
RTVSPost2010Prop47
 90
       50
102
RTVSPost2010PropOp47
 70
     1
102
RTVSPost2010Prop48
 90
       50
102
RTVSPost2010PropOp48
 70
     1
102
RTVSPost2010Prop49
280
     0
102
RTVSPost2010PropOp49
 70
     1
102
RTVSPost2010Prop50
 90
       50
102
RTVSPost2010PropOp50
 70
     1
102
RTVSPost2010Prop51ColorIndex
 90
      256
102
RTVSPost2010Prop51ColorRGB
 90
-16777216
102
RTVSPost2010PropOp51
 70
     0
102
RTVSPost2010Prop52
140
1.0
102
RTVSPost2010PropOp52
 70
     0
102
RTVSPost2010Prop53
 90
        2
102
RTVSPost2010PropOp53
 70
     1
102
RTVSPost2010Prop54
  1
strokes_ogs.tif
102
RTVSPost2010PropOp54
 70
     1
102
RTVSPost2010Prop55
280
     0
102
RTVSPost2010PropOp55
 70
     1
102
RTVSPost2010Prop56
140
1.0
102
RTVSPost2010PropOp56
 70
     1
102
RTVSPost2010Prop57
140
1.0
102
RTVSPost2010PropOp57
 70
     1
  0
XRECORD
  5
141
102
{ACAD_REACTORS
330
140
102
}
330
140
100
AcDbXrecord
280
     1
102
RTVSPost2010Prop28
280
     0
102
RTVSPost2010PropOp28
 70
     1
102
RTVSPost2010Prop29
280
     1
102
RTVSPost2010PropOp29
 70
     1
102
RTVSPost2010Prop30
280
     1
102
RTVSPost2010PropOp30
 70
     1
102
RTVSPost2010Prop31
280
     0
102
RTVSPost2010PropOp31
 70
     1
102
RTVSPost2010Prop32
280
     0
102
RTVSPost2010PropOp32
 70
     1
102
RTVSPost2010Prop33
280
     0
102
RTVSPost2010PropOp33
 70
     1
102
RTVSPost2010Prop34
280
     0
102
RTVSPost2010PropOp34
 70
     1
102
RTVSPost2010Prop35
280
     0
102
RTVSPost2010PropOp35
 70
     1
102
RTVSPost2010Prop36
280
     0
102
RTVSPost2010PropOp36
 70
     1
102
RTVSPost2010Prop37
 90
       50
102
RTVSPost2010PropOp37
 70
     1
102
RTVSPost2010Prop38
140
0.0
102
RTVSPost2010PropOp38
 70
     1
102
RTVSPost2010Prop39
140
1.0
102
RTVSPost2010PropOp39
 70
     1
102
RTVSPost2010Prop40
 90
        0
102
RTVSPost2010PropOp40
 70
     1
102
RTVSPost2010Prop41ColorIndex
 90
       18
102
RTVSPost2010Prop41ColorRGB
 90
        0
102
RTVSPost2010PropOp41
 70
     1
102
RTVSPost2010Prop42
 90
       50
102
RTVSPost2010PropOp42
 70
     1
102
RTVSPost2010Prop43
 90
        3
102
RTVSPost2010PropOp43
 70
     1
102
RTVSPost2010Prop44ColorIndex
 90
        5
102
RTVSPost2010Prop44ColorRGB
 90
      255
102
RTVSPost2010PropOp44
 70
     1
102
RTVSPost2010Prop45
280
     0
102
RTVSPost2010PropOp45
 70
     1
102
RTVSPost2010Prop46
 90
       50
102
RTVSPost2010PropOp46
 70
     1
102
RTVSPost2010Prop47
 90
       50
102
RTVSPost2010PropOp47
 70
     1
102
RTVSPost2010Prop48
 90
       50
102
RTVSPost2010PropOp48
 70
     1
102
RTVSPost2010Prop49
280
     0
102
RTVSPost2010PropOp49
 70
     1
102
RTVSPost2010Prop50
 90
       50
102
RTVSPost2010PropOp50
 70
     1
102
RTVSPost2010Prop51ColorIndex
 90
      256
102
RTVSPost2010Prop51ColorRGB
 90
-16777216
102
RTVSPost2010PropOp51
 70
     0
102
RTVSPost2010Prop52
140
1.0
102
RTVSPost2010PropOp52
 70
     0
102
RTVSPost2010Prop53
 90
        2
102
RTVSPost2010PropOp53
 70
     1
102
RTVSPost2010Prop54
  1
strokes_ogs.tif
102
RTVSPost2010PropOp54
 70
     1
102
RTVSPost2010Prop55
280
     0
102
RTVSPost2010PropOp55
 70
     1
102
RTVSPost2010Prop56
140
1.0
102
RTVSPost2010PropOp56
 70
     1
102
RTVSPost2010Prop57
140
1.0
102
RTVSPost2010PropOp57
 70
     1
  0
XRECORD
  5
15D
102
{ACAD_REACTORS
330
15C
102
}
330
15C
100
AcDbXrecord
280
     1
102
RTVSPost2010Prop28
280
     0
102
RTVSPost2010PropOp28
 70
     0
102
RTVSPost2010Prop29
280
     1
102
RTVSPost2010PropOp29
 70
     0
102
RTVSPost2010Prop30
280
     1
102
RTVSPost2010PropOp30
 70
     0
102
RTVSPost2010Prop31
280
     0
102
RTVSPost2010PropOp31
 70
     0
102
RTVSPost2010Prop32
280
     0
102
RTVSPost2010PropOp32
 70
     0
102
RTVSPost2010Prop33
280
     0
102
RTVSPost2010PropOp33
 70
     0
102
RTVSPost2010Prop34
280
     0
102
RTVSPost2010PropOp34
 70
     0
102
RTVSPost2010Prop35
280
     0
102
RTVSPost2010PropOp35
 70
     0
102
RTVSPost2010Prop36
280
     0
102
RTVSPost2010PropOp36
 70
     0
102
RTVSPost2010Prop37
 90
       50
102
RTVSPost2010PropOp37
 70
     0
102
RTVSPost2010Prop38
140
0.0
102
RTVSPost2010PropOp38
 70
     0
102
RTVSPost2010Prop39
140
1.0
102
RTVSPost2010PropOp39
 70
     0
102
RTVSPost2010Prop40
 90
        0
102
RTVSPost2010PropOp40
 70
     0
102
RTVSPost2010Prop41ColorIndex
 90
       18
102
RTVSPost2010Prop41ColorRGB
 90
        0
102
RTVSPost2010PropOp41
 70
     0
102
RTVSPost2010Prop42
 90
       50
102
RTVSPost2010PropOp42
 70
     0
102
RTVSPost2010Prop43
 90
        3
102
RTVSPost2010PropOp43
 70
     0
102
RTVSPost2010Prop44ColorIndex
 90
        5
102
RTVSPost2010Prop44ColorRGB
 90
      255
102
RTVSPost2010PropOp44
 70
     0
102
RTVSPost2010Prop45
280
     0
102
RTVSPost2010PropOp45
 70
     0
102
RTVSPost2010Prop46
 90
       50
102
RTVSPost2010PropOp46
 70
     0
102
RTVSPost2010Prop47
 90
       50
102
RTVSPost2010PropOp47
 70
     0
102
RTVSPost2010Prop48
 90
       50
102
RTVSPost2010PropOp48
 70
     0
102
RTVSPost2010Prop49
280
     0
102
RTVSPost2010PropOp49
 70
     0
102
RTVSPost2010Prop50
 90
       50
102
RTVSPost2010PropOp50
 70
     0
102
RTVSPost2010Prop51ColorIndex
 90
      256
102
RTVSPost2010Prop51ColorRGB
 90
-16777216
102
RTVSPost2010PropOp51
 70
     0
102
RTVSPost2010Prop52
140
1.0
102
RTVSPost2010PropOp52
 70
     0
102
RTVSPost2010Prop53
 90
        2
102
RTVSPost2010PropOp53
 70
     0
102
RTVSPost2010Prop54
  1
strokes_ogs.tif
102
RTVSPost2010PropOp54
 70
     0
102
RTVSPost2010Prop55
280
     0
102
RTVSPost2010PropOp55
 70
     0
102
RTVSPost2010Prop56
140
1.0
102
RTVSPost2010PropOp56
 70
     0
102
RTVSPost2010Prop57
140
1.0
102
RTVSPost2010PropOp57
 70
     0
  0
XRECORD
  5
14D
102
{ACAD_REACTORS
330
14C
102
}
330
14C
100
AcDbXrecord
280
     1
102
RTVSPost2010Prop28
280
     0
102
RTVSPost2010PropOp28
 70
     1
102
RTVSPost2010Prop29
280
     1
102
RTVSPost2010PropOp29
 70
     1
102
RTVSPost2010Prop30
280
     1
102
RTVSPost2010PropOp30
 70
     1
102
RTVSPost2010Prop31
280
     0
102
RTVSPost2010PropOp31
 70
     1
102
RTVSPost2010Prop32
280
     0
102
RTVSPost2010PropOp32
 70
     1
102
RTVSPost2010Prop33
280
     0
102
RTVSPost2010PropOp33
 70
     1
102
RTVSPost2010Prop34
280
     0
102
RTVSPost2010PropOp34
 70
     1
102
RTVSPost2010Prop35
280
     0
102
RTVSPost2010PropOp35
 70
     1
102
RTVSPost2010Prop36
280
     0
102
RTVSPost2010PropOp36
 70
     1
102
RTVSPost2010Prop37
 90
       50
102
RTVSPost2010PropOp37
 70
     1
102
RTVSPost2010Prop38
140
0.0
102
RTVSPost2010PropOp38
 70
     1
102
RTVSPost2010Prop39
140
1.0
102
RTVSPost2010PropOp39
 70
     1
102
RTVSPost2010Prop40
 90
        0
102
RTVSPost2010PropOp40
 70
     1
102
RTVSPost2010Prop41ColorIndex
 90
       18
102
RTVSPost2010Prop41ColorRGB
 90
        0
102
RTVSPost2010PropOp41
 70
     1
102
RTVSPost2010Prop42
 90
       50
102
RTVSPost2010PropOp42
 70
     1
102
RTVSPost2010Prop43
 90
        3
102
RTVSPost2010PropOp43
 70
     1
102
RTVSPost2010Prop44ColorIndex
 90
        5
102
RTVSPost2010Prop44ColorRGB
 90
      255
102
RTVSPost2010PropOp44
 70
     1
102
RTVSPost2010Prop45
280
     0
102
RTVSPost2010PropOp45
 70
     1
102
RTVSPost2010Prop46
 90
       50
102
RTVSPost2010PropOp46
 70
     1
102
RTVSPost2010Prop47
 90
       50
102
RTVSPost2010PropOp47
 70
     1
102
RTVSPost2010Prop48
 90
       50
102
RTVSPost2010PropOp48
 70
     1
102
RTVSPost2010Prop49
280
     0
102
RTVSPost2010PropOp49
 70
     1
102
RTVSPost2010Prop50
 90
       50
102
RTVSPost2010PropOp50
 70
     1
102
RTVSPost2010Prop51ColorIndex
 90
      256
102
RTVSPost2010Prop51ColorRGB
 90
-16777216
102
RTVSPost2010PropOp51
 70
     0
102
RTVSPost2010Prop52
140
1.0
102
RTVSPost2010PropOp52
 70
     0
102
RTVSPost2010Prop53
 90
        2
102
RTVSPost2010PropOp53
 70
     1
102
RTVSPost2010Prop54
  1
strokes_ogs.tif
102
RTVSPost2010PropOp54
 70
     1
102
RTVSPost2010Prop55
280
     0
102
RTVSPost2010PropOp55
 70
     1
102
RTVSPost2010Prop56
140
1.0
102
RTVSPost2010PropOp56
 70
     1
102
RTVSPost2010Prop57
140
1.0
102
RTVSPost2010PropOp57
 70
     1
  0
XRECORD
  5
15F
102
{ACAD_REACTORS
330
15E
102
}
330
15E
100
AcDbXrecord
280
     1
102
RTVSPost2010Prop28
280
     0
102
RTVSPost2010PropOp28
 70
     0
102
RTVSPost2010Prop29
280
     1
102
RTVSPost2010PropOp29
 70
     0
102
RTVSPost2010Prop30
280
     1
102
RTVSPost2010PropOp30
 70
     0
102
RTVSPost2010Prop31
280
     0
102
RTVSPost2010PropOp31
 70
     0
102
RTVSPost2010Prop32
280
     0
102
RTVSPost2010PropOp32
 70
     0
102
RTVSPost2010Prop33
280
     0
102
RTVSPost2010PropOp33
 70
     0
102
RTVSPost2010Prop34
280
     0
102
RTVSPost2010PropOp34
 70
     0
102
RTVSPost2010Prop35
280
     0
102
RTVSPost2010PropOp35
 70
     0
102
RTVSPost2010Prop36
280
     0
102
RTVSPost2010PropOp36
 70
     0
102
RTVSPost2010Prop37
 90
       50
102
RTVSPost2010PropOp37
 70
     0
102
RTVSPost2010Prop38
140
0.0
102
RTVSPost2010PropOp38
 70
     0
102
RTVSPost2010Prop39
140
1.0
102
RTVSPost2010PropOp39
 70
     0
102
RTVSPost2010Prop40
 90
        0
102
RTVSPost2010PropOp40
 70
     0
102
RTVSPost2010Prop41ColorIndex
 90
       18
102
RTVSPost2010Prop41ColorRGB
 90
        0
102
RTVSPost2010PropOp41
 70
     0
102
RTVSPost2010Prop42
 90
       50
102
RTVSPost2010PropOp42
 70
     0
102
RTVSPost2010Prop43
 90
        3
102
RTVSPost2010PropOp43
 70
     0
102
RTVSPost2010Prop44ColorIndex
 90
        5
102
RTVSPost2010Prop44ColorRGB
 90
      255
102
RTVSPost2010PropOp44
 70
     0
102
RTVSPost2010Prop45
280
     0
102
RTVSPost2010PropOp45
 70
     0
102
RTVSPost2010Prop46
 90
       50
102
RTVSPost2010PropOp46
 70
     0
102
RTVSPost2010Prop47
 90
       50
102
RTVSPost2010PropOp47
 70
     0
102
RTVSPost2010Prop48
 90
       50
102
RTVSPost2010PropOp48
 70
     0
102
RTVSPost2010Prop49
280
     0
102
RTVSPost2010PropOp49
 70
     0
102
RTVSPost2010Prop50
 90
       50
102
RTVSPost2010PropOp50
 70
     0
102
RTVSPost2010Prop51ColorIndex
 90
      256
102
RTVSPost2010Prop51ColorRGB
 90
-16777216
102
RTVSPost2010PropOp51
 70
     0
102
RTVSPost2010Prop52
140
1.0
102
RTVSPost2010PropOp52
 70
     0
102
RTVSPost2010Prop53
 90
        2
102
RTVSPost2010PropOp53
 70
     0
102
RTVSPost2010Prop54
  1
strokes_ogs.tif
102
RTVSPost2010PropOp54
 70
     0
102
RTVSPost2010Prop55
280
     0
102
RTVSPost2010PropOp55
 70
     0
102
RTVSPost2010Prop56
140
1.0
102
RTVSPost2010PropOp56
 70
     0
102
RTVSPost2010Prop57
140
1.0
102
RTVSPost2010PropOp57
 70
     0
  0
XRECORD
  5
145
102
{ACAD_REACTORS
330
144
102
}
330
144
100
AcDbXrecord
280
     1
102
RTVSPost2010Prop28
280
     0
102
RTVSPost2010PropOp28
 70
     1
102
RTVSPost2010Prop29
280
     1
102
RTVSPost2010PropOp29
 70
     1
102
RTVSPost2010Prop30
280
     1
102
RTVSPost2010PropOp30
 70
     1
102
RTVSPost2010Prop31
280
     0
102
RTVSPost2010PropOp31
 70
     1
102
RTVSPost2010Prop32
280
     0
102
RTVSPost2010PropOp32
 70
     1
102
RTVSPost2010Prop33
280
     0
102
RTVSPost2010PropOp33
 70
     1
102
RTVSPost2010Prop34
280
     0
102
RTVSPost2010PropOp34
 70
     1
102
RTVSPost2010Prop35
280
     0
102
RTVSPost2010PropOp35
 70
     1
102
RTVSPost2010Prop36
280
     0
102
RTVSPost2010PropOp36
 70
     1
102
RTVSPost2010Prop37
 90
       50
102
RTVSPost2010PropOp37
 70
     1
102
RTVSPost2010Prop38
140
0.0
102
RTVSPost2010PropOp38
 70
     1
102
RTVSPost2010Prop39
140
1.0
102
RTVSPost2010PropOp39
 70
     1
102
RTVSPost2010Prop40
 90
        0
102
RTVSPost2010PropOp40
 70
     1
102
RTVSPost2010Prop41ColorIndex
 90
       18
102
RTVSPost2010Prop41ColorRGB
 90
        0
102
RTVSPost2010PropOp41
 70
     1
102
RTVSPost2010Prop42
 90
       50
102
RTVSPost2010PropOp42
 70
     1
102
RTVSPost2010Prop43
 90
        3
102
RTVSPost2010PropOp43
 70
     1
102
RTVSPost2010Prop44ColorIndex
 90
        5
102
RTVSPost2010Prop44ColorRGB
 90
      255
102
RTVSPost2010PropOp44
 70
     1
102
RTVSPost2010Prop45
280
     0
102
RTVSPost2010PropOp45
 70
     1
102
RTVSPost2010Prop46
 90
       50
102
RTVSPost2010PropOp46
 70
     1
102
RTVSPost2010Prop47
 90
       50
102
RTVSPost2010PropOp47
 70
     1
102
RTVSPost2010Prop48
 90
       50
102
RTVSPost2010PropOp48
 70
     1
102
RTVSPost2010Prop49
280
     0
102
RTVSPost2010PropOp49
 70
     1
102
RTVSPost2010Prop50
 90
       50
102
RTVSPost2010PropOp50
 70
     1
102
RTVSPost2010Prop51ColorIndex
 90
      256
102
RTVSPost2010Prop51ColorRGB
 90
-16777216
102
RTVSPost2010PropOp51
 70
     0
102
RTVSPost2010Prop52
140
1.0
102
RTVSPost2010PropOp52
 70
     0
102
RTVSPost2010Prop53
 90
        2
102
RTVSPost2010PropOp53
 70
     1
102
RTVSPost2010Prop54
  1
strokes_ogs.tif
102
RTVSPost2010PropOp54
 70
     1
102
RTVSPost2010Prop55
280
     0
102
RTVSPost2010PropOp55
 70
     1
102
RTVSPost2010Prop56
140
1.0
102
RTVSPost2010PropOp56
 70
     1
102
RTVSPost2010Prop57
140
1.0
102
RTVSPost2010PropOp57
 70
     1
  0
XRECORD
  5
15B
102
{ACAD_REACTORS
330
15A
102
}
330
15A
100
AcDbXrecord
280
     1
102
RTVSPost2010Prop28
280
     0
102
RTVSPost2010PropOp28
 70
     1
102
RTVSPost2010Prop29
280
     1
102
RTVSPost2010PropOp29
 70
     1
102
RTVSPost2010Prop30
280
     1
102
RTVSPost2010PropOp30
 70
     1
102
RTVSPost2010Prop31
280
     0
102
RTVSPost2010PropOp31
 70
     1
102
RTVSPost2010Prop32
280
     0
102
RTVSPost2010PropOp32
 70
     1
102
RTVSPost2010Prop33
280
     0
102
RTVSPost2010PropOp33
 70
     1
102
RTVSPost2010Prop34
280
     0
102
RTVSPost2010PropOp34
 70
     1
102
RTVSPost2010Prop35
280
     0
102
RTVSPost2010PropOp35
 70
     1
102
RTVSPost2010Prop36
280
     0
102
RTVSPost2010PropOp36
 70
     1
102
RTVSPost2010Prop37
 90
       50
102
RTVSPost2010PropOp37
 70
     1
102
RTVSPost2010Prop38
140
0.0
102
RTVSPost2010PropOp38
 70
     1
102
RTVSPost2010Prop39
140
1.0
102
RTVSPost2010PropOp39
 70
     1
102
RTVSPost2010Prop40
 90
        0
102
RTVSPost2010PropOp40
 70
     1
102
RTVSPost2010Prop41ColorIndex
 90
       18
102
RTVSPost2010Prop41ColorRGB
 90
        0
102
RTVSPost2010PropOp41
 70
     1
102
RTVSPost2010Prop42
 90
       50
102
RTVSPost2010PropOp42
 70
     1
102
RTVSPost2010Prop43
 90
        3
102
RTVSPost2010PropOp43
 70
     1
102
RTVSPost2010Prop44ColorIndex
 90
        5
102
RTVSPost2010Prop44ColorRGB
 90
      255
102
RTVSPost2010PropOp44
 70
     1
102
RTVSPost2010Prop45
280
     0
102
RTVSPost2010PropOp45
 70
     1
102
RTVSPost2010Prop46
 90
       50
102
RTVSPost2010PropOp46
 70
     1
102
RTVSPost2010Prop47
 90
       50
102
RTVSPost2010PropOp47
 70
     1
102
RTVSPost2010Prop48
 90
       50
102
RTVSPost2010PropOp48
 70
     1
102
RTVSPost2010Prop49
280
     0
102
RTVSPost2010PropOp49
 70
     1
102
RTVSPost2010Prop50
 90
       50
102
RTVSPost2010PropOp50
 70
     1
102
RTVSPost2010Prop51ColorIndex
 90
      256
102
RTVSPost2010Prop51ColorRGB
 90
-16777216
102
RTVSPost2010PropOp51
 70
     0
102
RTVSPost2010Prop52
140
1.0
102
RTVSPost2010PropOp52
 70
     0
102
RTVSPost2010Prop53
 90
        2
102
RTVSPost2010PropOp53
 70
     1
102
RTVSPost2010Prop54
  1
strokes_ogs.tif
102
RTVSPost2010PropOp54
 70
     1
102
RTVSPost2010Prop55
280
     0
102
RTVSPost2010PropOp55
 70
     1
102
RTVSPost2010Prop56
140
1.0
102
RTVSPost2010PropOp56
 70
     1
102
RTVSPost2010Prop57
140
1.0
102
RTVSPost2010PropOp57
 70
     1
  0
XRECORD
  5
159
102
{ACAD_REACTORS
330
158
102
}
330
158
100
AcDbXrecord
280
     1
102
RTVSPost2010Prop28
280
     0
102
RTVSPost2010PropOp28
 70
     1
102
RTVSPost2010Prop29
280
     1
102
RTVSPost2010PropOp29
 70
     1
102
RTVSPost2010Prop30
280
     1
102
RTVSPost2010PropOp30
 70
     1
102
RTVSPost2010Prop31
280
     0
102
RTVSPost2010PropOp31
 70
     1
102
RTVSPost2010Prop32
280
     0
102
RTVSPost2010PropOp32
 70
     1
102
RTVSPost2010Prop33
280
     0
102
RTVSPost2010PropOp33
 70
     1
102
RTVSPost2010Prop34
280
     0
102
RTVSPost2010PropOp34
 70
     1
102
RTVSPost2010Prop35
280
     0
102
RTVSPost2010PropOp35
 70
     1
102
RTVSPost2010Prop36
280
     0
102
RTVSPost2010PropOp36
 70
     1
102
RTVSPost2010Prop37
 90
       50
102
RTVSPost2010PropOp37
 70
     1
102
RTVSPost2010Prop38
140
0.0
102
RTVSPost2010PropOp38
 70
     1
102
RTVSPost2010Prop39
140
1.0
102
RTVSPost2010PropOp39
 70
     1
102
RTVSPost2010Prop40
 90
        0
102
RTVSPost2010PropOp40
 70
     1
102
RTVSPost2010Prop41ColorIndex
 90
       18
102
RTVSPost2010Prop41ColorRGB
 90
        0
102
RTVSPost2010PropOp41
 70
     1
102
RTVSPost2010Prop42
 90
       50
102
RTVSPost2010PropOp42
 70
     1
102
RTVSPost2010Prop43
 90
        3
102
RTVSPost2010PropOp43
 70
     1
102
RTVSPost2010Prop44ColorIndex
 90
        5
102
RTVSPost2010Prop44ColorRGB
 90
      255
102
RTVSPost2010PropOp44
 70
     1
102
RTVSPost2010Prop45
280
     0
102
RTVSPost2010PropOp45
 70
     1
102
RTVSPost2010Prop46
 90
       50
102
RTVSPost2010PropOp46
 70
     1
102
RTVSPost2010Prop47
 90
       50
102
RTVSPost2010PropOp47
 70
     1
102
RTVSPost2010Prop48
 90
       50
102
RTVSPost2010PropOp48
 70
     1
102
RTVSPost2010Prop49
280
     0
102
RTVSPost2010PropOp49
 70
     1
102
RTVSPost2010Prop50
 90
       50
102
RTVSPost2010PropOp50
 70
     1
102
RTVSPost2010Prop51ColorIndex
 90
      256
102
RTVSPost2010Prop51ColorRGB
 90
-16777216
102
RTVSPost2010PropOp51
 70
     0
102
RTVSPost2010Prop52
140
1.0
102
RTVSPost2010PropOp52
 70
     0
102
RTVSPost2010Prop53
 90
        2
102
RTVSPost2010PropOp53
 70
     1
102
RTVSPost2010Prop54
  1
strokes_ogs.tif
102
RTVSPost2010PropOp54
 70
     1
102
RTVSPost2010Prop55
280
     0
102
RTVSPost2010PropOp55
 70
     1
102
RTVSPost2010Prop56
140
1.0
102
RTVSPost2010PropOp56
 70
     1
102
RTVSPost2010Prop57
140
1.0
102
RTVSPost2010PropOp57
 70
     1
  0
XRECORD
  5
153
102
{ACAD_REACTORS
330
152
102
}
330
152
100
AcDbXrecord
280
     1
102
RTVSPost2010Prop28
280
     0
102
RTVSPost2010PropOp28
 70
     1
102
RTVSPost2010Prop29
280
     1
102
RTVSPost2010PropOp29
 70
     1
102
RTVSPost2010Prop30
280
     1
102
RTVSPost2010PropOp30
 70
     1
102
RTVSPost2010Prop31
280
     0
102
RTVSPost2010PropOp31
 70
     1
102
RTVSPost2010Prop32
280
     0
102
RTVSPost2010PropOp32
 70
     1
102
RTVSPost2010Prop33
280
     0
102
RTVSPost2010PropOp33
 70
     1
102
RTVSPost2010Prop34
280
     0
102
RTVSPost2010PropOp34
 70
     1
102
RTVSPost2010Prop35
280
     0
102
RTVSPost2010PropOp35
 70
     1
102
RTVSPost2010Prop36
280
     0
102
RTVSPost2010PropOp36
 70
     1
102
RTVSPost2010Prop37
 90
       50
102
RTVSPost2010PropOp37
 70
     1
102
RTVSPost2010Prop38
140
0.0
102
RTVSPost2010PropOp38
 70
     1
102
RTVSPost2010Prop39
140
1.0
102
RTVSPost2010PropOp39
 70
     1
102
RTVSPost2010Prop40
 90
        0
102
RTVSPost2010PropOp40
 70
     1
102
RTVSPost2010Prop41ColorIndex
 90
       18
102
RTVSPost2010Prop41ColorRGB
 90
        0
102
RTVSPost2010PropOp41
 70
     1
102
RTVSPost2010Prop42
 90
       50
102
RTVSPost2010PropOp42
 70
     1
102
RTVSPost2010Prop43
 90
        3
102
RTVSPost2010PropOp43
 70
     1
102
RTVSPost2010Prop44ColorIndex
 90
        5
102
RTVSPost2010Prop44ColorRGB
 90
      255
102
RTVSPost2010PropOp44
 70
     1
102
RTVSPost2010Prop45
280
     0
102
RTVSPost2010PropOp45
 70
     1
102
RTVSPost2010Prop46
 90
       50
102
RTVSPost2010PropOp46
 70
     1
102
RTVSPost2010Prop47
 90
       50
102
RTVSPost2010PropOp47
 70
     1
102
RTVSPost2010Prop48
 90
       50
102
RTVSPost2010PropOp48
 70
     1
102
RTVSPost2010Prop49
280
     0
102
RTVSPost2010PropOp49
 70
     1
102
RTVSPost2010Prop50
 90
       50
102
RTVSPost2010PropOp50
 70
     1
102
RTVSPost2010Prop51ColorIndex
 90
      256
102
RTVSPost2010Prop51ColorRGB
 90
-16777216
102
RTVSPost2010PropOp51
 70
     0
102
RTVSPost2010Prop52
140
1.0
102
RTVSPost2010PropOp52
 70
     0
102
RTVSPost2010Prop53
 90
        2
102
RTVSPost2010PropOp53
 70
     1
102
RTVSPost2010Prop54
  1
strokes_ogs.tif
102
RTVSPost2010PropOp54
 70
     1
102
RTVSPost2010Prop55
280
     0
102
RTVSPost2010PropOp55
 70
     1
102
RTVSPost2010Prop56
140
1.0
102
RTVSPost2010PropOp56
 70
     1
102
RTVSPost2010Prop57
140
1.0
102
RTVSPost2010PropOp57
 70
     1
  0
XRECORD
  5
155
102
{ACAD_REACTORS
330
154
102
}
330
154
100
AcDbXrecord
280
     1
102
RTVSPost2010Prop28
280
     0
102
RTVSPost2010PropOp28
 70
     1
102
RTVSPost2010Prop29
280
     1
102
RTVSPost2010PropOp29
 70
     1
102
RTVSPost2010Prop30
280
     1
102
RTVSPost2010PropOp30
 70
     1
102
RTVSPost2010Prop31
280
     0
102
RTVSPost2010PropOp31
 70
     1
102
RTVSPost2010Prop32
280
     0
102
RTVSPost2010PropOp32
 70
     1
102
RTVSPost2010Prop33
280
     0
102
RTVSPost2010PropOp33
 70
     1
102
RTVSPost2010Prop34
280
     0
102
RTVSPost2010PropOp34
 70
     1
102
RTVSPost2010Prop35
280
     0
102
RTVSPost2010PropOp35
 70
     1
102
RTVSPost2010Prop36
280
     0
102
RTVSPost2010PropOp36
 70
     1
102
RTVSPost2010Prop37
 90
       50
102
RTVSPost2010PropOp37
 70
     1
102
RTVSPost2010Prop38
140
0.0
102
RTVSPost2010PropOp38
 70
     1
102
RTVSPost2010Prop39
140
1.0
102
RTVSPost2010PropOp39
 70
     1
102
RTVSPost2010Prop40
 90
        0
102
RTVSPost2010PropOp40
 70
     1
102
RTVSPost2010Prop41ColorIndex
 90
       18
102
RTVSPost2010Prop41ColorRGB
 90
        0
102
RTVSPost2010PropOp41
 70
     1
102
RTVSPost2010Prop42
 90
       50
102
RTVSPost2010PropOp42
 70
     1
102
RTVSPost2010Prop43
 90
        3
102
RTVSPost2010PropOp43
 70
     1
102
RTVSPost2010Prop44ColorIndex
 90
        5
102
RTVSPost2010Prop44ColorRGB
 90
      255
102
RTVSPost2010PropOp44
 70
     1
102
RTVSPost2010Prop45
280
     0
102
RTVSPost2010PropOp45
 70
     1
102
RTVSPost2010Prop46
 90
       50
102
RTVSPost2010PropOp46
 70
     1
102
RTVSPost2010Prop47
 90
       50
102
RTVSPost2010PropOp47
 70
     1
102
RTVSPost2010Prop48
 90
       50
102
RTVSPost2010PropOp48
 70
     1
102
RTVSPost2010Prop49
280
     0
102
RTVSPost2010PropOp49
 70
     1
102
RTVSPost2010Prop50
 90
       50
102
RTVSPost2010PropOp50
 70
     1
102
RTVSPost2010Prop51ColorIndex
 90
      256
102
RTVSPost2010Prop51ColorRGB
 90
-16777216
102
RTVSPost2010PropOp51
 70
     0
102
RTVSPost2010Prop52
140
1.0
102
RTVSPost2010PropOp52
 70
     0
102
RTVSPost2010Prop53
 90
        2
102
RTVSPost2010PropOp53
 70
     1
102
RTVSPost2010Prop54
  1
strokes_ogs.tif
102
RTVSPost2010PropOp54
 70
     1
102
RTVSPost2010Prop55
280
     0
102
RTVSPost2010PropOp55
 70
     1
102
RTVSPost2010Prop56
140
1.0
102
RTVSPost2010PropOp56
 70
     1
102
RTVSPost2010Prop57
140
1.0
102
RTVSPost2010PropOp57
 70
     1
  0
XRECORD
  5
14B
102
{ACAD_REACTORS
330
14A
102
}
330
14A
100
AcDbXrecord
280
     1
102
RTVSPost2010Prop28
280
     0
102
RTVSPost2010PropOp28
 70
     1
102
RTVSPost2010Prop29
280
     1
102
RTVSPost2010PropOp29
 70
     1
102
RTVSPost2010Prop30
280
     1
102
RTVSPost2010PropOp30
 70
     1
102
RTVSPost2010Prop31
280
     0
102
RTVSPost2010PropOp31
 70
     1
102
RTVSPost2010Prop32
280
     0
102
RTVSPost2010PropOp32
 70
     1
102
RTVSPost2010Prop33
280
     0
102
RTVSPost2010PropOp33
 70
     1
102
RTVSPost2010Prop34
280
     0
102
RTVSPost2010PropOp34
 70
     1
102
RTVSPost2010Prop35
280
     0
102
RTVSPost2010PropOp35
 70
     1
102
RTVSPost2010Prop36
280
     0
102
RTVSPost2010PropOp36
 70
     1
102
RTVSPost2010Prop37
 90
       50
102
RTVSPost2010PropOp37
 70
     1
102
RTVSPost2010Prop38
140
0.0
102
RTVSPost2010PropOp38
 70
     1
102
RTVSPost2010Prop39
140
1.0
102
RTVSPost2010PropOp39
 70
     1
102
RTVSPost2010Prop40
 90
        0
102
RTVSPost2010PropOp40
 70
     1
102
RTVSPost2010Prop41ColorIndex
 90
       18
102
RTVSPost2010Prop41ColorRGB
 90
        0
102
RTVSPost2010PropOp41
 70
     1
102
RTVSPost2010Prop42
 90
       50
102
RTVSPost2010PropOp42
 70
     1
102
RTVSPost2010Prop43
 90
        3
102
RTVSPost2010PropOp43
 70
     1
102
RTVSPost2010Prop44ColorIndex
 90
        5
102
RTVSPost2010Prop44ColorRGB
 90
      255
102
RTVSPost2010PropOp44
 70
     1
102
RTVSPost2010Prop45
280
     0
102
RTVSPost2010PropOp45
 70
     1
102
RTVSPost2010Prop46
 90
       50
102
RTVSPost2010PropOp46
 70
     1
102
RTVSPost2010Prop47
 90
       50
102
RTVSPost2010PropOp47
 70
     1
102
RTVSPost2010Prop48
 90
       50
102
RTVSPost2010PropOp48
 70
     1
102
RTVSPost2010Prop49
280
     0
102
RTVSPost2010PropOp49
 70
     1
102
RTVSPost2010Prop50
 90
       50
102
RTVSPost2010PropOp50
 70
     1
102
RTVSPost2010Prop51ColorIndex
 90
      256
102
RTVSPost2010Prop51ColorRGB
 90
-16777216
102
RTVSPost2010PropOp51
 70
     0
102
RTVSPost2010Prop52
140
1.0
102
RTVSPost2010PropOp52
 70
     0
102
RTVSPost2010Prop53
 90
        2
102
RTVSPost2010PropOp53
 70
     1
102
RTVSPost2010Prop54
  1
strokes_ogs.tif
102
RTVSPost2010PropOp54
 70
     1
102
RTVSPost2010Prop55
280
     0
102
RTVSPost2010PropOp55
 70
     1
102
RTVSPost2010Prop56
140
1.0
102
RTVSPost2010PropOp56
 70
     1
102
RTVSPost2010Prop57
140
1.0
102
RTVSPost2010PropOp57
 70
     1
  0
XRECORD
  5
13F
102
{ACAD_REACTORS
330
13E
102
}
330
13E
100
AcDbXrecord
280
     1
102
RTVSPost2010Prop28
280
     0
102
RTVSPost2010PropOp28
 70
     1
102
RTVSPost2010Prop29
280
     1
102
RTVSPost2010PropOp29
 70
     1
102
RTVSPost2010Prop30
280
     1
102
RTVSPost2010PropOp30
 70
     1
102
RTVSPost2010Prop31
280
     0
102
RTVSPost2010PropOp31
 70
     1
102
RTVSPost2010Prop32
280
     0
102
RTVSPost2010PropOp32
 70
     1
102
RTVSPost2010Prop33
280
     0
102
RTVSPost2010PropOp33
 70
     1
102
RTVSPost2010Prop34
280
     0
102
RTVSPost2010PropOp34
 70
     1
102
RTVSPost2010Prop35
280
     0
102
RTVSPost2010PropOp35
 70
     1
102
RTVSPost2010Prop36
280
     0
102
RTVSPost2010PropOp36
 70
     1
102
RTVSPost2010Prop37
 90
       50
102
RTVSPost2010PropOp37
 70
     1
102
RTVSPost2010Prop38
140
0.0
102
RTVSPost2010PropOp38
 70
     1
102
RTVSPost2010Prop39
140
1.0
102
RTVSPost2010PropOp39
 70
     1
102
RTVSPost2010Prop40
 90
        0
102
RTVSPost2010PropOp40
 70
     1
102
RTVSPost2010Prop41ColorIndex
 90
       18
102
RTVSPost2010Prop41ColorRGB
 90
        0
102
RTVSPost2010PropOp41
 70
     1
102
RTVSPost2010Prop42
 90
       50
102
RTVSPost2010PropOp42
 70
     1
102
RTVSPost2010Prop43
 90
        3
102
RTVSPost2010PropOp43
 70
     1
102
RTVSPost2010Prop44ColorIndex
 90
        5
102
RTVSPost2010Prop44ColorRGB
 90
      255
102
RTVSPost2010PropOp44
 70
     1
102
RTVSPost2010Prop45
280
     0
102
RTVSPost2010PropOp45
 70
     1
102
RTVSPost2010Prop46
 90
       50
102
RTVSPost2010PropOp46
 70
     1
102
RTVSPost2010Prop47
 90
       50
102
RTVSPost2010PropOp47
 70
     1
102
RTVSPost2010Prop48
 90
       50
102
RTVSPost2010PropOp48
 70
     1
102
RTVSPost2010Prop49
280
     0
102
RTVSPost2010PropOp49
 70
     1
102
RTVSPost2010Prop50
 90
       50
102
RTVSPost2010PropOp50
 70
     1
102
RTVSPost2010Prop51ColorIndex
 90
      256
102
RTVSPost2010Prop51ColorRGB
 90
-16777216
102
RTVSPost2010PropOp51
 70
     0
102
RTVSPost2010Prop52
140
1.0
102
RTVSPost2010PropOp52
 70
     0
102
RTVSPost2010Prop53
 90
        2
102
RTVSPost2010PropOp53
 70
     1
102
RTVSPost2010Prop54
  1
strokes_ogs.tif
102
RTVSPost2010PropOp54
 70
     1
102
RTVSPost2010Prop55
280
     0
102
RTVSPost2010PropOp55
 70
     1
102
RTVSPost2010Prop56
140
1.0
102
RTVSPost2010PropOp56
 70
     1
102
RTVSPost2010Prop57
140
1.0
102
RTVSPost2010PropOp57
 70
     1
  0
XRECORD
  5
157
102
{ACAD_REACTORS
330
156
102
}
330
156
100
AcDbXrecord
280
     1
102
RTVSPost2010Prop28
280
     0
102
RTVSPost2010PropOp28
 70
     1
102
RTVSPost2010Prop29
280
     1
102
RTVSPost2010PropOp29
 70
     1
102
RTVSPost2010Prop30
280
     1
102
RTVSPost2010PropOp30
 70
     1
102
RTVSPost2010Prop31
280
     0
102
RTVSPost2010PropOp31
 70
     1
102
RTVSPost2010Prop32
280
     0
102
RTVSPost2010PropOp32
 70
     1
102
RTVSPost2010Prop33
280
     0
102
RTVSPost2010PropOp33
 70
     1
102
RTVSPost2010Prop34
280
     0
102
RTVSPost2010PropOp34
 70
     1
102
RTVSPost2010Prop35
280
     0
102
RTVSPost2010PropOp35
 70
     1
102
RTVSPost2010Prop36
280
     0
102
RTVSPost2010PropOp36
 70
     1
102
RTVSPost2010Prop37
 90
       50
102
RTVSPost2010PropOp37
 70
     1
102
RTVSPost2010Prop38
140
0.0
102
RTVSPost2010PropOp38
 70
     1
102
RTVSPost2010Prop39
140
1.0
102
RTVSPost2010PropOp39
 70
     1
102
RTVSPost2010Prop40
 90
        0
102
RTVSPost2010PropOp40
 70
     1
102
RTVSPost2010Prop41ColorIndex
 90
       18
102
RTVSPost2010Prop41ColorRGB
 90
        0
102
RTVSPost2010PropOp41
 70
     1
102
RTVSPost2010Prop42
 90
       50
102
RTVSPost2010PropOp42
 70
     1
102
RTVSPost2010Prop43
 90
        3
102
RTVSPost2010PropOp43
 70
     1
102
RTVSPost2010Prop44ColorIndex
 90
        5
102
RTVSPost2010Prop44ColorRGB
 90
      255
102
RTVSPost2010PropOp44
 70
     1
102
RTVSPost2010Prop45
280
     0
102
RTVSPost2010PropOp45
 70
     1
102
RTVSPost2010Prop46
 90
       50
102
RTVSPost2010PropOp46
 70
     1
102
RTVSPost2010Prop47
 90
       50
102
RTVSPost2010PropOp47
 70
     1
102
RTVSPost2010Prop48
 90
       50
102
RTVSPost2010PropOp48
 70
     1
102
RTVSPost2010Prop49
280
     0
102
RTVSPost2010PropOp49
 70
     1
102
RTVSPost2010Prop50
 90
       50
102
RTVSPost2010PropOp50
 70
     1
102
RTVSPost2010Prop51ColorIndex
 90
      256
102
RTVSPost2010Prop51ColorRGB
 90
-16777216
102
RTVSPost2010PropOp51
 70
     0
102
RTVSPost2010Prop52
140
1.0
102
RTVSPost2010PropOp52
 70
     0
102
RTVSPost2010Prop53
 90
        2
102
RTVSPost2010PropOp53
 70
     1
102
RTVSPost2010Prop54
  1
strokes_ogs.tif
102
RTVSPost2010PropOp54
 70
     1
102
RTVSPost2010Prop55
280
     0
102
RTVSPost2010PropOp55
 70
     1
102
RTVSPost2010Prop56
140
1.0
102
RTVSPost2010PropOp56
 70
     1
102
RTVSPost2010Prop57
140
1.0
102
RTVSPost2010PropOp57
 70
     1
  0
ENDSEC
  0
EOF
