  0
SECTION
  2
HEADER
  9
$ACADVER
  1
AC1024
  9
$ACADMAINTVER
 70
     6
  9
$DWGCODEPAGE
  3
UNDEFINED
  9
$INSBASE
 10
0.0
 20
0.0
 30
0.0
  9
$EXTMIN
 10
1.000000000000000E+20
 20
1.000000000000000E+20
 30
1.000000000000000E+20
  9
$EXTMAX
 10
-1.000000000000000E+20
 20
-1.000000000000000E+20
 30
-1.000000000000000E+20
  9
$LIMMIN
 10
0.0
 20
0.0
  9
$LIMMAX
 10
12.0
 20
9.0
  9
$ORTHOMODE
 70
     0
  9
$REGENMODE
 70
     1
  9
$FILLMODE
 70
     1
  9
$QTEXTMODE
 70
     0
  9
$MIRRTEXT
 70
     1
  9
$LTSCALE
 40
1.0
  9
$ATTMODE
 70
     1
  9
$TEXTSIZE
 40
0.2
  9
$TRACEWID
 40
0.05
  9
$TEXTSTYLE
  7
Standard
  9
$CLAYER
  8
0
  9
$CELTYPE
  6
ByLayer
  9
$CECOLOR
 62
   256
  9
$CELTSCALE
 40
1.0
  9
$DISPSILH
 70
     0
  9
$DIMSCALE
 40
1.0
  9
$DIMASZ
 40
0.18
  9
$DIMEXO
 40
0.0625
  9
$DIMDLI
 40
0.38
  9
$DIMRND
 40
0.0
  9
$DIMDLE
 40
0.0
  9
$DIMEXE
 40
0.18
  9
$DIMTP
 40
0.0
  9
$DIMTM
 40
0.0
  9
$DIMTXT
 40
0.18
  9
$DIMCEN
 40
0.09
  9
$DIMTSZ
 40
0.0
  9
$DIMTOL
 70
     0
  9
$DIMLIM
 70
     0
  9
$DIMTIH
 70
     1
  9
$DIMTOH
 70
     1
  9
$DIMSE1
 70
     0
  9
$DIMSE2
 70
     0
  9
$DIMTAD
 70
     0
  9
$DIMZIN
 70
     0
  9
$DIMBLK
  1

  9
$DIMASO
 70
     1
  9
$DIMSHO
 70
     1
  9
$DIMPOST
  1

  9
$DIMAPOST
  1

  9
$DIMALT
 70
     0
  9
$DIMALTD
 70
     2
  9
$DIMALTF
 40
25.4
  9
$DIMLFAC
 40
1.0
  9
$DIMTOFL
 70
     0
  9
$DIMTVP
 40
0.0
  9
$DIMTIX
 70
     0
  9
$DIMSOXD
 70
     0
  9
$DIMSAH
 70
     0
  9
$DIMBLK1
  1

  9
$DIMBLK2
  1

  9
$DIMSTYLE
  2
Standard
  9
$DIMCLRD
 70
     0
  9
$DIMCLRE
 70
     0
  9
$DIMCLRT
 70
     0
  9
$DIMTFAC
 40
1.0
  9
$DIMGAP
 40
0.09
  9
$DIMJUST
 70
     0
  9
$DIMSD1
 70
     0
  9
$DIMSD2
 70
     0
  9
$DIMTOLJ
 70
     1
  9
$DIMTZIN
 70
     0
  9
$DIMALTZ
 70
     0
  9
$DIMALTTZ
 70
     0
  9
$DIMUPT
 70
     0
  9
$DIMDEC
 70
     4
  9
$DIMTDEC
 70
     4
  9
$DIMALTU
 70
     2
  9
$DIMALTTD
 70
     2
  9
$DIMTXSTY
  7
Standard
  9
$DIMAUNIT
 70
     0
  9
$DIMADEC
 70
     0
  9
$DIMALTRND
 40
0.0
  9
$DIMAZIN
 70
     0
  9
$DIMDSEP
 70
    46
  9
$DIMATFIT
 70
     3
  9
$DIMFRAC
 70
     0
  9
$DIMLDRBLK
  1

  9
$DIMLUNIT
 70
     2
  9
$DIMLWD
 70
    -2
  9
$DIMLWE
 70
    -2
  9
$DIMTMOVE
 70
     0
  9
$DIMFXL
 40
1.0
  9
$DIMFXLON
 70
     0
  9
$DIMJOGANG
 40
0.7853981633974483
  9
$DIMTFILL
 70
     0
  9
$DIMTFILLCLR
 70
     0
  9
$DIMARCSYM
 70
     0
  9
$DIMLTYPE
  6

  9
$DIMLTEX1
  6

  9
$DIMLTEX2
  6

  9
$DIMTXTDIRECTION
 70
     0
  9
$LUNITS
 70
     2
  9
$LUPREC
 70
     4
  9
$SKETCHINC
 40
0.1
  9
$FILLETRAD
 40
0.5
  9
$AUNITS
 70
     0
  9
$AUPREC
 70
     0
  9
$MENU
  1
.
  9
$ELEVATION
 40
0.0
  9
$PELEVATION
 40
0.0
  9
$THICKNESS
 40
0.0
  9
$LIMCHECK
 70
     0
  9
$CHAMFERA
 40
0.5
  9
$CHAMFERB
 40
0.5
  9
$CHAMFERC
 40
1.0
  9
$CHAMFERD
 40
0.0
  9
$SKPOLY
 70
     0
  9
$TDCREATE
 40
2457917.600567118
  9
$TDUCREATE
 40
2457917.225567129
  9
$TDUPDATE
 40
2457917.600567118
  9
$TDUUPDATE
 40
2457917.225567129
  9
$TDINDWG
 40
0.0000000116
  9
$TDUSRTIMER
 40
0.0000000116
  9
$USRTIMER
 70
     1
  9
$ANGBASE
 50
0.0
  9
$ANGDIR
 70
     0
  9
$PDMODE
 70
     0
  9
$PDSIZE
 40
0.0
  9
$PLINEWID
 40
0.0
  9
$SPLFRAME
 70
     0
  9
$SPLINETYPE
 70
     6
  9
$SPLINESEGS
 70
     8
  9
$HANDSEED
  5
104
  9
$SURFTAB1
 70
     6
  9
$SURFTAB2
 70
     6
  9
$SURFTYPE
 70
     6
  9
$SURFU
 70
     6
  9
$SURFV
 70
     6
  9
$UCSBASE
  2

  9
$UCSNAME
  2

  9
$UCSORG
 10
0.0
 20
0.0
 30
0.0
  9
$UCSXDIR
 10
1.0
 20
0.0
 30
0.0
  9
$UCSYDIR
 10
0.0
 20
1.0
 30
0.0
  9
$UCSORTHOREF
  2

  9
$UCSORTHOVIEW
 70
     0
  9
$UCSORGTOP
 10
0.0
 20
0.0
 30
0.0
  9
$UCSORGBOTTOM
 10
0.0
 20
0.0
 30
0.0
  9
$UCSORGLEFT
 10
0.0
 20
0.0
 30
0.0
  9
$UCSORGRIGHT
 10
0.0
 20
0.0
 30
0.0
  9
$UCSORGFRONT
 10
0.0
 20
0.0
 30
0.0
  9
$UCSORGBACK
 10
0.0
 20
0.0
 30
0.0
  9
$PUCSBASE
  2

  9
$PUCSNAME
  2

  9
$PUCSORG
 10
0.0
 20
0.0
 30
0.0
  9
$PUCSXDIR
 10
1.0
 20
0.0
 30
0.0
  9
$PUCSYDIR
 10
0.0
 20
1.0
 30
0.0
  9
$PUCSORTHOREF
  2

  9
$PUCSORTHOVIEW
 70
     0
  9
$PUCSORGTOP
 10
0.0
 20
0.0
 30
0.0
  9
$PUCSORGBOTTOM
 10
0.0
 20
0.0
 30
0.0
  9
$PUCSORGLEFT
 10
0.0
 20
0.0
 30
0.0
  9
$PUCSORGRIGHT
 10
0.0
 20
0.0
 30
0.0
  9
$PUCSORGFRONT
 10
0.0
 20
0.0
 30
0.0
  9
$PUCSORGBACK
 10
0.0
 20
0.0
 30
0.0
  9
$USERI1
 70
     0
  9
$USERI2
 70
     0
  9
$USERI3
 70
     0
  9
$USERI4
 70
     0
  9
$USERI5
 70
     0
  9
$USERR1
 40
0.0
  9
$USERR2
 40
0.0
  9
$USERR3
 40
0.0
  9
$USERR4
 40
0.0
  9
$USERR5
 40
0.0
  9
$WORLDVIEW
 70
     1
  9
$SHADEDGE
 70
     3
  9
$SHADEDIF
 70
    70
  9
$TILEMODE
 70
     1
  9
$MAXACTVP
 70
    64
  9
$PINSBASE
 10
0.0
 20
0.0
 30
0.0
  9
$PLIMCHECK
 70
     0
  9
$PEXTMIN
 10
1.000000000000000E+20
 20
1.000000000000000E+20
 30
1.000000000000000E+20
  9
$PEXTMAX
 10
-1.000000000000000E+20
 20
-1.000000000000000E+20
 30
-1.000000000000000E+20
  9
$PLIMMIN
 10
0.0
 20
0.0
  9
$PLIMMAX
 10
12.0
 20
9.0
  9
$UNITMODE
 70
     0
  9
$VISRETAIN
 70
     1
  9
$PLINEGEN
 70
     0
  9
$PSLTSCALE
 70
     1
  9
$TREEDEPTH
 70
  3020
  9
$CMLSTYLE
  2
Standard
  9
$CMLJUST
 70
     0
  9
$CMLSCALE
 40
1.0
  9
$PROXYGRAPHICS
 70
     1
  9
$MEASUREMENT
 70
     0
  9
$CELWEIGHT
370
    -1
  9
$ENDCAPS
280
     0
  9
$JOINSTYLE
280
     0
  9
$LWDISPLAY
290
     1
  9
$INSUNITS
 70
     1
  9
$HYPERLINKBASE
  1

  9
$STYLESHEET
  1

  9
$XEDIT
290
     1
  9
$CEPSNTYPE
380
     0
  9
$PSTYLEMODE
290
     1
  9
$FINGERPRINTGUID
  2
{FCF5AF6B-2117-22F9-9DB1-D7E2123A2222}
  9
$VERSIONGUID
  2
{FAEB1C32-E019-11D5-929B-00C0DF256EC4}
  9
$EXTNAMES
290
     1
  9
$PSVPSCALE
 40
0.0
  9
$OLESTARTUP
290
     0
  9
$SORTENTS
280
   127
  9
$INDEXCTL
280
     0
  9
$HIDETEXT
280
     1
  9
$XCLIPFRAME
280
     2
  9
$HALOGAP
280
     0
  9
$OBSCOLOR
 70
   257
  9
$OBSLTYPE
280
     0
  9
$INTERSECTIONDISPLAY
280
     0
  9
$INTERSECTIONCOLOR
 70
   257
  9
$DIMASSOC
280
     2
  9
$PROJECTNAME
  1

  9
$CAMERADISPLAY
290
     0
  9
$LENSLENGTH
 40
50.0
  9
$CAMERAHEIGHT
 40
0.0
  9
$STEPSPERSEC
 40
2.0
  9
$STEPSIZE
 40
6.0
  9
$3DDWFPREC
 40
2.0
  9
$PSOLWIDTH
 40
0.25
  9
$PSOLHEIGHT
 40
4.0
  9
$LOFTANG1
 40
1.570796326794897
  9
$LOFTANG2
 40
1.570796326794897
  9
$LOFTMAG1
 40
0.0
  9
$LOFTMAG2
 40
0.0
  9
$LOFTPARAM
 70
     7
  9
$LOFTNORMALS
280
     1
  9
$LATITUDE
 40
37.795
  9
$LONGITUDE
 40
-122.394
  9
$NORTHDIRECTION
 40
0.0
  9
$TIMEZONE
 70
 -8000
  9
$LIGHTGLYPHDISPLAY
280
     1
  9
$TILEMODELIGHTSYNCH
280
     1
  9
$CMATERIAL
347
3C
  9
$SOLIDHIST
280
     1
  9
$SHOWHIST
280
     1
  9
$DWFFRAME
280
     2
  9
$DGNFRAME
280
     2
  9
$REALWORLDSCALE
290
     1
  9
$INTERFERECOLOR
 62
   256
  9
$CSHADOW
280
     0
  9
$SHADOWPLANELOCATION
 40
0.0
  0
ENDSEC
  0
SECTION
  2
CLASSES
  0
CLASS
  1
ACDBDICTIONARYWDFLT
  2
AcDbDictionaryWithDefault
  3
ObjectDBX Classes
 90
        0
 91
        4
280
     0
281
     0
  0
CLASS
  1
VISUALSTYLE
  2
AcDbVisualStyle
  3
ObjectDBX Classes
 90
     4095
 91
        4
280
     0
281
     0
  0
CLASS
  1
MATERIAL
  2
AcDbMaterial
  3
ObjectDBX Classes
 90
     1153
 91
        4
280
     0
281
     0
  0
CLASS
  1
SUN
  2
AcDbSun
  3
SCENEOE
 90
     1024
 91
        4
280
     0
281
     0
  0
ENDSEC
  0
SECTION
  2
TABLES
  0
TABLE
  2
VPORT
  5
8
330
0
100
AcDbSymbolTable
 70
     1
  0
VPORT
  5
29
330
8
100
AcDbSymbolTableRecord
100
AcDbViewportTableRecord
  2
*Active
 70
     0
 10
0.0
 20
0.0
 11
1.0
 21
1.0
 12
0.0
 22
0.0
 13
0.0
 23
0.0
 14
0.5
 24
0.5
 15
0.5
 25
0.5
 16
0.0
 26
0.0
 36
1.0
 17
91.00082462281999
 27
-128.4993055234307
 37
0.0
 40
256.9986110468615
 41
0.7081814508812795
 42
50.0
 43
0.0
 44
0.0
 50
0.0
 51
0.0
 71
     0
 72
   100
 73
     1
 74
     3
 75
     0
 76
     0
 77
     0
 78
     0
281
     0
 65
     1
110
0.0
120
0.0
130
0.0
111
1.0
121
0.0
131
0.0
112
0.0
122
1.0
132
0.0
 79
     0
146
0.0
 60
     3
 61
     5
292
     1
282
     1
141
0.0
142
0.0
 63
   250
361
3F
  0
ENDTAB
  0
TABLE
  2
LTYPE
  5
5
330
0
100
AcDbSymbolTable
 70
     1
  0
LTYPE
  5
14
330
5
100
AcDbSymbolTableRecord
100
AcDbLinetypeTableRecord
  2
ByBlock
 70
     0
  3

 72
    65
 73
     0
 40
0.0
  0
LTYPE
  5
15
330
5
100
AcDbSymbolTableRecord
100
AcDbLinetypeTableRecord
  2
ByLayer
 70
     0
  3

 72
    65
 73
     0
 40
0.0
  0
LTYPE
  5
16
330
5
100
AcDbSymbolTableRecord
100
AcDbLinetypeTableRecord
  2
Continuous
 70
     0
  3
Solid line
 72
    65
 73
     0
 40
0.0
  0
ENDTAB
  0
TABLE
  2
LAYER
  5
2
330
0
100
AcDbSymbolTable
 70
     2
  0
LAYER
  5
10
330
2
100
AcDbSymbolTableRecord
100
AcDbLayerTableRecord
  2
0
 70
     0
 62
     7
  6
Continuous
370
    -3
390
F
347
3E
  0
LAYER
  5
40
330
2
100
AcDbSymbolTableRecord
100
AcDbLayerTableRecord
  2
_U+30EC_U+30A4_U+30E4_U+30FC 1
 70
     0
 62
     7
  6
Continuous
370
    -3
390
F
347
3E
  0
ENDTAB
  0
TABLE
  2
STYLE
  5
3
330
0
100
AcDbSymbolTable
 70
     1
  0
STYLE
  5
11
330
3
100
AcDbSymbolTableRecord
100
AcDbTextStyleTableRecord
  2
Standard
 70
     0
 40
0.0
 41
1.0
 50
0.0
 71
     0
 42
0.2
  3
txt
  4

  0
ENDTAB
  0
TABLE
  2
VIEW
  5
6
330
0
100
AcDbSymbolTable
 70
     0
  0
ENDTAB
  0
TABLE
  2
UCS
  5
7
330
0
100
AcDbSymbolTable
 70
     0
  0
ENDTAB
  0
TABLE
  2
APPID
  5
9
330
0
100
AcDbSymbolTable
 70
     1
  0
APPID
  5
12
330
9
100
AcDbSymbolTableRecord
100
AcDbRegAppTableRecord
  2
ACAD
 70
     0
  0
ENDTAB
  0
TABLE
  2
DIMSTYLE
  5
A
330
0
100
AcDbSymbolTable
 70
     1
100
AcDbDimStyleTable
  0
DIMSTYLE
105
27
330
A
100
AcDbSymbolTableRecord
100
AcDbDimStyleTableRecord
  2
Standard
 70
     0
178
     0
340
11
  0
ENDTAB
  0
TABLE
  2
BLOCK_RECORD
  5
1
330
0
100
AcDbSymbolTable
 70
     9
  0
BLOCK_RECORD
  5
1F
330
1
100
AcDbSymbolTableRecord
100
AcDbBlockTableRecord
  2
*Model_Space
340
22
 70
     0
280
     1
281
     0
  0
BLOCK_RECORD
  5
1B
330
1
100
AcDbSymbolTableRecord
100
AcDbBlockTableRecord
  2
*Paper_Space
340
1E
 70
     0
280
     1
281
     0
  0
BLOCK_RECORD
  5
23
330
1
100
AcDbSymbolTableRecord
100
AcDbBlockTableRecord
  2
*Paper_Space0
340
26
 70
     0
280
     1
281
     0
  0
BLOCK_RECORD
  5
41
330
1
100
AcDbSymbolTableRecord
100
AcDbBlockTableRecord
  2
block 2
340
0
102
{BLKREFS
331
42
102
}
 70
     0
280
     1
281
     0
  0
BLOCK_RECORD
  5
82
330
1
100
AcDbSymbolTableRecord
100
AcDbBlockTableRecord
  2
block 3
340
0
102
{BLKREFS
331
83
102
}
 70
     0
280
     1
281
     0
  0
BLOCK_RECORD
  5
9B
330
1
100
AcDbSymbolTableRecord
100
AcDbBlockTableRecord
  2
block 4
340
0
102
{BLKREFS
331
9C
102
}
 70
     0
280
     1
281
     0
  0
BLOCK_RECORD
  5
AB
330
1
100
AcDbSymbolTableRecord
100
AcDbBlockTableRecord
  2
block 5
340
0
102
{BLKREFS
331
AC
102
}
 70
     0
280
     1
281
     0
  0
BLOCK_RECORD
  5
B9
330
1
100
AcDbSymbolTableRecord
100
AcDbBlockTableRecord
  2
block 6
340
0
102
{BLKREFS
331
BA
102
}
 70
     0
280
     1
281
     0
  0
BLOCK_RECORD
  5
CD
330
1
100
AcDbSymbolTableRecord
100
AcDbBlockTableRecord
  2
block 7
340
0
102
{BLKREFS
331
CE
102
}
 70
     0
280
     1
281
     0
  0
BLOCK_RECORD
  5
DF
330
1
100
AcDbSymbolTableRecord
100
AcDbBlockTableRecord
  2
block 8
340
0
102
{BLKREFS
331
E0
102
}
 70
     0
280
     1
281
     0
  0
BLOCK_RECORD
  5
FC
330
1
100
AcDbSymbolTableRecord
100
AcDbBlockTableRecord
  2
block 9
340
0
102
{BLKREFS
331
FD
102
}
 70
     0
280
     1
281
     0
  0
ENDTAB
  0
ENDSEC
  0
SECTION
  2
BLOCKS
  0
BLOCK
  5
20
330
1F
100
AcDbEntity
  8
0
100
AcDbBlockBegin
  2
*Model_Space
 70
     0
 10
0.0
 20
0.0
 30
0.0
  3
*Model_Space
  1

  0
ENDBLK
  5
21
330
1F
100
AcDbEntity
  8
0
100
AcDbBlockEnd
  0
BLOCK
  5
1C
330
1B
100
AcDbEntity
 67
     1
  8
0
100
AcDbBlockBegin
  2
*Paper_Space
 70
     0
 10
0.0
 20
0.0
 30
0.0
  3
*Paper_Space
  1

  0
ENDBLK
  5
1D
330
1B
100
AcDbEntity
 67
     1
  8
0
100
AcDbBlockEnd
  0
BLOCK
  5
24
330
23
100
AcDbEntity
  8
0
100
AcDbBlockBegin
  2
*Paper_Space0
 70
     0
 10
0.0
 20
0.0
 30
0.0
  3
*Paper_Space0
  1

  0
ENDBLK
  5
25
330
23
100
AcDbEntity
  8
0
100
AcDbBlockEnd
  0
BLOCK
  5
43
330
41
100
AcDbEntity
  8
0
100
AcDbBlockBegin
  2
block 2
 70
     0
 10
0.0
 20
0.0
 30
0.0
  3
block 2
  1

  0
POLYLINE
  5
45
330
41
100
AcDbEntity
  8
_U+30EC_U+30A4_U+30E4_U+30FC 1
 62
   179
420
  2234388
370
    25
100
AcDb2dPolyline
 66
     1
 10
0.0
 20
0.0
 30
0.0
  0
VERTEX
  5
46
330
45
100
AcDbEntity
  8
_U+30EC_U+30A4_U+30E4_U+30FC 1
 62
   179
420
  2234388
370
    25
100
AcDbVertex
100
AcDb2dVertex
 10
96.1136681034916
 20
-132.5965724668506
 30
0.0
  0
VERTEX
  5
47
330
45
100
AcDbEntity
  8
_U+30EC_U+30A4_U+30E4_U+30FC 1
 62
   179
420
  2234388
370
    25
100
AcDbVertex
100
AcDb2dVertex
 10
92.11359153887538
 20
-132.5965724668506
 30
0.0
  0
SEQEND
  5
48
330
45
100
AcDbEntity
  8
_U+30EC_U+30A4_U+30E4_U+30FC 1
 62
   179
420
  2234388
370
    25
  0
POLYLINE
  5
49
330
41
100
AcDbEntity
  8
_U+30EC_U+30A4_U+30E4_U+30FC 1
 62
   179
420
  2234388
370
    25
100
AcDb2dPolyline
 66
     1
 10
0.0
 20
0.0
 30
0.0
  0
VERTEX
  5
4A
330
49
100
AcDbEntity
  8
_U+30EC_U+30A4_U+30E4_U+30FC 1
 62
   179
420
  2234388
370
    25
100
AcDbVertex
100
AcDb2dVertex
 10
72.11239732692614
 20
-127.5966883014341
 30
0.0
  0
VERTEX
  5
4B
330
49
100
AcDbEntity
  8
_U+30EC_U+30A4_U+30E4_U+30FC 1
 62
   179
420
  2234388
370
    25
100
AcDbVertex
100
AcDb2dVertex
 10
72.11239732692614
 20
-127.0964494126704
 30
0.0
  0
VERTEX
  5
4C
330
49
100
AcDbEntity
  8
_U+30EC_U+30A4_U+30E4_U+30FC 1
 62
   179
420
  2234388
370
    25
100
AcDbVertex
100
AcDb2dVertex
 10
92.97726207239687
 20
-126.3344141350831
 30
0.0
  0
VERTEX
  5
4D
330
49
100
AcDbEntity
  8
_U+30EC_U+30A4_U+30E4_U+30FC 1
 62
   179
420
  2234388
370
    25
100
AcDbVertex
100
AcDb2dVertex
 10
92.98449401665681
 20
-131.5964474671009
 30
0.0
  0
SEQEND
  5
4E
330
49
100
AcDbEntity
  8
_U+30EC_U+30A4_U+30E4_U+30FC 1
 62
   179
420
  2234388
370
    25
  0
POLYLINE
  5
4F
330
41
100
AcDbEntity
  8
_U+30EC_U+30A4_U+30E4_U+30FC 1
 62
   179
420
  2234388
370
    25
100
AcDb2dPolyline
 66
     1
 10
0.0
 20
0.0
 30
0.0
  0
VERTEX
  5
50
330
4F
100
AcDbEntity
  8
_U+30EC_U+30A4_U+30E4_U+30FC 1
 62
   179
420
  2234388
370
    25
100
AcDbVertex
100
AcDb2dVertex
 10
92.11359153887538
 20
-127.5966883014341
 30
0.0
  0
VERTEX
  5
51
330
4F
100
AcDbEntity
  8
_U+30EC_U+30A4_U+30E4_U+30FC 1
 62
   179
420
  2234388
370
    25
100
AcDbVertex
100
AcDb2dVertex
 10
72.11239732692614
 20
-127.5966883014341
 30
0.0
  0
SEQEND
  5
52
330
4F
100
AcDbEntity
  8
_U+30EC_U+30A4_U+30E4_U+30FC 1
 62
   179
420
  2234388
370
    25
  0
POLYLINE
  5
53
330
41
100
AcDbEntity
  8
_U+30EC_U+30A4_U+30E4_U+30FC 1
 62
   179
420
  2234388
370
    25
100
AcDb2dPolyline
 66
     1
 10
0.0
 20
0.0
 30
0.0
  0
VERTEX
  5
54
330
53
100
AcDbEntity
  8
_U+30EC_U+30A4_U+30E4_U+30FC 1
 62
   179
420
  2234388
370
    25
100
AcDbVertex
100
AcDb2dVertex
 10
95.24276562571018
 20
-131.5964474671009
 30
0.0
  0
VERTEX
  5
55
330
53
100
AcDbEntity
  8
_U+30EC_U+30A4_U+30E4_U+30FC 1
 62
   179
420
  2234388
370
    25
100
AcDbVertex
100
AcDb2dVertex
 10
92.98449401665681
 20
-131.5964474671009
 30
0.0
  0
SEQEND
  5
56
330
53
100
AcDbEntity
  8
_U+30EC_U+30A4_U+30E4_U+30FC 1
 62
   179
420
  2234388
370
    25
  0
POLYLINE
  5
57
330
41
100
AcDbEntity
  8
_U+30EC_U+30A4_U+30E4_U+30FC 1
 62
   179
420
  2234388
370
    25
100
AcDb2dPolyline
 66
     1
 10
0.0
 20
0.0
 30
0.0
  0
VERTEX
  5
58
330
57
100
AcDbEntity
  8
_U+30EC_U+30A4_U+30E4_U+30FC 1
 62
   179
420
  2234388
370
    25
100
AcDbVertex
100
AcDb2dVertex
 10
92.11359153887538
 20
-127.5966883014341
 30
0.0
  0
VERTEX
  5
59
330
57
100
AcDbEntity
  8
_U+30EC_U+30A4_U+30E4_U+30FC 1
 62
   179
420
  2234388
370
    25
100
AcDbVertex
100
AcDb2dVertex
 10
92.11359153887538
 20
-132.5965724668506
 30
0.0
  0
SEQEND
  5
5A
330
57
100
AcDbEntity
  8
_U+30EC_U+30A4_U+30E4_U+30FC 1
 62
   179
420
  2234388
370
    25
  0
POLYLINE
  5
5B
330
41
100
AcDbEntity
  8
_U+30EC_U+30A4_U+30E4_U+30FC 1
 62
   179
420
  2234388
370
    25
100
AcDb2dPolyline
 66
     1
 10
0.0
 20
0.0
 30
0.0
  0
VERTEX
  5
5C
330
5B
100
AcDbEntity
  8
_U+30EC_U+30A4_U+30E4_U+30FC 1
 62
   179
420
  2234388
370
    25
100
AcDbVertex
100
AcDb2dVertex
 10
95.24276562571018
 20
-131.5964474671009
 30
0.0
  0
VERTEX
  5
5D
330
5B
100
AcDbEntity
  8
_U+30EC_U+30A4_U+30E4_U+30FC 1
 62
   179
420
  2234388
370
    25
100
AcDbVertex
100
AcDb2dVertex
 10
95.24276562571018
 20
-126.3344141350831
 30
0.0
  0
VERTEX
  5
5E
330
5B
100
AcDbEntity
  8
_U+30EC_U+30A4_U+30E4_U+30FC 1
 62
   179
420
  2234388
370
    25
100
AcDbVertex
100
AcDb2dVertex
 10
116.1148623154408
 20
-127.0964494126704
 30
0.0
  0
VERTEX
  5
5F
330
5B
100
AcDbEntity
  8
_U+30EC_U+30A4_U+30E4_U+30FC 1
 62
   179
420
  2234388
370
    25
100
AcDbVertex
100
AcDb2dVertex
 10
116.1148623154408
 20
-127.5966883014341
 30
0.0
  0
SEQEND
  5
60
330
5B
100
AcDbEntity
  8
_U+30EC_U+30A4_U+30E4_U+30FC 1
 62
   179
420
  2234388
370
    25
  0
POLYLINE
  5
61
330
41
100
AcDbEntity
  8
_U+30EC_U+30A4_U+30E4_U+30FC 1
 62
   179
420
  2234388
370
    25
100
AcDb2dPolyline
 66
     1
 10
0.0
 20
0.0
 30
0.0
  0
VERTEX
  5
62
330
61
100
AcDbEntity
  8
_U+30EC_U+30A4_U+30E4_U+30FC 1
 62
   179
420
  2234388
370
    25
100
AcDbVertex
100
AcDb2dVertex
 10
96.1136681034916
 20
-127.5966883014341
 30
0.0
  0
VERTEX
  5
63
330
61
100
AcDbEntity
  8
_U+30EC_U+30A4_U+30E4_U+30FC 1
 62
   179
420
  2234388
370
    25
100
AcDbVertex
100
AcDb2dVertex
 10
116.1148623154408
 20
-127.5966883014341
 30
0.0
  0
SEQEND
  5
64
330
61
100
AcDbEntity
  8
_U+30EC_U+30A4_U+30E4_U+30FC 1
 62
   179
420
  2234388
370
    25
  0
POLYLINE
  5
65
330
41
100
AcDbEntity
  8
_U+30EC_U+30A4_U+30E4_U+30FC 1
 62
   179
420
  2234388
370
    25
100
AcDb2dPolyline
 66
     1
 10
0.0
 20
0.0
 30
0.0
  0
VERTEX
  5
66
330
65
100
AcDbEntity
  8
_U+30EC_U+30A4_U+30E4_U+30FC 1
 62
   179
420
  2234388
370
    25
100
AcDbVertex
100
AcDb2dVertex
 10
96.1136681034916
 20
-127.5966883014341
 30
0.0
  0
VERTEX
  5
67
330
65
100
AcDbEntity
  8
_U+30EC_U+30A4_U+30E4_U+30FC 1
 62
   179
420
  2234388
370
    25
100
AcDbVertex
100
AcDb2dVertex
 10
96.1136681034916
 20
-132.5965724668506
 30
0.0
  0
SEQEND
  5
68
330
65
100
AcDbEntity
  8
_U+30EC_U+30A4_U+30E4_U+30FC 1
 62
   179
420
  2234388
370
    25
  0
SPLINE
  5
69
330
41
100
AcDbEntity
  8
_U+30EC_U+30A4_U+30E4_U+30FC 1
 62
   179
420
  2234388
370
     9
100
AcDbSpline
210
0.0
220
0.0
230
1.0
 70
    11
 71
     3
 72
    17
 73
    13
 74
     0
 42
0.0000000001
 43
0.0000000001
 12
1.0
 22
0.0
 32
0.0
 13
1.0
 23
0.0
 33
0.0
 40
0.0
 40
0.0
 40
0.0
 40
0.0
 40
1.0
 40
1.0
 40
1.0
 40
2.0
 40
2.0
 40
2.0
 40
3.0
 40
3.0
 40
3.0
 40
4.0
 40
4.0
 40
4.0
 40
4.0
 10
72.21230399104398
 20
-122.3346549694165
 30
0.0
 10
72.21230399104398
 20
-122.2791983027635
 30
0.0
 10
72.16750121440921
 20
-122.2343955249971
 30
0.0
 10
72.11239732692614
 20
-122.2343955249971
 30
0.0
 10
72.0572581616662
 20
-122.2343955249971
 30
0.0
 10
72.0124906628083
 20
-122.2791983027635
 30
0.0
 10
72.0124906628083
 20
-122.3346549694165
 30
0.0
 10
72.0124906628083
 20
-122.3897588582914
 30
0.0
 10
72.0572581616662
 20
-122.4345616360581
 30
0.0
 10
72.11239732692614
 20
-122.4345616360581
 30
0.0
 10
72.16750121440921
 20
-122.4345616360581
 30
0.0
 10
72.21230399104398
 20
-122.3897588582914
 30
0.0
 10
72.21230399104398
 20
-122.3346549694165
 30
0.0
  0
SPLINE
  5
6A
330
41
100
AcDbEntity
  8
_U+30EC_U+30A4_U+30E4_U+30FC 1
 62
   179
420
  2234388
370
     9
100
AcDbSpline
210
0.0
220
0.0
230
1.0
 70
    11
 71
     3
 72
    17
 73
    13
 74
     0
 42
0.0000000001
 43
0.0000000001
 12
1.0
 22
0.0
 32
0.0
 13
1.0
 23
0.0
 33
0.0
 40
0.0
 40
0.0
 40
0.0
 40
0.0
 40
1.0
 40
1.0
 40
1.0
 40
2.0
 40
2.0
 40
2.0
 40
3.0
 40
3.0
 40
3.0
 40
4.0
 40
4.0
 40
4.0
 40
4.0
 10
68.21254492641967
 20
-127.0964494126704
 30
0.0
 10
68.21254492641967
 20
-127.0413455237951
 30
0.0
 10
68.1677421497849
 20
-126.9965427460287
 30
0.0
 10
68.11228548453305
 20
-126.9965427460287
 30
0.0
 10
68.05718331631893
 20
-126.9965427460287
 30
0.0
 10
68.01238053855252
 20
-127.0413455237951
 30
0.0
 10
68.01238053855252
 20
-127.0964494126704
 30
0.0
 10
68.01238053855252
 20
-127.1515885793231
 30
0.0
 10
68.05718331631893
 20
-127.196356079312
 30
0.0
 10
68.11228548453305
 20
-127.196356079312
 30
0.0
 10
68.1677421497849
 20
-127.196356079312
 30
0.0
 10
68.21254492641967
 20
-127.1515885793231
 30
0.0
 10
68.21254492641967
 20
-127.0964494126704
 30
0.0
  0
SPLINE
  5
6B
330
41
100
AcDbEntity
  8
_U+30EC_U+30A4_U+30E4_U+30FC 1
 62
   179
420
  2234388
370
     9
100
AcDbSpline
210
0.0
220
0.0
230
1.0
 70
    11
 71
     3
 72
    17
 73
    13
 74
     0
 42
0.0000000001
 43
0.0000000001
 12
1.0
 22
0.0
 32
0.0
 13
1.0
 23
0.0
 33
0.0
 40
0.0
 40
0.0
 40
0.0
 40
0.0
 40
1.0
 40
1.0
 40
1.0
 40
2.0
 40
2.0
 40
2.0
 40
3.0
 40
3.0
 40
3.0
 40
4.0
 40
4.0
 40
4.0
 40
4.0
 10
68.21254492641967
 20
-127.5966883014341
 30
0.0
 10
68.21254492641967
 20
-127.5415844125591
 30
0.0
 10
68.1677421497849
 20
-127.4967816347924
 30
0.0
 10
68.11228548453305
 20
-127.4967816347924
 30
0.0
 10
68.05718331631893
 20
-127.4967816347924
 30
0.0
 10
68.01238053855252
 20
-127.5415844125591
 30
0.0
 10
68.01238053855252
 20
-127.5966883014341
 30
0.0
 10
68.01238053855252
 20
-127.6518274680871
 30
0.0
 10
68.05718331631893
 20
-127.6965949680757
 30
0.0
 10
68.11228548453305
 20
-127.6965949680757
 30
0.0
 10
68.1677421497849
 20
-127.6965949680757
 30
0.0
 10
68.21254492641967
 20
-127.6518274680871
 30
0.0
 10
68.21254492641967
 20
-127.5966883014341
 30
0.0
  0
SPLINE
  5
6C
330
41
100
AcDbEntity
  8
_U+30EC_U+30A4_U+30E4_U+30FC 1
 62
   179
420
  2234388
370
     9
100
AcDbSpline
210
0.0
220
0.0
230
1.0
 70
    11
 71
     3
 72
    17
 73
    13
 74
     0
 42
0.0000000001
 43
0.0000000001
 12
1.0
 22
0.0
 32
0.0
 13
1.0
 23
0.0
 33
0.0
 40
0.0
 40
0.0
 40
0.0
 40
0.0
 40
1.0
 40
1.0
 40
1.0
 40
2.0
 40
2.0
 40
2.0
 40
3.0
 40
3.0
 40
3.0
 40
4.0
 40
4.0
 40
4.0
 40
4.0
 10
68.21254492641967
 20
-132.5965724668506
 30
0.0
 10
68.21254492641967
 20
-132.5414333001982
 30
0.0
 10
68.1677421497849
 20
-132.496665800209
 30
0.0
 10
68.11228548453305
 20
-132.496665800209
 30
0.0
 10
68.05718331631893
 20
-132.496665800209
 30
0.0
 10
68.01238053855252
 20
-132.5414333001982
 30
0.0
 10
68.01238053855252
 20
-132.5965724668506
 30
0.0
 10
68.01238053855252
 20
-132.6516763557262
 30
0.0
 10
68.05718331631893
 20
-132.6964791334922
 30
0.0
 10
68.11228548453305
 20
-132.6964791334922
 30
0.0
 10
68.1677421497849
 20
-132.6964791334922
 30
0.0
 10
68.21254492641967
 20
-132.6516763557262
 30
0.0
 10
68.21254492641967
 20
-132.5965724668506
 30
0.0
  0
SPLINE
  5
6D
330
41
100
AcDbEntity
  8
_U+30EC_U+30A4_U+30E4_U+30FC 1
 62
   179
420
  2234388
370
     9
100
AcDbSpline
210
0.0
220
0.0
230
1.0
 70
    11
 71
     3
 72
    17
 73
    13
 74
     0
 42
0.0000000001
 43
0.0000000001
 12
1.0
 22
0.0
 32
0.0
 13
1.0
 23
0.0
 33
0.0
 40
0.0
 40
0.0
 40
0.0
 40
0.0
 40
1.0
 40
1.0
 40
1.0
 40
2.0
 40
2.0
 40
2.0
 40
3.0
 40
3.0
 40
3.0
 40
4.0
 40
4.0
 40
4.0
 40
4.0
 10
93.21358789970103
 20
-122.3346549694165
 30
0.0
 10
93.21358789970103
 20
-122.2791983027635
 30
0.0
 10
93.16882040084315
 20
-122.2343955249971
 30
0.0
 10
93.1136812355832
 20
-122.2343955249971
 30
0.0
 10
93.05822457033135
 20
-122.2343955249971
 30
0.0
 10
93.01345707147345
 20
-122.2791983027635
 30
0.0
 10
93.01345707147345
 20
-122.3346549694165
 30
0.0
 10
93.01345707147345
 20
-122.3897588582914
 30
0.0
 10
93.05822457033135
 20
-122.4345616360581
 30
0.0
 10
93.1136812355832
 20
-122.4345616360581
 30
0.0
 10
93.16882040084315
 20
-122.4345616360581
 30
0.0
 10
93.21358789970103
 20
-122.3897588582914
 30
0.0
 10
93.21358789970103
 20
-122.3346549694165
 30
0.0
  0
SPLINE
  5
6E
330
41
100
AcDbEntity
  8
_U+30EC_U+30A4_U+30E4_U+30FC 1
 62
   179
420
  2234388
370
     9
100
AcDbSpline
210
0.0
220
0.0
230
1.0
 70
    11
 71
     3
 72
    17
 73
    13
 74
     0
 42
0.0000000001
 43
0.0000000001
 12
1.0
 22
0.0
 32
0.0
 13
1.0
 23
0.0
 33
0.0
 40
0.0
 40
0.0
 40
0.0
 40
0.0
 40
1.0
 40
1.0
 40
1.0
 40
2.0
 40
2.0
 40
2.0
 40
3.0
 40
3.0
 40
3.0
 40
4.0
 40
4.0
 40
4.0
 40
4.0
 10
116.2147689795587
 20
-122.3346549694165
 30
0.0
 10
116.2147689795587
 20
-122.2791983027635
 30
0.0
 10
116.1700014807008
 20
-122.2343955249971
 30
0.0
 10
116.1148623154408
 20
-122.2343955249971
 30
0.0
 10
116.0597584279578
 20
-122.2343955249971
 30
0.0
 10
116.014955651323
 20
-122.2791983027635
 30
0.0
 10
116.014955651323
 20
-122.3346549694165
 30
0.0
 10
116.014955651323
 20
-122.3897588582914
 30
0.0
 10
116.0597584279578
 20
-122.4345616360581
 30
0.0
 10
116.1148623154408
 20
-122.4345616360581
 30
0.0
 10
116.1700014807008
 20
-122.4345616360581
 30
0.0
 10
116.2147689795587
 20
-122.3897588582914
 30
0.0
 10
116.2147689795587
 20
-122.3346549694165
 30
0.0
  0
SPLINE
  5
6F
330
41
100
AcDbEntity
  8
_U+30EC_U+30A4_U+30E4_U+30FC 1
 62
   179
420
  2234388
370
     9
100
AcDbSpline
210
0.0
220
0.0
230
1.0
 70
    11
 71
     3
 72
    17
 73
    13
 74
     0
 42
0.0000000001
 43
0.0000000001
 12
1.0
 22
0.0
 32
0.0
 13
1.0
 23
0.0
 33
0.0
 40
0.0
 40
0.0
 40
0.0
 40
0.0
 40
1.0
 40
1.0
 40
1.0
 40
2.0
 40
2.0
 40
2.0
 40
3.0
 40
3.0
 40
3.0
 40
4.0
 40
4.0
 40
4.0
 40
4.0
 10
95.21348507090163
 20
-122.3346549694165
 30
0.0
 10
95.21348507090163
 20
-122.2791983027635
 30
0.0
 10
95.16868229426686
 20
-122.2343955249971
 30
0.0
 10
95.11357840678379
 20
-122.2343955249971
 30
0.0
 10
95.05844164290218
 20
-122.2343955249971
 30
0.0
 10
95.01367174266595
 20
-122.2791983027635
 30
0.0
 10
95.01367174266595
 20
-122.3346549694165
 30
0.0
 10
95.01367174266595
 20
-122.3897588582914
 30
0.0
 10
95.05844164290218
 20
-122.4345616360581
 30
0.0
 10
95.11357840678379
 20
-122.4345616360581
 30
0.0
 10
95.16868229426686
 20
-122.4345616360581
 30
0.0
 10
95.21348507090163
 20
-122.3897588582914
 30
0.0
 10
95.21348507090163
 20
-122.3346549694165
 30
0.0
  0
SPLINE
  5
70
330
41
100
AcDbEntity
  8
_U+30EC_U+30A4_U+30E4_U+30FC 1
 62
   179
420
  2234388
370
     9
100
AcDbSpline
210
0.0
220
0.0
230
1.0
 70
    11
 71
     3
 72
    17
 73
    13
 74
     0
 42
0.0000000001
 43
0.0000000001
 12
1.0
 22
0.0
 32
0.0
 13
1.0
 23
0.0
 33
0.0
 40
0.0
 40
0.0
 40
0.0
 40
0.0
 40
1.0
 40
1.0
 40
1.0
 40
2.0
 40
2.0
 40
2.0
 40
3.0
 40
3.0
 40
3.0
 40
4.0
 40
4.0
 40
4.0
 40
4.0
 10
92.21349820299322
 20
-136.5966491325177
 30
0.0
 10
92.21349820299322
 20
-136.5415452436422
 30
0.0
 10
92.16869542635845
 20
-136.4967424658761
 30
0.0
 10
92.11359153887538
 20
-136.4967424658761
 30
0.0
 10
92.05845237361544
 20
-136.4967424658761
 30
0.0
 10
92.01368487475756
 20
-136.5415452436422
 30
0.0
 10
92.01368487475756
 20
-136.5966491325177
 30
0.0
 10
92.01368487475756
 20
-136.6517882991702
 30
0.0
 10
92.05845237361544
 20
-136.6965557991594
 30
0.0
 10
92.11359153887538
 20
-136.6965557991594
 30
0.0
 10
92.16869542635845
 20
-136.6965557991594
 30
0.0
 10
92.21349820299322
 20
-136.6517882991702
 30
0.0
 10
92.21349820299322
 20
-136.5966491325177
 30
0.0
  0
SPLINE
  5
71
330
41
100
AcDbEntity
  8
_U+30EC_U+30A4_U+30E4_U+30FC 1
 62
   179
420
  2234388
370
     9
100
AcDbSpline
210
0.0
220
0.0
230
1.0
 70
    11
 71
     3
 72
    17
 73
    13
 74
     0
 42
0.0000000001
 43
0.0000000001
 12
1.0
 22
0.0
 32
0.0
 13
1.0
 23
0.0
 33
0.0
 40
0.0
 40
0.0
 40
0.0
 40
0.0
 40
1.0
 40
1.0
 40
1.0
 40
2.0
 40
2.0
 40
2.0
 40
3.0
 40
3.0
 40
3.0
 40
4.0
 40
4.0
 40
4.0
 40
4.0
 10
96.21357476760943
 20
-136.5966491325177
 30
0.0
 10
96.21357476760943
 20
-136.5415452436422
 30
0.0
 10
96.16880726875155
 20
-136.4967424658761
 30
0.0
 10
96.1136681034916
 20
-136.4967424658761
 30
0.0
 10
96.05821386487408
 20
-136.4967424658761
 30
0.0
 10
96.01376386488576
 20
-136.5415452436422
 30
0.0
 10
96.01376386488576
 20
-136.5966491325177
 30
0.0
 10
96.01376386488576
 20
-136.6517882991702
 30
0.0
 10
96.05821386487408
 20
-136.6965557991594
 30
0.0
 10
96.1136681034916
 20
-136.6965557991594
 30
0.0
 10
96.16880726875155
 20
-136.6965557991594
 30
0.0
 10
96.21357476760943
 20
-136.6517882991702
 30
0.0
 10
96.21357476760943
 20
-136.5966491325177
 30
0.0
  0
POLYLINE
  5
72
330
41
100
AcDbEntity
  8
_U+30EC_U+30A4_U+30E4_U+30FC 1
 62
   179
420
  2234388
370
     9
100
AcDb2dPolyline
 66
     1
 10
0.0
 20
0.0
 30
0.0
  0
VERTEX
  5
73
330
72
100
AcDbEntity
  8
_U+30EC_U+30A4_U+30E4_U+30FC 1
 62
   179
420
  2234388
370
     9
100
AcDbVertex
100
AcDb2dVertex
 10
68.11228548453305
 20
-127.0964494126704
 30
0.0
  0
VERTEX
  5
74
330
72
100
AcDbEntity
  8
_U+30EC_U+30A4_U+30E4_U+30FC 1
 62
   179
420
  2234388
370
     9
100
AcDbVertex
100
AcDb2dVertex
 10
68.11228548453305
 20
-126.3278524684179
 30
0.0
  0
SEQEND
  5
75
330
72
100
AcDbEntity
  8
_U+30EC_U+30A4_U+30E4_U+30FC 1
 62
   179
420
  2234388
370
     9
  0
POLYLINE
  5
76
330
41
100
AcDbEntity
  8
_U+30EC_U+30A4_U+30E4_U+30FC 1
 62
   179
420
  2234388
370
     9
100
AcDb2dPolyline
 66
     1
 10
0.0
 20
0.0
 30
0.0
  0
VERTEX
  5
77
330
76
100
AcDbEntity
  8
_U+30EC_U+30A4_U+30E4_U+30FC 1
 62
   179
420
  2234388
370
     9
100
AcDbVertex
100
AcDb2dVertex
 10
68.11228548453305
 20
-127.0964494126704
 30
0.0
  0
VERTEX
  5
78
330
76
100
AcDbEntity
  8
_U+30EC_U+30A4_U+30E4_U+30FC 1
 62
   179
420
  2234388
370
     9
100
AcDbVertex
100
AcDb2dVertex
 10
68.11228548453305
 20
-127.5966883014341
 30
0.0
  0
SEQEND
  5
79
330
76
100
AcDbEntity
  8
_U+30EC_U+30A4_U+30E4_U+30FC 1
 62
   179
420
  2234388
370
     9
  0
POLYLINE
  5
7A
330
41
100
AcDbEntity
  8
_U+30EC_U+30A4_U+30E4_U+30FC 1
 62
   179
420
  2234388
370
     9
100
AcDb2dPolyline
 66
     1
 10
0.0
 20
0.0
 30
0.0
  0
VERTEX
  5
7B
330
7A
100
AcDbEntity
  8
_U+30EC_U+30A4_U+30E4_U+30FC 1
 62
   179
420
  2234388
370
     9
100
AcDbVertex
100
AcDb2dVertex
 10
69.57232683617318
 20
-127.0964494126704
 30
0.0
  0
VERTEX
  5
7C
330
7A
100
AcDbEntity
  8
_U+30EC_U+30A4_U+30E4_U+30FC 1
 62
   179
420
  2234388
370
     9
100
AcDbVertex
100
AcDb2dVertex
 10
67.11219578782524
 20
-127.0964494126704
 30
0.0
  0
SEQEND
  5
7D
330
7A
100
AcDbEntity
  8
_U+30EC_U+30A4_U+30E4_U+30FC 1
 62
   179
420
  2234388
370
     9
  0
POLYLINE
  5
7E
330
41
100
AcDbEntity
  8
_U+30EC_U+30A4_U+30E4_U+30FC 1
 62
   179
420
  2234388
370
     9
100
AcDb2dPolyline
 66
     1
 10
0.0
 20
0.0
 30
0.0
  0
VERTEX
  5
7F
330
7E
100
AcDbEntity
  8
_U+30EC_U+30A4_U+30E4_U+30FC 1
 62
   179
420
  2234388
370
     9
100
AcDbVertex
100
AcDb2dVertex
 10
69.57232683617318
 20
-127.5966883014341
 30
0.0
  0
VERTEX
  5
80
330
7E
100
AcDbEntity
  8
_U+30EC_U+30A4_U+30E4_U+30FC 1
 62
   179
420
  2234388
370
     9
100
AcDbVertex
100
AcDb2dVertex
 10
67.11219578782524
 20
-127.5966883014341
 30
0.0
  0
SEQEND
  5
81
330
7E
100
AcDbEntity
  8
_U+30EC_U+30A4_U+30E4_U+30FC 1
 62
   179
420
  2234388
370
     9
  0
INSERT
  5
83
330
41
100
AcDbEntity
  8
_U+30EC_U+30A4_U+30E4_U+30FC 1
100
AcDbBlockReference
  2
block 3
 10
0.0
 20
0.0
 30
0.0
  0
POLYLINE
  5
93
330
41
100
AcDbEntity
  8
_U+30EC_U+30A4_U+30E4_U+30FC 1
 62
   179
420
  2234388
370
     9
100
AcDb2dPolyline
 66
     1
 10
0.0
 20
0.0
 30
0.0
  0
VERTEX
  5
94
330
93
100
AcDbEntity
  8
_U+30EC_U+30A4_U+30E4_U+30FC 1
 62
   179
420
  2234388
370
     9
100
AcDbVertex
100
AcDb2dVertex
 10
72.11239732692614
 20
-122.3346549694165
 30
0.0
  0
VERTEX
  5
95
330
93
100
AcDbEntity
  8
_U+30EC_U+30A4_U+30E4_U+30FC 1
 62
   179
420
  2234388
370
     9
100
AcDbVertex
100
AcDb2dVertex
 10
93.1136812355832
 20
-122.3346549694165
 30
0.0
  0
SEQEND
  5
96
330
93
100
AcDbEntity
  8
_U+30EC_U+30A4_U+30E4_U+30FC 1
 62
   179
420
  2234388
370
     9
  0
POLYLINE
  5
97
330
41
100
AcDbEntity
  8
_U+30EC_U+30A4_U+30E4_U+30FC 1
 62
   179
420
  2234388
370
     9
100
AcDb2dPolyline
 66
     1
 10
0.0
 20
0.0
 30
0.0
  0
VERTEX
  5
98
330
97
100
AcDbEntity
  8
_U+30EC_U+30A4_U+30E4_U+30FC 1
 62
   179
420
  2234388
370
     9
100
AcDbVertex
100
AcDb2dVertex
 10
72.11239732692614
 20
-124.5567316355275
 30
0.0
  0
VERTEX
  5
99
330
97
100
AcDbEntity
  8
_U+30EC_U+30A4_U+30E4_U+30FC 1
 62
   179
420
  2234388
370
     9
100
AcDbVertex
100
AcDb2dVertex
 10
72.11239732692614
 20
-121.3345299696665
 30
0.0
  0
SEQEND
  5
9A
330
97
100
AcDbEntity
  8
_U+30EC_U+30A4_U+30E4_U+30FC 1
 62
   179
420
  2234388
370
     9
  0
INSERT
  5
9C
330
41
100
AcDbEntity
  8
_U+30EC_U+30A4_U+30E4_U+30FC 1
100
AcDbBlockReference
  2
block 4
 10
0.0
 20
0.0
 30
0.0
  0
POLYLINE
  5
A3
330
41
100
AcDbEntity
  8
_U+30EC_U+30A4_U+30E4_U+30FC 1
 62
   179
420
  2234388
370
     9
100
AcDb2dPolyline
 66
     1
 10
0.0
 20
0.0
 30
0.0
  0
VERTEX
  5
A4
330
A3
100
AcDbEntity
  8
_U+30EC_U+30A4_U+30E4_U+30FC 1
 62
   179
420
  2234388
370
     9
100
AcDbVertex
100
AcDb2dVertex
 10
68.11228548453305
 20
-127.5966883014341
 30
0.0
  0
VERTEX
  5
A5
330
A3
100
AcDbEntity
  8
_U+30EC_U+30A4_U+30E4_U+30FC 1
 62
   179
420
  2234388
370
     9
100
AcDbVertex
100
AcDb2dVertex
 10
68.11228548453305
 20
-132.5965724668506
 30
0.0
  0
SEQEND
  5
A6
330
A3
100
AcDbEntity
  8
_U+30EC_U+30A4_U+30E4_U+30FC 1
 62
   179
420
  2234388
370
     9
  0
POLYLINE
  5
A7
330
41
100
AcDbEntity
  8
_U+30EC_U+30A4_U+30E4_U+30FC 1
 62
   179
420
  2234388
370
     9
100
AcDb2dPolyline
 66
     1
 10
0.0
 20
0.0
 30
0.0
  0
VERTEX
  5
A8
330
A7
100
AcDbEntity
  8
_U+30EC_U+30A4_U+30E4_U+30FC 1
 62
   179
420
  2234388
370
     9
100
AcDbVertex
100
AcDb2dVertex
 10
89.57387382589121
 20
-132.5965724668506
 30
0.0
  0
VERTEX
  5
A9
330
A7
100
AcDbEntity
  8
_U+30EC_U+30A4_U+30E4_U+30FC 1
 62
   179
420
  2234388
370
     9
100
AcDbVertex
100
AcDb2dVertex
 10
67.11219578782524
 20
-132.5965724668506
 30
0.0
  0
SEQEND
  5
AA
330
A7
100
AcDbEntity
  8
_U+30EC_U+30A4_U+30E4_U+30FC 1
 62
   179
420
  2234388
370
     9
  0
INSERT
  5
AC
330
41
100
AcDbEntity
  8
_U+30EC_U+30A4_U+30E4_U+30FC 1
100
AcDbBlockReference
  2
block 5
 10
0.0
 20
0.0
 30
0.0
  0
POLYLINE
  5
B1
330
41
100
AcDbEntity
  8
_U+30EC_U+30A4_U+30E4_U+30FC 1
 62
   179
420
  2234388
370
     9
100
AcDb2dPolyline
 66
     1
 10
0.0
 20
0.0
 30
0.0
  0
VERTEX
  5
B2
330
B1
100
AcDbEntity
  8
_U+30EC_U+30A4_U+30E4_U+30FC 1
 62
   179
420
  2234388
370
     9
100
AcDbVertex
100
AcDb2dVertex
 10
116.1148623154408
 20
-122.3346549694165
 30
0.0
  0
VERTEX
  5
B3
330
B1
100
AcDbEntity
  8
_U+30EC_U+30A4_U+30E4_U+30FC 1
 62
   179
420
  2234388
370
     9
100
AcDbVertex
100
AcDb2dVertex
 10
95.11357840678379
 20
-122.3346549694165
 30
0.0
  0
SEQEND
  5
B4
330
B1
100
AcDbEntity
  8
_U+30EC_U+30A4_U+30E4_U+30FC 1
 62
   179
420
  2234388
370
     9
  0
POLYLINE
  5
B5
330
41
100
AcDbEntity
  8
_U+30EC_U+30A4_U+30E4_U+30FC 1
 62
   179
420
  2234388
370
     9
100
AcDb2dPolyline
 66
     1
 10
0.0
 20
0.0
 30
0.0
  0
VERTEX
  5
B6
330
B5
100
AcDbEntity
  8
_U+30EC_U+30A4_U+30E4_U+30FC 1
 62
   179
420
  2234388
370
     9
100
AcDbVertex
100
AcDb2dVertex
 10
116.1148623154408
 20
-124.5567316355275
 30
0.0
  0
VERTEX
  5
B7
330
B5
100
AcDbEntity
  8
_U+30EC_U+30A4_U+30E4_U+30FC 1
 62
   179
420
  2234388
370
     9
100
AcDbVertex
100
AcDb2dVertex
 10
116.1148623154408
 20
-121.3345299696665
 30
0.0
  0
SEQEND
  5
B8
330
B5
100
AcDbEntity
  8
_U+30EC_U+30A4_U+30E4_U+30FC 1
 62
   179
420
  2234388
370
     9
  0
INSERT
  5
BA
330
41
100
AcDbEntity
  8
_U+30EC_U+30A4_U+30E4_U+30FC 1
100
AcDbBlockReference
  2
block 6
 10
0.0
 20
0.0
 30
0.0
  0
POLYLINE
  5
C1
330
41
100
AcDbEntity
  8
_U+30EC_U+30A4_U+30E4_U+30FC 1
 62
   179
420
  2234388
370
     9
100
AcDb2dPolyline
 66
     1
 10
0.0
 20
0.0
 30
0.0
  0
VERTEX
  5
C2
330
C1
100
AcDbEntity
  8
_U+30EC_U+30A4_U+30E4_U+30FC 1
 62
   179
420
  2234388
370
     9
100
AcDbVertex
100
AcDb2dVertex
 10
93.1136812355832
 20
-122.3346549694165
 30
0.0
  0
VERTEX
  5
C3
330
C1
100
AcDbEntity
  8
_U+30EC_U+30A4_U+30E4_U+30FC 1
 62
   179
420
  2234388
370
     9
100
AcDbVertex
100
AcDb2dVertex
 10
95.11357840678379
 20
-122.3346549694165
 30
0.0
  0
SEQEND
  5
C4
330
C1
100
AcDbEntity
  8
_U+30EC_U+30A4_U+30E4_U+30FC 1
 62
   179
420
  2234388
370
     9
  0
POLYLINE
  5
C5
330
41
100
AcDbEntity
  8
_U+30EC_U+30A4_U+30E4_U+30FC 1
 62
   179
420
  2234388
370
     9
100
AcDb2dPolyline
 66
     1
 10
0.0
 20
0.0
 30
0.0
  0
VERTEX
  5
C6
330
C5
100
AcDbEntity
  8
_U+30EC_U+30A4_U+30E4_U+30FC 1
 62
   179
420
  2234388
370
     9
100
AcDbVertex
100
AcDb2dVertex
 10
93.1136812355832
 20
-123.7946963579402
 30
0.0
  0
VERTEX
  5
C7
330
C5
100
AcDbEntity
  8
_U+30EC_U+30A4_U+30E4_U+30FC 1
 62
   179
420
  2234388
370
     9
100
AcDbVertex
100
AcDb2dVertex
 10
93.1136812355832
 20
-121.3345299696665
 30
0.0
  0
SEQEND
  5
C8
330
C5
100
AcDbEntity
  8
_U+30EC_U+30A4_U+30E4_U+30FC 1
 62
   179
420
  2234388
370
     9
  0
POLYLINE
  5
C9
330
41
100
AcDbEntity
  8
_U+30EC_U+30A4_U+30E4_U+30FC 1
 62
   179
420
  2234388
370
     9
100
AcDb2dPolyline
 66
     1
 10
0.0
 20
0.0
 30
0.0
  0
VERTEX
  5
CA
330
C9
100
AcDbEntity
  8
_U+30EC_U+30A4_U+30E4_U+30FC 1
 62
   179
420
  2234388
370
     9
100
AcDbVertex
100
AcDb2dVertex
 10
95.11357840678379
 20
-123.7946963579402
 30
0.0
  0
VERTEX
  5
CB
330
C9
100
AcDbEntity
  8
_U+30EC_U+30A4_U+30E4_U+30FC 1
 62
   179
420
  2234388
370
     9
100
AcDbVertex
100
AcDb2dVertex
 10
95.11357840678379
 20
-121.3345299696665
 30
0.0
  0
SEQEND
  5
CC
330
C9
100
AcDbEntity
  8
_U+30EC_U+30A4_U+30E4_U+30FC 1
 62
   179
420
  2234388
370
     9
  0
INSERT
  5
CE
330
41
100
AcDbEntity
  8
_U+30EC_U+30A4_U+30E4_U+30FC 1
100
AcDbBlockReference
  2
block 7
 10
0.0
 20
0.0
 30
0.0
  0
POLYLINE
  5
D3
330
41
100
AcDbEntity
  8
_U+30EC_U+30A4_U+30E4_U+30FC 1
 62
   179
420
  2234388
370
     9
100
AcDb2dPolyline
 66
     1
 10
0.0
 20
0.0
 30
0.0
  0
VERTEX
  5
D4
330
D3
100
AcDbEntity
  8
_U+30EC_U+30A4_U+30E4_U+30FC 1
 62
   179
420
  2234388
370
     9
100
AcDbVertex
100
AcDb2dVertex
 10
96.1136681034916
 20
-136.5966491325177
 30
0.0
  0
VERTEX
  5
D5
330
D3
100
AcDbEntity
  8
_U+30EC_U+30A4_U+30E4_U+30FC 1
 62
   179
420
  2234388
370
     9
100
AcDbVertex
100
AcDb2dVertex
 10
92.11359153887538
 20
-136.5966491325177
 30
0.0
  0
SEQEND
  5
D6
330
D3
100
AcDbEntity
  8
_U+30EC_U+30A4_U+30E4_U+30FC 1
 62
   179
420
  2234388
370
     9
  0
POLYLINE
  5
D7
330
41
100
AcDbEntity
  8
_U+30EC_U+30A4_U+30E4_U+30FC 1
 62
   179
420
  2234388
370
     9
100
AcDb2dPolyline
 66
     1
 10
0.0
 20
0.0
 30
0.0
  0
VERTEX
  5
D8
330
D7
100
AcDbEntity
  8
_U+30EC_U+30A4_U+30E4_U+30FC 1
 62
   179
420
  2234388
370
     9
100
AcDbVertex
100
AcDb2dVertex
 10
96.1136681034916
 20
-135.1366430217715
 30
0.0
  0
VERTEX
  5
D9
330
D7
100
AcDbEntity
  8
_U+30EC_U+30A4_U+30E4_U+30FC 1
 62
   179
420
  2234388
370
     9
100
AcDbVertex
100
AcDb2dVertex
 10
96.1136681034916
 20
-137.5967741322674
 30
0.0
  0
SEQEND
  5
DA
330
D7
100
AcDbEntity
  8
_U+30EC_U+30A4_U+30E4_U+30FC 1
 62
   179
420
  2234388
370
     9
  0
POLYLINE
  5
DB
330
41
100
AcDbEntity
  8
_U+30EC_U+30A4_U+30E4_U+30FC 1
 62
   179
420
  2234388
370
     9
100
AcDb2dPolyline
 66
     1
 10
0.0
 20
0.0
 30
0.0
  0
VERTEX
  5
DC
330
DB
100
AcDbEntity
  8
_U+30EC_U+30A4_U+30E4_U+30FC 1
 62
   179
420
  2234388
370
     9
100
AcDbVertex
100
AcDb2dVertex
 10
92.11359153887538
 20
-135.1366430217715
 30
0.0
  0
VERTEX
  5
DD
330
DB
100
AcDbEntity
  8
_U+30EC_U+30A4_U+30E4_U+30FC 1
 62
   179
420
  2234388
370
     9
100
AcDbVertex
100
AcDb2dVertex
 10
92.11359153887538
 20
-137.5967741322674
 30
0.0
  0
SEQEND
  5
DE
330
DB
100
AcDbEntity
  8
_U+30EC_U+30A4_U+30E4_U+30FC 1
 62
   179
420
  2234388
370
     9
  0
INSERT
  5
E0
330
41
100
AcDbEntity
  8
_U+30EC_U+30A4_U+30E4_U+30FC 1
100
AcDbBlockReference
  2
block 8
 10
0.0
 20
0.0
 30
0.0
  0
ENDBLK
  5
44
330
41
100
AcDbEntity
  8
0
100
AcDbBlockEnd
  0
BLOCK
  5
84
330
82
100
AcDbEntity
  8
0
100
AcDbBlockBegin
  2
block 3
 70
     0
 10
0.0
 20
0.0
 30
0.0
  3
block 3
  1

  0
SPLINE
  5
86
330
82
100
AcDbEntity
  8
_U+30EC_U+30A4_U+30E4_U+30FC 1
370
     0
100
AcDbSpline
210
0.0
220
0.0
230
1.0
 70
    11
 71
     3
 72
    29
 73
    25
 74
     0
 42
0.0000000001
 43
0.0000000001
 12
1.0
 22
0.0
 32
0.0
 13
1.0
 23
0.0
 33
0.0
 40
0.0
 40
0.0
 40
0.0
 40
0.0
 40
1.0
 40
1.0
 40
1.0
 40
2.0
 40
2.0
 40
2.0
 40
3.0
 40
3.0
 40
3.0
 40
4.0
 40
4.0
 40
4.0
 40
5.0
 40
5.0
 40
5.0
 40
6.0
 40
6.0
 40
6.0
 40
7.0
 40
7.0
 40
7.0
 40
8.0
 40
8.0
 40
8.0
 40
8.0
 10
67.22139212729188
 20
-127.7322550136399
 30
0.0
 10
67.43085393279507
 20
-127.8400865023282
 30
0.0
 10
67.4499742127382
 20
-128.0135470600105
 30
0.0
 10
67.4499742127382
 20
-128.1299912874119
 30
0.0
 10
67.4499742127382
 20
-128.2908772465731
 30
0.0
 10
67.40346542368734
 20
-128.4324706710169
 30
0.0
 10
67.22139212729188
 20
-128.5275553064098
 30
0.0
 10
67.02691648714952
 20
-128.6312526805158
 30
0.0
 10
66.78989391776433
 20
-128.6505452152332
 30
0.0
 10
66.62694090131201
 20
-128.6505452152332
 30
0.0
 10
66.48310816480284
 20
-128.6505452152332
 30
0.0
 10
66.23144393960534
 20
-128.6333197378069
 30
0.0
 10
66.03248967533216
 20
-128.5275553064098
 30
0.0
 10
65.82940129647668
 20
-128.4197238177215
 30
0.0
 10
65.80614690195124
 20
-128.2588378585603
 30
0.0
 10
65.80614690195124
 20
-128.1299912874119
 30
0.0
 10
65.80614690195124
 20
-127.9711723855419
 30
0.0
 10
65.85058863371097
 20
-127.827511903807
 30
0.0
 10
66.03248967533216
 20
-127.7322550136399
 30
0.0
 10
66.22507051295763
 20
-127.6328640088904
 30
0.0
 10
66.45348034362969
 20
-127.609609614365
 30
0.0
 10
66.62694090131201
 20
-127.609609614365
 30
0.0
 10
66.7983344017032
 20
-127.609609614365
 30
0.0
 10
67.02898354444068
 20
-127.630624696825
 30
0.0
 10
67.22139212729188
 20
-127.7322550136399
 30
0.0
  0
SPLINE
  5
87
330
82
100
AcDbEntity
  8
_U+30EC_U+30A4_U+30E4_U+30FC 1
370
     0
100
AcDbSpline
210
0.0
220
0.0
230
1.0
 70
    11
 71
     3
 72
    17
 73
    13
 74
     0
 42
0.0000000001
 43
0.0000000001
 12
1.0
 22
0.0
 32
0.0
 13
1.0
 23
0.0
 33
0.0
 40
0.0
 40
0.0
 40
0.0
 40
0.0
 40
1.0
 40
1.0
 40
1.0
 40
2.0
 40
2.0
 40
2.0
 40
3.0
 40
3.0
 40
3.0
 40
4.0
 40
4.0
 40
4.0
 40
4.0
 10
65.99872773957671
 20
-128.1299912874119
 30
0.0
 10
65.99872773957671
 20
-128.3797607100926
 30
0.0
 10
66.2820868432385
 20
-128.4262694991434
 30
0.0
 10
66.62694090131201
 20
-128.4262694991434
 30
0.0
 10
66.94647350756894
 20
-128.4262694991434
 30
0.0
 10
67.25532631782158
 20
-128.3900959965483
 30
0.0
 10
67.25532631782158
 20
-128.1299912874119
 30
0.0
 10
67.25532631782158
 20
-127.8824611767968
 30
0.0
 10
66.97386201667668
 20
-127.8337130756805
 30
0.0
 10
66.62694090131201
 20
-127.8337130756805
 30
0.0
 10
66.30758054982935
 20
-127.8337130756805
 30
0.0
 10
65.99872773957671
 20
-127.8719536355667
 30
0.0
 10
65.99872773957671
 20
-128.1299912874119
 30
0.0
  0
HATCH
  5
88
330
82
100
AcDbEntity
  8
_U+30EC_U+30A4_U+30E4_U+30FC 1
 62
   179
420
  2234388
100
AcDbHatch
 10
0.0
 20
0.0
 30
0.0
210
0.0
220
0.0
230
1.0
  2
SOLID
 70
     1
 71
     0
 91
        2
 92
        1
 93
        1
 72
     4
 94
        3
 73
     0
 74
     1
 95
       29
 96
       25
 40
0.0
 40
0.0
 40
0.0
 40
0.0
 40
1.0
 40
1.0
 40
1.0
 40
2.0
 40
2.0
 40
2.0
 40
3.0
 40
3.0
 40
3.0
 40
4.0
 40
4.0
 40
4.0
 40
5.0
 40
5.0
 40
5.0
 40
6.0
 40
6.0
 40
6.0
 40
7.0
 40
7.0
 40
7.0
 40
8.0
 40
8.0
 40
8.0
 40
8.0
 10
67.22139212729188
 20
-127.7322550136399
 10
67.43085393279507
 20
-127.8400865023282
 10
67.4499742127382
 20
-128.0135470600105
 10
67.4499742127382
 20
-128.1299912874119
 10
67.4499742127382
 20
-128.2908772465731
 10
67.40346542368734
 20
-128.4324706710169
 10
67.22139212729188
 20
-128.5275553064098
 10
67.02691648714952
 20
-128.6312526805158
 10
66.78989391776433
 20
-128.6505452152332
 10
66.62694090131201
 20
-128.6505452152332
 10
66.48310816480284
 20
-128.6505452152332
 10
66.23144393960534
 20
-128.6333197378069
 10
66.03248967533216
 20
-128.5275553064098
 10
65.82940129647668
 20
-128.4197238177215
 10
65.80614690195124
 20
-128.2588378585603
 10
65.80614690195124
 20
-128.1299912874119
 10
65.80614690195124
 20
-127.9711723855419
 10
65.85058863371097
 20
-127.827511903807
 10
66.03248967533216
 20
-127.7322550136399
 10
66.22507051295763
 20
-127.6328640088904
 10
66.45348034362969
 20
-127.609609614365
 10
66.62694090131201
 20
-127.609609614365
 10
66.7983344017032
 20
-127.609609614365
 10
67.02898354444068
 20
-127.630624696825
 10
67.22139212729188
 20
-127.7322550136399
 97
        0
 97
        0
 92
        1
 93
        1
 72
     4
 94
        3
 73
     0
 74
     1
 95
       17
 96
       13
 40
0.0
 40
0.0
 40
0.0
 40
0.0
 40
1.0
 40
1.0
 40
1.0
 40
2.0
 40
2.0
 40
2.0
 40
3.0
 40
3.0
 40
3.0
 40
4.0
 40
4.0
 40
4.0
 40
4.0
 10
65.99872773957671
 20
-128.1299912874119
 10
65.99872773957671
 20
-128.3797607100926
 10
66.2820868432385
 20
-128.4262694991434
 10
66.62694090131201
 20
-128.4262694991434
 10
66.94647350756894
 20
-128.4262694991434
 10
67.25532631782158
 20
-128.3900959965483
 10
67.25532631782158
 20
-128.1299912874119
 10
67.25532631782158
 20
-127.8824611767968
 10
66.97386201667668
 20
-127.8337130756805
 10
66.62694090131201
 20
-127.8337130756805
 10
66.30758054982935
 20
-127.8337130756805
 10
65.99872773957671
 20
-127.8719536355667
 10
65.99872773957671
 20
-128.1299912874119
 97
        0
 97
        0
 75
     2
 76
     1
 98
        0
  0
POLYLINE
  5
89
330
82
100
AcDbEntity
  8
_U+30EC_U+30A4_U+30E4_U+30FC 1
370
     0
100
AcDb2dPolyline
 66
     1
 10
0.0
 20
0.0
 30
0.0
  0
VERTEX
  5
8A
330
89
100
AcDbEntity
  8
_U+30EC_U+30A4_U+30E4_U+30FC 1
370
     0
100
AcDbVertex
100
AcDb2dVertex
 10
67.39915905433077
 20
-127.393085363117
 30
0.0
  0
VERTEX
  5
8B
330
89
100
AcDbEntity
  8
_U+30EC_U+30A4_U+30E4_U+30FC 1
370
     0
100
AcDbVertex
100
AcDb2dVertex
 10
67.14749482913327
 20
-127.393085363117
 30
0.0
  0
VERTEX
  5
8C
330
89
100
AcDbEntity
  8
_U+30EC_U+30A4_U+30E4_U+30FC 1
370
     0
100
AcDbVertex
100
AcDb2dVertex
 10
67.14749482913327
 20
-127.1414211379195
 30
0.0
  0
VERTEX
  5
8D
330
89
100
AcDbEntity
  8
_U+30EC_U+30A4_U+30E4_U+30FC 1
370
     0
100
AcDbVertex
100
AcDb2dVertex
 10
67.39915905433077
 20
-127.1414211379195
 30
0.0
  0
VERTEX
  5
8E
330
89
100
AcDbEntity
  8
_U+30EC_U+30A4_U+30E4_U+30FC 1
370
     0
100
AcDbVertex
100
AcDb2dVertex
 10
67.39915905433077
 20
-127.393085363117
 30
0.0
  0
SEQEND
  5
8F
330
89
100
AcDbEntity
  8
_U+30EC_U+30A4_U+30E4_U+30FC 1
370
     0
  0
HATCH
  5
90
330
82
100
AcDbEntity
  8
_U+30EC_U+30A4_U+30E4_U+30FC 1
 62
   179
420
  2234388
100
AcDbHatch
 10
0.0
 20
0.0
 30
0.0
210
0.0
220
0.0
230
1.0
  2
SOLID
 70
     1
 71
     0
 91
        1
 92
        1
 93
        4
 72
     1
 10
67.39915905433077
 20
-127.393085363117
 11
67.14749482913327
 21
-127.393085363117
 72
     1
 10
67.14749482913327
 20
-127.393085363117
 11
67.14749482913327
 21
-127.1414211379195
 72
     1
 10
67.14749482913327
 20
-127.1414211379195
 11
67.39915905433077
 21
-127.1414211379195
 72
     1
 10
67.39915905433077
 20
-127.1414211379195
 11
67.39915905433077
 21
-127.393085363117
 97
        0
 75
     2
 76
     1
 98
        0
  0
SPLINE
  5
91
330
82
100
AcDbEntity
  8
_U+30EC_U+30A4_U+30E4_U+30FC 1
370
     0
100
AcDbSpline
210
0.0
220
0.0
230
1.0
 70
    11
 71
     3
 72
    53
 73
    49
 74
     0
 42
0.0000000001
 43
0.0000000001
 12
1.0
 22
0.0
 32
0.0
 13
1.0
 23
0.0
 33
0.0
 40
0.0
 40
0.0
 40
0.0
 40
0.0
 40
1.0
 40
1.0
 40
1.0
 40
2.0
 40
2.0
 40
2.0
 40
3.0
 40
3.0
 40
3.0
 40
4.0
 40
4.0
 40
4.0
 40
5.0
 40
5.0
 40
5.0
 40
6.0
 40
6.0
 40
6.0
 40
7.0
 40
7.0
 40
7.0
 40
8.0
 40
8.0
 40
8.0
 40
9.0
 40
9.0
 40
9.0
 40
10.0
 40
10.0
 40
10.0
 40
11.0
 40
11.0
 40
11.0
 40
12.0
 40
12.0
 40
12.0
 40
13.0
 40
13.0
 40
13.0
 40
14.0
 40
14.0
 40
14.0
 40
15.0
 40
15.0
 40
15.0
 40
16.0
 40
16.0
 40
16.0
 40
16.0
 10
67.4499742127382
 20
-126.423807748342
 30
0.0
 10
67.4499742127382
 20
-126.5021836706314
 30
0.0
 10
67.43309324486047
 20
-126.603641732672
 30
0.0
 10
67.36953123315762
 20
-126.7052720494869
 30
0.0
 10
67.25946043240388
 20
-126.8787326071692
 30
0.0
 10
67.12837454919013
 20
-126.8999199444035
 30
0.0
 10
67.02054306050181
 20
-126.9188679695724
 30
0.0
 10
67.02054306050181
 20
-126.9188679695724
 30
0.0
 10
67.02054306050181
 20
-126.696831565548
 30
0.0
 10
67.02054306050181
 20
-126.696831565548
 30
0.0
 10
67.21932507000072
 20
-126.641710037784
 30
0.0
 10
67.24895289117387
 20
-126.5147582691526
 30
0.0
 10
67.24895289117387
 20
-126.4217406910508
 30
0.0
 10
67.24895289117387
 20
-126.2820420691239
 30
0.0
 10
67.14956188642442
 20
-126.1297688486759
 30
0.0
 10
66.91684568639579
 20
-126.1297688486759
 30
0.0
 10
66.66087509184173
 20
-126.1297688486759
 30
0.0
 10
66.59111190826542
 20
-126.3096028330059
 30
0.0
 10
66.59111190826542
 20
-126.4301811749897
 30
0.0
 10
66.59111190826542
 20
-126.461876053454
 30
0.0
 10
66.59111190826542
 20
-126.603641732672
 30
0.0
 10
66.72013073418803
 20
-126.6925251961915
 30
0.0
 10
66.72013073418803
 20
-126.6925251961915
 30
0.0
 10
66.7010104542449
 20
-126.8680528111649
 30
0.0
 10
66.7010104542449
 20
-126.8680528111649
 30
0.0
 10
66.7010104542449
 20
-126.8680528111649
 30
0.0
 10
65.85489500306753
 20
-126.7474744691812
 30
0.0
 10
65.85489500306753
 20
-126.7474744691812
 30
0.0
 10
65.85489500306753
 20
-126.7474744691812
 30
0.0
 10
65.85489500306753
 20
-125.969055144289
 30
0.0
 10
65.85489500306753
 20
-125.969055144289
 30
0.0
 10
65.85489500306753
 20
-125.969055144289
 30
0.0
 10
66.04954289798414
 20
-125.969055144289
 30
0.0
 10
66.04954289798414
 20
-125.969055144289
 30
0.0
 10
66.04954289798414
 20
-125.969055144289
 30
0.0
 10
66.04954289798414
 20
-126.5846937075031
 30
0.0
 10
66.04954289798414
 20
-126.5846937075031
 30
0.0
 10
66.04954289798414
 20
-126.5846937075031
 30
0.0
 10
66.47260062357283
 20
-126.6501505217229
 30
0.0
 10
66.47260062357283
 20
-126.6501505217229
 30
0.0
 10
66.43866643304311
 20
-126.5888278220854
 30
0.0
 10
66.39853107063995
 20
-126.5063177852137
 30
0.0
 10
66.39853107063995
 20
-126.3879787552954
 30
0.0
 10
66.39853107063995
 20
-126.1340752180325
 30
0.0
 10
66.5847384816177
 20
-125.8970526486473
 30
0.0
 10
66.89772540645265
 20
-125.8970526486473
 30
0.0
 10
67.21519095541842
 20
-125.8970526486473
 30
0.0
 10
67.4499742127382
 20
-126.121328364737
 30
0.0
 10
67.4499742127382
 20
-126.423807748342
 30
0.0
  0
HATCH
  5
92
330
82
100
AcDbEntity
  8
_U+30EC_U+30A4_U+30E4_U+30FC 1
 62
   179
420
  2234388
100
AcDbHatch
 10
0.0
 20
0.0
 30
0.0
210
0.0
220
0.0
230
1.0
  2
SOLID
 70
     1
 71
     0
 91
        1
 92
        1
 93
        1
 72
     4
 94
        3
 73
     0
 74
     1
 95
       53
 96
       49
 40
0.0
 40
0.0
 40
0.0
 40
0.0
 40
1.0
 40
1.0
 40
1.0
 40
2.0
 40
2.0
 40
2.0
 40
3.0
 40
3.0
 40
3.0
 40
4.0
 40
4.0
 40
4.0
 40
5.0
 40
5.0
 40
5.0
 40
6.0
 40
6.0
 40
6.0
 40
7.0
 40
7.0
 40
7.0
 40
8.0
 40
8.0
 40
8.0
 40
9.0
 40
9.0
 40
9.0
 40
10.0
 40
10.0
 40
10.0
 40
11.0
 40
11.0
 40
11.0
 40
12.0
 40
12.0
 40
12.0
 40
13.0
 40
13.0
 40
13.0
 40
14.0
 40
14.0
 40
14.0
 40
15.0
 40
15.0
 40
15.0
 40
16.0
 40
16.0
 40
16.0
 40
16.0
 10
67.4499742127382
 20
-126.423807748342
 10
67.4499742127382
 20
-126.5021836706314
 10
67.43309324486047
 20
-126.603641732672
 10
67.36953123315762
 20
-126.7052720494869
 10
67.25946043240388
 20
-126.8787326071692
 10
67.12837454919013
 20
-126.8999199444035
 10
67.02054306050181
 20
-126.9188679695724
 10
67.02054306050181
 20
-126.9188679695724
 10
67.02054306050181
 20
-126.696831565548
 10
67.02054306050181
 20
-126.696831565548
 10
67.21932507000072
 20
-126.641710037784
 10
67.24895289117387
 20
-126.5147582691526
 10
67.24895289117387
 20
-126.4217406910508
 10
67.24895289117387
 20
-126.2820420691239
 10
67.14956188642442
 20
-126.1297688486759
 10
66.91684568639579
 20
-126.1297688486759
 10
66.66087509184173
 20
-126.1297688486759
 10
66.59111190826542
 20
-126.3096028330059
 10
66.59111190826542
 20
-126.4301811749897
 10
66.59111190826542
 20
-126.461876053454
 10
66.59111190826542
 20
-126.603641732672
 10
66.72013073418803
 20
-126.6925251961915
 10
66.72013073418803
 20
-126.6925251961915
 10
66.7010104542449
 20
-126.8680528111649
 10
66.7010104542449
 20
-126.8680528111649
 10
66.7010104542449
 20
-126.8680528111649
 10
65.85489500306753
 20
-126.7474744691812
 10
65.85489500306753
 20
-126.7474744691812
 10
65.85489500306753
 20
-126.7474744691812
 10
65.85489500306753
 20
-125.969055144289
 10
65.85489500306753
 20
-125.969055144289
 10
65.85489500306753
 20
-125.969055144289
 10
66.04954289798414
 20
-125.969055144289
 10
66.04954289798414
 20
-125.969055144289
 10
66.04954289798414
 20
-125.969055144289
 10
66.04954289798414
 20
-126.5846937075031
 10
66.04954289798414
 20
-126.5846937075031
 10
66.04954289798414
 20
-126.5846937075031
 10
66.47260062357283
 20
-126.6501505217229
 10
66.47260062357283
 20
-126.6501505217229
 10
66.43866643304311
 20
-126.5888278220854
 10
66.39853107063995
 20
-126.5063177852137
 10
66.39853107063995
 20
-126.3879787552954
 10
66.39853107063995
 20
-126.1340752180325
 10
66.5847384816177
 20
-125.8970526486473
 10
66.89772540645265
 20
-125.8970526486473
 10
67.21519095541842
 20
-125.8970526486473
 10
67.4499742127382
 20
-126.121328364737
 10
67.4499742127382
 20
-126.423807748342
 97
        0
 97
        0
 75
     2
 76
     1
 98
        0
  0
ENDBLK
  5
85
330
82
100
AcDbEntity
  8
0
100
AcDbBlockEnd
  0
BLOCK
  5
9D
330
9B
100
AcDbEntity
  8
0
100
AcDbBlockBegin
  2
block 4
 70
     0
 10
0.0
 20
0.0
 30
0.0
  3
block 4
  1

  0
SPLINE
  5
9F
330
9B
100
AcDbEntity
  8
_U+30EC_U+30A4_U+30E4_U+30FC 1
370
     0
100
AcDbSpline
210
0.0
220
0.0
230
1.0
 70
    11
 71
     3
 72
    44
 73
    40
 74
     0
 42
0.0000000001
 43
0.0000000001
 12
1.0
 22
0.0
 32
0.0
 13
1.0
 23
0.0
 33
0.0
 40
0.0
 40
0.0
 40
0.0
 40
0.0
 40
1.0
 40
1.0
 40
1.0
 40
2.0
 40
2.0
 40
2.0
 40
3.0
 40
3.0
 40
3.0
 40
4.0
 40
4.0
 40
4.0
 40
5.0
 40
5.0
 40
5.0
 40
6.0
 40
6.0
 40
6.0
 40
7.0
 40
7.0
 40
7.0
 40
8.0
 40
8.0
 40
8.0
 40
9.0
 40
9.0
 40
9.0
 40
10.0
 40
10.0
 40
10.0
 40
11.0
 40
11.0
 40
11.0
 40
12.0
 40
12.0
 40
12.0
 40
13.0
 40
13.0
 40
13.0
 40
13.0
 10
82.04150388573963
 20
-121.0391235048965
 30
0.0
 10
81.82360159629758
 20
-121.1977701519922
 30
0.0
 10
81.73041176342157
 20
-121.2718397049251
 30
0.0
 10
81.68183591707954
 20
-121.4156724414343
 30
0.0
 10
81.68183591707954
 20
-121.4156724414343
 30
0.0
 10
82.46025524197175
 20
-121.4156724414343
 30
0.0
 10
82.46025524197175
 20
-121.4156724414343
 30
0.0
 10
82.46025524197175
 20
-121.4156724414343
 30
0.0
 10
82.46025524197175
 20
-121.6208278775809
 30
0.0
 10
82.46025524197175
 20
-121.6208278775809
 30
0.0
 10
82.46025524197175
 20
-121.6208278775809
 30
0.0
 10
81.4322387491732
 20
-121.6208278775809
 30
0.0
 10
81.4322387491732
 20
-121.6208278775809
 30
0.0
 10
81.46393362763749
 20
-121.263226966212
 30
0.0
 10
81.5295626966315
 20
-121.1850232986968
 30
0.0
 10
81.91455211710817
 20
-120.8866780296742
 30
0.0
 10
82.17052271166223
 20
-120.6878960201753
 30
0.0
 10
82.23597952588199
 20
-120.6201998938901
 30
0.0
 10
82.23597952588199
 20
-120.4827405840286
 30
0.0
 10
82.23597952588199
 20
-120.364229299336
 30
0.0
 10
82.16414928501452
 20
-120.2331434161223
 30
0.0
 10
81.96743433280676
 20
-120.2331434161223
 30
0.0
 10
81.70715736889613
 20
-120.2331434161223
 30
0.0
 10
81.69871688495726
 20
-120.4636203040855
 30
0.0
 10
81.69441051560071
 20
-120.5800645314869
 30
0.0
 10
81.69441051560071
 20
-120.5800645314869
 30
0.0
 10
81.4703070542852
 20
-120.5800645314869
 30
0.0
 10
81.4703070542852
 20
-120.5800645314869
 30
0.0
 10
81.47874753822407
 20
-120.4531127628555
 30
0.0
 10
81.48925507945408
 20
-120.3409749048106
 30
0.0
 10
81.56969805903466
 20
-120.222463620118
 30
0.0
 10
81.67959660501413
 20
-120.0617499157311
 30
0.0
 10
81.86580401599188
 20
-120.0278157252014
 30
0.0
 10
81.98224824339333
 20
-120.0278157252014
 30
0.0
 10
82.25940617518168
 20
-120.0278157252014
 30
0.0
 10
82.46662866861946
 20
-120.211956078888
 30
0.0
 10
82.46662866861946
 20
-120.4848076413198
 30
0.0
 10
82.46662866861946
 20
-120.7132174719918
 30
0.0
 10
82.35035669599228
 20
-120.8127807315156
 30
0.0
 10
82.04150388573963
 20
-121.0391235048965
 30
0.0
  0
HATCH
  5
A0
330
9B
100
AcDbEntity
  8
_U+30EC_U+30A4_U+30E4_U+30FC 1
 62
   179
420
  2234388
100
AcDbHatch
 10
0.0
 20
0.0
 30
0.0
210
0.0
220
0.0
230
1.0
  2
SOLID
 70
     1
 71
     0
 91
        1
 92
        1
 93
        1
 72
     4
 94
        3
 73
     0
 74
     1
 95
       44
 96
       40
 40
0.0
 40
0.0
 40
0.0
 40
0.0
 40
1.0
 40
1.0
 40
1.0
 40
2.0
 40
2.0
 40
2.0
 40
3.0
 40
3.0
 40
3.0
 40
4.0
 40
4.0
 40
4.0
 40
5.0
 40
5.0
 40
5.0
 40
6.0
 40
6.0
 40
6.0
 40
7.0
 40
7.0
 40
7.0
 40
8.0
 40
8.0
 40
8.0
 40
9.0
 40
9.0
 40
9.0
 40
10.0
 40
10.0
 40
10.0
 40
11.0
 40
11.0
 40
11.0
 40
12.0
 40
12.0
 40
12.0
 40
13.0
 40
13.0
 40
13.0
 40
13.0
 10
82.04150388573963
 20
-121.0391235048965
 10
81.82360159629758
 20
-121.1977701519922
 10
81.73041176342157
 20
-121.2718397049251
 10
81.68183591707954
 20
-121.4156724414343
 10
81.68183591707954
 20
-121.4156724414343
 10
82.46025524197175
 20
-121.4156724414343
 10
82.46025524197175
 20
-121.4156724414343
 10
82.46025524197175
 20
-121.4156724414343
 10
82.46025524197175
 20
-121.6208278775809
 10
82.46025524197175
 20
-121.6208278775809
 10
82.46025524197175
 20
-121.6208278775809
 10
81.4322387491732
 20
-121.6208278775809
 10
81.4322387491732
 20
-121.6208278775809
 10
81.46393362763749
 20
-121.263226966212
 10
81.5295626966315
 20
-121.1850232986968
 10
81.91455211710817
 20
-120.8866780296742
 10
82.17052271166223
 20
-120.6878960201753
 10
82.23597952588199
 20
-120.6201998938901
 10
82.23597952588199
 20
-120.4827405840286
 10
82.23597952588199
 20
-120.364229299336
 10
82.16414928501452
 20
-120.2331434161223
 10
81.96743433280676
 20
-120.2331434161223
 10
81.70715736889613
 20
-120.2331434161223
 10
81.69871688495726
 20
-120.4636203040855
 10
81.69441051560071
 20
-120.5800645314869
 10
81.69441051560071
 20
-120.5800645314869
 10
81.4703070542852
 20
-120.5800645314869
 10
81.4703070542852
 20
-120.5800645314869
 10
81.47874753822407
 20
-120.4531127628555
 10
81.48925507945408
 20
-120.3409749048106
 10
81.56969805903466
 20
-120.222463620118
 10
81.67959660501413
 20
-120.0617499157311
 10
81.86580401599188
 20
-120.0278157252014
 10
81.98224824339333
 20
-120.0278157252014
 10
82.25940617518168
 20
-120.0278157252014
 10
82.46662866861946
 20
-120.211956078888
 10
82.46662866861946
 20
-120.4848076413198
 10
82.46662866861946
 20
-120.7132174719918
 10
82.35035669599228
 20
-120.8127807315156
 10
82.04150388573963
 20
-121.0391235048965
 97
        0
 97
        0
 75
     2
 76
     1
 98
        0
  0
SPLINE
  5
A1
330
9B
100
AcDbEntity
  8
_U+30EC_U+30A4_U+30E4_U+30FC 1
370
     0
100
AcDbSpline
210
0.0
220
0.0
230
1.0
 70
    11
 71
     3
 72
    26
 73
    22
 74
     0
 42
0.0000000001
 43
0.0000000001
 12
1.0
 22
0.0
 32
0.0
 13
1.0
 23
0.0
 33
0.0
 40
0.0
 40
0.0
 40
0.0
 40
0.0
 40
1.0
 40
1.0
 40
1.0
 40
2.0
 40
2.0
 40
2.0
 40
3.0
 40
3.0
 40
3.0
 40
4.0
 40
4.0
 40
4.0
 40
5.0
 40
5.0
 40
5.0
 40
6.0
 40
6.0
 40
6.0
 40
7.0
 40
7.0
 40
7.0
 40
7.0
 10
83.07658282428294
 20
-121.6208278775809
 30
0.0
 10
83.07658282428294
 20
-121.6208278775809
 30
0.0
 10
83.07658282428294
 20
-120.5165025197841
 30
0.0
 10
83.07658282428294
 20
-120.5165025197841
 30
0.0
 10
83.07658282428294
 20
-120.5165025197841
 30
0.0
 10
82.74654267679601
 20
-120.5165025197841
 30
0.0
 10
82.74654267679601
 20
-120.5165025197841
 30
0.0
 10
82.74654267679601
 20
-120.5165025197841
 30
0.0
 10
82.74654267679601
 20
-120.3685356686926
 30
0.0
 10
82.74654267679601
 20
-120.3685356686926
 30
0.0
 10
83.0786498815741
 20
-120.353721758106
 30
0.0
 10
83.12515867062497
 20
-120.1907687416537
 30
0.0
 10
83.1547864917981
 20
-120.0765638263177
 30
0.0
 10
83.1547864917981
 20
-120.0765638263177
 30
0.0
 10
83.3008585403727
 20
-120.0765638263177
 30
0.0
 10
83.3008585403727
 20
-120.0765638263177
 30
0.0
 10
83.3008585403727
 20
-120.0765638263177
 30
0.0
 10
83.3008585403727
 20
-121.6208278775809
 30
0.0
 10
83.3008585403727
 20
-121.6208278775809
 30
0.0
 10
83.3008585403727
 20
-121.6208278775809
 30
0.0
 10
83.07658282428294
 20
-121.6208278775809
 30
0.0
 10
83.07658282428294
 20
-121.6208278775809
 30
0.0
  0
HATCH
  5
A2
330
9B
100
AcDbEntity
  8
_U+30EC_U+30A4_U+30E4_U+30FC 1
 62
   179
420
  2234388
100
AcDbHatch
 10
0.0
 20
0.0
 30
0.0
210
0.0
220
0.0
230
1.0
  2
SOLID
 70
     1
 71
     0
 91
        1
 92
        1
 93
        1
 72
     4
 94
        3
 73
     0
 74
     1
 95
       26
 96
       22
 40
0.0
 40
0.0
 40
0.0
 40
0.0
 40
1.0
 40
1.0
 40
1.0
 40
2.0
 40
2.0
 40
2.0
 40
3.0
 40
3.0
 40
3.0
 40
4.0
 40
4.0
 40
4.0
 40
5.0
 40
5.0
 40
5.0
 40
6.0
 40
6.0
 40
6.0
 40
7.0
 40
7.0
 40
7.0
 40
7.0
 10
83.07658282428294
 20
-121.6208278775809
 10
83.07658282428294
 20
-121.6208278775809
 10
83.07658282428294
 20
-120.5165025197841
 10
83.07658282428294
 20
-120.5165025197841
 10
83.07658282428294
 20
-120.5165025197841
 10
82.74654267679601
 20
-120.5165025197841
 10
82.74654267679601
 20
-120.5165025197841
 10
82.74654267679601
 20
-120.5165025197841
 10
82.74654267679601
 20
-120.3685356686926
 10
82.74654267679601
 20
-120.3685356686926
 10
83.0786498815741
 20
-120.353721758106
 10
83.12515867062497
 20
-120.1907687416537
 10
83.1547864917981
 20
-120.0765638263177
 10
83.1547864917981
 20
-120.0765638263177
 10
83.3008585403727
 20
-120.0765638263177
 10
83.3008585403727
 20
-120.0765638263177
 10
83.3008585403727
 20
-120.0765638263177
 10
83.3008585403727
 20
-121.6208278775809
 10
83.3008585403727
 20
-121.6208278775809
 10
83.3008585403727
 20
-121.6208278775809
 10
83.07658282428294
 20
-121.6208278775809
 10
83.07658282428294
 20
-121.6208278775809
 97
        0
 97
        0
 75
     2
 76
     1
 98
        0
  0
ENDBLK
  5
9E
330
9B
100
AcDbEntity
  8
0
100
AcDbBlockEnd
  0
BLOCK
  5
AD
330
AB
100
AcDbEntity
  8
0
100
AcDbBlockBegin
  2
block 5
 70
     0
 10
0.0
 20
0.0
 30
0.0
  3
block 5
  1

  0
SPLINE
  5
AF
330
AB
100
AcDbEntity
  8
_U+30EC_U+30A4_U+30E4_U+30FC 1
370
     0
100
AcDbSpline
210
0.0
220
0.0
230
1.0
 70
    11
 71
     3
 72
    53
 73
    49
 74
     0
 42
0.0000000001
 43
0.0000000001
 12
1.0
 22
0.0
 32
0.0
 13
1.0
 23
0.0
 33
0.0
 40
0.0
 40
0.0
 40
0.0
 40
0.0
 40
1.0
 40
1.0
 40
1.0
 40
2.0
 40
2.0
 40
2.0
 40
3.0
 40
3.0
 40
3.0
 40
4.0
 40
4.0
 40
4.0
 40
5.0
 40
5.0
 40
5.0
 40
6.0
 40
6.0
 40
6.0
 40
7.0
 40
7.0
 40
7.0
 40
8.0
 40
8.0
 40
8.0
 40
9.0
 40
9.0
 40
9.0
 40
10.0
 40
10.0
 40
10.0
 40
11.0
 40
11.0
 40
11.0
 40
12.0
 40
12.0
 40
12.0
 40
13.0
 40
13.0
 40
13.0
 40
14.0
 40
14.0
 40
14.0
 40
15.0
 40
15.0
 40
15.0
 40
16.0
 40
16.0
 40
16.0
 40
16.0
 10
67.44962970318969
 20
-130.5549939994793
 30
0.0
 10
67.44962970318969
 20
-130.6331976669945
 30
0.0
 10
67.43257648053769
 20
-130.7348279838094
 30
0.0
 10
67.36918672360909
 20
-130.8364583006242
 30
0.0
 10
67.25911592285536
 20
-131.0097466035323
 30
0.0
 10
67.1280300396416
 20
-131.0311061955408
 30
0.0
 10
67.02019855095328
 20
-131.0500542207097
 30
0.0
 10
67.02019855095328
 20
-131.0500542207097
 30
0.0
 10
67.02019855095328
 20
-130.8278455619111
 30
0.0
 10
67.02019855095328
 20
-130.8278455619111
 30
0.0
 10
67.21898056045221
 20
-130.7730685436956
 30
0.0
 10
67.24860838162535
 20
-130.6459445202899
 30
0.0
 10
67.24860838162535
 20
-130.5529269421882
 30
0.0
 10
67.24860838162535
 20
-130.4134005750356
 30
0.0
 10
67.1492173768759
 20
-130.2611273545875
 30
0.0
 10
66.91650117684726
 20
-130.2611273545875
 30
0.0
 10
66.6605305822932
 20
-130.2611273545875
 30
0.0
 10
66.59076739871689
 20
-130.4409613389175
 30
0.0
 10
66.59076739871689
 20
-130.5615396809013
 30
0.0
 10
66.59076739871689
 20
-130.5932345593656
 30
0.0
 10
66.59076739871689
 20
-130.7348279838094
 30
0.0
 10
66.7197862246395
 20
-130.8237114473288
 30
0.0
 10
66.7197862246395
 20
-130.8237114473288
 30
0.0
 10
66.70066594469637
 20
-130.9994113170766
 30
0.0
 10
66.70066594469637
 20
-130.9994113170766
 30
0.0
 10
66.70066594469637
 20
-130.9994113170766
 30
0.0
 10
65.854550493519
 20
-130.8788329750928
 30
0.0
 10
65.854550493519
 20
-130.8788329750928
 30
0.0
 10
65.854550493519
 20
-130.8788329750928
 30
0.0
 10
65.854550493519
 20
-130.1002413954263
 30
0.0
 10
65.854550493519
 20
-130.1002413954263
 30
0.0
 10
65.854550493519
 20
-130.1002413954263
 30
0.0
 10
66.04919838843561
 20
-130.1002413954263
 30
0.0
 10
66.04919838843561
 20
-130.1002413954263
 30
0.0
 10
66.04919838843561
 20
-130.1002413954263
 30
0.0
 10
66.04919838843561
 20
-130.7158799586405
 30
0.0
 10
66.04919838843561
 20
-130.7158799586405
 30
0.0
 10
66.04919838843561
 20
-130.7158799586405
 30
0.0
 10
66.4722561140243
 20
-130.7813367728602
 30
0.0
 10
66.4722561140243
 20
-130.7813367728602
 30
0.0
 10
66.43832192349458
 20
-130.7200140732228
 30
0.0
 10
66.39818656109144
 20
-130.6376762911253
 30
0.0
 10
66.39818656109144
 20
-130.5191650064327
 30
0.0
 10
66.39818656109144
 20
-130.2652614691698
 30
0.0
 10
66.58439397206918
 20
-130.0282388997846
 30
0.0
 10
66.89738089690412
 20
-130.0282388997846
 30
0.0
 10
67.21484644586991
 20
-130.0282388997846
 30
0.0
 10
67.44962970318969
 20
-130.2525146158744
 30
0.0
 10
67.44962970318969
 20
-130.5549939994793
 30
0.0
  0
HATCH
  5
B0
330
AB
100
AcDbEntity
  8
_U+30EC_U+30A4_U+30E4_U+30FC 1
 62
   179
420
  2234388
100
AcDbHatch
 10
0.0
 20
0.0
 30
0.0
210
0.0
220
0.0
230
1.0
  2
SOLID
 70
     1
 71
     0
 91
        1
 92
        1
 93
        1
 72
     4
 94
        3
 73
     0
 74
     1
 95
       53
 96
       49
 40
0.0
 40
0.0
 40
0.0
 40
0.0
 40
1.0
 40
1.0
 40
1.0
 40
2.0
 40
2.0
 40
2.0
 40
3.0
 40
3.0
 40
3.0
 40
4.0
 40
4.0
 40
4.0
 40
5.0
 40
5.0
 40
5.0
 40
6.0
 40
6.0
 40
6.0
 40
7.0
 40
7.0
 40
7.0
 40
8.0
 40
8.0
 40
8.0
 40
9.0
 40
9.0
 40
9.0
 40
10.0
 40
10.0
 40
10.0
 40
11.0
 40
11.0
 40
11.0
 40
12.0
 40
12.0
 40
12.0
 40
13.0
 40
13.0
 40
13.0
 40
14.0
 40
14.0
 40
14.0
 40
15.0
 40
15.0
 40
15.0
 40
16.0
 40
16.0
 40
16.0
 40
16.0
 10
67.44962970318969
 20
-130.5549939994793
 10
67.44962970318969
 20
-130.6331976669945
 10
67.43257648053769
 20
-130.7348279838094
 10
67.36918672360909
 20
-130.8364583006242
 10
67.25911592285536
 20
-131.0097466035323
 10
67.1280300396416
 20
-131.0311061955408
 10
67.02019855095328
 20
-131.0500542207097
 10
67.02019855095328
 20
-131.0500542207097
 10
67.02019855095328
 20
-130.8278455619111
 10
67.02019855095328
 20
-130.8278455619111
 10
67.21898056045221
 20
-130.7730685436956
 10
67.24860838162535
 20
-130.6459445202899
 10
67.24860838162535
 20
-130.5529269421882
 10
67.24860838162535
 20
-130.4134005750356
 10
67.1492173768759
 20
-130.2611273545875
 10
66.91650117684726
 20
-130.2611273545875
 10
66.6605305822932
 20
-130.2611273545875
 10
66.59076739871689
 20
-130.4409613389175
 10
66.59076739871689
 20
-130.5615396809013
 10
66.59076739871689
 20
-130.5932345593656
 10
66.59076739871689
 20
-130.7348279838094
 10
66.7197862246395
 20
-130.8237114473288
 10
66.7197862246395
 20
-130.8237114473288
 10
66.70066594469637
 20
-130.9994113170766
 10
66.70066594469637
 20
-130.9994113170766
 10
66.70066594469637
 20
-130.9994113170766
 10
65.854550493519
 20
-130.8788329750928
 10
65.854550493519
 20
-130.8788329750928
 10
65.854550493519
 20
-130.8788329750928
 10
65.854550493519
 20
-130.1002413954263
 10
65.854550493519
 20
-130.1002413954263
 10
65.854550493519
 20
-130.1002413954263
 10
66.04919838843561
 20
-130.1002413954263
 10
66.04919838843561
 20
-130.1002413954263
 10
66.04919838843561
 20
-130.1002413954263
 10
66.04919838843561
 20
-130.7158799586405
 10
66.04919838843561
 20
-130.7158799586405
 10
66.04919838843561
 20
-130.7158799586405
 10
66.4722561140243
 20
-130.7813367728602
 10
66.4722561140243
 20
-130.7813367728602
 10
66.43832192349458
 20
-130.7200140732228
 10
66.39818656109144
 20
-130.6376762911253
 10
66.39818656109144
 20
-130.5191650064327
 10
66.39818656109144
 20
-130.2652614691698
 10
66.58439397206918
 20
-130.0282388997846
 10
66.89738089690412
 20
-130.0282388997846
 10
67.21484644586991
 20
-130.0282388997846
 10
67.44962970318969
 20
-130.2525146158744
 10
67.44962970318969
 20
-130.5549939994793
 97
        0
 97
        0
 75
     2
 76
     1
 98
        0
  0
ENDBLK
  5
AE
330
AB
100
AcDbEntity
  8
0
100
AcDbBlockEnd
  0
BLOCK
  5
BB
330
B9
100
AcDbEntity
  8
0
100
AcDbBlockBegin
  2
block 6
 70
     0
 10
0.0
 20
0.0
 30
0.0
  3
block 6
  1

  0
SPLINE
  5
BD
330
B9
100
AcDbEntity
  8
_U+30EC_U+30A4_U+30E4_U+30FC 1
370
     0
100
AcDbSpline
210
0.0
220
0.0
230
1.0
 70
    11
 71
     3
 72
    44
 73
    40
 74
     0
 42
0.0000000001
 43
0.0000000001
 12
1.0
 22
0.0
 32
0.0
 13
1.0
 23
0.0
 33
0.0
 40
0.0
 40
0.0
 40
0.0
 40
0.0
 40
1.0
 40
1.0
 40
1.0
 40
2.0
 40
2.0
 40
2.0
 40
3.0
 40
3.0
 40
3.0
 40
4.0
 40
4.0
 40
4.0
 40
5.0
 40
5.0
 40
5.0
 40
6.0
 40
6.0
 40
6.0
 40
7.0
 40
7.0
 40
7.0
 40
8.0
 40
8.0
 40
8.0
 40
9.0
 40
9.0
 40
9.0
 40
10.0
 40
10.0
 40
10.0
 40
11.0
 40
11.0
 40
11.0
 40
12.0
 40
12.0
 40
12.0
 40
13.0
 40
13.0
 40
13.0
 40
13.0
 10
105.0426838930102
 20
-121.0391235048965
 30
0.0
 10
104.8249538583424
 20
-121.1977701519922
 30
0.0
 10
104.7319362802406
 20
-121.2718397049251
 30
0.0
 10
104.6830159243501
 20
-121.4156724414343
 30
0.0
 10
104.6830159243501
 20
-121.4156724414343
 30
0.0
 10
105.4616075040165
 20
-121.4156724414343
 30
0.0
 10
105.4616075040165
 20
-121.4156724414343
 30
0.0
 10
105.4616075040165
 20
-121.4156724414343
 30
0.0
 10
105.4616075040165
 20
-121.6208278775809
 30
0.0
 10
105.4616075040165
 20
-121.6208278775809
 30
0.0
 10
105.4616075040165
 20
-121.6208278775809
 30
0.0
 10
104.433591011218
 20
-121.6208278775809
 30
0.0
 10
104.433591011218
 20
-121.6208278775809
 30
0.0
 10
104.4652858896823
 20
-121.263226966212
 30
0.0
 10
104.530742703902
 20
-121.1850232986968
 30
0.0
 10
104.915904379153
 20
-120.8866780296742
 30
0.0
 10
105.171874973707
 20
-120.6878960201753
 30
0.0
 10
105.2373317879268
 20
-120.6201998938901
 30
0.0
 10
105.2373317879268
 20
-120.4827405840286
 30
0.0
 10
105.2373317879268
 20
-120.364229299336
 30
0.0
 10
105.1653292922851
 20
-120.2331434161223
 30
0.0
 10
104.9686143400773
 20
-120.2331434161223
 30
0.0
 10
104.7085096309409
 20
-120.2331434161223
 30
0.0
 10
104.6998968922278
 20
-120.4636203040855
 30
0.0
 10
104.6957627776455
 20
-120.5800645314869
 30
0.0
 10
104.6957627776455
 20
-120.5800645314869
 30
0.0
 10
104.4714870615557
 20
-120.5800645314869
 30
0.0
 10
104.4714870615557
 20
-120.5800645314869
 30
0.0
 10
104.4800998002689
 20
-120.4531127628555
 30
0.0
 10
104.4907795962731
 20
-120.3409749048106
 30
0.0
 10
104.5710503210795
 20
-120.222463620118
 30
0.0
 10
104.6809488670589
 20
-120.0617499157311
 30
0.0
 10
104.8673285328109
 20
-120.0278157252014
 30
0.0
 10
104.9834282506639
 20
-120.0278157252014
 30
0.0
 10
105.2607584372265
 20
-120.0278157252014
 30
0.0
 10
105.4681531854385
 20
-120.211956078888
 30
0.0
 10
105.4681531854385
 20
-120.4848076413198
 30
0.0
 10
105.4681531854385
 20
-120.7132174719918
 30
0.0
 10
105.3517089580371
 20
-120.8127807315156
 30
0.0
 10
105.0426838930102
 20
-121.0391235048965
 30
0.0
  0
HATCH
  5
BE
330
B9
100
AcDbEntity
  8
_U+30EC_U+30A4_U+30E4_U+30FC 1
 62
   179
420
  2234388
100
AcDbHatch
 10
0.0
 20
0.0
 30
0.0
210
0.0
220
0.0
230
1.0
  2
SOLID
 70
     1
 71
     0
 91
        1
 92
        1
 93
        1
 72
     4
 94
        3
 73
     0
 74
     1
 95
       44
 96
       40
 40
0.0
 40
0.0
 40
0.0
 40
0.0
 40
1.0
 40
1.0
 40
1.0
 40
2.0
 40
2.0
 40
2.0
 40
3.0
 40
3.0
 40
3.0
 40
4.0
 40
4.0
 40
4.0
 40
5.0
 40
5.0
 40
5.0
 40
6.0
 40
6.0
 40
6.0
 40
7.0
 40
7.0
 40
7.0
 40
8.0
 40
8.0
 40
8.0
 40
9.0
 40
9.0
 40
9.0
 40
10.0
 40
10.0
 40
10.0
 40
11.0
 40
11.0
 40
11.0
 40
12.0
 40
12.0
 40
12.0
 40
13.0
 40
13.0
 40
13.0
 40
13.0
 10
105.0426838930102
 20
-121.0391235048965
 10
104.8249538583424
 20
-121.1977701519922
 10
104.7319362802406
 20
-121.2718397049251
 10
104.6830159243501
 20
-121.4156724414343
 10
104.6830159243501
 20
-121.4156724414343
 10
105.4616075040165
 20
-121.4156724414343
 10
105.4616075040165
 20
-121.4156724414343
 10
105.4616075040165
 20
-121.4156724414343
 10
105.4616075040165
 20
-121.6208278775809
 10
105.4616075040165
 20
-121.6208278775809
 10
105.4616075040165
 20
-121.6208278775809
 10
104.433591011218
 20
-121.6208278775809
 10
104.433591011218
 20
-121.6208278775809
 10
104.4652858896823
 20
-121.263226966212
 10
104.530742703902
 20
-121.1850232986968
 10
104.915904379153
 20
-120.8866780296742
 10
105.171874973707
 20
-120.6878960201753
 10
105.2373317879268
 20
-120.6201998938901
 10
105.2373317879268
 20
-120.4827405840286
 10
105.2373317879268
 20
-120.364229299336
 10
105.1653292922851
 20
-120.2331434161223
 10
104.9686143400773
 20
-120.2331434161223
 10
104.7085096309409
 20
-120.2331434161223
 10
104.6998968922278
 20
-120.4636203040855
 10
104.6957627776455
 20
-120.5800645314869
 10
104.6957627776455
 20
-120.5800645314869
 10
104.4714870615557
 20
-120.5800645314869
 10
104.4714870615557
 20
-120.5800645314869
 10
104.4800998002689
 20
-120.4531127628555
 10
104.4907795962731
 20
-120.3409749048106
 10
104.5710503210795
 20
-120.222463620118
 10
104.6809488670589
 20
-120.0617499157311
 10
104.8673285328109
 20
-120.0278157252014
 10
104.9834282506639
 20
-120.0278157252014
 10
105.2607584372265
 20
-120.0278157252014
 10
105.4681531854385
 20
-120.211956078888
 10
105.4681531854385
 20
-120.4848076413198
 10
105.4681531854385
 20
-120.7132174719918
 10
105.3517089580371
 20
-120.8127807315156
 10
105.0426838930102
 20
-121.0391235048965
 97
        0
 97
        0
 75
     2
 76
     1
 98
        0
  0
SPLINE
  5
BF
330
B9
100
AcDbEntity
  8
_U+30EC_U+30A4_U+30E4_U+30FC 1
370
     0
100
AcDbSpline
210
0.0
220
0.0
230
1.0
 70
    11
 71
     3
 72
    26
 73
    22
 74
     0
 42
0.0000000001
 43
0.0000000001
 12
1.0
 22
0.0
 32
0.0
 13
1.0
 23
0.0
 33
0.0
 40
0.0
 40
0.0
 40
0.0
 40
0.0
 40
1.0
 40
1.0
 40
1.0
 40
2.0
 40
2.0
 40
2.0
 40
3.0
 40
3.0
 40
3.0
 40
4.0
 40
4.0
 40
4.0
 40
5.0
 40
5.0
 40
5.0
 40
6.0
 40
6.0
 40
6.0
 40
7.0
 40
7.0
 40
7.0
 40
7.0
 10
106.0779350863277
 20
-121.6208278775809
 30
0.0
 10
106.0779350863277
 20
-121.6208278775809
 30
0.0
 10
106.0779350863277
 20
-120.5165025197841
 30
0.0
 10
106.0779350863277
 20
-120.5165025197841
 30
0.0
 10
106.0779350863277
 20
-120.5165025197841
 30
0.0
 10
105.7478949388408
 20
-120.5165025197841
 30
0.0
 10
105.7478949388408
 20
-120.5165025197841
 30
0.0
 10
105.7478949388408
 20
-120.5165025197841
 30
0.0
 10
105.7478949388408
 20
-120.3685356686926
 30
0.0
 10
105.7478949388408
 20
-120.3685356686926
 30
0.0
 10
106.0800021436189
 20
-120.353721758106
 30
0.0
 10
106.1265109326698
 20
-120.1907687416537
 30
0.0
 10
106.1561387538429
 20
-120.0765638263177
 30
0.0
 10
106.1561387538429
 20
-120.0765638263177
 30
0.0
 10
106.3022108024175
 20
-120.0765638263177
 30
0.0
 10
106.3022108024175
 20
-120.0765638263177
 30
0.0
 10
106.3022108024175
 20
-120.0765638263177
 30
0.0
 10
106.3022108024175
 20
-121.6208278775809
 30
0.0
 10
106.3022108024175
 20
-121.6208278775809
 30
0.0
 10
106.3022108024175
 20
-121.6208278775809
 30
0.0
 10
106.0779350863277
 20
-121.6208278775809
 30
0.0
 10
106.0779350863277
 20
-121.6208278775809
 30
0.0
  0
HATCH
  5
C0
330
B9
100
AcDbEntity
  8
_U+30EC_U+30A4_U+30E4_U+30FC 1
 62
   179
420
  2234388
100
AcDbHatch
 10
0.0
 20
0.0
 30
0.0
210
0.0
220
0.0
230
1.0
  2
SOLID
 70
     1
 71
     0
 91
        1
 92
        1
 93
        1
 72
     4
 94
        3
 73
     0
 74
     1
 95
       26
 96
       22
 40
0.0
 40
0.0
 40
0.0
 40
0.0
 40
1.0
 40
1.0
 40
1.0
 40
2.0
 40
2.0
 40
2.0
 40
3.0
 40
3.0
 40
3.0
 40
4.0
 40
4.0
 40
4.0
 40
5.0
 40
5.0
 40
5.0
 40
6.0
 40
6.0
 40
6.0
 40
7.0
 40
7.0
 40
7.0
 40
7.0
 10
106.0779350863277
 20
-121.6208278775809
 10
106.0779350863277
 20
-121.6208278775809
 10
106.0779350863277
 20
-120.5165025197841
 10
106.0779350863277
 20
-120.5165025197841
 10
106.0779350863277
 20
-120.5165025197841
 10
105.7478949388408
 20
-120.5165025197841
 10
105.7478949388408
 20
-120.5165025197841
 10
105.7478949388408
 20
-120.5165025197841
 10
105.7478949388408
 20
-120.3685356686926
 10
105.7478949388408
 20
-120.3685356686926
 10
106.0800021436189
 20
-120.353721758106
 10
106.1265109326698
 20
-120.1907687416537
 10
106.1561387538429
 20
-120.0765638263177
 10
106.1561387538429
 20
-120.0765638263177
 10
106.3022108024175
 20
-120.0765638263177
 10
106.3022108024175
 20
-120.0765638263177
 10
106.3022108024175
 20
-120.0765638263177
 10
106.3022108024175
 20
-121.6208278775809
 10
106.3022108024175
 20
-121.6208278775809
 10
106.3022108024175
 20
-121.6208278775809
 10
106.0779350863277
 20
-121.6208278775809
 10
106.0779350863277
 20
-121.6208278775809
 97
        0
 97
        0
 75
     2
 76
     1
 98
        0
  0
ENDBLK
  5
BC
330
B9
100
AcDbEntity
  8
0
100
AcDbBlockEnd
  0
BLOCK
  5
CF
330
CD
100
AcDbEntity
  8
0
100
AcDbBlockBegin
  2
block 7
 70
     0
 10
0.0
 20
0.0
 30
0.0
  3
block 7
  1

  0
SPLINE
  5
D1
330
CD
100
AcDbEntity
  8
_U+30EC_U+30A4_U+30E4_U+30FC 1
370
     0
100
AcDbSpline
210
0.0
220
0.0
230
1.0
 70
    11
 71
     3
 72
    44
 73
    40
 74
     0
 42
0.0000000001
 43
0.0000000001
 12
1.0
 22
0.0
 32
0.0
 13
1.0
 23
0.0
 33
0.0
 40
0.0
 40
0.0
 40
0.0
 40
0.0
 40
1.0
 40
1.0
 40
1.0
 40
2.0
 40
2.0
 40
2.0
 40
3.0
 40
3.0
 40
3.0
 40
4.0
 40
4.0
 40
4.0
 40
5.0
 40
5.0
 40
5.0
 40
6.0
 40
6.0
 40
6.0
 40
7.0
 40
7.0
 40
7.0
 40
8.0
 40
8.0
 40
8.0
 40
9.0
 40
9.0
 40
9.0
 40
10.0
 40
10.0
 40
10.0
 40
11.0
 40
11.0
 40
11.0
 40
12.0
 40
12.0
 40
12.0
 40
13.0
 40
13.0
 40
13.0
 40
13.0
 10
94.20854761099648
 20
-121.039468014445
 30
0.0
 10
93.9908175763287
 20
-121.1981146615408
 30
0.0
 10
93.89779999822694
 20
-121.2721842144736
 30
0.0
 10
93.8488796423364
 20
-121.4160169509828
 30
0.0
 10
93.8488796423364
 20
-121.4160169509828
 30
0.0
 10
94.62747122200285
 20
-121.4160169509828
 30
0.0
 10
94.62747122200285
 20
-121.4160169509828
 30
0.0
 10
94.62747122200285
 20
-121.4160169509828
 30
0.0
 10
94.62747122200285
 20
-121.6211723871294
 30
0.0
 10
94.62747122200285
 20
-121.6211723871294
 30
0.0
 10
94.62747122200285
 20
-121.6211723871294
 30
0.0
 10
93.59945472920431
 20
-121.6211723871294
 30
0.0
 10
93.59945472920431
 20
-121.6211723871294
 30
0.0
 10
93.6311496076686
 20
-121.2635714757605
 30
0.0
 10
93.69660642188835
 20
-121.1853678082453
 30
0.0
 10
94.08176809713929
 20
-120.8870225392227
 30
0.0
 10
94.33773869169335
 20
-120.6882405297238
 30
0.0
 10
94.40319550591309
 20
-120.6205444034386
 30
0.0
 10
94.40319550591309
 20
-120.4830850935771
 30
0.0
 10
94.40319550591309
 20
-120.3645738088846
 30
0.0
 10
94.33119301027138
 20
-120.2334879256708
 30
0.0
 10
94.1344780580636
 20
-120.2334879256708
 30
0.0
 10
93.87437334892725
 20
-120.2334879256708
 30
0.0
 10
93.86576061021412
 20
-120.463964813634
 30
0.0
 10
93.86162649563182
 20
-120.5804090410355
 30
0.0
 10
93.86162649563182
 20
-120.5804090410355
 30
0.0
 10
93.63735077954206
 20
-120.5804090410355
 30
0.0
 10
93.63735077954206
 20
-120.5804090410355
 30
0.0
 10
93.64596351825519
 20
-120.453457272404
 30
0.0
 10
93.65664331425945
 20
-120.3413194143591
 30
0.0
 10
93.73691403906578
 20
-120.2228081296665
 30
0.0
 10
93.84681258504524
 20
-120.0620944252796
 30
0.0
 10
94.03319225079726
 20
-120.0281602347499
 30
0.0
 10
94.14929196865018
 20
-120.0281602347499
 30
0.0
 10
94.4266221552128
 20
-120.0281602347499
 30
0.0
 10
94.63401690342484
 20
-120.2123005884365
 30
0.0
 10
94.63401690342484
 20
-120.4851521508683
 30
0.0
 10
94.63401690342484
 20
-120.7135619815404
 30
0.0
 10
94.51757267602339
 20
-120.8131252410641
 30
0.0
 10
94.20854761099648
 20
-121.039468014445
 30
0.0
  0
HATCH
  5
D2
330
CD
100
AcDbEntity
  8
_U+30EC_U+30A4_U+30E4_U+30FC 1
 62
   179
420
  2234388
100
AcDbHatch
 10
0.0
 20
0.0
 30
0.0
210
0.0
220
0.0
230
1.0
  2
SOLID
 70
     1
 71
     0
 91
        1
 92
        1
 93
        1
 72
     4
 94
        3
 73
     0
 74
     1
 95
       44
 96
       40
 40
0.0
 40
0.0
 40
0.0
 40
0.0
 40
1.0
 40
1.0
 40
1.0
 40
2.0
 40
2.0
 40
2.0
 40
3.0
 40
3.0
 40
3.0
 40
4.0
 40
4.0
 40
4.0
 40
5.0
 40
5.0
 40
5.0
 40
6.0
 40
6.0
 40
6.0
 40
7.0
 40
7.0
 40
7.0
 40
8.0
 40
8.0
 40
8.0
 40
9.0
 40
9.0
 40
9.0
 40
10.0
 40
10.0
 40
10.0
 40
11.0
 40
11.0
 40
11.0
 40
12.0
 40
12.0
 40
12.0
 40
13.0
 40
13.0
 40
13.0
 40
13.0
 10
94.20854761099648
 20
-121.039468014445
 10
93.9908175763287
 20
-121.1981146615408
 10
93.89779999822694
 20
-121.2721842144736
 10
93.8488796423364
 20
-121.4160169509828
 10
93.8488796423364
 20
-121.4160169509828
 10
94.62747122200285
 20
-121.4160169509828
 10
94.62747122200285
 20
-121.4160169509828
 10
94.62747122200285
 20
-121.4160169509828
 10
94.62747122200285
 20
-121.6211723871294
 10
94.62747122200285
 20
-121.6211723871294
 10
94.62747122200285
 20
-121.6211723871294
 10
93.59945472920431
 20
-121.6211723871294
 10
93.59945472920431
 20
-121.6211723871294
 10
93.6311496076686
 20
-121.2635714757605
 10
93.69660642188835
 20
-121.1853678082453
 10
94.08176809713929
 20
-120.8870225392227
 10
94.33773869169335
 20
-120.6882405297238
 10
94.40319550591309
 20
-120.6205444034386
 10
94.40319550591309
 20
-120.4830850935771
 10
94.40319550591309
 20
-120.3645738088846
 10
94.33119301027138
 20
-120.2334879256708
 10
94.1344780580636
 20
-120.2334879256708
 10
93.87437334892725
 20
-120.2334879256708
 10
93.86576061021412
 20
-120.463964813634
 10
93.86162649563182
 20
-120.5804090410355
 10
93.86162649563182
 20
-120.5804090410355
 10
93.63735077954206
 20
-120.5804090410355
 10
93.63735077954206
 20
-120.5804090410355
 10
93.64596351825519
 20
-120.453457272404
 10
93.65664331425945
 20
-120.3413194143591
 10
93.73691403906578
 20
-120.2228081296665
 10
93.84681258504524
 20
-120.0620944252796
 10
94.03319225079726
 20
-120.0281602347499
 10
94.14929196865018
 20
-120.0281602347499
 10
94.4266221552128
 20
-120.0281602347499
 10
94.63401690342484
 20
-120.2123005884365
 10
94.63401690342484
 20
-120.4851521508683
 10
94.63401690342484
 20
-120.7135619815404
 10
94.51757267602339
 20
-120.8131252410641
 10
94.20854761099648
 20
-121.039468014445
 97
        0
 97
        0
 75
     2
 76
     1
 98
        0
  0
ENDBLK
  5
D0
330
CD
100
AcDbEntity
  8
0
100
AcDbBlockEnd
  0
BLOCK
  5
E1
330
DF
100
AcDbEntity
  8
0
100
AcDbBlockBegin
  2
block 8
 70
     0
 10
0.0
 20
0.0
 30
0.0
  3
block 8
  1

  0
POLYLINE
  5
E3
330
DF
100
AcDbEntity
  8
_U+30EC_U+30A4_U+30E4_U+30FC 1
370
     0
100
AcDb2dPolyline
 66
     1
 10
0.0
 20
0.0
 30
0.0
  0
VERTEX
  5
E4
330
E3
100
AcDbEntity
  8
_U+30EC_U+30A4_U+30E4_U+30FC 1
370
     0
100
AcDbVertex
100
AcDb2dVertex
 10
94.44763723767282
 20
-135.536257561602
 30
0.0
  0
VERTEX
  5
E5
330
E3
100
AcDbEntity
  8
_U+30EC_U+30A4_U+30E4_U+30FC 1
370
     0
100
AcDbVertex
100
AcDb2dVertex
 10
94.44763723767282
 20
-135.8831786769667
 30
0.0
  0
VERTEX
  5
E6
330
E3
100
AcDbEntity
  8
_U+30EC_U+30A4_U+30E4_U+30FC 1
370
     0
100
AcDbVertex
100
AcDb2dVertex
 10
94.22990720300503
 20
-135.8831786769667
 30
0.0
  0
VERTEX
  5
E7
330
E3
100
AcDbEntity
  8
_U+30EC_U+30A4_U+30E4_U+30FC 1
370
     0
100
AcDbVertex
100
AcDb2dVertex
 10
94.22990720300503
 20
-135.536257561602
 30
0.0
  0
VERTEX
  5
E8
330
E3
100
AcDbEntity
  8
_U+30EC_U+30A4_U+30E4_U+30FC 1
370
     0
100
AcDbVertex
100
AcDb2dVertex
 10
93.57396102261346
 20
-135.536257561602
 30
0.0
  0
VERTEX
  5
E9
330
E3
100
AcDbEntity
  8
_U+30EC_U+30A4_U+30E4_U+30FC 1
370
     0
100
AcDbVertex
100
AcDb2dVertex
 10
93.57396102261346
 20
-135.3119818455123
 30
0.0
  0
VERTEX
  5
EA
330
E3
100
AcDbEntity
  8
_U+30EC_U+30A4_U+30E4_U+30FC 1
370
     0
100
AcDbVertex
100
AcDb2dVertex
 10
94.2529893427562
 20
-134.3387423709292
 30
0.0
  0
VERTEX
  5
EB
330
E3
100
AcDbEntity
  8
_U+30EC_U+30A4_U+30E4_U+30FC 1
370
     0
100
AcDbVertex
100
AcDb2dVertex
 10
94.44763723767282
 20
-134.3387423709292
 30
0.0
  0
VERTEX
  5
EC
330
E3
100
AcDbEntity
  8
_U+30EC_U+30A4_U+30E4_U+30FC 1
370
     0
100
AcDbVertex
100
AcDb2dVertex
 10
94.44763723767282
 20
-135.3374755521031
 30
0.0
  0
VERTEX
  5
ED
330
E3
100
AcDbEntity
  8
_U+30EC_U+30A4_U+30E4_U+30FC 1
370
     0
100
AcDbVertex
100
AcDb2dVertex
 10
94.65503198588486
 20
-135.3374755521031
 30
0.0
  0
VERTEX
  5
EE
330
E3
100
AcDbEntity
  8
_U+30EC_U+30A4_U+30E4_U+30FC 1
370
     0
100
AcDbVertex
100
AcDb2dVertex
 10
94.65503198588486
 20
-135.536257561602
 30
0.0
  0
VERTEX
  5
EF
330
E3
100
AcDbEntity
  8
_U+30EC_U+30A4_U+30E4_U+30FC 1
370
     0
100
AcDbVertex
100
AcDb2dVertex
 10
94.44763723767282
 20
-135.536257561602
 30
0.0
  0
SEQEND
  5
F0
330
E3
100
AcDbEntity
  8
_U+30EC_U+30A4_U+30E4_U+30FC 1
370
     0
  0
POLYLINE
  5
F1
330
DF
100
AcDbEntity
  8
_U+30EC_U+30A4_U+30E4_U+30FC 1
370
     0
100
AcDb2dPolyline
 66
     1
 10
0.0
 20
0.0
 30
0.0
  0
VERTEX
  5
F2
330
F1
100
AcDbEntity
  8
_U+30EC_U+30A4_U+30E4_U+30FC 1
370
     0
100
AcDbVertex
100
AcDb2dVertex
 10
94.22990720300503
 20
-134.6815293717116
 30
0.0
  0
VERTEX
  5
F3
330
F1
100
AcDbEntity
  8
_U+30EC_U+30A4_U+30E4_U+30FC 1
370
     0
100
AcDbVertex
100
AcDb2dVertex
 10
93.77274303211237
 20
-135.3374755521031
 30
0.0
  0
VERTEX
  5
F4
330
F1
100
AcDbEntity
  8
_U+30EC_U+30A4_U+30E4_U+30FC 1
370
     0
100
AcDbVertex
100
AcDb2dVertex
 10
94.22990720300503
 20
-135.3374755521031
 30
0.0
  0
VERTEX
  5
F5
330
F1
100
AcDbEntity
  8
_U+30EC_U+30A4_U+30E4_U+30FC 1
370
     0
100
AcDbVertex
100
AcDb2dVertex
 10
94.22990720300503
 20
-134.6815293717116
 30
0.0
  0
SEQEND
  5
F6
330
F1
100
AcDbEntity
  8
_U+30EC_U+30A4_U+30E4_U+30FC 1
370
     0
  0
HATCH
  5
F7
330
DF
100
AcDbEntity
  8
_U+30EC_U+30A4_U+30E4_U+30FC 1
 62
   179
420
  2234388
100
AcDbHatch
 10
0.0
 20
0.0
 30
0.0
210
0.0
220
0.0
230
1.0
  2
SOLID
 70
     1
 71
     0
 91
        2
 92
        1
 93
       11
 72
     1
 10
94.44763723767282
 20
-135.536257561602
 11
94.44763723767282
 21
-135.8831786769667
 72
     1
 10
94.44763723767282
 20
-135.8831786769667
 11
94.22990720300503
 21
-135.8831786769667
 72
     1
 10
94.22990720300503
 20
-135.8831786769667
 11
94.22990720300503
 21
-135.536257561602
 72
     1
 10
94.22990720300503
 20
-135.536257561602
 11
93.57396102261346
 21
-135.536257561602
 72
     1
 10
93.57396102261346
 20
-135.536257561602
 11
93.57396102261346
 21
-135.3119818455123
 72
     1
 10
93.57396102261346
 20
-135.3119818455123
 11
94.2529893427562
 21
-134.3387423709292
 72
     1
 10
94.2529893427562
 20
-134.3387423709292
 11
94.44763723767282
 21
-134.3387423709292
 72
     1
 10
94.44763723767282
 20
-134.3387423709292
 11
94.44763723767282
 21
-135.3374755521031
 72
     1
 10
94.44763723767282
 20
-135.3374755521031
 11
94.65503198588486
 21
-135.3374755521031
 72
     1
 10
94.65503198588486
 20
-135.3374755521031
 11
94.65503198588486
 21
-135.536257561602
 72
     1
 10
94.65503198588486
 20
-135.536257561602
 11
94.44763723767282
 21
-135.536257561602
 97
        0
 92
        1
 93
        3
 72
     1
 10
94.22990720300503
 20
-134.6815293717116
 11
93.77274303211237
 21
-135.3374755521031
 72
     1
 10
93.77274303211237
 20
-135.3374755521031
 11
94.22990720300503
 21
-135.3374755521031
 72
     1
 10
94.22990720300503
 20
-135.3374755521031
 11
94.22990720300503
 21
-134.6815293717116
 97
        0
 75
     2
 76
     1
 98
        0
  0
ENDBLK
  5
E2
330
DF
100
AcDbEntity
  8
0
100
AcDbBlockEnd
  0
BLOCK
  5
FE
330
FC
100
AcDbEntity
  8
0
100
AcDbBlockBegin
  2
block 9
 70
     0
 10
0.0
 20
0.0
 30
0.0
  3
block 9
  1

  0
SPLINE
  5
100
330
FC
100
AcDbEntity
  8
_U+30EC_U+30A4_U+30E4_U+30FC 1
370
     0
100
AcDbSpline
210
0.0
220
0.0
230
1.0
 70
    11
 71
     3
 72
    26
 73
    22
 74
     0
 42
0.0000000001
 43
0.0000000001
 12
1.0
 22
0.0
 32
0.0
 13
1.0
 23
0.0
 33
0.0
 40
0.0
 40
0.0
 40
0.0
 40
0.0
 40
1.0
 40
1.0
 40
1.0
 40
2.0
 40
2.0
 40
2.0
 40
3.0
 40
3.0
 40
3.0
 40
4.0
 40
4.0
 40
4.0
 40
5.0
 40
5.0
 40
5.0
 40
6.0
 40
6.0
 40
6.0
 40
7.0
 40
7.0
 40
7.0
 40
7.0
 10
99.19876842138086
 20
-129.853917068231
 30
0.0
 10
99.19876842138086
 20
-129.853917068231
 30
0.0
 10
99.19876842138086
 20
-128.7494194556599
 30
0.0
 10
99.19876842138086
 20
-128.7494194556599
 30
0.0
 10
99.19876842138086
 20
-128.7494194556599
 30
0.0
 10
98.86872827389394
 20
-128.7494194556599
 30
0.0
 10
98.86872827389394
 20
-128.7494194556599
 30
0.0
 10
98.86872827389394
 20
-128.7494194556599
 30
0.0
 10
98.86872827389394
 20
-128.6012803497941
 30
0.0
 10
98.86872827389394
 20
-128.6012803497941
 30
0.0
 10
99.20083547867202
 20
-128.5866386939818
 30
0.0
 10
99.2473442677229
 20
-128.4236856775295
 30
0.0
 10
99.27697208889604
 20
-128.3094807621935
 30
0.0
 10
99.27697208889604
 20
-128.3094807621935
 30
0.0
 10
99.42304413747063
 20
-128.3094807621935
 30
0.0
 10
99.42304413747063
 20
-128.3094807621935
 30
0.0
 10
99.42304413747063
 20
-128.3094807621935
 30
0.0
 10
99.42304413747063
 20
-129.853917068231
 30
0.0
 10
99.42304413747063
 20
-129.853917068231
 30
0.0
 10
99.42304413747063
 20
-129.853917068231
 30
0.0
 10
99.19876842138086
 20
-129.853917068231
 30
0.0
 10
99.19876842138086
 20
-129.853917068231
 30
0.0
  0
HATCH
  5
101
330
FC
100
AcDbEntity
  8
_U+30EC_U+30A4_U+30E4_U+30FC 1
 62
   179
420
  2234388
100
AcDbHatch
 10
0.0
 20
0.0
 30
0.0
210
0.0
220
0.0
230
1.0
  2
SOLID
 70
     1
 71
     0
 91
        1
 92
        1
 93
        1
 72
     4
 94
        3
 73
     0
 74
     1
 95
       26
 96
       22
 40
0.0
 40
0.0
 40
0.0
 40
0.0
 40
1.0
 40
1.0
 40
1.0
 40
2.0
 40
2.0
 40
2.0
 40
3.0
 40
3.0
 40
3.0
 40
4.0
 40
4.0
 40
4.0
 40
5.0
 40
5.0
 40
5.0
 40
6.0
 40
6.0
 40
6.0
 40
7.0
 40
7.0
 40
7.0
 40
7.0
 10
99.19876842138086
 20
-129.853917068231
 10
99.19876842138086
 20
-129.853917068231
 10
99.19876842138086
 20
-128.7494194556599
 10
99.19876842138086
 20
-128.7494194556599
 10
99.19876842138086
 20
-128.7494194556599
 10
98.86872827389394
 20
-128.7494194556599
 10
98.86872827389394
 20
-128.7494194556599
 10
98.86872827389394
 20
-128.7494194556599
 10
98.86872827389394
 20
-128.6012803497941
 10
98.86872827389394
 20
-128.6012803497941
 10
99.20083547867202
 20
-128.5866386939818
 10
99.2473442677229
 20
-128.4236856775295
 10
99.27697208889604
 20
-128.3094807621935
 10
99.27697208889604
 20
-128.3094807621935
 10
99.42304413747063
 20
-128.3094807621935
 10
99.42304413747063
 20
-128.3094807621935
 10
99.42304413747063
 20
-128.3094807621935
 10
99.42304413747063
 20
-129.853917068231
 10
99.42304413747063
 20
-129.853917068231
 10
99.42304413747063
 20
-129.853917068231
 10
99.19876842138086
 20
-129.853917068231
 10
99.19876842138086
 20
-129.853917068231
 97
        0
 97
        0
 75
     2
 76
     1
 98
        0
  0
ENDBLK
  5
FF
330
FC
100
AcDbEntity
  8
0
100
AcDbBlockEnd
  0
ENDSEC
  0
SECTION
  2
ENTITIES
  0
INSERT
  5
42
330
1F
100
AcDbEntity
  8
_U+30EC_U+30A4_U+30E4_U+30FC 1
100
AcDbBlockReference
  2
block 2
 10
0.0
 20
0.0
 30
0.0
  0
POLYLINE
  5
F8
330
1F
100
AcDbEntity
  8
_U+30EC_U+30A4_U+30E4_U+30FC 1
 62
   179
420
  2234388
370
     9
100
AcDb2dPolyline
 66
     1
 10
0.0
 20
0.0
 30
0.0
  0
VERTEX
  5
F9
330
F8
100
AcDbEntity
  8
_U+30EC_U+30A4_U+30E4_U+30FC 1
 62
   179
420
  2234388
370
     9
100
AcDbVertex
100
AcDb2dVertex
 10
94.23886592909956
 20
-130.6214755229004
 30
0.0
  0
VERTEX
  5
FA
330
F8
100
AcDbEntity
  8
_U+30EC_U+30A4_U+30E4_U+30FC 1
 62
   179
420
  2234388
370
     9
100
AcDbVertex
100
AcDb2dVertex
 10
102.2387015583401
 20
-130.6214755229004
 30
0.0
  0
SEQEND
  5
FB
330
F8
100
AcDbEntity
  8
_U+30EC_U+30A4_U+30E4_U+30FC 1
 62
   179
420
  2234388
370
     9
  0
INSERT
  5
FD
330
1F
100
AcDbEntity
  8
_U+30EC_U+30A4_U+30E4_U+30FC 1
100
AcDbBlockReference
  2
block 9
 10
0.0
 20
0.0
 30
0.0
  0
ENDSEC
  0
SECTION
  2
OBJECTS
  0
DICTIONARY
  5
C
330
0
100
AcDbDictionary
281
     1
  3
ACAD_GROUP
350
D
  3
ACAD_LAYOUT
350
1A
  3
ACAD_MATERIAL
350
3B
  3
ACAD_MLEADERSTYLE
350
103
  3
ACAD_MLINESTYLE
350
17
  3
ACAD_PLOTSETTINGS
350
19
  3
ACAD_PLOTSTYLENAME
350
E
  3
ACAD_TABLESTYLE
350
102
  3
ACAD_VISUALSTYLE
350
2A
  0
SUN
  5
3F
330
29
100
AcDbSun
 90
        1
290
     0
 63
     7
421
 16777215
 40
1.0
291
     1
 91
  2455826
 92
 54000000
292
     0
 70
     2
 71
   256
280
     1
  0
DICTIONARY
  5
D
102
{ACAD_REACTORS
330
C
102
}
330
C
100
AcDbDictionary
281
     1
  0
DICTIONARY
  5
1A
102
{ACAD_REACTORS
330
C
102
}
330
C
100
AcDbDictionary
281
     1
  3
Layout1
350
1E
  3
Layout2
350
26
  3
Model
350
22
  0
DICTIONARY
  5
3B
102
{ACAD_REACTORS
330
C
102
}
330
C
100
AcDbDictionary
281
     1
  3
ByBlock
350
3D
  3
ByLayer
350
3C
  3
Global
350
3E
  0
DICTIONARY
  5
103
102
{ACAD_REACTORS
330
C
102
}
330
C
100
AcDbDictionary
281
     1
  0
DICTIONARY
  5
17
102
{ACAD_REACTORS
330
C
102
}
330
C
100
AcDbDictionary
281
     1
  3
Standard
350
18
  0
DICTIONARY
  5
19
102
{ACAD_REACTORS
330
C
102
}
330
C
100
AcDbDictionary
281
     1
  0
ACDBDICTIONARYWDFLT
  5
E
102
{ACAD_REACTORS
330
C
102
}
330
C
100
AcDbDictionary
281
     1
  3
Normal
350
F
100
AcDbDictionaryWithDefault
340
F
  0
DICTIONARY
  5
102
102
{ACAD_REACTORS
330
C
102
}
330
C
100
AcDbDictionary
281
     1
  0
DICTIONARY
  5
2A
102
{ACAD_REACTORS
330
C
102
}
330
C
100
AcDbDictionary
281
     1
  3
2dWireframe
350
2F
  3
3D Hidden
350
31
  3
3dWireframe
350
30
  3
Basic
350
32
  3
Brighten
350
36
  3
ColorChange
350
3A
  3
Conceptual
350
34
  3
Dim
350
35
  3
Facepattern
350
39
  3
Flat
350
2B
  3
FlatWithEdges
350
2C
  3
Gouraud
350
2D
  3
GouraudWithEdges
350
2E
  3
Linepattern
350
38
  3
Realistic
350
33
  3
Thicken
350
37
  0
LAYOUT
  5
1E
102
{ACAD_REACTORS
330
1A
102
}
330
1A
100
AcDbPlotSettings
  1

  2
none_device
  4

  6

 40
0.0
 41
0.0
 42
0.0
 43
0.0
 44
0.0
 45
0.0
 46
0.0
 47
0.0
 48
0.0
 49
0.0
140
0.0
141
0.0
142
1.0
143
1.0
 70
   688
 72
     0
 73
     0
 74
     5
  7

 75
    16
 76
     0
 77
     2
 78
   300
147
1.0
148
0.0
149
0.0
100
AcDbLayout
  1
Layout1
 70
     1
 71
     1
 10
0.0
 20
0.0
 11
12.0
 21
9.0
 12
0.0
 22
0.0
 32
0.0
 14
1.000000000000000E+20
 24
1.000000000000000E+20
 34
1.000000000000000E+20
 15
-1.000000000000000E+20
 25
-1.000000000000000E+20
 35
-1.000000000000000E+20
146
0.0
 13
0.0
 23
0.0
 33
0.0
 16
1.0
 26
0.0
 36
0.0
 17
0.0
 27
1.0
 37
0.0
 76
     0
330
1B
  0
LAYOUT
  5
26
102
{ACAD_REACTORS
330
1A
102
}
330
1A
100
AcDbPlotSettings
  1

  2
none_device
  4

  6

 40
0.0
 41
0.0
 42
0.0
 43
0.0
 44
0.0
 45
0.0
 46
0.0
 47
0.0
 48
0.0
 49
0.0
140
0.0
141
0.0
142
1.0
143
1.0
 70
   688
 72
     0
 73
     0
 74
     5
  7

 75
    16
 76
     0
 77
     2
 78
   300
147
1.0
148
0.0
149
0.0
100
AcDbLayout
  1
Layout2
 70
     1
 71
     2
 10
0.0
 20
0.0
 11
0.0
 21
0.0
 12
0.0
 22
0.0
 32
0.0
 14
0.0
 24
0.0
 34
0.0
 15
0.0
 25
0.0
 35
0.0
146
0.0
 13
0.0
 23
0.0
 33
0.0
 16
1.0
 26
0.0
 36
0.0
 17
0.0
 27
1.0
 37
0.0
 76
     0
330
23
  0
LAYOUT
  5
22
102
{ACAD_REACTORS
330
1A
102
}
330
1A
100
AcDbPlotSettings
  1

  2
none_device
  4

  6

 40
0.0
 41
0.0
 42
0.0
 43
0.0
 44
0.0
 45
0.0
 46
0.0
 47
0.0
 48
0.0
 49
0.0
140
0.0
141
0.0
142
1.0
143
1.0
 70
  1712
 72
     0
 73
     0
 74
     0
  7

 75
     0
 76
     0
 77
     2
 78
   300
147
1.0
148
0.0
149
0.0
100
AcDbLayout
  1
Model
 70
     1
 71
     0
 10
0.0
 20
0.0
 11
12.0
 21
9.0
 12
0.0
 22
0.0
 32
0.0
 14
1.000000000000000E+20
 24
1.000000000000000E+20
 34
1.000000000000000E+20
 15
-1.000000000000000E+20
 25
-1.000000000000000E+20
 35
-1.000000000000000E+20
146
0.0
 13
0.0
 23
0.0
 33
0.0
 16
1.0
 26
0.0
 36
0.0
 17
0.0
 27
1.0
 37
0.0
 76
     0
330
1F
331
29
  0
MATERIAL
  5
3D
102
{ACAD_REACTORS
330
3B
102
}
330
3B
100
AcDbMaterial
  1
ByBlock
 72
     1
 94
      127
  0
MATERIAL
  5
3C
102
{ACAD_REACTORS
330
3B
102
}
330
3B
100
AcDbMaterial
  1
ByLayer
 72
     1
 94
      127
  0
MATERIAL
  5
3E
102
{ACAD_REACTORS
330
3B
102
}
330
3B
100
AcDbMaterial
  1
Global
 72
     1
 94
      127
  0
MLINESTYLE
  5
18
102
{ACAD_REACTORS
330
17
102
}
330
17
100
AcDbMlineStyle
  2
Standard
 70
     0
  3

 62
   256
 51
90.0
 52
90.0
 71
     2
 49
0.5
 62
   256
  6
BYLAYER
 49
-0.5
 62
   256
  6
BYLAYER
  0
ACDBPLACEHOLDER
  5
F
102
{ACAD_REACTORS
330
E
102
}
330
E
  0
VISUALSTYLE
  5
2F
102
{ACAD_REACTORS
330
2A
102
}
330
2A
100
AcDbVisualStyle
  2
2dWireframe
 70
     4
177
     2
291
     0
 71
     0
176
     1
 72
     2
176
     1
 73
     0
176
     1
 90
        0
176
     1
 40
-0.6
176
     1
 41
-30.0
176
     1
 62
     5
 63
     7
421
 16777215
176
     1
 74
     1
176
     1
 91
        4
176
     1
 64
     7
176
     1
 65
   257
176
     1
 75
     1
176
     1
175
     1
176
     1
 42
1.0
176
     1
 92
        0
176
     1
 66
   257
176
     1
 43
1.0
176
     1
 76
     1
176
     1
 77
     6
176
     1
 78
     2
176
     1
 67
     7
176
     1
 79
     5
176
     1
170
     0
176
     1
171
     0
176
     1
290
     0
176
     1
 93
        1
176
     1
 44
0.0
176
     1
173
     0
176
     1
  0
VISUALSTYLE
  5
31
102
{ACAD_REACTORS
330
2A
102
}
330
2A
100
AcDbVisualStyle
  2
3D Hidden
 70
     6
177
     2
291
     0
 71
     1
176
     1
 72
     2
176
     1
 73
     2
176
     1
 90
        0
176
     1
 40
-0.6
176
     1
 41
-30.0
176
     1
 62
     5
 63
     7
421
 16777215
176
     1
 74
     2
176
     1
 91
        2
176
     1
 64
     7
176
     1
 65
   257
176
     1
 75
     2
176
     1
175
     1
176
     1
 42
40.0
176
     1
 92
        0
176
     1
 66
   257
176
     1
 43
1.0
176
     1
 76
     1
176
     1
 77
     6
176
     1
 78
     2
176
     1
 67
     7
176
     1
 79
     3
176
     1
170
     0
176
     1
171
     0
176
     1
290
     0
176
     1
 93
        1
176
     1
 44
0.0
176
     1
173
     0
176
     1
  0
VISUALSTYLE
  5
30
102
{ACAD_REACTORS
330
2A
102
}
330
2A
100
AcDbVisualStyle
  2
3dWireframe
 70
     5
177
     2
291
     0
 71
     0
176
     1
 72
     2
176
     1
 73
     0
176
     1
 90
        0
176
     1
 40
-0.6
176
     1
 41
-30.0
176
     1
 62
     5
 63
     7
421
 16777215
176
     1
 74
     1
176
     1
 91
        4
176
     1
 64
     7
176
     1
 65
   257
176
     1
 75
     1
176
     1
175
     1
176
     1
 42
1.0
176
     1
 92
        0
176
     1
 66
   257
176
     1
 43
1.0
176
     1
 76
     1
176
     1
 77
     6
176
     1
 78
     2
176
     1
 67
     7
176
     1
 79
     5
176
     1
170
     0
176
     1
171
     0
176
     1
290
     0
176
     1
 93
        1
176
     1
 44
0.0
176
     1
173
     0
176
     1
  0
VISUALSTYLE
  5
32
102
{ACAD_REACTORS
330
2A
102
}
330
2A
100
AcDbVisualStyle
  2
Basic
 70
     7
177
     2
291
     1
 71
     1
176
     1
 72
     0
176
     1
 73
     1
176
     1
 90
        0
176
     1
 40
-0.6
176
     1
 41
-30.0
176
     1
 62
     5
 63
     7
421
 16777215
176
     1
 74
     0
176
     1
 91
        4
176
     1
 64
     7
176
     1
 65
   257
176
     1
 75
     1
176
     1
175
     1
176
     1
 42
1.0
176
     1
 92
        8
176
     1
 66
     7
176
     1
 43
1.0
176
     1
 76
     1
176
     1
 77
     6
176
     1
 78
     2
176
     1
 67
     7
176
     1
 79
     5
176
     1
170
     0
176
     1
171
     0
176
     1
290
     0
176
     1
 93
        1
176
     1
 44
0.0
176
     1
173
     0
176
     1
  0
VISUALSTYLE
  5
36
102
{ACAD_REACTORS
330
2A
102
}
330
2A
100
AcDbVisualStyle
  2
Brighten
 70
    12
177
     2
291
     1
 71
     2
176
     1
 72
     2
176
     1
 73
     0
176
     1
 90
        0
176
     1
 40
-0.6
176
     1
 41
-30.0
176
     1
 62
     5
 63
     7
421
 16777215
176
     1
 74
     1
176
     1
 91
        4
176
     1
 64
     7
176
     1
 65
   257
176
     1
 75
     1
176
     1
175
     1
176
     1
 42
1.0
176
     1
 92
        8
176
     1
 66
     7
176
     1
 43
1.0
176
     1
 76
     1
176
     1
 77
     6
176
     1
 78
     2
176
     1
 67
     7
176
     1
 79
     5
176
     1
170
     0
176
     1
171
     0
176
     1
290
     0
176
     1
 93
        1
176
     1
 44
50.0
176
     1
173
     0
176
     1
  0
VISUALSTYLE
  5
3A
102
{ACAD_REACTORS
330
2A
102
}
330
2A
100
AcDbVisualStyle
  2
ColorChange
 70
    16
177
     2
291
     1
 71
     2
176
     1
 72
     2
176
     1
 73
     3
176
     1
 90
        0
176
     1
 40
-0.6
176
     1
 41
-30.0
176
     1
 62
     5
 63
     8
421
  8421504
176
     1
 74
     1
176
     1
 91
        4
176
     1
 64
     7
176
     1
 65
   257
176
     1
 75
     1
176
     1
175
     1
176
     1
 42
1.0
176
     1
 92
        8
176
     1
 66
     8
424
  8421504
176
     1
 43
1.0
176
     1
 76
     1
176
     1
 77
     6
176
     1
 78
     2
176
     1
 67
     7
176
     1
 79
     5
176
     1
170
     0
176
     1
171
     0
176
     1
290
     0
176
     1
 93
        1
176
     1
 44
0.0
176
     1
173
     0
176
     1
  0
VISUALSTYLE
  5
34
102
{ACAD_REACTORS
330
2A
102
}
330
2A
100
AcDbVisualStyle
  2
Conceptual
 70
     9
177
     2
291
     0
 71
     3
176
     1
 72
     2
176
     1
 73
     0
176
     1
 90
        0
176
     1
 40
-0.6
176
     1
 41
-30.0
176
     1
 62
     5
 63
     7
421
 16777215
176
     1
 74
     2
176
     1
 91
        2
176
     1
 64
     7
176
     1
 65
   257
176
     1
 75
     1
176
     1
175
     1
176
     1
 42
40.0
176
     1
 92
        8
176
     1
 66
     7
176
     1
 43
1.0
176
     1
 76
     1
176
     1
 77
     6
176
     1
 78
     2
176
     1
 67
     7
176
     1
 79
     3
176
     1
170
     0
176
     1
171
     0
176
     1
290
     0
176
     1
 93
        1
176
     1
 44
0.0
176
     1
173
     0
176
     1
  0
VISUALSTYLE
  5
35
102
{ACAD_REACTORS
330
2A
102
}
330
2A
100
AcDbVisualStyle
  2
Dim
 70
    11
177
     2
291
     1
 71
     2
176
     1
 72
     2
176
     1
 73
     0
176
     1
 90
        0
176
     1
 40
-0.6
176
     1
 41
-30.0
176
     1
 62
     5
 63
     7
421
 16777215
176
     1
 74
     1
176
     1
 91
        4
176
     1
 64
     7
176
     1
 65
   257
176
     1
 75
     1
176
     1
175
     1
176
     1
 42
1.0
176
     1
 92
        8
176
     1
 66
     7
176
     1
 43
1.0
176
     1
 76
     1
176
     1
 77
     6
176
     1
 78
     2
176
     1
 67
     7
176
     1
 79
     5
176
     1
170
     0
176
     1
171
     0
176
     1
290
     0
176
     1
 93
        1
176
     1
 44
-50.0
176
     1
173
     0
176
     1
  0
VISUALSTYLE
  5
39
102
{ACAD_REACTORS
330
2A
102
}
330
2A
100
AcDbVisualStyle
  2
Facepattern
 70
    15
177
     2
291
     1
 71
     2
176
     1
 72
     2
176
     1
 73
     0
176
     1
 90
        0
176
     1
 40
-0.6
176
     1
 41
-30.0
176
     1
 62
     5
 63
     7
421
 16777215
176
     1
 74
     1
176
     1
 91
        4
176
     1
 64
     7
176
     1
 65
   257
176
     1
 75
     1
176
     1
175
     1
176
     1
 42
1.0
176
     1
 92
        8
176
     1
 66
     7
176
     1
 43
1.0
176
     1
 76
     1
176
     1
 77
     6
176
     1
 78
     2
176
     1
 67
     7
176
     1
 79
     5
176
     1
170
     0
176
     1
171
     0
176
     1
290
     0
176
     1
 93
        1
176
     1
 44
0.0
176
     1
173
     0
176
     1
  0
VISUALSTYLE
  5
2B
102
{ACAD_REACTORS
330
2A
102
}
330
2A
100
AcDbVisualStyle
  2
Flat
 70
     0
177
     2
291
     1
 71
     2
176
     1
 72
     1
176
     1
 73
     1
176
     1
 90
        2
176
     1
 40
-0.6
176
     1
 41
30.0
176
     1
 62
     5
 63
     7
421
 16777215
176
     1
 74
     0
176
     1
 91
        4
176
     1
 64
     7
176
     1
 65
   257
176
     1
 75
     1
176
     1
175
     1
176
     1
 42
1.0
176
     1
 92
        8
176
     1
 66
     7
176
     1
 43
1.0
176
     1
 76
     1
176
     1
 77
     6
176
     1
 78
     2
176
     1
 67
     7
176
     1
 79
     5
176
     1
170
     0
176
     1
171
     0
176
     1
290
     0
176
     1
 93
       13
176
     1
 44
0.0
176
     1
173
     0
176
     1
  0
VISUALSTYLE
  5
2C
102
{ACAD_REACTORS
330
2A
102
}
330
2A
100
AcDbVisualStyle
  2
FlatWithEdges
 70
     1
177
     2
291
     1
 71
     2
176
     1
 72
     1
176
     1
 73
     1
176
     1
 90
        2
176
     1
 40
-0.6
176
     1
 41
30.0
176
     1
 62
     5
 63
     7
421
 16777215
176
     1
 74
     1
176
     1
 91
        4
176
     1
 64
     7
176
     1
 65
   257
176
     1
 75
     1
176
     1
175
     1
176
     1
 42
1.0
176
     1
 92
        0
176
     1
 66
   257
176
     1
 43
1.0
176
     1
 76
     1
176
     1
 77
     6
176
     1
 78
     2
176
     1
 67
     7
176
     1
 79
     5
176
     1
170
     0
176
     1
171
     0
176
     1
290
     0
176
     1
 93
       13
176
     1
 44
0.0
176
     1
173
     0
176
     1
  0
VISUALSTYLE
  5
2D
102
{ACAD_REACTORS
330
2A
102
}
330
2A
100
AcDbVisualStyle
  2
Gouraud
 70
     2
177
     2
291
     1
 71
     2
176
     1
 72
     2
176
     1
 73
     1
176
     1
 90
        2
176
     1
 40
-0.6
176
     1
 41
30.0
176
     1
 62
     5
 63
     7
421
 16777215
176
     1
 74
     0
176
     1
 91
        4
176
     1
 64
     7
176
     1
 65
   257
176
     1
 75
     1
176
     1
175
     1
176
     1
 42
1.0
176
     1
 92
        0
176
     1
 66
     7
176
     1
 43
1.0
176
     1
 76
     1
176
     1
 77
     6
176
     1
 78
     2
176
     1
 67
     7
176
     1
 79
     5
176
     1
170
     0
176
     1
171
     0
176
     1
290
     0
176
     1
 93
       13
176
     1
 44
0.0
176
     1
173
     0
176
     1
  0
VISUALSTYLE
  5
2E
102
{ACAD_REACTORS
330
2A
102
}
330
2A
100
AcDbVisualStyle
  2
GouraudWithEdges
 70
     3
177
     2
291
     1
 71
     2
176
     1
 72
     2
176
     1
 73
     1
176
     1
 90
        2
176
     1
 40
-0.6
176
     1
 41
30.0
176
     1
 62
     5
 63
     7
421
 16777215
176
     1
 74
     1
176
     1
 91
        4
176
     1
 64
     7
176
     1
 65
   257
176
     1
 75
     1
176
     1
175
     1
176
     1
 42
1.0
176
     1
 92
        0
176
     1
 66
   257
176
     1
 43
1.0
176
     1
 76
     1
176
     1
 77
     6
176
     1
 78
     2
176
     1
 67
     7
176
     1
 79
     5
176
     1
170
     0
176
     1
171
     0
176
     1
290
     0
176
     1
 93
       13
176
     1
 44
0.0
176
     1
173
     0
176
     1
  0
VISUALSTYLE
  5
38
102
{ACAD_REACTORS
330
2A
102
}
330
2A
100
AcDbVisualStyle
  2
Linepattern
 70
    14
177
     2
291
     1
 71
     2
176
     1
 72
     2
176
     1
 73
     0
176
     1
 90
        0
176
     1
 40
-0.6
176
     1
 41
-30.0
176
     1
 62
     5
 63
     7
421
 16777215
176
     1
 74
     1
176
     1
 91
        4
176
     1
 64
     7
176
     1
 65
   257
176
     1
 75
     7
176
     1
175
     7
176
     1
 42
1.0
176
     1
 92
        8
176
     1
 66
     7
176
     1
 43
1.0
176
     1
 76
     1
176
     1
 77
     6
176
     1
 78
     2
176
     1
 67
     7
176
     1
 79
     5
176
     1
170
     0
176
     1
171
     0
176
     1
290
     0
176
     1
 93
        1
176
     1
 44
0.0
176
     1
173
     0
176
     1
  0
VISUALSTYLE
  5
33
102
{ACAD_REACTORS
330
2A
102
}
330
2A
100
AcDbVisualStyle
  2
Realistic
 70
     8
177
     2
291
     0
 71
     2
176
     1
 72
     2
176
     1
 73
     0
176
     1
 90
        0
176
     1
 40
-0.6
176
     1
 41
-30.0
176
     1
 62
     5
 63
     7
421
 16777215
176
     1
 74
     1
176
     1
 91
        0
176
     1
 64
     7
176
     1
 65
   257
176
     1
 75
     1
176
     1
175
     1
176
     1
 42
1.0
176
     1
 92
        8
176
     1
 66
     8
424
  7895160
176
     1
 43
1.0
176
     1
 76
     1
176
     1
 77
     6
176
     1
 78
     2
176
     1
 67
     7
176
     1
 79
     5
176
     1
170
     0
176
     1
171
     0
176
     1
290
     0
176
     1
 93
       13
176
     1
 44
0.0
176
     1
173
     0
176
     1
  0
VISUALSTYLE
  5
37
102
{ACAD_REACTORS
330
2A
102
}
330
2A
100
AcDbVisualStyle
  2
Thicken
 70
    13
177
     2
291
     1
 71
     2
176
     1
 72
     2
176
     1
 73
     0
176
     1
 90
        0
176
     1
 40
-0.6
176
     1
 41
-30.0
176
     1
 62
     5
 63
     7
421
 16777215
176
     1
 74
     1
176
     1
 91
        4
176
     1
 64
     7
176
     1
 65
   257
176
     1
 75
     1
176
     1
175
     1
176
     1
 42
1.0
176
     1
 92
       12
176
     1
 66
     7
176
     1
 43
1.0
176
     1
 76
     1
176
     1
 77
     6
176
     1
 78
     2
176
     1
 67
     7
176
     1
 79
     5
176
     1
170
     0
176
     1
171
     0
176
     1
290
     0
176
     1
 93
        1
176
     1
 44
0.0
176
     1
173
     0
176
     1
  0
ENDSEC
  0
EOF
