  0
SECTION
  2
HEADER
  9
$ACADVER
  1
AC1024
  9
$ACADMAINTVER
 70
   226
  9
$DWGCODEPAGE
  3
ANSI_932
  9
$INSBASE
 10
0.0
 20
0.0
 30
0.0
  9
$EXTMIN
 10
1.000000000000000E+20
 20
1.000000000000000E+20
 30
1.000000000000000E+20
  9
$EXTMAX
 10
-1.000000000000000E+20
 20
-1.000000000000000E+20
 30
-1.000000000000000E+20
  9
$LIMMIN
 10
0.0
 20
0.0
  9
$LIMMAX
 10
12.0
 20
9.0
  9
$ORTHOMODE
 70
     0
  9
$REGENMODE
 70
     1
  9
$FILLMODE
 70
     1
  9
$QTEXTMODE
 70
     0
  9
$MIRRTEXT
 70
     0
  9
$LTSCALE
 40
1.0
  9
$ATTMODE
 70
     1
  9
$TEXTSIZE
 40
0.2
  9
$TRACEWID
 40
0.05
  9
$TEXTSTYLE
  7
Standard
  9
$CLAYER
  8
0
  9
$CELTYPE
  6
ByLayer
  9
$CECOLOR
 62
   256
  9
$CELTSCALE
 40
1.0
  9
$DISPSILH
 70
     0
  9
$DIMSCALE
 40
1.0
  9
$DIMASZ
 40
0.18
  9
$DIMEXO
 40
0.0625
  9
$DIMDLI
 40
0.38
  9
$DIMRND
 40
0.0
  9
$DIMDLE
 40
0.0
  9
$DIMEXE
 40
0.18
  9
$DIMTP
 40
0.0
  9
$DIMTM
 40
0.0
  9
$DIMTXT
 40
0.18
  9
$DIMCEN
 40
0.09
  9
$DIMTSZ
 40
0.0
  9
$DIMTOL
 70
     0
  9
$DIMLIM
 70
     0
  9
$DIMTIH
 70
     1
  9
$DIMTOH
 70
     1
  9
$DIMSE1
 70
     0
  9
$DIMSE2
 70
     0
  9
$DIMTAD
 70
     0
  9
$DIMZIN
 70
     0
  9
$DIMBLK
  1

  9
$DIMASO
 70
     1
  9
$DIMSHO
 70
     1
  9
$DIMPOST
  1

  9
$DIMAPOST
  1

  9
$DIMALT
 70
     0
  9
$DIMALTD
 70
     2
  9
$DIMALTF
 40
25.4
  9
$DIMLFAC
 40
1.0
  9
$DIMTOFL
 70
     0
  9
$DIMTVP
 40
0.0
  9
$DIMTIX
 70
     0
  9
$DIMSOXD
 70
     0
  9
$DIMSAH
 70
     0
  9
$DIMBLK1
  1

  9
$DIMBLK2
  1

  9
$DIMSTYLE
  2
Standard
  9
$DIMCLRD
 70
     0
  9
$DIMCLRE
 70
     0
  9
$DIMCLRT
 70
     0
  9
$DIMTFAC
 40
1.0
  9
$DIMGAP
 40
0.09
  9
$DIMJUST
 70
     0
  9
$DIMSD1
 70
     0
  9
$DIMSD2
 70
     0
  9
$DIMTOLJ
 70
     1
  9
$DIMTZIN
 70
     0
  9
$DIMALTZ
 70
     0
  9
$DIMALTTZ
 70
     0
  9
$DIMUPT
 70
     0
  9
$DIMDEC
 70
     4
  9
$DIMTDEC
 70
     4
  9
$DIMALTU
 70
     2
  9
$DIMALTTD
 70
     2
  9
$DIMTXSTY
  7
Standard
  9
$DIMAUNIT
 70
     0
  9
$DIMADEC
 70
     0
  9
$DIMALTRND
 40
0.0
  9
$DIMAZIN
 70
     0
  9
$DIMDSEP
 70
    46
  9
$DIMATFIT
 70
     3
  9
$DIMFRAC
 70
     0
  9
$DIMLDRBLK
  1

  9
$DIMLUNIT
 70
     2
  9
$DIMLWD
 70
    -2
  9
$DIMLWE
 70
    -2
  9
$DIMTMOVE
 70
     0
  9
$DIMFXL
 40
1.0
  9
$DIMFXLON
 70
     0
  9
$DIMJOGANG
 40
0.7853981633974483
  9
$DIMTFILL
 70
     0
  9
$DIMTFILLCLR
 70
     0
  9
$DIMARCSYM
 70
     0
  9
$DIMLTYPE
  6

  9
$DIMLTEX1
  6

  9
$DIMLTEX2
  6

  9
$DIMTXTDIRECTION
 70
     0
  9
$LUNITS
 70
     2
  9
$LUPREC
 70
     4
  9
$SKETCHINC
 40
0.1
  9
$FILLETRAD
 40
0.0
  9
$AUNITS
 70
     0
  9
$AUPREC
 70
     0
  9
$MENU
  1
.
  9
$ELEVATION
 40
0.0
  9
$PELEVATION
 40
0.0
  9
$THICKNESS
 40
0.0
  9
$LIMCHECK
 70
     0
  9
$CHAMFERA
 40
0.0
  9
$CHAMFERB
 40
0.0
  9
$CHAMFERC
 40
0.0
  9
$CHAMFERD
 40
0.0
  9
$SKPOLY
 70
     0
  9
$TDCREATE
 40
2459569.503587963
  9
$TDUCREATE
 40
2459569.128587963
  9
$TDUPDATE
 40
2459569.503587963
  9
$TDUUPDATE
 40
2459569.128587963
  9
$TDINDWG
 40
0.0000000000
  9
$TDUSRTIMER
 40
0.0000000000
  9
$USRTIMER
 70
     1
  9
$ANGBASE
 50
0.0
  9
$ANGDIR
 70
     0
  9
$PDMODE
 70
     0
  9
$PDSIZE
 40
0.0
  9
$PLINEWID
 40
0.0
  9
$SPLFRAME
 70
     0
  9
$SPLINETYPE
 70
     6
  9
$SPLINESEGS
 70
     8
  9
$HANDSEED
  5
1AD
  9
$SURFTAB1
 70
     6
  9
$SURFTAB2
 70
     6
  9
$SURFTYPE
 70
     6
  9
$SURFU
 70
     6
  9
$SURFV
 70
     6
  9
$UCSBASE
  2

  9
$UCSNAME
  2

  9
$UCSORG
 10
0.0
 20
0.0
 30
0.0
  9
$UCSXDIR
 10
1.0
 20
0.0
 30
0.0
  9
$UCSYDIR
 10
0.0
 20
1.0
 30
0.0
  9
$UCSORTHOREF
  2

  9
$UCSORTHOVIEW
 70
     0
  9
$UCSORGTOP
 10
0.0
 20
0.0
 30
0.0
  9
$UCSORGBOTTOM
 10
0.0
 20
0.0
 30
0.0
  9
$UCSORGLEFT
 10
0.0
 20
0.0
 30
0.0
  9
$UCSORGRIGHT
 10
0.0
 20
0.0
 30
0.0
  9
$UCSORGFRONT
 10
0.0
 20
0.0
 30
0.0
  9
$UCSORGBACK
 10
0.0
 20
0.0
 30
0.0
  9
$PUCSBASE
  2

  9
$PUCSNAME
  2

  9
$PUCSORG
 10
0.0
 20
0.0
 30
0.0
  9
$PUCSXDIR
 10
1.0
 20
0.0
 30
0.0
  9
$PUCSYDIR
 10
0.0
 20
1.0
 30
0.0
  9
$PUCSORTHOREF
  2

  9
$PUCSORTHOVIEW
 70
     0
  9
$PUCSORGTOP
 10
0.0
 20
0.0
 30
0.0
  9
$PUCSORGBOTTOM
 10
0.0
 20
0.0
 30
0.0
  9
$PUCSORGLEFT
 10
0.0
 20
0.0
 30
0.0
  9
$PUCSORGRIGHT
 10
0.0
 20
0.0
 30
0.0
  9
$PUCSORGFRONT
 10
0.0
 20
0.0
 30
0.0
  9
$PUCSORGBACK
 10
0.0
 20
0.0
 30
0.0
  9
$USERI1
 70
     0
  9
$USERI2
 70
     0
  9
$USERI3
 70
     0
  9
$USERI4
 70
     0
  9
$USERI5
 70
     0
  9
$USERR1
 40
0.0
  9
$USERR2
 40
0.0
  9
$USERR3
 40
0.0
  9
$USERR4
 40
0.0
  9
$USERR5
 40
0.0
  9
$WORLDVIEW
 70
     1
  9
$SHADEDGE
 70
     3
  9
$SHADEDIF
 70
    70
  9
$TILEMODE
 70
     1
  9
$MAXACTVP
 70
    64
  9
$PINSBASE
 10
0.0
 20
0.0
 30
0.0
  9
$PLIMCHECK
 70
     0
  9
$PEXTMIN
 10
1.000000000000000E+20
 20
1.000000000000000E+20
 30
1.000000000000000E+20
  9
$PEXTMAX
 10
-1.000000000000000E+20
 20
-1.000000000000000E+20
 30
-1.000000000000000E+20
  9
$PLIMMIN
 10
0.0
 20
0.0
  9
$PLIMMAX
 10
12.0
 20
9.0
  9
$UNITMODE
 70
     0
  9
$VISRETAIN
 70
     1
  9
$PLINEGEN
 70
     0
  9
$PSLTSCALE
 70
     1
  9
$TREEDEPTH
 70
  3020
  9
$CMLSTYLE
  2
Standard
  9
$CMLJUST
 70
     0
  9
$CMLSCALE
 40
1.0
  9
$PROXYGRAPHICS
 70
     1
  9
$MEASUREMENT
 70
     0
  9
$CELWEIGHT
370
    -1
  9
$ENDCAPS
280
     0
  9
$JOINSTYLE
280
     0
  9
$LWDISPLAY
290
     1
  9
$INSUNITS
 70
     4
  9
$HYPERLINKBASE
  1

  9
$STYLESHEET
  1

  9
$XEDIT
290
     1
  9
$CEPSNTYPE
380
     0
  9
$PSTYLEMODE
290
     1
  9
$FINGERPRINTGUID
  2
{BF3C057F-A678-774F-8F27-A6640D63D757}
  9
$VERSIONGUID
  2
{BC26C087-FC86-904A-AAE6-991266A82B72}
  9
$EXTNAMES
290
     1
  9
$PSVPSCALE
 40
0.0
  9
$OLESTARTUP
290
     0
  9
$SORTENTS
280
   127
  9
$INDEXCTL
280
     0
  9
$HIDETEXT
280
     1
  9
$XCLIPFRAME
280
     2
  9
$HALOGAP
280
     0
  9
$OBSCOLOR
 70
   257
  9
$OBSLTYPE
280
     0
  9
$INTERSECTIONDISPLAY
280
     0
  9
$INTERSECTIONCOLOR
 70
   257
  9
$DIMASSOC
280
     2
  9
$PROJECTNAME
  1

  9
$CAMERADISPLAY
290
     0
  9
$LENSLENGTH
 40
50.0
  9
$CAMERAHEIGHT
 40
0.0
  9
$STEPSPERSEC
 40
2.0
  9
$STEPSIZE
 40
6.0
  9
$3DDWFPREC
 40
2.0
  9
$PSOLWIDTH
 40
0.25
  9
$PSOLHEIGHT
 40
4.0
  9
$LOFTANG1
 40
1.570796326794896
  9
$LOFTANG2
 40
1.570796326794896
  9
$LOFTMAG1
 40
0.0
  9
$LOFTMAG2
 40
0.0
  9
$LOFTPARAM
 70
     7
  9
$LOFTNORMALS
280
     1
  9
$LATITUDE
 40
37.795
  9
$LONGITUDE
 40
-122.394
  9
$NORTHDIRECTION
 40
0.0
  9
$TIMEZONE
 70
 -8000
  9
$LIGHTGLYPHDISPLAY
280
     1
  9
$TILEMODELIGHTSYNCH
280
     1
  9
$CMATERIAL
347
11
  9
$SOLIDHIST
280
     0
  9
$SHOWHIST
280
     1
  9
$DWFFRAME
280
     2
  9
$DGNFRAME
280
     0
  9
$REALWORLDSCALE
290
     1
  9
$INTERFERECOLOR
 62
     1
  9
$INTERFEREOBJVS
345
33
  9
$INTERFEREVPVS
346
30
  9
$CSHADOW
280
     0
  9
$SHADOWPLANELOCATION
 40
0.0
  0
ENDSEC
  0
SECTION
  2
CLASSES
  0
CLASS
  1
ACDBDICTIONARYWDFLT
  2
AcDbDictionaryWithDefault
  3
ObjectDBX Classes
 90
        0
 91
        1
280
     0
281
     0
  0
CLASS
  1
MATERIAL
  2
AcDbMaterial
  3
ObjectDBX Classes
 90
     1153
 91
        3
280
     0
281
     0
  0
CLASS
  1
VISUALSTYLE
  2
AcDbVisualStyle
  3
ObjectDBX Classes
 90
     4095
 91
       24
280
     0
281
     0
  0
CLASS
  1
SCALE
  2
AcDbScale
  3
ObjectDBX Classes
 90
     1153
 91
       17
280
     0
281
     0
  0
CLASS
  1
TABLESTYLE
  2
AcDbTableStyle
  3
ObjectDBX Classes
 90
     4095
 91
        1
280
     0
281
     0
  0
CLASS
  1
MLEADERSTYLE
  2
AcDbMLeaderStyle
  3
ACDB_MLEADERSTYLE_CLASS
 90
     4095
 91
        1
280
     0
281
     0
  0
CLASS
  1
ACDBSECTIONVIEWSTYLE
  2
AcDbSectionViewStyle
  3
ObjectDBX Classes
 90
     1025
 91
        1
280
     0
281
     0
  0
CLASS
  1
ACDBDETAILVIEWSTYLE
  2
AcDbDetailViewStyle
  3
ObjectDBX Classes
 90
     1025
 91
        1
280
     0
281
     0
  0
CLASS
  1
DICTIONARYVAR
  2
AcDbDictionaryVar
  3
ObjectDBX Classes
 90
        0
 91
        5
280
     0
281
     0
  0
CLASS
  1
CELLSTYLEMAP
  2
AcDbCellStyleMap
  3
ObjectDBX Classes
 90
     1152
 91
        1
280
     0
281
     0
  0
ENDSEC
  0
SECTION
  2
TABLES
  0
TABLE
  2
VPORT
  5
8
330
0
100
AcDbSymbolTable
 70
     1
  0
VPORT
  5
57
330
8
100
AcDbSymbolTableRecord
100
AcDbViewportTableRecord
  2
*Active
 70
     0
 10
0.0
 20
0.0
 11
1.0
 21
1.0
 12
0.0
 22
0.0
 13
0.0
 23
0.0
 14
1.0
 24
1.0
 15
0.0
 25
0.0
 16
0.0
 26
0.0
 36
1.0
 17
104.9999999737534
 27
-148.4999999628701
 37
0.0
 40
302.939999924255
 41
0.7070707070707534
 42
50.0
 43
0.0
 44
0.0
 50
0.0
 51
0.0
 71
     0
 72
   100
 73
     1
 74
     0
 75
     1
 76
     0
 77
     0
 78
     0
281
     0
 65
     1
110
0.0
120
0.0
130
0.0
111
1.0
121
0.0
131
0.0
112
0.0
122
1.0
132
0.0
 79
     0
146
0.0
 60
     3
 61
     5
292
     1
282
     1
141
0.0
142
0.0
 63
   250
421
  3355443
  0
ENDTAB
  0
TABLE
  2
LTYPE
  5
5
330
0
100
AcDbSymbolTable
 70
     2
  0
LTYPE
  5
5B
330
5
100
AcDbSymbolTableRecord
100
AcDbLinetypeTableRecord
  2
ByBlock
 70
     0
  3

 72
    65
 73
     0
 40
0.0
  0
LTYPE
  5
5C
330
5
100
AcDbSymbolTableRecord
100
AcDbLinetypeTableRecord
  2
ByLayer
 70
     0
  3

 72
    65
 73
     0
 40
0.0
  0
LTYPE
  5
5D
330
5
100
AcDbSymbolTableRecord
100
AcDbLinetypeTableRecord
  2
Continuous
 70
     0
  3
Solid line
 72
    65
 73
     0
 40
0.0
  0
LTYPE
  5
A9
330
5
100
AcDbSymbolTableRecord
100
AcDbLinetypeTableRecord
  2
AI-Linetype-0
 70
     0
  3
Adobe Illustrator Linetype No. 0
 72
    65
 73
     2
 40
1.411111110758333
 49
0.7055555553791667
 74
     0
 49
-0.7055555553791667
 74
     0
  0
ENDTAB
  0
TABLE
  2
LAYER
  5
2
330
0
100
AcDbSymbolTable
 70
     2
  0
LAYER
  5
54
330
2
100
AcDbSymbolTableRecord
100
AcDbLayerTableRecord
  2
0
 70
     0
 62
     7
  6
Continuous
370
    -3
390
F
347
21
  0
LAYER
  5
78
330
2
100
AcDbSymbolTableRecord
100
AcDbLayerTableRecord
  2
レイヤー 1
 70
     0
 62
     7
  6
Continuous
370
     0
390
F
347
21
  0
ENDTAB
  0
TABLE
  2
STYLE
  5
3
330
0
100
AcDbSymbolTable
 70
     2
  0
STYLE
  5
55
330
3
100
AcDbSymbolTableRecord
100
AcDbTextStyleTableRecord
  2
Standard
 70
     0
 40
0.0
 41
1.0
 50
0.0
 71
     0
 42
0.2
  3
txt
  4

  0
STYLE
  5
5A
330
3
100
AcDbSymbolTableRecord
100
AcDbTextStyleTableRecord
  2
Annotative
 70
     0
 40
0.0
 41
1.0
 50
0.0
 71
     0
 42
0.2
  3
txt
  4

1001
AcadAnnotative
1000
AnnotativeData
1002
{
1070
     1
1070
     1
1002
}
  0
ENDTAB
  0
TABLE
  2
VIEW
  5
6
330
0
100
AcDbSymbolTable
 70
     0
  0
ENDTAB
  0
TABLE
  2
UCS
  5
7
330
0
100
AcDbSymbolTable
 70
     0
  0
ENDTAB
  0
TABLE
  2
APPID
  5
9
330
0
100
AcDbSymbolTable
 70
     2
  0
APPID
  5
56
330
9
100
AcDbSymbolTableRecord
100
AcDbRegAppTableRecord
  2
ACAD
 70
     0
  0
APPID
  5
5E
330
9
100
AcDbSymbolTableRecord
100
AcDbRegAppTableRecord
  2
AcadAnnotative
 70
     0
  0
ENDTAB
  0
TABLE
  2
DIMSTYLE
  5
A
330
0
100
AcDbSymbolTable
 70
     2
100
AcDbDimStyleTable
 71
     0
  0
DIMSTYLE
105
58
330
A
100
AcDbSymbolTableRecord
100
AcDbDimStyleTableRecord
  2
Standard
 70
     0
340
55
  0
DIMSTYLE
105
59
330
A
100
AcDbSymbolTableRecord
100
AcDbDimStyleTableRecord
  2
Annotative
 70
     0
340
55
1001
AcadAnnotative
1000
AnnotativeData
1002
{
1070
     1
1070
     1
1002
}
  0
ENDTAB
  0
TABLE
  2
BLOCK_RECORD
  5
1
330
0
100
AcDbSymbolTable
 70
    15
  0
BLOCK_RECORD
  5
70
330
1
100
AcDbSymbolTableRecord
100
AcDbBlockTableRecord
  2
*Model_Space
340
73
 70
     0
280
     1
281
     0
  0
BLOCK_RECORD
  5
6C
330
1
100
AcDbSymbolTableRecord
100
AcDbBlockTableRecord
  2
*Paper_Space
340
6F
 70
     0
280
     1
281
     0
  0
BLOCK_RECORD
  5
74
330
1
100
AcDbSymbolTableRecord
100
AcDbBlockTableRecord
  2
*Paper_Space0
340
77
 70
     0
280
     1
281
     0
  0
BLOCK_RECORD
  5
79
330
1
100
AcDbSymbolTableRecord
100
AcDbBlockTableRecord
  2
Block_0
340
0
102
{BLKREFS
331
7A
102
}
 70
     0
280
     1
281
     0
  0
BLOCK_RECORD
  5
7D
330
1
100
AcDbSymbolTableRecord
100
AcDbBlockTableRecord
  2
Block_1
340
0
102
{BLKREFS
331
7E
102
}
 70
     0
280
     1
281
     0
  0
BLOCK_RECORD
  5
111
330
1
100
AcDbSymbolTableRecord
100
AcDbBlockTableRecord
  2
Block_2
340
0
102
{BLKREFS
331
112
102
}
 70
     0
280
     1
281
     0
  0
BLOCK_RECORD
  5
115
330
1
100
AcDbSymbolTableRecord
100
AcDbBlockTableRecord
  2
Block_3
340
0
102
{BLKREFS
331
116
102
}
 70
     0
280
     1
281
     0
  0
BLOCK_RECORD
  5
122
330
1
100
AcDbSymbolTableRecord
100
AcDbBlockTableRecord
  2
Block_4
340
0
102
{BLKREFS
331
123
102
}
 70
     0
280
     1
281
     0
  0
BLOCK_RECORD
  5
126
330
1
100
AcDbSymbolTableRecord
100
AcDbBlockTableRecord
  2
Block_5
340
0
102
{BLKREFS
331
127
102
}
 70
     0
280
     1
281
     0
  0
BLOCK_RECORD
  5
130
330
1
100
AcDbSymbolTableRecord
100
AcDbBlockTableRecord
  2
Block_6
340
0
102
{BLKREFS
331
131
102
}
 70
     0
280
     1
281
     0
  0
BLOCK_RECORD
  5
13A
330
1
100
AcDbSymbolTableRecord
100
AcDbBlockTableRecord
  2
Block_7
340
0
102
{BLKREFS
331
13B
102
}
 70
     0
280
     1
281
     0
  0
BLOCK_RECORD
  5
13E
330
1
100
AcDbSymbolTableRecord
100
AcDbBlockTableRecord
  2
Block_8
340
0
102
{BLKREFS
331
13F
102
}
 70
     0
280
     1
281
     0
  0
BLOCK_RECORD
  5
149
330
1
100
AcDbSymbolTableRecord
100
AcDbBlockTableRecord
  2
Block_9
340
0
102
{BLKREFS
331
14A
102
}
 70
     0
280
     1
281
     0
  0
BLOCK_RECORD
  5
14D
330
1
100
AcDbSymbolTableRecord
100
AcDbBlockTableRecord
  2
Block_10
340
0
102
{BLKREFS
331
14E
102
}
 70
     0
280
     1
281
     0
  0
BLOCK_RECORD
  5
15A
330
1
100
AcDbSymbolTableRecord
100
AcDbBlockTableRecord
  2
Block_11
340
0
102
{BLKREFS
331
15B
102
}
 70
     0
280
     1
281
     0
  0
BLOCK_RECORD
  5
15E
330
1
100
AcDbSymbolTableRecord
100
AcDbBlockTableRecord
  2
Block_12
340
0
102
{BLKREFS
331
15F
102
}
 70
     0
280
     1
281
     0
  0
BLOCK_RECORD
  5
168
330
1
100
AcDbSymbolTableRecord
100
AcDbBlockTableRecord
  2
Block_13
340
0
102
{BLKREFS
331
169
102
}
 70
     0
280
     1
281
     0
  0
ENDTAB
  0
ENDSEC
  0
SECTION
  2
BLOCKS
  0
BLOCK
  5
71
330
70
100
AcDbEntity
  8
0
100
AcDbBlockBegin
  2
*Model_Space
 70
     0
 10
0.0
 20
0.0
 30
0.0
  3
*Model_Space
  1

  0
ENDBLK
  5
72
330
70
100
AcDbEntity
  8
0
100
AcDbBlockEnd
  0
BLOCK
  5
6D
330
6C
100
AcDbEntity
 67
     1
  8
0
100
AcDbBlockBegin
  2
*Paper_Space
 70
     0
 10
0.0
 20
0.0
 30
0.0
  3
*Paper_Space
  1

  0
ENDBLK
  5
6E
330
6C
100
AcDbEntity
 67
     1
  8
0
100
AcDbBlockEnd
  0
BLOCK
  5
75
330
74
100
AcDbEntity
 67
     1
  8
0
100
AcDbBlockBegin
  2
*Paper_Space0
 70
     0
 10
0.0
 20
0.0
 30
0.0
  3
*Paper_Space0
  1

  0
ENDBLK
  5
76
330
74
100
AcDbEntity
 67
     1
  8
0
100
AcDbBlockEnd
  0
BLOCK
  5
7B
330
79
100
AcDbEntity
  8
0
100
AcDbBlockBegin
  2
Block_0
 70
     0
 10
0.0
 20
0.0
 30
0.0
  3
Block_0
  1

  0
INSERT
  5
7E
330
79
100
AcDbEntity
  8
レイヤー 1
100
AcDbBlockReference
  2
Block_1
 10
0.0
 20
0.0
 30
0.0
  0
ENDBLK
  5
7C
330
79
100
AcDbEntity
  8
0
100
AcDbBlockEnd
  0
BLOCK
  5
7F
330
7D
100
AcDbEntity
  8
0
100
AcDbBlockBegin
  2
Block_1
 70
     0
 10
0.0
 20
0.0
 30
0.0
  3
Block_1
  1

  0
SPLINE
  5
81
330
7D
100
AcDbEntity
  8
レイヤー 1
100
AcDbSpline
210
0.0
220
0.0
230
1.0
 70
     9
 71
     3
 72
    17
 73
    13
 74
     0
 42
0.0000000001
 43
0.0000000001
 40
0.0
 40
0.0
 40
0.0
 40
0.0
 40
1.0
 40
1.0
 40
1.0
 40
2.0
 40
2.0
 40
2.0
 40
3.0
 40
3.0
 40
3.0
 40
4.0
 40
4.0
 40
4.0
 40
4.0
 10
127.372070280657
 20
-149.1743570590606
 30
0.0
 10
127.2535589959644
 20
-149.0623914557899
 30
0.0
 10
127.1612304369597
 20
-148.9986571893128
 30
0.0
 10
127.0575330628537
 20
-148.9352674323842
 30
0.0
 10
127.0575330628537
 20
-148.9352674323842
 30
0.0
 10
127.1684651374787
 20
-148.8233018291136
 30
0.0
 10
127.1684651374787
 20
-148.8233018291136
 30
0.0
 10
127.2831868171375
 20
-148.8698106181645
 30
0.0
 10
127.3796494907245
 20
-148.9269992032196
 30
0.0
 10
127.4888590176069
 20
-149.028285010486
 30
0.0
 10
127.4888590176069
 20
-149.028285010486
 30
0.0
 10
127.372070280657
 20
-149.1743570590606
 30
0.0
 10
127.372070280657
 20
-149.1743570590606
 30
0.0
  0
SPLINE
  5
82
330
7D
100
AcDbEntity
  8
レイヤー 1
100
AcDbSpline
210
0.0
220
0.0
230
1.0
 70
     9
 71
     3
 72
    20
 73
    16
 74
     0
 42
0.0000000001
 43
0.0000000001
 40
0.0
 40
0.0
 40
0.0
 40
0.0
 40
1.0
 40
1.0
 40
1.0
 40
2.0
 40
2.0
 40
2.0
 40
3.0
 40
3.0
 40
3.0
 40
4.0
 40
4.0
 40
4.0
 40
5.0
 40
5.0
 40
5.0
 40
5.0
 10
126.8814886835574
 20
-148.11877980238
 30
0.0
 10
126.8480712573505
 20
-148.1675279034963
 30
0.0
 10
126.7946722773291
 20
-148.2457315710115
 30
0.0
 10
126.6723713876027
 20
-148.3558023717652
 30
0.0
 10
126.7426513355018
 20
-148.3599364863475
 30
0.0
 10
126.7684895516412
 20
-148.3599364863475
 30
0.0
 10
126.7888156150042
 20
-148.3599364863475
 30
0.0
 10
126.7888156150042
 20
-148.3599364863475
 30
0.0
 10
126.9889756626972
 20
-148.3599364863475
 30
0.0
 10
126.9889756626972
 20
-148.3599364863475
 30
0.0
 10
127.0165364265792
 20
-148.3599364863475
 30
0.0
 10
127.0592556105963
 20
-148.3578694290564
 30
0.0
 10
127.124023405719
 20
-148.3558023717652
 30
0.0
 10
127.0258381843894
 20
-148.2817328188323
 30
0.0
 10
126.9834635099208
 20
-148.2352240297815
 30
0.0
 10
126.8814886835574
 20
-148.11877980238
 30
0.0
  0
SPLINE
  5
83
330
7D
100
AcDbEntity
  8
レイヤー 1
100
AcDbSpline
210
0.0
220
0.0
230
1.0
 70
     9
 71
     3
 72
    23
 73
    19
 74
     0
 42
0.0000000001
 43
0.0000000001
 40
0.0
 40
0.0
 40
0.0
 40
0.0
 40
1.0
 40
1.0
 40
1.0
 40
2.0
 40
2.0
 40
2.0
 40
3.0
 40
3.0
 40
3.0
 40
4.0
 40
4.0
 40
4.0
 40
5.0
 40
5.0
 40
5.0
 40
6.0
 40
6.0
 40
6.0
 40
6.0
 10
126.6203504457754
 20
-148.9607611389751
 30
0.0
 10
126.6017469301551
 20
-148.9838432787262
 30
0.0
 10
126.5166530716694
 20
-149.0961533915454
 30
0.0
 10
126.3943521819431
 20
-149.1764241163517
 30
0.0
 10
126.3943521819431
 20
-149.1764241163517
 30
0.0
 10
126.2482801333685
 20
-149.055845774368
 30
0.0
 10
126.2482801333685
 20
-149.055845774368
 30
0.0
 10
126.379882780905
 20
-148.979709164144
 30
0.0
 10
126.4666991871333
 20
-148.884624528751
 30
0.0
 10
126.5094183711504
 20
-148.8317423130525
 30
0.0
 10
126.5094183711504
 20
-148.8317423130525
 30
0.0
 10
126.6610025725014
 20
-148.9142523499242
 30
0.0
 10
126.6610025725014
 20
-148.9142523499242
 30
0.0
 10
126.668581782569
 20
-148.9183864645065
 30
0.0
 10
126.6761609926365
 20
-148.92458763638
 30
0.0
 10
126.6761609926365
 20
-148.9352674323842
 30
0.0
 10
126.6761609926365
 20
-148.9607611389751
 30
0.0
 10
126.6444661141722
 20
-148.9607611389751
 30
0.0
 10
126.6203504457754
 20
-148.9607611389751
 30
0.0
  0
SPLINE
  5
84
330
7D
100
AcDbEntity
  8
レイヤー 1
100
AcDbSpline
210
0.0
220
0.0
230
1.0
 70
     9
 71
     3
 72
    17
 73
    13
 74
     0
 42
0.0000000001
 43
0.0000000001
 40
0.0
 40
0.0
 40
0.0
 40
0.0
 40
1.0
 40
1.0
 40
1.0
 40
2.0
 40
2.0
 40
2.0
 40
3.0
 40
3.0
 40
3.0
 40
4.0
 40
4.0
 40
4.0
 40
4.0
 10
126.2241644649717
 20
-148.2562391122415
 30
0.0
 10
126.1704209754018
 20
-148.1801025020175
 30
0.0
 10
126.0574218434856
 20
-148.1039658917934
 30
0.0
 10
125.9668158322235
 20
-148.0743380706203
 30
0.0
 10
125.9668158322235
 20
-148.0743380706203
 30
0.0
 10
126.0501871429666
 20
-147.9093179968768
 30
0.0
 10
126.0501871429666
 20
-147.9093179968768
 30
0.0
 10
126.1390706064861
 20
-147.9453192446977
 30
0.0
 10
126.2317436750393
 20
-148.0025078297528
 30
0.0
 10
126.3092583234574
 20
-148.0827785545591
 30
0.0
 10
126.3092583234574
 20
-148.0827785545591
 30
0.0
 10
126.2241644649717
 20
-148.2562391122415
 30
0.0
 10
126.2241644649717
 20
-148.2562391122415
 30
0.0
  0
SPLINE
  5
85
330
7D
100
AcDbEntity
  8
レイヤー 1
100
AcDbSpline
210
0.0
220
0.0
230
1.0
 70
     9
 71
     3
 72
    23
 73
    19
 74
     0
 42
0.0000000001
 43
0.0000000001
 40
0.0
 40
0.0
 40
0.0
 40
0.0
 40
1.0
 40
1.0
 40
1.0
 40
2.0
 40
2.0
 40
2.0
 40
3.0
 40
3.0
 40
3.0
 40
4.0
 40
4.0
 40
4.0
 40
5.0
 40
5.0
 40
5.0
 40
6.0
 40
6.0
 40
6.0
 40
6.0
 10
126.0019558061731
 20
-149.1509304097609
 30
0.0
 10
126.0019558061731
 20
-149.1722900017694
 30
0.0
 10
126.0036783539157
 20
-149.2101860521072
 30
0.0
 10
125.9816297428101
 20
-149.2101860521072
 30
0.0
 10
125.9723279849999
 20
-149.2101860521072
 30
0.0
 10
125.9650932844809
 20
-149.2039848802337
 30
0.0
 10
125.9557915266708
 20
-149.187103912356
 30
0.0
 10
125.9557915266708
 20
-149.187103912356
 30
0.0
 10
125.8648410058602
 20
-149.0052028707348
 30
0.0
 10
125.8648410058602
 20
-149.0052028707348
 30
0.0
 10
126.0539767480004
 20
-148.8760117900379
 30
0.0
 10
126.2258870127143
 20
-148.5990261130238
 30
0.0
 10
126.2668836489888
 20
-148.5270236173821
 30
0.0
 10
126.2668836489888
 20
-148.5270236173821
 30
0.0
 10
126.3295843868204
 20
-148.7068576017122
 30
0.0
 10
126.3295843868204
 20
-148.7068576017122
 30
0.0
 10
126.2131401594189
 20
-148.9035725539199
 30
0.0
 10
126.0594889007768
 20
-149.0875406528322
 30
0.0
 10
126.0019558061731
 20
-149.1509304097609
 30
0.0
  0
SPLINE
  5
86
330
7D
100
AcDbEntity
  8
レイヤー 1
100
AcDbSpline
210
0.0
220
0.0
230
1.0
 70
     9
 71
     3
 72
   182
 73
   178
 74
     0
 42
0.0000000001
 43
0.0000000001
 40
0.0
 40
0.0
 40
0.0
 40
0.0
 40
1.0
 40
1.0
 40
1.0
 40
2.0
 40
2.0
 40
2.0
 40
3.0
 40
3.0
 40
3.0
 40
4.0
 40
4.0
 40
4.0
 40
5.0
 40
5.0
 40
5.0
 40
6.0
 40
6.0
 40
6.0
 40
7.0
 40
7.0
 40
7.0
 40
8.0
 40
8.0
 40
8.0
 40
9.0
 40
9.0
 40
9.0
 40
10.0
 40
10.0
 40
10.0
 40
11.0
 40
11.0
 40
11.0
 40
12.0
 40
12.0
 40
12.0
 40
13.0
 40
13.0
 40
13.0
 40
14.0
 40
14.0
 40
14.0
 40
15.0
 40
15.0
 40
15.0
 40
16.0
 40
16.0
 40
16.0
 40
17.0
 40
17.0
 40
17.0
 40
18.0
 40
18.0
 40
18.0
 40
19.0
 40
19.0
 40
19.0
 40
20.0
 40
20.0
 40
20.0
 40
21.0
 40
21.0
 40
21.0
 40
22.0
 40
22.0
 40
22.0
 40
23.0
 40
23.0
 40
23.0
 40
24.0
 40
24.0
 40
24.0
 40
25.0
 40
25.0
 40
25.0
 40
26.0
 40
26.0
 40
26.0
 40
27.0
 40
27.0
 40
27.0
 40
28.0
 40
28.0
 40
28.0
 40
29.0
 40
29.0
 40
29.0
 40
30.0
 40
30.0
 40
30.0
 40
31.0
 40
31.0
 40
31.0
 40
32.0
 40
32.0
 40
32.0
 40
33.0
 40
33.0
 40
33.0
 40
34.0
 40
34.0
 40
34.0
 40
35.0
 40
35.0
 40
35.0
 40
36.0
 40
36.0
 40
36.0
 40
37.0
 40
37.0
 40
37.0
 40
38.0
 40
38.0
 40
38.0
 40
39.0
 40
39.0
 40
39.0
 40
40.0
 40
40.0
 40
40.0
 40
41.0
 40
41.0
 40
41.0
 40
42.0
 40
42.0
 40
42.0
 40
43.0
 40
43.0
 40
43.0
 40
44.0
 40
44.0
 40
44.0
 40
45.0
 40
45.0
 40
45.0
 40
46.0
 40
46.0
 40
46.0
 40
47.0
 40
47.0
 40
47.0
 40
48.0
 40
48.0
 40
48.0
 40
49.0
 40
49.0
 40
49.0
 40
50.0
 40
50.0
 40
50.0
 40
51.0
 40
51.0
 40
51.0
 40
52.0
 40
52.0
 40
52.0
 40
53.0
 40
53.0
 40
53.0
 40
54.0
 40
54.0
 40
54.0
 40
55.0
 40
55.0
 40
55.0
 40
56.0
 40
56.0
 40
56.0
 40
57.0
 40
57.0
 40
57.0
 40
58.0
 40
58.0
 40
58.0
 40
59.0
 40
59.0
 40
59.0
 40
59.0
 10
126.9813964526296
 20
-149.7793158262704
 30
0.0
 10
126.9813964526296
 20
-149.7793158262704
 30
0.0
 10
126.4239800031162
 20
-149.7793158262704
 30
0.0
 10
126.4239800031162
 20
-149.7793158262704
 30
0.0
 10
126.2372558278157
 20
-149.7793158262704
 30
0.0
 10
126.0481200856754
 20
-149.7837944504013
 30
0.0
 10
125.8610514008264
 20
-149.7961967941482
 30
0.0
 10
125.8610514008264
 20
-149.7961967941482
 30
0.0
 10
125.8610514008264
 20
-149.5891465554846
 30
0.0
 10
125.8610514008264
 20
-149.5891465554846
 30
0.0
 10
126.055699295743
 20
-149.6015488992316
 30
0.0
 10
126.3388861446305
 20
-149.6060275233624
 30
0.0
 10
126.4239800031162
 20
-149.6060275233624
 30
0.0
 10
126.4239800031162
 20
-149.6060275233624
 30
0.0
 10
126.6169053502902
 20
-149.6060275233624
 30
0.0
 10
126.6169053502902
 20
-149.6060275233624
 30
0.0
 10
126.6169053502902
 20
-149.6060275233624
 30
0.0
 10
126.6169053502902
 20
-149.4640895893701
 30
0.0
 10
126.6169053502902
 20
-149.4640895893701
 30
0.0
 10
126.6169053502902
 20
-149.4640895893701
 30
0.0
 10
126.4760009449435
 20
-149.4640895893701
 30
0.0
 10
126.4760009449435
 20
-149.4640895893701
 30
0.0
 10
126.3316514441115
 20
-149.4640895893701
 30
0.0
 10
126.186957433731
 20
-149.4685682135009
 30
0.0
 10
126.042607932899
 20
-149.4833821240875
 30
0.0
 10
126.042607932899
 20
-149.4833821240875
 30
0.0
 10
126.042607932899
 20
-149.2739203185843
 30
0.0
 10
126.042607932899
 20
-149.2739203185843
 30
0.0
 10
126.1928140960559
 20
-149.2887342291709
 30
0.0
 10
126.4095106020782
 20
-149.2928683437532
 30
0.0
 10
126.4760009449435
 20
-149.2928683437532
 30
0.0
 10
126.4760009449435
 20
-149.2928683437532
 30
0.0
 10
126.6169053502902
 20
-149.2928683437532
 30
0.0
 10
126.6169053502902
 20
-149.2928683437532
 30
0.0
 10
126.6131157452564
 20
-149.2208658481114
 30
0.0
 10
126.6131157452564
 20
-149.214664676238
 30
0.0
 10
126.60760359248
 20
-149.1616102057651
 30
0.0
 10
126.60760359248
 20
-149.1616102057651
 30
0.0
 10
126.7295599726579
 20
-149.1764241163517
 30
0.0
 10
126.7295599726579
 20
-149.1764241163517
 30
0.0
 10
126.7295599726579
 20
-149.1764241163517
 30
0.0
 10
126.6427435664296
 20
-149.0052028707348
 30
0.0
 10
126.6427435664296
 20
-149.0052028707348
 30
0.0
 10
126.6833956931555
 20
-149.0114040426082
 30
0.0
 10
126.7481634882782
 20
-149.0200167813214
 30
0.0
 10
126.7629773988648
 20
-149.0200167813214
 30
0.0
 10
126.8074191306245
 20
-149.0200167813214
 30
0.0
 10
126.8222330412111
 20
-148.9986571893128
 30
0.0
 10
126.8222330412111
 20
-148.9418131138062
 30
0.0
 10
126.8222330412111
 20
-148.9418131138062
 30
0.0
 10
126.8222330412111
 20
-148.8041815491705
 30
0.0
 10
126.8222330412111
 20
-148.8041815491705
 30
0.0
 10
126.8222330412111
 20
-148.8041815491705
 30
0.0
 10
126.7295599726579
 20
-148.8041815491705
 30
0.0
 10
126.7295599726579
 20
-148.8041815491705
 30
0.0
 10
126.6131157452564
 20
-148.8041815491705
 30
0.0
 10
126.4760009449435
 20
-148.8041815491705
 30
0.0
 10
126.3685139658037
 20
-148.8169284024659
 30
0.0
 10
126.3685139658037
 20
-148.8169284024659
 30
0.0
 10
126.3685139658037
 20
-148.6265868769058
 30
0.0
 10
126.3685139658037
 20
-148.6265868769058
 30
0.0
 10
126.5149305239268
 20
-148.6434678447835
 30
0.0
 10
126.7168131193624
 20
-148.6455349020747
 30
0.0
 10
126.7295599726579
 20
-148.6455349020747
 30
0.0
 10
126.7295599726579
 20
-148.6455349020747
 30
0.0
 10
126.8222330412111
 20
-148.6455349020747
 30
0.0
 10
126.8222330412111
 20
-148.6455349020747
 30
0.0
 10
126.8222330412111
 20
-148.6455349020747
 30
0.0
 10
126.8222330412111
 20
-148.5144490188609
 30
0.0
 10
126.8222330412111
 20
-148.5144490188609
 30
0.0
 10
126.8222330412111
 20
-148.5144490188609
 30
0.0
 10
126.7888156150042
 20
-148.5144490188609
 30
0.0
 10
126.7888156150042
 20
-148.5144490188609
 30
0.0
 10
126.7498860360208
 20
-148.5144490188609
 30
0.0
 10
126.6406765091384
 20
-148.5185831334433
 30
0.0
 10
126.5631618607203
 20
-148.5270236173821
 30
0.0
 10
126.5631618607203
 20
-148.5270236173821
 30
0.0
 10
126.5631618607203
 20
-148.4467528925758
 30
0.0
 10
126.5631618607203
 20
-148.4467528925758
 30
0.0
 10
126.5166530716694
 20
-148.4848211976878
 30
0.0
 10
126.4946044605638
 20
-148.4996351082744
 30
0.0
 10
126.4573974293231
 20
-148.5228895027998
 30
0.0
 10
126.4573974293231
 20
-148.5228895027998
 30
0.0
 10
126.2927218651282
 20
-148.3938706768772
 30
0.0
 10
126.2927218651282
 20
-148.3938706768772
 30
0.0
 10
126.3612792652847
 20
-148.3599364863475
 30
0.0
 10
126.4983940655976
 20
-148.2965467294189
 30
0.0
 10
126.635164356362
 20
-148.1527139929097
 30
0.0
 10
126.7075113615523
 20
-148.0743380706203
 30
0.0
 10
126.7760687617087
 20
-147.9897609764574
 30
0.0
 10
126.8222330412111
 20
-147.8883029144168
 30
0.0
 10
126.8222330412111
 20
-147.8883029144168
 30
0.0
 10
127.0075791783175
 20
-147.9496256140542
 30
0.0
 10
127.0075791783175
 20
-147.9496256140542
 30
0.0
 10
127.0241156366467
 20
-147.9558267859277
 30
0.0
 10
127.0334173944569
 20
-147.9644395246408
 30
0.0
 10
127.0334173944569
 20
-147.977014123162
 30
0.0
 10
127.0334173944569
 20
-147.994067345814
 30
0.0
 10
127.0223930889041
 20
-148.0002685176874
 30
0.0
 10
126.99999996825
 20
-148.0130153709828
 30
0.0
 10
127.0702799161491
 20
-148.1103393184412
 30
0.0
 10
127.2129068692384
 20
-148.2076632658994
 30
0.0
 10
127.2425346904116
 20
-148.2266112910683
 30
0.0
 10
127.3741373379481
 20
-148.3154947545878
 30
0.0
 10
127.4740451070204
 20
-148.3430555184698
 30
0.0
 10
127.5426025071768
 20
-148.3620035436387
 30
0.0
 10
127.5426025071768
 20
-148.3620035436387
 30
0.0
 10
127.4389051330708
 20
-148.5313299867387
 30
0.0
 10
127.4389051330708
 20
-148.5313299867387
 30
0.0
 10
127.3648355801379
 20
-148.5017021655655
 30
0.0
 10
127.3203938483782
 20
-148.4827541403967
 30
0.0
 10
127.2166964742722
 20
-148.4171250714027
 30
0.0
 10
127.2166964742722
 20
-148.4171250714027
 30
0.0
 10
127.2166964742722
 20
-148.5270236173821
 30
0.0
 10
127.2166964742722
 20
-148.5270236173821
 30
0.0
 10
127.1443494690819
 20
-148.5185831334433
 30
0.0
 10
127.0334173944569
 20
-148.5144490188609
 30
0.0
 10
126.986908605406
 20
-148.5144490188609
 30
0.0
 10
126.986908605406
 20
-148.5144490188609
 30
0.0
 10
126.986908605406
 20
-148.6455349020747
 30
0.0
 10
126.986908605406
 20
-148.6455349020747
 30
0.0
 10
126.986908605406
 20
-148.6455349020747
 30
0.0
 10
127.0926730368032
 20
-148.6455349020747
 30
0.0
 10
127.0926730368032
 20
-148.6455349020747
 30
0.0
 10
127.0943955845458
 20
-148.6455349020747
 30
0.0
 10
127.2983452372726
 20
-148.6434678447835
 30
0.0
 10
127.4537190436574
 20
-148.6265868769058
 30
0.0
 10
127.4537190436574
 20
-148.6265868769058
 30
0.0
 10
127.4537190436574
 20
-148.8169284024659
 30
0.0
 10
127.4537190436574
 20
-148.8169284024659
 30
0.0
 10
127.3407199117412
 20
-148.8041815491705
 30
0.0
 10
127.2036051114282
 20
-148.8041815491705
 30
0.0
 10
127.0926730368032
 20
-148.8041815491705
 30
0.0
 10
127.0926730368032
 20
-148.8041815491705
 30
0.0
 10
126.986908605406
 20
-148.8041815491705
 30
0.0
 10
126.986908605406
 20
-148.8041815491705
 30
0.0
 10
126.986908605406
 20
-148.8041815491705
 30
0.0
 10
126.986908605406
 20
-149.0303520677771
 30
0.0
 10
126.986908605406
 20
-149.0303520677771
 30
0.0
 10
126.986908605406
 20
-149.1488633524697
 30
0.0
 10
126.9648599943004
 20
-149.1850368550648
 30
0.0
 10
126.8243000985022
 20
-149.1998507656514
 30
0.0
 10
126.8277451939875
 20
-149.2187987908203
 30
0.0
 10
126.8222330412111
 20
-149.2294785868246
 30
0.0
 10
126.7888156150042
 20
-149.2525607265757
 30
0.0
 10
126.7870930672615
 20
-149.2715087517446
 30
0.0
 10
126.7870930672615
 20
-149.2780544331666
 30
0.0
 10
126.7853705195189
 20
-149.2928683437532
 30
0.0
 10
126.7853705195189
 20
-149.2928683437532
 30
0.0
 10
126.9056043519541
 20
-149.2928683437532
 30
0.0
 10
126.9056043519541
 20
-149.2928683437532
 30
0.0
 10
127.0499538527861
 20
-149.2928683437532
 30
0.0
 10
127.1963704109092
 20
-149.2887342291709
 30
0.0
 10
127.3424424594838
 20
-149.2739203185843
 30
0.0
 10
127.3424424594838
 20
-149.2739203185843
 30
0.0
 10
127.3424424594838
 20
-149.4809705572478
 30
0.0
 10
127.3424424594838
 20
-149.4809705572478
 30
0.0
 10
127.1536512268921
 20
-149.4640895893701
 30
0.0
 10
126.9221408102833
 20
-149.4640895893701
 30
0.0
 10
126.9056043519541
 20
-149.4640895893701
 30
0.0
 10
126.9056043519541
 20
-149.4640895893701
 30
0.0
 10
126.7833034622278
 20
-149.4640895893701
 30
0.0
 10
126.7833034622278
 20
-149.4640895893701
 30
0.0
 10
126.7833034622278
 20
-149.4640895893701
 30
0.0
 10
126.7833034622278
 20
-149.6060275233624
 30
0.0
 10
126.7833034622278
 20
-149.6060275233624
 30
0.0
 10
126.7833034622278
 20
-149.6060275233624
 30
0.0
 10
126.9813964526296
 20
-149.6060275233624
 30
0.0
 10
126.9813964526296
 20
-149.6060275233624
 30
0.0
 10
127.1705321947699
 20
-149.6060275233624
 30
0.0
 10
127.3610459751042
 20
-149.6015488992316
 30
0.0
 10
127.5498372076959
 20
-149.5891465554846
 30
0.0
 10
127.5498372076959
 20
-149.5891465554846
 30
0.0
 10
127.5498372076959
 20
-149.7961967941482
 30
0.0
 10
127.5498372076959
 20
-149.7961967941482
 30
0.0
 10
127.303857390049
 20
-149.7793158262704
 30
0.0
 10
127.0020670255411
 20
-149.7793158262704
 30
0.0
 10
126.9813964526296
 20
-149.7793158262704
 30
0.0
  0
SPLINE
  5
87
330
7D
100
AcDbEntity
  8
レイヤー 1
100
AcDbSpline
210
0.0
220
0.0
230
1.0
 70
     9
 71
     3
 72
    17
 73
    13
 74
     0
 42
0.0000000001
 43
0.0000000001
 40
0.0
 40
0.0
 40
0.0
 40
0.0
 40
1.0
 40
1.0
 40
1.0
 40
2.0
 40
2.0
 40
2.0
 40
3.0
 40
3.0
 40
3.0
 40
4.0
 40
4.0
 40
4.0
 40
4.0
 10
126.0667236012958
 20
-148.601093170315
 30
0.0
 10
125.9740505327426
 20
-148.4953287389178
 30
0.0
 10
125.9037705848435
 20
-148.4572604338058
 30
0.0
 10
125.8224663313916
 20
-148.4255655553415
 30
0.0
 10
125.8224663313916
 20
-148.4255655553415
 30
0.0
 10
125.91858449543
 20
-148.260545481598
 30
0.0
 10
125.91858449543
 20
-148.260545481598
 30
0.0
 10
126.0036783539157
 20
-148.3029201560666
 30
0.0
 10
126.1094427853129
 20
-148.3811238235818
 30
0.0
 10
126.1556070648153
 20
-148.4360730965715
 30
0.0
 10
126.1556070648153
 20
-148.4360730965715
 30
0.0
 10
126.0667236012958
 20
-148.601093170315
 30
0.0
 10
126.0667236012958
 20
-148.601093170315
 30
0.0
  0
HATCH
  5
88
330
7D
100
AcDbEntity
  8
レイヤー 1
 62
   250
420
  2299925
440
 33554687
100
AcDbHatch
 10
0.0
 20
0.0
 30
0.0
210
0.0
220
0.0
230
1.0
  2
SOLID
 70
     1
 71
     1
 91
        7
 92
        1
 93
        1
 72
     4
 94
        3
 73
     0
 74
     0
 95
       17
 96
       13
 40
0.0
 40
0.0
 40
0.0
 40
0.0
 40
1.0
 40
1.0
 40
1.0
 40
2.0
 40
2.0
 40
2.0
 40
3.0
 40
3.0
 40
3.0
 40
4.0
 40
4.0
 40
4.0
 40
4.0
 10
127.372070280657
 20
-149.1743570590606
 10
127.2535589959644
 20
-149.0623914557899
 10
127.1612304369597
 20
-148.9986571893128
 10
127.0575330628537
 20
-148.9352674323842
 10
127.0575330628537
 20
-148.9352674323842
 10
127.1684651374787
 20
-148.8233018291136
 10
127.1684651374787
 20
-148.8233018291136
 10
127.2831868171375
 20
-148.8698106181645
 10
127.3796494907245
 20
-148.9269992032196
 10
127.4888590176069
 20
-149.028285010486
 10
127.4888590176069
 20
-149.028285010486
 10
127.372070280657
 20
-149.1743570590606
 10
127.372070280657
 20
-149.1743570590606
 97
        0
 97
        1
330
81
 92
        1
 93
        1
 72
     4
 94
        3
 73
     0
 74
     0
 95
       20
 96
       16
 40
0.0
 40
0.0
 40
0.0
 40
0.0
 40
1.0
 40
1.0
 40
1.0
 40
2.0
 40
2.0
 40
2.0
 40
3.0
 40
3.0
 40
3.0
 40
4.0
 40
4.0
 40
4.0
 40
5.0
 40
5.0
 40
5.0
 40
5.0
 10
126.8814886835574
 20
-148.11877980238
 10
126.8480712573505
 20
-148.1675279034963
 10
126.7946722773291
 20
-148.2457315710115
 10
126.6723713876027
 20
-148.3558023717652
 10
126.7426513355018
 20
-148.3599364863475
 10
126.7684895516412
 20
-148.3599364863475
 10
126.7888156150042
 20
-148.3599364863475
 10
126.7888156150042
 20
-148.3599364863475
 10
126.9889756626972
 20
-148.3599364863475
 10
126.9889756626972
 20
-148.3599364863475
 10
127.0165364265792
 20
-148.3599364863475
 10
127.0592556105963
 20
-148.3578694290564
 10
127.124023405719
 20
-148.3558023717652
 10
127.0258381843894
 20
-148.2817328188323
 10
126.9834635099208
 20
-148.2352240297815
 10
126.8814886835574
 20
-148.11877980238
 97
        0
 97
        1
330
82
 92
        1
 93
        1
 72
     4
 94
        3
 73
     0
 74
     0
 95
       23
 96
       19
 40
0.0
 40
0.0
 40
0.0
 40
0.0
 40
1.0
 40
1.0
 40
1.0
 40
2.0
 40
2.0
 40
2.0
 40
3.0
 40
3.0
 40
3.0
 40
4.0
 40
4.0
 40
4.0
 40
5.0
 40
5.0
 40
5.0
 40
6.0
 40
6.0
 40
6.0
 40
6.0
 10
126.6203504457754
 20
-148.9607611389751
 10
126.6017469301551
 20
-148.9838432787262
 10
126.5166530716694
 20
-149.0961533915454
 10
126.3943521819431
 20
-149.1764241163517
 10
126.3943521819431
 20
-149.1764241163517
 10
126.2482801333685
 20
-149.055845774368
 10
126.2482801333685
 20
-149.055845774368
 10
126.379882780905
 20
-148.979709164144
 10
126.4666991871333
 20
-148.884624528751
 10
126.5094183711504
 20
-148.8317423130525
 10
126.5094183711504
 20
-148.8317423130525
 10
126.6610025725014
 20
-148.9142523499242
 10
126.6610025725014
 20
-148.9142523499242
 10
126.668581782569
 20
-148.9183864645065
 10
126.6761609926365
 20
-148.92458763638
 10
126.6761609926365
 20
-148.9352674323842
 10
126.6761609926365
 20
-148.9607611389751
 10
126.6444661141722
 20
-148.9607611389751
 10
126.6203504457754
 20
-148.9607611389751
 97
        0
 97
        1
330
83
 92
        1
 93
        1
 72
     4
 94
        3
 73
     0
 74
     0
 95
       17
 96
       13
 40
0.0
 40
0.0
 40
0.0
 40
0.0
 40
1.0
 40
1.0
 40
1.0
 40
2.0
 40
2.0
 40
2.0
 40
3.0
 40
3.0
 40
3.0
 40
4.0
 40
4.0
 40
4.0
 40
4.0
 10
126.2241644649717
 20
-148.2562391122415
 10
126.1704209754018
 20
-148.1801025020175
 10
126.0574218434856
 20
-148.1039658917934
 10
125.9668158322235
 20
-148.0743380706203
 10
125.9668158322235
 20
-148.0743380706203
 10
126.0501871429666
 20
-147.9093179968768
 10
126.0501871429666
 20
-147.9093179968768
 10
126.1390706064861
 20
-147.9453192446977
 10
126.2317436750393
 20
-148.0025078297528
 10
126.3092583234574
 20
-148.0827785545591
 10
126.3092583234574
 20
-148.0827785545591
 10
126.2241644649717
 20
-148.2562391122415
 10
126.2241644649717
 20
-148.2562391122415
 97
        0
 97
        1
330
84
 92
        1
 93
        1
 72
     4
 94
        3
 73
     0
 74
     0
 95
       23
 96
       19
 40
0.0
 40
0.0
 40
0.0
 40
0.0
 40
1.0
 40
1.0
 40
1.0
 40
2.0
 40
2.0
 40
2.0
 40
3.0
 40
3.0
 40
3.0
 40
4.0
 40
4.0
 40
4.0
 40
5.0
 40
5.0
 40
5.0
 40
6.0
 40
6.0
 40
6.0
 40
6.0
 10
126.0019558061731
 20
-149.1509304097609
 10
126.0019558061731
 20
-149.1722900017694
 10
126.0036783539157
 20
-149.2101860521072
 10
125.9816297428101
 20
-149.2101860521072
 10
125.9723279849999
 20
-149.2101860521072
 10
125.9650932844809
 20
-149.2039848802337
 10
125.9557915266708
 20
-149.187103912356
 10
125.9557915266708
 20
-149.187103912356
 10
125.8648410058602
 20
-149.0052028707348
 10
125.8648410058602
 20
-149.0052028707348
 10
126.0539767480004
 20
-148.8760117900379
 10
126.2258870127143
 20
-148.5990261130238
 10
126.2668836489888
 20
-148.5270236173821
 10
126.2668836489888
 20
-148.5270236173821
 10
126.3295843868204
 20
-148.7068576017122
 10
126.3295843868204
 20
-148.7068576017122
 10
126.2131401594189
 20
-148.9035725539199
 10
126.0594889007768
 20
-149.0875406528322
 10
126.0019558061731
 20
-149.1509304097609
 97
        0
 97
        1
330
85
 92
        1
 93
        1
 72
     4
 94
        3
 73
     0
 74
     0
 95
      182
 96
      178
 40
0.0
 40
0.0
 40
0.0
 40
0.0
 40
1.0
 40
1.0
 40
1.0
 40
2.0
 40
2.0
 40
2.0
 40
3.0
 40
3.0
 40
3.0
 40
4.0
 40
4.0
 40
4.0
 40
5.0
 40
5.0
 40
5.0
 40
6.0
 40
6.0
 40
6.0
 40
7.0
 40
7.0
 40
7.0
 40
8.0
 40
8.0
 40
8.0
 40
9.0
 40
9.0
 40
9.0
 40
10.0
 40
10.0
 40
10.0
 40
11.0
 40
11.0
 40
11.0
 40
12.0
 40
12.0
 40
12.0
 40
13.0
 40
13.0
 40
13.0
 40
14.0
 40
14.0
 40
14.0
 40
15.0
 40
15.0
 40
15.0
 40
16.0
 40
16.0
 40
16.0
 40
17.0
 40
17.0
 40
17.0
 40
18.0
 40
18.0
 40
18.0
 40
19.0
 40
19.0
 40
19.0
 40
20.0
 40
20.0
 40
20.0
 40
21.0
 40
21.0
 40
21.0
 40
22.0
 40
22.0
 40
22.0
 40
23.0
 40
23.0
 40
23.0
 40
24.0
 40
24.0
 40
24.0
 40
25.0
 40
25.0
 40
25.0
 40
26.0
 40
26.0
 40
26.0
 40
27.0
 40
27.0
 40
27.0
 40
28.0
 40
28.0
 40
28.0
 40
29.0
 40
29.0
 40
29.0
 40
30.0
 40
30.0
 40
30.0
 40
31.0
 40
31.0
 40
31.0
 40
32.0
 40
32.0
 40
32.0
 40
33.0
 40
33.0
 40
33.0
 40
34.0
 40
34.0
 40
34.0
 40
35.0
 40
35.0
 40
35.0
 40
36.0
 40
36.0
 40
36.0
 40
37.0
 40
37.0
 40
37.0
 40
38.0
 40
38.0
 40
38.0
 40
39.0
 40
39.0
 40
39.0
 40
40.0
 40
40.0
 40
40.0
 40
41.0
 40
41.0
 40
41.0
 40
42.0
 40
42.0
 40
42.0
 40
43.0
 40
43.0
 40
43.0
 40
44.0
 40
44.0
 40
44.0
 40
45.0
 40
45.0
 40
45.0
 40
46.0
 40
46.0
 40
46.0
 40
47.0
 40
47.0
 40
47.0
 40
48.0
 40
48.0
 40
48.0
 40
49.0
 40
49.0
 40
49.0
 40
50.0
 40
50.0
 40
50.0
 40
51.0
 40
51.0
 40
51.0
 40
52.0
 40
52.0
 40
52.0
 40
53.0
 40
53.0
 40
53.0
 40
54.0
 40
54.0
 40
54.0
 40
55.0
 40
55.0
 40
55.0
 40
56.0
 40
56.0
 40
56.0
 40
57.0
 40
57.0
 40
57.0
 40
58.0
 40
58.0
 40
58.0
 40
59.0
 40
59.0
 40
59.0
 40
59.0
 10
126.9813964526296
 20
-149.7793158262704
 10
126.9813964526296
 20
-149.7793158262704
 10
126.4239800031162
 20
-149.7793158262704
 10
126.4239800031162
 20
-149.7793158262704
 10
126.2372558278157
 20
-149.7793158262704
 10
126.0481200856754
 20
-149.7837944504013
 10
125.8610514008264
 20
-149.7961967941482
 10
125.8610514008264
 20
-149.7961967941482
 10
125.8610514008264
 20
-149.5891465554846
 10
125.8610514008264
 20
-149.5891465554846
 10
126.055699295743
 20
-149.6015488992316
 10
126.3388861446305
 20
-149.6060275233624
 10
126.4239800031162
 20
-149.6060275233624
 10
126.4239800031162
 20
-149.6060275233624
 10
126.6169053502902
 20
-149.6060275233624
 10
126.6169053502902
 20
-149.6060275233624
 10
126.6169053502902
 20
-149.6060275233624
 10
126.6169053502902
 20
-149.4640895893701
 10
126.6169053502902
 20
-149.4640895893701
 10
126.6169053502902
 20
-149.4640895893701
 10
126.4760009449435
 20
-149.4640895893701
 10
126.4760009449435
 20
-149.4640895893701
 10
126.3316514441115
 20
-149.4640895893701
 10
126.186957433731
 20
-149.4685682135009
 10
126.042607932899
 20
-149.4833821240875
 10
126.042607932899
 20
-149.4833821240875
 10
126.042607932899
 20
-149.2739203185843
 10
126.042607932899
 20
-149.2739203185843
 10
126.1928140960559
 20
-149.2887342291709
 10
126.4095106020782
 20
-149.2928683437532
 10
126.4760009449435
 20
-149.2928683437532
 10
126.4760009449435
 20
-149.2928683437532
 10
126.6169053502902
 20
-149.2928683437532
 10
126.6169053502902
 20
-149.2928683437532
 10
126.6131157452564
 20
-149.2208658481114
 10
126.6131157452564
 20
-149.214664676238
 10
126.60760359248
 20
-149.1616102057651
 10
126.60760359248
 20
-149.1616102057651
 10
126.7295599726579
 20
-149.1764241163517
 10
126.7295599726579
 20
-149.1764241163517
 10
126.7295599726579
 20
-149.1764241163517
 10
126.6427435664296
 20
-149.0052028707348
 10
126.6427435664296
 20
-149.0052028707348
 10
126.6833956931555
 20
-149.0114040426082
 10
126.7481634882782
 20
-149.0200167813214
 10
126.7629773988648
 20
-149.0200167813214
 10
126.8074191306245
 20
-149.0200167813214
 10
126.8222330412111
 20
-148.9986571893128
 10
126.8222330412111
 20
-148.9418131138062
 10
126.8222330412111
 20
-148.9418131138062
 10
126.8222330412111
 20
-148.8041815491705
 10
126.8222330412111
 20
-148.8041815491705
 10
126.8222330412111
 20
-148.8041815491705
 10
126.7295599726579
 20
-148.8041815491705
 10
126.7295599726579
 20
-148.8041815491705
 10
126.6131157452564
 20
-148.8041815491705
 10
126.4760009449435
 20
-148.8041815491705
 10
126.3685139658037
 20
-148.8169284024659
 10
126.3685139658037
 20
-148.8169284024659
 10
126.3685139658037
 20
-148.6265868769058
 10
126.3685139658037
 20
-148.6265868769058
 10
126.5149305239268
 20
-148.6434678447835
 10
126.7168131193624
 20
-148.6455349020747
 10
126.7295599726579
 20
-148.6455349020747
 10
126.7295599726579
 20
-148.6455349020747
 10
126.8222330412111
 20
-148.6455349020747
 10
126.8222330412111
 20
-148.6455349020747
 10
126.8222330412111
 20
-148.6455349020747
 10
126.8222330412111
 20
-148.5144490188609
 10
126.8222330412111
 20
-148.5144490188609
 10
126.8222330412111
 20
-148.5144490188609
 10
126.7888156150042
 20
-148.5144490188609
 10
126.7888156150042
 20
-148.5144490188609
 10
126.7498860360208
 20
-148.5144490188609
 10
126.6406765091384
 20
-148.5185831334433
 10
126.5631618607203
 20
-148.5270236173821
 10
126.5631618607203
 20
-148.5270236173821
 10
126.5631618607203
 20
-148.4467528925758
 10
126.5631618607203
 20
-148.4467528925758
 10
126.5166530716694
 20
-148.4848211976878
 10
126.4946044605638
 20
-148.4996351082744
 10
126.4573974293231
 20
-148.5228895027998
 10
126.4573974293231
 20
-148.5228895027998
 10
126.2927218651282
 20
-148.3938706768772
 10
126.2927218651282
 20
-148.3938706768772
 10
126.3612792652847
 20
-148.3599364863475
 10
126.4983940655976
 20
-148.2965467294189
 10
126.635164356362
 20
-148.1527139929097
 10
126.7075113615523
 20
-148.0743380706203
 10
126.7760687617087
 20
-147.9897609764574
 10
126.8222330412111
 20
-147.8883029144168
 10
126.8222330412111
 20
-147.8883029144168
 10
127.0075791783175
 20
-147.9496256140542
 10
127.0075791783175
 20
-147.9496256140542
 10
127.0241156366467
 20
-147.9558267859277
 10
127.0334173944569
 20
-147.9644395246408
 10
127.0334173944569
 20
-147.977014123162
 10
127.0334173944569
 20
-147.994067345814
 10
127.0223930889041
 20
-148.0002685176874
 10
126.99999996825
 20
-148.0130153709828
 10
127.0702799161491
 20
-148.1103393184412
 10
127.2129068692384
 20
-148.2076632658994
 10
127.2425346904116
 20
-148.2266112910683
 10
127.3741373379481
 20
-148.3154947545878
 10
127.4740451070204
 20
-148.3430555184698
 10
127.5426025071768
 20
-148.3620035436387
 10
127.5426025071768
 20
-148.3620035436387
 10
127.4389051330708
 20
-148.5313299867387
 10
127.4389051330708
 20
-148.5313299867387
 10
127.3648355801379
 20
-148.5017021655655
 10
127.3203938483782
 20
-148.4827541403967
 10
127.2166964742722
 20
-148.4171250714027
 10
127.2166964742722
 20
-148.4171250714027
 10
127.2166964742722
 20
-148.5270236173821
 10
127.2166964742722
 20
-148.5270236173821
 10
127.1443494690819
 20
-148.5185831334433
 10
127.0334173944569
 20
-148.5144490188609
 10
126.986908605406
 20
-148.5144490188609
 10
126.986908605406
 20
-148.5144490188609
 10
126.986908605406
 20
-148.6455349020747
 10
126.986908605406
 20
-148.6455349020747
 10
126.986908605406
 20
-148.6455349020747
 10
127.0926730368032
 20
-148.6455349020747
 10
127.0926730368032
 20
-148.6455349020747
 10
127.0943955845458
 20
-148.6455349020747
 10
127.2983452372726
 20
-148.6434678447835
 10
127.4537190436574
 20
-148.6265868769058
 10
127.4537190436574
 20
-148.6265868769058
 10
127.4537190436574
 20
-148.8169284024659
 10
127.4537190436574
 20
-148.8169284024659
 10
127.3407199117412
 20
-148.8041815491705
 10
127.2036051114282
 20
-148.8041815491705
 10
127.0926730368032
 20
-148.8041815491705
 10
127.0926730368032
 20
-148.8041815491705
 10
126.986908605406
 20
-148.8041815491705
 10
126.986908605406
 20
-148.8041815491705
 10
126.986908605406
 20
-148.8041815491705
 10
126.986908605406
 20
-149.0303520677771
 10
126.986908605406
 20
-149.0303520677771
 10
126.986908605406
 20
-149.1488633524697
 10
126.9648599943004
 20
-149.1850368550648
 10
126.8243000985022
 20
-149.1998507656514
 10
126.8277451939875
 20
-149.2187987908203
 10
126.8222330412111
 20
-149.2294785868246
 10
126.7888156150042
 20
-149.2525607265757
 10
126.7870930672615
 20
-149.2715087517446
 10
126.7870930672615
 20
-149.2780544331666
 10
126.7853705195189
 20
-149.2928683437532
 10
126.7853705195189
 20
-149.2928683437532
 10
126.9056043519541
 20
-149.2928683437532
 10
126.9056043519541
 20
-149.2928683437532
 10
127.0499538527861
 20
-149.2928683437532
 10
127.1963704109092
 20
-149.2887342291709
 10
127.3424424594838
 20
-149.2739203185843
 10
127.3424424594838
 20
-149.2739203185843
 10
127.3424424594838
 20
-149.4809705572478
 10
127.3424424594838
 20
-149.4809705572478
 10
127.1536512268921
 20
-149.4640895893701
 10
126.9221408102833
 20
-149.4640895893701
 10
126.9056043519541
 20
-149.4640895893701
 10
126.9056043519541
 20
-149.4640895893701
 10
126.7833034622278
 20
-149.4640895893701
 10
126.7833034622278
 20
-149.4640895893701
 10
126.7833034622278
 20
-149.4640895893701
 10
126.7833034622278
 20
-149.6060275233624
 10
126.7833034622278
 20
-149.6060275233624
 10
126.7833034622278
 20
-149.6060275233624
 10
126.9813964526296
 20
-149.6060275233624
 10
126.9813964526296
 20
-149.6060275233624
 10
127.1705321947699
 20
-149.6060275233624
 10
127.3610459751042
 20
-149.6015488992316
 10
127.5498372076959
 20
-149.5891465554846
 10
127.5498372076959
 20
-149.5891465554846
 10
127.5498372076959
 20
-149.7961967941482
 10
127.5498372076959
 20
-149.7961967941482
 10
127.303857390049
 20
-149.7793158262704
 10
127.0020670255411
 20
-149.7793158262704
 10
126.9813964526296
 20
-149.7793158262704
 97
        0
 97
        1
330
86
 92
        1
 93
        1
 72
     4
 94
        3
 73
     0
 74
     0
 95
       17
 96
       13
 40
0.0
 40
0.0
 40
0.0
 40
0.0
 40
1.0
 40
1.0
 40
1.0
 40
2.0
 40
2.0
 40
2.0
 40
3.0
 40
3.0
 40
3.0
 40
4.0
 40
4.0
 40
4.0
 40
4.0
 10
126.0667236012958
 20
-148.601093170315
 10
125.9740505327426
 20
-148.4953287389178
 10
125.9037705848435
 20
-148.4572604338058
 10
125.8224663313916
 20
-148.4255655553415
 10
125.8224663313916
 20
-148.4255655553415
 10
125.91858449543
 20
-148.260545481598
 10
125.91858449543
 20
-148.260545481598
 10
126.0036783539157
 20
-148.3029201560666
 10
126.1094427853129
 20
-148.3811238235818
 10
126.1556070648153
 20
-148.4360730965715
 10
126.1556070648153
 20
-148.4360730965715
 10
126.0667236012958
 20
-148.601093170315
 10
126.0667236012958
 20
-148.601093170315
 97
        0
 97
        1
330
87
 75
     2
 76
     1
 98
        1
 10
0.0
 20
0.0
450
        0
451
        0
460
0.0
461
0.0
452
        0
462
0.0
453
        0
470

  0
SPLINE
  5
89
330
7D
100
AcDbEntity
  8
レイヤー 1
100
AcDbSpline
210
0.0
220
0.0
230
1.0
 70
    11
 71
     3
 72
    17
 73
    13
 74
     0
 42
0.0000000001
 43
0.0000000001
 40
0.0
 40
0.0
 40
0.0
 40
0.0
 40
1.0
 40
1.0
 40
1.0
 40
2.0
 40
2.0
 40
2.0
 40
3.0
 40
3.0
 40
3.0
 40
4.0
 40
4.0
 40
4.0
 40
4.0
 10
128.8376139000822
 20
-149.1488633524697
 30
0.0
 10
128.8376139000822
 20
-149.1488633524697
 30
0.0
 10
128.6598469730434
 20
-149.1488633524697
 30
0.0
 10
128.6598469730434
 20
-149.1488633524697
 30
0.0
 10
128.6839626414401
 20
-149.208118994816
 30
0.0
 10
128.7318494686851
 20
-149.2801214904577
 30
0.0
 10
128.7559651370818
 20
-149.3097493116309
 30
0.0
 10
128.7800808054786
 20
-149.2949354010443
 30
0.0
 10
128.8799885745508
 20
-149.2315456441157
 30
0.0
 10
128.9595702802601
 20
-149.1488633524697
 30
0.0
 10
128.9595702802601
 20
-149.1488633524697
 30
0.0
 10
128.8376139000822
 20
-149.1488633524697
 30
0.0
 10
128.8376139000822
 20
-149.1488633524697
 30
0.0
  0
SPLINE
  5
8A
330
7D
100
AcDbEntity
  8
レイヤー 1
100
AcDbSpline
210
0.0
220
0.0
230
1.0
 70
     9
 71
     3
 72
    83
 73
    79
 74
     0
 42
0.0000000001
 43
0.0000000001
 40
0.0
 40
0.0
 40
0.0
 40
0.0
 40
1.0
 40
1.0
 40
1.0
 40
2.0
 40
2.0
 40
2.0
 40
3.0
 40
3.0
 40
3.0
 40
4.0
 40
4.0
 40
4.0
 40
5.0
 40
5.0
 40
5.0
 40
6.0
 40
6.0
 40
6.0
 40
7.0
 40
7.0
 40
7.0
 40
8.0
 40
8.0
 40
8.0
 40
9.0
 40
9.0
 40
9.0
 40
10.0
 40
10.0
 40
10.0
 40
11.0
 40
11.0
 40
11.0
 40
12.0
 40
12.0
 40
12.0
 40
13.0
 40
13.0
 40
13.0
 40
14.0
 40
14.0
 40
14.0
 40
15.0
 40
15.0
 40
15.0
 40
16.0
 40
16.0
 40
16.0
 40
17.0
 40
17.0
 40
17.0
 40
18.0
 40
18.0
 40
18.0
 40
19.0
 40
19.0
 40
19.0
 40
20.0
 40
20.0
 40
20.0
 40
21.0
 40
21.0
 40
21.0
 40
22.0
 40
22.0
 40
22.0
 40
23.0
 40
23.0
 40
23.0
 40
24.0
 40
24.0
 40
24.0
 40
25.0
 40
25.0
 40
25.0
 40
26.0
 40
26.0
 40
26.0
 40
26.0
 10
129.0522433488133
 20
-148.3514960024086
 30
0.0
 10
129.0522433488133
 20
-148.3514960024086
 30
0.0
 10
128.9671494903277
 20
-148.3514960024086
 30
0.0
 10
128.9671494903277
 20
-148.3514960024086
 30
0.0
 10
128.9671494903277
 20
-148.3514960024086
 30
0.0
 10
128.9671494903277
 20
-148.5990261130238
 30
0.0
 10
128.9671494903277
 20
-148.5990261130238
 30
0.0
 10
128.9671494903277
 20
-148.5990261130238
 30
0.0
 10
129.0394964955179
 20
-148.5990261130238
 30
0.0
 10
129.0394964955179
 20
-148.5990261130238
 30
0.0
 10
129.096685080573
 20
-148.5990261130238
 30
0.0
 10
129.2189859702994
 20
-148.5947197436673
 30
0.0
 10
129.3061468860762
 20
-148.5862792597284
 30
0.0
 10
129.3061468860762
 20
-148.5862792597284
 30
0.0
 10
129.3061468860762
 20
-148.7661132440585
 30
0.0
 10
129.3061468860762
 20
-148.7661132440585
 30
0.0
 10
129.2244981230758
 20
-148.7576727601196
 30
0.0
 10
129.0932399850878
 20
-148.7535386455373
 30
0.0
 10
129.0394964955179
 20
-148.7535386455373
 30
0.0
 10
129.0394964955179
 20
-148.7535386455373
 30
0.0
 10
128.7728461049596
 20
-148.7535386455373
 30
0.0
 10
128.7728461049596
 20
-148.7535386455373
 30
0.0
 10
128.7263373159087
 20
-148.7535386455373
 30
0.0
 10
128.5985242734059
 20
-148.7576727601196
 30
0.0
 10
128.5061957144012
 20
-148.7661132440585
 30
0.0
 10
128.5061957144012
 20
-148.7661132440585
 30
0.0
 10
128.5061957144012
 20
-148.5862792597284
 30
0.0
 10
128.5061957144012
 20
-148.5862792597284
 30
0.0
 10
128.5930121206295
 20
-148.5947197436673
 30
0.0
 10
128.7153130103559
 20
-148.5990261130238
 30
0.0
 10
128.7728461049596
 20
-148.5990261130238
 30
0.0
 10
128.7728461049596
 20
-148.5990261130238
 30
0.0
 10
128.8114311743943
 20
-148.5990261130238
 30
0.0
 10
128.8114311743943
 20
-148.5990261130238
 30
0.0
 10
128.8114311743943
 20
-148.5990261130238
 30
0.0
 10
128.8114311743943
 20
-148.3514960024086
 30
0.0
 10
128.8114311743943
 20
-148.3514960024086
 30
0.0
 10
128.8114311743943
 20
-148.3514960024086
 30
0.0
 10
128.7466633792716
 20
-148.3514960024086
 30
0.0
 10
128.7466633792716
 20
-148.3514960024086
 30
0.0
 10
128.6929198897018
 20
-148.3514960024086
 30
0.0
 10
128.5468478411271
 20
-148.3558023717652
 30
0.0
 10
128.4414279192785
 20
-148.3642428557041
 30
0.0
 10
128.4414279192785
 20
-148.3642428557041
 30
0.0
 10
128.4414279192785
 20
-148.1864759286652
 30
0.0
 10
128.4414279192785
 20
-148.1864759286652
 30
0.0
 10
128.5413356883507
 20
-148.1928493553129
 30
0.0
 10
128.6801730364063
 20
-148.1971557246694
 30
0.0
 10
128.7466633792716
 20
-148.1971557246694
 30
0.0
 10
128.7466633792716
 20
-148.1971557246694
 30
0.0
 10
128.8097086266517
 20
-148.1971557246694
 30
0.0
 10
128.8097086266517
 20
-148.1971557246694
 30
0.0
 10
128.8059190216179
 20
-148.0447102494471
 30
0.0
 10
128.8041964738753
 20
-148.0109483136917
 30
0.0
 10
128.7986843210989
 20
-147.9177584808157
 30
0.0
 10
128.7986843210989
 20
-147.9177584808157
 30
0.0
 10
128.9836859486569
 20
-147.9411851301154
 30
0.0
 10
128.9836859486569
 20
-147.9411851301154
 30
0.0
 10
129.006079069311
 20
-147.9432521874065
 30
0.0
 10
129.026405132674
 20
-147.9473863019888
 30
0.0
 10
129.026405132674
 20
-147.9706406965143
 30
0.0
 10
129.026405132674
 20
-148.0025078297528
 30
0.0
 10
128.9874755536906
 20
-148.0193887976305
 30
0.0
 10
128.9671494903277
 20
-148.0278292815694
 30
0.0
 10
128.9671494903277
 20
-148.0278292815694
 30
0.0
 10
128.9671494903277
 20
-148.1971557246694
 30
0.0
 10
128.9671494903277
 20
-148.1971557246694
 30
0.0
 10
128.9671494903277
 20
-148.1971557246694
 30
0.0
 10
129.0522433488133
 20
-148.1971557246694
 30
0.0
 10
129.0522433488133
 20
-148.1971557246694
 30
0.0
 10
129.1190782012272
 20
-148.1971557246694
 30
0.0
 10
129.2579155492827
 20
-148.1928493553129
 30
0.0
 10
129.3598903756461
 20
-148.1864759286652
 30
0.0
 10
129.3598903756461
 20
-148.1864759286652
 30
0.0
 10
129.3598903756461
 20
-148.3642428557041
 30
0.0
 10
129.3598903756461
 20
-148.3642428557041
 30
0.0
 10
129.2651502498017
 20
-148.3578694290564
 30
0.0
 10
129.1135660484508
 20
-148.3514960024086
 30
0.0
 10
129.0522433488133
 20
-148.3514960024086
 30
0.0
  0
SPLINE
  5
8B
330
7D
100
AcDbEntity
  8
レイヤー 1
100
AcDbSpline
210
0.0
220
0.0
230
1.0
 70
     9
 71
     3
 72
    38
 73
    34
 74
     0
 42
0.0000000001
 43
0.0000000001
 40
0.0
 40
0.0
 40
0.0
 40
0.0
 40
1.0
 40
1.0
 40
1.0
 40
2.0
 40
2.0
 40
2.0
 40
3.0
 40
3.0
 40
3.0
 40
4.0
 40
4.0
 40
4.0
 40
5.0
 40
5.0
 40
5.0
 40
6.0
 40
6.0
 40
6.0
 40
7.0
 40
7.0
 40
7.0
 40
8.0
 40
8.0
 40
8.0
 40
9.0
 40
9.0
 40
9.0
 40
10.0
 40
10.0
 40
10.0
 40
11.0
 40
11.0
 40
11.0
 40
11.0
 10
128.3504773984679
 20
-148.0298963388606
 30
0.0
 10
128.3487548507253
 20
-148.0765773826857
 30
0.0
 10
128.3466877934341
 20
-148.1928493553129
 30
0.0
 10
128.3466877934341
 20
-148.2372910870726
 30
0.0
 10
128.3466877934341
 20
-148.2372910870726
 30
0.0
 10
128.3466877934341
 20
-148.5842122024373
 30
0.0
 10
128.3466877934341
 20
-148.5842122024373
 30
0.0
 10
128.3466877934341
 20
-148.6710286086656
 30
0.0
 10
128.3487548507253
 20
-148.8126220331093
 30
0.0
 10
128.3580566085355
 20
-148.9332003750931
 30
0.0
 10
128.3580566085355
 20
-148.9332003750931
 30
0.0
 10
128.1913139870494
 20
-148.9332003750931
 30
0.0
 10
128.1913139870494
 20
-148.9332003750931
 30
0.0
 10
128.1951035920831
 20
-148.8698106181645
 30
0.0
 10
128.1985486875684
 20
-148.8169284024659
 30
0.0
 10
128.2006157448595
 20
-148.7619791294761
 30
0.0
 10
128.2023382926022
 20
-148.639161475427
 30
0.0
 10
128.2044053498933
 20
-148.6243475648404
 30
0.0
 10
128.2044053498933
 20
-148.5799058330807
 30
0.0
 10
128.2044053498933
 20
-148.5799058330807
 30
0.0
 10
128.2044053498933
 20
-148.2584784243069
 30
0.0
 10
128.2044053498933
 20
-148.2584784243069
 30
0.0
 10
128.2044053498933
 20
-148.2033568965429
 30
0.0
 10
128.193036534792
 20
-147.9644395246408
 30
0.0
 10
128.1913139870494
 20
-147.9136243662334
 30
0.0
 10
128.1913139870494
 20
-147.9136243662334
 30
0.0
 10
128.3670138567971
 20
-147.9411851301154
 30
0.0
 10
128.3670138567971
 20
-147.9411851301154
 30
0.0
 10
128.3856173724175
 20
-147.9432521874065
 30
0.0
 10
128.413522645848
 20
-147.9473863019888
 30
0.0
 10
128.413522645848
 20
-147.9728800085797
 30
0.0
 10
128.413522645848
 20
-148.0002685176874
 30
0.0
 10
128.3690809140883
 20
-148.0214558549217
 30
0.0
 10
128.3504773984679
 20
-148.0298963388606
 30
0.0
  0
SPLINE
  5
8C
330
7D
100
AcDbEntity
  8
レイヤー 1
100
AcDbSpline
210
0.0
220
0.0
230
1.0
 70
     9
 71
     3
 72
    17
 73
    13
 74
     0
 42
0.0000000001
 43
0.0000000001
 40
0.0
 40
0.0
 40
0.0
 40
0.0
 40
1.0
 40
1.0
 40
1.0
 40
2.0
 40
2.0
 40
2.0
 40
3.0
 40
3.0
 40
3.0
 40
4.0
 40
4.0
 40
4.0
 40
4.0
 10
128.0283609705971
 20
-148.3346150345309
 30
0.0
 10
128.0025227544577
 20
-148.2944796721278
 30
0.0
 10
127.9432671121114
 20
-148.1971557246694
 30
0.0
 10
127.7837591911443
 20
-148.0870849239157
 30
0.0
 10
127.7837591911443
 20
-148.0870849239157
 30
0.0
 10
127.8950357753179
 20
-147.9537597286365
 30
0.0
 10
127.8950357753179
 20
-147.9537597286365
 30
0.0
 10
128.0579887917702
 20
-148.0553900454514
 30
0.0
 10
128.1079426763063
 20
-148.1442735089709
 30
0.0
 10
128.1320583447031
 20
-148.1864759286652
 30
0.0
 10
128.1320583447031
 20
-148.1864759286652
 30
0.0
 10
128.0283609705971
 20
-148.3346150345309
 30
0.0
 10
128.0283609705971
 20
-148.3346150345309
 30
0.0
  0
SPLINE
  5
8D
330
7D
100
AcDbEntity
  8
レイヤー 1
100
AcDbSpline
210
0.0
220
0.0
230
1.0
 70
     9
 71
     3
 72
    23
 73
    19
 74
     0
 42
0.0000000001
 43
0.0000000001
 40
0.0
 40
0.0
 40
0.0
 40
0.0
 40
1.0
 40
1.0
 40
1.0
 40
2.0
 40
2.0
 40
2.0
 40
3.0
 40
3.0
 40
3.0
 40
4.0
 40
4.0
 40
4.0
 40
5.0
 40
5.0
 40
5.0
 40
6.0
 40
6.0
 40
6.0
 40
6.0
 10
127.8950357753179
 20
-148.8000474345882
 30
0.0
 10
127.8802218647313
 20
-148.8401827969913
 30
0.0
 10
127.8747097119549
 20
-148.8570637648691
 30
0.0
 10
127.8561061963346
 20
-148.8570637648691
 30
0.0
 10
127.8430148334906
 20
-148.8570637648691
 30
0.0
 10
127.8337130756804
 20
-148.8401827969913
 30
0.0
 10
127.828200922904
 20
-148.8274359436959
 30
0.0
 10
127.828200922904
 20
-148.8274359436959
 30
0.0
 10
127.7413845166757
 20
-148.6624158699525
 30
0.0
 10
127.7413845166757
 20
-148.6624158699525
 30
0.0
 10
127.8302679801952
 20
-148.6307209914881
 30
0.0
 10
127.9615261181832
 20
-148.5757717184984
 30
0.0
 10
128.1358479497368
 20
-148.4128187020461
 30
0.0
 10
128.1358479497368
 20
-148.4128187020461
 30
0.0
 10
128.185801834273
 20
-148.5862792597284
 30
0.0
 10
128.185801834273
 20
-148.5862792597284
 30
0.0
 10
128.1041530712726
 20
-148.6687892966002
 30
0.0
 10
128.0266384228544
 20
-148.7259778816553
 30
0.0
 10
127.8950357753179
 20
-148.8000474345882
 30
0.0
  0
SPLINE
  5
8E
330
7D
100
AcDbEntity
  8
レイヤー 1
100
AcDbSpline
210
0.0
220
0.0
230
1.0
 70
     9
 71
     3
 72
   113
 73
   109
 74
     0
 42
0.0000000001
 43
0.0000000001
 40
0.0
 40
0.0
 40
0.0
 40
0.0
 40
1.0
 40
1.0
 40
1.0
 40
2.0
 40
2.0
 40
2.0
 40
3.0
 40
3.0
 40
3.0
 40
4.0
 40
4.0
 40
4.0
 40
5.0
 40
5.0
 40
5.0
 40
6.0
 40
6.0
 40
6.0
 40
7.0
 40
7.0
 40
7.0
 40
8.0
 40
8.0
 40
8.0
 40
9.0
 40
9.0
 40
9.0
 40
10.0
 40
10.0
 40
10.0
 40
11.0
 40
11.0
 40
11.0
 40
12.0
 40
12.0
 40
12.0
 40
13.0
 40
13.0
 40
13.0
 40
14.0
 40
14.0
 40
14.0
 40
15.0
 40
15.0
 40
15.0
 40
16.0
 40
16.0
 40
16.0
 40
17.0
 40
17.0
 40
17.0
 40
18.0
 40
18.0
 40
18.0
 40
19.0
 40
19.0
 40
19.0
 40
20.0
 40
20.0
 40
20.0
 40
21.0
 40
21.0
 40
21.0
 40
22.0
 40
22.0
 40
22.0
 40
23.0
 40
23.0
 40
23.0
 40
24.0
 40
24.0
 40
24.0
 40
25.0
 40
25.0
 40
25.0
 40
26.0
 40
26.0
 40
26.0
 40
27.0
 40
27.0
 40
27.0
 40
28.0
 40
28.0
 40
28.0
 40
29.0
 40
29.0
 40
29.0
 40
30.0
 40
30.0
 40
30.0
 40
31.0
 40
31.0
 40
31.0
 40
32.0
 40
32.0
 40
32.0
 40
33.0
 40
33.0
 40
33.0
 40
34.0
 40
34.0
 40
34.0
 40
35.0
 40
35.0
 40
35.0
 40
36.0
 40
36.0
 40
36.0
 40
36.0
 10
129.0188259226064
 20
-149.1509304097609
 30
0.0
 10
129.0188259226064
 20
-149.1509304097609
 30
0.0
 10
129.1059868383832
 20
-149.2504936692846
 30
0.0
 10
129.1059868383832
 20
-149.2504936692846
 30
0.0
 10
129.1152885961934
 20
-149.2611734652889
 30
0.0
 10
129.1245903540035
 20
-149.2739203185843
 30
0.0
 10
129.1245903540035
 20
-149.2887342291709
 30
0.0
 10
129.1245903540035
 20
-149.290801286462
 30
0.0
 10
129.1245903540035
 20
-149.3204291076351
 30
0.0
 10
129.0911729277966
 20
-149.3204291076351
 30
0.0
 10
129.0839382272776
 20
-149.3204291076351
 30
0.0
 10
129.0484537437795
 20
-149.3159504835043
 30
0.0
 10
129.0429415910032
 20
-149.3159504835043
 30
0.0
 10
129.0078016170536
 20
-149.3479898715172
 30
0.0
 10
128.9671494903277
 20
-149.3817518072726
 30
0.0
 10
128.8799885745508
 20
-149.4389403923277
 30
0.0
 10
129.0078016170536
 20
-149.5467718810161
 30
0.0
 10
129.1466389651092
 20
-149.6039604660712
 30
0.0
 10
129.3857285917855
 20
-149.6418565164089
 30
0.0
 10
129.3857285917855
 20
-149.6418565164089
 30
0.0
 10
129.254125944249
 20
-149.8175563861567
 30
0.0
 10
129.254125944249
 20
-149.8175563861567
 30
0.0
 10
129.0246825849313
 20
-149.745553890515
 30
0.0
 10
128.8875677846184
 20
-149.6566704269955
 30
0.0
 10
128.8207329322045
 20
-149.6039604660712
 30
0.0
 10
128.6894747942165
 20
-149.5023301492564
 30
0.0
 10
128.5633842994563
 20
-149.339377132804
 30
0.0
 10
128.496893956591
 20
-149.1743570590606
 30
0.0
 10
128.4376383142447
 20
-149.2398138732803
 30
0.0
 10
128.372870519122
 20
-149.2928683437532
 30
0.0
 10
128.3043131189655
 20
-149.3414441900952
 30
0.0
 10
128.3043131189655
 20
-149.3414441900952
 30
0.0
 10
128.3043131189655
 20
-149.593280670067
 30
0.0
 10
128.3043131189655
 20
-149.593280670067
 30
0.0
 10
128.4469400720549
 20
-149.5677869634761
 30
0.0
 10
128.6098930885072
 20
-149.5233452317164
 30
0.0
 10
128.6653591258198
 20
-149.5085313211298
 30
0.0
 10
128.6653591258198
 20
-149.5085313211298
 30
0.0
 10
128.6395209096804
 20
-149.6776855094556
 30
0.0
 10
128.6395209096804
 20
-149.6776855094556
 30
0.0
 10
128.6374538523892
 20
-149.6776855094556
 30
0.0
 10
128.62091739406
 20
-149.6842311908775
 30
0.0
 10
128.6191948463174
 20
-149.6842311908775
 30
0.0
 10
128.4448730147638
 20
-149.7221272412153
 30
0.0
 10
128.1671983186526
 20
-149.7879285649836
 30
0.0
 10
127.9949435443901
 20
-149.8237575580301
 30
0.0
 10
127.98564178658
 20
-149.8406385259079
 30
0.0
 10
127.965315723217
 20
-149.8723334043722
 30
0.0
 10
127.944989659854
 20
-149.8723334043722
 30
0.0
 10
127.9208739914573
 20
-149.8723334043722
 30
0.0
 10
127.9170843864235
 20
-149.8533853792033
 30
0.0
 10
127.9153618386809
 20
-149.8344373540344
 30
0.0
 10
127.9153618386809
 20
-149.8344373540344
 30
0.0
 10
127.8929687180268
 20
-149.6608045415779
 30
0.0
 10
127.8929687180268
 20
-149.6608045415779
 30
0.0
 10
127.958081022698
 20
-149.6525363124133
 30
0.0
 10
128.0524766389938
 20
-149.6397894591178
 30
0.0
 10
128.1468722552897
 20
-149.6187743766578
 30
0.0
 10
128.1468722552897
 20
-149.6187743766578
 30
0.0
 10
128.1468722552897
 20
-149.4410074496189
 30
0.0
 10
128.1468722552897
 20
-149.4410074496189
 30
0.0
 10
128.0207817605295
 20
-149.5130099452606
 30
0.0
 10
127.937754959335
 20
-149.5422932568853
 30
0.0
 10
127.7930609489545
 20
-149.5719210780584
 30
0.0
 10
127.7930609489545
 20
-149.5719210780584
 30
0.0
 10
127.6876410271059
 20
-149.4027668897326
 30
0.0
 10
127.6876410271059
 20
-149.4027668897326
 30
0.0
 10
127.965315723217
 20
-149.3752061258506
 30
0.0
 10
128.1337808924457
 20
-149.2821885477489
 30
0.0
 10
128.289499208379
 20
-149.1488633524697
 30
0.0
 10
128.1616861658762
 20
-149.1488633524697
 30
0.0
 10
127.8988253803517
 20
-149.1533419766005
 30
0.0
 10
127.7265706060892
 20
-149.159543148474
 30
0.0
 10
127.7265706060892
 20
-149.159543148474
 30
0.0
 10
127.7265706060892
 20
-148.9817762214351
 30
0.0
 10
127.7265706060892
 20
-148.9817762214351
 30
0.0
 10
127.861618349111
 20
-148.9883219028571
 30
0.0
 10
128.1210340391503
 20
-148.9945230747305
 30
0.0
 10
128.2819199983115
 20
-148.9945230747305
 30
0.0
 10
128.2819199983115
 20
-148.9945230747305
 30
0.0
 10
128.4672661354179
 20
-148.9945230747305
 30
0.0
 10
128.4672661354179
 20
-148.9945230747305
 30
0.0
 10
128.4672661354179
 20
-148.8994384393376
 30
0.0
 10
128.4651990781267
 20
-148.8486232809302
 30
0.0
 10
128.4596869253503
 20
-148.8021144918793
 30
0.0
 10
128.4596869253503
 20
-148.8021144918793
 30
0.0
 10
128.6488226674906
 20
-148.818995459757
 30
0.0
 10
128.6488226674906
 20
-148.818995459757
 30
0.0
 10
128.6911973419591
 20
-148.8233018291136
 30
0.0
 10
128.6987765520267
 20
-148.8381157397002
 30
0.0
 10
128.6987765520267
 20
-148.8529296502868
 30
0.0
 10
128.6987765520267
 20
-148.8780788473291
 30
0.0
 10
128.6839626414401
 20
-148.8866915860422
 30
0.0
 10
128.6395209096804
 20
-148.9121852926331
 30
0.0
 10
128.6374538523892
 20
-148.9373344896754
 30
0.0
 10
128.6374538523892
 20
-148.9438801710973
 30
0.0
 10
128.6357313046466
 20
-148.9945230747305
 30
0.0
 10
128.6357313046466
 20
-148.9945230747305
 30
0.0
 10
128.8376139000822
 20
-148.9945230747305
 30
0.0
 10
128.8376139000822
 20
-148.9945230747305
 30
0.0
 10
128.9819634009142
 20
-148.9945230747305
 30
0.0
 10
129.2375894859198
 20
-148.9883219028571
 30
0.0
 10
129.3950303495957
 20
-148.9817762214351
 30
0.0
 10
129.3950303495957
 20
-148.9817762214351
 30
0.0
 10
129.3950303495957
 20
-149.159543148474
 30
0.0
 10
129.3950303495957
 20
-149.159543148474
 30
0.0
 10
129.2820312176795
 20
-149.1554090338917
 30
0.0
 10
129.2617051543165
 20
-149.1554090338917
 30
0.0
 10
129.0188259226064
 20
-149.1509304097609
 30
0.0
  0
HATCH
  5
8F
330
7D
100
AcDbEntity
  8
レイヤー 1
 62
   250
420
  2299925
440
 33554687
100
AcDbHatch
 10
0.0
 20
0.0
 30
0.0
210
0.0
220
0.0
230
1.0
  2
SOLID
 70
     1
 71
     1
 91
        6
 92
        1
 93
        1
 72
     4
 94
        3
 73
     0
 74
     0
 95
       17
 96
       13
 40
0.0
 40
0.0
 40
0.0
 40
0.0
 40
1.0
 40
1.0
 40
1.0
 40
2.0
 40
2.0
 40
2.0
 40
3.0
 40
3.0
 40
3.0
 40
4.0
 40
4.0
 40
4.0
 40
4.0
 10
128.8376139000822
 20
-149.1488633524697
 10
128.8376139000822
 20
-149.1488633524697
 10
128.6598469730434
 20
-149.1488633524697
 10
128.6598469730434
 20
-149.1488633524697
 10
128.6839626414401
 20
-149.208118994816
 10
128.7318494686851
 20
-149.2801214904577
 10
128.7559651370818
 20
-149.3097493116309
 10
128.7800808054786
 20
-149.2949354010443
 10
128.8799885745508
 20
-149.2315456441157
 10
128.9595702802601
 20
-149.1488633524697
 10
128.9595702802601
 20
-149.1488633524697
 10
128.8376139000822
 20
-149.1488633524697
 10
128.8376139000822
 20
-149.1488633524697
 97
        0
 97
        1
330
89
 92
        1
 93
        1
 72
     4
 94
        3
 73
     0
 74
     0
 95
       83
 96
       79
 40
0.0
 40
0.0
 40
0.0
 40
0.0
 40
1.0
 40
1.0
 40
1.0
 40
2.0
 40
2.0
 40
2.0
 40
3.0
 40
3.0
 40
3.0
 40
4.0
 40
4.0
 40
4.0
 40
5.0
 40
5.0
 40
5.0
 40
6.0
 40
6.0
 40
6.0
 40
7.0
 40
7.0
 40
7.0
 40
8.0
 40
8.0
 40
8.0
 40
9.0
 40
9.0
 40
9.0
 40
10.0
 40
10.0
 40
10.0
 40
11.0
 40
11.0
 40
11.0
 40
12.0
 40
12.0
 40
12.0
 40
13.0
 40
13.0
 40
13.0
 40
14.0
 40
14.0
 40
14.0
 40
15.0
 40
15.0
 40
15.0
 40
16.0
 40
16.0
 40
16.0
 40
17.0
 40
17.0
 40
17.0
 40
18.0
 40
18.0
 40
18.0
 40
19.0
 40
19.0
 40
19.0
 40
20.0
 40
20.0
 40
20.0
 40
21.0
 40
21.0
 40
21.0
 40
22.0
 40
22.0
 40
22.0
 40
23.0
 40
23.0
 40
23.0
 40
24.0
 40
24.0
 40
24.0
 40
25.0
 40
25.0
 40
25.0
 40
26.0
 40
26.0
 40
26.0
 40
26.0
 10
129.0522433488133
 20
-148.3514960024086
 10
129.0522433488133
 20
-148.3514960024086
 10
128.9671494903277
 20
-148.3514960024086
 10
128.9671494903277
 20
-148.3514960024086
 10
128.9671494903277
 20
-148.3514960024086
 10
128.9671494903277
 20
-148.5990261130238
 10
128.9671494903277
 20
-148.5990261130238
 10
128.9671494903277
 20
-148.5990261130238
 10
129.0394964955179
 20
-148.5990261130238
 10
129.0394964955179
 20
-148.5990261130238
 10
129.096685080573
 20
-148.5990261130238
 10
129.2189859702994
 20
-148.5947197436673
 10
129.3061468860762
 20
-148.5862792597284
 10
129.3061468860762
 20
-148.5862792597284
 10
129.3061468860762
 20
-148.7661132440585
 10
129.3061468860762
 20
-148.7661132440585
 10
129.2244981230758
 20
-148.7576727601196
 10
129.0932399850878
 20
-148.7535386455373
 10
129.0394964955179
 20
-148.7535386455373
 10
129.0394964955179
 20
-148.7535386455373
 10
128.7728461049596
 20
-148.7535386455373
 10
128.7728461049596
 20
-148.7535386455373
 10
128.7263373159087
 20
-148.7535386455373
 10
128.5985242734059
 20
-148.7576727601196
 10
128.5061957144012
 20
-148.7661132440585
 10
128.5061957144012
 20
-148.7661132440585
 10
128.5061957144012
 20
-148.5862792597284
 10
128.5061957144012
 20
-148.5862792597284
 10
128.5930121206295
 20
-148.5947197436673
 10
128.7153130103559
 20
-148.5990261130238
 10
128.7728461049596
 20
-148.5990261130238
 10
128.7728461049596
 20
-148.5990261130238
 10
128.8114311743943
 20
-148.5990261130238
 10
128.8114311743943
 20
-148.5990261130238
 10
128.8114311743943
 20
-148.5990261130238
 10
128.8114311743943
 20
-148.3514960024086
 10
128.8114311743943
 20
-148.3514960024086
 10
128.8114311743943
 20
-148.3514960024086
 10
128.7466633792716
 20
-148.3514960024086
 10
128.7466633792716
 20
-148.3514960024086
 10
128.6929198897018
 20
-148.3514960024086
 10
128.5468478411271
 20
-148.3558023717652
 10
128.4414279192785
 20
-148.3642428557041
 10
128.4414279192785
 20
-148.3642428557041
 10
128.4414279192785
 20
-148.1864759286652
 10
128.4414279192785
 20
-148.1864759286652
 10
128.5413356883507
 20
-148.1928493553129
 10
128.6801730364063
 20
-148.1971557246694
 10
128.7466633792716
 20
-148.1971557246694
 10
128.7466633792716
 20
-148.1971557246694
 10
128.8097086266517
 20
-148.1971557246694
 10
128.8097086266517
 20
-148.1971557246694
 10
128.8059190216179
 20
-148.0447102494471
 10
128.8041964738753
 20
-148.0109483136917
 10
128.7986843210989
 20
-147.9177584808157
 10
128.7986843210989
 20
-147.9177584808157
 10
128.9836859486569
 20
-147.9411851301154
 10
128.9836859486569
 20
-147.9411851301154
 10
129.006079069311
 20
-147.9432521874065
 10
129.026405132674
 20
-147.9473863019888
 10
129.026405132674
 20
-147.9706406965143
 10
129.026405132674
 20
-148.0025078297528
 10
128.9874755536906
 20
-148.0193887976305
 10
128.9671494903277
 20
-148.0278292815694
 10
128.9671494903277
 20
-148.0278292815694
 10
128.9671494903277
 20
-148.1971557246694
 10
128.9671494903277
 20
-148.1971557246694
 10
128.9671494903277
 20
-148.1971557246694
 10
129.0522433488133
 20
-148.1971557246694
 10
129.0522433488133
 20
-148.1971557246694
 10
129.1190782012272
 20
-148.1971557246694
 10
129.2579155492827
 20
-148.1928493553129
 10
129.3598903756461
 20
-148.1864759286652
 10
129.3598903756461
 20
-148.1864759286652
 10
129.3598903756461
 20
-148.3642428557041
 10
129.3598903756461
 20
-148.3642428557041
 10
129.2651502498017
 20
-148.3578694290564
 10
129.1135660484508
 20
-148.3514960024086
 10
129.0522433488133
 20
-148.3514960024086
 97
        0
 97
        1
330
8A
 92
        1
 93
        1
 72
     4
 94
        3
 73
     0
 74
     0
 95
       38
 96
       34
 40
0.0
 40
0.0
 40
0.0
 40
0.0
 40
1.0
 40
1.0
 40
1.0
 40
2.0
 40
2.0
 40
2.0
 40
3.0
 40
3.0
 40
3.0
 40
4.0
 40
4.0
 40
4.0
 40
5.0
 40
5.0
 40
5.0
 40
6.0
 40
6.0
 40
6.0
 40
7.0
 40
7.0
 40
7.0
 40
8.0
 40
8.0
 40
8.0
 40
9.0
 40
9.0
 40
9.0
 40
10.0
 40
10.0
 40
10.0
 40
11.0
 40
11.0
 40
11.0
 40
11.0
 10
128.3504773984679
 20
-148.0298963388606
 10
128.3487548507253
 20
-148.0765773826857
 10
128.3466877934341
 20
-148.1928493553129
 10
128.3466877934341
 20
-148.2372910870726
 10
128.3466877934341
 20
-148.2372910870726
 10
128.3466877934341
 20
-148.5842122024373
 10
128.3466877934341
 20
-148.5842122024373
 10
128.3466877934341
 20
-148.6710286086656
 10
128.3487548507253
 20
-148.8126220331093
 10
128.3580566085355
 20
-148.9332003750931
 10
128.3580566085355
 20
-148.9332003750931
 10
128.1913139870494
 20
-148.9332003750931
 10
128.1913139870494
 20
-148.9332003750931
 10
128.1951035920831
 20
-148.8698106181645
 10
128.1985486875684
 20
-148.8169284024659
 10
128.2006157448595
 20
-148.7619791294761
 10
128.2023382926022
 20
-148.639161475427
 10
128.2044053498933
 20
-148.6243475648404
 10
128.2044053498933
 20
-148.5799058330807
 10
128.2044053498933
 20
-148.5799058330807
 10
128.2044053498933
 20
-148.2584784243069
 10
128.2044053498933
 20
-148.2584784243069
 10
128.2044053498933
 20
-148.2033568965429
 10
128.193036534792
 20
-147.9644395246408
 10
128.1913139870494
 20
-147.9136243662334
 10
128.1913139870494
 20
-147.9136243662334
 10
128.3670138567971
 20
-147.9411851301154
 10
128.3670138567971
 20
-147.9411851301154
 10
128.3856173724175
 20
-147.9432521874065
 10
128.413522645848
 20
-147.9473863019888
 10
128.413522645848
 20
-147.9728800085797
 10
128.413522645848
 20
-148.0002685176874
 10
128.3690809140883
 20
-148.0214558549217
 10
128.3504773984679
 20
-148.0298963388606
 97
        0
 97
        1
330
8B
 92
        1
 93
        1
 72
     4
 94
        3
 73
     0
 74
     0
 95
       17
 96
       13
 40
0.0
 40
0.0
 40
0.0
 40
0.0
 40
1.0
 40
1.0
 40
1.0
 40
2.0
 40
2.0
 40
2.0
 40
3.0
 40
3.0
 40
3.0
 40
4.0
 40
4.0
 40
4.0
 40
4.0
 10
128.0283609705971
 20
-148.3346150345309
 10
128.0025227544577
 20
-148.2944796721278
 10
127.9432671121114
 20
-148.1971557246694
 10
127.7837591911443
 20
-148.0870849239157
 10
127.7837591911443
 20
-148.0870849239157
 10
127.8950357753179
 20
-147.9537597286365
 10
127.8950357753179
 20
-147.9537597286365
 10
128.0579887917702
 20
-148.0553900454514
 10
128.1079426763063
 20
-148.1442735089709
 10
128.1320583447031
 20
-148.1864759286652
 10
128.1320583447031
 20
-148.1864759286652
 10
128.0283609705971
 20
-148.3346150345309
 10
128.0283609705971
 20
-148.3346150345309
 97
        0
 97
        1
330
8C
 92
        1
 93
        1
 72
     4
 94
        3
 73
     0
 74
     0
 95
       23
 96
       19
 40
0.0
 40
0.0
 40
0.0
 40
0.0
 40
1.0
 40
1.0
 40
1.0
 40
2.0
 40
2.0
 40
2.0
 40
3.0
 40
3.0
 40
3.0
 40
4.0
 40
4.0
 40
4.0
 40
5.0
 40
5.0
 40
5.0
 40
6.0
 40
6.0
 40
6.0
 40
6.0
 10
127.8950357753179
 20
-148.8000474345882
 10
127.8802218647313
 20
-148.8401827969913
 10
127.8747097119549
 20
-148.8570637648691
 10
127.8561061963346
 20
-148.8570637648691
 10
127.8430148334906
 20
-148.8570637648691
 10
127.8337130756804
 20
-148.8401827969913
 10
127.828200922904
 20
-148.8274359436959
 10
127.828200922904
 20
-148.8274359436959
 10
127.7413845166757
 20
-148.6624158699525
 10
127.7413845166757
 20
-148.6624158699525
 10
127.8302679801952
 20
-148.6307209914881
 10
127.9615261181832
 20
-148.5757717184984
 10
128.1358479497368
 20
-148.4128187020461
 10
128.1358479497368
 20
-148.4128187020461
 10
128.185801834273
 20
-148.5862792597284
 10
128.185801834273
 20
-148.5862792597284
 10
128.1041530712726
 20
-148.6687892966002
 10
128.0266384228544
 20
-148.7259778816553
 10
127.8950357753179
 20
-148.8000474345882
 97
        0
 97
        1
330
8D
 92
        1
 93
        1
 72
     4
 94
        3
 73
     0
 74
     0
 95
      113
 96
      109
 40
0.0
 40
0.0
 40
0.0
 40
0.0
 40
1.0
 40
1.0
 40
1.0
 40
2.0
 40
2.0
 40
2.0
 40
3.0
 40
3.0
 40
3.0
 40
4.0
 40
4.0
 40
4.0
 40
5.0
 40
5.0
 40
5.0
 40
6.0
 40
6.0
 40
6.0
 40
7.0
 40
7.0
 40
7.0
 40
8.0
 40
8.0
 40
8.0
 40
9.0
 40
9.0
 40
9.0
 40
10.0
 40
10.0
 40
10.0
 40
11.0
 40
11.0
 40
11.0
 40
12.0
 40
12.0
 40
12.0
 40
13.0
 40
13.0
 40
13.0
 40
14.0
 40
14.0
 40
14.0
 40
15.0
 40
15.0
 40
15.0
 40
16.0
 40
16.0
 40
16.0
 40
17.0
 40
17.0
 40
17.0
 40
18.0
 40
18.0
 40
18.0
 40
19.0
 40
19.0
 40
19.0
 40
20.0
 40
20.0
 40
20.0
 40
21.0
 40
21.0
 40
21.0
 40
22.0
 40
22.0
 40
22.0
 40
23.0
 40
23.0
 40
23.0
 40
24.0
 40
24.0
 40
24.0
 40
25.0
 40
25.0
 40
25.0
 40
26.0
 40
26.0
 40
26.0
 40
27.0
 40
27.0
 40
27.0
 40
28.0
 40
28.0
 40
28.0
 40
29.0
 40
29.0
 40
29.0
 40
30.0
 40
30.0
 40
30.0
 40
31.0
 40
31.0
 40
31.0
 40
32.0
 40
32.0
 40
32.0
 40
33.0
 40
33.0
 40
33.0
 40
34.0
 40
34.0
 40
34.0
 40
35.0
 40
35.0
 40
35.0
 40
36.0
 40
36.0
 40
36.0
 40
36.0
 10
129.0188259226064
 20
-149.1509304097609
 10
129.0188259226064
 20
-149.1509304097609
 10
129.1059868383832
 20
-149.2504936692846
 10
129.1059868383832
 20
-149.2504936692846
 10
129.1152885961934
 20
-149.2611734652889
 10
129.1245903540035
 20
-149.2739203185843
 10
129.1245903540035
 20
-149.2887342291709
 10
129.1245903540035
 20
-149.290801286462
 10
129.1245903540035
 20
-149.3204291076351
 10
129.0911729277966
 20
-149.3204291076351
 10
129.0839382272776
 20
-149.3204291076351
 10
129.0484537437795
 20
-149.3159504835043
 10
129.0429415910032
 20
-149.3159504835043
 10
129.0078016170536
 20
-149.3479898715172
 10
128.9671494903277
 20
-149.3817518072726
 10
128.8799885745508
 20
-149.4389403923277
 10
129.0078016170536
 20
-149.5467718810161
 10
129.1466389651092
 20
-149.6039604660712
 10
129.3857285917855
 20
-149.6418565164089
 10
129.3857285917855
 20
-149.6418565164089
 10
129.254125944249
 20
-149.8175563861567
 10
129.254125944249
 20
-149.8175563861567
 10
129.0246825849313
 20
-149.745553890515
 10
128.8875677846184
 20
-149.6566704269955
 10
128.8207329322045
 20
-149.6039604660712
 10
128.6894747942165
 20
-149.5023301492564
 10
128.5633842994563
 20
-149.339377132804
 10
128.496893956591
 20
-149.1743570590606
 10
128.4376383142447
 20
-149.2398138732803
 10
128.372870519122
 20
-149.2928683437532
 10
128.3043131189655
 20
-149.3414441900952
 10
128.3043131189655
 20
-149.3414441900952
 10
128.3043131189655
 20
-149.593280670067
 10
128.3043131189655
 20
-149.593280670067
 10
128.4469400720549
 20
-149.5677869634761
 10
128.6098930885072
 20
-149.5233452317164
 10
128.6653591258198
 20
-149.5085313211298
 10
128.6653591258198
 20
-149.5085313211298
 10
128.6395209096804
 20
-149.6776855094556
 10
128.6395209096804
 20
-149.6776855094556
 10
128.6374538523892
 20
-149.6776855094556
 10
128.62091739406
 20
-149.6842311908775
 10
128.6191948463174
 20
-149.6842311908775
 10
128.4448730147638
 20
-149.7221272412153
 10
128.1671983186526
 20
-149.7879285649836
 10
127.9949435443901
 20
-149.8237575580301
 10
127.98564178658
 20
-149.8406385259079
 10
127.965315723217
 20
-149.8723334043722
 10
127.944989659854
 20
-149.8723334043722
 10
127.9208739914573
 20
-149.8723334043722
 10
127.9170843864235
 20
-149.8533853792033
 10
127.9153618386809
 20
-149.8344373540344
 10
127.9153618386809
 20
-149.8344373540344
 10
127.8929687180268
 20
-149.6608045415779
 10
127.8929687180268
 20
-149.6608045415779
 10
127.958081022698
 20
-149.6525363124133
 10
128.0524766389938
 20
-149.6397894591178
 10
128.1468722552897
 20
-149.6187743766578
 10
128.1468722552897
 20
-149.6187743766578
 10
128.1468722552897
 20
-149.4410074496189
 10
128.1468722552897
 20
-149.4410074496189
 10
128.0207817605295
 20
-149.5130099452606
 10
127.937754959335
 20
-149.5422932568853
 10
127.7930609489545
 20
-149.5719210780584
 10
127.7930609489545
 20
-149.5719210780584
 10
127.6876410271059
 20
-149.4027668897326
 10
127.6876410271059
 20
-149.4027668897326
 10
127.965315723217
 20
-149.3752061258506
 10
128.1337808924457
 20
-149.2821885477489
 10
128.289499208379
 20
-149.1488633524697
 10
128.1616861658762
 20
-149.1488633524697
 10
127.8988253803517
 20
-149.1533419766005
 10
127.7265706060892
 20
-149.159543148474
 10
127.7265706060892
 20
-149.159543148474
 10
127.7265706060892
 20
-148.9817762214351
 10
127.7265706060892
 20
-148.9817762214351
 10
127.861618349111
 20
-148.9883219028571
 10
128.1210340391503
 20
-148.9945230747305
 10
128.2819199983115
 20
-148.9945230747305
 10
128.2819199983115
 20
-148.9945230747305
 10
128.4672661354179
 20
-148.9945230747305
 10
128.4672661354179
 20
-148.9945230747305
 10
128.4672661354179
 20
-148.8994384393376
 10
128.4651990781267
 20
-148.8486232809302
 10
128.4596869253503
 20
-148.8021144918793
 10
128.4596869253503
 20
-148.8021144918793
 10
128.6488226674906
 20
-148.818995459757
 10
128.6488226674906
 20
-148.818995459757
 10
128.6911973419591
 20
-148.8233018291136
 10
128.6987765520267
 20
-148.8381157397002
 10
128.6987765520267
 20
-148.8529296502868
 10
128.6987765520267
 20
-148.8780788473291
 10
128.6839626414401
 20
-148.8866915860422
 10
128.6395209096804
 20
-148.9121852926331
 10
128.6374538523892
 20
-148.9373344896754
 10
128.6374538523892
 20
-148.9438801710973
 10
128.6357313046466
 20
-148.9945230747305
 10
128.6357313046466
 20
-148.9945230747305
 10
128.8376139000822
 20
-148.9945230747305
 10
128.8376139000822
 20
-148.9945230747305
 10
128.9819634009142
 20
-148.9945230747305
 10
129.2375894859198
 20
-148.9883219028571
 10
129.3950303495957
 20
-148.9817762214351
 10
129.3950303495957
 20
-148.9817762214351
 10
129.3950303495957
 20
-149.159543148474
 10
129.3950303495957
 20
-149.159543148474
 10
129.2820312176795
 20
-149.1554090338917
 10
129.2617051543165
 20
-149.1554090338917
 10
129.0188259226064
 20
-149.1509304097609
 97
        0
 97
        1
330
8E
 75
     2
 76
     1
 98
        1
 10
0.0
 20
0.0
450
        0
451
        0
460
0.0
461
0.0
452
        0
462
0.0
453
        0
470

  0
SPLINE
  5
90
330
7D
100
AcDbEntity
  8
レイヤー 1
100
AcDbSpline
210
0.0
220
0.0
230
1.0
 70
    11
 71
     3
 72
    17
 73
    13
 74
     0
 42
0.0000000001
 43
0.0000000001
 40
0.0
 40
0.0
 40
0.0
 40
0.0
 40
1.0
 40
1.0
 40
1.0
 40
2.0
 40
2.0
 40
2.0
 40
3.0
 40
3.0
 40
3.0
 40
4.0
 40
4.0
 40
4.0
 40
4.0
 10
130.9005370766499
 20
-148.6646551820179
 30
0.0
 10
130.9005370766499
 20
-148.6646551820179
 30
0.0
 10
130.4988389430697
 20
-148.6646551820179
 30
0.0
 10
130.4988389430697
 20
-148.6646551820179
 30
0.0
 10
130.4988389430697
 20
-148.6646551820179
 30
0.0
 10
130.4988389430697
 20
-148.9735079922705
 30
0.0
 10
130.4988389430697
 20
-148.9735079922705
 30
0.0
 10
130.4988389430697
 20
-148.9735079922705
 30
0.0
 10
130.9005370766499
 20
-148.9735079922705
 30
0.0
 10
130.9005370766499
 20
-148.9735079922705
 30
0.0
 10
130.9005370766499
 20
-148.9735079922705
 30
0.0
 10
130.9005370766499
 20
-148.6646551820179
 30
0.0
 10
130.9005370766499
 20
-148.6646551820179
 30
0.0
  0
SPLINE
  5
91
330
7D
100
AcDbEntity
  8
レイヤー 1
100
AcDbSpline
210
0.0
220
0.0
230
1.0
 70
    11
 71
     3
 72
    17
 73
    13
 74
     0
 42
0.0000000001
 43
0.0000000001
 40
0.0
 40
0.0
 40
0.0
 40
0.0
 40
1.0
 40
1.0
 40
1.0
 40
2.0
 40
2.0
 40
2.0
 40
3.0
 40
3.0
 40
3.0
 40
4.0
 40
4.0
 40
4.0
 40
4.0
 10
130.9005370766499
 20
-148.1928493553129
 30
0.0
 10
130.9005370766499
 20
-148.1928493553129
 30
0.0
 10
130.4988389430697
 20
-148.1928493553129
 30
0.0
 10
130.4988389430697
 20
-148.1928493553129
 30
0.0
 10
130.4988389430697
 20
-148.1928493553129
 30
0.0
 10
130.4988389430697
 20
-148.497395796209
 30
0.0
 10
130.4988389430697
 20
-148.497395796209
 30
0.0
 10
130.4988389430697
 20
-148.497395796209
 30
0.0
 10
130.9005370766499
 20
-148.497395796209
 30
0.0
 10
130.9005370766499
 20
-148.497395796209
 30
0.0
 10
130.9005370766499
 20
-148.497395796209
 30
0.0
 10
130.9005370766499
 20
-148.1928493553129
 30
0.0
 10
130.9005370766499
 20
-148.1928493553129
 30
0.0
  0
SPLINE
  5
92
330
7D
100
AcDbEntity
  8
レイヤー 1
100
AcDbSpline
210
0.0
220
0.0
230
1.0
 70
    11
 71
     3
 72
    17
 73
    13
 74
     0
 42
0.0000000001
 43
0.0000000001
 40
0.0
 40
0.0
 40
0.0
 40
0.0
 40
1.0
 40
1.0
 40
1.0
 40
2.0
 40
2.0
 40
2.0
 40
3.0
 40
3.0
 40
3.0
 40
4.0
 40
4.0
 40
4.0
 40
4.0
 10
130.3320963215836
 20
-148.6646551820179
 30
0.0
 10
130.3320963215836
 20
-148.6646551820179
 30
0.0
 10
129.9486571940753
 20
-148.6646551820179
 30
0.0
 10
129.9486571940753
 20
-148.6646551820179
 30
0.0
 10
129.9486571940753
 20
-148.6646551820179
 30
0.0
 10
129.9486571940753
 20
-148.9735079922705
 30
0.0
 10
129.9486571940753
 20
-148.9735079922705
 30
0.0
 10
129.9486571940753
 20
-148.9735079922705
 30
0.0
 10
130.3320963215836
 20
-148.9735079922705
 30
0.0
 10
130.3320963215836
 20
-148.9735079922705
 30
0.0
 10
130.3320963215836
 20
-148.9735079922705
 30
0.0
 10
130.3320963215836
 20
-148.6646551820179
 30
0.0
 10
130.3320963215836
 20
-148.6646551820179
 30
0.0
  0
SPLINE
  5
93
330
7D
100
AcDbEntity
  8
レイヤー 1
100
AcDbSpline
210
0.0
220
0.0
230
1.0
 70
    11
 71
     3
 72
    17
 73
    13
 74
     0
 42
0.0000000001
 43
0.0000000001
 40
0.0
 40
0.0
 40
0.0
 40
0.0
 40
1.0
 40
1.0
 40
1.0
 40
2.0
 40
2.0
 40
2.0
 40
3.0
 40
3.0
 40
3.0
 40
4.0
 40
4.0
 40
4.0
 40
4.0
 10
130.3320963215836
 20
-148.1928493553129
 30
0.0
 10
130.3320963215836
 20
-148.1928493553129
 30
0.0
 10
129.9486571940753
 20
-148.1928493553129
 30
0.0
 10
129.9486571940753
 20
-148.1928493553129
 30
0.0
 10
129.9486571940753
 20
-148.1928493553129
 30
0.0
 10
129.9486571940753
 20
-148.497395796209
 30
0.0
 10
129.9486571940753
 20
-148.497395796209
 30
0.0
 10
129.9486571940753
 20
-148.497395796209
 30
0.0
 10
130.3320963215836
 20
-148.497395796209
 30
0.0
 10
130.3320963215836
 20
-148.497395796209
 30
0.0
 10
130.3320963215836
 20
-148.497395796209
 30
0.0
 10
130.3320963215836
 20
-148.1928493553129
 30
0.0
 10
130.3320963215836
 20
-148.1928493553129
 30
0.0
  0
SPLINE
  5
94
330
7D
100
AcDbEntity
  8
レイヤー 1
100
AcDbSpline
210
0.0
220
0.0
230
1.0
 70
     9
 71
     3
 72
    77
 73
    73
 74
     0
 42
0.0000000001
 43
0.0000000001
 40
0.0
 40
0.0
 40
0.0
 40
0.0
 40
1.0
 40
1.0
 40
1.0
 40
2.0
 40
2.0
 40
2.0
 40
3.0
 40
3.0
 40
3.0
 40
4.0
 40
4.0
 40
4.0
 40
5.0
 40
5.0
 40
5.0
 40
6.0
 40
6.0
 40
6.0
 40
7.0
 40
7.0
 40
7.0
 40
8.0
 40
8.0
 40
8.0
 40
9.0
 40
9.0
 40
9.0
 40
10.0
 40
10.0
 40
10.0
 40
11.0
 40
11.0
 40
11.0
 40
12.0
 40
12.0
 40
12.0
 40
13.0
 40
13.0
 40
13.0
 40
14.0
 40
14.0
 40
14.0
 40
15.0
 40
15.0
 40
15.0
 40
16.0
 40
16.0
 40
16.0
 40
17.0
 40
17.0
 40
17.0
 40
18.0
 40
18.0
 40
18.0
 40
19.0
 40
19.0
 40
19.0
 40
20.0
 40
20.0
 40
20.0
 40
21.0
 40
21.0
 40
21.0
 40
22.0
 40
22.0
 40
22.0
 40
23.0
 40
23.0
 40
23.0
 40
24.0
 40
24.0
 40
24.0
 40
24.0
 10
131.0190483613425
 20
-149.7793158262704
 30
0.0
 10
130.9783962346165
 20
-149.8048095328613
 30
0.0
 10
130.8691867077341
 20
-149.8175563861567
 30
0.0
 10
130.8006293075776
 20
-149.8175563861567
 30
0.0
 10
130.7896050020248
 20
-149.8175563861567
 30
0.0
 10
130.7672118813707
 20
-149.8175563861567
 30
0.0
 10
130.7375840601975
 20
-149.8130777620259
 30
0.0
 10
130.7375840601975
 20
-149.8130777620259
 30
0.0
 10
130.6524902017119
 20
-149.586734988645
 30
0.0
 10
130.6524902017119
 20
-149.586734988645
 30
0.0
 10
130.6783284178512
 20
-149.593280670067
 30
0.0
 10
130.7282823023873
 20
-149.6015488992316
 30
0.0
 10
130.8302571287508
 20
-149.6015488992316
 30
0.0
 10
130.8988145289072
 20
-149.6015488992316
 30
0.0
 10
130.9005370766499
 20
-149.5595187343115
 30
0.0
 10
130.9005370766499
 20
-149.5023301492564
 30
0.0
 10
130.9005370766499
 20
-149.5023301492564
 30
0.0
 10
130.9005370766499
 20
-149.1533419766005
 30
0.0
 10
130.9005370766499
 20
-149.1533419766005
 30
0.0
 10
130.9005370766499
 20
-149.1533419766005
 30
0.0
 10
130.4988389430697
 20
-149.1533419766005
 30
0.0
 10
130.4988389430697
 20
-149.1533419766005
 30
0.0
 10
130.5005614908123
 20
-149.290801286462
 30
0.0
 10
130.502284038555
 20
-149.4895832959609
 30
0.0
 10
130.5077961913314
 20
-149.6229084912401
 30
0.0
 10
130.5098632486225
 20
-149.6504692551221
 30
0.0
 10
130.5098632486225
 20
-149.6949109868818
 30
0.0
 10
130.5208875541753
 20
-149.7562336865193
 30
0.0
 10
130.5208875541753
 20
-149.7562336865193
 30
0.0
 10
130.3097032009295
 20
-149.7562336865193
 30
0.0
 10
130.3097032009295
 20
-149.7562336865193
 30
0.0
 10
130.3320963215836
 20
-149.6311767204047
 30
0.0
 10
130.3320963215836
 20
-149.290801286462
 30
0.0
 10
130.3320963215836
 20
-149.1533419766005
 30
0.0
 10
130.3320963215836
 20
-149.1533419766005
 30
0.0
 10
129.9448675890415
 20
-149.1533419766005
 30
0.0
 10
129.9448675890415
 20
-149.1533419766005
 30
0.0
 10
129.9245415256786
 20
-149.3603922152641
 30
0.0
 10
129.8673529406234
 20
-149.6291096631135
 30
0.0
 10
129.6950981663609
 20
-149.8130777620259
 30
0.0
 10
129.6950981663609
 20
-149.8130777620259
 30
0.0
 10
129.5300780926175
 20
-149.690432362751
 30
0.0
 10
129.5300780926175
 20
-149.690432362751
 30
0.0
 10
129.7526312609646
 20
-149.470635270792
 30
0.0
 10
129.7801920248466
 20
-149.1385280660139
 30
0.0
 10
129.7801920248466
 20
-148.8064208612359
 30
0.0
 10
129.7801920248466
 20
-148.8064208612359
 30
0.0
 10
129.7801920248466
 20
-148.3706162823518
 30
0.0
 10
129.7801920248466
 20
-148.3706162823518
 30
0.0
 10
129.7801920248466
 20
-148.3346150345309
 30
0.0
 10
129.778469477104
 20
-148.1018988345023
 30
0.0
 10
129.7708902670364
 20
-148.0002685176874
 30
0.0
 10
129.8931911567628
 20
-148.0109483136917
 30
0.0
 10
130.1043755100086
 20
-148.0109483136917
 30
0.0
 10
130.2301214952202
 20
-148.0109483136917
 30
0.0
 10
130.2301214952202
 20
-148.0109483136917
 30
0.0
 10
130.6321641383489
 20
-148.0109483136917
 30
0.0
 10
130.6321641383489
 20
-148.0109483136917
 30
0.0
 10
130.6449109916443
 20
-148.0109483136917
 30
0.0
 10
130.950490961186
 20
-148.0109483136917
 30
0.0
 10
131.0893283092415
 20
-148.0002685176874
 30
0.0
 10
131.0876057614989
 20
-148.053150733386
 30
0.0
 10
131.0820936087225
 20
-148.2140366925472
 30
0.0
 10
131.0820936087225
 20
-148.2648518509546
 30
0.0
 10
131.0820936087225
 20
-148.2648518509546
 30
0.0
 10
131.0820936087225
 20
-148.8718776754556
 30
0.0
 10
131.0820936087225
 20
-148.8718776754556
 30
0.0
 10
131.0820936087225
 20
-148.8908257006245
 30
0.0
 10
131.0913953665327
 20
-149.4620225320789
 30
0.0
 10
131.0913953665327
 20
-149.574332644898
 30
0.0
 10
131.0913953665327
 20
-149.6311767204047
 30
0.0
 10
131.0913953665327
 20
-149.7328070372196
 30
0.0
 10
131.0190483613425
 20
-149.7793158262704
 30
0.0
  0
HATCH
  5
95
330
7D
100
AcDbEntity
  8
レイヤー 1
 62
   250
420
  2299925
440
 33554687
100
AcDbHatch
 10
0.0
 20
0.0
 30
0.0
210
0.0
220
0.0
230
1.0
  2
SOLID
 70
     1
 71
     1
 91
        5
 92
        1
 93
        1
 72
     4
 94
        3
 73
     0
 74
     0
 95
       17
 96
       13
 40
0.0
 40
0.0
 40
0.0
 40
0.0
 40
1.0
 40
1.0
 40
1.0
 40
2.0
 40
2.0
 40
2.0
 40
3.0
 40
3.0
 40
3.0
 40
4.0
 40
4.0
 40
4.0
 40
4.0
 10
130.9005370766499
 20
-148.6646551820179
 10
130.9005370766499
 20
-148.6646551820179
 10
130.4988389430697
 20
-148.6646551820179
 10
130.4988389430697
 20
-148.6646551820179
 10
130.4988389430697
 20
-148.6646551820179
 10
130.4988389430697
 20
-148.9735079922705
 10
130.4988389430697
 20
-148.9735079922705
 10
130.4988389430697
 20
-148.9735079922705
 10
130.9005370766499
 20
-148.9735079922705
 10
130.9005370766499
 20
-148.9735079922705
 10
130.9005370766499
 20
-148.9735079922705
 10
130.9005370766499
 20
-148.6646551820179
 10
130.9005370766499
 20
-148.6646551820179
 97
        0
 97
        1
330
90
 92
        1
 93
        1
 72
     4
 94
        3
 73
     0
 74
     0
 95
       17
 96
       13
 40
0.0
 40
0.0
 40
0.0
 40
0.0
 40
1.0
 40
1.0
 40
1.0
 40
2.0
 40
2.0
 40
2.0
 40
3.0
 40
3.0
 40
3.0
 40
4.0
 40
4.0
 40
4.0
 40
4.0
 10
130.9005370766499
 20
-148.1928493553129
 10
130.9005370766499
 20
-148.1928493553129
 10
130.4988389430697
 20
-148.1928493553129
 10
130.4988389430697
 20
-148.1928493553129
 10
130.4988389430697
 20
-148.1928493553129
 10
130.4988389430697
 20
-148.497395796209
 10
130.4988389430697
 20
-148.497395796209
 10
130.4988389430697
 20
-148.497395796209
 10
130.9005370766499
 20
-148.497395796209
 10
130.9005370766499
 20
-148.497395796209
 10
130.9005370766499
 20
-148.497395796209
 10
130.9005370766499
 20
-148.1928493553129
 10
130.9005370766499
 20
-148.1928493553129
 97
        0
 97
        1
330
91
 92
        1
 93
        1
 72
     4
 94
        3
 73
     0
 74
     0
 95
       17
 96
       13
 40
0.0
 40
0.0
 40
0.0
 40
0.0
 40
1.0
 40
1.0
 40
1.0
 40
2.0
 40
2.0
 40
2.0
 40
3.0
 40
3.0
 40
3.0
 40
4.0
 40
4.0
 40
4.0
 40
4.0
 10
130.3320963215836
 20
-148.6646551820179
 10
130.3320963215836
 20
-148.6646551820179
 10
129.9486571940753
 20
-148.6646551820179
 10
129.9486571940753
 20
-148.6646551820179
 10
129.9486571940753
 20
-148.6646551820179
 10
129.9486571940753
 20
-148.9735079922705
 10
129.9486571940753
 20
-148.9735079922705
 10
129.9486571940753
 20
-148.9735079922705
 10
130.3320963215836
 20
-148.9735079922705
 10
130.3320963215836
 20
-148.9735079922705
 10
130.3320963215836
 20
-148.9735079922705
 10
130.3320963215836
 20
-148.6646551820179
 10
130.3320963215836
 20
-148.6646551820179
 97
        0
 97
        1
330
92
 92
        1
 93
        1
 72
     4
 94
        3
 73
     0
 74
     0
 95
       17
 96
       13
 40
0.0
 40
0.0
 40
0.0
 40
0.0
 40
1.0
 40
1.0
 40
1.0
 40
2.0
 40
2.0
 40
2.0
 40
3.0
 40
3.0
 40
3.0
 40
4.0
 40
4.0
 40
4.0
 40
4.0
 10
130.3320963215836
 20
-148.1928493553129
 10
130.3320963215836
 20
-148.1928493553129
 10
129.9486571940753
 20
-148.1928493553129
 10
129.9486571940753
 20
-148.1928493553129
 10
129.9486571940753
 20
-148.1928493553129
 10
129.9486571940753
 20
-148.497395796209
 10
129.9486571940753
 20
-148.497395796209
 10
129.9486571940753
 20
-148.497395796209
 10
130.3320963215836
 20
-148.497395796209
 10
130.3320963215836
 20
-148.497395796209
 10
130.3320963215836
 20
-148.497395796209
 10
130.3320963215836
 20
-148.1928493553129
 10
130.3320963215836
 20
-148.1928493553129
 97
        0
 97
        1
330
93
 92
        1
 93
        1
 72
     4
 94
        3
 73
     0
 74
     0
 95
       77
 96
       73
 40
0.0
 40
0.0
 40
0.0
 40
0.0
 40
1.0
 40
1.0
 40
1.0
 40
2.0
 40
2.0
 40
2.0
 40
3.0
 40
3.0
 40
3.0
 40
4.0
 40
4.0
 40
4.0
 40
5.0
 40
5.0
 40
5.0
 40
6.0
 40
6.0
 40
6.0
 40
7.0
 40
7.0
 40
7.0
 40
8.0
 40
8.0
 40
8.0
 40
9.0
 40
9.0
 40
9.0
 40
10.0
 40
10.0
 40
10.0
 40
11.0
 40
11.0
 40
11.0
 40
12.0
 40
12.0
 40
12.0
 40
13.0
 40
13.0
 40
13.0
 40
14.0
 40
14.0
 40
14.0
 40
15.0
 40
15.0
 40
15.0
 40
16.0
 40
16.0
 40
16.0
 40
17.0
 40
17.0
 40
17.0
 40
18.0
 40
18.0
 40
18.0
 40
19.0
 40
19.0
 40
19.0
 40
20.0
 40
20.0
 40
20.0
 40
21.0
 40
21.0
 40
21.0
 40
22.0
 40
22.0
 40
22.0
 40
23.0
 40
23.0
 40
23.0
 40
24.0
 40
24.0
 40
24.0
 40
24.0
 10
131.0190483613425
 20
-149.7793158262704
 10
130.9783962346165
 20
-149.8048095328613
 10
130.8691867077341
 20
-149.8175563861567
 10
130.8006293075776
 20
-149.8175563861567
 10
130.7896050020248
 20
-149.8175563861567
 10
130.7672118813707
 20
-149.8175563861567
 10
130.7375840601975
 20
-149.8130777620259
 10
130.7375840601975
 20
-149.8130777620259
 10
130.6524902017119
 20
-149.586734988645
 10
130.6524902017119
 20
-149.586734988645
 10
130.6783284178512
 20
-149.593280670067
 10
130.7282823023873
 20
-149.6015488992316
 10
130.8302571287508
 20
-149.6015488992316
 10
130.8988145289072
 20
-149.6015488992316
 10
130.9005370766499
 20
-149.5595187343115
 10
130.9005370766499
 20
-149.5023301492564
 10
130.9005370766499
 20
-149.5023301492564
 10
130.9005370766499
 20
-149.1533419766005
 10
130.9005370766499
 20
-149.1533419766005
 10
130.9005370766499
 20
-149.1533419766005
 10
130.4988389430697
 20
-149.1533419766005
 10
130.4988389430697
 20
-149.1533419766005
 10
130.5005614908123
 20
-149.290801286462
 10
130.502284038555
 20
-149.4895832959609
 10
130.5077961913314
 20
-149.6229084912401
 10
130.5098632486225
 20
-149.6504692551221
 10
130.5098632486225
 20
-149.6949109868818
 10
130.5208875541753
 20
-149.7562336865193
 10
130.5208875541753
 20
-149.7562336865193
 10
130.3097032009295
 20
-149.7562336865193
 10
130.3097032009295
 20
-149.7562336865193
 10
130.3320963215836
 20
-149.6311767204047
 10
130.3320963215836
 20
-149.290801286462
 10
130.3320963215836
 20
-149.1533419766005
 10
130.3320963215836
 20
-149.1533419766005
 10
129.9448675890415
 20
-149.1533419766005
 10
129.9448675890415
 20
-149.1533419766005
 10
129.9245415256786
 20
-149.3603922152641
 10
129.8673529406234
 20
-149.6291096631135
 10
129.6950981663609
 20
-149.8130777620259
 10
129.6950981663609
 20
-149.8130777620259
 10
129.5300780926175
 20
-149.690432362751
 10
129.5300780926175
 20
-149.690432362751
 10
129.7526312609646
 20
-149.470635270792
 10
129.7801920248466
 20
-149.1385280660139
 10
129.7801920248466
 20
-148.8064208612359
 10
129.7801920248466
 20
-148.8064208612359
 10
129.7801920248466
 20
-148.3706162823518
 10
129.7801920248466
 20
-148.3706162823518
 10
129.7801920248466
 20
-148.3346150345309
 10
129.778469477104
 20
-148.1018988345023
 10
129.7708902670364
 20
-148.0002685176874
 10
129.8931911567628
 20
-148.0109483136917
 10
130.1043755100086
 20
-148.0109483136917
 10
130.2301214952202
 20
-148.0109483136917
 10
130.2301214952202
 20
-148.0109483136917
 10
130.6321641383489
 20
-148.0109483136917
 10
130.6321641383489
 20
-148.0109483136917
 10
130.6449109916443
 20
-148.0109483136917
 10
130.950490961186
 20
-148.0109483136917
 10
131.0893283092415
 20
-148.0002685176874
 10
131.0876057614989
 20
-148.053150733386
 10
131.0820936087225
 20
-148.2140366925472
 10
131.0820936087225
 20
-148.2648518509546
 10
131.0820936087225
 20
-148.2648518509546
 10
131.0820936087225
 20
-148.8718776754556
 10
131.0820936087225
 20
-148.8718776754556
 10
131.0820936087225
 20
-148.8908257006245
 10
131.0913953665327
 20
-149.4620225320789
 10
131.0913953665327
 20
-149.574332644898
 10
131.0913953665327
 20
-149.6311767204047
 10
131.0913953665327
 20
-149.7328070372196
 10
131.0190483613425
 20
-149.7793158262704
 97
        0
 97
        1
330
94
 75
     2
 76
     1
 98
        1
 10
0.0
 20
0.0
450
        0
451
        0
460
0.0
461
0.0
452
        0
462
0.0
453
        0
470

  0
SPLINE
  5
96
330
7D
100
AcDbEntity
  8
レイヤー 1
100
AcDbSpline
210
0.0
220
0.0
230
1.0
 70
     9
 71
     3
 72
    17
 73
    13
 74
     0
 42
0.0000000001
 43
0.0000000001
 40
0.0
 40
0.0
 40
0.0
 40
0.0
 40
1.0
 40
1.0
 40
1.0
 40
2.0
 40
2.0
 40
2.0
 40
3.0
 40
3.0
 40
3.0
 40
4.0
 40
4.0
 40
4.0
 40
4.0
 10
127.3017903327579
 20
-150.5403374189621
 30
0.0
 10
127.2535589959644
 20
-150.5403374189621
 30
0.0
 10
127.214629416981
 20
-150.5847791507218
 30
0.0
 10
127.214629416981
 20
-150.6399006784858
 30
0.0
 10
127.214629416981
 20
-150.6967447539925
 30
0.0
 10
127.2535589959644
 20
-150.745665109883
 30
0.0
 10
127.3055799377916
 20
-150.745665109883
 30
0.0
 10
127.3572563700704
 20
-150.745665109883
 30
0.0
 10
127.3923963440199
 20
-150.6946776967013
 30
0.0
 10
127.3923963440199
 20
-150.641967735777
 30
0.0
 10
127.3923963440199
 20
-150.5847791507218
 30
0.0
 10
127.351744217294
 20
-150.5403374189621
 30
0.0
 10
127.3017903327579
 20
-150.5403374189621
 30
0.0
  0
SPLINE
  5
97
330
7D
100
AcDbEntity
  8
レイヤー 1
100
AcDbSpline
210
0.0
220
0.0
230
1.0
 70
     9
 71
     3
 72
    17
 73
    13
 74
     0
 42
0.0000000001
 43
0.0000000001
 40
0.0
 40
0.0
 40
0.0
 40
0.0
 40
1.0
 40
1.0
 40
1.0
 40
2.0
 40
2.0
 40
2.0
 40
3.0
 40
3.0
 40
3.0
 40
4.0
 40
4.0
 40
4.0
 40
4.0
 10
127.3035128805005
 20
-150.8703775664491
 30
0.0
 10
127.1925808058754
 20
-150.8703775664491
 30
0.0
 10
127.103697342356
 20
-150.7687472496342
 30
0.0
 10
127.103697342356
 20
-150.641967735777
 30
0.0
 10
127.103697342356
 20
-150.5148437123713
 30
0.0
 10
127.1925808058754
 20
-150.4111463382652
 30
0.0
 10
127.3035128805005
 20
-150.4111463382652
 30
0.0
 10
127.4147894646741
 20
-150.4111463382652
 30
0.0
 10
127.5053954759361
 20
-150.5148437123713
 30
0.0
 10
127.5053954759361
 20
-150.641967735777
 30
0.0
 10
127.5053954759361
 20
-150.7687472496342
 30
0.0
 10
127.4147894646741
 20
-150.8703775664491
 30
0.0
 10
127.3035128805005
 20
-150.8703775664491
 30
0.0
  0
SPLINE
  5
98
330
7D
100
AcDbEntity
  8
レイヤー 1
100
AcDbSpline
210
0.0
220
0.0
230
1.0
 70
     9
 71
     3
 72
    44
 73
    40
 74
     0
 42
0.0000000001
 43
0.0000000001
 40
0.0
 40
0.0
 40
0.0
 40
0.0
 40
1.0
 40
1.0
 40
1.0
 40
2.0
 40
2.0
 40
2.0
 40
3.0
 40
3.0
 40
3.0
 40
4.0
 40
4.0
 40
4.0
 40
5.0
 40
5.0
 40
5.0
 40
6.0
 40
6.0
 40
6.0
 40
7.0
 40
7.0
 40
7.0
 40
8.0
 40
8.0
 40
8.0
 40
9.0
 40
9.0
 40
9.0
 40
10.0
 40
10.0
 40
10.0
 40
11.0
 40
11.0
 40
11.0
 40
12.0
 40
12.0
 40
12.0
 40
13.0
 40
13.0
 40
13.0
 40
13.0
 10
127.1202338006852
 20
-151.069159575948
 30
0.0
 10
127.0220485793556
 20
-151.4374402833212
 30
0.0
 10
126.9776068475959
 20
-151.5959146756427
 30
0.0
 10
126.8053520733334
 20
-151.8456840983233
 30
0.0
 10
126.6444661141722
 20
-152.0761609862865
 30
0.0
 10
126.4370713659602
 20
-152.26219614249
 30
0.0
 10
126.1924695865074
 20
-152.3555582301403
 30
0.0
 10
126.1924695865074
 20
-152.3555582301403
 30
0.0
 10
126.0240044172787
 20
-152.1757242458102
 30
0.0
 10
126.0240044172787
 20
-152.1757242458102
 30
0.0
 10
126.5852104718259
 20
-152.0234510253622
 30
0.0
 10
126.8739094734898
 20
-151.4670681044943
 30
0.0
 10
126.9297200203509
 20
-151.0267849014794
 30
0.0
 10
126.9297200203509
 20
-151.0267849014794
 30
0.0
 10
126.2593044389213
 20
-151.0267849014794
 30
0.0
 10
126.2593044389213
 20
-151.0267849014794
 30
0.0
 10
126.1776556759208
 20
-151.0267849014794
 30
0.0
 10
126.0167697167597
 20
-151.0312635256102
 30
0.0
 10
125.8796549164467
 20
-151.0502115507791
 30
0.0
 10
125.8796549164467
 20
-151.0502115507791
 30
0.0
 10
125.8796549164467
 20
-150.8300699492716
 30
0.0
 10
125.8796549164467
 20
-150.8300699492716
 30
0.0
 10
125.9554470171222
 20
-150.8514295412802
 30
0.0
 10
126.1759331281782
 20
-150.8514295412802
 30
0.0
 10
126.2627495344065
 20
-150.8514295412802
 30
0.0
 10
126.2627495344065
 20
-150.8514295412802
 30
0.0
 10
126.6406765091384
 20
-150.8514295412802
 30
0.0
 10
126.6406765091384
 20
-150.8514295412802
 30
0.0
 10
126.6775390308306
 20
-150.8514295412802
 30
0.0
 10
126.8832112313
 20
-150.8490179744405
 30
0.0
 10
126.9166286575069
 20
-150.8428168025671
 30
0.0
 10
126.9534911791991
 20
-150.8366156306936
 30
0.0
 10
126.9555582364902
 20
-150.8345485734025
 30
0.0
 10
127.0093017260602
 20
-150.794240956225
 30
0.0
 10
127.0093017260602
 20
-150.794240956225
 30
0.0
 10
127.1739772902551
 20
-150.9485812339642
 30
0.0
 10
127.1739772902551
 20
-150.9485812339642
 30
0.0
 10
127.1481390741157
 20
-150.9782090551374
 30
0.0
 10
127.1350477112718
 20
-151.0099039336017
 30
0.0
 10
127.1202338006852
 20
-151.069159575948
 30
0.0
  0
HATCH
  5
99
330
7D
100
AcDbEntity
  8
レイヤー 1
 62
   250
420
  2299925
440
 33554687
100
AcDbHatch
 10
0.0
 20
0.0
 30
0.0
210
0.0
220
0.0
230
1.0
  2
SOLID
 70
     1
 71
     1
 91
        3
 92
        1
 93
        1
 72
     4
 94
        3
 73
     0
 74
     0
 95
       17
 96
       13
 40
0.0
 40
0.0
 40
0.0
 40
0.0
 40
1.0
 40
1.0
 40
1.0
 40
2.0
 40
2.0
 40
2.0
 40
3.0
 40
3.0
 40
3.0
 40
4.0
 40
4.0
 40
4.0
 40
4.0
 10
127.3017903327579
 20
-150.5403374189621
 10
127.2535589959644
 20
-150.5403374189621
 10
127.214629416981
 20
-150.5847791507218
 10
127.214629416981
 20
-150.6399006784858
 10
127.214629416981
 20
-150.6967447539925
 10
127.2535589959644
 20
-150.745665109883
 10
127.3055799377916
 20
-150.745665109883
 10
127.3572563700704
 20
-150.745665109883
 10
127.3923963440199
 20
-150.6946776967013
 10
127.3923963440199
 20
-150.641967735777
 10
127.3923963440199
 20
-150.5847791507218
 10
127.351744217294
 20
-150.5403374189621
 10
127.3017903327579
 20
-150.5403374189621
 97
        0
 97
        1
330
96
 92
        1
 93
        1
 72
     4
 94
        3
 73
     0
 74
     0
 95
       17
 96
       13
 40
0.0
 40
0.0
 40
0.0
 40
0.0
 40
1.0
 40
1.0
 40
1.0
 40
2.0
 40
2.0
 40
2.0
 40
3.0
 40
3.0
 40
3.0
 40
4.0
 40
4.0
 40
4.0
 40
4.0
 10
127.3035128805005
 20
-150.8703775664491
 10
127.1925808058754
 20
-150.8703775664491
 10
127.103697342356
 20
-150.7687472496342
 10
127.103697342356
 20
-150.641967735777
 10
127.103697342356
 20
-150.5148437123713
 10
127.1925808058754
 20
-150.4111463382652
 10
127.3035128805005
 20
-150.4111463382652
 10
127.4147894646741
 20
-150.4111463382652
 10
127.5053954759361
 20
-150.5148437123713
 10
127.5053954759361
 20
-150.641967735777
 10
127.5053954759361
 20
-150.7687472496342
 10
127.4147894646741
 20
-150.8703775664491
 10
127.3035128805005
 20
-150.8703775664491
 97
        0
 97
        1
330
97
 92
        1
 93
        1
 72
     4
 94
        3
 73
     0
 74
     0
 95
       44
 96
       40
 40
0.0
 40
0.0
 40
0.0
 40
0.0
 40
1.0
 40
1.0
 40
1.0
 40
2.0
 40
2.0
 40
2.0
 40
3.0
 40
3.0
 40
3.0
 40
4.0
 40
4.0
 40
4.0
 40
5.0
 40
5.0
 40
5.0
 40
6.0
 40
6.0
 40
6.0
 40
7.0
 40
7.0
 40
7.0
 40
8.0
 40
8.0
 40
8.0
 40
9.0
 40
9.0
 40
9.0
 40
10.0
 40
10.0
 40
10.0
 40
11.0
 40
11.0
 40
11.0
 40
12.0
 40
12.0
 40
12.0
 40
13.0
 40
13.0
 40
13.0
 40
13.0
 10
127.1202338006852
 20
-151.069159575948
 10
127.0220485793556
 20
-151.4374402833212
 10
126.9776068475959
 20
-151.5959146756427
 10
126.8053520733334
 20
-151.8456840983233
 10
126.6444661141722
 20
-152.0761609862865
 10
126.4370713659602
 20
-152.26219614249
 10
126.1924695865074
 20
-152.3555582301403
 10
126.1924695865074
 20
-152.3555582301403
 10
126.0240044172787
 20
-152.1757242458102
 10
126.0240044172787
 20
-152.1757242458102
 10
126.5852104718259
 20
-152.0234510253622
 10
126.8739094734898
 20
-151.4670681044943
 10
126.9297200203509
 20
-151.0267849014794
 10
126.9297200203509
 20
-151.0267849014794
 10
126.2593044389213
 20
-151.0267849014794
 10
126.2593044389213
 20
-151.0267849014794
 10
126.1776556759208
 20
-151.0267849014794
 10
126.0167697167597
 20
-151.0312635256102
 10
125.8796549164467
 20
-151.0502115507791
 10
125.8796549164467
 20
-151.0502115507791
 10
125.8796549164467
 20
-150.8300699492716
 10
125.8796549164467
 20
-150.8300699492716
 10
125.9554470171222
 20
-150.8514295412802
 10
126.1759331281782
 20
-150.8514295412802
 10
126.2627495344065
 20
-150.8514295412802
 10
126.2627495344065
 20
-150.8514295412802
 10
126.6406765091384
 20
-150.8514295412802
 10
126.6406765091384
 20
-150.8514295412802
 10
126.6775390308306
 20
-150.8514295412802
 10
126.8832112313
 20
-150.8490179744405
 10
126.9166286575069
 20
-150.8428168025671
 10
126.9534911791991
 20
-150.8366156306936
 10
126.9555582364902
 20
-150.8345485734025
 10
127.0093017260602
 20
-150.794240956225
 10
127.0093017260602
 20
-150.794240956225
 10
127.1739772902551
 20
-150.9485812339642
 10
127.1739772902551
 20
-150.9485812339642
 10
127.1481390741157
 20
-150.9782090551374
 10
127.1350477112718
 20
-151.0099039336017
 10
127.1202338006852
 20
-151.069159575948
 97
        0
 97
        1
330
98
 75
     2
 76
     1
 98
        1
 10
0.0
 20
0.0
450
        0
451
        0
460
0.0
461
0.0
452
        0
462
0.0
453
        0
470

  0
SPLINE
  5
9A
330
7D
100
AcDbEntity
  8
レイヤー 1
100
AcDbSpline
210
0.0
220
0.0
230
1.0
 70
     9
 71
     3
 72
    29
 73
    25
 74
     0
 42
0.0000000001
 43
0.0000000001
 40
0.0
 40
0.0
 40
0.0
 40
0.0
 40
1.0
 40
1.0
 40
1.0
 40
2.0
 40
2.0
 40
2.0
 40
3.0
 40
3.0
 40
3.0
 40
4.0
 40
4.0
 40
4.0
 40
5.0
 40
5.0
 40
5.0
 40
6.0
 40
6.0
 40
6.0
 40
7.0
 40
7.0
 40
7.0
 40
8.0
 40
8.0
 40
8.0
 40
8.0
 10
128.4445285052152
 20
-150.7518662817565
 30
0.0
 10
128.4445285052152
 20
-150.7518662817565
 30
0.0
 10
128.1465277457411
 20
-150.7518662817565
 30
0.0
 10
128.1465277457411
 20
-150.7518662817565
 30
0.0
 10
128.0466199766689
 20
-150.7518662817565
 30
0.0
 10
127.9446451503055
 20
-150.7560003963388
 30
0.0
 10
127.8447373812332
 20
-150.7708143069253
 30
0.0
 10
127.8447373812332
 20
-150.7708143069253
 30
0.0
 10
127.8447373812332
 20
-150.5613525014221
 30
0.0
 10
127.8447373812332
 20
-150.5613525014221
 30
0.0
 10
127.9484347553393
 20
-150.5761664120087
 30
0.0
 10
128.1003634662388
 20
-150.5806450361395
 30
0.0
 10
128.1465277457411
 20
-150.5806450361395
 30
0.0
 10
128.1465277457411
 20
-150.5806450361395
 30
0.0
 10
128.4445285052152
 20
-150.5806450361395
 30
0.0
 10
128.4445285052152
 20
-150.5806450361395
 30
0.0
 10
128.5465033315786
 20
-150.5806450361395
 30
0.0
 10
128.6481336483935
 20
-150.5761664120087
 30
0.0
 10
128.7501084747569
 20
-150.5613525014221
 30
0.0
 10
128.7501084747569
 20
-150.5613525014221
 30
0.0
 10
128.7501084747569
 20
-150.7708143069253
 30
0.0
 10
128.7501084747569
 20
-150.7708143069253
 30
0.0
 10
128.6185058272204
 20
-150.7518662817565
 30
0.0
 10
128.4576198680592
 20
-150.7518662817565
 30
0.0
 10
128.4445285052152
 20
-150.7518662817565
 30
0.0
  0
SPLINE
  5
9B
330
7D
100
AcDbEntity
  8
レイヤー 1
100
AcDbSpline
210
0.0
220
0.0
230
1.0
 70
     9
 71
     3
 72
    50
 73
    46
 74
     0
 42
0.0000000001
 43
0.0000000001
 40
0.0
 40
0.0
 40
0.0
 40
0.0
 40
1.0
 40
1.0
 40
1.0
 40
2.0
 40
2.0
 40
2.0
 40
3.0
 40
3.0
 40
3.0
 40
4.0
 40
4.0
 40
4.0
 40
5.0
 40
5.0
 40
5.0
 40
6.0
 40
6.0
 40
6.0
 40
7.0
 40
7.0
 40
7.0
 40
8.0
 40
8.0
 40
8.0
 40
9.0
 40
9.0
 40
9.0
 40
10.0
 40
10.0
 40
10.0
 40
11.0
 40
11.0
 40
11.0
 40
12.0
 40
12.0
 40
12.0
 40
13.0
 40
13.0
 40
13.0
 40
14.0
 40
14.0
 40
14.0
 40
15.0
 40
15.0
 40
15.0
 40
15.0
 10
128.876198969517
 20
-151.3781846409749
 30
0.0
 10
128.8076415693605
 20
-151.5556070584653
 30
0.0
 10
128.689130284668
 20
-151.7630018066773
 30
0.0
 10
128.5685519426842
 20
-151.9028726833784
 30
0.0
 10
128.4204128368185
 20
-152.0740939289954
 30
0.0
 10
128.2781303932777
 20
-152.1629773925148
 30
0.0
 10
127.9983886398754
 20
-152.3045708169586
 30
0.0
 10
127.9983886398754
 20
-152.3045708169586
 30
0.0
 10
127.8502495340096
 20
-152.1164686034639
 30
0.0
 10
127.8502495340096
 20
-152.1164686034639
 30
0.0
 10
128.013202550462
 20
-152.0930419541642
 30
0.0
 10
128.1630642040703
 20
-152.0062255479359
 30
0.0
 10
128.2963893993495
 20
-151.9004611165388
 30
0.0
 10
128.5261772682157
 20
-151.7185600749176
 30
0.0
 10
128.6929198897018
 20
-151.4054008953084
 30
0.0
 10
128.7352945641703
 20
-151.2234998536872
 30
0.0
 10
128.7352945641703
 20
-151.2234998536872
 30
0.0
 10
128.1482502934838
 20
-151.2234998536872
 30
0.0
 10
128.1482502934838
 20
-151.2234998536872
 30
0.0
 10
128.0094129454282
 20
-151.2234998536872
 30
0.0
 10
127.7537868604226
 20
-151.2321125924003
 30
0.0
 10
127.6204616651435
 20
-151.248993560278
 30
0.0
 10
127.6204616651435
 20
-151.248993560278
 30
0.0
 10
127.6204616651435
 20
-151.0205837296059
 30
0.0
 10
127.6204616651435
 20
-151.0205837296059
 30
0.0
 10
127.6500894863166
 20
-151.0267849014794
 30
0.0
 10
127.6724826069707
 20
-151.0333305829013
 30
0.0
 10
127.7186468864731
 20
-151.0374646974837
 30
0.0
 10
127.8075303499925
 20
-151.0436658693571
 30
0.0
 10
127.979785124255
 20
-151.0460774361968
 30
0.0
 10
128.0538546771879
 20
-151.0460774361968
 30
0.0
 10
128.0538546771879
 20
-151.0460774361968
 30
0.0
 10
128.4965494470425
 20
-151.0460774361968
 30
0.0
 10
128.4965494470425
 20
-151.0460774361968
 30
0.0
 10
128.5558050893888
 20
-151.0460774361968
 30
0.0
 10
128.6836181318916
 20
-151.041598812066
 30
0.0
 10
128.7370171119129
 20
-151.0353976401925
 30
0.0
 10
128.800062359293
 20
-151.0267849014794
 30
0.0
 10
128.8241780276898
 20
-151.0119709908928
 30
0.0
 10
128.8538058488629
 20
-150.9888888511417
 30
0.0
 10
128.8538058488629
 20
-150.9888888511417
 30
0.0
 10
128.9981553496949
 20
-151.1559759821763
 30
0.0
 10
128.9981553496949
 20
-151.1559759821763
 30
0.0
 10
128.937177159606
 20
-151.2234998536872
 30
0.0
 10
128.89652503288
 20
-151.3271972277932
 30
0.0
 10
128.876198969517
 20
-151.3781846409749
 30
0.0
  0
HATCH
  5
9C
330
7D
100
AcDbEntity
  8
レイヤー 1
 62
   250
420
  2299925
440
 33554687
100
AcDbHatch
 10
0.0
 20
0.0
 30
0.0
210
0.0
220
0.0
230
1.0
  2
SOLID
 70
     1
 71
     1
 91
        2
 92
        1
 93
        1
 72
     4
 94
        3
 73
     0
 74
     0
 95
       29
 96
       25
 40
0.0
 40
0.0
 40
0.0
 40
0.0
 40
1.0
 40
1.0
 40
1.0
 40
2.0
 40
2.0
 40
2.0
 40
3.0
 40
3.0
 40
3.0
 40
4.0
 40
4.0
 40
4.0
 40
5.0
 40
5.0
 40
5.0
 40
6.0
 40
6.0
 40
6.0
 40
7.0
 40
7.0
 40
7.0
 40
8.0
 40
8.0
 40
8.0
 40
8.0
 10
128.4445285052152
 20
-150.7518662817565
 10
128.4445285052152
 20
-150.7518662817565
 10
128.1465277457411
 20
-150.7518662817565
 10
128.1465277457411
 20
-150.7518662817565
 10
128.0466199766689
 20
-150.7518662817565
 10
127.9446451503055
 20
-150.7560003963388
 10
127.8447373812332
 20
-150.7708143069253
 10
127.8447373812332
 20
-150.7708143069253
 10
127.8447373812332
 20
-150.5613525014221
 10
127.8447373812332
 20
-150.5613525014221
 10
127.9484347553393
 20
-150.5761664120087
 10
128.1003634662388
 20
-150.5806450361395
 10
128.1465277457411
 20
-150.5806450361395
 10
128.1465277457411
 20
-150.5806450361395
 10
128.4445285052152
 20
-150.5806450361395
 10
128.4445285052152
 20
-150.5806450361395
 10
128.5465033315786
 20
-150.5806450361395
 10
128.6481336483935
 20
-150.5761664120087
 10
128.7501084747569
 20
-150.5613525014221
 10
128.7501084747569
 20
-150.5613525014221
 10
128.7501084747569
 20
-150.7708143069253
 10
128.7501084747569
 20
-150.7708143069253
 10
128.6185058272204
 20
-150.7518662817565
 10
128.4576198680592
 20
-150.7518662817565
 10
128.4445285052152
 20
-150.7518662817565
 97
        0
 97
        1
330
9A
 92
        1
 93
        1
 72
     4
 94
        3
 73
     0
 74
     0
 95
       50
 96
       46
 40
0.0
 40
0.0
 40
0.0
 40
0.0
 40
1.0
 40
1.0
 40
1.0
 40
2.0
 40
2.0
 40
2.0
 40
3.0
 40
3.0
 40
3.0
 40
4.0
 40
4.0
 40
4.0
 40
5.0
 40
5.0
 40
5.0
 40
6.0
 40
6.0
 40
6.0
 40
7.0
 40
7.0
 40
7.0
 40
8.0
 40
8.0
 40
8.0
 40
9.0
 40
9.0
 40
9.0
 40
10.0
 40
10.0
 40
10.0
 40
11.0
 40
11.0
 40
11.0
 40
12.0
 40
12.0
 40
12.0
 40
13.0
 40
13.0
 40
13.0
 40
14.0
 40
14.0
 40
14.0
 40
15.0
 40
15.0
 40
15.0
 40
15.0
 10
128.876198969517
 20
-151.3781846409749
 10
128.8076415693605
 20
-151.5556070584653
 10
128.689130284668
 20
-151.7630018066773
 10
128.5685519426842
 20
-151.9028726833784
 10
128.4204128368185
 20
-152.0740939289954
 10
128.2781303932777
 20
-152.1629773925148
 10
127.9983886398754
 20
-152.3045708169586
 10
127.9983886398754
 20
-152.3045708169586
 10
127.8502495340096
 20
-152.1164686034639
 10
127.8502495340096
 20
-152.1164686034639
 10
128.013202550462
 20
-152.0930419541642
 10
128.1630642040703
 20
-152.0062255479359
 10
128.2963893993495
 20
-151.9004611165388
 10
128.5261772682157
 20
-151.7185600749176
 10
128.6929198897018
 20
-151.4054008953084
 10
128.7352945641703
 20
-151.2234998536872
 10
128.7352945641703
 20
-151.2234998536872
 10
128.1482502934838
 20
-151.2234998536872
 10
128.1482502934838
 20
-151.2234998536872
 10
128.0094129454282
 20
-151.2234998536872
 10
127.7537868604226
 20
-151.2321125924003
 10
127.6204616651435
 20
-151.248993560278
 10
127.6204616651435
 20
-151.248993560278
 10
127.6204616651435
 20
-151.0205837296059
 10
127.6204616651435
 20
-151.0205837296059
 10
127.6500894863166
 20
-151.0267849014794
 10
127.6724826069707
 20
-151.0333305829013
 10
127.7186468864731
 20
-151.0374646974837
 10
127.8075303499925
 20
-151.0436658693571
 10
127.979785124255
 20
-151.0460774361968
 10
128.0538546771879
 20
-151.0460774361968
 10
128.0538546771879
 20
-151.0460774361968
 10
128.4965494470425
 20
-151.0460774361968
 10
128.4965494470425
 20
-151.0460774361968
 10
128.5558050893888
 20
-151.0460774361968
 10
128.6836181318916
 20
-151.041598812066
 10
128.7370171119129
 20
-151.0353976401925
 10
128.800062359293
 20
-151.0267849014794
 10
128.8241780276898
 20
-151.0119709908928
 10
128.8538058488629
 20
-150.9888888511417
 10
128.8538058488629
 20
-150.9888888511417
 10
128.9981553496949
 20
-151.1559759821763
 10
128.9981553496949
 20
-151.1559759821763
 10
128.937177159606
 20
-151.2234998536872
 10
128.89652503288
 20
-151.3271972277932
 10
128.876198969517
 20
-151.3781846409749
 97
        0
 97
        1
330
9B
 75
     2
 76
     1
 98
        1
 10
0.0
 20
0.0
450
        0
451
        0
460
0.0
461
0.0
452
        0
462
0.0
453
        0
470

  0
SPLINE
  5
9D
330
7D
100
AcDbEntity
  8
レイヤー 1
100
AcDbSpline
210
0.0
220
0.0
230
1.0
 70
     9
 71
     3
 72
    50
 73
    46
 74
     0
 42
0.0000000001
 43
0.0000000001
 40
0.0
 40
0.0
 40
0.0
 40
0.0
 40
1.0
 40
1.0
 40
1.0
 40
2.0
 40
2.0
 40
2.0
 40
3.0
 40
3.0
 40
3.0
 40
4.0
 40
4.0
 40
4.0
 40
5.0
 40
5.0
 40
5.0
 40
6.0
 40
6.0
 40
6.0
 40
7.0
 40
7.0
 40
7.0
 40
8.0
 40
8.0
 40
8.0
 40
9.0
 40
9.0
 40
9.0
 40
10.0
 40
10.0
 40
10.0
 40
11.0
 40
11.0
 40
11.0
 40
12.0
 40
12.0
 40
12.0
 40
13.0
 40
13.0
 40
13.0
 40
14.0
 40
14.0
 40
14.0
 40
15.0
 40
15.0
 40
15.0
 40
15.0
 10
130.3741264865037
 20
-150.7370523711699
 30
0.0
 10
130.1908474066884
 20
-150.9506482912554
 30
0.0
 10
130.1281466688568
 20
-151.0226507868971
 30
0.0
 10
130.0037787218393
 20
-151.1411620715897
 30
0.0
 10
130.0037787218393
 20
-151.1411620715897
 30
0.0
 10
130.0037787218393
 20
-151.7082247884618
 30
0.0
 10
130.0037787218393
 20
-151.7082247884618
 30
0.0
 10
130.0037787218393
 20
-151.8584309516187
 30
0.0
 10
130.0096353841642
 20
-151.8773789767876
 30
0.0
 10
130.0130804796495
 20
-152.0551459038265
 30
0.0
 10
130.0151475369407
 20
-152.186059532266
 30
0.0
 10
130.020659689717
 20
-152.2349798881565
 30
0.0
 10
130.0261718424934
 20
-152.2942355305028
 30
0.0
 10
130.0261718424934
 20
-152.2942355305028
 30
0.0
 10
129.8280788520916
 20
-152.2942355305028
 30
0.0
 10
129.8280788520916
 20
-152.2942355305028
 30
0.0
 10
129.8318684571253
 20
-152.2497937987431
 30
0.0
 10
129.8353135526106
 20
-152.2029405001437
 30
0.0
 10
129.8353135526106
 20
-152.1946722709791
 30
0.0
 10
129.8353135526106
 20
-152.1144015461728
 30
0.0
 10
129.8391031576444
 20
-151.7630018066773
 30
0.0
 10
129.8391031576444
 20
-151.6909993110356
 30
0.0
 10
129.8391031576444
 20
-151.6909993110356
 30
0.0
 10
129.8391031576444
 20
-151.2848225533246
 30
0.0
 10
129.8391031576444
 20
-151.2848225533246
 30
0.0
 10
129.6799397462258
 20
-151.4098795194392
 30
0.0
 10
129.5094075197059
 20
-151.5197780654187
 30
0.0
 10
129.3316405926671
 20
-151.6065944716469
 30
0.0
 10
129.3316405926671
 20
-151.6065944716469
 30
0.0
 10
129.1538736656282
 20
-151.4436414551946
 30
0.0
 10
129.1538736656282
 20
-151.4436414551946
 30
0.0
 10
129.261360644768
 20
-151.407812462148
 30
0.0
 10
129.4852918513092
 20
-151.3337429092151
 30
0.0
 10
129.7870822158171
 20
-151.0777723146611
 30
0.0
 10
129.9762179579573
 20
-150.9189534127911
 30
0.0
 10
130.144683127186
 20
-150.7308511992965
 30
0.0
 10
130.2780083224652
 20
-150.510709597789
 30
0.0
 10
130.2780083224652
 20
-150.510709597789
 30
0.0
 10
130.4464734916939
 20
-150.6547145890724
 30
0.0
 10
130.4464734916939
 20
-150.6547145890724
 30
0.0
 10
130.4574977972467
 20
-150.6650498755282
 30
0.0
 10
130.4650770073143
 20
-150.6798637861147
 30
0.0
 10
130.4650770073143
 20
-150.6926106394102
 30
0.0
 10
130.4650770073143
 20
-150.7329182565876
 30
0.0
 10
130.4316595811073
 20
-150.7329182565876
 30
0.0
 10
130.3741264865037
 20
-150.7370523711699
 30
0.0
  0
HATCH
  5
9E
330
7D
100
AcDbEntity
  8
レイヤー 1
 62
   250
420
  2299925
440
 33554687
100
AcDbHatch
 10
0.0
 20
0.0
 30
0.0
210
0.0
220
0.0
230
1.0
  2
SOLID
 70
     1
 71
     1
 91
        1
 92
        1
 93
        1
 72
     4
 94
        3
 73
     0
 74
     0
 95
       50
 96
       46
 40
0.0
 40
0.0
 40
0.0
 40
0.0
 40
1.0
 40
1.0
 40
1.0
 40
2.0
 40
2.0
 40
2.0
 40
3.0
 40
3.0
 40
3.0
 40
4.0
 40
4.0
 40
4.0
 40
5.0
 40
5.0
 40
5.0
 40
6.0
 40
6.0
 40
6.0
 40
7.0
 40
7.0
 40
7.0
 40
8.0
 40
8.0
 40
8.0
 40
9.0
 40
9.0
 40
9.0
 40
10.0
 40
10.0
 40
10.0
 40
11.0
 40
11.0
 40
11.0
 40
12.0
 40
12.0
 40
12.0
 40
13.0
 40
13.0
 40
13.0
 40
14.0
 40
14.0
 40
14.0
 40
15.0
 40
15.0
 40
15.0
 40
15.0
 10
130.3741264865037
 20
-150.7370523711699
 10
130.1908474066884
 20
-150.9506482912554
 10
130.1281466688568
 20
-151.0226507868971
 10
130.0037787218393
 20
-151.1411620715897
 10
130.0037787218393
 20
-151.1411620715897
 10
130.0037787218393
 20
-151.7082247884618
 10
130.0037787218393
 20
-151.7082247884618
 10
130.0037787218393
 20
-151.8584309516187
 10
130.0096353841642
 20
-151.8773789767876
 10
130.0130804796495
 20
-152.0551459038265
 10
130.0151475369407
 20
-152.186059532266
 10
130.020659689717
 20
-152.2349798881565
 10
130.0261718424934
 20
-152.2942355305028
 10
130.0261718424934
 20
-152.2942355305028
 10
129.8280788520916
 20
-152.2942355305028
 10
129.8280788520916
 20
-152.2942355305028
 10
129.8318684571253
 20
-152.2497937987431
 10
129.8353135526106
 20
-152.2029405001437
 10
129.8353135526106
 20
-152.1946722709791
 10
129.8353135526106
 20
-152.1144015461728
 10
129.8391031576444
 20
-151.7630018066773
 10
129.8391031576444
 20
-151.6909993110356
 10
129.8391031576444
 20
-151.6909993110356
 10
129.8391031576444
 20
-151.2848225533246
 10
129.8391031576444
 20
-151.2848225533246
 10
129.6799397462258
 20
-151.4098795194392
 10
129.5094075197059
 20
-151.5197780654187
 10
129.3316405926671
 20
-151.6065944716469
 10
129.3316405926671
 20
-151.6065944716469
 10
129.1538736656282
 20
-151.4436414551946
 10
129.1538736656282
 20
-151.4436414551946
 10
129.261360644768
 20
-151.407812462148
 10
129.4852918513092
 20
-151.3337429092151
 10
129.7870822158171
 20
-151.0777723146611
 10
129.9762179579573
 20
-150.9189534127911
 10
130.144683127186
 20
-150.7308511992965
 10
130.2780083224652
 20
-150.510709597789
 10
130.2780083224652
 20
-150.510709597789
 10
130.4464734916939
 20
-150.6547145890724
 10
130.4464734916939
 20
-150.6547145890724
 10
130.4574977972467
 20
-150.6650498755282
 10
130.4650770073143
 20
-150.6798637861147
 10
130.4650770073143
 20
-150.6926106394102
 10
130.4650770073143
 20
-150.7329182565876
 10
130.4316595811073
 20
-150.7329182565876
 10
130.3741264865037
 20
-150.7370523711699
 97
        0
 97
        1
330
9D
 75
     2
 76
     1
 98
        1
 10
0.0
 20
0.0
450
        0
451
        0
460
0.0
461
0.0
452
        0
462
0.0
453
        0
470

  0
SPLINE
  5
9F
330
7D
100
AcDbEntity
  8
レイヤー 1
100
AcDbSpline
210
0.0
220
0.0
230
1.0
 70
     9
 71
     3
 72
    50
 73
    46
 74
     0
 42
0.0000000001
 43
0.0000000001
 40
0.0
 40
0.0
 40
0.0
 40
0.0
 40
1.0
 40
1.0
 40
1.0
 40
2.0
 40
2.0
 40
2.0
 40
3.0
 40
3.0
 40
3.0
 40
4.0
 40
4.0
 40
4.0
 40
5.0
 40
5.0
 40
5.0
 40
6.0
 40
6.0
 40
6.0
 40
7.0
 40
7.0
 40
7.0
 40
8.0
 40
8.0
 40
8.0
 40
9.0
 40
9.0
 40
9.0
 40
10.0
 40
10.0
 40
10.0
 40
11.0
 40
11.0
 40
11.0
 40
12.0
 40
12.0
 40
12.0
 40
13.0
 40
13.0
 40
13.0
 40
14.0
 40
14.0
 40
14.0
 40
15.0
 40
15.0
 40
15.0
 40
15.0
 10
131.8703314557477
 20
-151.2638074708646
 30
0.0
 10
131.8169324757263
 20
-151.3358099665063
 30
0.0
 10
131.5888671546028
 20
-151.6531032606978
 30
0.0
 10
131.5389132700667
 20
-151.7164930176264
 30
0.0
 10
131.6129828229995
 20
-151.813989219859
 30
0.0
 10
131.6574245547593
 20
-151.8773789767876
 30
0.0
 10
131.7149576493629
 20
-151.9683294975982
 30
0.0
 10
131.7149576493629
 20
-151.9683294975982
 30
0.0
 10
131.5537271806532
 20
-152.1057888074597
 30
0.0
 10
131.5537271806532
 20
-152.1057888074597
 30
0.0
 10
131.4352158959606
 20
-151.8942599446653
 30
0.0
 10
131.2853542423523
 20
-151.6699842285756
 30
0.0
 10
131.0280056096041
 20
-151.4712022190766
 30
0.0
 10
131.0280056096041
 20
-151.4712022190766
 30
0.0
 10
131.1575411998495
 20
-151.3168619413374
 30
0.0
 10
131.1575411998495
 20
-151.3168619413374
 30
0.0
 10
131.2540038734365
 20
-151.3971326661438
 30
0.0
 10
131.3446098846986
 20
-151.4860161296632
 30
0.0
 10
131.4297037431842
 20
-151.5811007650561
 30
0.0
 10
131.4889593855305
 20
-151.5049641548321
 30
0.0
 10
131.6667263125694
 20
-151.2617404135734
 30
0.0
 10
131.7835150495194
 20
-151.0333305829013
 30
0.0
 10
131.7835150495194
 20
-151.0333305829013
 30
0.0
 10
131.1947482310902
 20
-151.0333305829013
 30
0.0
 10
131.1947482310902
 20
-151.0333305829013
 30
0.0
 10
131.0851941946592
 20
-151.0333305829013
 30
0.0
 10
130.8650525931518
 20
-151.041598812066
 30
0.0
 10
130.6817735133365
 20
-151.0522786080703
 30
0.0
 10
130.6817735133365
 20
-151.0522786080703
 30
0.0
 10
130.6817735133365
 20
-150.8321370065628
 30
0.0
 10
130.6817735133365
 20
-150.8321370065628
 30
0.0
 10
130.8426594724976
 20
-150.8514295412802
 30
0.0
 10
131.0224934568277
 20
-150.8555636558625
 30
0.0
 10
131.1871690210226
 20
-150.8555636558625
 30
0.0
 10
131.1871690210226
 20
-150.8555636558625
 30
0.0
 10
131.6277967335861
 20
-150.8555636558625
 30
0.0
 10
131.6277967335861
 20
-150.8555636558625
 30
0.0
 10
131.9240749453176
 20
-150.8555636558625
 30
0.0
 10
131.9630045243009
 20
-150.8407497452759
 30
0.0
 10
132.0353515294911
 20
-150.8004421280985
 30
0.0
 10
132.0353515294911
 20
-150.8004421280985
 30
0.0
 10
132.1814235780657
 20
-150.9592610299685
 30
0.0
 10
132.1814235780657
 20
-150.9592610299685
 30
0.0
 10
132.0480983827866
 20
-151.0312635256102
 30
0.0
 10
131.9223523975749
 20
-151.193872032514
 30
0.0
 10
131.8703314557477
 20
-151.2638074708646
 30
0.0
  0
HATCH
  5
A0
330
7D
100
AcDbEntity
  8
レイヤー 1
 62
   250
420
  2299925
440
 33554687
100
AcDbHatch
 10
0.0
 20
0.0
 30
0.0
210
0.0
220
0.0
230
1.0
  2
SOLID
 70
     1
 71
     1
 91
        1
 92
        1
 93
        1
 72
     4
 94
        3
 73
     0
 74
     0
 95
       50
 96
       46
 40
0.0
 40
0.0
 40
0.0
 40
0.0
 40
1.0
 40
1.0
 40
1.0
 40
2.0
 40
2.0
 40
2.0
 40
3.0
 40
3.0
 40
3.0
 40
4.0
 40
4.0
 40
4.0
 40
5.0
 40
5.0
 40
5.0
 40
6.0
 40
6.0
 40
6.0
 40
7.0
 40
7.0
 40
7.0
 40
8.0
 40
8.0
 40
8.0
 40
9.0
 40
9.0
 40
9.0
 40
10.0
 40
10.0
 40
10.0
 40
11.0
 40
11.0
 40
11.0
 40
12.0
 40
12.0
 40
12.0
 40
13.0
 40
13.0
 40
13.0
 40
14.0
 40
14.0
 40
14.0
 40
15.0
 40
15.0
 40
15.0
 40
15.0
 10
131.8703314557477
 20
-151.2638074708646
 10
131.8169324757263
 20
-151.3358099665063
 10
131.5888671546028
 20
-151.6531032606978
 10
131.5389132700667
 20
-151.7164930176264
 10
131.6129828229995
 20
-151.813989219859
 10
131.6574245547593
 20
-151.8773789767876
 10
131.7149576493629
 20
-151.9683294975982
 10
131.7149576493629
 20
-151.9683294975982
 10
131.5537271806532
 20
-152.1057888074597
 10
131.5537271806532
 20
-152.1057888074597
 10
131.4352158959606
 20
-151.8942599446653
 10
131.2853542423523
 20
-151.6699842285756
 10
131.0280056096041
 20
-151.4712022190766
 10
131.0280056096041
 20
-151.4712022190766
 10
131.1575411998495
 20
-151.3168619413374
 10
131.1575411998495
 20
-151.3168619413374
 10
131.2540038734365
 20
-151.3971326661438
 10
131.3446098846986
 20
-151.4860161296632
 10
131.4297037431842
 20
-151.5811007650561
 10
131.4889593855305
 20
-151.5049641548321
 10
131.6667263125694
 20
-151.2617404135734
 10
131.7835150495194
 20
-151.0333305829013
 10
131.7835150495194
 20
-151.0333305829013
 10
131.1947482310902
 20
-151.0333305829013
 10
131.1947482310902
 20
-151.0333305829013
 10
131.0851941946592
 20
-151.0333305829013
 10
130.8650525931518
 20
-151.041598812066
 10
130.6817735133365
 20
-151.0522786080703
 10
130.6817735133365
 20
-151.0522786080703
 10
130.6817735133365
 20
-150.8321370065628
 10
130.6817735133365
 20
-150.8321370065628
 10
130.8426594724976
 20
-150.8514295412802
 10
131.0224934568277
 20
-150.8555636558625
 10
131.1871690210226
 20
-150.8555636558625
 10
131.1871690210226
 20
-150.8555636558625
 10
131.6277967335861
 20
-150.8555636558625
 10
131.6277967335861
 20
-150.8555636558625
 10
131.9240749453176
 20
-150.8555636558625
 10
131.9630045243009
 20
-150.8407497452759
 10
132.0353515294911
 20
-150.8004421280985
 10
132.0353515294911
 20
-150.8004421280985
 10
132.1814235780657
 20
-150.9592610299685
 10
132.1814235780657
 20
-150.9592610299685
 10
132.0480983827866
 20
-151.0312635256102
 10
131.9223523975749
 20
-151.193872032514
 10
131.8703314557477
 20
-151.2638074708646
 97
        0
 97
        1
330
9F
 75
     2
 76
     1
 98
        1
 10
0.0
 20
0.0
450
        0
451
        0
460
0.0
461
0.0
452
        0
462
0.0
453
        0
470

  0
SPLINE
  5
A1
330
7D
100
AcDbEntity
  8
レイヤー 1
100
AcDbSpline
210
0.0
220
0.0
230
1.0
 70
     9
 71
     3
 72
    29
 73
    25
 74
     0
 42
0.0000000001
 43
0.0000000001
 40
0.0
 40
0.0
 40
0.0
 40
0.0
 40
1.0
 40
1.0
 40
1.0
 40
2.0
 40
2.0
 40
2.0
 40
3.0
 40
3.0
 40
3.0
 40
4.0
 40
4.0
 40
4.0
 40
5.0
 40
5.0
 40
5.0
 40
6.0
 40
6.0
 40
6.0
 40
7.0
 40
7.0
 40
7.0
 40
8.0
 40
8.0
 40
8.0
 40
8.0
 10
133.2928113816073
 20
-151.5070312121232
 30
0.0
 10
133.2928113816073
 20
-151.5070312121232
 30
0.0
 10
132.8687201273731
 20
-151.5070312121232
 30
0.0
 10
132.8687201273731
 20
-151.5070312121232
 30
0.0
 10
132.8446044589763
 20
-151.5070312121232
 30
0.0
 10
132.5665852533167
 20
-151.5070312121232
 30
0.0
 10
132.3815836257587
 20
-151.5325249187141
 30
0.0
 10
132.3815836257587
 20
-151.5325249187141
 30
0.0
 10
132.3815836257587
 20
-151.3020480307509
 30
0.0
 10
132.3815836257587
 20
-151.3020480307509
 30
0.0
 10
132.5204209738143
 20
-151.325130170502
 30
0.0
 10
132.6871635953004
 20
-151.3271972277932
 30
0.0
 10
132.8687201273731
 20
-151.3271972277932
 30
0.0
 10
132.8687201273731
 20
-151.3271972277932
 30
0.0
 10
133.2928113816073
 20
-151.3271972277932
 30
0.0
 10
133.2928113816073
 20
-151.3271972277932
 30
0.0
 10
133.4554198885111
 20
-151.3271972277932
 30
0.0
 10
133.618717414512
 20
-151.325130170502
 30
0.0
 10
133.7796033736731
 20
-151.3020480307509
 30
0.0
 10
133.7796033736731
 20
-151.3020480307509
 30
0.0
 10
133.7796033736731
 20
-151.5325249187141
 30
0.0
 10
133.7796033736731
 20
-151.5325249187141
 30
0.0
 10
133.618717414512
 20
-151.5090982694144
 30
0.0
 10
133.4020209084898
 20
-151.5070312121232
 30
0.0
 10
133.2928113816073
 20
-151.5070312121232
 30
0.0
  0
HATCH
  5
A2
330
7D
100
AcDbEntity
  8
レイヤー 1
 62
   250
420
  2299925
440
 33554687
100
AcDbHatch
 10
0.0
 20
0.0
 30
0.0
210
0.0
220
0.0
230
1.0
  2
SOLID
 70
     1
 71
     1
 91
        1
 92
        1
 93
        1
 72
     4
 94
        3
 73
     0
 74
     0
 95
       29
 96
       25
 40
0.0
 40
0.0
 40
0.0
 40
0.0
 40
1.0
 40
1.0
 40
1.0
 40
2.0
 40
2.0
 40
2.0
 40
3.0
 40
3.0
 40
3.0
 40
4.0
 40
4.0
 40
4.0
 40
5.0
 40
5.0
 40
5.0
 40
6.0
 40
6.0
 40
6.0
 40
7.0
 40
7.0
 40
7.0
 40
8.0
 40
8.0
 40
8.0
 40
8.0
 10
133.2928113816073
 20
-151.5070312121232
 10
133.2928113816073
 20
-151.5070312121232
 10
132.8687201273731
 20
-151.5070312121232
 10
132.8687201273731
 20
-151.5070312121232
 10
132.8446044589763
 20
-151.5070312121232
 10
132.5665852533167
 20
-151.5070312121232
 10
132.3815836257587
 20
-151.5325249187141
 10
132.3815836257587
 20
-151.5325249187141
 10
132.3815836257587
 20
-151.3020480307509
 10
132.3815836257587
 20
-151.3020480307509
 10
132.5204209738143
 20
-151.325130170502
 10
132.6871635953004
 20
-151.3271972277932
 10
132.8687201273731
 20
-151.3271972277932
 10
132.8687201273731
 20
-151.3271972277932
 10
133.2928113816073
 20
-151.3271972277932
 10
133.2928113816073
 20
-151.3271972277932
 10
133.4554198885111
 20
-151.3271972277932
 10
133.618717414512
 20
-151.325130170502
 10
133.7796033736731
 20
-151.3020480307509
 10
133.7796033736731
 20
-151.3020480307509
 10
133.7796033736731
 20
-151.5325249187141
 10
133.7796033736731
 20
-151.5325249187141
 10
133.618717414512
 20
-151.5090982694144
 10
133.4020209084898
 20
-151.5070312121232
 10
133.2928113816073
 20
-151.5070312121232
 97
        0
 97
        1
330
A1
 75
     2
 76
     1
 98
        1
 10
0.0
 20
0.0
450
        0
451
        0
460
0.0
461
0.0
452
        0
462
0.0
453
        0
470

  0
SPLINE
  5
A3
330
7D
100
AcDbEntity
  8
レイヤー 1
100
AcDbSpline
210
0.0
220
0.0
230
1.0
 70
     9
 71
     3
 72
    20
 73
    16
 74
     0
 42
0.0000000001
 43
0.0000000001
 40
0.0
 40
0.0
 40
0.0
 40
0.0
 40
1.0
 40
1.0
 40
1.0
 40
2.0
 40
2.0
 40
2.0
 40
3.0
 40
3.0
 40
3.0
 40
4.0
 40
4.0
 40
4.0
 40
5.0
 40
5.0
 40
5.0
 40
5.0
 10
134.8685980565606
 20
-151.8584309516187
 30
0.0
 10
134.8279459298347
 20
-151.6806640245798
 30
0.0
 10
134.742852071349
 20
-151.5387260905875
 30
0.0
 10
134.6205511816226
 20
-151.4288275446081
 30
0.0
 10
134.6205511816226
 20
-151.4288275446081
 30
0.0
 10
134.7614555869693
 20
-151.3144503744978
 30
0.0
 10
134.7614555869693
 20
-151.3144503744978
 30
0.0
 10
134.8148545669907
 20
-151.3568250489663
 30
0.0
 10
134.8503390504888
 20
-151.3905869847218
 30
0.0
 10
134.9168293933541
 20
-151.4987629829586
 30
0.0
 10
134.9871093412532
 20
-151.6148627008115
 30
0.0
 10
135.0057128568735
 20
-151.6679171712844
 30
0.0
 10
135.0281059775277
 20
-151.7333739855041
 30
0.0
 10
135.0281059775277
 20
-151.7333739855041
 30
0.0
 10
134.8685980565606
 20
-151.8584309516187
 30
0.0
 10
134.8685980565606
 20
-151.8584309516187
 30
0.0
  0
SPLINE
  5
A4
330
7D
100
AcDbEntity
  8
レイヤー 1
100
AcDbSpline
210
0.0
220
0.0
230
1.0
 70
     9
 71
     3
 72
    77
 73
    73
 74
     0
 42
0.0000000001
 43
0.0000000001
 40
0.0
 40
0.0
 40
0.0
 40
0.0
 40
1.0
 40
1.0
 40
1.0
 40
2.0
 40
2.0
 40
2.0
 40
3.0
 40
3.0
 40
3.0
 40
4.0
 40
4.0
 40
4.0
 40
5.0
 40
5.0
 40
5.0
 40
6.0
 40
6.0
 40
6.0
 40
7.0
 40
7.0
 40
7.0
 40
8.0
 40
8.0
 40
8.0
 40
9.0
 40
9.0
 40
9.0
 40
10.0
 40
10.0
 40
10.0
 40
11.0
 40
11.0
 40
11.0
 40
12.0
 40
12.0
 40
12.0
 40
13.0
 40
13.0
 40
13.0
 40
14.0
 40
14.0
 40
14.0
 40
15.0
 40
15.0
 40
15.0
 40
16.0
 40
16.0
 40
16.0
 40
17.0
 40
17.0
 40
17.0
 40
18.0
 40
18.0
 40
18.0
 40
19.0
 40
19.0
 40
19.0
 40
20.0
 40
20.0
 40
20.0
 40
21.0
 40
21.0
 40
21.0
 40
22.0
 40
22.0
 40
22.0
 40
23.0
 40
23.0
 40
23.0
 40
24.0
 40
24.0
 40
24.0
 40
24.0
 10
135.542803243024
 20
-151.1325493328766
 30
0.0
 10
135.4818250529351
 20
-151.1284152182943
 30
0.0
 10
135.4225694105888
 20
-151.1284152182943
 30
0.0
 10
135.3633137682425
 20
-151.1284152182943
 30
0.0
 10
135.3633137682425
 20
-151.1284152182943
 30
0.0
 10
135.3633137682425
 20
-151.9028726833784
 30
0.0
 10
135.3633137682425
 20
-151.9028726833784
 30
0.0
 10
135.3633137682425
 20
-152.1671115070971
 30
0.0
 10
135.3612467109513
 20
-152.1967393282702
 30
0.0
 10
135.3557345581749
 20
-152.2263671494434
 30
0.0
 10
135.3261067370018
 20
-152.3596923447226
 30
0.0
 10
135.2372232734823
 20
-152.3679605738872
 30
0.0
 10
135.0835720148402
 20
-152.3679605738872
 30
0.0
 10
135.0484320408906
 20
-152.3679605738872
 30
0.0
 10
135.0336181303041
 20
-152.3679605738872
 30
0.0
 10
134.9984781563545
 20
-152.3638264593049
 30
0.0
 10
134.9984781563545
 20
-152.3638264593049
 30
0.0
 10
134.8892686294721
 20
-152.1226697753374
 30
0.0
 10
134.8892686294721
 20
-152.1226697753374
 30
0.0
 10
134.990898946287
 20
-152.1543646538017
 30
0.0
 10
135.0632459514772
 20
-152.1543646538017
 30
0.0
 10
135.0835720148402
 20
-152.1543646538017
 30
0.0
 10
135.1445502049291
 20
-152.1543646538017
 30
0.0
 10
135.1741780261022
 20
-152.1374836859239
 30
0.0
 10
135.177967631136
 20
-152.0802951008688
 30
0.0
 10
135.177967631136
 20
-152.0675482475734
 30
0.0
 10
135.1796901788787
 20
-151.9703965548893
 30
0.0
 10
135.1796901788787
 20
-151.9132079698342
 30
0.0
 10
135.1796901788787
 20
-151.9132079698342
 30
0.0
 10
135.1796901788787
 20
-151.1263481610031
 30
0.0
 10
135.1796901788787
 20
-151.1263481610031
 30
0.0
 10
135.1796901788787
 20
-151.1263481610031
 30
0.0
 10
134.9223415461305
 20
-151.1263481610031
 30
0.0
 10
134.9223415461305
 20
-151.1263481610031
 30
0.0
 10
134.7945285036277
 20
-151.1263481610031
 30
0.0
 10
134.666715461125
 20
-151.1325493328766
 30
0.0
 10
134.5409694759134
 20
-151.145296186172
 30
0.0
 10
134.5409694759134
 20
-151.145296186172
 30
0.0
 10
134.5409694759134
 20
-150.9379014379599
 30
0.0
 10
134.5409694759134
 20
-150.9379014379599
 30
0.0
 10
134.6725721234499
 20
-150.9506482912554
 30
0.0
 10
134.8630859037842
 20
-150.9551269153862
 30
0.0
 10
134.9223415461305
 20
-150.9551269153862
 30
0.0
 10
134.9223415461305
 20
-150.9551269153862
 30
0.0
 10
135.1796901788787
 20
-150.9551269153862
 30
0.0
 10
135.1796901788787
 20
-150.9551269153862
 30
0.0
 10
135.177967631136
 20
-150.6864094675367
 30
0.0
 10
135.177967631136
 20
-150.6102728573127
 30
0.0
 10
135.1703884210685
 20
-150.4621337514469
 30
0.0
 10
135.1703884210685
 20
-150.4621337514469
 30
0.0
 10
135.3963866849009
 20
-150.5000298017847
 30
0.0
 10
135.3963866849009
 20
-150.5000298017847
 30
0.0
 10
135.4094780477449
 20
-150.5020968590758
 30
0.0
 10
135.4225694105888
 20
-150.5086425404978
 30
0.0
 10
135.4225694105888
 20
-150.5296576229578
 30
0.0
 10
135.4225694105888
 20
-150.5489501576753
 30
0.0
 10
135.4167127482639
 20
-150.5510172149664
 30
0.0
 10
135.3667588637277
 20
-150.5847791507218
 30
0.0
 10
135.3633137682425
 20
-150.662982818237
 30
0.0
 10
135.3633137682425
 20
-150.6777967288236
 30
0.0
 10
135.3633137682425
 20
-150.9551269153862
 30
0.0
 10
135.5186875746273
 20
-150.9506482912554
 30
0.0
 10
135.5352240329565
 20
-150.9506482912554
 30
0.0
 10
135.5648518541296
 20
-150.9465141766731
 30
0.0
 10
135.6092935858893
 20
-150.9423800620908
 30
0.0
 10
135.6130831909231
 20
-150.9403130047996
 30
0.0
 10
135.6520127699064
 20
-150.9379014379599
 30
0.0
 10
135.6520127699064
 20
-150.9379014379599
 30
0.0
 10
135.6520127699064
 20
-151.145296186172
 30
0.0
 10
135.6520127699064
 20
-151.145296186172
 30
0.0
 10
135.626174553767
 20
-151.1432291288809
 30
0.0
 10
135.5779432169736
 20
-151.1346163901677
 30
0.0
 10
135.542803243024
 20
-151.1325493328766
 30
0.0
  0
SPLINE
  5
A5
330
7D
100
AcDbEntity
  8
レイヤー 1
100
AcDbSpline
210
0.0
220
0.0
230
1.0
 70
     9
 71
     3
 72
    53
 73
    49
 74
     0
 42
0.0000000001
 43
0.0000000001
 40
0.0
 40
0.0
 40
0.0
 40
0.0
 40
1.0
 40
1.0
 40
1.0
 40
2.0
 40
2.0
 40
2.0
 40
3.0
 40
3.0
 40
3.0
 40
4.0
 40
4.0
 40
4.0
 40
5.0
 40
5.0
 40
5.0
 40
6.0
 40
6.0
 40
6.0
 40
7.0
 40
7.0
 40
7.0
 40
8.0
 40
8.0
 40
8.0
 40
9.0
 40
9.0
 40
9.0
 40
10.0
 40
10.0
 40
10.0
 40
11.0
 40
11.0
 40
11.0
 40
12.0
 40
12.0
 40
12.0
 40
13.0
 40
13.0
 40
13.0
 40
14.0
 40
14.0
 40
14.0
 40
15.0
 40
15.0
 40
15.0
 40
16.0
 40
16.0
 40
16.0
 40
16.0
 10
134.5354573231369
 20
-150.6333549970639
 30
0.0
 10
134.4762016807906
 20
-150.7856282175119
 30
0.0
 10
134.43899464955
 20
-150.8638318850271
 30
0.0
 10
134.4059217328916
 20
-150.9317002660865
 30
0.0
 10
134.4427842545837
 20
-150.9527153485465
 30
0.0
 10
134.4465738596175
 20
-150.9551269153862
 30
0.0
 10
134.4465738596175
 20
-150.9699408259728
 30
0.0
 10
134.4465738596175
 20
-150.9823431697197
 30
0.0
 10
134.4169460384444
 20
-151.0164496150236
 30
0.0
 10
134.4076442806342
 20
-151.0247178441882
 30
0.0
 10
134.4059217328916
 20
-151.221432796396
 30
0.0
 10
134.4059217328916
 20
-151.2427923884046
 30
0.0
 10
134.4059217328916
 20
-151.3761175836837
 30
0.0
 10
134.4038546756004
 20
-151.3885199274306
 30
0.0
 10
134.4038546756004
 20
-151.4033338380172
 30
0.0
 10
134.4038546756004
 20
-151.4181477486038
 30
0.0
 10
134.4038546756004
 20
-151.4181477486038
 30
0.0
 10
134.4038546756004
 20
-151.9535155870116
 30
0.0
 10
134.4038546756004
 20
-151.9535155870116
 30
0.0
 10
134.4038546756004
 20
-152.0255180826533
 30
0.0
 10
134.4076442806342
 20
-152.2601290851988
 30
0.0
 10
134.4152234907017
 20
-152.3703721407268
 30
0.0
 10
134.4152234907017
 20
-152.3703721407268
 30
0.0
 10
134.2019720801647
 20
-152.3703721407268
 30
0.0
 10
134.2019720801647
 20
-152.3703721407268
 30
0.0
 10
134.2222981435277
 20
-152.2115532388568
 30
0.0
 10
134.2281548058527
 20
-151.9703965548893
 30
0.0
 10
134.2281548058527
 20
-151.9493814724293
 30
0.0
 10
134.2281548058527
 20
-151.9493814724293
 30
0.0
 10
134.2281548058527
 20
-151.2321125924003
 30
0.0
 10
134.2281548058527
 20
-151.2321125924003
 30
0.0
 10
134.1485731001434
 20
-151.3464897625106
 30
0.0
 10
134.0948296105735
 20
-151.4054008953084
 30
0.0
 10
134.0576225793328
 20
-151.4477755697769
 30
0.0
 10
134.0576225793328
 20
-151.4477755697769
 30
0.0
 10
133.8908799578467
 20
-151.3103162599155
 30
0.0
 10
133.8908799578467
 20
-151.3103162599155
 30
0.0
 10
134.1372042850421
 20
-151.0946532825388
 30
0.0
 10
134.3056694542708
 20
-150.7856282175119
 30
0.0
 10
134.4038546756004
 20
-150.4493868981515
 30
0.0
 10
134.4038546756004
 20
-150.4493868981515
 30
0.0
 10
134.5964355132259
 20
-150.5637640682618
 30
0.0
 10
134.5964355132259
 20
-150.5637640682618
 30
0.0
 10
134.6074598187787
 20
-150.5699652401353
 30
0.0
 10
134.6150390288462
 20
-150.5740993547176
 30
0.0
 10
134.6150390288462
 20
-150.5889132653041
 30
0.0
 10
134.6150390288462
 20
-150.614406971895
 30
0.0
 10
134.6002251182596
 20
-150.6185410864773
 30
0.0
 10
134.5354573231369
 20
-150.6333549970639
 30
0.0
  0
HATCH
  5
A6
330
7D
100
AcDbEntity
  8
レイヤー 1
 62
   250
420
  2299925
440
 33554687
100
AcDbHatch
 10
0.0
 20
0.0
 30
0.0
210
0.0
220
0.0
230
1.0
  2
SOLID
 70
     1
 71
     1
 91
        3
 92
        1
 93
        1
 72
     4
 94
        3
 73
     0
 74
     0
 95
       20
 96
       16
 40
0.0
 40
0.0
 40
0.0
 40
0.0
 40
1.0
 40
1.0
 40
1.0
 40
2.0
 40
2.0
 40
2.0
 40
3.0
 40
3.0
 40
3.0
 40
4.0
 40
4.0
 40
4.0
 40
5.0
 40
5.0
 40
5.0
 40
5.0
 10
134.8685980565606
 20
-151.8584309516187
 10
134.8279459298347
 20
-151.6806640245798
 10
134.742852071349
 20
-151.5387260905875
 10
134.6205511816226
 20
-151.4288275446081
 10
134.6205511816226
 20
-151.4288275446081
 10
134.7614555869693
 20
-151.3144503744978
 10
134.7614555869693
 20
-151.3144503744978
 10
134.8148545669907
 20
-151.3568250489663
 10
134.8503390504888
 20
-151.3905869847218
 10
134.9168293933541
 20
-151.4987629829586
 10
134.9871093412532
 20
-151.6148627008115
 10
135.0057128568735
 20
-151.6679171712844
 10
135.0281059775277
 20
-151.7333739855041
 10
135.0281059775277
 20
-151.7333739855041
 10
134.8685980565606
 20
-151.8584309516187
 10
134.8685980565606
 20
-151.8584309516187
 97
        0
 97
        1
330
A3
 92
        1
 93
        1
 72
     4
 94
        3
 73
     0
 74
     0
 95
       77
 96
       73
 40
0.0
 40
0.0
 40
0.0
 40
0.0
 40
1.0
 40
1.0
 40
1.0
 40
2.0
 40
2.0
 40
2.0
 40
3.0
 40
3.0
 40
3.0
 40
4.0
 40
4.0
 40
4.0
 40
5.0
 40
5.0
 40
5.0
 40
6.0
 40
6.0
 40
6.0
 40
7.0
 40
7.0
 40
7.0
 40
8.0
 40
8.0
 40
8.0
 40
9.0
 40
9.0
 40
9.0
 40
10.0
 40
10.0
 40
10.0
 40
11.0
 40
11.0
 40
11.0
 40
12.0
 40
12.0
 40
12.0
 40
13.0
 40
13.0
 40
13.0
 40
14.0
 40
14.0
 40
14.0
 40
15.0
 40
15.0
 40
15.0
 40
16.0
 40
16.0
 40
16.0
 40
17.0
 40
17.0
 40
17.0
 40
18.0
 40
18.0
 40
18.0
 40
19.0
 40
19.0
 40
19.0
 40
20.0
 40
20.0
 40
20.0
 40
21.0
 40
21.0
 40
21.0
 40
22.0
 40
22.0
 40
22.0
 40
23.0
 40
23.0
 40
23.0
 40
24.0
 40
24.0
 40
24.0
 40
24.0
 10
135.542803243024
 20
-151.1325493328766
 10
135.4818250529351
 20
-151.1284152182943
 10
135.4225694105888
 20
-151.1284152182943
 10
135.3633137682425
 20
-151.1284152182943
 10
135.3633137682425
 20
-151.1284152182943
 10
135.3633137682425
 20
-151.9028726833784
 10
135.3633137682425
 20
-151.9028726833784
 10
135.3633137682425
 20
-152.1671115070971
 10
135.3612467109513
 20
-152.1967393282702
 10
135.3557345581749
 20
-152.2263671494434
 10
135.3261067370018
 20
-152.3596923447226
 10
135.2372232734823
 20
-152.3679605738872
 10
135.0835720148402
 20
-152.3679605738872
 10
135.0484320408906
 20
-152.3679605738872
 10
135.0336181303041
 20
-152.3679605738872
 10
134.9984781563545
 20
-152.3638264593049
 10
134.9984781563545
 20
-152.3638264593049
 10
134.8892686294721
 20
-152.1226697753374
 10
134.8892686294721
 20
-152.1226697753374
 10
134.990898946287
 20
-152.1543646538017
 10
135.0632459514772
 20
-152.1543646538017
 10
135.0835720148402
 20
-152.1543646538017
 10
135.1445502049291
 20
-152.1543646538017
 10
135.1741780261022
 20
-152.1374836859239
 10
135.177967631136
 20
-152.0802951008688
 10
135.177967631136
 20
-152.0675482475734
 10
135.1796901788787
 20
-151.9703965548893
 10
135.1796901788787
 20
-151.9132079698342
 10
135.1796901788787
 20
-151.9132079698342
 10
135.1796901788787
 20
-151.1263481610031
 10
135.1796901788787
 20
-151.1263481610031
 10
135.1796901788787
 20
-151.1263481610031
 10
134.9223415461305
 20
-151.1263481610031
 10
134.9223415461305
 20
-151.1263481610031
 10
134.7945285036277
 20
-151.1263481610031
 10
134.666715461125
 20
-151.1325493328766
 10
134.5409694759134
 20
-151.145296186172
 10
134.5409694759134
 20
-151.145296186172
 10
134.5409694759134
 20
-150.9379014379599
 10
134.5409694759134
 20
-150.9379014379599
 10
134.6725721234499
 20
-150.9506482912554
 10
134.8630859037842
 20
-150.9551269153862
 10
134.9223415461305
 20
-150.9551269153862
 10
134.9223415461305
 20
-150.9551269153862
 10
135.1796901788787
 20
-150.9551269153862
 10
135.1796901788787
 20
-150.9551269153862
 10
135.177967631136
 20
-150.6864094675367
 10
135.177967631136
 20
-150.6102728573127
 10
135.1703884210685
 20
-150.4621337514469
 10
135.1703884210685
 20
-150.4621337514469
 10
135.3963866849009
 20
-150.5000298017847
 10
135.3963866849009
 20
-150.5000298017847
 10
135.4094780477449
 20
-150.5020968590758
 10
135.4225694105888
 20
-150.5086425404978
 10
135.4225694105888
 20
-150.5296576229578
 10
135.4225694105888
 20
-150.5489501576753
 10
135.4167127482639
 20
-150.5510172149664
 10
135.3667588637277
 20
-150.5847791507218
 10
135.3633137682425
 20
-150.662982818237
 10
135.3633137682425
 20
-150.6777967288236
 10
135.3633137682425
 20
-150.9551269153862
 10
135.5186875746273
 20
-150.9506482912554
 10
135.5352240329565
 20
-150.9506482912554
 10
135.5648518541296
 20
-150.9465141766731
 10
135.6092935858893
 20
-150.9423800620908
 10
135.6130831909231
 20
-150.9403130047996
 10
135.6520127699064
 20
-150.9379014379599
 10
135.6520127699064
 20
-150.9379014379599
 10
135.6520127699064
 20
-151.145296186172
 10
135.6520127699064
 20
-151.145296186172
 10
135.626174553767
 20
-151.1432291288809
 10
135.5779432169736
 20
-151.1346163901677
 10
135.542803243024
 20
-151.1325493328766
 97
        0
 97
        1
330
A4
 92
        1
 93
        1
 72
     4
 94
        3
 73
     0
 74
     0
 95
       53
 96
       49
 40
0.0
 40
0.0
 40
0.0
 40
0.0
 40
1.0
 40
1.0
 40
1.0
 40
2.0
 40
2.0
 40
2.0
 40
3.0
 40
3.0
 40
3.0
 40
4.0
 40
4.0
 40
4.0
 40
5.0
 40
5.0
 40
5.0
 40
6.0
 40
6.0
 40
6.0
 40
7.0
 40
7.0
 40
7.0
 40
8.0
 40
8.0
 40
8.0
 40
9.0
 40
9.0
 40
9.0
 40
10.0
 40
10.0
 40
10.0
 40
11.0
 40
11.0
 40
11.0
 40
12.0
 40
12.0
 40
12.0
 40
13.0
 40
13.0
 40
13.0
 40
14.0
 40
14.0
 40
14.0
 40
15.0
 40
15.0
 40
15.0
 40
16.0
 40
16.0
 40
16.0
 40
16.0
 10
134.5354573231369
 20
-150.6333549970639
 10
134.4762016807906
 20
-150.7856282175119
 10
134.43899464955
 20
-150.8638318850271
 10
134.4059217328916
 20
-150.9317002660865
 10
134.4427842545837
 20
-150.9527153485465
 10
134.4465738596175
 20
-150.9551269153862
 10
134.4465738596175
 20
-150.9699408259728
 10
134.4465738596175
 20
-150.9823431697197
 10
134.4169460384444
 20
-151.0164496150236
 10
134.4076442806342
 20
-151.0247178441882
 10
134.4059217328916
 20
-151.221432796396
 10
134.4059217328916
 20
-151.2427923884046
 10
134.4059217328916
 20
-151.3761175836837
 10
134.4038546756004
 20
-151.3885199274306
 10
134.4038546756004
 20
-151.4033338380172
 10
134.4038546756004
 20
-151.4181477486038
 10
134.4038546756004
 20
-151.4181477486038
 10
134.4038546756004
 20
-151.9535155870116
 10
134.4038546756004
 20
-151.9535155870116
 10
134.4038546756004
 20
-152.0255180826533
 10
134.4076442806342
 20
-152.2601290851988
 10
134.4152234907017
 20
-152.3703721407268
 10
134.4152234907017
 20
-152.3703721407268
 10
134.2019720801647
 20
-152.3703721407268
 10
134.2019720801647
 20
-152.3703721407268
 10
134.2222981435277
 20
-152.2115532388568
 10
134.2281548058527
 20
-151.9703965548893
 10
134.2281548058527
 20
-151.9493814724293
 10
134.2281548058527
 20
-151.9493814724293
 10
134.2281548058527
 20
-151.2321125924003
 10
134.2281548058527
 20
-151.2321125924003
 10
134.1485731001434
 20
-151.3464897625106
 10
134.0948296105735
 20
-151.4054008953084
 10
134.0576225793328
 20
-151.4477755697769
 10
134.0576225793328
 20
-151.4477755697769
 10
133.8908799578467
 20
-151.3103162599155
 10
133.8908799578467
 20
-151.3103162599155
 10
134.1372042850421
 20
-151.0946532825388
 10
134.3056694542708
 20
-150.7856282175119
 10
134.4038546756004
 20
-150.4493868981515
 10
134.4038546756004
 20
-150.4493868981515
 10
134.5964355132259
 20
-150.5637640682618
 10
134.5964355132259
 20
-150.5637640682618
 10
134.6074598187787
 20
-150.5699652401353
 10
134.6150390288462
 20
-150.5740993547176
 10
134.6150390288462
 20
-150.5889132653041
 10
134.6150390288462
 20
-150.614406971895
 10
134.6002251182596
 20
-150.6185410864773
 10
134.5354573231369
 20
-150.6333549970639
 97
        0
 97
        1
330
A5
 75
     2
 76
     1
 98
        1
 10
0.0
 20
0.0
450
        0
451
        0
460
0.0
461
0.0
452
        0
462
0.0
453
        0
470

  0
ENDBLK
  5
80
330
7D
100
AcDbEntity
  8
0
100
AcDbBlockEnd
  0
BLOCK
  5
113
330
111
100
AcDbEntity
  8
0
100
AcDbBlockBegin
  2
Block_2
 70
     0
 10
0.0
 20
0.0
 30
0.0
  3
Block_2
  1

  0
INSERT
  5
116
330
111
100
AcDbEntity
  8
レイヤー 1
100
AcDbBlockReference
  2
Block_3
 10
0.0
 20
0.0
 30
0.0
  0
ENDBLK
  5
114
330
111
100
AcDbEntity
  8
0
100
AcDbBlockEnd
  0
BLOCK
  5
117
330
115
100
AcDbEntity
  8
0
100
AcDbBlockBegin
  2
Block_3
 70
     0
 10
0.0
 20
0.0
 30
0.0
  3
Block_3
  1

  0
SPLINE
  5
119
330
115
100
AcDbEntity
  8
レイヤー 1
100
AcDbSpline
210
0.0
220
0.0
230
1.0
 70
     9
 71
     3
 72
    17
 73
    13
 74
     0
 42
0.0000000001
 43
0.0000000001
 40
0.0
 40
0.0
 40
0.0
 40
0.0
 40
1.0
 40
1.0
 40
1.0
 40
2.0
 40
2.0
 40
2.0
 40
3.0
 40
3.0
 40
3.0
 40
4.0
 40
4.0
 40
4.0
 40
4.0
 10
73.70058320640125
 20
-146.9591606620449
 30
0.0
 10
73.70058320640125
 20
-147.2089300847255
 30
0.0
 10
73.98394231006304
 20
-147.2554388737764
 30
0.0
 10
74.32879636813655
 20
-147.2554388737764
 30
0.0
 10
74.64832897439348
 20
-147.2554388737764
 30
0.0
 10
74.95718178464612
 20
-147.2192653711813
 30
0.0
 10
74.95718178464612
 20
-146.9591606620449
 30
0.0
 10
74.95718178464612
 20
-146.7114582966555
 30
0.0
 10
74.67571748350121
 20
-146.6628824503134
 30
0.0
 10
74.32879636813655
 20
-146.6628824503134
 30
0.0
 10
74.00943601665389
 20
-146.6628824503134
 30
0.0
 10
73.70058320640125
 20
-146.7011230101997
 30
0.0
 10
73.70058320640125
 20
-146.9591606620449
 30
0.0
  0
SPLINE
  5
11A
330
115
100
AcDbEntity
  8
レイヤー 1
100
AcDbSpline
210
0.0
220
0.0
230
1.0
 70
     9
 71
     3
 72
    29
 73
    25
 74
     0
 42
0.0000000001
 43
0.0000000001
 40
0.0
 40
0.0
 40
0.0
 40
0.0
 40
1.0
 40
1.0
 40
1.0
 40
2.0
 40
2.0
 40
2.0
 40
3.0
 40
3.0
 40
3.0
 40
4.0
 40
4.0
 40
4.0
 40
5.0
 40
5.0
 40
5.0
 40
6.0
 40
6.0
 40
6.0
 40
7.0
 40
7.0
 40
7.0
 40
8.0
 40
8.0
 40
8.0
 40
8.0
 10
74.92324759411641
 20
-146.5612521334985
 30
0.0
 10
75.1327093996196
 20
-146.6694281317354
 30
0.0
 10
75.15182967956274
 20
-146.8427164346435
 30
0.0
 10
75.15182967956274
 20
-146.9591606620449
 30
0.0
 10
75.15182967956274
 20
-147.1200466212061
 30
0.0
 10
75.10532089051186
 20
-147.2616400456498
 30
0.0
 10
74.92324759411641
 20
-147.3567246810427
 30
0.0
 10
74.72877195397406
 20
-147.4604220551488
 30
0.0
 10
74.49174938458887
 20
-147.4797145898661
 30
0.0
 10
74.32879636813655
 20
-147.4797145898661
 30
0.0
 10
74.18496363162737
 20
-147.4797145898661
 30
0.0
 10
73.93329940642987
 20
-147.4624891124399
 30
0.0
 10
73.7343451421567
 20
-147.3567246810427
 30
0.0
 10
73.53125676330122
 20
-147.2488931923544
 30
0.0
 10
73.50800236877578
 20
-147.0880072331933
 30
0.0
 10
73.50800236877578
 20
-146.9591606620449
 30
0.0
 10
73.50800236877578
 20
-146.8003417601749
 30
0.0
 10
73.55244410053551
 20
-146.65668127844
 30
0.0
 10
73.7343451421567
 20
-146.5612521334985
 30
0.0
 10
73.92692597978215
 20
-146.4620333835234
 30
0.0
 10
74.15533581045422
 20
-146.4386067342237
 30
0.0
 10
74.32879636813655
 20
-146.4386067342237
 30
0.0
 10
74.50018986852772
 20
-146.4386067342237
 30
0.0
 10
74.7308390112652
 20
-146.4599663262322
 30
0.0
 10
74.92324759411641
 20
-146.5612521334985
 30
0.0
  0
HATCH
  5
11B
330
115
100
AcDbEntity
  8
レイヤー 1
 62
   250
420
  2299925
440
 33554687
100
AcDbHatch
 10
0.0
 20
0.0
 30
0.0
210
0.0
220
0.0
230
1.0
  2
SOLID
 70
     1
 71
     1
 91
        2
 92
        1
 93
        1
 72
     4
 94
        3
 73
     0
 74
     0
 95
       17
 96
       13
 40
0.0
 40
0.0
 40
0.0
 40
0.0
 40
1.0
 40
1.0
 40
1.0
 40
2.0
 40
2.0
 40
2.0
 40
3.0
 40
3.0
 40
3.0
 40
4.0
 40
4.0
 40
4.0
 40
4.0
 10
73.70058320640125
 20
-146.9591606620449
 10
73.70058320640125
 20
-147.2089300847255
 10
73.98394231006304
 20
-147.2554388737764
 10
74.32879636813655
 20
-147.2554388737764
 10
74.64832897439348
 20
-147.2554388737764
 10
74.95718178464612
 20
-147.2192653711813
 10
74.95718178464612
 20
-146.9591606620449
 10
74.95718178464612
 20
-146.7114582966555
 10
74.67571748350121
 20
-146.6628824503134
 10
74.32879636813655
 20
-146.6628824503134
 10
74.00943601665389
 20
-146.6628824503134
 10
73.70058320640125
 20
-146.7011230101997
 10
73.70058320640125
 20
-146.9591606620449
 97
        0
 97
        1
330
119
 92
        1
 93
        1
 72
     4
 94
        3
 73
     0
 74
     0
 95
       29
 96
       25
 40
0.0
 40
0.0
 40
0.0
 40
0.0
 40
1.0
 40
1.0
 40
1.0
 40
2.0
 40
2.0
 40
2.0
 40
3.0
 40
3.0
 40
3.0
 40
4.0
 40
4.0
 40
4.0
 40
5.0
 40
5.0
 40
5.0
 40
6.0
 40
6.0
 40
6.0
 40
7.0
 40
7.0
 40
7.0
 40
8.0
 40
8.0
 40
8.0
 40
8.0
 10
74.92324759411641
 20
-146.5612521334985
 10
75.1327093996196
 20
-146.6694281317354
 10
75.15182967956274
 20
-146.8427164346435
 10
75.15182967956274
 20
-146.9591606620449
 10
75.15182967956274
 20
-147.1200466212061
 10
75.10532089051186
 20
-147.2616400456498
 10
74.92324759411641
 20
-147.3567246810427
 10
74.72877195397406
 20
-147.4604220551488
 10
74.49174938458887
 20
-147.4797145898661
 10
74.32879636813655
 20
-147.4797145898661
 10
74.18496363162737
 20
-147.4797145898661
 10
73.93329940642987
 20
-147.4624891124399
 10
73.7343451421567
 20
-147.3567246810427
 10
73.53125676330122
 20
-147.2488931923544
 10
73.50800236877578
 20
-147.0880072331933
 10
73.50800236877578
 20
-146.9591606620449
 10
73.50800236877578
 20
-146.8003417601749
 10
73.55244410053551
 20
-146.65668127844
 10
73.7343451421567
 20
-146.5612521334985
 10
73.92692597978215
 20
-146.4620333835234
 10
74.15533581045422
 20
-146.4386067342237
 10
74.32879636813655
 20
-146.4386067342237
 10
74.50018986852772
 20
-146.4386067342237
 10
74.7308390112652
 20
-146.4599663262322
 10
74.92324759411641
 20
-146.5612521334985
 97
        0
 97
        1
330
11A
 75
     2
 76
     1
 98
        1
 10
0.0
 20
0.0
450
        0
451
        0
460
0.0
461
0.0
452
        0
462
0.0
453
        0
470

  0
SPLINE
  5
11C
330
115
100
AcDbEntity
  8
レイヤー 1
100
AcDbSpline
210
0.0
220
0.0
230
1.0
 70
    11
 71
     3
 72
    17
 73
    13
 74
     0
 42
0.0000000001
 43
0.0000000001
 40
0.0
 40
0.0
 40
0.0
 40
0.0
 40
1.0
 40
1.0
 40
1.0
 40
2.0
 40
2.0
 40
2.0
 40
3.0
 40
3.0
 40
3.0
 40
4.0
 40
4.0
 40
4.0
 40
4.0
 10
75.10101452115531
 20
-146.22225473775
 30
0.0
 10
75.10101452115531
 20
-146.22225473775
 30
0.0
 10
74.84935029595781
 20
-146.22225473775
 30
0.0
 10
74.84935029595781
 20
-146.22225473775
 30
0.0
 10
74.84935029595781
 20
-146.22225473775
 30
0.0
 10
74.84935029595781
 20
-145.9704182577782
 30
0.0
 10
74.84935029595781
 20
-145.9704182577782
 30
0.0
 10
74.84935029595781
 20
-145.9704182577782
 30
0.0
 10
75.10101452115531
 20
-145.9704182577782
 30
0.0
 10
75.10101452115531
 20
-145.9704182577782
 30
0.0
 10
75.10101452115531
 20
-145.9704182577782
 30
0.0
 10
75.10101452115531
 20
-146.22225473775
 30
0.0
 10
75.10101452115531
 20
-146.22225473775
 30
0.0
  0
HATCH
  5
11D
330
115
100
AcDbEntity
  8
レイヤー 1
 62
   250
420
  2299925
440
 33554687
100
AcDbHatch
 10
0.0
 20
0.0
 30
0.0
210
0.0
220
0.0
230
1.0
  2
SOLID
 70
     1
 71
     1
 91
        1
 92
        1
 93
        1
 72
     4
 94
        3
 73
     0
 74
     0
 95
       17
 96
       13
 40
0.0
 40
0.0
 40
0.0
 40
0.0
 40
1.0
 40
1.0
 40
1.0
 40
2.0
 40
2.0
 40
2.0
 40
3.0
 40
3.0
 40
3.0
 40
4.0
 40
4.0
 40
4.0
 40
4.0
 10
75.10101452115531
 20
-146.22225473775
 10
75.10101452115531
 20
-146.22225473775
 10
74.84935029595781
 20
-146.22225473775
 10
74.84935029595781
 20
-146.22225473775
 10
74.84935029595781
 20
-146.22225473775
 10
74.84935029595781
 20
-145.9704182577782
 10
74.84935029595781
 20
-145.9704182577782
 10
74.84935029595781
 20
-145.9704182577782
 10
75.10101452115531
 20
-145.9704182577782
 10
75.10101452115531
 20
-145.9704182577782
 10
75.10101452115531
 20
-145.9704182577782
 10
75.10101452115531
 20
-146.22225473775
 10
75.10101452115531
 20
-146.22225473775
 97
        0
 97
        1
330
11C
 75
     2
 76
     1
 98
        1
 10
0.0
 20
0.0
450
        0
451
        0
460
0.0
461
0.0
452
        0
462
0.0
453
        0
470

  0
SPLINE
  5
11E
330
115
100
AcDbEntity
  8
レイヤー 1
100
AcDbSpline
210
0.0
220
0.0
230
1.0
 70
     9
 71
     3
 72
    53
 73
    49
 74
     0
 42
0.0000000001
 43
0.0000000001
 40
0.0
 40
0.0
 40
0.0
 40
0.0
 40
1.0
 40
1.0
 40
1.0
 40
2.0
 40
2.0
 40
2.0
 40
3.0
 40
3.0
 40
3.0
 40
4.0
 40
4.0
 40
4.0
 40
5.0
 40
5.0
 40
5.0
 40
6.0
 40
6.0
 40
6.0
 40
7.0
 40
7.0
 40
7.0
 40
8.0
 40
8.0
 40
8.0
 40
9.0
 40
9.0
 40
9.0
 40
10.0
 40
10.0
 40
10.0
 40
11.0
 40
11.0
 40
11.0
 40
12.0
 40
12.0
 40
12.0
 40
13.0
 40
13.0
 40
13.0
 40
14.0
 40
14.0
 40
14.0
 40
15.0
 40
15.0
 40
15.0
 40
16.0
 40
16.0
 40
16.0
 40
16.0
 10
75.15182967956274
 20
-145.2531493777492
 30
0.0
 10
75.15182967956274
 20
-145.3313530452644
 30
0.0
 10
75.13494871168501
 20
-145.4329833620792
 30
0.0
 10
75.07138669998216
 20
-145.5346136788941
 30
0.0
 10
74.96131589922843
 20
-145.7079019818022
 30
0.0
 10
74.83023001601466
 20
-145.7292615738107
 30
0.0
 10
74.72239852732634
 20
-145.7482095989796
 30
0.0
 10
74.72239852732634
 20
-145.7482095989796
 30
0.0
 10
74.72239852732634
 20
-145.526000940181
 30
0.0
 10
74.72239852732634
 20
-145.526000940181
 30
0.0
 10
74.92118053682526
 20
-145.4712239219655
 30
0.0
 10
74.95080835799841
 20
-145.3440998985598
 30
0.0
 10
74.95080835799841
 20
-145.251082320458
 30
0.0
 10
74.95080835799841
 20
-145.1115559533054
 30
0.0
 10
74.85141735324894
 20
-144.9592827328574
 30
0.0
 10
74.61870115322033
 20
-144.9592827328574
 30
0.0
 10
74.36273055866627
 20
-144.9592827328574
 30
0.0
 10
74.29296737508995
 20
-145.1391167171874
 30
0.0
 10
74.29296737508995
 20
-145.2596950591712
 30
0.0
 10
74.29296737508995
 20
-145.2913899376355
 30
0.0
 10
74.29296737508995
 20
-145.4329833620792
 30
0.0
 10
74.42198620101255
 20
-145.5218668255987
 30
0.0
 10
74.42198620101255
 20
-145.5218668255987
 30
0.0
 10
74.40286592106942
 20
-145.6975666953464
 30
0.0
 10
74.40286592106942
 20
-145.6975666953464
 30
0.0
 10
74.40286592106942
 20
-145.6975666953464
 30
0.0
 10
73.55675046989206
 20
-145.5769883533627
 30
0.0
 10
73.55675046989206
 20
-145.5769883533627
 30
0.0
 10
73.55675046989206
 20
-145.5769883533627
 30
0.0
 10
73.55675046989206
 20
-144.7983967736962
 30
0.0
 10
73.55675046989206
 20
-144.7983967736962
 30
0.0
 10
73.55675046989206
 20
-144.7983967736962
 30
0.0
 10
73.75139836480868
 20
-144.7983967736962
 30
0.0
 10
73.75139836480868
 20
-144.7983967736962
 30
0.0
 10
73.75139836480868
 20
-144.7983967736962
 30
0.0
 10
73.75139836480868
 20
-145.4140353369104
 30
0.0
 10
73.75139836480868
 20
-145.4140353369104
 30
0.0
 10
73.75139836480868
 20
-145.4140353369104
 30
0.0
 10
74.17445609039735
 20
-145.4794921511301
 30
0.0
 10
74.17445609039735
 20
-145.4794921511301
 30
0.0
 10
74.14052189986765
 20
-145.4181694514927
 30
0.0
 10
74.10038653746449
 20
-145.3358316693952
 30
0.0
 10
74.10038653746449
 20
-145.2173203847026
 30
0.0
 10
74.10038653746449
 20
-144.9634168474397
 30
0.0
 10
74.28659394844224
 20
-144.7263942780545
 30
0.0
 10
74.59958087327719
 20
-144.7263942780545
 30
0.0
 10
74.91704642224296
 20
-144.7263942780545
 30
0.0
 10
75.15182967956274
 20
-144.9506699941442
 30
0.0
 10
75.15182967956274
 20
-145.2531493777492
 30
0.0
  0
HATCH
  5
11F
330
115
100
AcDbEntity
  8
レイヤー 1
 62
   250
420
  2299925
440
 33554687
100
AcDbHatch
 10
0.0
 20
0.0
 30
0.0
210
0.0
220
0.0
230
1.0
  2
SOLID
 70
     1
 71
     1
 91
        1
 92
        1
 93
        1
 72
     4
 94
        3
 73
     0
 74
     0
 95
       53
 96
       49
 40
0.0
 40
0.0
 40
0.0
 40
0.0
 40
1.0
 40
1.0
 40
1.0
 40
2.0
 40
2.0
 40
2.0
 40
3.0
 40
3.0
 40
3.0
 40
4.0
 40
4.0
 40
4.0
 40
5.0
 40
5.0
 40
5.0
 40
6.0
 40
6.0
 40
6.0
 40
7.0
 40
7.0
 40
7.0
 40
8.0
 40
8.0
 40
8.0
 40
9.0
 40
9.0
 40
9.0
 40
10.0
 40
10.0
 40
10.0
 40
11.0
 40
11.0
 40
11.0
 40
12.0
 40
12.0
 40
12.0
 40
13.0
 40
13.0
 40
13.0
 40
14.0
 40
14.0
 40
14.0
 40
15.0
 40
15.0
 40
15.0
 40
16.0
 40
16.0
 40
16.0
 40
16.0
 10
75.15182967956274
 20
-145.2531493777492
 10
75.15182967956274
 20
-145.3313530452644
 10
75.13494871168501
 20
-145.4329833620792
 10
75.07138669998216
 20
-145.5346136788941
 10
74.96131589922843
 20
-145.7079019818022
 10
74.83023001601466
 20
-145.7292615738107
 10
74.72239852732634
 20
-145.7482095989796
 10
74.72239852732634
 20
-145.7482095989796
 10
74.72239852732634
 20
-145.526000940181
 10
74.72239852732634
 20
-145.526000940181
 10
74.92118053682526
 20
-145.4712239219655
 10
74.95080835799841
 20
-145.3440998985598
 10
74.95080835799841
 20
-145.251082320458
 10
74.95080835799841
 20
-145.1115559533054
 10
74.85141735324894
 20
-144.9592827328574
 10
74.61870115322033
 20
-144.9592827328574
 10
74.36273055866627
 20
-144.9592827328574
 10
74.29296737508995
 20
-145.1391167171874
 10
74.29296737508995
 20
-145.2596950591712
 10
74.29296737508995
 20
-145.2913899376355
 10
74.29296737508995
 20
-145.4329833620792
 10
74.42198620101255
 20
-145.5218668255987
 10
74.42198620101255
 20
-145.5218668255987
 10
74.40286592106942
 20
-145.6975666953464
 10
74.40286592106942
 20
-145.6975666953464
 10
74.40286592106942
 20
-145.6975666953464
 10
73.55675046989206
 20
-145.5769883533627
 10
73.55675046989206
 20
-145.5769883533627
 10
73.55675046989206
 20
-145.5769883533627
 10
73.55675046989206
 20
-144.7983967736962
 10
73.55675046989206
 20
-144.7983967736962
 10
73.55675046989206
 20
-144.7983967736962
 10
73.75139836480868
 20
-144.7983967736962
 10
73.75139836480868
 20
-144.7983967736962
 10
73.75139836480868
 20
-144.7983967736962
 10
73.75139836480868
 20
-145.4140353369104
 10
73.75139836480868
 20
-145.4140353369104
 10
73.75139836480868
 20
-145.4140353369104
 10
74.17445609039735
 20
-145.4794921511301
 10
74.17445609039735
 20
-145.4794921511301
 10
74.14052189986765
 20
-145.4181694514927
 10
74.10038653746449
 20
-145.3358316693952
 10
74.10038653746449
 20
-145.2173203847026
 10
74.10038653746449
 20
-144.9634168474397
 10
74.28659394844224
 20
-144.7263942780545
 10
74.59958087327719
 20
-144.7263942780545
 10
74.91704642224296
 20
-144.7263942780545
 10
75.15182967956274
 20
-144.9506699941442
 10
75.15182967956274
 20
-145.2531493777492
 97
        0
 97
        1
330
11E
 75
     2
 76
     1
 98
        1
 10
0.0
 20
0.0
450
        0
451
        0
460
0.0
461
0.0
452
        0
462
0.0
453
        0
470

  0
ENDBLK
  5
118
330
115
100
AcDbEntity
  8
0
100
AcDbBlockEnd
  0
BLOCK
  5
124
330
122
100
AcDbEntity
  8
0
100
AcDbBlockBegin
  2
Block_4
 70
     0
 10
0.0
 20
0.0
 30
0.0
  3
Block_4
  1

  0
INSERT
  5
127
330
122
100
AcDbEntity
  8
レイヤー 1
100
AcDbBlockReference
  2
Block_5
 10
0.0
 20
0.0
 30
0.0
  0
ENDBLK
  5
125
330
122
100
AcDbEntity
  8
0
100
AcDbBlockEnd
  0
BLOCK
  5
128
330
126
100
AcDbEntity
  8
0
100
AcDbBlockBegin
  2
Block_5
 70
     0
 10
0.0
 20
0.0
 30
0.0
  3
Block_5
  1

  0
SPLINE
  5
12A
330
126
100
AcDbEntity
  8
レイヤー 1
100
AcDbSpline
210
0.0
220
0.0
230
1.0
 70
     9
 71
     3
 72
    44
 73
    40
 74
     0
 42
0.0000000001
 43
0.0000000001
 40
0.0
 40
0.0
 40
0.0
 40
0.0
 40
1.0
 40
1.0
 40
1.0
 40
2.0
 40
2.0
 40
2.0
 40
3.0
 40
3.0
 40
3.0
 40
4.0
 40
4.0
 40
4.0
 40
5.0
 40
5.0
 40
5.0
 40
6.0
 40
6.0
 40
6.0
 40
7.0
 40
7.0
 40
7.0
 40
8.0
 40
8.0
 40
8.0
 40
9.0
 40
9.0
 40
9.0
 40
10.0
 40
10.0
 40
10.0
 40
11.0
 40
11.0
 40
11.0
 40
12.0
 40
12.0
 40
12.0
 40
13.0
 40
13.0
 40
13.0
 40
13.0
 10
88.70380178989002
 20
-139.7468532636744
 30
0.0
 10
88.48589950044797
 20
-139.9054999107701
 30
0.0
 10
88.39270966757196
 20
-139.979569463703
 30
0.0
 10
88.34413382122994
 20
-140.1234022002122
 30
0.0
 10
88.34413382122994
 20
-140.1234022002122
 30
0.0
 10
89.12255314612215
 20
-140.1234022002122
 30
0.0
 10
89.12255314612215
 20
-140.1234022002122
 30
0.0
 10
89.12255314612215
 20
-140.1234022002122
 30
0.0
 10
89.12255314612215
 20
-140.3285576363588
 30
0.0
 10
89.12255314612215
 20
-140.3285576363588
 30
0.0
 10
89.12255314612215
 20
-140.3285576363588
 30
0.0
 10
88.09453665332359
 20
-140.3285576363588
 30
0.0
 10
88.09453665332359
 20
-140.3285576363588
 30
0.0
 10
88.12623153178789
 20
-139.9709567249899
 30
0.0
 10
88.19186060078189
 20
-139.8927530574747
 30
0.0
 10
88.57685002125856
 20
-139.5944077884521
 30
0.0
 10
88.83282061581263
 20
-139.3956257789532
 30
0.0
 10
88.89827743003237
 20
-139.327929652668
 30
0.0
 10
88.89827743003237
 20
-139.1904703428065
 30
0.0
 10
88.89827743003237
 20
-139.0719590581139
 30
0.0
 10
88.82644718916493
 20
-138.9407009201259
 30
0.0
 10
88.62973223695716
 20
-138.9407009201259
 30
0.0
 10
88.36945527304653
 20
-138.9407009201259
 30
0.0
 10
88.36101478910768
 20
-139.1713500628634
 30
0.0
 10
88.3567084197511
 20
-139.2877942902648
 30
0.0
 10
88.3567084197511
 20
-139.2877942902648
 30
0.0
 10
88.13260495843561
 20
-139.2877942902648
 30
0.0
 10
88.13260495843561
 20
-139.2877942902648
 30
0.0
 10
88.14104544237446
 20
-139.1608425216334
 30
0.0
 10
88.15155298360448
 20
-139.0487046635885
 30
0.0
 10
88.23199596318506
 20
-138.9301933788959
 30
0.0
 10
88.34189450916452
 20
-138.769479674509
 30
0.0
 10
88.5281019201423
 20
-138.7355454839793
 30
0.0
 10
88.64454614754373
 20
-138.7355454839793
 30
0.0
 10
88.92170407933207
 20
-138.7355454839793
 30
0.0
 10
89.12892657276985
 20
-138.9196858376659
 30
0.0
 10
89.12892657276985
 20
-139.1925374000977
 30
0.0
 10
89.12892657276985
 20
-139.4209472307697
 30
0.0
 10
89.01265460014267
 20
-139.5205104902935
 30
0.0
 10
88.70380178989002
 20
-139.7468532636744
 30
0.0
  0
HATCH
  5
12B
330
126
100
AcDbEntity
  8
レイヤー 1
 62
   250
420
  2299925
440
 33554687
100
AcDbHatch
 10
0.0
 20
0.0
 30
0.0
210
0.0
220
0.0
230
1.0
  2
SOLID
 70
     1
 71
     1
 91
        1
 92
        1
 93
        1
 72
     4
 94
        3
 73
     0
 74
     0
 95
       44
 96
       40
 40
0.0
 40
0.0
 40
0.0
 40
0.0
 40
1.0
 40
1.0
 40
1.0
 40
2.0
 40
2.0
 40
2.0
 40
3.0
 40
3.0
 40
3.0
 40
4.0
 40
4.0
 40
4.0
 40
5.0
 40
5.0
 40
5.0
 40
6.0
 40
6.0
 40
6.0
 40
7.0
 40
7.0
 40
7.0
 40
8.0
 40
8.0
 40
8.0
 40
9.0
 40
9.0
 40
9.0
 40
10.0
 40
10.0
 40
10.0
 40
11.0
 40
11.0
 40
11.0
 40
12.0
 40
12.0
 40
12.0
 40
13.0
 40
13.0
 40
13.0
 40
13.0
 10
88.70380178989002
 20
-139.7468532636744
 10
88.48589950044797
 20
-139.9054999107701
 10
88.39270966757196
 20
-139.979569463703
 10
88.34413382122994
 20
-140.1234022002122
 10
88.34413382122994
 20
-140.1234022002122
 10
89.12255314612215
 20
-140.1234022002122
 10
89.12255314612215
 20
-140.1234022002122
 10
89.12255314612215
 20
-140.1234022002122
 10
89.12255314612215
 20
-140.3285576363588
 10
89.12255314612215
 20
-140.3285576363588
 10
89.12255314612215
 20
-140.3285576363588
 10
88.09453665332359
 20
-140.3285576363588
 10
88.09453665332359
 20
-140.3285576363588
 10
88.12623153178789
 20
-139.9709567249899
 10
88.19186060078189
 20
-139.8927530574747
 10
88.57685002125856
 20
-139.5944077884521
 10
88.83282061581263
 20
-139.3956257789532
 10
88.89827743003237
 20
-139.327929652668
 10
88.89827743003237
 20
-139.1904703428065
 10
88.89827743003237
 20
-139.0719590581139
 10
88.82644718916493
 20
-138.9407009201259
 10
88.62973223695716
 20
-138.9407009201259
 10
88.36945527304653
 20
-138.9407009201259
 10
88.36101478910768
 20
-139.1713500628634
 10
88.3567084197511
 20
-139.2877942902648
 10
88.3567084197511
 20
-139.2877942902648
 10
88.13260495843561
 20
-139.2877942902648
 10
88.13260495843561
 20
-139.2877942902648
 10
88.14104544237446
 20
-139.1608425216334
 10
88.15155298360448
 20
-139.0487046635885
 10
88.23199596318506
 20
-138.9301933788959
 10
88.34189450916452
 20
-138.769479674509
 10
88.5281019201423
 20
-138.7355454839793
 10
88.64454614754373
 20
-138.7355454839793
 10
88.92170407933207
 20
-138.7355454839793
 10
89.12892657276985
 20
-138.9196858376659
 10
89.12892657276985
 20
-139.1925374000977
 10
89.12892657276985
 20
-139.4209472307697
 10
89.01265460014267
 20
-139.5205104902935
 10
88.70380178989002
 20
-139.7468532636744
 97
        0
 97
        1
330
12A
 75
     2
 76
     1
 98
        1
 10
0.0
 20
0.0
450
        0
451
        0
460
0.0
461
0.0
452
        0
462
0.0
453
        0
470

  0
SPLINE
  5
12C
330
126
100
AcDbEntity
  8
レイヤー 1
100
AcDbSpline
210
0.0
220
0.0
230
1.0
 70
    11
 71
     3
 72
    26
 73
    22
 74
     0
 42
0.0000000001
 43
0.0000000001
 40
0.0
 40
0.0
 40
0.0
 40
0.0
 40
1.0
 40
1.0
 40
1.0
 40
2.0
 40
2.0
 40
2.0
 40
3.0
 40
3.0
 40
3.0
 40
4.0
 40
4.0
 40
4.0
 40
5.0
 40
5.0
 40
5.0
 40
6.0
 40
6.0
 40
6.0
 40
7.0
 40
7.0
 40
7.0
 40
7.0
 10
89.73888072843335
 20
-140.3285576363588
 30
0.0
 10
89.73888072843335
 20
-140.3285576363588
 30
0.0
 10
89.73888072843335
 20
-139.224232278562
 30
0.0
 10
89.73888072843335
 20
-139.224232278562
 30
0.0
 10
89.73888072843335
 20
-139.224232278562
 30
0.0
 10
89.4088405809464
 20
-139.224232278562
 30
0.0
 10
89.4088405809464
 20
-139.224232278562
 30
0.0
 10
89.4088405809464
 20
-139.224232278562
 30
0.0
 10
89.4088405809464
 20
-139.0760931726962
 30
0.0
 10
89.4088405809464
 20
-139.0760931726962
 30
0.0
 10
89.74094778572448
 20
-139.0614515168839
 30
0.0
 10
89.78745657477537
 20
-138.8984985004316
 30
0.0
 10
89.81708439594852
 20
-138.7842935850956
 30
0.0
 10
89.81708439594852
 20
-138.7842935850956
 30
0.0
 10
89.96315644452311
 20
-138.7842935850956
 30
0.0
 10
89.96315644452311
 20
-138.7842935850956
 30
0.0
 10
89.96315644452311
 20
-138.7842935850956
 30
0.0
 10
89.96315644452311
 20
-140.3285576363588
 30
0.0
 10
89.96315644452311
 20
-140.3285576363588
 30
0.0
 10
89.96315644452311
 20
-140.3285576363588
 30
0.0
 10
89.73888072843335
 20
-140.3285576363588
 30
0.0
 10
89.73888072843335
 20
-140.3285576363588
 30
0.0
  0
HATCH
  5
12D
330
126
100
AcDbEntity
  8
レイヤー 1
 62
   250
420
  2299925
440
 33554687
100
AcDbHatch
 10
0.0
 20
0.0
 30
0.0
210
0.0
220
0.0
230
1.0
  2
SOLID
 70
     1
 71
     1
 91
        1
 92
        1
 93
        1
 72
     4
 94
        3
 73
     0
 74
     0
 95
       26
 96
       22
 40
0.0
 40
0.0
 40
0.0
 40
0.0
 40
1.0
 40
1.0
 40
1.0
 40
2.0
 40
2.0
 40
2.0
 40
3.0
 40
3.0
 40
3.0
 40
4.0
 40
4.0
 40
4.0
 40
5.0
 40
5.0
 40
5.0
 40
6.0
 40
6.0
 40
6.0
 40
7.0
 40
7.0
 40
7.0
 40
7.0
 10
89.73888072843335
 20
-140.3285576363588
 10
89.73888072843335
 20
-140.3285576363588
 10
89.73888072843335
 20
-139.224232278562
 10
89.73888072843335
 20
-139.224232278562
 10
89.73888072843335
 20
-139.224232278562
 10
89.4088405809464
 20
-139.224232278562
 10
89.4088405809464
 20
-139.224232278562
 10
89.4088405809464
 20
-139.224232278562
 10
89.4088405809464
 20
-139.0760931726962
 10
89.4088405809464
 20
-139.0760931726962
 10
89.74094778572448
 20
-139.0614515168839
 10
89.78745657477537
 20
-138.8984985004316
 10
89.81708439594852
 20
-138.7842935850956
 10
89.81708439594852
 20
-138.7842935850956
 10
89.96315644452311
 20
-138.7842935850956
 10
89.96315644452311
 20
-138.7842935850956
 10
89.96315644452311
 20
-138.7842935850956
 10
89.96315644452311
 20
-140.3285576363588
 10
89.96315644452311
 20
-140.3285576363588
 10
89.96315644452311
 20
-140.3285576363588
 10
89.73888072843335
 20
-140.3285576363588
 10
89.73888072843335
 20
-140.3285576363588
 97
        0
 97
        1
330
12C
 75
     2
 76
     1
 98
        1
 10
0.0
 20
0.0
450
        0
451
        0
460
0.0
461
0.0
452
        0
462
0.0
453
        0
470

  0
ENDBLK
  5
129
330
126
100
AcDbEntity
  8
0
100
AcDbBlockEnd
  0
BLOCK
  5
132
330
130
100
AcDbEntity
  8
0
100
AcDbBlockBegin
  2
Block_6
 70
     0
 10
0.0
 20
0.0
 30
0.0
  3
Block_6
  1

  0
SPLINE
  5
134
330
130
100
AcDbEntity
  8
レイヤー 1
100
AcDbSpline
210
0.0
220
0.0
230
1.0
 70
     9
 71
     3
 72
    17
 73
    13
 74
     0
 42
0.0000000001
 43
0.0000000001
 40
0.0
 40
0.0
 40
0.0
 40
0.0
 40
1.0
 40
1.0
 40
1.0
 40
2.0
 40
2.0
 40
2.0
 40
3.0
 40
3.0
 40
3.0
 40
4.0
 40
4.0
 40
4.0
 40
4.0
 10
75.0913682537966
 20
-150.1575873105509
 30
0.0
 10
75.0913682537966
 20
-150.3012477922858
 30
0.0
 10
75.17801240525064
 20
-150.4538655222823
 30
0.0
 10
75.38110078410612
 20
-150.4538655222823
 30
0.0
 10
75.58625622025274
 20
-150.4538655222823
 30
0.0
 10
75.68788653706761
 20
-150.3267414988766
 30
0.0
 10
75.68788653706761
 20
-150.1575873105509
 30
0.0
 10
75.68788653706761
 20
-149.9715521543474
 30
0.0
 10
75.56524113779272
 20
-149.8613090988194
 30
0.0
 10
75.38747421075382
 20
-149.8613090988194
 30
0.0
 10
75.16526555195522
 20
-149.8613090988194
 30
0.0
 10
75.0913682537966
 20
-150.0242621152717
 30
0.0
 10
75.0913682537966
 20
-150.1575873105509
 30
0.0
  0
SPLINE
  5
135
330
130
100
AcDbEntity
  8
レイヤー 1
100
AcDbSpline
210
0.0
220
0.0
230
1.0
 70
     9
 71
     3
 72
    17
 73
    13
 74
     0
 42
0.0000000001
 43
0.0000000001
 40
0.0
 40
0.0
 40
0.0
 40
0.0
 40
1.0
 40
1.0
 40
1.0
 40
2.0
 40
2.0
 40
2.0
 40
3.0
 40
3.0
 40
3.0
 40
4.0
 40
4.0
 40
4.0
 40
4.0
 10
74.43128795882273
 20
-150.1575873105509
 30
0.0
 10
74.43128795882273
 20
-150.3226073842943
 30
0.0
 10
74.52637259421563
 20
-150.4073567332315
 30
0.0
 10
74.66176484678595
 20
-150.4073567332315
 30
0.0
 10
74.78458250083511
 20
-150.4073567332315
 30
0.0
 10
74.9030937855277
 20
-150.3353542375897
 30
0.0
 10
74.9030937855277
 20
-150.1575873105509
 30
0.0
 10
74.9030937855277
 20
-149.979820383512
 30
0.0
 10
74.78458250083511
 20
-149.9078178878702
 30
0.0
 10
74.66176484678595
 20
-149.9078178878702
 30
0.0
 10
74.52637259421563
 20
-149.9078178878702
 30
0.0
 10
74.43128795882273
 20
-149.9946342940986
 30
0.0
 10
74.43128795882273
 20
-150.1575873105509
 30
0.0
  0
SPLINE
  5
136
330
130
100
AcDbEntity
  8
レイヤー 1
100
AcDbSpline
210
0.0
220
0.0
230
1.0
 70
     9
 71
     3
 72
    29
 73
    25
 74
     0
 42
0.0000000001
 43
0.0000000001
 40
0.0
 40
0.0
 40
0.0
 40
0.0
 40
1.0
 40
1.0
 40
1.0
 40
2.0
 40
2.0
 40
2.0
 40
3.0
 40
3.0
 40
3.0
 40
4.0
 40
4.0
 40
4.0
 40
5.0
 40
5.0
 40
5.0
 40
6.0
 40
6.0
 40
6.0
 40
7.0
 40
7.0
 40
7.0
 40
8.0
 40
8.0
 40
8.0
 40
8.0
 10
75.88253443198422
 20
-150.1575873105509
 30
0.0
 10
75.88253443198422
 20
-150.4242377011092
 30
0.0
 10
75.7449028673485
 20
-150.6781412383721
 30
0.0
 10
75.39591469469269
 20
-150.6781412383721
 30
0.0
 10
75.13994410013864
 20
-150.6781412383721
 30
0.0
 10
75.04468720997147
 20
-150.5362033043798
 30
0.0
 10
74.98336451033402
 20
-150.4304388729827
 30
0.0
 10
74.92410886798772
 20
-150.5551513295487
 30
0.0
 10
74.8099039526517
 20
-150.6312879397727
 30
0.0
 10
74.64919024826478
 20
-150.6312879397727
 30
0.0
 10
74.37409937376759
 20
-150.6312879397727
 30
0.0
 10
74.23870712119726
 20
-150.4325059302738
 30
0.0
 10
74.23870712119726
 20
-150.1575873105509
 30
0.0
 10
74.23870712119726
 20
-149.8740559521148
 30
0.0
 10
74.38253985770645
 20
-149.6835421717805
 30
0.0
 10
74.64919024826478
 20
-149.6835421717805
 30
0.0
 10
74.8099039526517
 20
-149.6835421717805
 30
0.0
 10
74.92410886798772
 20
-149.7620903488442
 30
0.0
 10
74.98336451033402
 20
-149.8868028054102
 30
0.0
 10
75.03417966874145
 20
-149.7979193418908
 30
0.0
 10
75.12943655890862
 20
-149.6391004400208
 30
0.0
 10
75.39178058011039
 20
-149.6391004400208
 30
0.0
 10
75.76609020458278
 20
-149.6391004400208
 30
0.0
 10
75.88253443198422
 20
-149.9184976838745
 30
0.0
 10
75.88253443198422
 20
-150.1575873105509
 30
0.0
  0
HATCH
  5
137
330
130
100
AcDbEntity
  8
レイヤー 1
 62
   250
420
  2299925
440
 33554687
100
AcDbHatch
 10
0.0
 20
0.0
 30
0.0
210
0.0
220
0.0
230
1.0
  2
SOLID
 70
     1
 71
     1
 91
        3
 92
        1
 93
        1
 72
     4
 94
        3
 73
     0
 74
     0
 95
       17
 96
       13
 40
0.0
 40
0.0
 40
0.0
 40
0.0
 40
1.0
 40
1.0
 40
1.0
 40
2.0
 40
2.0
 40
2.0
 40
3.0
 40
3.0
 40
3.0
 40
4.0
 40
4.0
 40
4.0
 40
4.0
 10
75.0913682537966
 20
-150.1575873105509
 10
75.0913682537966
 20
-150.3012477922858
 10
75.17801240525064
 20
-150.4538655222823
 10
75.38110078410612
 20
-150.4538655222823
 10
75.58625622025274
 20
-150.4538655222823
 10
75.68788653706761
 20
-150.3267414988766
 10
75.68788653706761
 20
-150.1575873105509
 10
75.68788653706761
 20
-149.9715521543474
 10
75.56524113779272
 20
-149.8613090988194
 10
75.38747421075382
 20
-149.8613090988194
 10
75.16526555195522
 20
-149.8613090988194
 10
75.0913682537966
 20
-150.0242621152717
 10
75.0913682537966
 20
-150.1575873105509
 97
        0
 97
        1
330
134
 92
        1
 93
        1
 72
     4
 94
        3
 73
     0
 74
     0
 95
       17
 96
       13
 40
0.0
 40
0.0
 40
0.0
 40
0.0
 40
1.0
 40
1.0
 40
1.0
 40
2.0
 40
2.0
 40
2.0
 40
3.0
 40
3.0
 40
3.0
 40
4.0
 40
4.0
 40
4.0
 40
4.0
 10
74.43128795882273
 20
-150.1575873105509
 10
74.43128795882273
 20
-150.3226073842943
 10
74.52637259421563
 20
-150.4073567332315
 10
74.66176484678595
 20
-150.4073567332315
 10
74.78458250083511
 20
-150.4073567332315
 10
74.9030937855277
 20
-150.3353542375897
 10
74.9030937855277
 20
-150.1575873105509
 10
74.9030937855277
 20
-149.979820383512
 10
74.78458250083511
 20
-149.9078178878702
 10
74.66176484678595
 20
-149.9078178878702
 10
74.52637259421563
 20
-149.9078178878702
 10
74.43128795882273
 20
-149.9946342940986
 10
74.43128795882273
 20
-150.1575873105509
 97
        0
 97
        1
330
135
 92
        1
 93
        1
 72
     4
 94
        3
 73
     0
 74
     0
 95
       29
 96
       25
 40
0.0
 40
0.0
 40
0.0
 40
0.0
 40
1.0
 40
1.0
 40
1.0
 40
2.0
 40
2.0
 40
2.0
 40
3.0
 40
3.0
 40
3.0
 40
4.0
 40
4.0
 40
4.0
 40
5.0
 40
5.0
 40
5.0
 40
6.0
 40
6.0
 40
6.0
 40
7.0
 40
7.0
 40
7.0
 40
8.0
 40
8.0
 40
8.0
 40
8.0
 10
75.88253443198422
 20
-150.1575873105509
 10
75.88253443198422
 20
-150.4242377011092
 10
75.7449028673485
 20
-150.6781412383721
 10
75.39591469469269
 20
-150.6781412383721
 10
75.13994410013864
 20
-150.6781412383721
 10
75.04468720997147
 20
-150.5362033043798
 10
74.98336451033402
 20
-150.4304388729827
 10
74.92410886798772
 20
-150.5551513295487
 10
74.8099039526517
 20
-150.6312879397727
 10
74.64919024826478
 20
-150.6312879397727
 10
74.37409937376759
 20
-150.6312879397727
 10
74.23870712119726
 20
-150.4325059302738
 10
74.23870712119726
 20
-150.1575873105509
 10
74.23870712119726
 20
-149.8740559521148
 10
74.38253985770645
 20
-149.6835421717805
 10
74.64919024826478
 20
-149.6835421717805
 10
74.8099039526517
 20
-149.6835421717805
 10
74.92410886798772
 20
-149.7620903488442
 10
74.98336451033402
 20
-149.8868028054102
 10
75.03417966874145
 20
-149.7979193418908
 10
75.12943655890862
 20
-149.6391004400208
 10
75.39178058011039
 20
-149.6391004400208
 10
75.76609020458278
 20
-149.6391004400208
 10
75.88253443198422
 20
-149.9184976838745
 10
75.88253443198422
 20
-150.1575873105509
 97
        0
 97
        1
330
136
 75
     2
 76
     1
 98
        1
 10
0.0
 20
0.0
450
        0
451
        0
460
0.0
461
0.0
452
        0
462
0.0
453
        0
470

  0
ENDBLK
  5
133
330
130
100
AcDbEntity
  8
0
100
AcDbBlockEnd
  0
BLOCK
  5
13C
330
13A
100
AcDbEntity
  8
0
100
AcDbBlockBegin
  2
Block_7
 70
     0
 10
0.0
 20
0.0
 30
0.0
  3
Block_7
  1

  0
INSERT
  5
13F
330
13A
100
AcDbEntity
  8
レイヤー 1
100
AcDbBlockReference
  2
Block_8
 10
0.0
 20
0.0
 30
0.0
  0
ENDBLK
  5
13D
330
13A
100
AcDbEntity
  8
0
100
AcDbBlockEnd
  0
BLOCK
  5
140
330
13E
100
AcDbEntity
  8
0
100
AcDbBlockBegin
  2
Block_8
 70
     0
 10
0.0
 20
0.0
 30
0.0
  3
Block_8
  1

  0
SPLINE
  5
142
330
13E
100
AcDbEntity
  8
レイヤー 1
100
AcDbSpline
210
0.0
220
0.0
230
1.0
 70
     9
 71
     3
 72
    44
 73
    40
 74
     0
 42
0.0000000001
 43
0.0000000001
 40
0.0
 40
0.0
 40
0.0
 40
0.0
 40
1.0
 40
1.0
 40
1.0
 40
2.0
 40
2.0
 40
2.0
 40
3.0
 40
3.0
 40
3.0
 40
4.0
 40
4.0
 40
4.0
 40
5.0
 40
5.0
 40
5.0
 40
6.0
 40
6.0
 40
6.0
 40
7.0
 40
7.0
 40
7.0
 40
8.0
 40
8.0
 40
8.0
 40
9.0
 40
9.0
 40
9.0
 40
10.0
 40
10.0
 40
10.0
 40
11.0
 40
11.0
 40
11.0
 40
12.0
 40
12.0
 40
12.0
 40
13.0
 40
13.0
 40
13.0
 40
13.0
 10
121.8292561544385
 20
-139.7468532636744
 30
0.0
 10
121.6115261197707
 20
-139.9054999107701
 30
0.0
 10
121.518508541669
 20
-139.979569463703
 30
0.0
 10
121.4695881857784
 20
-140.1234022002122
 30
0.0
 10
121.4695881857784
 20
-140.1234022002122
 30
0.0
 10
122.2481797654449
 20
-140.1234022002122
 30
0.0
 10
122.2481797654449
 20
-140.1234022002122
 30
0.0
 10
122.2481797654449
 20
-140.1234022002122
 30
0.0
 10
122.2481797654449
 20
-140.3285576363588
 30
0.0
 10
122.2481797654449
 20
-140.3285576363588
 30
0.0
 10
122.2481797654449
 20
-140.3285576363588
 30
0.0
 10
121.2201632726463
 20
-140.3285576363588
 30
0.0
 10
121.2201632726463
 20
-140.3285576363588
 30
0.0
 10
121.2518581511106
 20
-139.9709567249899
 30
0.0
 10
121.3173149653304
 20
-139.8927530574747
 30
0.0
 10
121.7024766405813
 20
-139.5944077884521
 30
0.0
 10
121.9584472351354
 20
-139.3956257789532
 30
0.0
 10
122.0239040493551
 20
-139.327929652668
 30
0.0
 10
122.0239040493551
 20
-139.1904703428065
 30
0.0
 10
122.0239040493551
 20
-139.0719590581139
 30
0.0
 10
121.9519015537134
 20
-138.9407009201259
 30
0.0
 10
121.7551866015056
 20
-138.9407009201259
 30
0.0
 10
121.4950818923693
 20
-138.9407009201259
 30
0.0
 10
121.4868136632047
 20
-139.1713500628634
 30
0.0
 10
121.4823350390738
 20
-139.2877942902648
 30
0.0
 10
121.4823350390738
 20
-139.2877942902648
 30
0.0
 10
121.2580593229841
 20
-139.2877942902648
 30
0.0
 10
121.2580593229841
 20
-139.2877942902648
 30
0.0
 10
121.2666720616972
 20
-139.1608425216334
 30
0.0
 10
121.2773518577015
 20
-139.0487046635885
 30
0.0
 10
121.3576225825078
 20
-138.9301933788959
 30
0.0
 10
121.4675211284873
 20
-138.769479674509
 30
0.0
 10
121.6539007942393
 20
-138.7355454839793
 30
0.0
 10
121.7700005120922
 20
-138.7355454839793
 30
0.0
 10
122.0473306986548
 20
-138.7355454839793
 30
0.0
 10
122.2547254468669
 20
-138.9196858376659
 30
0.0
 10
122.2547254468669
 20
-139.1925374000977
 30
0.0
 10
122.2547254468669
 20
-139.4209472307697
 30
0.0
 10
122.1382812194654
 20
-139.5205104902935
 30
0.0
 10
121.8292561544385
 20
-139.7468532636744
 30
0.0
  0
HATCH
  5
143
330
13E
100
AcDbEntity
  8
レイヤー 1
 62
   250
420
  2299925
440
 33554687
100
AcDbHatch
 10
0.0
 20
0.0
 30
0.0
210
0.0
220
0.0
230
1.0
  2
SOLID
 70
     1
 71
     1
 91
        1
 92
        1
 93
        1
 72
     4
 94
        3
 73
     0
 74
     0
 95
       44
 96
       40
 40
0.0
 40
0.0
 40
0.0
 40
0.0
 40
1.0
 40
1.0
 40
1.0
 40
2.0
 40
2.0
 40
2.0
 40
3.0
 40
3.0
 40
3.0
 40
4.0
 40
4.0
 40
4.0
 40
5.0
 40
5.0
 40
5.0
 40
6.0
 40
6.0
 40
6.0
 40
7.0
 40
7.0
 40
7.0
 40
8.0
 40
8.0
 40
8.0
 40
9.0
 40
9.0
 40
9.0
 40
10.0
 40
10.0
 40
10.0
 40
11.0
 40
11.0
 40
11.0
 40
12.0
 40
12.0
 40
12.0
 40
13.0
 40
13.0
 40
13.0
 40
13.0
 10
121.8292561544385
 20
-139.7468532636744
 10
121.6115261197707
 20
-139.9054999107701
 10
121.518508541669
 20
-139.979569463703
 10
121.4695881857784
 20
-140.1234022002122
 10
121.4695881857784
 20
-140.1234022002122
 10
122.2481797654449
 20
-140.1234022002122
 10
122.2481797654449
 20
-140.1234022002122
 10
122.2481797654449
 20
-140.1234022002122
 10
122.2481797654449
 20
-140.3285576363588
 10
122.2481797654449
 20
-140.3285576363588
 10
122.2481797654449
 20
-140.3285576363588
 10
121.2201632726463
 20
-140.3285576363588
 10
121.2201632726463
 20
-140.3285576363588
 10
121.2518581511106
 20
-139.9709567249899
 10
121.3173149653304
 20
-139.8927530574747
 10
121.7024766405813
 20
-139.5944077884521
 10
121.9584472351354
 20
-139.3956257789532
 10
122.0239040493551
 20
-139.327929652668
 10
122.0239040493551
 20
-139.1904703428065
 10
122.0239040493551
 20
-139.0719590581139
 10
121.9519015537134
 20
-138.9407009201259
 10
121.7551866015056
 20
-138.9407009201259
 10
121.4950818923693
 20
-138.9407009201259
 10
121.4868136632047
 20
-139.1713500628634
 10
121.4823350390738
 20
-139.2877942902648
 10
121.4823350390738
 20
-139.2877942902648
 10
121.2580593229841
 20
-139.2877942902648
 10
121.2580593229841
 20
-139.2877942902648
 10
121.2666720616972
 20
-139.1608425216334
 10
121.2773518577015
 20
-139.0487046635885
 10
121.3576225825078
 20
-138.9301933788959
 10
121.4675211284873
 20
-138.769479674509
 10
121.6539007942393
 20
-138.7355454839793
 10
121.7700005120922
 20
-138.7355454839793
 10
122.0473306986548
 20
-138.7355454839793
 10
122.2547254468669
 20
-138.9196858376659
 10
122.2547254468669
 20
-139.1925374000977
 10
122.2547254468669
 20
-139.4209472307697
 10
122.1382812194654
 20
-139.5205104902935
 10
121.8292561544385
 20
-139.7468532636744
 97
        0
 97
        1
330
142
 75
     2
 76
     1
 98
        1
 10
0.0
 20
0.0
450
        0
451
        0
460
0.0
461
0.0
452
        0
462
0.0
453
        0
470

  0
SPLINE
  5
144
330
13E
100
AcDbEntity
  8
レイヤー 1
100
AcDbSpline
210
0.0
220
0.0
230
1.0
 70
    11
 71
     3
 72
    26
 73
    22
 74
     0
 42
0.0000000001
 43
0.0000000001
 40
0.0
 40
0.0
 40
0.0
 40
0.0
 40
1.0
 40
1.0
 40
1.0
 40
2.0
 40
2.0
 40
2.0
 40
3.0
 40
3.0
 40
3.0
 40
4.0
 40
4.0
 40
4.0
 40
5.0
 40
5.0
 40
5.0
 40
6.0
 40
6.0
 40
6.0
 40
7.0
 40
7.0
 40
7.0
 40
7.0
 10
122.8645073477561
 20
-140.3285576363588
 30
0.0
 10
122.8645073477561
 20
-140.3285576363588
 30
0.0
 10
122.8645073477561
 20
-139.224232278562
 30
0.0
 10
122.8645073477561
 20
-139.224232278562
 30
0.0
 10
122.8645073477561
 20
-139.224232278562
 30
0.0
 10
122.5344672002691
 20
-139.224232278562
 30
0.0
 10
122.5344672002691
 20
-139.224232278562
 30
0.0
 10
122.5344672002691
 20
-139.224232278562
 30
0.0
 10
122.5344672002691
 20
-139.0760931726962
 30
0.0
 10
122.5344672002691
 20
-139.0760931726962
 30
0.0
 10
122.8665744050472
 20
-139.0614515168839
 30
0.0
 10
122.9130831940981
 20
-138.8984985004316
 30
0.0
 10
122.9427110152712
 20
-138.7842935850956
 30
0.0
 10
122.9427110152712
 20
-138.7842935850956
 30
0.0
 10
123.0887830638458
 20
-138.7842935850956
 30
0.0
 10
123.0887830638458
 20
-138.7842935850956
 30
0.0
 10
123.0887830638458
 20
-138.7842935850956
 30
0.0
 10
123.0887830638458
 20
-140.3285576363588
 30
0.0
 10
123.0887830638458
 20
-140.3285576363588
 30
0.0
 10
123.0887830638458
 20
-140.3285576363588
 30
0.0
 10
122.8645073477561
 20
-140.3285576363588
 30
0.0
 10
122.8645073477561
 20
-140.3285576363588
 30
0.0
  0
HATCH
  5
145
330
13E
100
AcDbEntity
  8
レイヤー 1
 62
   250
420
  2299925
440
 33554687
100
AcDbHatch
 10
0.0
 20
0.0
 30
0.0
210
0.0
220
0.0
230
1.0
  2
SOLID
 70
     1
 71
     1
 91
        1
 92
        1
 93
        1
 72
     4
 94
        3
 73
     0
 74
     0
 95
       26
 96
       22
 40
0.0
 40
0.0
 40
0.0
 40
0.0
 40
1.0
 40
1.0
 40
1.0
 40
2.0
 40
2.0
 40
2.0
 40
3.0
 40
3.0
 40
3.0
 40
4.0
 40
4.0
 40
4.0
 40
5.0
 40
5.0
 40
5.0
 40
6.0
 40
6.0
 40
6.0
 40
7.0
 40
7.0
 40
7.0
 40
7.0
 10
122.8645073477561
 20
-140.3285576363588
 10
122.8645073477561
 20
-140.3285576363588
 10
122.8645073477561
 20
-139.224232278562
 10
122.8645073477561
 20
-139.224232278562
 10
122.8645073477561
 20
-139.224232278562
 10
122.5344672002691
 20
-139.224232278562
 10
122.5344672002691
 20
-139.224232278562
 10
122.5344672002691
 20
-139.224232278562
 10
122.5344672002691
 20
-139.0760931726962
 10
122.5344672002691
 20
-139.0760931726962
 10
122.8665744050472
 20
-139.0614515168839
 10
122.9130831940981
 20
-138.8984985004316
 10
122.9427110152712
 20
-138.7842935850956
 10
122.9427110152712
 20
-138.7842935850956
 10
123.0887830638458
 20
-138.7842935850956
 10
123.0887830638458
 20
-138.7842935850956
 10
123.0887830638458
 20
-138.7842935850956
 10
123.0887830638458
 20
-140.3285576363588
 10
123.0887830638458
 20
-140.3285576363588
 10
123.0887830638458
 20
-140.3285576363588
 10
122.8645073477561
 20
-140.3285576363588
 10
122.8645073477561
 20
-140.3285576363588
 97
        0
 97
        1
330
144
 75
     2
 76
     1
 98
        1
 10
0.0
 20
0.0
450
        0
451
        0
460
0.0
461
0.0
452
        0
462
0.0
453
        0
470

  0
ENDBLK
  5
141
330
13E
100
AcDbEntity
  8
0
100
AcDbBlockEnd
  0
BLOCK
  5
14B
330
149
100
AcDbEntity
  8
0
100
AcDbBlockBegin
  2
Block_9
 70
     0
 10
0.0
 20
0.0
 30
0.0
  3
Block_9
  1

  0
INSERT
  5
14E
330
149
100
AcDbEntity
  8
レイヤー 1
100
AcDbBlockReference
  2
Block_10
 10
0.0
 20
0.0
 30
0.0
  0
ENDBLK
  5
14C
330
149
100
AcDbEntity
  8
0
100
AcDbBlockEnd
  0
BLOCK
  5
14F
330
14D
100
AcDbEntity
  8
0
100
AcDbBlockBegin
  2
Block_10
 70
     0
 10
0.0
 20
0.0
 30
0.0
  3
Block_10
  1

  0
SPLINE
  5
151
330
14D
100
AcDbEntity
  8
レイヤー 1
100
AcDbSpline
210
0.0
220
0.0
230
1.0
 70
    11
 71
     3
 72
    26
 73
    22
 74
     0
 42
0.0000000001
 43
0.0000000001
 40
0.0
 40
0.0
 40
0.0
 40
0.0
 40
1.0
 40
1.0
 40
1.0
 40
2.0
 40
2.0
 40
2.0
 40
3.0
 40
3.0
 40
3.0
 40
4.0
 40
4.0
 40
4.0
 40
5.0
 40
5.0
 40
5.0
 40
6.0
 40
6.0
 40
6.0
 40
7.0
 40
7.0
 40
7.0
 40
7.0
 10
105.265064806583
 20
-140.3285576363588
 30
0.0
 10
105.265064806583
 20
-140.3285576363588
 30
0.0
 10
105.265064806583
 20
-139.224232278562
 30
0.0
 10
105.265064806583
 20
-139.224232278562
 30
0.0
 10
105.265064806583
 20
-139.224232278562
 30
0.0
 10
104.9350246590961
 20
-139.224232278562
 30
0.0
 10
104.9350246590961
 20
-139.224232278562
 30
0.0
 10
104.9350246590961
 20
-139.224232278562
 30
0.0
 10
104.9350246590961
 20
-139.0760931726962
 30
0.0
 10
104.9350246590961
 20
-139.0760931726962
 30
0.0
 10
105.2671318638742
 20
-139.0614515168839
 30
0.0
 10
105.3136406529251
 20
-138.8984985004316
 30
0.0
 10
105.3432684740982
 20
-138.7842935850956
 30
0.0
 10
105.3432684740982
 20
-138.7842935850956
 30
0.0
 10
105.489512777447
 20
-138.7842935850956
 30
0.0
 10
105.489512777447
 20
-138.7842935850956
 30
0.0
 10
105.489512777447
 20
-138.7842935850956
 30
0.0
 10
105.489512777447
 20
-140.3285576363588
 30
0.0
 10
105.489512777447
 20
-140.3285576363588
 30
0.0
 10
105.489512777447
 20
-140.3285576363588
 30
0.0
 10
105.265064806583
 20
-140.3285576363588
 30
0.0
 10
105.265064806583
 20
-140.3285576363588
 30
0.0
  0
HATCH
  5
152
330
14D
100
AcDbEntity
  8
レイヤー 1
 62
   250
420
  2299925
440
 33554687
100
AcDbHatch
 10
0.0
 20
0.0
 30
0.0
210
0.0
220
0.0
230
1.0
  2
SOLID
 70
     1
 71
     1
 91
        1
 92
        1
 93
        1
 72
     4
 94
        3
 73
     0
 74
     0
 95
       26
 96
       22
 40
0.0
 40
0.0
 40
0.0
 40
0.0
 40
1.0
 40
1.0
 40
1.0
 40
2.0
 40
2.0
 40
2.0
 40
3.0
 40
3.0
 40
3.0
 40
4.0
 40
4.0
 40
4.0
 40
5.0
 40
5.0
 40
5.0
 40
6.0
 40
6.0
 40
6.0
 40
7.0
 40
7.0
 40
7.0
 40
7.0
 10
105.265064806583
 20
-140.3285576363588
 10
105.265064806583
 20
-140.3285576363588
 10
105.265064806583
 20
-139.224232278562
 10
105.265064806583
 20
-139.224232278562
 10
105.265064806583
 20
-139.224232278562
 10
104.9350246590961
 20
-139.224232278562
 10
104.9350246590961
 20
-139.224232278562
 10
104.9350246590961
 20
-139.224232278562
 10
104.9350246590961
 20
-139.0760931726962
 10
104.9350246590961
 20
-139.0760931726962
 10
105.2671318638742
 20
-139.0614515168839
 10
105.3136406529251
 20
-138.8984985004316
 10
105.3432684740982
 20
-138.7842935850956
 10
105.3432684740982
 20
-138.7842935850956
 10
105.489512777447
 20
-138.7842935850956
 10
105.489512777447
 20
-138.7842935850956
 10
105.489512777447
 20
-138.7842935850956
 10
105.489512777447
 20
-140.3285576363588
 10
105.489512777447
 20
-140.3285576363588
 10
105.489512777447
 20
-140.3285576363588
 10
105.265064806583
 20
-140.3285576363588
 10
105.265064806583
 20
-140.3285576363588
 97
        0
 97
        1
330
151
 75
     2
 76
     1
 98
        1
 10
0.0
 20
0.0
450
        0
451
        0
460
0.0
461
0.0
452
        0
462
0.0
453
        0
470

  0
SPLINE
  5
153
330
14D
100
AcDbEntity
  8
レイヤー 1
100
AcDbSpline
210
0.0
220
0.0
230
1.0
 70
     9
 71
     3
 72
    44
 73
    40
 74
     0
 42
0.0000000001
 43
0.0000000001
 40
0.0
 40
0.0
 40
0.0
 40
0.0
 40
1.0
 40
1.0
 40
1.0
 40
2.0
 40
2.0
 40
2.0
 40
3.0
 40
3.0
 40
3.0
 40
4.0
 40
4.0
 40
4.0
 40
5.0
 40
5.0
 40
5.0
 40
6.0
 40
6.0
 40
6.0
 40
7.0
 40
7.0
 40
7.0
 40
8.0
 40
8.0
 40
8.0
 40
9.0
 40
9.0
 40
9.0
 40
10.0
 40
10.0
 40
10.0
 40
11.0
 40
11.0
 40
11.0
 40
12.0
 40
12.0
 40
12.0
 40
13.0
 40
13.0
 40
13.0
 40
13.0
 10
106.5836751035624
 20
-139.7468532636744
 30
0.0
 10
106.3659450688946
 20
-139.9054999107701
 30
0.0
 10
106.2729274907929
 20
-139.979569463703
 30
0.0
 10
106.2240071349023
 20
-140.1234022002122
 30
0.0
 10
106.2240071349023
 20
-140.1234022002122
 30
0.0
 10
107.0025987145688
 20
-140.1234022002122
 30
0.0
 10
107.0025987145688
 20
-140.1234022002122
 30
0.0
 10
107.0025987145688
 20
-140.1234022002122
 30
0.0
 10
107.0025987145688
 20
-140.3285576363588
 30
0.0
 10
107.0025987145688
 20
-140.3285576363588
 30
0.0
 10
107.0025987145688
 20
-140.3285576363588
 30
0.0
 10
105.9745822217702
 20
-140.3285576363588
 30
0.0
 10
105.9745822217702
 20
-140.3285576363588
 30
0.0
 10
106.0062771002345
 20
-139.9709567249899
 30
0.0
 10
106.0717339144543
 20
-139.8927530574747
 30
0.0
 10
106.4568955897052
 20
-139.5944077884521
 30
0.0
 10
106.7128661842593
 20
-139.3956257789532
 30
0.0
 10
106.778322998479
 20
-139.327929652668
 30
0.0
 10
106.778322998479
 20
-139.1904703428065
 30
0.0
 10
106.778322998479
 20
-139.0719590581139
 30
0.0
 10
106.7063205028373
 20
-138.9407009201259
 30
0.0
 10
106.5096055506295
 20
-138.9407009201259
 30
0.0
 10
106.2495008414932
 20
-138.9407009201259
 30
0.0
 10
106.24088810278
 20
-139.1713500628634
 30
0.0
 10
106.2367539881977
 20
-139.2877942902648
 30
0.0
 10
106.2367539881977
 20
-139.2877942902648
 30
0.0
 10
106.012478272108
 20
-139.2877942902648
 30
0.0
 10
106.012478272108
 20
-139.2877942902648
 30
0.0
 10
106.0210910108211
 20
-139.1608425216334
 30
0.0
 10
106.0317708068254
 20
-139.0487046635885
 30
0.0
 10
106.1120415316317
 20
-138.9301933788959
 30
0.0
 10
106.2219400776112
 20
-138.769479674509
 30
0.0
 10
106.4083197433632
 20
-138.7355454839793
 30
0.0
 10
106.5244194612161
 20
-138.7355454839793
 30
0.0
 10
106.8017496477787
 20
-138.7355454839793
 30
0.0
 10
107.0091443959908
 20
-138.9196858376659
 30
0.0
 10
107.0091443959908
 20
-139.1925374000977
 30
0.0
 10
107.0091443959908
 20
-139.4209472307697
 30
0.0
 10
106.8927001685893
 20
-139.5205104902935
 30
0.0
 10
106.5836751035624
 20
-139.7468532636744
 30
0.0
  0
HATCH
  5
154
330
14D
100
AcDbEntity
  8
レイヤー 1
 62
   250
420
  2299925
440
 33554687
100
AcDbHatch
 10
0.0
 20
0.0
 30
0.0
210
0.0
220
0.0
230
1.0
  2
SOLID
 70
     1
 71
     1
 91
        1
 92
        1
 93
        1
 72
     4
 94
        3
 73
     0
 74
     0
 95
       44
 96
       40
 40
0.0
 40
0.0
 40
0.0
 40
0.0
 40
1.0
 40
1.0
 40
1.0
 40
2.0
 40
2.0
 40
2.0
 40
3.0
 40
3.0
 40
3.0
 40
4.0
 40
4.0
 40
4.0
 40
5.0
 40
5.0
 40
5.0
 40
6.0
 40
6.0
 40
6.0
 40
7.0
 40
7.0
 40
7.0
 40
8.0
 40
8.0
 40
8.0
 40
9.0
 40
9.0
 40
9.0
 40
10.0
 40
10.0
 40
10.0
 40
11.0
 40
11.0
 40
11.0
 40
12.0
 40
12.0
 40
12.0
 40
13.0
 40
13.0
 40
13.0
 40
13.0
 10
106.5836751035624
 20
-139.7468532636744
 10
106.3659450688946
 20
-139.9054999107701
 10
106.2729274907929
 20
-139.979569463703
 10
106.2240071349023
 20
-140.1234022002122
 10
106.2240071349023
 20
-140.1234022002122
 10
107.0025987145688
 20
-140.1234022002122
 10
107.0025987145688
 20
-140.1234022002122
 10
107.0025987145688
 20
-140.1234022002122
 10
107.0025987145688
 20
-140.3285576363588
 10
107.0025987145688
 20
-140.3285576363588
 10
107.0025987145688
 20
-140.3285576363588
 10
105.9745822217702
 20
-140.3285576363588
 10
105.9745822217702
 20
-140.3285576363588
 10
106.0062771002345
 20
-139.9709567249899
 10
106.0717339144543
 20
-139.8927530574747
 10
106.4568955897052
 20
-139.5944077884521
 10
106.7128661842593
 20
-139.3956257789532
 10
106.778322998479
 20
-139.327929652668
 10
106.778322998479
 20
-139.1904703428065
 10
106.778322998479
 20
-139.0719590581139
 10
106.7063205028373
 20
-138.9407009201259
 10
106.5096055506295
 20
-138.9407009201259
 10
106.2495008414932
 20
-138.9407009201259
 10
106.24088810278
 20
-139.1713500628634
 10
106.2367539881977
 20
-139.2877942902648
 10
106.2367539881977
 20
-139.2877942902648
 10
106.012478272108
 20
-139.2877942902648
 10
106.012478272108
 20
-139.2877942902648
 10
106.0210910108211
 20
-139.1608425216334
 10
106.0317708068254
 20
-139.0487046635885
 10
106.1120415316317
 20
-138.9301933788959
 10
106.2219400776112
 20
-138.769479674509
 10
106.4083197433632
 20
-138.7355454839793
 10
106.5244194612161
 20
-138.7355454839793
 10
106.8017496477787
 20
-138.7355454839793
 10
107.0091443959908
 20
-138.9196858376659
 10
107.0091443959908
 20
-139.1925374000977
 10
107.0091443959908
 20
-139.4209472307697
 10
106.8927001685893
 20
-139.5205104902935
 10
106.5836751035624
 20
-139.7468532636744
 97
        0
 97
        1
330
153
 75
     2
 76
     1
 98
        1
 10
0.0
 20
0.0
450
        0
451
        0
460
0.0
461
0.0
452
        0
462
0.0
453
        0
470

  0
ENDBLK
  5
150
330
14D
100
AcDbEntity
  8
0
100
AcDbBlockEnd
  0
BLOCK
  5
15C
330
15A
100
AcDbEntity
  8
0
100
AcDbBlockBegin
  2
Block_11
 70
     0
 10
0.0
 20
0.0
 30
0.0
  3
Block_11
  1

  0
INSERT
  5
15F
330
15A
100
AcDbEntity
  8
レイヤー 1
100
AcDbBlockReference
  2
Block_12
 10
0.0
 20
0.0
 30
0.0
  0
ENDBLK
  5
15D
330
15A
100
AcDbEntity
  8
0
100
AcDbBlockEnd
  0
BLOCK
  5
160
330
15E
100
AcDbEntity
  8
0
100
AcDbBlockBegin
  2
Block_12
 70
     0
 10
0.0
 20
0.0
 30
0.0
  3
Block_12
  1

  0
SPLINE
  5
162
330
15E
100
AcDbEntity
  8
レイヤー 1
100
AcDbSpline
210
0.0
220
0.0
230
1.0
 70
    11
 71
     3
 72
    26
 73
    22
 74
     0
 42
0.0000000001
 43
0.0000000001
 40
0.0
 40
0.0
 40
0.0
 40
0.0
 40
1.0
 40
1.0
 40
1.0
 40
2.0
 40
2.0
 40
2.0
 40
3.0
 40
3.0
 40
3.0
 40
4.0
 40
4.0
 40
4.0
 40
5.0
 40
5.0
 40
5.0
 40
6.0
 40
6.0
 40
6.0
 40
7.0
 40
7.0
 40
7.0
 40
7.0
 10
105.265064806583
 20
-157.4105468356474
 30
0.0
 10
105.265064806583
 20
-157.4105468356474
 30
0.0
 10
105.265064806583
 20
-156.3063937326248
 30
0.0
 10
105.265064806583
 20
-156.3063937326248
 30
0.0
 10
105.265064806583
 20
-156.3063937326248
 30
0.0
 10
104.9350246590961
 20
-156.3063937326248
 30
0.0
 10
104.9350246590961
 20
-156.3063937326248
 30
0.0
 10
104.9350246590961
 20
-156.3063937326248
 30
0.0
 10
104.9350246590961
 20
-156.158254626759
 30
0.0
 10
104.9350246590961
 20
-156.158254626759
 30
0.0
 10
105.2671318638742
 20
-156.1434407161724
 30
0.0
 10
105.3136406529251
 20
-155.9804876997201
 30
0.0
 10
105.3432684740982
 20
-155.8661105296098
 30
0.0
 10
105.3432684740982
 20
-155.8661105296098
 30
0.0
 10
105.489512777447
 20
-155.8661105296098
 30
0.0
 10
105.489512777447
 20
-155.8661105296098
 30
0.0
 10
105.489512777447
 20
-155.8661105296098
 30
0.0
 10
105.489512777447
 20
-157.4105468356474
 30
0.0
 10
105.489512777447
 20
-157.4105468356474
 30
0.0
 10
105.489512777447
 20
-157.4105468356474
 30
0.0
 10
105.265064806583
 20
-157.4105468356474
 30
0.0
 10
105.265064806583
 20
-157.4105468356474
 30
0.0
  0
HATCH
  5
163
330
15E
100
AcDbEntity
  8
レイヤー 1
 62
   250
420
  2299925
440
 33554687
100
AcDbHatch
 10
0.0
 20
0.0
 30
0.0
210
0.0
220
0.0
230
1.0
  2
SOLID
 70
     1
 71
     1
 91
        1
 92
        1
 93
        1
 72
     4
 94
        3
 73
     0
 74
     0
 95
       26
 96
       22
 40
0.0
 40
0.0
 40
0.0
 40
0.0
 40
1.0
 40
1.0
 40
1.0
 40
2.0
 40
2.0
 40
2.0
 40
3.0
 40
3.0
 40
3.0
 40
4.0
 40
4.0
 40
4.0
 40
5.0
 40
5.0
 40
5.0
 40
6.0
 40
6.0
 40
6.0
 40
7.0
 40
7.0
 40
7.0
 40
7.0
 10
105.265064806583
 20
-157.4105468356474
 10
105.265064806583
 20
-157.4105468356474
 10
105.265064806583
 20
-156.3063937326248
 10
105.265064806583
 20
-156.3063937326248
 10
105.265064806583
 20
-156.3063937326248
 10
104.9350246590961
 20
-156.3063937326248
 10
104.9350246590961
 20
-156.3063937326248
 10
104.9350246590961
 20
-156.3063937326248
 10
104.9350246590961
 20
-156.158254626759
 10
104.9350246590961
 20
-156.158254626759
 10
105.2671318638742
 20
-156.1434407161724
 10
105.3136406529251
 20
-155.9804876997201
 10
105.3432684740982
 20
-155.8661105296098
 10
105.3432684740982
 20
-155.8661105296098
 10
105.489512777447
 20
-155.8661105296098
 10
105.489512777447
 20
-155.8661105296098
 10
105.489512777447
 20
-155.8661105296098
 10
105.489512777447
 20
-157.4105468356474
 10
105.489512777447
 20
-157.4105468356474
 10
105.489512777447
 20
-157.4105468356474
 10
105.265064806583
 20
-157.4105468356474
 10
105.265064806583
 20
-157.4105468356474
 97
        0
 97
        1
330
162
 75
     2
 76
     1
 98
        1
 10
0.0
 20
0.0
450
        0
451
        0
460
0.0
461
0.0
452
        0
462
0.0
453
        0
470

  0
SPLINE
  5
164
330
15E
100
AcDbEntity
  8
レイヤー 1
100
AcDbSpline
210
0.0
220
0.0
230
1.0
 70
    11
 71
     3
 72
    14
 73
    10
 74
     0
 42
0.0000000001
 43
0.0000000001
 40
0.0
 40
0.0
 40
0.0
 40
0.0
 40
1.0
 40
1.0
 40
1.0
 40
2.0
 40
2.0
 40
2.0
 40
3.0
 40
3.0
 40
3.0
 40
3.0
 10
106.6050346955709
 20
-156.2088975303922
 30
0.0
 10
106.6050346955709
 20
-156.2088975303922
 30
0.0
 10
106.1478705246783
 20
-156.8648437107838
 30
0.0
 10
106.1478705246783
 20
-156.8648437107838
 30
0.0
 10
106.1478705246783
 20
-156.8648437107838
 30
0.0
 10
106.6050346955709
 20
-156.8648437107838
 30
0.0
 10
106.6050346955709
 20
-156.8648437107838
 30
0.0
 10
106.6050346955709
 20
-156.8648437107838
 30
0.0
 10
106.6050346955709
 20
-156.2088975303922
 30
0.0
 10
106.6050346955709
 20
-156.2088975303922
 30
0.0
  0
SPLINE
  5
165
330
15E
100
AcDbEntity
  8
レイヤー 1
100
AcDbSpline
210
0.0
220
0.0
230
1.0
 70
    11
 71
     3
 72
    38
 73
    34
 74
     0
 42
0.0000000001
 43
0.0000000001
 40
0.0
 40
0.0
 40
0.0
 40
0.0
 40
1.0
 40
1.0
 40
1.0
 40
2.0
 40
2.0
 40
2.0
 40
3.0
 40
3.0
 40
3.0
 40
4.0
 40
4.0
 40
4.0
 40
5.0
 40
5.0
 40
5.0
 40
6.0
 40
6.0
 40
6.0
 40
7.0
 40
7.0
 40
7.0
 40
8.0
 40
8.0
 40
8.0
 40
9.0
 40
9.0
 40
9.0
 40
10.0
 40
10.0
 40
10.0
 40
11.0
 40
11.0
 40
11.0
 40
11.0
 10
106.8227647302387
 20
-157.0636257202827
 30
0.0
 10
106.8227647302387
 20
-157.0636257202827
 30
0.0
 10
106.8227647302387
 20
-157.4105468356474
 30
0.0
 10
106.8227647302387
 20
-157.4105468356474
 30
0.0
 10
106.8227647302387
 20
-157.4105468356474
 30
0.0
 10
106.6050346955709
 20
-157.4105468356474
 30
0.0
 10
106.6050346955709
 20
-157.4105468356474
 30
0.0
 10
106.6050346955709
 20
-157.4105468356474
 30
0.0
 10
106.6050346955709
 20
-157.0636257202827
 30
0.0
 10
106.6050346955709
 20
-157.0636257202827
 30
0.0
 10
106.6050346955709
 20
-157.0636257202827
 30
0.0
 10
105.9490885151794
 20
-157.0636257202827
 30
0.0
 10
105.9490885151794
 20
-157.0636257202827
 30
0.0
 10
105.9490885151794
 20
-157.0636257202827
 30
0.0
 10
105.9490885151794
 20
-156.8393500041929
 30
0.0
 10
105.9490885151794
 20
-156.8393500041929
 30
0.0
 10
105.9490885151794
 20
-156.8393500041929
 30
0.0
 10
106.6281168353221
 20
-155.8661105296098
 30
0.0
 10
106.6281168353221
 20
-155.8661105296098
 30
0.0
 10
106.6281168353221
 20
-155.8661105296098
 30
0.0
 10
106.8227647302387
 20
-155.8661105296098
 30
0.0
 10
106.8227647302387
 20
-155.8661105296098
 30
0.0
 10
106.8227647302387
 20
-155.8661105296098
 30
0.0
 10
106.8227647302387
 20
-156.8648437107838
 30
0.0
 10
106.8227647302387
 20
-156.8648437107838
 30
0.0
 10
106.8227647302387
 20
-156.8648437107838
 30
0.0
 10
107.0301594784508
 20
-156.8648437107838
 30
0.0
 10
107.0301594784508
 20
-156.8648437107838
 30
0.0
 10
107.0301594784508
 20
-156.8648437107838
 30
0.0
 10
107.0301594784508
 20
-157.0636257202827
 30
0.0
 10
107.0301594784508
 20
-157.0636257202827
 30
0.0
 10
107.0301594784508
 20
-157.0636257202827
 30
0.0
 10
106.8227647302387
 20
-157.0636257202827
 30
0.0
 10
106.8227647302387
 20
-157.0636257202827
 30
0.0
  0
HATCH
  5
166
330
15E
100
AcDbEntity
  8
レイヤー 1
 62
   250
420
  2299925
440
 33554687
100
AcDbHatch
 10
0.0
 20
0.0
 30
0.0
210
0.0
220
0.0
230
1.0
  2
SOLID
 70
     1
 71
     1
 91
        2
 92
        1
 93
        1
 72
     4
 94
        3
 73
     0
 74
     0
 95
       14
 96
       10
 40
0.0
 40
0.0
 40
0.0
 40
0.0
 40
1.0
 40
1.0
 40
1.0
 40
2.0
 40
2.0
 40
2.0
 40
3.0
 40
3.0
 40
3.0
 40
3.0
 10
106.6050346955709
 20
-156.2088975303922
 10
106.6050346955709
 20
-156.2088975303922
 10
106.1478705246783
 20
-156.8648437107838
 10
106.1478705246783
 20
-156.8648437107838
 10
106.1478705246783
 20
-156.8648437107838
 10
106.6050346955709
 20
-156.8648437107838
 10
106.6050346955709
 20
-156.8648437107838
 10
106.6050346955709
 20
-156.8648437107838
 10
106.6050346955709
 20
-156.2088975303922
 10
106.6050346955709
 20
-156.2088975303922
 97
        0
 97
        1
330
164
 92
        1
 93
        1
 72
     4
 94
        3
 73
     0
 74
     0
 95
       38
 96
       34
 40
0.0
 40
0.0
 40
0.0
 40
0.0
 40
1.0
 40
1.0
 40
1.0
 40
2.0
 40
2.0
 40
2.0
 40
3.0
 40
3.0
 40
3.0
 40
4.0
 40
4.0
 40
4.0
 40
5.0
 40
5.0
 40
5.0
 40
6.0
 40
6.0
 40
6.0
 40
7.0
 40
7.0
 40
7.0
 40
8.0
 40
8.0
 40
8.0
 40
9.0
 40
9.0
 40
9.0
 40
10.0
 40
10.0
 40
10.0
 40
11.0
 40
11.0
 40
11.0
 40
11.0
 10
106.8227647302387
 20
-157.0636257202827
 10
106.8227647302387
 20
-157.0636257202827
 10
106.8227647302387
 20
-157.4105468356474
 10
106.8227647302387
 20
-157.4105468356474
 10
106.8227647302387
 20
-157.4105468356474
 10
106.6050346955709
 20
-157.4105468356474
 10
106.6050346955709
 20
-157.4105468356474
 10
106.6050346955709
 20
-157.4105468356474
 10
106.6050346955709
 20
-157.0636257202827
 10
106.6050346955709
 20
-157.0636257202827
 10
106.6050346955709
 20
-157.0636257202827
 10
105.9490885151794
 20
-157.0636257202827
 10
105.9490885151794
 20
-157.0636257202827
 10
105.9490885151794
 20
-157.0636257202827
 10
105.9490885151794
 20
-156.8393500041929
 10
105.9490885151794
 20
-156.8393500041929
 10
105.9490885151794
 20
-156.8393500041929
 10
106.6281168353221
 20
-155.8661105296098
 10
106.6281168353221
 20
-155.8661105296098
 10
106.6281168353221
 20
-155.8661105296098
 10
106.8227647302387
 20
-155.8661105296098
 10
106.8227647302387
 20
-155.8661105296098
 10
106.8227647302387
 20
-155.8661105296098
 10
106.8227647302387
 20
-156.8648437107838
 10
106.8227647302387
 20
-156.8648437107838
 10
106.8227647302387
 20
-156.8648437107838
 10
107.0301594784508
 20
-156.8648437107838
 10
107.0301594784508
 20
-156.8648437107838
 10
107.0301594784508
 20
-156.8648437107838
 10
107.0301594784508
 20
-157.0636257202827
 10
107.0301594784508
 20
-157.0636257202827
 10
107.0301594784508
 20
-157.0636257202827
 10
106.8227647302387
 20
-157.0636257202827
 10
106.8227647302387
 20
-157.0636257202827
 97
        0
 97
        1
330
165
 75
     2
 76
     1
 98
        1
 10
0.0
 20
0.0
450
        0
451
        0
460
0.0
461
0.0
452
        0
462
0.0
453
        0
470

  0
ENDBLK
  5
161
330
15E
100
AcDbEntity
  8
0
100
AcDbBlockEnd
  0
BLOCK
  5
16A
330
168
100
AcDbEntity
  8
0
100
AcDbBlockBegin
  2
Block_13
 70
     0
 10
0.0
 20
0.0
 30
0.0
  3
Block_13
  1

  0
SPLINE
  5
16C
330
168
100
AcDbEntity
  8
レイヤー 1
100
AcDbSpline
210
0.0
220
0.0
230
1.0
 70
    11
 71
     3
 72
    26
 73
    22
 74
     0
 42
0.0000000001
 43
0.0000000001
 40
0.0
 40
0.0
 40
0.0
 40
0.0
 40
1.0
 40
1.0
 40
1.0
 40
2.0
 40
2.0
 40
2.0
 40
3.0
 40
3.0
 40
3.0
 40
4.0
 40
4.0
 40
4.0
 40
5.0
 40
5.0
 40
5.0
 40
6.0
 40
6.0
 40
6.0
 40
7.0
 40
7.0
 40
7.0
 40
7.0
 10
114.8360568289298
 20
-149.6807860953923
 30
0.0
 10
114.8360568289298
 20
-149.6807860953923
 30
0.0
 10
114.8360568289298
 20
-148.5766329923697
 30
0.0
 10
114.8360568289298
 20
-148.5766329923697
 30
0.0
 10
114.8360568289298
 20
-148.5766329923697
 30
0.0
 10
114.5060166814429
 20
-148.5766329923697
 30
0.0
 10
114.5060166814429
 20
-148.5766329923697
 30
0.0
 10
114.5060166814429
 20
-148.5766329923697
 30
0.0
 10
114.5060166814429
 20
-148.428493886504
 30
0.0
 10
114.5060166814429
 20
-148.428493886504
 30
0.0
 10
114.838123886221
 20
-148.4138522306917
 30
0.0
 10
114.8846326752719
 20
-148.2508992142393
 30
0.0
 10
114.914260496445
 20
-148.1366942989033
 30
0.0
 10
114.914260496445
 20
-148.1366942989033
 30
0.0
 10
115.0603325450196
 20
-148.1366942989033
 30
0.0
 10
115.0603325450196
 20
-148.1366942989033
 30
0.0
 10
115.0603325450196
 20
-148.1366942989033
 30
0.0
 10
115.0603325450196
 20
-149.6807860953923
 30
0.0
 10
115.0603325450196
 20
-149.6807860953923
 30
0.0
 10
115.0603325450196
 20
-149.6807860953923
 30
0.0
 10
114.8360568289298
 20
-149.6807860953923
 30
0.0
 10
114.8360568289298
 20
-149.6807860953923
 30
0.0
  0
HATCH
  5
16D
330
168
100
AcDbEntity
  8
レイヤー 1
 62
   250
420
  2299925
440
 33554687
100
AcDbHatch
 10
0.0
 20
0.0
 30
0.0
210
0.0
220
0.0
230
1.0
  2
SOLID
 70
     1
 71
     1
 91
        1
 92
        1
 93
        1
 72
     4
 94
        3
 73
     0
 74
     0
 95
       26
 96
       22
 40
0.0
 40
0.0
 40
0.0
 40
0.0
 40
1.0
 40
1.0
 40
1.0
 40
2.0
 40
2.0
 40
2.0
 40
3.0
 40
3.0
 40
3.0
 40
4.0
 40
4.0
 40
4.0
 40
5.0
 40
5.0
 40
5.0
 40
6.0
 40
6.0
 40
6.0
 40
7.0
 40
7.0
 40
7.0
 40
7.0
 10
114.8360568289298
 20
-149.6807860953923
 10
114.8360568289298
 20
-149.6807860953923
 10
114.8360568289298
 20
-148.5766329923697
 10
114.8360568289298
 20
-148.5766329923697
 10
114.8360568289298
 20
-148.5766329923697
 10
114.5060166814429
 20
-148.5766329923697
 10
114.5060166814429
 20
-148.5766329923697
 10
114.5060166814429
 20
-148.5766329923697
 10
114.5060166814429
 20
-148.428493886504
 10
114.5060166814429
 20
-148.428493886504
 10
114.838123886221
 20
-148.4138522306917
 10
114.8846326752719
 20
-148.2508992142393
 10
114.914260496445
 20
-148.1366942989033
 10
114.914260496445
 20
-148.1366942989033
 10
115.0603325450196
 20
-148.1366942989033
 10
115.0603325450196
 20
-148.1366942989033
 10
115.0603325450196
 20
-148.1366942989033
 10
115.0603325450196
 20
-149.6807860953923
 10
115.0603325450196
 20
-149.6807860953923
 10
115.0603325450196
 20
-149.6807860953923
 10
114.8360568289298
 20
-149.6807860953923
 10
114.8360568289298
 20
-149.6807860953923
 97
        0
 97
        1
330
16C
 75
     2
 76
     1
 98
        1
 10
0.0
 20
0.0
450
        0
451
        0
460
0.0
461
0.0
452
        0
462
0.0
453
        0
470

  0
ENDBLK
  5
16B
330
168
100
AcDbEntity
  8
0
100
AcDbBlockEnd
  0
ENDSEC
  0
SECTION
  2
ENTITIES
  0
INSERT
  5
7A
330
70
100
AcDbEntity
  8
レイヤー 1
100
AcDbBlockReference
  2
Block_0
 10
0.0
 20
0.0
 30
0.0
  0
LWPOLYLINE
  5
A7
330
70
100
AcDbEntity
  8
レイヤー 1
 62
   250
420
  2299925
370
     9
100
AcDbPolyline
 90
        3
 70
     0
 43
0.0
 10
119.6001341264962
 20
-144.7325520407613
 10
125.7737450801053
 20
-152.8461234276218
 10
136.4156392530524
 20
-152.8461234276218
  0
LWPOLYLINE
  5
A8
330
70
100
AcDbEntity
  8
レイヤー 1
  6
AI-Linetype-0
 62
   154
420
    23468
370
    25
100
AcDbPolyline
 90
        6
 70
     0
 43
0.0
 10
78.72874878029198
 20
-145.2028048184214
 10
100.3658435060924
 20
-144.3797742630717
 10
100.3658435060924
 20
-152.4358075943911
 10
111.4858926668411
 20
-152.4358075943911
 10
111.4858926668411
 20
-144.3208603741974
 10
133.0056893400475
 20
-145.2028048184214
  0
LINE
  5
AA
330
70
100
AcDbEntity
  8
レイヤー 1
 62
   250
420
  2299925
370
    25
100
AcDbLine
 10
112.9001081863169
 20
-154.0105370384417
 30
0.0
 11
98.77590937998832
 21
-154.0105370384417
 31
0.0
  0
LINE
  5
AB
330
70
100
AcDbEntity
  8
レイヤー 1
 62
   250
420
  2299925
370
    25
100
AcDbLine
 10
78.77489211361342
 20
-145.8036559293822
 30
0.0
 11
78.77489211361342
 21
-146.3038595403684
 31
0.0
  0
LINE
  5
AC
330
70
100
AcDbEntity
  8
レイヤー 1
 62
   250
420
  2299925
370
    25
100
AcDbLine
 10
98.77590937998832
 20
-146.3038595403684
 30
0.0
 11
78.77489211361342
 21
-146.3038595403684
 31
0.0
  0
LINE
  5
AD
330
70
100
AcDbEntity
  8
レイヤー 1
 62
   250
420
  2299925
370
    25
100
AcDbLine
 10
78.77489211361342
 20
-145.8036559293822
 30
0.0
 11
79.28857183570734
 21
-146.1857142626202
 31
0.0
  0
LINE
  5
AE
330
70
100
AcDbEntity
  8
レイヤー 1
 62
   250
420
  2299925
370
    25
100
AcDbLine
 10
79.28857183570734
 20
-146.1857142626202
 30
0.0
 11
79.77413516891932
 21
-145.7681664849467
 31
0.0
  0
LINE
  5
AF
330
70
100
AcDbEntity
  8
レイヤー 1
 62
   250
420
  2299925
370
    25
100
AcDbLine
 10
80.28816766879101
 20
-146.1502248181844
 30
0.0
 11
80.77323711311418
 21
-145.7323242627335
 31
0.0
  0
LINE
  5
B0
330
70
100
AcDbEntity
  8
レイヤー 1
 62
   250
420
  2299925
370
    25
100
AcDbLine
 10
79.77413516891932
 20
-145.7681664849467
 30
0.0
 11
80.28816766879101
 21
-146.1502248181844
 31
0.0
  0
LINE
  5
B1
330
70
100
AcDbEntity
  8
レイヤー 1
 62
   250
420
  2299925
370
    25
100
AcDbLine
 10
80.77323711311418
 20
-145.7323242627335
 30
0.0
 11
81.2872343352077
 21
-146.1143825959712
 31
0.0
  0
LINE
  5
B2
330
70
100
AcDbEntity
  8
レイヤー 1
 62
   250
420
  2299925
370
    25
100
AcDbLine
 10
81.2872343352077
 20
-146.1143825959712
 30
0.0
 11
81.77300933508607
 21
-145.696834818298
 31
0.0
  0
LINE
  5
B3
330
70
100
AcDbEntity
  8
レイヤー 1
 62
   250
420
  2299925
370
    25
100
AcDbLine
 10
81.77300933508607
 20
-145.696834818298
 30
0.0
 11
82.28700655717991
 21
-146.0785756515358
 31
0.0
  0
LINE
  5
B4
330
70
100
AcDbEntity
  8
レイヤー 1
 62
   250
420
  2299925
370
    25
100
AcDbLine
 10
82.28700655717991
 20
-146.0785756515358
 30
0.0
 11
82.7720760015031
 21
-145.6610278738622
 31
0.0
  0
LINE
  5
B5
330
70
100
AcDbEntity
  8
レイヤー 1
 62
   250
420
  2299925
370
    25
100
AcDbLine
 10
82.7720760015031
 20
-145.6610278738622
 30
0.0
 11
83.28607322359662
 21
-146.0427334293225
 31
0.0
  0
LINE
  5
B6
330
70
100
AcDbEntity
  8
レイヤー 1
 62
   250
420
  2299925
370
    25
100
AcDbLine
 10
83.28607322359662
 20
-146.0427334293225
 30
0.0
 11
83.77184822347564
 21
-145.625185651649
 31
0.0
  0
LINE
  5
B7
330
70
100
AcDbEntity
  8
レイヤー 1
 62
   250
420
  2299925
370
    25
100
AcDbLine
 10
83.77184822347564
 20
-145.625185651649
 30
0.0
 11
84.28584544556915
 21
-146.007243984887
 31
0.0
  0
LINE
  5
B8
330
70
100
AcDbEntity
  8
レイヤー 1
 62
   250
420
  2299925
370
    25
100
AcDbLine
 10
84.28584544556915
 20
-146.007243984887
 30
0.0
 11
84.77091488989234
 21
-145.5896962072135
 31
0.0
  0
LINE
  5
B9
330
70
100
AcDbEntity
  8
レイヤー 1
 62
   250
420
  2299925
370
    25
100
AcDbLine
 10
84.77091488989234
 20
-145.5896962072135
 30
0.0
 11
85.28491211198586
 21
-145.9717545404512
 31
0.0
  0
LINE
  5
BA
330
70
100
AcDbEntity
  8
レイヤー 1
 62
   250
420
  2299925
370
    25
100
AcDbLine
 10
85.28491211198586
 20
-145.9717545404512
 30
0.0
 11
85.76998155630903
 21
-145.5538892627784
 31
0.0
  0
LINE
  5
BB
330
70
100
AcDbEntity
  8
レイヤー 1
 62
   250
420
  2299925
370
    25
100
AcDbLine
 10
86.2840140561807
 20
-145.9359475960158
 30
0.0
 11
86.76975377828126
 21
-145.518399818343
 31
0.0
  0
LINE
  5
BC
330
70
100
AcDbEntity
  8
レイヤー 1
 62
   250
420
  2299925
370
    25
100
AcDbLine
 10
85.76998155630903
 20
-145.5538892627784
 30
0.0
 11
86.2840140561807
 21
-145.9359475960158
 31
0.0
  0
LINE
  5
BD
330
70
100
AcDbEntity
  8
レイヤー 1
 62
   250
420
  2299925
370
    25
100
AcDbLine
 10
86.76975377828126
 20
-145.518399818343
 30
0.0
 11
87.28375100037508
 21
-145.9001053738026
 31
0.0
  0
LINE
  5
BE
330
70
100
AcDbEntity
  8
レイヤー 1
 62
   250
420
  2299925
370
    25
100
AcDbLine
 10
87.28375100037508
 20
-145.9001053738026
 30
0.0
 11
87.76882044469827
 21
-145.4825575961291
 31
0.0
  0
LINE
  5
BF
330
70
100
AcDbEntity
  8
レイヤー 1
 62
   250
420
  2299925
370
    25
100
AcDbLine
 10
88.28285294456962
 20
-145.8642631515893
 30
0.0
 11
88.76859266667048
 21
-145.4467153739158
 31
0.0
  0
LINE
  5
C0
330
70
100
AcDbEntity
  8
レイヤー 1
 62
   250
420
  2299925
370
    25
100
AcDbLine
 10
87.76882044469827
 20
-145.4825575961291
 30
0.0
 11
88.28285294456962
 21
-145.8642631515893
 31
0.0
  0
LINE
  5
C1
330
70
100
AcDbEntity
  8
レイヤー 1
 62
   250
420
  2299925
370
    25
100
AcDbLine
 10
89.28262516654218
 20
-145.8288089849317
 30
0.0
 11
89.76769461086535
 21
-145.4112612072582
 31
0.0
  0
LINE
  5
C2
330
70
100
AcDbEntity
  8
レイヤー 1
 62
   250
420
  2299925
370
    25
100
AcDbLine
 10
88.76859266667048
 20
-145.4467153739158
 30
0.0
 11
89.28262516654218
 21
-145.8288089849317
 31
0.0
  0
LINE
  5
C3
330
70
100
AcDbEntity
  8
レイヤー 1
 62
   250
420
  2299925
370
    25
100
AcDbLine
 10
89.76769461086535
 20
-145.4112612072582
 30
0.0
 11
90.28169183295887
 21
-145.7933195404959
 31
0.0
  0
LINE
  5
C4
330
70
100
AcDbEntity
  8
レイヤー 1
 62
   250
420
  2299925
370
    25
100
AcDbLine
 10
90.28169183295887
 20
-145.7933195404959
 30
0.0
 11
90.76743155505972
 21
-145.3754189850446
 31
0.0
  0
LINE
  5
C5
330
70
100
AcDbEntity
  8
レイヤー 1
 62
   250
420
  2299925
370
    25
100
AcDbLine
 10
90.76743155505972
 20
-145.3754189850446
 30
0.0
 11
91.28075849937589
 21
-145.7574773182826
 31
0.0
  0
LINE
  5
C6
330
70
100
AcDbEntity
  8
レイヤー 1
 62
   250
420
  2299925
370
    25
100
AcDbLine
 10
91.28075849937589
 20
-145.7574773182826
 30
0.0
 11
91.76653349925427
 21
-145.3399295406094
 31
0.0
  0
LINE
  5
C7
330
70
100
AcDbEntity
  8
レイヤー 1
 62
   250
420
  2299925
370
    25
100
AcDbLine
 10
91.76653349925427
 20
-145.3399295406094
 30
0.0
 11
92.28052982347703
 21
-145.7216350960694
 31
0.0
  0
LINE
  5
C8
330
70
100
AcDbEntity
  8
レイヤー 1
 62
   250
420
  2299925
370
    25
100
AcDbLine
 10
92.28052982347703
 20
-145.7216350960694
 30
0.0
 11
92.76559925554634
 21
-145.3040873183962
 31
0.0
  0
LINE
  5
C9
330
70
100
AcDbEntity
  8
レイヤー 1
 62
   250
420
  2299925
370
    25
100
AcDbLine
 10
92.76559925554634
 20
-145.3040873183962
 30
0.0
 11
93.27959646465538
 21
-145.685828151634
 31
0.0
  0
LINE
  5
CA
330
70
100
AcDbEntity
  8
レイヤー 1
 62
   250
420
  2299925
370
    25
100
AcDbLine
 10
93.27959646465538
 20
-145.685828151634
 30
0.0
 11
93.76537145226224
 21
-145.2682803739605
 31
0.0
  0
LINE
  5
CB
330
70
100
AcDbEntity
  8
レイヤー 1
 62
   250
420
  2299925
370
    25
100
AcDbLine
 10
93.76537145226224
 20
-145.2682803739605
 30
0.0
 11
94.27936866137129
 21
-145.6503387071985
 31
0.0
  0
LINE
  5
CC
330
70
100
AcDbEntity
  8
レイヤー 1
 62
   250
420
  2299925
370
    25
100
AcDbLine
 10
94.27936866137129
 20
-145.6503387071985
 30
0.0
 11
94.76443809344059
 21
-145.232790929525
 31
0.0
  0
LINE
  5
CD
330
70
100
AcDbEntity
  8
レイヤー 1
 62
   250
420
  2299925
370
    25
100
AcDbLine
 10
94.76443809344059
 20
-145.232790929525
 30
0.0
 11
95.27847058032621
 21
-145.6148492627626
 31
0.0
  0
LINE
  5
CE
330
70
100
AcDbEntity
  8
レイヤー 1
 62
   250
420
  2299925
370
    25
100
AcDbLine
 10
95.27847058032621
 20
-145.6148492627626
 30
0.0
 11
95.76421029015682
 21
-145.1969487073117
 31
0.0
  0
LINE
  5
CF
330
70
100
AcDbEntity
  8
レイヤー 1
 62
   250
420
  2299925
370
    25
100
AcDbLine
 10
95.76421029015682
 20
-145.1969487073117
 30
0.0
 11
96.27820749926556
 21
-145.5790070405494
 31
0.0
  0
LINE
  5
D0
330
70
100
AcDbEntity
  8
レイヤー 1
 62
   250
420
  2299925
370
    25
100
AcDbLine
 10
96.27820749926556
 20
-145.5790070405494
 30
0.0
 11
96.76327693133487
 21
-145.1614945406538
 31
0.0
  0
LINE
  5
D1
330
70
100
AcDbEntity
  8
レイヤー 1
 62
   250
420
  2299925
370
    25
100
AcDbLine
 10
96.76327693133487
 20
-145.1614945406538
 30
0.0
 11
97.2773094182208
 21
-145.543200096114
 31
0.0
  0
LINE
  5
D2
330
70
100
AcDbEntity
  8
レイヤー 1
 62
   250
420
  2299925
370
    25
100
AcDbLine
 10
97.2773094182208
 20
-145.543200096114
 30
0.0
 11
97.76237885029008
 21
-145.1256523184405
 31
0.0
  0
LINE
  5
D3
330
70
100
AcDbEntity
  8
レイヤー 1
 62
   250
420
  2299925
370
    25
100
AcDbLine
 10
97.76237885029008
 20
-145.1256523184405
 30
0.0
 11
98.27637605939884
 21
-145.5073578739008
 31
0.0
  0
LINE
  5
D4
330
70
100
AcDbEntity
  8
レイヤー 1
 62
   250
420
  2299925
370
    25
100
AcDbLine
 10
98.27637605939884
 20
-145.5073578739008
 30
0.0
 11
98.76215104700632
 21
-145.0898100962273
 31
0.0
  0
LINE
  5
D5
330
70
100
AcDbEntity
  8
レイヤー 1
 62
   250
420
  2299925
370
    25
100
AcDbLine
 10
98.8361482562253
 20
-145.0415853740171
 30
0.0
 11
99.77638713224179
 21
-145.0415853740171
 31
0.0
  0
LINE
  5
D6
330
70
100
AcDbEntity
  8
レイヤー 1
 62
   250
420
  2299925
370
    25
100
AcDbLine
 10
99.77638713224179
 20
-145.0415853740171
 30
0.0
 11
99.77638713224179
 21
-153.0104473164695
 31
0.0
  0
LINE
  5
D7
330
70
100
AcDbEntity
  8
レイヤー 1
 62
   250
420
  2299925
370
    25
100
AcDbLine
 10
98.77590937998832
 20
-146.3038595403684
 30
0.0
 11
98.77590937998832
 21
-154.0105370384417
 31
0.0
  0
LINE
  5
D8
330
70
100
AcDbEntity
  8
レイヤー 1
 62
   250
420
  2299925
370
    25
100
AcDbLine
 10
111.900335989601
 20
-153.0104473164695
 30
0.0
 11
99.77638713224179
 21
-153.0104473164695
 31
0.0
  0
LINE
  5
D9
330
70
100
AcDbEntity
  8
レイヤー 1
 62
   250
420
  2299925
370
    25
100
AcDbLine
 10
122.9081312643243
 20
-145.4467153739158
 30
0.0
 11
122.3940987774384
 21
-145.8288089849317
 31
0.0
  0
LINE
  5
DA
330
70
100
AcDbEntity
  8
レイヤー 1
 62
   250
420
  2299925
370
    25
100
AcDbLine
 10
127.9048755812912
 20
-145.625185651649
 30
0.0
 11
127.3908783721815
 21
-146.007243984887
 31
0.0
  0
LINE
  5
DB
330
70
100
AcDbEntity
  8
レイヤー 1
 62
   250
420
  2299925
370
    25
100
AcDbLine
 10
123.3932006963936
 20
-145.8642631515893
 30
0.0
 11
122.9081312643243
 21
-145.4467153739158
 31
0.0
  0
LINE
  5
DC
330
70
100
AcDbEntity
  8
レイヤー 1
 62
   250
420
  2299925
370
    25
100
AcDbLine
 10
124.3929728931095
 20
-145.9001053738026
 30
0.0
 11
123.9071979055027
 21
-145.4825575961291
 31
0.0
  0
LINE
  5
DD
330
70
100
AcDbEntity
  8
レイヤー 1
 62
   250
420
  2299925
370
    25
100
AcDbLine
 10
122.3940987774384
 20
-145.8288089849317
 30
0.0
 11
121.9083590676084
 21
-145.4112612072582
 31
0.0
  0
LINE
  5
DE
330
70
100
AcDbEntity
  8
レイヤー 1
 62
   250
420
  2299925
370
    25
100
AcDbLine
 10
123.9071979055027
 20
-145.4825575961291
 30
0.0
 11
123.3932006963936
 21
-145.8642631515893
 31
0.0
  0
LINE
  5
DF
330
70
100
AcDbEntity
  8
レイヤー 1
 62
   250
420
  2299925
370
    25
100
AcDbLine
 10
131.9025904336646
 20
-145.7681664849467
 30
0.0
 11
131.3885560479707
 21
-146.1502248181844
 31
0.0
  0
LINE
  5
E0
330
70
100
AcDbEntity
  8
レイヤー 1
 62
   250
420
  2299925
370
    25
100
AcDbLine
 10
124.9069701022186
 20
-145.518399818343
 30
0.0
 11
124.3929728931095
 21
-145.9001053738026
 31
0.0
  0
LINE
  5
E1
330
70
100
AcDbEntity
  8
レイヤー 1
 62
   250
420
  2299925
370
    25
100
AcDbLine
 10
125.9060367433969
 20
-145.5538892627784
 30
0.0
 11
125.3920395342879
 21
-145.9359475960158
 31
0.0
  0
LINE
  5
E2
330
70
100
AcDbEntity
  8
レイヤー 1
 62
   250
420
  2299925
370
    25
100
AcDbLine
 10
111.900335989601
 20
-145.0415853740171
 30
0.0
 11
111.900335989601
 21
-153.0104473164695
 31
0.0
  0
LINE
  5
E3
330
70
100
AcDbEntity
  8
レイヤー 1
 62
   250
420
  2299925
370
    25
100
AcDbLine
 10
125.3920395342879
 20
-145.9359475960158
 30
0.0
 11
124.9069701022186
 21
-145.518399818343
 31
0.0
  0
LINE
  5
E4
330
70
100
AcDbEntity
  8
レイヤー 1
 62
   250
420
  2299925
370
    25
100
AcDbLine
 10
126.3918117310038
 20
-145.9717545404512
 30
0.0
 11
125.9060367433969
 21
-145.5538892627784
 31
0.0
  0
LINE
  5
E5
330
70
100
AcDbEntity
  8
レイヤー 1
 62
   250
420
  2299925
370
    25
100
AcDbLine
 10
131.3885560479707
 20
-146.1502248181844
 30
0.0
 11
130.9028182116927
 21
-145.7323242627335
 31
0.0
  0
LINE
  5
E6
330
70
100
AcDbEntity
  8
レイヤー 1
 62
   250
420
  2299925
370
    25
100
AcDbLine
 10
126.9051033845753
 20
-145.5896962072135
 30
0.0
 11
126.3918117310038
 21
-145.9717545404512
 31
0.0
  0
LINE
  5
E7
330
70
100
AcDbEntity
  8
レイヤー 1
 62
   250
420
  2299925
370
    25
100
AcDbLine
 10
127.3908783721815
 20
-146.007243984887
 30
0.0
 11
126.9051033845753
 21
-145.5896962072135
 31
0.0
  0
LINE
  5
E8
330
70
100
AcDbEntity
  8
レイヤー 1
 62
   250
420
  2299925
370
    25
100
AcDbLine
 10
132.3876598779878
 20
-146.1857142626202
 30
0.0
 11
131.9025904336646
 21
-145.7681664849467
 31
0.0
  0
LINE
  5
E9
330
70
100
AcDbEntity
  8
レイヤー 1
 62
   250
420
  2299925
370
    25
100
AcDbLine
 10
128.9039793233032
 20
-145.6610278738622
 30
0.0
 11
128.3899450133605
 21
-146.0427334293225
 31
0.0
  0
LINE
  5
EA
330
70
100
AcDbEntity
  8
レイヤー 1
 62
   250
420
  2299925
370
    25
100
AcDbLine
 10
129.9037144191855
 20
-145.696834818298
 30
0.0
 11
129.3897172100764
 21
-146.0785756515358
 31
0.0
  0
LINE
  5
EB
330
70
100
AcDbEntity
  8
レイヤー 1
 62
   250
420
  2299925
370
    25
100
AcDbLine
 10
129.3897172100764
 20
-146.0785756515358
 30
0.0
 11
128.9039793233032
 21
-145.6610278738622
 31
0.0
  0
LINE
  5
EC
330
70
100
AcDbEntity
  8
レイヤー 1
 62
   250
420
  2299925
370
    25
100
AcDbLine
 10
132.9016571000816
 20
-145.8036559293822
 30
0.0
 11
132.3876598779878
 21
-146.1857142626202
 31
0.0
  0
LINE
  5
ED
330
70
100
AcDbEntity
  8
レイヤー 1
 62
   250
420
  2299925
370
    25
100
AcDbLine
 10
128.3899450133605
 20
-146.0427334293225
 30
0.0
 11
127.9048755812912
 21
-145.625185651649
 31
0.0
  0
LINE
  5
EE
330
70
100
AcDbEntity
  8
レイヤー 1
 62
   250
420
  2299925
370
    25
100
AcDbLine
 10
130.9028182116927
 20
-145.7323242627335
 30
0.0
 11
130.3887838512548
 21
-146.1143825959712
 31
0.0
  0
LINE
  5
EF
330
70
100
AcDbEntity
  8
レイヤー 1
 62
   250
420
  2299925
370
    25
100
AcDbLine
 10
130.3887838512548
 20
-146.1143825959712
 30
0.0
 11
129.9037144191855
 21
-145.696834818298
 31
0.0
  0
LINE
  5
F0
330
70
100
AcDbEntity
  8
レイヤー 1
 62
   250
420
  2299925
370
    25
100
AcDbLine
 10
132.9016571000816
 20
-145.8036559293822
 30
0.0
 11
132.9016571000816
 21
-146.3038595403684
 31
0.0
  0
LINE
  5
F1
330
70
100
AcDbEntity
  8
レイヤー 1
 62
   250
420
  2299925
370
    25
100
AcDbLine
 10
112.9001081863169
 20
-146.3038595403684
 30
0.0
 11
132.9016571000816
 21
-146.3038595403684
 31
0.0
  0
LINE
  5
F2
330
70
100
AcDbEntity
  8
レイヤー 1
 62
   250
420
  2299925
370
    25
100
AcDbLine
 10
121.9083590676084
 20
-145.4112612072582
 30
0.0
 11
121.3943618584994
 21
-145.7933195404959
 31
0.0
  0
LINE
  5
F3
330
70
100
AcDbEntity
  8
レイヤー 1
 62
   250
420
  2299925
370
    25
100
AcDbLine
 10
121.3943618584994
 20
-145.7933195404959
 30
0.0
 11
120.9092924264301
 21
-145.3754189850446
 31
0.0
  0
LINE
  5
F4
330
70
100
AcDbEntity
  8
レイヤー 1
 62
   250
420
  2299925
370
    25
100
AcDbLine
 10
120.9092924264301
 20
-145.3754189850446
 30
0.0
 11
120.3952599395442
 21
-145.7574773182826
 31
0.0
  0
LINE
  5
F5
330
70
100
AcDbEntity
  8
レイヤー 1
 62
   250
420
  2299925
370
    25
100
AcDbLine
 10
120.3952599395442
 20
-145.7574773182826
 30
0.0
 11
119.9101905074749
 21
-145.3399295406094
 31
0.0
  0
LINE
  5
F6
330
70
100
AcDbEntity
  8
レイヤー 1
 62
   250
420
  2299925
370
    25
100
AcDbLine
 10
119.9101905074749
 20
-145.3399295406094
 30
0.0
 11
119.3961932983658
 21
-145.7216350960694
 31
0.0
  0
LINE
  5
F7
330
70
100
AcDbEntity
  8
レイヤー 1
 62
   250
420
  2299925
370
    25
100
AcDbLine
 10
119.3961932983658
 20
-145.7216350960694
 30
0.0
 11
118.9104183107589
 21
-145.3040873183962
 31
0.0
  0
LINE
  5
F8
330
70
100
AcDbEntity
  8
レイヤー 1
 62
   250
420
  2299925
370
    25
100
AcDbLine
 10
118.9104183107589
 20
-145.3040873183962
 30
0.0
 11
118.3964211016499
 21
-145.685828151634
 31
0.0
  0
LINE
  5
F9
330
70
100
AcDbEntity
  8
レイヤー 1
 62
   250
420
  2299925
370
    25
100
AcDbLine
 10
118.3964211016499
 20
-145.685828151634
 30
0.0
 11
117.9113516695806
 21
-145.2682803739605
 31
0.0
  0
LINE
  5
FA
330
70
100
AcDbEntity
  8
レイヤー 1
 62
   250
420
  2299925
370
    25
100
AcDbLine
 10
117.9113516695806
 20
-145.2682803739605
 30
0.0
 11
117.3973544604709
 21
-145.6503387071985
 31
0.0
  0
LINE
  5
FB
330
70
100
AcDbEntity
  8
レイヤー 1
 62
   250
420
  2299925
370
    25
100
AcDbLine
 10
117.3973544604709
 20
-145.6503387071985
 30
0.0
 11
116.9115794728647
 21
-145.232790929525
 31
0.0
  0
LINE
  5
FC
330
70
100
AcDbEntity
  8
レイヤー 1
 62
   250
420
  2299925
370
    25
100
AcDbLine
 10
116.9115794728647
 20
-145.232790929525
 30
0.0
 11
116.3975822637556
 21
-145.6148492627626
 31
0.0
  0
LINE
  5
FD
330
70
100
AcDbEntity
  8
レイヤー 1
 62
   250
420
  2299925
370
    25
100
AcDbLine
 10
116.3975822637556
 20
-145.6148492627626
 30
0.0
 11
115.9125128316863
 21
-145.1969487073117
 31
0.0
  0
LINE
  5
FE
330
70
100
AcDbEntity
  8
レイヤー 1
 62
   250
420
  2299925
370
    25
100
AcDbLine
 10
115.9125128316863
 20
-145.1969487073117
 30
0.0
 11
115.3985156225773
 21
-145.5790070405494
 31
0.0
  0
LINE
  5
FF
330
70
100
AcDbEntity
  8
レイヤー 1
 62
   250
420
  2299925
370
    25
100
AcDbLine
 10
115.3985156225773
 20
-145.5790070405494
 30
0.0
 11
114.913446190508
 21
-145.1614945406538
 31
0.0
  0
LINE
  5
100
330
70
100
AcDbEntity
  8
レイヤー 1
 62
   250
420
  2299925
370
    25
100
AcDbLine
 10
114.913446190508
 20
-145.1614945406538
 30
0.0
 11
114.399413703622
 21
-145.543200096114
 31
0.0
  0
LINE
  5
101
330
70
100
AcDbEntity
  8
レイヤー 1
 62
   250
420
  2299925
370
    25
100
AcDbLine
 10
114.399413703622
 20
-145.543200096114
 30
0.0
 11
113.9136739937921
 21
-145.1256523184405
 31
0.0
  0
LINE
  5
102
330
70
100
AcDbEntity
  8
レイヤー 1
 62
   250
420
  2299925
370
    25
100
AcDbLine
 10
113.9136739937921
 20
-145.1256523184405
 30
0.0
 11
113.3996415069061
 21
-145.5073578739008
 31
0.0
  0
LINE
  5
103
330
70
100
AcDbEntity
  8
レイヤー 1
 62
   250
420
  2299925
370
    25
100
AcDbLine
 10
113.3996415069061
 20
-145.5073578739008
 30
0.0
 11
112.9145720748368
 21
-145.0898100962273
 31
0.0
  0
LINE
  5
104
330
70
100
AcDbEntity
  8
レイヤー 1
 62
   250
420
  2299925
370
    25
100
AcDbLine
 10
112.8405748656176
 20
-145.0415853740171
 30
0.0
 11
111.900335989601
 21
-145.0415853740171
 31
0.0
  0
LINE
  5
105
330
70
100
AcDbEntity
  8
レイヤー 1
 62
   250
420
  2299925
370
    25
100
AcDbLine
 10
112.9001081863169
 20
-146.3038595403684
 30
0.0
 11
112.9001081863169
 21
-154.0105370384417
 31
0.0
  0
SPLINE
  5
106
330
70
100
AcDbEntity
  8
レイヤー 1
 62
   250
420
  2299925
370
     9
100
AcDbSpline
210
0.0
220
0.0
230
1.0
 70
     9
 71
     3
 72
    17
 73
    13
 74
     0
 42
0.0000000001
 43
0.0000000001
 40
0.0
 40
0.0
 40
0.0
 40
0.0
 40
1.0
 40
1.0
 40
1.0
 40
2.0
 40
2.0
 40
2.0
 40
3.0
 40
3.0
 40
3.0
 40
4.0
 40
4.0
 40
4.0
 40
4.0
 10
78.87479878025506
 20
-141.0418262083505
 30
0.0
 10
78.87479878025506
 20
-140.9863695416978
 30
0.0
 10
78.83003128026619
 20
-140.9415667639311
 30
0.0
 10
78.77489211361342
 20
-140.9415667639311
 30
0.0
 10
78.71943544696074
 20
-140.9415667639311
 30
0.0
 10
78.67463266919402
 20
-140.9863695416978
 30
0.0
 10
78.67463266919402
 20
-141.0418262083505
 30
0.0
 10
78.67463266919402
 20
-141.0969653750033
 30
0.0
 10
78.71943544696074
 20
-141.1417328749922
 30
0.0
 10
78.77489211361342
 20
-141.1417328749922
 30
0.0
 10
78.83003128026619
 20
-141.1417328749922
 30
0.0
 10
78.87479878025506
 20
-141.0969653750033
 30
0.0
 10
78.87479878025506
 20
-141.0418262083505
 30
0.0
  0
SPLINE
  5
107
330
70
100
AcDbEntity
  8
レイヤー 1
 62
   250
420
  2299925
370
     9
100
AcDbSpline
210
0.0
220
0.0
230
1.0
 70
     9
 71
     3
 72
    17
 73
    13
 74
     0
 42
0.0000000001
 43
0.0000000001
 40
0.0
 40
0.0
 40
0.0
 40
0.0
 40
1.0
 40
1.0
 40
1.0
 40
2.0
 40
2.0
 40
2.0
 40
3.0
 40
3.0
 40
3.0
 40
4.0
 40
4.0
 40
4.0
 40
4.0
 10
76.64513739192379
 20
-145.8036559293822
 30
0.0
 10
76.64513739192379
 20
-145.7485167627298
 30
0.0
 10
76.60036989193492
 20
-145.7037492627406
 30
0.0
 10
76.54487794750441
 20
-145.7037492627406
 30
0.0
 10
76.48977405862916
 20
-145.7037492627406
 30
0.0
 10
76.44497128086243
 20
-145.7485167627298
 30
0.0
 10
76.44497128086243
 20
-145.8036559293822
 30
0.0
 10
76.44497128086243
 20
-145.8587598182578
 30
0.0
 10
76.48977405862916
 20
-145.9035625960239
 30
0.0
 10
76.54487794750441
 20
-145.9035625960239
 30
0.0
 10
76.60036989193492
 20
-145.9035625960239
 30
0.0
 10
76.64513739192379
 20
-145.8587598182578
 30
0.0
 10
76.64513739192379
 20
-145.8036559293822
 30
0.0
  0
SPLINE
  5
108
330
70
100
AcDbEntity
  8
レイヤー 1
 62
   250
420
  2299925
370
     9
100
AcDbSpline
210
0.0
220
0.0
230
1.0
 70
     9
 71
     3
 72
    17
 73
    13
 74
     0
 42
0.0000000001
 43
0.0000000001
 40
0.0
 40
0.0
 40
0.0
 40
0.0
 40
1.0
 40
1.0
 40
1.0
 40
2.0
 40
2.0
 40
2.0
 40
3.0
 40
3.0
 40
3.0
 40
4.0
 40
4.0
 40
4.0
 40
4.0
 10
76.64513739192379
 20
-146.3038595403684
 30
0.0
 10
76.64513739192379
 20
-146.2487556514932
 30
0.0
 10
76.60036989193492
 20
-146.2039528737268
 30
0.0
 10
76.54487794750441
 20
-146.2039528737268
 30
0.0
 10
76.48977405862916
 20
-146.2039528737268
 30
0.0
 10
76.44497128086243
 20
-146.2487556514932
 30
0.0
 10
76.44497128086243
 20
-146.3038595403684
 30
0.0
 10
76.44497128086243
 20
-146.3589987070212
 30
0.0
 10
76.48977405862916
 20
-146.4037662070101
 30
0.0
 10
76.54487794750441
 20
-146.4037662070101
 30
0.0
 10
76.60036989193492
 20
-146.4037662070101
 30
0.0
 10
76.64513739192379
 20
-146.3589987070212
 30
0.0
 10
76.64513739192379
 20
-146.3038595403684
 30
0.0
  0
SPLINE
  5
109
330
70
100
AcDbEntity
  8
レイヤー 1
 62
   250
420
  2299925
370
     9
100
AcDbSpline
210
0.0
220
0.0
230
1.0
 70
     9
 71
     3
 72
    17
 73
    13
 74
     0
 42
0.0000000001
 43
0.0000000001
 40
0.0
 40
0.0
 40
0.0
 40
0.0
 40
1.0
 40
1.0
 40
1.0
 40
2.0
 40
2.0
 40
2.0
 40
3.0
 40
3.0
 40
3.0
 40
4.0
 40
4.0
 40
4.0
 40
4.0
 10
76.64513739192379
 20
-154.0105370384417
 30
0.0
 10
76.64513739192379
 20
-153.9554331495668
 30
0.0
 10
76.60036989193492
 20
-153.9106303718
 30
0.0
 10
76.54487794750441
 20
-153.9106303718
 30
0.0
 10
76.48977405862916
 20
-153.9106303718
 30
0.0
 10
76.44497128086243
 20
-153.9554331495668
 30
0.0
 10
76.44497128086243
 20
-154.0105370384417
 30
0.0
 10
76.44497128086243
 20
-154.0656762050948
 30
0.0
 10
76.48977405862916
 20
-154.1104437050833
 30
0.0
 10
76.54487794750441
 20
-154.1104437050833
 30
0.0
 10
76.60036989193492
 20
-154.1104437050833
 30
0.0
 10
76.64513739192379
 20
-154.0656762050948
 30
0.0
 10
76.64513739192379
 20
-154.0105370384417
 30
0.0
  0
SPLINE
  5
10A
330
70
100
AcDbEntity
  8
レイヤー 1
 62
   250
420
  2299925
370
     9
100
AcDbSpline
210
0.0
220
0.0
230
1.0
 70
     9
 71
     3
 72
    17
 73
    13
 74
     0
 42
0.0000000001
 43
0.0000000001
 40
0.0
 40
0.0
 40
0.0
 40
0.0
 40
1.0
 40
1.0
 40
1.0
 40
2.0
 40
2.0
 40
2.0
 40
3.0
 40
3.0
 40
3.0
 40
4.0
 40
4.0
 40
4.0
 40
4.0
 10
99.87629379635961
 20
-141.0418262083505
 30
0.0
 10
99.87629379635961
 20
-140.9863695416978
 30
0.0
 10
99.83149101972486
 20
-140.9415667639311
 30
0.0
 10
99.77638713224179
 20
-140.9415667639311
 30
0.0
 10
99.72057768922116
 20
-140.9415667639311
 30
0.0
 10
99.67577491258639
 20
-140.9863695416978
 30
0.0
 10
99.67577491258639
 20
-141.0418262083505
 30
0.0
 10
99.67577491258639
 20
-141.0969653750033
 30
0.0
 10
99.72057768922116
 20
-141.1417328749922
 30
0.0
 10
99.77638713224179
 20
-141.1417328749922
 30
0.0
 10
99.83149101972486
 20
-141.1417328749922
 30
0.0
 10
99.87629379635961
 20
-141.0969653750033
 30
0.0
 10
99.87629379635961
 20
-141.0418262083505
 30
0.0
  0
SPLINE
  5
10B
330
70
100
AcDbEntity
  8
レイヤー 1
 62
   250
420
  2299925
370
     9
100
AcDbSpline
210
0.0
220
0.0
230
1.0
 70
     9
 71
     3
 72
    17
 73
    13
 74
     0
 42
0.0000000001
 43
0.0000000001
 40
0.0
 40
0.0
 40
0.0
 40
0.0
 40
1.0
 40
1.0
 40
1.0
 40
2.0
 40
2.0
 40
2.0
 40
3.0
 40
3.0
 40
3.0
 40
4.0
 40
4.0
 40
4.0
 40
4.0
 10
133.0015618401528
 20
-141.0418262083505
 30
0.0
 10
133.0015618401528
 20
-140.9863695416978
 30
0.0
 10
132.956759063518
 20
-140.9415667639311
 30
0.0
 10
132.9016571000816
 20
-140.9415667639311
 30
0.0
 10
132.846516010775
 20
-140.9415667639311
 30
0.0
 10
132.8017485119171
 20
-140.9863695416978
 30
0.0
 10
132.8017485119171
 20
-141.0418262083505
 30
0.0
 10
132.8017485119171
 20
-141.0969653750033
 30
0.0
 10
132.846516010775
 20
-141.1417328749922
 30
0.0
 10
132.9016571000816
 20
-141.1417328749922
 30
0.0
 10
132.956759063518
 20
-141.1417328749922
 30
0.0
 10
133.0015618401528
 20
-141.0969653750033
 30
0.0
 10
133.0015618401528
 20
-141.0418262083505
 30
0.0
  0
SPLINE
  5
10C
330
70
100
AcDbEntity
  8
レイヤー 1
 62
   250
420
  2299925
370
     9
100
AcDbSpline
210
0.0
220
0.0
230
1.0
 70
     9
 71
     3
 72
    17
 73
    13
 74
     0
 42
0.0000000001
 43
0.0000000001
 40
0.0
 40
0.0
 40
0.0
 40
0.0
 40
1.0
 40
1.0
 40
1.0
 40
2.0
 40
2.0
 40
2.0
 40
3.0
 40
3.0
 40
3.0
 40
4.0
 40
4.0
 40
4.0
 40
4.0
 10
112.0002426537189
 20
-141.0418262083505
 30
0.0
 10
112.0002426537189
 20
-140.9863695416978
 30
0.0
 10
111.9554765497626
 20
-140.9415667639311
 30
0.0
 10
111.900335989601
 20
-140.9415667639311
 30
0.0
 10
111.845232102118
 20
-140.9415667639311
 30
0.0
 10
111.8004293254832
 20
-140.9863695416978
 30
0.0
 10
111.8004293254832
 20
-141.0418262083505
 30
0.0
 10
111.8004293254832
 20
-141.0969653750033
 30
0.0
 10
111.845232102118
 20
-141.1417328749922
 30
0.0
 10
111.900335989601
 20
-141.1417328749922
 30
0.0
 10
111.9554765497626
 20
-141.1417328749922
 30
0.0
 10
112.0002426537189
 20
-141.0969653750033
 30
0.0
 10
112.0002426537189
 20
-141.0418262083505
 30
0.0
  0
LINE
  5
10D
330
70
100
AcDbEntity
  8
レイヤー 1
 62
   250
420
  2299925
370
     9
100
AcDbLine
 10
76.54487794750441
 20
-145.8036559293822
 30
0.0
 11
76.54487794750441
 21
-140.5460675973632
 31
0.0
  0
LINE
  5
10E
330
70
100
AcDbEntity
  8
レイヤー 1
 62
   250
420
  2299925
370
     9
100
AcDbLine
 10
76.54487794750441
 20
-145.8036559293822
 30
0.0
 11
76.54487794750441
 21
-146.3038595403684
 31
0.0
  0
LINE
  5
10F
330
70
100
AcDbEntity
  8
レイヤー 1
 62
   250
420
  2299925
370
     9
100
AcDbLine
 10
78.00491933602811
 20
-145.8036559293822
 30
0.0
 11
75.54510572553185
 21
-145.8036559293822
 31
0.0
  0
LINE
  5
110
330
70
100
AcDbEntity
  8
レイヤー 1
 62
   250
420
  2299925
370
     9
100
AcDbLine
 10
78.00491933602811
 20
-146.3038595403684
 30
0.0
 11
75.54510572553185
 21
-146.3038595403684
 31
0.0
  0
INSERT
  5
112
330
70
100
AcDbEntity
  8
レイヤー 1
100
AcDbBlockReference
  2
Block_2
 10
0.0
 20
0.0
 30
0.0
  0
LINE
  5
120
330
70
100
AcDbEntity
  8
レイヤー 1
 62
   250
420
  2299925
370
     9
100
AcDbLine
 10
78.77489211361342
 20
-141.0418262083505
 30
0.0
 11
99.77638713224179
 21
-141.0418262083505
 31
0.0
  0
LINE
  5
121
330
70
100
AcDbEntity
  8
レイヤー 1
 62
   250
420
  2299925
370
     9
100
AcDbLine
 10
78.77489211361342
 20
-143.2639028744615
 30
0.0
 11
78.77489211361342
 21
-140.0417364863787
 31
0.0
  0
INSERT
  5
123
330
70
100
AcDbEntity
  8
レイヤー 1
100
AcDbBlockReference
  2
Block_4
 10
0.0
 20
0.0
 30
0.0
  0
LINE
  5
12E
330
70
100
AcDbEntity
  8
レイヤー 1
 62
   250
420
  2299925
370
     9
100
AcDbLine
 10
76.54487794750441
 20
-146.3038595403684
 30
0.0
 11
76.54487794750441
 21
-154.0105370384417
 31
0.0
  0
LINE
  5
12F
330
70
100
AcDbEntity
  8
レイヤー 1
 62
   250
420
  2299925
370
     9
100
AcDbLine
 10
98.00629044213877
 20
-154.0105370384417
 30
0.0
 11
75.54510572553185
 21
-154.0105370384417
 31
0.0
  0
INSERT
  5
131
330
70
100
AcDbEntity
  8
レイヤー 1
100
AcDbBlockReference
  2
Block_6
 10
0.0
 20
0.0
 30
0.0
  0
LINE
  5
138
330
70
100
AcDbEntity
  8
レイヤー 1
 62
   250
420
  2299925
370
     9
100
AcDbLine
 10
132.9016571000816
 20
-141.0418262083505
 30
0.0
 11
111.900335989601
 21
-141.0418262083505
 31
0.0
  0
LINE
  5
139
330
70
100
AcDbEntity
  8
レイヤー 1
 62
   250
420
  2299925
370
     9
100
AcDbLine
 10
132.9016571000816
 20
-143.2639028744615
 30
0.0
 11
132.9016571000816
 21
-140.0417364863787
 31
0.0
  0
INSERT
  5
13B
330
70
100
AcDbEntity
  8
レイヤー 1
100
AcDbBlockReference
  2
Block_7
 10
0.0
 20
0.0
 30
0.0
  0
LINE
  5
146
330
70
100
AcDbEntity
  8
レイヤー 1
 62
   250
420
  2299925
370
     9
100
AcDbLine
 10
99.77638713224179
 20
-141.0418262083505
 30
0.0
 11
111.900335989601
 21
-141.0418262083505
 31
0.0
  0
LINE
  5
147
330
70
100
AcDbEntity
  8
レイヤー 1
 62
   250
420
  2299925
370
     9
100
AcDbLine
 10
99.77638713224179
 20
-142.5018675968742
 30
0.0
 11
99.77638713224179
 21
-140.0417364863787
 31
0.0
  0
LINE
  5
148
330
70
100
AcDbEntity
  8
レイヤー 1
 62
   250
420
  2299925
370
     9
100
AcDbLine
 10
111.900335989601
 20
-142.5018675968742
 30
0.0
 11
111.900335989601
 21
-140.0417364863787
 31
0.0
  0
INSERT
  5
14A
330
70
100
AcDbEntity
  8
レイヤー 1
100
AcDbBlockReference
  2
Block_9
 10
0.0
 20
0.0
 30
0.0
  0
SPLINE
  5
155
330
70
100
AcDbEntity
  8
レイヤー 1
 62
   250
420
  2299925
370
     9
100
AcDbSpline
210
0.0
220
0.0
230
1.0
 70
     9
 71
     3
 72
    17
 73
    13
 74
     0
 42
0.0000000001
 43
0.0000000001
 40
0.0
 40
0.0
 40
0.0
 40
0.0
 40
1.0
 40
1.0
 40
1.0
 40
2.0
 40
2.0
 40
2.0
 40
3.0
 40
3.0
 40
3.0
 40
4.0
 40
4.0
 40
4.0
 40
4.0
 10
99.00398020750309
 20
-158.1243492596356
 30
0.0
 10
99.00398020750309
 20
-158.0692100929819
 30
0.0
 10
98.95885993087642
 20
-158.0244425929933
 30
0.0
 10
98.90372076561646
 20
-158.0244425929933
 30
0.0
 10
98.84861687813341
 20
-158.0244425929933
 30
0.0
 10
98.80416687926741
 20
-158.0692100929819
 30
0.0
 10
98.80416687926741
 20
-158.1243492596356
 30
0.0
 10
98.80416687926741
 20
-158.1794531485099
 30
0.0
 10
98.84861687813341
 20
-158.2242559262766
 30
0.0
 10
98.90372076561646
 20
-158.2242559262766
 30
0.0
 10
98.95885993087642
 20
-158.2242559262766
 30
0.0
 10
99.00398020750309
 20
-158.1794531485099
 30
0.0
 10
99.00398020750309
 20
-158.1243492596356
 30
0.0
  0
SPLINE
  5
156
330
70
100
AcDbEntity
  8
レイヤー 1
 62
   250
420
  2299925
370
     9
100
AcDbSpline
210
0.0
220
0.0
230
1.0
 70
     9
 71
     3
 72
    17
 73
    13
 74
     0
 42
0.0000000001
 43
0.0000000001
 40
0.0
 40
0.0
 40
0.0
 40
0.0
 40
1.0
 40
1.0
 40
1.0
 40
2.0
 40
2.0
 40
2.0
 40
3.0
 40
3.0
 40
3.0
 40
4.0
 40
4.0
 40
4.0
 40
4.0
 10
113.0000148504348
 20
-158.1243492596356
 30
0.0
 10
113.0000148504348
 20
-158.0692100929819
 30
0.0
 10
112.9548959939574
 20
-158.0244425929933
 30
0.0
 10
112.9004609640857
 20
-158.0244425929933
 30
0.0
 10
112.8442987432963
 20
-158.0244425929933
 30
0.0
 10
112.8002015221991
 20
-158.0692100929819
 30
0.0
 10
112.8002015221991
 20
-158.1243492596356
 30
0.0
 10
112.8002015221991
 20
-158.1794531485099
 30
0.0
 10
112.8442987432963
 20
-158.2242559262766
 30
0.0
 10
112.9004609640857
 20
-158.2242559262766
 30
0.0
 10
112.9548959939574
 20
-158.2242559262766
 30
0.0
 10
113.0000148504348
 20
-158.1794531485099
 30
0.0
 10
113.0000148504348
 20
-158.1243492596356
 30
0.0
  0
LINE
  5
157
330
70
100
AcDbEntity
  8
レイヤー 1
 62
   250
420
  2299925
370
     9
100
AcDbLine
 10
112.9008137418545
 20
-158.1243492596356
 30
0.0
 11
98.90336798784769
 21
-158.1243492596356
 31
0.0
  0
LINE
  5
158
330
70
100
AcDbEntity
  8
レイヤー 1
 62
   250
420
  2299925
370
     9
100
AcDbLine
 10
112.9008137418545
 20
-156.6643078711119
 30
0.0
 11
112.9008137418545
 21
-159.1244389816071
 31
0.0
  0
LINE
  5
159
330
70
100
AcDbEntity
  8
レイヤー 1
 62
   250
420
  2299925
370
     9
100
AcDbLine
 10
98.90336798784769
 20
-156.6643078711119
 30
0.0
 11
98.90336798784769
 21
-159.1244389816071
 31
0.0
  0
INSERT
  5
15B
330
70
100
AcDbEntity
  8
レイヤー 1
100
AcDbBlockReference
  2
Block_11
 10
0.0
 20
0.0
 30
0.0
  0
LINE
  5
167
330
70
100
AcDbEntity
  8
レイヤー 1
 62
   250
420
  2299925
370
     9
100
AcDbLine
 10
109.876026596801
 20
-150.448998428221
 30
0.0
 11
117.8762150038103
 21
-150.448998428221
 31
0.0
  0
INSERT
  5
169
330
70
100
AcDbEntity
  8
レイヤー 1
100
AcDbBlockReference
  2
Block_13
 10
0.0
 20
0.0
 30
0.0
  0
ENDSEC
  0
SECTION
  2
OBJECTS
  0
DICTIONARY
  5
C
330
0
100
AcDbDictionary
281
     1
  3
ACAD_COLOR
350
63
  3
ACAD_DETAILVIEWSTYLE
350
6A
  3
ACAD_GROUP
350
D
  3
ACAD_LAYOUT
350
62
  3
ACAD_MATERIAL
350
10
  3
ACAD_MLEADERSTYLE
350
66
  3
ACAD_MLINESTYLE
350
5F
  3
ACAD_PLOTSETTINGS
350
61
  3
ACAD_PLOTSTYLENAME
350
E
  3
ACAD_SCALELIST
350
42
  3
ACAD_SECTIONVIEWSTYLE
350
68
  3
ACAD_TABLESTYLE
350
64
  3
ACAD_VISUALSTYLE
350
29
  3
ACDB_RECOMPOSE_DATA
350
176
  3
AcDbVariableDictionary
350
16E
  0
DICTIONARY
  5
63
102
{ACAD_REACTORS
330
C
102
}
330
C
100
AcDbDictionary
281
     1
  0
DICTIONARY
  5
6A
102
{ACAD_REACTORS
330
C
102
}
330
C
100
AcDbDictionary
281
     1
  3
Imperial24
350
6B
  0
DICTIONARY
  5
D
102
{ACAD_REACTORS
330
C
102
}
330
C
100
AcDbDictionary
281
     1
  0
DICTIONARY
  5
62
102
{ACAD_REACTORS
330
C
102
}
330
C
100
AcDbDictionary
281
     1
  3
Layout1
350
6F
  3
Layout2
350
77
  3
Model
350
73
  0
DICTIONARY
  5
10
102
{ACAD_REACTORS
330
C
102
}
330
C
100
AcDbDictionary
281
     1
  3
ByBlock
350
19
  3
ByLayer
350
11
  3
Global
350
21
  0
DICTIONARY
  5
66
102
{ACAD_REACTORS
330
C
102
}
330
C
100
AcDbDictionary
281
     1
  3
Standard
350
67
  0
DICTIONARY
  5
5F
102
{ACAD_REACTORS
330
C
102
}
330
C
100
AcDbDictionary
281
     1
  3
Standard
350
60
  0
DICTIONARY
  5
61
102
{ACAD_REACTORS
330
C
102
}
330
C
100
AcDbDictionary
281
     1
  0
ACDBDICTIONARYWDFLT
  5
E
102
{ACAD_REACTORS
330
C
102
}
330
C
100
AcDbDictionary
281
     1
  3
Normal
350
F
100
AcDbDictionaryWithDefault
340
F
  0
DICTIONARY
  5
42
102
{ACAD_REACTORS
330
C
102
}
330
C
100
AcDbDictionary
281
     1
  3
A0
350
43
  3
A1
350
44
  3
A2
350
45
  3
A3
350
46
  3
A4
350
47
  3
A5
350
48
  3
A6
350
49
  3
A7
350
4A
  3
A8
350
4B
  3
A9
350
4C
  3
B0
350
4D
  3
B1
350
4E
  3
B2
350
4F
  3
B3
350
50
  3
B4
350
51
  3
B5
350
52
  3
B6
350
53
  0
DICTIONARY
  5
68
102
{ACAD_REACTORS
330
C
102
}
330
C
100
AcDbDictionary
281
     1
  3
Imperial24
350
69
  0
DICTIONARY
  5
64
102
{ACAD_REACTORS
330
C
102
}
330
C
100
AcDbDictionary
281
     1
  3
Standard
350
65
  0
DICTIONARY
  5
29
102
{ACAD_REACTORS
330
C
102
}
330
C
100
AcDbDictionary
281
     1
  3
2dWireframe
350
2F
  3
Basic
350
2E
  3
Brighten
350
35
  3
ColorChange
350
39
  3
Conceptual
350
32
  3
Dim
350
34
  3
EdgeColorOff
350
41
  3
Facepattern
350
38
  3
Flat
350
2A
  3
FlatWithEdges
350
2B
  3
Gouraud
350
2C
  3
GouraudWithEdges
350
2D
  3
Hidden
350
31
  3
JitterOff
350
3F
  3
Linepattern
350
37
  3
OverhangOff
350
40
  3
Realistic
350
33
  3
Shaded
350
3E
  3
Shaded with edges
350
3D
  3
Shades of Gray
350
3A
  3
Sketchy
350
3B
  3
Thicken
350
36
  3
Wireframe
350
30
  3
X-Ray
350
3C
  0
XRECORD
  5
176
102
{ACAD_REACTORS
330
C
102
}
330
C
100
AcDbXrecord
280
     1
 90
        1
330
65
  0
DICTIONARY
  5
16E
102
{ACAD_REACTORS
330
C
102
}
330
C
100
AcDbDictionary
281
     1
  3
CANNOSCALE
350
173
  3
CMLEADERSTYLE
350
170
  3
CTABLESTYLE
350
16F
  3
CVIEWDETAILSTYLE
350
171
  3
CVIEWSECTIONSTYLE
350
172
  0
ACDBDETAILVIEWSTYLE
  5
6B
102
{ACAD_XDICTIONARY
360
1AB
102
}
102
{ACAD_REACTORS
330
6A
102
}
330
6A
100
AcDbModelDocViewStyle
 70
     0
  3
Imperial24
290
     0
100
AcDbDetailViewStyle
 70
     0
 71
     0
 90
        3
 71
     1
340
55
 62
   256
 40
0.24
340
0
 62
   256
 40
0.24
300

 40
0.36
280
     3
 71
     2
340
5D
 90
       25
 62
   256
 71
     3
340
55
 62
   256
 40
0.24
 90
        1
 40
0.75
 90
        1
300
%<\AcVar ViewType \f "%tc1">% %<\AcVar ViewDetailId>%\PSCALE %<\AcVar ViewScale \f "%sn">%
 71
     4
340
5D
 90
       25
 62
   256
340
5D
 90
       25
 62
   256
280
     0
  0
LAYOUT
  5
6F
102
{ACAD_REACTORS
330
62
102
}
330
62
100
AcDbPlotSettings
  1

  2

  4

  6

 40
0.0
 41
0.0
 42
0.0
 43
0.0
 44
0.0
 45
0.0
 46
0.0
 47
0.0
 48
0.0
 49
0.0
140
0.0
141
0.0
142
1.0
143
1.0
 70
   688
 72
     0
 73
     0
 74
     5
  7

 75
    16
147
1.0
 76
     0
 77
     2
 78
   300
148
0.0
149
0.0
100
AcDbLayout
  1
Layout1
 70
     1
 71
     1
 10
0.0
 20
0.0
 11
12.0
 21
9.0
 12
0.0
 22
0.0
 32
0.0
 14
0.0
 24
0.0
 34
0.0
 15
0.0
 25
0.0
 35
0.0
146
0.0
 13
0.0
 23
0.0
 33
0.0
 16
1.0
 26
0.0
 36
0.0
 17
0.0
 27
1.0
 37
0.0
 76
     0
330
6C
  0
LAYOUT
  5
77
102
{ACAD_REACTORS
330
62
102
}
330
62
100
AcDbPlotSettings
  1

  2

  4

  6

 40
0.0
 41
0.0
 42
0.0
 43
0.0
 44
0.0
 45
0.0
 46
0.0
 47
0.0
 48
0.0
 49
0.0
140
0.0
141
0.0
142
1.0
143
1.0
 70
   688
 72
     0
 73
     0
 74
     5
  7

 75
    16
147
1.0
 76
     0
 77
     2
 78
   300
148
0.0
149
0.0
100
AcDbLayout
  1
Layout2
 70
     1
 71
     2
 10
0.0
 20
0.0
 11
12.0
 21
9.0
 12
0.0
 22
0.0
 32
0.0
 14
0.0
 24
0.0
 34
0.0
 15
0.0
 25
0.0
 35
0.0
146
0.0
 13
0.0
 23
0.0
 33
0.0
 16
1.0
 26
0.0
 36
0.0
 17
0.0
 27
1.0
 37
0.0
 76
     0
330
74
  0
LAYOUT
  5
73
102
{ACAD_REACTORS
330
62
102
}
330
62
100
AcDbPlotSettings
  1

  2

  4

  6

 40
0.0
 41
0.0
 42
0.0
 43
0.0
 44
0.0
 45
0.0
 46
0.0
 47
0.0
 48
0.0
 49
0.0
140
0.0
141
0.0
142
1.0
143
1.0
 70
  1712
 72
     0
 73
     0
 74
     0
  7

 75
     0
147
1.0
 76
     0
 77
     2
 78
   300
148
0.0
149
0.0
100
AcDbLayout
  1
Model
 70
     1
 71
     0
 10
0.0
 20
0.0
 11
12.0
 21
9.0
 12
0.0
 22
0.0
 32
0.0
 14
0.0
 24
0.0
 34
0.0
 15
0.0
 25
0.0
 35
0.0
146
0.0
 13
0.0
 23
0.0
 33
0.0
 16
1.0
 26
0.0
 36
0.0
 17
0.0
 27
1.0
 37
0.0
 76
     0
330
70
  0
MATERIAL
  5
19
102
{ACAD_XDICTIONARY
360
1A
102
}
102
{ACAD_REACTORS
330
10
102
}
330
10
100
AcDbMaterial
  1
ByBlock
 72
     0
 43
0.0208333333333333
 43
0.0
 43
0.0
 43
0.0
 43
0.0
 43
0.0208333333333333
 43
0.0
 43
0.0
 43
0.0
 43
0.0
 43
1.0
 43
0.0
 43
0.0
 43
0.0
 43
0.0
 43
1.0
 77
     0
 47
0.0208333333333333
 47
0.0
 47
0.0
 47
0.0
 47
0.0
 47
0.0208333333333333
 47
0.0
 47
0.0
 47
0.0
 47
0.0
 47
1.0
 47
0.0
 47
0.0
 47
0.0
 47
0.0
 47
1.0
171
     0
 49
0.0208333333333333
 49
0.0
 49
0.0
 49
0.0
 49
0.0
 49
0.0208333333333333
 49
0.0
 49
0.0
 49
0.0
 49
0.0
 49
1.0
 49
0.0
 49
0.0
 49
0.0
 49
0.0
 49
1.0
175
     0
142
0.0208333333333333
142
0.0
142
0.0
142
0.0
142
0.0
142
0.0208333333333333
142
0.0
142
0.0
142
0.0
142
0.0
142
1.0
142
0.0
142
0.0
142
0.0
142
0.0
142
1.0
179
     0
144
0.0208333333333333
144
0.0
144
0.0
144
0.0
144
0.0
144
0.0208333333333333
144
0.0
144
0.0
144
0.0
144
0.0
144
1.0
144
0.0
144
0.0
144
0.0
144
0.0
144
1.0
147
0.0208333333333333
147
0.0
147
0.0
147
0.0
147
0.0
147
0.0208333333333333
147
0.0
147
0.0
147
0.0
147
0.0
147
1.0
147
0.0
147
0.0
147
0.0
147
0.0
147
1.0
  0
MATERIAL
  5
11
102
{ACAD_XDICTIONARY
360
12
102
}
102
{ACAD_REACTORS
330
10
102
}
330
10
100
AcDbMaterial
  1
ByLayer
 72
     0
 43
0.0208333333333333
 43
0.0
 43
0.0
 43
0.0
 43
0.0
 43
0.0208333333333333
 43
0.0
 43
0.0
 43
0.0
 43
0.0
 43
1.0
 43
0.0
 43
0.0
 43
0.0
 43
0.0
 43
1.0
 77
     0
 47
0.0208333333333333
 47
0.0
 47
0.0
 47
0.0
 47
0.0
 47
0.0208333333333333
 47
0.0
 47
0.0
 47
0.0
 47
0.0
 47
1.0
 47
0.0
 47
0.0
 47
0.0
 47
0.0
 47
1.0
171
     0
 49
0.0208333333333333
 49
0.0
 49
0.0
 49
0.0
 49
0.0
 49
0.0208333333333333
 49
0.0
 49
0.0
 49
0.0
 49
0.0
 49
1.0
 49
0.0
 49
0.0
 49
0.0
 49
0.0
 49
1.0
175
     0
142
0.0208333333333333
142
0.0
142
0.0
142
0.0
142
0.0
142
0.0208333333333333
142
0.0
142
0.0
142
0.0
142
0.0
142
1.0
142
0.0
142
0.0
142
0.0
142
0.0
142
1.0
179
     0
144
0.0208333333333333
144
0.0
144
0.0
144
0.0
144
0.0
144
0.0208333333333333
144
0.0
144
0.0
144
0.0
144
0.0
144
1.0
144
0.0
144
0.0
144
0.0
144
0.0
144
1.0
147
0.0208333333333333
147
0.0
147
0.0
147
0.0
147
0.0
147
0.0208333333333333
147
0.0
147
0.0
147
0.0
147
0.0
147
1.0
147
0.0
147
0.0
147
0.0
147
0.0
147
1.0
  0
MATERIAL
  5
21
102
{ACAD_XDICTIONARY
360
22
102
}
102
{ACAD_REACTORS
330
10
102
}
330
10
100
AcDbMaterial
  1
Global
 72
     0
 43
0.0208333333333333
 43
0.0
 43
0.0
 43
0.0
 43
0.0
 43
0.0208333333333333
 43
0.0
 43
0.0
 43
0.0
 43
0.0
 43
1.0
 43
0.0
 43
0.0
 43
0.0
 43
0.0
 43
1.0
 77
     0
 47
0.0208333333333333
 47
0.0
 47
0.0
 47
0.0
 47
0.0
 47
0.0208333333333333
 47
0.0
 47
0.0
 47
0.0
 47
0.0
 47
1.0
 47
0.0
 47
0.0
 47
0.0
 47
0.0
 47
1.0
171
     0
 49
0.0208333333333333
 49
0.0
 49
0.0
 49
0.0
 49
0.0
 49
0.0208333333333333
 49
0.0
 49
0.0
 49
0.0
 49
0.0
 49
1.0
 49
0.0
 49
0.0
 49
0.0
 49
0.0
 49
1.0
175
     0
142
0.0208333333333333
142
0.0
142
0.0
142
0.0
142
0.0
142
0.0208333333333333
142
0.0
142
0.0
142
0.0
142
0.0
142
1.0
142
0.0
142
0.0
142
0.0
142
0.0
142
1.0
179
     0
144
0.0208333333333333
144
0.0
144
0.0
144
0.0
144
0.0
144
0.0208333333333333
144
0.0
144
0.0
144
0.0
144
0.0
144
1.0
144
0.0
144
0.0
144
0.0
144
0.0
144
1.0
147
0.0208333333333333
147
0.0
147
0.0
147
0.0
147
0.0
147
0.0208333333333333
147
0.0
147
0.0
147
0.0
147
0.0
147
1.0
147
0.0
147
0.0
147
0.0
147
0.0
147
1.0
  0
MLEADERSTYLE
  5
67
102
{ACAD_XDICTIONARY
360
1A7
102
}
102
{ACAD_REACTORS
330
66
102
}
330
66
100
AcDbMLeaderStyle
179
     2
170
     2
171
     1
172
     0
 90
        2
 40
0.0
 41
0.0
173
     1
 91
-1056964608
340
5B
 92
       -2
290
     1
 42
0.09
291
     1
 43
0.36
  3
Standard
 44
0.18
300

342
55
174
     1
178
     6
175
     1
176
     0
 93
-1056964608
 45
0.18
292
     0
297
     0
 46
0.18
 94
-1056964608
 47
1.0
 49
1.0
140
1.0
293
     1
141
0.0
294
     1
177
     0
142
1.0
295
     0
296
     0
143
0.125
271
     0
272
     9
273
     9
  0
MLINESTYLE
  5
60
102
{ACAD_REACTORS
330
5F
102
}
330
5F
100
AcDbMlineStyle
  2
STANDARD
 70
     0
  3

 62
   256
 51
90.0
 52
90.0
 71
     2
 49
0.5
 62
   256
  6
BYLAYER
 49
-0.5
 62
   256
  6
BYLAYER
  0
ACDBPLACEHOLDER
  5
F
102
{ACAD_REACTORS
330
E
102
}
330
E
  0
SCALE
  5
43
102
{ACAD_REACTORS
330
42
102
}
330
42
100
AcDbScale
 70
     0
300
1:1
140
1.0
141
1.0
290
     1
  0
SCALE
  5
44
102
{ACAD_REACTORS
330
42
102
}
330
42
100
AcDbScale
 70
     0
300
1/128" = 1'-0"
140
0.0078125
141
12.0
290
     0
  0
SCALE
  5
45
102
{ACAD_REACTORS
330
42
102
}
330
42
100
AcDbScale
 70
     0
300
1/64" = 1'-0"
140
0.015625
141
12.0
290
     0
  0
SCALE
  5
46
102
{ACAD_REACTORS
330
42
102
}
330
42
100
AcDbScale
 70
     0
300
1/32" = 1'-0"
140
0.03125
141
12.0
290
     0
  0
SCALE
  5
47
102
{ACAD_REACTORS
330
42
102
}
330
42
100
AcDbScale
 70
     0
300
1/16" = 1'-0"
140
0.0625
141
12.0
290
     0
  0
SCALE
  5
48
102
{ACAD_REACTORS
330
42
102
}
330
42
100
AcDbScale
 70
     0
300
3/32" = 1'-0"
140
0.09375
141
12.0
290
     0
  0
SCALE
  5
49
102
{ACAD_REACTORS
330
42
102
}
330
42
100
AcDbScale
 70
     0
300
1/8" = 1'-0"
140
0.125
141
12.0
290
     0
  0
SCALE
  5
4A
102
{ACAD_REACTORS
330
42
102
}
330
42
100
AcDbScale
 70
     0
300
3/16" = 1'-0"
140
0.1875
141
12.0
290
     0
  0
SCALE
  5
4B
102
{ACAD_REACTORS
330
42
102
}
330
42
100
AcDbScale
 70
     0
300
1/4" = 1'-0"
140
0.25
141
12.0
290
     0
  0
SCALE
  5
4C
102
{ACAD_REACTORS
330
42
102
}
330
42
100
AcDbScale
 70
     0
300
3/8" = 1'-0"
140
0.375
141
12.0
290
     0
  0
SCALE
  5
4D
102
{ACAD_REACTORS
330
42
102
}
330
42
100
AcDbScale
 70
     0
300
1/2" = 1'-0"
140
0.5
141
12.0
290
     0
  0
SCALE
  5
4E
102
{ACAD_REACTORS
330
42
102
}
330
42
100
AcDbScale
 70
     0
300
3/4" = 1'-0"
140
0.75
141
12.0
290
     0
  0
SCALE
  5
4F
102
{ACAD_REACTORS
330
42
102
}
330
42
100
AcDbScale
 70
     0
300
1" = 1'-0"
140
1.0
141
12.0
290
     0
  0
SCALE
  5
50
102
{ACAD_REACTORS
330
42
102
}
330
42
100
AcDbScale
 70
     0
300
1-1/2" = 1'-0"
140
1.5
141
12.0
290
     0
  0
SCALE
  5
51
102
{ACAD_REACTORS
330
42
102
}
330
42
100
AcDbScale
 70
     0
300
3" = 1'-0"
140
3.0
141
12.0
290
     0
  0
SCALE
  5
52
102
{ACAD_REACTORS
330
42
102
}
330
42
100
AcDbScale
 70
     0
300
6" = 1'-0"
140
6.0
141
12.0
290
     0
  0
SCALE
  5
53
102
{ACAD_REACTORS
330
42
102
}
330
42
100
AcDbScale
 70
     0
300
1'-0" = 1'-0"
140
12.0
141
12.0
290
     0
  0
ACDBSECTIONVIEWSTYLE
  5
69
102
{ACAD_XDICTIONARY
360
1A9
102
}
102
{ACAD_REACTORS
330
68
102
}
330
68
100
AcDbModelDocViewStyle
 70
     0
  3
Imperial24
290
     0
100
AcDbSectionViewStyle
 70
     0
 71
     0
 90
       78
 71
     1
340
55
 62
   256
 40
0.24
340
0
340
0
 62
   256
 40
0.24
300
I, O, Q, S, X, Z
 40
0.48
 90
        3
 40
0.18
 90
        1
 71
     2
340
5D
 90
       25
 62
   256
340
5D
 90
       50
 62
   256
 40
0.24
 40
0.0
 40
0.24
 71
     3
340
55
 62
   256
 40
0.24
 90
        1
 40
0.75
 90
        1
300
%<\AcVar ViewType \f "%tc1">% %<\AcVar ViewSectionStartId>%-%<\AcVar ViewSectionEndId>%\PSCALE %<\AcVar ViewScale \f "%sn">%
 71
     4
 62
   256
 62
   257
300
ANSI31
 40
1.0
 90
        0
290
     0
290
     0
 90
        6
 40
0.0
 40
1.570796326794896
 40
0.2617993877991494
 40
1.308996938995747
 40
-0.2617993877991494
 40
1.832595714594046
  0
TABLESTYLE
  5
65
102
{ACAD_XDICTIONARY
360
174
102
}
102
{ACAD_REACTORS
330
64
102
}
330
64
100
AcDbTableStyle
280
     0
  3
Standard
 70
     0
 71
     0
 40
0.06
 41
0.06
280
     0
281
     0
  7
Standard
140
0.18
170
     2
 62
     0
 63
     7
283
     0
 90
      512
 91
        0
  1

274
    -2
284
     1
 64
     0
275
    -2
285
     1
 65
     0
276
    -2
286
     1
 66
     0
277
    -2
287
     1
 67
     0
278
    -2
288
     1
 68
     0
279
    -2
289
     1
 69
     0
  7
Standard
140
0.25
170
     5
 62
     0
 63
     7
283
     0
 90
      512
 91
        0
  1

274
    -2
284
     1
 64
     0
275
    -2
285
     1
 65
     0
276
    -2
286
     1
 66
     0
277
    -2
287
     1
 67
     0
278
    -2
288
     1
 68
     0
279
    -2
289
     1
 69
     0
  7
Standard
140
0.18
170
     5
 62
     0
 63
     7
283
     0
 90
      512
 91
        0
  1

274
    -2
284
     1
 64
     0
275
    -2
285
     1
 65
     0
276
    -2
286
     1
 66
     0
277
    -2
287
     1
 67
     0
278
    -2
288
     1
 68
     0
279
    -2
289
     1
 69
     0
  0
VISUALSTYLE
  5
2F
102
{ACAD_XDICTIONARY
360
181
102
}
102
{ACAD_REACTORS
330
29
102
}
330
29
100
AcDbVisualStyle
  2
2dWireframe
 70
     4
177
     2
291
     0
 71
     0
176
     1
 72
     2
176
     1
 73
     0
176
     1
 90
        0
176
     1
 40
0.6
176
     1
 41
30.0
176
     1
 63
     7
421
 16777215
176
     1
 74
     1
176
     1
 91
        4
176
     1
 64
     7
176
     1
 65
   257
176
     1
 75
     1
176
     1
175
     1
176
     1
 42
1.0
176
     1
 92
        0
176
     1
 66
   257
176
     1
 43
1.0
176
     1
 76
     1
176
     1
 77
     6
176
     1
 78
     2
176
     1
 67
     7
176
     1
 79
     5
176
     1
170
     0
176
     1
171
     0
176
     1
290
     0
176
     1
 93
        1
176
     1
 44
0.0
176
     1
173
     0
176
     1
1001
ACAD
1000
AcDbSavedByObjectVersion
1070
     0
  0
VISUALSTYLE
  5
2E
102
{ACAD_XDICTIONARY
360
17F
102
}
102
{ACAD_REACTORS
330
29
102
}
330
29
100
AcDbVisualStyle
  2
Basic
 70
     7
177
     2
291
     1
 71
     1
176
     1
 72
     0
176
     1
 73
     1
176
     1
 90
        0
176
     1
 40
0.6
176
     1
 41
30.0
176
     1
 63
     7
421
 16777215
176
     1
 74
     0
176
     1
 91
        4
176
     1
 64
     7
176
     1
 65
   257
176
     1
 75
     1
176
     1
175
     1
176
     1
 42
1.0
176
     1
 92
        8
176
     1
 66
     7
176
     1
 43
1.0
176
     1
 76
     1
176
     1
 77
     6
176
     1
 78
     2
176
     1
 67
     7
176
     1
 79
     5
176
     1
170
     0
176
     1
171
     0
176
     1
290
     0
176
     1
 93
        1
176
     1
 44
0.0
176
     1
173
     0
176
     1
1001
ACAD
1000
AcDbSavedByObjectVersion
1070
     0
  0
VISUALSTYLE
  5
35
102
{ACAD_XDICTIONARY
360
18D
102
}
102
{ACAD_REACTORS
330
29
102
}
330
29
100
AcDbVisualStyle
  2
Brighten
 70
    12
177
     2
291
     1
 71
     2
176
     1
 72
     2
176
     1
 73
     0
176
     1
 90
        0
176
     1
 40
0.6
176
     1
 41
30.0
176
     1
 63
     7
421
 16777215
176
     1
 74
     1
176
     1
 91
        4
176
     1
 64
     7
176
     1
 65
   257
176
     1
 75
     1
176
     1
175
     1
176
     1
 42
1.0
176
     1
 92
        8
176
     1
 66
     7
176
     1
 43
1.0
176
     1
 76
     1
176
     1
 77
     6
176
     1
 78
     2
176
     1
 67
     7
176
     1
 79
     5
176
     1
170
     0
176
     1
171
     0
176
     1
290
     0
176
     1
 93
        1
176
     1
 44
50.0
176
     1
173
     0
176
     1
1001
ACAD
1000
AcDbSavedByObjectVersion
1070
     0
  0
VISUALSTYLE
  5
39
102
{ACAD_XDICTIONARY
360
195
102
}
102
{ACAD_REACTORS
330
29
102
}
330
29
100
AcDbVisualStyle
  2
ColorChange
 70
    16
177
     2
291
     1
 71
     2
176
     1
 72
     2
176
     1
 73
     3
176
     1
 90
        0
176
     1
 40
0.6
176
     1
 41
30.0
176
     1
 63
     8
421
  8421504
176
     1
 74
     1
176
     1
 91
        4
176
     1
 64
     7
176
     1
 65
   257
176
     1
 75
     1
176
     1
175
     1
176
     1
 42
1.0
176
     1
 92
        8
176
     1
 66
     8
424
  8421504
176
     1
 43
1.0
176
     1
 76
     1
176
     1
 77
     6
176
     1
 78
     2
176
     1
 67
     7
176
     1
 79
     5
176
     1
170
     0
176
     1
171
     0
176
     1
290
     0
176
     1
 93
        1
176
     1
 44
0.0
176
     1
173
     0
176
     1
1001
ACAD
1000
AcDbSavedByObjectVersion
1070
     0
  0
VISUALSTYLE
  5
32
102
{ACAD_XDICTIONARY
360
187
102
}
102
{ACAD_REACTORS
330
29
102
}
330
29
100
AcDbVisualStyle
  2
Conceptual
 70
     9
177
     2
291
     0
 71
     3
176
     1
 72
     2
176
     1
 73
     0
176
     1
 90
        0
176
     1
 40
0.6
176
     1
 41
30.0
176
     1
 63
     7
421
 16777215
176
     1
 74
     2
176
     1
 91
        2
176
     1
 64
     7
176
     1
 65
   257
176
     1
 75
     1
176
     1
175
     1
176
     1
 42
179.0
176
     1
 92
        8
176
     1
 66
     7
176
     1
 43
1.0
176
     1
 76
     1
176
     1
 77
     6
176
     1
 78
     2
176
     1
 67
     7
176
     1
 79
     3
176
     1
170
     0
176
     1
171
     0
176
     1
290
     0
176
     1
 93
        1
176
     1
 44
0.0
176
     1
173
     0
176
     1
1001
ACAD
1000
AcDbSavedByObjectVersion
1070
     0
  0
VISUALSTYLE
  5
34
102
{ACAD_XDICTIONARY
360
18B
102
}
102
{ACAD_REACTORS
330
29
102
}
330
29
100
AcDbVisualStyle
  2
Dim
 70
    11
177
     2
291
     1
 71
     2
176
     1
 72
     2
176
     1
 73
     0
176
     1
 90
        0
176
     1
 40
0.6
176
     1
 41
30.0
176
     1
 63
     7
421
 16777215
176
     1
 74
     1
176
     1
 91
        4
176
     1
 64
     7
176
     1
 65
   257
176
     1
 75
     1
176
     1
175
     1
176
     1
 42
1.0
176
     1
 92
        8
176
     1
 66
     7
176
     1
 43
1.0
176
     1
 76
     1
176
     1
 77
     6
176
     1
 78
     2
176
     1
 67
     7
176
     1
 79
     5
176
     1
170
     0
176
     1
171
     0
176
     1
290
     0
176
     1
 93
        1
176
     1
 44
-50.0
176
     1
173
     0
176
     1
1001
ACAD
1000
AcDbSavedByObjectVersion
1070
     0
  0
VISUALSTYLE
  5
41
102
{ACAD_XDICTIONARY
360
1A5
102
}
102
{ACAD_REACTORS
330
29
102
}
330
29
100
AcDbVisualStyle
  2
EdgeColorOff
 70
    22
177
     2
291
     1
 71
     2
176
     0
 72
     2
176
     0
 73
     0
176
     0
 90
        0
176
     0
 40
0.6
176
     0
 41
30.0
176
     0
 63
     7
421
 16777215
176
     0
 74
     1
176
     0
 91
        4
176
     0
 64
     7
176
     0
 65
   257
176
     0
 75
     1
176
     0
175
     1
176
     0
 42
1.0
176
     0
 92
        8
176
     2
 66
     7
176
     0
 43
1.0
176
     0
 76
     1
176
     0
 77
     6
176
     0
 78
     2
176
     0
 67
     7
176
     0
 79
     5
176
     0
170
     0
176
     0
171
     0
176
     0
290
     0
176
     0
 93
        1
176
     0
 44
0.0
176
     0
173
     0
176
     0
1001
ACAD
1000
AcDbSavedByObjectVersion
1070
     0
  0
VISUALSTYLE
  5
38
102
{ACAD_XDICTIONARY
360
193
102
}
102
{ACAD_REACTORS
330
29
102
}
330
29
100
AcDbVisualStyle
  2
Facepattern
 70
    15
177
     2
291
     1
 71
     2
176
     1
 72
     2
176
     1
 73
     0
176
     1
 90
        0
176
     1
 40
0.6
176
     1
 41
30.0
176
     1
 63
     7
421
 16777215
176
     1
 74
     1
176
     1
 91
        4
176
     1
 64
     7
176
     1
 65
   257
176
     1
 75
     1
176
     1
175
     1
176
     1
 42
1.0
176
     1
 92
        8
176
     1
 66
     7
176
     1
 43
1.0
176
     1
 76
     1
176
     1
 77
     6
176
     1
 78
     2
176
     1
 67
     7
176
     1
 79
     5
176
     1
170
     0
176
     1
171
     0
176
     1
290
     0
176
     1
 93
        1
176
     1
 44
0.0
176
     1
173
     0
176
     1
1001
ACAD
1000
AcDbSavedByObjectVersion
1070
     0
  0
VISUALSTYLE
  5
2A
102
{ACAD_XDICTIONARY
360
177
102
}
102
{ACAD_REACTORS
330
29
102
}
330
29
100
AcDbVisualStyle
  2
Flat
 70
     0
177
     2
291
     1
 71
     2
176
     1
 72
     1
176
     1
 73
     1
176
     1
 90
        2
176
     1
 40
0.6
176
     1
 41
30.0
176
     1
 63
     7
421
 16777215
176
     1
 74
     0
176
     1
 91
        0
176
     1
 64
     7
176
     1
 65
   257
176
     1
 75
     1
176
     1
175
     1
176
     1
 42
1.0
176
     1
 92
        8
176
     1
 66
     7
176
     1
 43
1.0
176
     1
 76
     1
176
     1
 77
     6
176
     1
 78
     2
176
     1
 67
     7
176
     1
 79
     5
176
     1
170
     0
176
     1
171
     0
176
     1
290
     0
176
     1
 93
       13
176
     1
 44
0.0
176
     1
173
     0
176
     1
1001
ACAD
1000
AcDbSavedByObjectVersion
1070
     0
  0
VISUALSTYLE
  5
2B
102
{ACAD_XDICTIONARY
360
179
102
}
102
{ACAD_REACTORS
330
29
102
}
330
29
100
AcDbVisualStyle
  2
FlatWithEdges
 70
     1
177
     2
291
     1
 71
     2
176
     1
 72
     1
176
     1
 73
     1
176
     1
 90
        2
176
     1
 40
0.6
176
     1
 41
30.0
176
     1
 63
     7
421
 16777215
176
     1
 74
     1
176
     1
 91
        0
176
     1
 64
     7
176
     1
 65
   257
176
     1
 75
     1
176
     1
175
     1
176
     1
 42
1.0
176
     1
 92
        0
176
     1
 66
   257
176
     1
 43
1.0
176
     1
 76
     1
176
     1
 77
     6
176
     1
 78
     2
176
     1
 67
     7
176
     1
 79
     5
176
     1
170
     0
176
     1
171
     0
176
     1
290
     0
176
     1
 93
       13
176
     1
 44
0.0
176
     1
173
     0
176
     1
1001
ACAD
1000
AcDbSavedByObjectVersion
1070
     0
  0
VISUALSTYLE
  5
2C
102
{ACAD_XDICTIONARY
360
17B
102
}
102
{ACAD_REACTORS
330
29
102
}
330
29
100
AcDbVisualStyle
  2
Gouraud
 70
     2
177
     2
291
     1
 71
     2
176
     1
 72
     2
176
     1
 73
     1
176
     1
 90
        2
176
     1
 40
0.6
176
     1
 41
30.0
176
     1
 63
     7
421
 16777215
176
     1
 74
     0
176
     1
 91
        0
176
     1
 64
     7
176
     1
 65
   257
176
     1
 75
     1
176
     1
175
     1
176
     1
 42
1.0
176
     1
 92
        0
176
     1
 66
     7
176
     1
 43
1.0
176
     1
 76
     1
176
     1
 77
     6
176
     1
 78
     2
176
     1
 67
     7
176
     1
 79
     5
176
     1
170
     0
176
     1
171
     0
176
     1
290
     0
176
     1
 93
       13
176
     1
 44
0.0
176
     1
173
     0
176
     1
1001
ACAD
1000
AcDbSavedByObjectVersion
1070
     0
  0
VISUALSTYLE
  5
2D
102
{ACAD_XDICTIONARY
360
17D
102
}
102
{ACAD_REACTORS
330
29
102
}
330
29
100
AcDbVisualStyle
  2
GouraudWithEdges
 70
     3
177
     2
291
     1
 71
     2
176
     1
 72
     2
176
     1
 73
     1
176
     1
 90
        2
176
     1
 40
0.6
176
     1
 41
30.0
176
     1
 63
     7
421
 16777215
176
     1
 74
     1
176
     1
 91
        0
176
     1
 64
     7
176
     1
 65
   257
176
     1
 75
     1
176
     1
175
     1
176
     1
 42
1.0
176
     1
 92
        0
176
     1
 66
   257
176
     1
 43
1.0
176
     1
 76
     1
176
     1
 77
     6
176
     1
 78
     2
176
     1
 67
     7
176
     1
 79
     5
176
     1
170
     0
176
     1
171
     0
176
     1
290
     0
176
     1
 93
       13
176
     1
 44
0.0
176
     1
173
     0
176
     1
1001
ACAD
1000
AcDbSavedByObjectVersion
1070
     0
  0
VISUALSTYLE
  5
31
102
{ACAD_XDICTIONARY
360
185
102
}
102
{ACAD_REACTORS
330
29
102
}
330
29
100
AcDbVisualStyle
  2
Hidden
 70
     6
177
     2
291
     0
 71
     1
176
     1
 72
     2
176
     1
 73
     2
176
     1
 90
        0
176
     1
 40
0.6
176
     1
 41
30.0
176
     1
 63
     7
421
 16777215
176
     1
 74
     2
176
     1
 91
        2
176
     1
 64
     7
176
     1
 65
   257
176
     1
 75
     2
176
     1
175
     1
176
     1
 42
40.0
176
     1
 92
        0
176
     1
 66
   257
176
     1
 43
1.0
176
     1
 76
     1
176
     1
 77
     6
176
     1
 78
     2
176
     1
 67
     7
176
     1
 79
     3
176
     1
170
     0
176
     1
171
     0
176
     1
290
     0
176
     1
 93
        1
176
     1
 44
0.0
176
     1
173
     0
176
     1
1001
ACAD
1000
AcDbSavedByObjectVersion
1070
     0
  0
VISUALSTYLE
  5
3F
102
{ACAD_XDICTIONARY
360
1A1
102
}
102
{ACAD_REACTORS
330
29
102
}
330
29
100
AcDbVisualStyle
  2
JitterOff
 70
    20
177
     2
291
     1
 71
     2
176
     0
 72
     2
176
     0
 73
     0
176
     0
 90
        0
176
     0
 40
0.6
176
     0
 41
30.0
176
     0
 63
     7
421
 16777215
176
     0
 74
     1
176
     0
 91
        4
176
     0
 64
     7
176
     0
 65
   257
176
     0
 75
     1
176
     0
175
     1
176
     0
 42
1.0
176
     0
 92
       10
176
     2
 66
     7
176
     0
 43
1.0
176
     0
 76
     1
176
     0
 77
     6
176
     0
 78
     2
176
     0
 67
     7
176
     0
 79
     5
176
     0
170
     0
176
     0
171
     0
176
     0
290
     0
176
     0
 93
        1
176
     0
 44
0.0
176
     0
173
     0
176
     0
1001
ACAD
1000
AcDbSavedByObjectVersion
1070
     0
  0
VISUALSTYLE
  5
37
102
{ACAD_XDICTIONARY
360
191
102
}
102
{ACAD_REACTORS
330
29
102
}
330
29
100
AcDbVisualStyle
  2
Linepattern
 70
    14
177
     2
291
     1
 71
     2
176
     1
 72
     2
176
     1
 73
     0
176
     1
 90
        0
176
     1
 40
0.6
176
     1
 41
30.0
176
     1
 63
     7
421
 16777215
176
     1
 74
     1
176
     1
 91
        4
176
     1
 64
     7
176
     1
 65
   257
176
     1
 75
     7
176
     1
175
     7
176
     1
 42
1.0
176
     1
 92
        8
176
     1
 66
     7
176
     1
 43
1.0
176
     1
 76
     1
176
     1
 77
     6
176
     1
 78
     2
176
     1
 67
     7
176
     1
 79
     5
176
     1
170
     0
176
     1
171
     0
176
     1
290
     0
176
     1
 93
        1
176
     1
 44
0.0
176
     1
173
     0
176
     1
1001
ACAD
1000
AcDbSavedByObjectVersion
1070
     0
  0
VISUALSTYLE
  5
40
102
{ACAD_XDICTIONARY
360
1A3
102
}
102
{ACAD_REACTORS
330
29
102
}
330
29
100
AcDbVisualStyle
  2
OverhangOff
 70
    21
177
     2
291
     1
 71
     2
176
     0
 72
     2
176
     0
 73
     0
176
     0
 90
        0
176
     0
 40
0.6
176
     0
 41
30.0
176
     0
 63
     7
421
 16777215
176
     0
 74
     1
176
     0
 91
        4
176
     0
 64
     7
176
     0
 65
   257
176
     0
 75
     1
176
     0
175
     1
176
     0
 42
1.0
176
     0
 92
        9
176
     2
 66
     7
176
     0
 43
1.0
176
     0
 76
     1
176
     0
 77
     6
176
     0
 78
     2
176
     0
 67
     7
176
     0
 79
     5
176
     0
170
     0
176
     0
171
     0
176
     0
290
     0
176
     0
 93
        1
176
     0
 44
0.0
176
     0
173
     0
176
     0
1001
ACAD
1000
AcDbSavedByObjectVersion
1070
     0
  0
VISUALSTYLE
  5
33
102
{ACAD_XDICTIONARY
360
189
102
}
102
{ACAD_REACTORS
330
29
102
}
330
29
100
AcDbVisualStyle
  2
Realistic
 70
     8
177
     2
291
     0
 71
     2
176
     1
 72
     3
176
     1
 73
     0
176
     1
 90
        2
176
     1
 40
0.6
176
     1
 41
30.0
176
     1
 63
     7
421
 16777215
176
     1
 74
     0
176
     1
 91
        0
176
     1
 64
     7
176
     1
 65
   257
176
     1
 75
     1
176
     1
175
     1
176
     1
 42
1.0
176
     1
 92
        8
176
     1
 66
   257
176
     1
 43
1.0
176
     1
 76
     1
176
     1
 77
     6
176
     1
 78
     2
176
     1
 67
     7
176
     1
 79
     3
176
     1
170
     0
176
     1
171
     0
176
     1
290
     0
176
     1
 93
       13
176
     1
 44
0.0
176
     1
173
     0
176
     1
1001
ACAD
1000
AcDbSavedByObjectVersion
1070
     0
  0
VISUALSTYLE
  5
3E
102
{ACAD_XDICTIONARY
360
19F
102
}
102
{ACAD_REACTORS
330
29
102
}
330
29
100
AcDbVisualStyle
  2
Shaded
 70
    27
177
     2
291
     0
 71
     2
176
     1
 72
     2
176
     1
 73
     1
176
     1
 90
        2
176
     1
 40
0.6
176
     1
 41
30.0
176
     1
 63
     7
421
 16777215
176
     1
 74
     0
176
     1
 91
        4
176
     1
 64
     7
176
     1
 65
   257
176
     1
 75
     1
176
     1
175
     1
176
     1
 42
1.0
176
     1
 92
        8
176
     1
 66
   257
176
     1
 43
1.0
176
     1
 76
     1
176
     1
 77
     6
176
     1
 78
     2
176
     1
 67
     8
425
  7895160
176
     1
 79
     3
176
     1
170
     0
176
     1
171
     0
176
     1
290
     0
176
     1
 93
        5
176
     1
 44
0.0
176
     1
173
     0
176
     1
1001
ACAD
1000
AcDbSavedByObjectVersion
1070
     0
  0
VISUALSTYLE
  5
3D
102
{ACAD_XDICTIONARY
360
19D
102
}
102
{ACAD_REACTORS
330
29
102
}
330
29
100
AcDbVisualStyle
  2
Shaded with edges
 70
    26
177
     2
291
     0
 71
     2
176
     1
 72
     2
176
     1
 73
     1
176
     1
 90
        2
176
     1
 40
0.6
176
     1
 41
30.0
176
     1
 63
     7
421
 16777215
176
     1
 74
     1
176
     1
 91
        2
176
     1
 64
     7
176
     1
 65
   257
176
     1
 75
     2
176
     1
175
     1
176
     1
 42
1.0
176
     1
 92
        8
176
     1
 66
   257
176
     1
 43
1.0
176
     1
 76
     1
176
     1
 77
     6
176
     1
 78
     2
176
     1
 67
     7
176
     1
 79
     3
176
     1
170
     0
176
     1
171
     0
176
     1
290
     0
176
     1
 93
        5
176
     1
 44
0.0
176
     1
173
     0
176
     1
1001
ACAD
1000
AcDbSavedByObjectVersion
1070
     0
  0
VISUALSTYLE
  5
3A
102
{ACAD_XDICTIONARY
360
197
102
}
102
{ACAD_REACTORS
330
29
102
}
330
29
100
AcDbVisualStyle
  2
Shades of Gray
 70
    23
177
     2
291
     0
 71
     2
176
     1
 72
     2
176
     1
 73
     3
176
     1
 90
        0
176
     1
 40
0.6
176
     1
 41
30.0
176
     1
 63
     7
421
 16777215
176
     1
 74
     2
176
     1
 91
        2
176
     1
 64
     7
176
     1
 65
     7
176
     1
 75
     1
176
     1
175
     1
176
     1
 42
40.0
176
     1
 92
        8
176
     1
 66
     7
176
     1
 43
1.0
176
     1
 76
     1
176
     1
 77
     6
176
     1
 78
     2
176
     1
 67
     7
176
     1
 79
     3
176
     1
170
     0
176
     1
171
     0
176
     1
290
     0
176
     1
 93
        1
176
     1
 44
0.0
176
     1
173
     0
176
     1
1001
ACAD
1000
AcDbSavedByObjectVersion
1070
     0
  0
VISUALSTYLE
  5
3B
102
{ACAD_XDICTIONARY
360
199
102
}
102
{ACAD_REACTORS
330
29
102
}
330
29
100
AcDbVisualStyle
  2
Sketchy
 70
    24
177
     2
291
     0
 71
     1
176
     1
 72
     2
176
     1
 73
     2
176
     1
 90
        0
176
     1
 40
0.6
176
     1
 41
30.0
176
     1
 63
     7
421
 16777215
176
     1
 74
     2
176
     1
 91
        2
176
     1
 64
     7
176
     1
 65
     7
176
     1
 75
     1
176
     1
175
     1
176
     1
 42
40.0
176
     1
 92
       11
176
     1
 66
     7
176
     1
 43
1.0
176
     1
 76
     1
176
     1
 77
     6
176
     1
 78
     2
176
     1
 67
     7
176
     1
 79
     6
176
     1
170
     0
176
     1
171
     0
176
     1
290
     0
176
     1
 93
        1
176
     1
 44
0.0
176
     1
173
     0
176
     1
1001
ACAD
1000
AcDbSavedByObjectVersion
1070
     0
  0
VISUALSTYLE
  5
36
102
{ACAD_XDICTIONARY
360
18F
102
}
102
{ACAD_REACTORS
330
29
102
}
330
29
100
AcDbVisualStyle
  2
Thicken
 70
    13
177
     2
291
     1
 71
     2
176
     1
 72
     2
176
     1
 73
     0
176
     1
 90
        0
176
     1
 40
0.6
176
     1
 41
30.0
176
     1
 63
     7
421
 16777215
176
     1
 74
     1
176
     1
 91
        4
176
     1
 64
     7
176
     1
 65
   257
176
     1
 75
     1
176
     1
175
     1
176
     1
 42
1.0
176
     1
 92
       12
176
     1
 66
     7
176
     1
 43
1.0
176
     1
 76
     1
176
     1
 77
     6
176
     1
 78
     2
176
     1
 67
     7
176
     1
 79
     5
176
     1
170
     0
176
     1
171
     0
176
     1
290
     0
176
     1
 93
        1
176
     1
 44
0.0
176
     1
173
     0
176
     1
1001
ACAD
1000
AcDbSavedByObjectVersion
1070
     0
  0
VISUALSTYLE
  5
30
102
{ACAD_XDICTIONARY
360
183
102
}
102
{ACAD_REACTORS
330
29
102
}
330
29
100
AcDbVisualStyle
  2
Wireframe
 70
     5
177
     2
291
     0
 71
     0
176
     1
 72
     2
176
     1
 73
     0
176
     1
 90
        0
176
     1
 40
0.6
176
     1
 41
30.0
176
     1
 63
     7
421
 16777215
176
     1
 74
     1
176
     1
 91
        4
176
     1
 64
     7
176
     1
 65
   257
176
     1
 75
     1
176
     1
175
     1
176
     1
 42
1.0
176
     1
 92
        0
176
     1
 66
   257
176
     1
 43
1.0
176
     1
 76
     1
176
     1
 77
     6
176
     1
 78
     2
176
     1
 67
     7
176
     1
 79
     3
176
     1
170
     0
176
     1
171
     0
176
     1
290
     0
176
     1
 93
        1
176
     1
 44
0.0
176
     1
173
     0
176
     1
1001
ACAD
1000
AcDbSavedByObjectVersion
1070
     0
  0
VISUALSTYLE
  5
3C
102
{ACAD_XDICTIONARY
360
19B
102
}
102
{ACAD_REACTORS
330
29
102
}
330
29
100
AcDbVisualStyle
  2
X-Ray
 70
    25
177
     2
291
     0
 71
     2
176
     1
 72
     2
176
     1
 73
     1
176
     1
 90
        1
176
     1
 40
0.5
176
     1
 41
30.0
176
     1
 63
     7
421
 16777215
176
     1
 74
     1
176
     1
 91
        0
176
     1
 64
     7
176
     1
 65
   257
176
     1
 75
     1
176
     1
175
     1
176
     1
 42
1.0
176
     1
 92
        8
176
     1
 66
     7
176
     1
 43
1.0
176
     1
 76
     1
176
     1
 77
     6
176
     1
 78
     2
176
     1
 67
     7
176
     1
 79
     3
176
     1
170
     0
176
     1
171
     0
176
     1
290
     0
176
     1
 93
       13
176
     1
 44
0.0
176
     1
173
     0
176
     1
1001
ACAD
1000
AcDbSavedByObjectVersion
1070
     0
  0
DICTIONARYVAR
  5
173
102
{ACAD_REACTORS
330
16E
102
}
330
16E
100
DictionaryVariables
280
     0
  1
1:1
  0
DICTIONARYVAR
  5
170
102
{ACAD_REACTORS
330
16E
102
}
330
16E
100
DictionaryVariables
280
     0
  1
STANDARD
  0
DICTIONARYVAR
  5
16F
102
{ACAD_REACTORS
330
16E
102
}
330
16E
100
DictionaryVariables
280
     0
  1
STANDARD
  0
DICTIONARYVAR
  5
171
102
{ACAD_REACTORS
330
16E
102
}
330
16E
100
DictionaryVariables
280
     0
  1
Imperial24
  0
DICTIONARYVAR
  5
172
102
{ACAD_REACTORS
330
16E
102
}
330
16E
100
DictionaryVariables
280
     0
  1
Imperial24
  0
DICTIONARY
  5
1AB
330
6B
100
AcDbDictionary
280
     1
281
     1
  3
ACAD_XREC_ROUNDTRIP
360
1AC
  0
DICTIONARY
  5
1A
330
19
100
AcDbDictionary
280
     1
281
     1
  3
BUMPTILE
360
1C
  3
DIFFUSETILE
360
1B
  3
OPACITYTILE
360
1F
  3
REFLECTIONTILE
360
1E
  3
REFRACTIONTILE
360
20
  3
SPECULARTILE
360
1D
  0
DICTIONARY
  5
12
330
11
100
AcDbDictionary
280
     1
281
     1
  3
BUMPTILE
360
14
  3
DIFFUSETILE
360
13
  3
OPACITYTILE
360
17
  3
REFLECTIONTILE
360
16
  3
REFRACTIONTILE
360
18
  3
SPECULARTILE
360
15
  0
DICTIONARY
  5
22
330
21
100
AcDbDictionary
280
     1
281
     1
  3
BUMPTILE
360
24
  3
DIFFUSETILE
360
23
  3
OPACITYTILE
360
27
  3
REFLECTIONTILE
360
26
  3
REFRACTIONTILE
360
28
  3
SPECULARTILE
360
25
  0
DICTIONARY
  5
1A7
330
67
100
AcDbDictionary
280
     1
281
     1
  3
ACAD_XREC_ROUNDTRIP
360
1A8
  0
DICTIONARY
  5
1A9
330
69
100
AcDbDictionary
280
     1
281
     1
  3
ACAD_XREC_ROUNDTRIP
360
1AA
  0
DICTIONARY
  5
174
330
65
100
AcDbDictionary
280
     1
281
     1
  3
ACAD_ROUNDTRIP_2008_TABLESTYLE_CELLSTYLEMAP
360
175
  0
DICTIONARY
  5
181
330
2F
100
AcDbDictionary
280
     1
281
     1
  3
ACAD_XREC_ROUNDTRIP
360
182
  0
DICTIONARY
  5
17F
330
2E
100
AcDbDictionary
280
     1
281
     1
  3
ACAD_XREC_ROUNDTRIP
360
180
  0
DICTIONARY
  5
18D
330
35
100
AcDbDictionary
280
     1
281
     1
  3
ACAD_XREC_ROUNDTRIP
360
18E
  0
DICTIONARY
  5
195
330
39
100
AcDbDictionary
280
     1
281
     1
  3
ACAD_XREC_ROUNDTRIP
360
196
  0
DICTIONARY
  5
187
330
32
100
AcDbDictionary
280
     1
281
     1
  3
ACAD_XREC_ROUNDTRIP
360
188
  0
DICTIONARY
  5
18B
330
34
100
AcDbDictionary
280
     1
281
     1
  3
ACAD_XREC_ROUNDTRIP
360
18C
  0
DICTIONARY
  5
1A5
330
41
100
AcDbDictionary
280
     1
281
     1
  3
ACAD_XREC_ROUNDTRIP
360
1A6
  0
DICTIONARY
  5
193
330
38
100
AcDbDictionary
280
     1
281
     1
  3
ACAD_XREC_ROUNDTRIP
360
194
  0
DICTIONARY
  5
177
330
2A
100
AcDbDictionary
280
     1
281
     1
  3
ACAD_XREC_ROUNDTRIP
360
178
  0
DICTIONARY
  5
179
330
2B
100
AcDbDictionary
280
     1
281
     1
  3
ACAD_XREC_ROUNDTRIP
360
17A
  0
DICTIONARY
  5
17B
330
2C
100
AcDbDictionary
280
     1
281
     1
  3
ACAD_XREC_ROUNDTRIP
360
17C
  0
DICTIONARY
  5
17D
330
2D
100
AcDbDictionary
280
     1
281
     1
  3
ACAD_XREC_ROUNDTRIP
360
17E
  0
DICTIONARY
  5
185
330
31
100
AcDbDictionary
280
     1
281
     1
  3
ACAD_XREC_ROUNDTRIP
360
186
  0
DICTIONARY
  5
1A1
330
3F
100
AcDbDictionary
280
     1
281
     1
  3
ACAD_XREC_ROUNDTRIP
360
1A2
  0
DICTIONARY
  5
191
330
37
100
AcDbDictionary
280
     1
281
     1
  3
ACAD_XREC_ROUNDTRIP
360
192
  0
DICTIONARY
  5
1A3
330
40
100
AcDbDictionary
280
     1
281
     1
  3
ACAD_XREC_ROUNDTRIP
360
1A4
  0
DICTIONARY
  5
189
330
33
100
AcDbDictionary
280
     1
281
     1
  3
ACAD_XREC_ROUNDTRIP
360
18A
  0
DICTIONARY
  5
19F
330
3E
100
AcDbDictionary
280
     1
281
     1
  3
ACAD_XREC_ROUNDTRIP
360
1A0
  0
DICTIONARY
  5
19D
330
3D
100
AcDbDictionary
280
     1
281
     1
  3
ACAD_XREC_ROUNDTRIP
360
19E
  0
DICTIONARY
  5
197
330
3A
100
AcDbDictionary
280
     1
281
     1
  3
ACAD_XREC_ROUNDTRIP
360
198
  0
DICTIONARY
  5
199
330
3B
100
AcDbDictionary
280
     1
281
     1
  3
ACAD_XREC_ROUNDTRIP
360
19A
  0
DICTIONARY
  5
18F
330
36
100
AcDbDictionary
280
     1
281
     1
  3
ACAD_XREC_ROUNDTRIP
360
190
  0
DICTIONARY
  5
183
330
30
100
AcDbDictionary
280
     1
281
     1
  3
ACAD_XREC_ROUNDTRIP
360
184
  0
DICTIONARY
  5
19B
330
3C
100
AcDbDictionary
280
     1
281
     1
  3
ACAD_XREC_ROUNDTRIP
360
19C
  0
XRECORD
  5
1AC
102
{ACAD_REACTORS
330
1AB
102
}
330
1AB
100
AcDbXrecord
280
     1
102
DISPLAYNAME
  1
Imperial24
102
FLAGS
 90
        0
  0
XRECORD
  5
1C
102
{ACAD_REACTORS
330
1A
102
}
330
1A
100
AcDbXrecord
280
     1
270
     1
271
     1
  0
XRECORD
  5
1B
102
{ACAD_REACTORS
330
1A
102
}
330
1A
100
AcDbXrecord
280
     1
270
     1
271
     1
  0
XRECORD
  5
1F
102
{ACAD_REACTORS
330
1A
102
}
330
1A
100
AcDbXrecord
280
     1
270
     1
271
     1
  0
XRECORD
  5
1E
102
{ACAD_REACTORS
330
1A
102
}
330
1A
100
AcDbXrecord
280
     1
270
     1
271
     1
  0
XRECORD
  5
20
102
{ACAD_REACTORS
330
1A
102
}
330
1A
100
AcDbXrecord
280
     1
270
     1
271
     1
  0
XRECORD
  5
1D
102
{ACAD_REACTORS
330
1A
102
}
330
1A
100
AcDbXrecord
280
     1
270
     1
271
     1
  0
XRECORD
  5
14
102
{ACAD_REACTORS
330
12
102
}
330
12
100
AcDbXrecord
280
     1
270
     1
271
     1
  0
XRECORD
  5
13
102
{ACAD_REACTORS
330
12
102
}
330
12
100
AcDbXrecord
280
     1
270
     1
271
     1
  0
XRECORD
  5
17
102
{ACAD_REACTORS
330
12
102
}
330
12
100
AcDbXrecord
280
     1
270
     1
271
     1
  0
XRECORD
  5
16
102
{ACAD_REACTORS
330
12
102
}
330
12
100
AcDbXrecord
280
     1
270
     1
271
     1
  0
XRECORD
  5
18
102
{ACAD_REACTORS
330
12
102
}
330
12
100
AcDbXrecord
280
     1
270
     1
271
     1
  0
XRECORD
  5
15
102
{ACAD_REACTORS
330
12
102
}
330
12
100
AcDbXrecord
280
     1
270
     1
271
     1
  0
XRECORD
  5
24
102
{ACAD_REACTORS
330
22
102
}
330
22
100
AcDbXrecord
280
     1
270
     1
271
     1
  0
XRECORD
  5
23
102
{ACAD_REACTORS
330
22
102
}
330
22
100
AcDbXrecord
280
     1
270
     1
271
     1
  0
XRECORD
  5
27
102
{ACAD_REACTORS
330
22
102
}
330
22
100
AcDbXrecord
280
     1
270
     1
271
     1
  0
XRECORD
  5
26
102
{ACAD_REACTORS
330
22
102
}
330
22
100
AcDbXrecord
280
     1
270
     1
271
     1
  0
XRECORD
  5
28
102
{ACAD_REACTORS
330
22
102
}
330
22
100
AcDbXrecord
280
     1
270
     1
271
     1
  0
XRECORD
  5
25
102
{ACAD_REACTORS
330
22
102
}
330
22
100
AcDbXrecord
280
     1
270
     1
271
     1
  0
XRECORD
  5
1A8
102
{ACAD_REACTORS
330
1A7
102
}
330
1A7
100
AcDbXrecord
280
     1
102
ACAD_ROUNDTRIP_2012_MLEADER_STYLE
298
     1
  0
XRECORD
  5
1AA
102
{ACAD_REACTORS
330
1A9
102
}
330
1A9
100
AcDbXrecord
280
     1
102
DISPLAYNAME
  1
Imperial24
102
FLAGS
 90
        0
  0
CELLSTYLEMAP
  5
175
102
{ACAD_REACTORS
330
174
102
}
330
174
100
AcDbCellStyleMap
 90
        3
300
CELLSTYLE
  1
TABLEFORMAT_BEGIN
 90
        5
170
     1
 91
        0
 92
    32768
 62
   257
 93
        1
300
CONTENTFORMAT
  1
CONTENTFORMAT_BEGIN
 90
        0
 91
        0
 92
      512
 93
        0
300

 40
0.0
140
1.0
 94
        5
 62
     0
340
55
144
0.25
309
CONTENTFORMAT_END
171
     0
 94
        0
309
TABLEFORMAT_END
  1
CELLSTYLE_BEGIN
 90
        1
 91
        1
300
_TITLE
309
CELLSTYLE_END
300
CELLSTYLE
  1
TABLEFORMAT_BEGIN
 90
        5
170
     1
 91
        0
 92
        0
 62
   257
 93
        1
300
CONTENTFORMAT
  1
CONTENTFORMAT_BEGIN
 90
        0
 91
        0
 92
      512
 93
        0
300

 40
0.0
140
1.0
 94
        5
 62
     0
340
55
144
0.18
309
CONTENTFORMAT_END
171
     0
 94
        0
309
TABLEFORMAT_END
  1
CELLSTYLE_BEGIN
 90
        2
 91
        1
300
_HEADER
309
CELLSTYLE_END
300
CELLSTYLE
  1
TABLEFORMAT_BEGIN
 90
        5
170
     1
 91
        0
 92
        0
 62
   257
 93
        1
300
CONTENTFORMAT
  1
CONTENTFORMAT_BEGIN
 90
        0
 91
        0
 92
      512
 93
        0
300

 40
0.0
140
1.0
 94
        2
 62
     0
340
55
144
0.18
309
CONTENTFORMAT_END
171
     0
 94
        0
309
TABLEFORMAT_END
  1
CELLSTYLE_BEGIN
 90
        3
 91
        2
300
_DATA
309
CELLSTYLE_END
  0
XRECORD
  5
182
102
{ACAD_REACTORS
330
181
102
}
330
181
100
AcDbXrecord
280
     1
102
RTVSPost2010Prop28
280
     1
102
RTVSPost2010PropOp28
 70
     1
102
RTVSPost2010Prop29
280
     1
102
RTVSPost2010PropOp29
 70
     1
102
RTVSPost2010Prop30
280
     0
102
RTVSPost2010PropOp30
 70
     1
102
RTVSPost2010Prop31
280
     0
102
RTVSPost2010PropOp31
 70
     1
102
RTVSPost2010Prop32
280
     0
102
RTVSPost2010PropOp32
 70
     1
102
RTVSPost2010Prop33
280
     0
102
RTVSPost2010PropOp33
 70
     1
102
RTVSPost2010Prop34
280
     0
102
RTVSPost2010PropOp34
 70
     1
102
RTVSPost2010Prop35
280
     0
102
RTVSPost2010PropOp35
 70
     1
102
RTVSPost2010Prop36
280
     0
102
RTVSPost2010PropOp36
 70
     1
102
RTVSPost2010Prop37
 90
       50
102
RTVSPost2010PropOp37
 70
     1
102
RTVSPost2010Prop38
140
0.0
102
RTVSPost2010PropOp38
 70
     1
102
RTVSPost2010Prop39
140
1.0
102
RTVSPost2010PropOp39
 70
     1
102
RTVSPost2010Prop40
 90
        0
102
RTVSPost2010PropOp40
 70
     1
102
RTVSPost2010Prop41ColorIndex
 90
       18
102
RTVSPost2010Prop41ColorRGB
 90
        0
102
RTVSPost2010PropOp41
 70
     1
102
RTVSPost2010Prop42
 90
       50
102
RTVSPost2010PropOp42
 70
     1
102
RTVSPost2010Prop43
 90
        3
102
RTVSPost2010PropOp43
 70
     1
102
RTVSPost2010Prop44ColorIndex
 90
        5
102
RTVSPost2010Prop44ColorRGB
 90
      255
102
RTVSPost2010PropOp44
 70
     1
102
RTVSPost2010Prop45
280
     0
102
RTVSPost2010PropOp45
 70
     1
102
RTVSPost2010Prop46
 90
       50
102
RTVSPost2010PropOp46
 70
     1
102
RTVSPost2010Prop47
 90
       50
102
RTVSPost2010PropOp47
 70
     1
102
RTVSPost2010Prop48
 90
       50
102
RTVSPost2010PropOp48
 70
     1
102
RTVSPost2010Prop49
280
     0
102
RTVSPost2010PropOp49
 70
     1
102
RTVSPost2010Prop50
 90
       50
102
RTVSPost2010PropOp50
 70
     1
102
RTVSPost2010Prop51ColorIndex
 90
      256
102
RTVSPost2010Prop51ColorRGB
 90
-16777216
102
RTVSPost2010PropOp51
 70
     0
102
RTVSPost2010Prop52
140
1.0
102
RTVSPost2010PropOp52
 70
     0
102
RTVSPost2010Prop53
 90
        2
102
RTVSPost2010PropOp53
 70
     1
102
RTVSPost2010Prop54
  1
strokes_ogs.tif
102
RTVSPost2010PropOp54
 70
     1
102
RTVSPost2010Prop55
280
     0
102
RTVSPost2010PropOp55
 70
     1
102
RTVSPost2010Prop56
140
1.0
102
RTVSPost2010PropOp56
 70
     1
102
RTVSPost2010Prop57
140
1.0
102
RTVSPost2010PropOp57
 70
     1
  0
XRECORD
  5
180
102
{ACAD_REACTORS
330
17F
102
}
330
17F
100
AcDbXrecord
280
     1
102
RTVSPost2010Prop28
280
     0
102
RTVSPost2010PropOp28
 70
     1
102
RTVSPost2010Prop29
280
     1
102
RTVSPost2010PropOp29
 70
     1
102
RTVSPost2010Prop30
280
     1
102
RTVSPost2010PropOp30
 70
     1
102
RTVSPost2010Prop31
280
     0
102
RTVSPost2010PropOp31
 70
     1
102
RTVSPost2010Prop32
280
     0
102
RTVSPost2010PropOp32
 70
     1
102
RTVSPost2010Prop33
280
     0
102
RTVSPost2010PropOp33
 70
     1
102
RTVSPost2010Prop34
280
     0
102
RTVSPost2010PropOp34
 70
     1
102
RTVSPost2010Prop35
280
     0
102
RTVSPost2010PropOp35
 70
     1
102
RTVSPost2010Prop36
280
     0
102
RTVSPost2010PropOp36
 70
     1
102
RTVSPost2010Prop37
 90
       50
102
RTVSPost2010PropOp37
 70
     1
102
RTVSPost2010Prop38
140
0.0
102
RTVSPost2010PropOp38
 70
     1
102
RTVSPost2010Prop39
140
1.0
102
RTVSPost2010PropOp39
 70
     1
102
RTVSPost2010Prop40
 90
        0
102
RTVSPost2010PropOp40
 70
     1
102
RTVSPost2010Prop41ColorIndex
 90
       18
102
RTVSPost2010Prop41ColorRGB
 90
        0
102
RTVSPost2010PropOp41
 70
     1
102
RTVSPost2010Prop42
 90
       50
102
RTVSPost2010PropOp42
 70
     1
102
RTVSPost2010Prop43
 90
        3
102
RTVSPost2010PropOp43
 70
     1
102
RTVSPost2010Prop44ColorIndex
 90
        5
102
RTVSPost2010Prop44ColorRGB
 90
      255
102
RTVSPost2010PropOp44
 70
     1
102
RTVSPost2010Prop45
280
     0
102
RTVSPost2010PropOp45
 70
     1
102
RTVSPost2010Prop46
 90
       50
102
RTVSPost2010PropOp46
 70
     1
102
RTVSPost2010Prop47
 90
       50
102
RTVSPost2010PropOp47
 70
     1
102
RTVSPost2010Prop48
 90
       50
102
RTVSPost2010PropOp48
 70
     1
102
RTVSPost2010Prop49
280
     0
102
RTVSPost2010PropOp49
 70
     1
102
RTVSPost2010Prop50
 90
       50
102
RTVSPost2010PropOp50
 70
     1
102
RTVSPost2010Prop51ColorIndex
 90
      256
102
RTVSPost2010Prop51ColorRGB
 90
-16777216
102
RTVSPost2010PropOp51
 70
     0
102
RTVSPost2010Prop52
140
1.0
102
RTVSPost2010PropOp52
 70
     0
102
RTVSPost2010Prop53
 90
        2
102
RTVSPost2010PropOp53
 70
     1
102
RTVSPost2010Prop54
  1
strokes_ogs.tif
102
RTVSPost2010PropOp54
 70
     1
102
RTVSPost2010Prop55
280
     0
102
RTVSPost2010PropOp55
 70
     1
102
RTVSPost2010Prop56
140
1.0
102
RTVSPost2010PropOp56
 70
     1
102
RTVSPost2010Prop57
140
1.0
102
RTVSPost2010PropOp57
 70
     1
  0
XRECORD
  5
18E
102
{ACAD_REACTORS
330
18D
102
}
330
18D
100
AcDbXrecord
280
     1
102
RTVSPost2010Prop28
280
     0
102
RTVSPost2010PropOp28
 70
     1
102
RTVSPost2010Prop29
280
     1
102
RTVSPost2010PropOp29
 70
     1
102
RTVSPost2010Prop30
280
     1
102
RTVSPost2010PropOp30
 70
     1
102
RTVSPost2010Prop31
280
     0
102
RTVSPost2010PropOp31
 70
     1
102
RTVSPost2010Prop32
280
     0
102
RTVSPost2010PropOp32
 70
     1
102
RTVSPost2010Prop33
280
     0
102
RTVSPost2010PropOp33
 70
     1
102
RTVSPost2010Prop34
280
     0
102
RTVSPost2010PropOp34
 70
     1
102
RTVSPost2010Prop35
280
     0
102
RTVSPost2010PropOp35
 70
     1
102
RTVSPost2010Prop36
280
     0
102
RTVSPost2010PropOp36
 70
     1
102
RTVSPost2010Prop37
 90
       50
102
RTVSPost2010PropOp37
 70
     1
102
RTVSPost2010Prop38
140
0.0
102
RTVSPost2010PropOp38
 70
     1
102
RTVSPost2010Prop39
140
1.0
102
RTVSPost2010PropOp39
 70
     1
102
RTVSPost2010Prop40
 90
        0
102
RTVSPost2010PropOp40
 70
     1
102
RTVSPost2010Prop41ColorIndex
 90
       18
102
RTVSPost2010Prop41ColorRGB
 90
        0
102
RTVSPost2010PropOp41
 70
     1
102
RTVSPost2010Prop42
 90
       50
102
RTVSPost2010PropOp42
 70
     1
102
RTVSPost2010Prop43
 90
        3
102
RTVSPost2010PropOp43
 70
     1
102
RTVSPost2010Prop44ColorIndex
 90
        5
102
RTVSPost2010Prop44ColorRGB
 90
      255
102
RTVSPost2010PropOp44
 70
     1
102
RTVSPost2010Prop45
280
     0
102
RTVSPost2010PropOp45
 70
     1
102
RTVSPost2010Prop46
 90
       50
102
RTVSPost2010PropOp46
 70
     1
102
RTVSPost2010Prop47
 90
       50
102
RTVSPost2010PropOp47
 70
     1
102
RTVSPost2010Prop48
 90
       50
102
RTVSPost2010PropOp48
 70
     1
102
RTVSPost2010Prop49
280
     0
102
RTVSPost2010PropOp49
 70
     1
102
RTVSPost2010Prop50
 90
       50
102
RTVSPost2010PropOp50
 70
     1
102
RTVSPost2010Prop51ColorIndex
 90
      256
102
RTVSPost2010Prop51ColorRGB
 90
-16777216
102
RTVSPost2010PropOp51
 70
     0
102
RTVSPost2010Prop52
140
1.0
102
RTVSPost2010PropOp52
 70
     0
102
RTVSPost2010Prop53
 90
        2
102
RTVSPost2010PropOp53
 70
     1
102
RTVSPost2010Prop54
  1
strokes_ogs.tif
102
RTVSPost2010PropOp54
 70
     1
102
RTVSPost2010Prop55
280
     0
102
RTVSPost2010PropOp55
 70
     1
102
RTVSPost2010Prop56
140
1.0
102
RTVSPost2010PropOp56
 70
     1
102
RTVSPost2010Prop57
140
1.0
102
RTVSPost2010PropOp57
 70
     1
  0
XRECORD
  5
196
102
{ACAD_REACTORS
330
195
102
}
330
195
100
AcDbXrecord
280
     1
102
RTVSPost2010Prop28
280
     0
102
RTVSPost2010PropOp28
 70
     1
102
RTVSPost2010Prop29
280
     1
102
RTVSPost2010PropOp29
 70
     1
102
RTVSPost2010Prop30
280
     1
102
RTVSPost2010PropOp30
 70
     1
102
RTVSPost2010Prop31
280
     0
102
RTVSPost2010PropOp31
 70
     1
102
RTVSPost2010Prop32
280
     0
102
RTVSPost2010PropOp32
 70
     1
102
RTVSPost2010Prop33
280
     0
102
RTVSPost2010PropOp33
 70
     1
102
RTVSPost2010Prop34
280
     0
102
RTVSPost2010PropOp34
 70
     1
102
RTVSPost2010Prop35
280
     0
102
RTVSPost2010PropOp35
 70
     1
102
RTVSPost2010Prop36
280
     0
102
RTVSPost2010PropOp36
 70
     1
102
RTVSPost2010Prop37
 90
       50
102
RTVSPost2010PropOp37
 70
     1
102
RTVSPost2010Prop38
140
0.0
102
RTVSPost2010PropOp38
 70
     1
102
RTVSPost2010Prop39
140
1.0
102
RTVSPost2010PropOp39
 70
     1
102
RTVSPost2010Prop40
 90
        0
102
RTVSPost2010PropOp40
 70
     1
102
RTVSPost2010Prop41ColorIndex
 90
       18
102
RTVSPost2010Prop41ColorRGB
 90
        0
102
RTVSPost2010PropOp41
 70
     1
102
RTVSPost2010Prop42
 90
       50
102
RTVSPost2010PropOp42
 70
     1
102
RTVSPost2010Prop43
 90
        3
102
RTVSPost2010PropOp43
 70
     1
102
RTVSPost2010Prop44ColorIndex
 90
        5
102
RTVSPost2010Prop44ColorRGB
 90
      255
102
RTVSPost2010PropOp44
 70
     1
102
RTVSPost2010Prop45
280
     0
102
RTVSPost2010PropOp45
 70
     1
102
RTVSPost2010Prop46
 90
       50
102
RTVSPost2010PropOp46
 70
     1
102
RTVSPost2010Prop47
 90
       50
102
RTVSPost2010PropOp47
 70
     1
102
RTVSPost2010Prop48
 90
       50
102
RTVSPost2010PropOp48
 70
     1
102
RTVSPost2010Prop49
280
     0
102
RTVSPost2010PropOp49
 70
     1
102
RTVSPost2010Prop50
 90
       50
102
RTVSPost2010PropOp50
 70
     1
102
RTVSPost2010Prop51ColorIndex
 90
      256
102
RTVSPost2010Prop51ColorRGB
 90
-16777216
102
RTVSPost2010PropOp51
 70
     0
102
RTVSPost2010Prop52
140
1.0
102
RTVSPost2010PropOp52
 70
     0
102
RTVSPost2010Prop53
 90
        2
102
RTVSPost2010PropOp53
 70
     1
102
RTVSPost2010Prop54
  1
strokes_ogs.tif
102
RTVSPost2010PropOp54
 70
     1
102
RTVSPost2010Prop55
280
     0
102
RTVSPost2010PropOp55
 70
     1
102
RTVSPost2010Prop56
140
1.0
102
RTVSPost2010PropOp56
 70
     1
102
RTVSPost2010Prop57
140
1.0
102
RTVSPost2010PropOp57
 70
     1
  0
XRECORD
  5
188
102
{ACAD_REACTORS
330
187
102
}
330
187
100
AcDbXrecord
280
     1
102
RTVSPost2010Prop28
280
     0
102
RTVSPost2010PropOp28
 70
     1
102
RTVSPost2010Prop29
280
     1
102
RTVSPost2010PropOp29
 70
     1
102
RTVSPost2010Prop30
280
     1
102
RTVSPost2010PropOp30
 70
     1
102
RTVSPost2010Prop31
280
     0
102
RTVSPost2010PropOp31
 70
     1
102
RTVSPost2010Prop32
280
     0
102
RTVSPost2010PropOp32
 70
     1
102
RTVSPost2010Prop33
280
     0
102
RTVSPost2010PropOp33
 70
     1
102
RTVSPost2010Prop34
280
     0
102
RTVSPost2010PropOp34
 70
     1
102
RTVSPost2010Prop35
280
     0
102
RTVSPost2010PropOp35
 70
     1
102
RTVSPost2010Prop36
280
     0
102
RTVSPost2010PropOp36
 70
     1
102
RTVSPost2010Prop37
 90
       50
102
RTVSPost2010PropOp37
 70
     1
102
RTVSPost2010Prop38
140
0.0
102
RTVSPost2010PropOp38
 70
     1
102
RTVSPost2010Prop39
140
1.0
102
RTVSPost2010PropOp39
 70
     1
102
RTVSPost2010Prop40
 90
        0
102
RTVSPost2010PropOp40
 70
     1
102
RTVSPost2010Prop41ColorIndex
 90
       18
102
RTVSPost2010Prop41ColorRGB
 90
        0
102
RTVSPost2010PropOp41
 70
     1
102
RTVSPost2010Prop42
 90
       50
102
RTVSPost2010PropOp42
 70
     1
102
RTVSPost2010Prop43
 90
        3
102
RTVSPost2010PropOp43
 70
     1
102
RTVSPost2010Prop44ColorIndex
 90
        5
102
RTVSPost2010Prop44ColorRGB
 90
      255
102
RTVSPost2010PropOp44
 70
     1
102
RTVSPost2010Prop45
280
     0
102
RTVSPost2010PropOp45
 70
     1
102
RTVSPost2010Prop46
 90
       50
102
RTVSPost2010PropOp46
 70
     1
102
RTVSPost2010Prop47
 90
       50
102
RTVSPost2010PropOp47
 70
     1
102
RTVSPost2010Prop48
 90
       50
102
RTVSPost2010PropOp48
 70
     1
102
RTVSPost2010Prop49
280
     0
102
RTVSPost2010PropOp49
 70
     1
102
RTVSPost2010Prop50
 90
       50
102
RTVSPost2010PropOp50
 70
     1
102
RTVSPost2010Prop51ColorIndex
 90
      256
102
RTVSPost2010Prop51ColorRGB
 90
-16777216
102
RTVSPost2010PropOp51
 70
     0
102
RTVSPost2010Prop52
140
1.0
102
RTVSPost2010PropOp52
 70
     0
102
RTVSPost2010Prop53
 90
        2
102
RTVSPost2010PropOp53
 70
     1
102
RTVSPost2010Prop54
  1
strokes_ogs.tif
102
RTVSPost2010PropOp54
 70
     1
102
RTVSPost2010Prop55
280
     0
102
RTVSPost2010PropOp55
 70
     1
102
RTVSPost2010Prop56
140
1.0
102
RTVSPost2010PropOp56
 70
     1
102
RTVSPost2010Prop57
140
1.0
102
RTVSPost2010PropOp57
 70
     1
  0
XRECORD
  5
18C
102
{ACAD_REACTORS
330
18B
102
}
330
18B
100
AcDbXrecord
280
     1
102
RTVSPost2010Prop28
280
     0
102
RTVSPost2010PropOp28
 70
     1
102
RTVSPost2010Prop29
280
     1
102
RTVSPost2010PropOp29
 70
     1
102
RTVSPost2010Prop30
280
     1
102
RTVSPost2010PropOp30
 70
     1
102
RTVSPost2010Prop31
280
     0
102
RTVSPost2010PropOp31
 70
     1
102
RTVSPost2010Prop32
280
     0
102
RTVSPost2010PropOp32
 70
     1
102
RTVSPost2010Prop33
280
     0
102
RTVSPost2010PropOp33
 70
     1
102
RTVSPost2010Prop34
280
     0
102
RTVSPost2010PropOp34
 70
     1
102
RTVSPost2010Prop35
280
     0
102
RTVSPost2010PropOp35
 70
     1
102
RTVSPost2010Prop36
280
     0
102
RTVSPost2010PropOp36
 70
     1
102
RTVSPost2010Prop37
 90
       50
102
RTVSPost2010PropOp37
 70
     1
102
RTVSPost2010Prop38
140
0.0
102
RTVSPost2010PropOp38
 70
     1
102
RTVSPost2010Prop39
140
1.0
102
RTVSPost2010PropOp39
 70
     1
102
RTVSPost2010Prop40
 90
        0
102
RTVSPost2010PropOp40
 70
     1
102
RTVSPost2010Prop41ColorIndex
 90
       18
102
RTVSPost2010Prop41ColorRGB
 90
        0
102
RTVSPost2010PropOp41
 70
     1
102
RTVSPost2010Prop42
 90
       50
102
RTVSPost2010PropOp42
 70
     1
102
RTVSPost2010Prop43
 90
        3
102
RTVSPost2010PropOp43
 70
     1
102
RTVSPost2010Prop44ColorIndex
 90
        5
102
RTVSPost2010Prop44ColorRGB
 90
      255
102
RTVSPost2010PropOp44
 70
     1
102
RTVSPost2010Prop45
280
     0
102
RTVSPost2010PropOp45
 70
     1
102
RTVSPost2010Prop46
 90
       50
102
RTVSPost2010PropOp46
 70
     1
102
RTVSPost2010Prop47
 90
       50
102
RTVSPost2010PropOp47
 70
     1
102
RTVSPost2010Prop48
 90
       50
102
RTVSPost2010PropOp48
 70
     1
102
RTVSPost2010Prop49
280
     0
102
RTVSPost2010PropOp49
 70
     1
102
RTVSPost2010Prop50
 90
       50
102
RTVSPost2010PropOp50
 70
     1
102
RTVSPost2010Prop51ColorIndex
 90
      256
102
RTVSPost2010Prop51ColorRGB
 90
-16777216
102
RTVSPost2010PropOp51
 70
     0
102
RTVSPost2010Prop52
140
1.0
102
RTVSPost2010PropOp52
 70
     0
102
RTVSPost2010Prop53
 90
        2
102
RTVSPost2010PropOp53
 70
     1
102
RTVSPost2010Prop54
  1
strokes_ogs.tif
102
RTVSPost2010PropOp54
 70
     1
102
RTVSPost2010Prop55
280
     0
102
RTVSPost2010PropOp55
 70
     1
102
RTVSPost2010Prop56
140
1.0
102
RTVSPost2010PropOp56
 70
     1
102
RTVSPost2010Prop57
140
1.0
102
RTVSPost2010PropOp57
 70
     1
  0
XRECORD
  5
1A6
102
{ACAD_REACTORS
330
1A5
102
}
330
1A5
100
AcDbXrecord
280
     1
102
RTVSPost2010Prop28
280
     0
102
RTVSPost2010PropOp28
 70
     0
102
RTVSPost2010Prop29
280
     1
102
RTVSPost2010PropOp29
 70
     0
102
RTVSPost2010Prop30
280
     1
102
RTVSPost2010PropOp30
 70
     0
102
RTVSPost2010Prop31
280
     0
102
RTVSPost2010PropOp31
 70
     0
102
RTVSPost2010Prop32
280
     0
102
RTVSPost2010PropOp32
 70
     0
102
RTVSPost2010Prop33
280
     0
102
RTVSPost2010PropOp33
 70
     0
102
RTVSPost2010Prop34
280
     0
102
RTVSPost2010PropOp34
 70
     0
102
RTVSPost2010Prop35
280
     0
102
RTVSPost2010PropOp35
 70
     0
102
RTVSPost2010Prop36
280
     0
102
RTVSPost2010PropOp36
 70
     0
102
RTVSPost2010Prop37
 90
       50
102
RTVSPost2010PropOp37
 70
     0
102
RTVSPost2010Prop38
140
0.0
102
RTVSPost2010PropOp38
 70
     0
102
RTVSPost2010Prop39
140
1.0
102
RTVSPost2010PropOp39
 70
     0
102
RTVSPost2010Prop40
 90
        0
102
RTVSPost2010PropOp40
 70
     0
102
RTVSPost2010Prop41ColorIndex
 90
       18
102
RTVSPost2010Prop41ColorRGB
 90
        0
102
RTVSPost2010PropOp41
 70
     0
102
RTVSPost2010Prop42
 90
       50
102
RTVSPost2010PropOp42
 70
     0
102
RTVSPost2010Prop43
 90
        3
102
RTVSPost2010PropOp43
 70
     0
102
RTVSPost2010Prop44ColorIndex
 90
        5
102
RTVSPost2010Prop44ColorRGB
 90
      255
102
RTVSPost2010PropOp44
 70
     0
102
RTVSPost2010Prop45
280
     0
102
RTVSPost2010PropOp45
 70
     0
102
RTVSPost2010Prop46
 90
       50
102
RTVSPost2010PropOp46
 70
     0
102
RTVSPost2010Prop47
 90
       50
102
RTVSPost2010PropOp47
 70
     0
102
RTVSPost2010Prop48
 90
       50
102
RTVSPost2010PropOp48
 70
     0
102
RTVSPost2010Prop49
280
     0
102
RTVSPost2010PropOp49
 70
     0
102
RTVSPost2010Prop50
 90
       50
102
RTVSPost2010PropOp50
 70
     0
102
RTVSPost2010Prop51ColorIndex
 90
      256
102
RTVSPost2010Prop51ColorRGB
 90
-16777216
102
RTVSPost2010PropOp51
 70
     0
102
RTVSPost2010Prop52
140
1.0
102
RTVSPost2010PropOp52
 70
     0
102
RTVSPost2010Prop53
 90
        2
102
RTVSPost2010PropOp53
 70
     0
102
RTVSPost2010Prop54
  1
strokes_ogs.tif
102
RTVSPost2010PropOp54
 70
     0
102
RTVSPost2010Prop55
280
     0
102
RTVSPost2010PropOp55
 70
     0
102
RTVSPost2010Prop56
140
1.0
102
RTVSPost2010PropOp56
 70
     0
102
RTVSPost2010Prop57
140
1.0
102
RTVSPost2010PropOp57
 70
     0
  0
XRECORD
  5
194
102
{ACAD_REACTORS
330
193
102
}
330
193
100
AcDbXrecord
280
     1
102
RTVSPost2010Prop28
280
     0
102
RTVSPost2010PropOp28
 70
     1
102
RTVSPost2010Prop29
280
     1
102
RTVSPost2010PropOp29
 70
     1
102
RTVSPost2010Prop30
280
     1
102
RTVSPost2010PropOp30
 70
     1
102
RTVSPost2010Prop31
280
     0
102
RTVSPost2010PropOp31
 70
     1
102
RTVSPost2010Prop32
280
     0
102
RTVSPost2010PropOp32
 70
     1
102
RTVSPost2010Prop33
280
     0
102
RTVSPost2010PropOp33
 70
     1
102
RTVSPost2010Prop34
280
     0
102
RTVSPost2010PropOp34
 70
     1
102
RTVSPost2010Prop35
280
     0
102
RTVSPost2010PropOp35
 70
     1
102
RTVSPost2010Prop36
280
     0
102
RTVSPost2010PropOp36
 70
     1
102
RTVSPost2010Prop37
 90
       50
102
RTVSPost2010PropOp37
 70
     1
102
RTVSPost2010Prop38
140
0.0
102
RTVSPost2010PropOp38
 70
     1
102
RTVSPost2010Prop39
140
1.0
102
RTVSPost2010PropOp39
 70
     1
102
RTVSPost2010Prop40
 90
        0
102
RTVSPost2010PropOp40
 70
     1
102
RTVSPost2010Prop41ColorIndex
 90
       18
102
RTVSPost2010Prop41ColorRGB
 90
        0
102
RTVSPost2010PropOp41
 70
     1
102
RTVSPost2010Prop42
 90
       50
102
RTVSPost2010PropOp42
 70
     1
102
RTVSPost2010Prop43
 90
        3
102
RTVSPost2010PropOp43
 70
     1
102
RTVSPost2010Prop44ColorIndex
 90
        5
102
RTVSPost2010Prop44ColorRGB
 90
      255
102
RTVSPost2010PropOp44
 70
     1
102
RTVSPost2010Prop45
280
     0
102
RTVSPost2010PropOp45
 70
     1
102
RTVSPost2010Prop46
 90
       50
102
RTVSPost2010PropOp46
 70
     1
102
RTVSPost2010Prop47
 90
       50
102
RTVSPost2010PropOp47
 70
     1
102
RTVSPost2010Prop48
 90
       50
102
RTVSPost2010PropOp48
 70
     1
102
RTVSPost2010Prop49
280
     0
102
RTVSPost2010PropOp49
 70
     1
102
RTVSPost2010Prop50
 90
       50
102
RTVSPost2010PropOp50
 70
     1
102
RTVSPost2010Prop51ColorIndex
 90
      256
102
RTVSPost2010Prop51ColorRGB
 90
-16777216
102
RTVSPost2010PropOp51
 70
     0
102
RTVSPost2010Prop52
140
1.0
102
RTVSPost2010PropOp52
 70
     0
102
RTVSPost2010Prop53
 90
        2
102
RTVSPost2010PropOp53
 70
     1
102
RTVSPost2010Prop54
  1
strokes_ogs.tif
102
RTVSPost2010PropOp54
 70
     1
102
RTVSPost2010Prop55
280
     0
102
RTVSPost2010PropOp55
 70
     1
102
RTVSPost2010Prop56
140
1.0
102
RTVSPost2010PropOp56
 70
     1
102
RTVSPost2010Prop57
140
1.0
102
RTVSPost2010PropOp57
 70
     1
  0
XRECORD
  5
178
102
{ACAD_REACTORS
330
177
102
}
330
177
100
AcDbXrecord
280
     1
102
RTVSPost2010Prop28
280
     0
102
RTVSPost2010PropOp28
 70
     1
102
RTVSPost2010Prop29
280
     1
102
RTVSPost2010PropOp29
 70
     1
102
RTVSPost2010Prop30
280
     1
102
RTVSPost2010PropOp30
 70
     1
102
RTVSPost2010Prop31
280
     0
102
RTVSPost2010PropOp31
 70
     1
102
RTVSPost2010Prop32
280
     0
102
RTVSPost2010PropOp32
 70
     1
102
RTVSPost2010Prop33
280
     0
102
RTVSPost2010PropOp33
 70
     1
102
RTVSPost2010Prop34
280
     0
102
RTVSPost2010PropOp34
 70
     1
102
RTVSPost2010Prop35
280
     0
102
RTVSPost2010PropOp35
 70
     1
102
RTVSPost2010Prop36
280
     0
102
RTVSPost2010PropOp36
 70
     1
102
RTVSPost2010Prop37
 90
       50
102
RTVSPost2010PropOp37
 70
     1
102
RTVSPost2010Prop38
140
0.0
102
RTVSPost2010PropOp38
 70
     1
102
RTVSPost2010Prop39
140
1.0
102
RTVSPost2010PropOp39
 70
     1
102
RTVSPost2010Prop40
 90
        0
102
RTVSPost2010PropOp40
 70
     1
102
RTVSPost2010Prop41ColorIndex
 90
       18
102
RTVSPost2010Prop41ColorRGB
 90
        0
102
RTVSPost2010PropOp41
 70
     1
102
RTVSPost2010Prop42
 90
       50
102
RTVSPost2010PropOp42
 70
     1
102
RTVSPost2010Prop43
 90
        3
102
RTVSPost2010PropOp43
 70
     1
102
RTVSPost2010Prop44ColorIndex
 90
        5
102
RTVSPost2010Prop44ColorRGB
 90
      255
102
RTVSPost2010PropOp44
 70
     1
102
RTVSPost2010Prop45
280
     0
102
RTVSPost2010PropOp45
 70
     1
102
RTVSPost2010Prop46
 90
       50
102
RTVSPost2010PropOp46
 70
     1
102
RTVSPost2010Prop47
 90
       50
102
RTVSPost2010PropOp47
 70
     1
102
RTVSPost2010Prop48
 90
       50
102
RTVSPost2010PropOp48
 70
     1
102
RTVSPost2010Prop49
280
     0
102
RTVSPost2010PropOp49
 70
     1
102
RTVSPost2010Prop50
 90
       50
102
RTVSPost2010PropOp50
 70
     1
102
RTVSPost2010Prop51ColorIndex
 90
      256
102
RTVSPost2010Prop51ColorRGB
 90
-16777216
102
RTVSPost2010PropOp51
 70
     0
102
RTVSPost2010Prop52
140
1.0
102
RTVSPost2010PropOp52
 70
     0
102
RTVSPost2010Prop53
 90
        2
102
RTVSPost2010PropOp53
 70
     1
102
RTVSPost2010Prop54
  1
strokes_ogs.tif
102
RTVSPost2010PropOp54
 70
     1
102
RTVSPost2010Prop55
280
     0
102
RTVSPost2010PropOp55
 70
     1
102
RTVSPost2010Prop56
140
1.0
102
RTVSPost2010PropOp56
 70
     1
102
RTVSPost2010Prop57
140
1.0
102
RTVSPost2010PropOp57
 70
     1
  0
XRECORD
  5
17A
102
{ACAD_REACTORS
330
179
102
}
330
179
100
AcDbXrecord
280
     1
102
RTVSPost2010Prop28
280
     0
102
RTVSPost2010PropOp28
 70
     1
102
RTVSPost2010Prop29
280
     1
102
RTVSPost2010PropOp29
 70
     1
102
RTVSPost2010Prop30
280
     1
102
RTVSPost2010PropOp30
 70
     1
102
RTVSPost2010Prop31
280
     0
102
RTVSPost2010PropOp31
 70
     1
102
RTVSPost2010Prop32
280
     0
102
RTVSPost2010PropOp32
 70
     1
102
RTVSPost2010Prop33
280
     0
102
RTVSPost2010PropOp33
 70
     1
102
RTVSPost2010Prop34
280
     0
102
RTVSPost2010PropOp34
 70
     1
102
RTVSPost2010Prop35
280
     0
102
RTVSPost2010PropOp35
 70
     1
102
RTVSPost2010Prop36
280
     0
102
RTVSPost2010PropOp36
 70
     1
102
RTVSPost2010Prop37
 90
       50
102
RTVSPost2010PropOp37
 70
     1
102
RTVSPost2010Prop38
140
0.0
102
RTVSPost2010PropOp38
 70
     1
102
RTVSPost2010Prop39
140
1.0
102
RTVSPost2010PropOp39
 70
     1
102
RTVSPost2010Prop40
 90
        0
102
RTVSPost2010PropOp40
 70
     1
102
RTVSPost2010Prop41ColorIndex
 90
       18
102
RTVSPost2010Prop41ColorRGB
 90
        0
102
RTVSPost2010PropOp41
 70
     1
102
RTVSPost2010Prop42
 90
       50
102
RTVSPost2010PropOp42
 70
     1
102
RTVSPost2010Prop43
 90
        3
102
RTVSPost2010PropOp43
 70
     1
102
RTVSPost2010Prop44ColorIndex
 90
        5
102
RTVSPost2010Prop44ColorRGB
 90
      255
102
RTVSPost2010PropOp44
 70
     1
102
RTVSPost2010Prop45
280
     0
102
RTVSPost2010PropOp45
 70
     1
102
RTVSPost2010Prop46
 90
       50
102
RTVSPost2010PropOp46
 70
     1
102
RTVSPost2010Prop47
 90
       50
102
RTVSPost2010PropOp47
 70
     1
102
RTVSPost2010Prop48
 90
       50
102
RTVSPost2010PropOp48
 70
     1
102
RTVSPost2010Prop49
280
     0
102
RTVSPost2010PropOp49
 70
     1
102
RTVSPost2010Prop50
 90
       50
102
RTVSPost2010PropOp50
 70
     1
102
RTVSPost2010Prop51ColorIndex
 90
      256
102
RTVSPost2010Prop51ColorRGB
 90
-16777216
102
RTVSPost2010PropOp51
 70
     0
102
RTVSPost2010Prop52
140
1.0
102
RTVSPost2010PropOp52
 70
     0
102
RTVSPost2010Prop53
 90
        2
102
RTVSPost2010PropOp53
 70
     1
102
RTVSPost2010Prop54
  1
strokes_ogs.tif
102
RTVSPost2010PropOp54
 70
     1
102
RTVSPost2010Prop55
280
     0
102
RTVSPost2010PropOp55
 70
     1
102
RTVSPost2010Prop56
140
1.0
102
RTVSPost2010PropOp56
 70
     1
102
RTVSPost2010Prop57
140
1.0
102
RTVSPost2010PropOp57
 70
     1
  0
XRECORD
  5
17C
102
{ACAD_REACTORS
330
17B
102
}
330
17B
100
AcDbXrecord
280
     1
102
RTVSPost2010Prop28
280
     0
102
RTVSPost2010PropOp28
 70
     1
102
RTVSPost2010Prop29
280
     1
102
RTVSPost2010PropOp29
 70
     1
102
RTVSPost2010Prop30
280
     1
102
RTVSPost2010PropOp30
 70
     1
102
RTVSPost2010Prop31
280
     0
102
RTVSPost2010PropOp31
 70
     1
102
RTVSPost2010Prop32
280
     0
102
RTVSPost2010PropOp32
 70
     1
102
RTVSPost2010Prop33
280
     0
102
RTVSPost2010PropOp33
 70
     1
102
RTVSPost2010Prop34
280
     0
102
RTVSPost2010PropOp34
 70
     1
102
RTVSPost2010Prop35
280
     0
102
RTVSPost2010PropOp35
 70
     1
102
RTVSPost2010Prop36
280
     0
102
RTVSPost2010PropOp36
 70
     1
102
RTVSPost2010Prop37
 90
       50
102
RTVSPost2010PropOp37
 70
     1
102
RTVSPost2010Prop38
140
0.0
102
RTVSPost2010PropOp38
 70
     1
102
RTVSPost2010Prop39
140
1.0
102
RTVSPost2010PropOp39
 70
     1
102
RTVSPost2010Prop40
 90
        0
102
RTVSPost2010PropOp40
 70
     1
102
RTVSPost2010Prop41ColorIndex
 90
       18
102
RTVSPost2010Prop41ColorRGB
 90
        0
102
RTVSPost2010PropOp41
 70
     1
102
RTVSPost2010Prop42
 90
       50
102
RTVSPost2010PropOp42
 70
     1
102
RTVSPost2010Prop43
 90
        3
102
RTVSPost2010PropOp43
 70
     1
102
RTVSPost2010Prop44ColorIndex
 90
        5
102
RTVSPost2010Prop44ColorRGB
 90
      255
102
RTVSPost2010PropOp44
 70
     1
102
RTVSPost2010Prop45
280
     0
102
RTVSPost2010PropOp45
 70
     1
102
RTVSPost2010Prop46
 90
       50
102
RTVSPost2010PropOp46
 70
     1
102
RTVSPost2010Prop47
 90
       50
102
RTVSPost2010PropOp47
 70
     1
102
RTVSPost2010Prop48
 90
       50
102
RTVSPost2010PropOp48
 70
     1
102
RTVSPost2010Prop49
280
     0
102
RTVSPost2010PropOp49
 70
     1
102
RTVSPost2010Prop50
 90
       50
102
RTVSPost2010PropOp50
 70
     1
102
RTVSPost2010Prop51ColorIndex
 90
      256
102
RTVSPost2010Prop51ColorRGB
 90
-16777216
102
RTVSPost2010PropOp51
 70
     0
102
RTVSPost2010Prop52
140
1.0
102
RTVSPost2010PropOp52
 70
     0
102
RTVSPost2010Prop53
 90
        2
102
RTVSPost2010PropOp53
 70
     1
102
RTVSPost2010Prop54
  1
strokes_ogs.tif
102
RTVSPost2010PropOp54
 70
     1
102
RTVSPost2010Prop55
280
     0
102
RTVSPost2010PropOp55
 70
     1
102
RTVSPost2010Prop56
140
1.0
102
RTVSPost2010PropOp56
 70
     1
102
RTVSPost2010Prop57
140
1.0
102
RTVSPost2010PropOp57
 70
     1
  0
XRECORD
  5
17E
102
{ACAD_REACTORS
330
17D
102
}
330
17D
100
AcDbXrecord
280
     1
102
RTVSPost2010Prop28
280
     0
102
RTVSPost2010PropOp28
 70
     1
102
RTVSPost2010Prop29
280
     1
102
RTVSPost2010PropOp29
 70
     1
102
RTVSPost2010Prop30
280
     1
102
RTVSPost2010PropOp30
 70
     1
102
RTVSPost2010Prop31
280
     0
102
RTVSPost2010PropOp31
 70
     1
102
RTVSPost2010Prop32
280
     0
102
RTVSPost2010PropOp32
 70
     1
102
RTVSPost2010Prop33
280
     0
102
RTVSPost2010PropOp33
 70
     1
102
RTVSPost2010Prop34
280
     0
102
RTVSPost2010PropOp34
 70
     1
102
RTVSPost2010Prop35
280
     0
102
RTVSPost2010PropOp35
 70
     1
102
RTVSPost2010Prop36
280
     0
102
RTVSPost2010PropOp36
 70
     1
102
RTVSPost2010Prop37
 90
       50
102
RTVSPost2010PropOp37
 70
     1
102
RTVSPost2010Prop38
140
0.0
102
RTVSPost2010PropOp38
 70
     1
102
RTVSPost2010Prop39
140
1.0
102
RTVSPost2010PropOp39
 70
     1
102
RTVSPost2010Prop40
 90
        0
102
RTVSPost2010PropOp40
 70
     1
102
RTVSPost2010Prop41ColorIndex
 90
       18
102
RTVSPost2010Prop41ColorRGB
 90
        0
102
RTVSPost2010PropOp41
 70
     1
102
RTVSPost2010Prop42
 90
       50
102
RTVSPost2010PropOp42
 70
     1
102
RTVSPost2010Prop43
 90
        3
102
RTVSPost2010PropOp43
 70
     1
102
RTVSPost2010Prop44ColorIndex
 90
        5
102
RTVSPost2010Prop44ColorRGB
 90
      255
102
RTVSPost2010PropOp44
 70
     1
102
RTVSPost2010Prop45
280
     0
102
RTVSPost2010PropOp45
 70
     1
102
RTVSPost2010Prop46
 90
       50
102
RTVSPost2010PropOp46
 70
     1
102
RTVSPost2010Prop47
 90
       50
102
RTVSPost2010PropOp47
 70
     1
102
RTVSPost2010Prop48
 90
       50
102
RTVSPost2010PropOp48
 70
     1
102
RTVSPost2010Prop49
280
     0
102
RTVSPost2010PropOp49
 70
     1
102
RTVSPost2010Prop50
 90
       50
102
RTVSPost2010PropOp50
 70
     1
102
RTVSPost2010Prop51ColorIndex
 90
      256
102
RTVSPost2010Prop51ColorRGB
 90
-16777216
102
RTVSPost2010PropOp51
 70
     0
102
RTVSPost2010Prop52
140
1.0
102
RTVSPost2010PropOp52
 70
     0
102
RTVSPost2010Prop53
 90
        2
102
RTVSPost2010PropOp53
 70
     1
102
RTVSPost2010Prop54
  1
strokes_ogs.tif
102
RTVSPost2010PropOp54
 70
     1
102
RTVSPost2010Prop55
280
     0
102
RTVSPost2010PropOp55
 70
     1
102
RTVSPost2010Prop56
140
1.0
102
RTVSPost2010PropOp56
 70
     1
102
RTVSPost2010Prop57
140
1.0
102
RTVSPost2010PropOp57
 70
     1
  0
XRECORD
  5
186
102
{ACAD_REACTORS
330
185
102
}
330
185
100
AcDbXrecord
280
     1
102
RTVSPost2010Prop28
280
     0
102
RTVSPost2010PropOp28
 70
     1
102
RTVSPost2010Prop29
280
     1
102
RTVSPost2010PropOp29
 70
     1
102
RTVSPost2010Prop30
280
     1
102
RTVSPost2010PropOp30
 70
     1
102
RTVSPost2010Prop31
280
     0
102
RTVSPost2010PropOp31
 70
     1
102
RTVSPost2010Prop32
280
     0
102
RTVSPost2010PropOp32
 70
     1
102
RTVSPost2010Prop33
280
     0
102
RTVSPost2010PropOp33
 70
     1
102
RTVSPost2010Prop34
280
     0
102
RTVSPost2010PropOp34
 70
     1
102
RTVSPost2010Prop35
280
     0
102
RTVSPost2010PropOp35
 70
     1
102
RTVSPost2010Prop36
280
     0
102
RTVSPost2010PropOp36
 70
     1
102
RTVSPost2010Prop37
 90
       50
102
RTVSPost2010PropOp37
 70
     1
102
RTVSPost2010Prop38
140
0.0
102
RTVSPost2010PropOp38
 70
     1
102
RTVSPost2010Prop39
140
1.0
102
RTVSPost2010PropOp39
 70
     1
102
RTVSPost2010Prop40
 90
        0
102
RTVSPost2010PropOp40
 70
     1
102
RTVSPost2010Prop41ColorIndex
 90
       18
102
RTVSPost2010Prop41ColorRGB
 90
        0
102
RTVSPost2010PropOp41
 70
     1
102
RTVSPost2010Prop42
 90
       50
102
RTVSPost2010PropOp42
 70
     1
102
RTVSPost2010Prop43
 90
        3
102
RTVSPost2010PropOp43
 70
     1
102
RTVSPost2010Prop44ColorIndex
 90
        5
102
RTVSPost2010Prop44ColorRGB
 90
      255
102
RTVSPost2010PropOp44
 70
     1
102
RTVSPost2010Prop45
280
     0
102
RTVSPost2010PropOp45
 70
     1
102
RTVSPost2010Prop46
 90
       50
102
RTVSPost2010PropOp46
 70
     1
102
RTVSPost2010Prop47
 90
       50
102
RTVSPost2010PropOp47
 70
     1
102
RTVSPost2010Prop48
 90
       50
102
RTVSPost2010PropOp48
 70
     1
102
RTVSPost2010Prop49
280
     0
102
RTVSPost2010PropOp49
 70
     1
102
RTVSPost2010Prop50
 90
       50
102
RTVSPost2010PropOp50
 70
     1
102
RTVSPost2010Prop51ColorIndex
 90
      256
102
RTVSPost2010Prop51ColorRGB
 90
-16777216
102
RTVSPost2010PropOp51
 70
     0
102
RTVSPost2010Prop52
140
1.0
102
RTVSPost2010PropOp52
 70
     0
102
RTVSPost2010Prop53
 90
        2
102
RTVSPost2010PropOp53
 70
     1
102
RTVSPost2010Prop54
  1
strokes_ogs.tif
102
RTVSPost2010PropOp54
 70
     1
102
RTVSPost2010Prop55
280
     0
102
RTVSPost2010PropOp55
 70
     1
102
RTVSPost2010Prop56
140
1.0
102
RTVSPost2010PropOp56
 70
     1
102
RTVSPost2010Prop57
140
1.0
102
RTVSPost2010PropOp57
 70
     1
  0
XRECORD
  5
1A2
102
{ACAD_REACTORS
330
1A1
102
}
330
1A1
100
AcDbXrecord
280
     1
102
RTVSPost2010Prop28
280
     0
102
RTVSPost2010PropOp28
 70
     0
102
RTVSPost2010Prop29
280
     1
102
RTVSPost2010PropOp29
 70
     0
102
RTVSPost2010Prop30
280
     1
102
RTVSPost2010PropOp30
 70
     0
102
RTVSPost2010Prop31
280
     0
102
RTVSPost2010PropOp31
 70
     0
102
RTVSPost2010Prop32
280
     0
102
RTVSPost2010PropOp32
 70
     0
102
RTVSPost2010Prop33
280
     0
102
RTVSPost2010PropOp33
 70
     0
102
RTVSPost2010Prop34
280
     0
102
RTVSPost2010PropOp34
 70
     0
102
RTVSPost2010Prop35
280
     0
102
RTVSPost2010PropOp35
 70
     0
102
RTVSPost2010Prop36
280
     0
102
RTVSPost2010PropOp36
 70
     0
102
RTVSPost2010Prop37
 90
       50
102
RTVSPost2010PropOp37
 70
     0
102
RTVSPost2010Prop38
140
0.0
102
RTVSPost2010PropOp38
 70
     0
102
RTVSPost2010Prop39
140
1.0
102
RTVSPost2010PropOp39
 70
     0
102
RTVSPost2010Prop40
 90
        0
102
RTVSPost2010PropOp40
 70
     0
102
RTVSPost2010Prop41ColorIndex
 90
       18
102
RTVSPost2010Prop41ColorRGB
 90
        0
102
RTVSPost2010PropOp41
 70
     0
102
RTVSPost2010Prop42
 90
       50
102
RTVSPost2010PropOp42
 70
     0
102
RTVSPost2010Prop43
 90
        3
102
RTVSPost2010PropOp43
 70
     0
102
RTVSPost2010Prop44ColorIndex
 90
        5
102
RTVSPost2010Prop44ColorRGB
 90
      255
102
RTVSPost2010PropOp44
 70
     0
102
RTVSPost2010Prop45
280
     0
102
RTVSPost2010PropOp45
 70
     0
102
RTVSPost2010Prop46
 90
       50
102
RTVSPost2010PropOp46
 70
     0
102
RTVSPost2010Prop47
 90
       50
102
RTVSPost2010PropOp47
 70
     0
102
RTVSPost2010Prop48
 90
       50
102
RTVSPost2010PropOp48
 70
     0
102
RTVSPost2010Prop49
280
     0
102
RTVSPost2010PropOp49
 70
     0
102
RTVSPost2010Prop50
 90
       50
102
RTVSPost2010PropOp50
 70
     0
102
RTVSPost2010Prop51ColorIndex
 90
      256
102
RTVSPost2010Prop51ColorRGB
 90
-16777216
102
RTVSPost2010PropOp51
 70
     0
102
RTVSPost2010Prop52
140
1.0
102
RTVSPost2010PropOp52
 70
     0
102
RTVSPost2010Prop53
 90
        2
102
RTVSPost2010PropOp53
 70
     0
102
RTVSPost2010Prop54
  1
strokes_ogs.tif
102
RTVSPost2010PropOp54
 70
     0
102
RTVSPost2010Prop55
280
     0
102
RTVSPost2010PropOp55
 70
     0
102
RTVSPost2010Prop56
140
1.0
102
RTVSPost2010PropOp56
 70
     0
102
RTVSPost2010Prop57
140
1.0
102
RTVSPost2010PropOp57
 70
     0
  0
XRECORD
  5
192
102
{ACAD_REACTORS
330
191
102
}
330
191
100
AcDbXrecord
280
     1
102
RTVSPost2010Prop28
280
     0
102
RTVSPost2010PropOp28
 70
     1
102
RTVSPost2010Prop29
280
     1
102
RTVSPost2010PropOp29
 70
     1
102
RTVSPost2010Prop30
280
     1
102
RTVSPost2010PropOp30
 70
     1
102
RTVSPost2010Prop31
280
     0
102
RTVSPost2010PropOp31
 70
     1
102
RTVSPost2010Prop32
280
     0
102
RTVSPost2010PropOp32
 70
     1
102
RTVSPost2010Prop33
280
     0
102
RTVSPost2010PropOp33
 70
     1
102
RTVSPost2010Prop34
280
     0
102
RTVSPost2010PropOp34
 70
     1
102
RTVSPost2010Prop35
280
     0
102
RTVSPost2010PropOp35
 70
     1
102
RTVSPost2010Prop36
280
     0
102
RTVSPost2010PropOp36
 70
     1
102
RTVSPost2010Prop37
 90
       50
102
RTVSPost2010PropOp37
 70
     1
102
RTVSPost2010Prop38
140
0.0
102
RTVSPost2010PropOp38
 70
     1
102
RTVSPost2010Prop39
140
1.0
102
RTVSPost2010PropOp39
 70
     1
102
RTVSPost2010Prop40
 90
        0
102
RTVSPost2010PropOp40
 70
     1
102
RTVSPost2010Prop41ColorIndex
 90
       18
102
RTVSPost2010Prop41ColorRGB
 90
        0
102
RTVSPost2010PropOp41
 70
     1
102
RTVSPost2010Prop42
 90
       50
102
RTVSPost2010PropOp42
 70
     1
102
RTVSPost2010Prop43
 90
        3
102
RTVSPost2010PropOp43
 70
     1
102
RTVSPost2010Prop44ColorIndex
 90
        5
102
RTVSPost2010Prop44ColorRGB
 90
      255
102
RTVSPost2010PropOp44
 70
     1
102
RTVSPost2010Prop45
280
     0
102
RTVSPost2010PropOp45
 70
     1
102
RTVSPost2010Prop46
 90
       50
102
RTVSPost2010PropOp46
 70
     1
102
RTVSPost2010Prop47
 90
       50
102
RTVSPost2010PropOp47
 70
     1
102
RTVSPost2010Prop48
 90
       50
102
RTVSPost2010PropOp48
 70
     1
102
RTVSPost2010Prop49
280
     0
102
RTVSPost2010PropOp49
 70
     1
102
RTVSPost2010Prop50
 90
       50
102
RTVSPost2010PropOp50
 70
     1
102
RTVSPost2010Prop51ColorIndex
 90
      256
102
RTVSPost2010Prop51ColorRGB
 90
-16777216
102
RTVSPost2010PropOp51
 70
     0
102
RTVSPost2010Prop52
140
1.0
102
RTVSPost2010PropOp52
 70
     0
102
RTVSPost2010Prop53
 90
        2
102
RTVSPost2010PropOp53
 70
     1
102
RTVSPost2010Prop54
  1
strokes_ogs.tif
102
RTVSPost2010PropOp54
 70
     1
102
RTVSPost2010Prop55
280
     0
102
RTVSPost2010PropOp55
 70
     1
102
RTVSPost2010Prop56
140
1.0
102
RTVSPost2010PropOp56
 70
     1
102
RTVSPost2010Prop57
140
1.0
102
RTVSPost2010PropOp57
 70
     1
  0
XRECORD
  5
1A4
102
{ACAD_REACTORS
330
1A3
102
}
330
1A3
100
AcDbXrecord
280
     1
102
RTVSPost2010Prop28
280
     0
102
RTVSPost2010PropOp28
 70
     0
102
RTVSPost2010Prop29
280
     1
102
RTVSPost2010PropOp29
 70
     0
102
RTVSPost2010Prop30
280
     1
102
RTVSPost2010PropOp30
 70
     0
102
RTVSPost2010Prop31
280
     0
102
RTVSPost2010PropOp31
 70
     0
102
RTVSPost2010Prop32
280
     0
102
RTVSPost2010PropOp32
 70
     0
102
RTVSPost2010Prop33
280
     0
102
RTVSPost2010PropOp33
 70
     0
102
RTVSPost2010Prop34
280
     0
102
RTVSPost2010PropOp34
 70
     0
102
RTVSPost2010Prop35
280
     0
102
RTVSPost2010PropOp35
 70
     0
102
RTVSPost2010Prop36
280
     0
102
RTVSPost2010PropOp36
 70
     0
102
RTVSPost2010Prop37
 90
       50
102
RTVSPost2010PropOp37
 70
     0
102
RTVSPost2010Prop38
140
0.0
102
RTVSPost2010PropOp38
 70
     0
102
RTVSPost2010Prop39
140
1.0
102
RTVSPost2010PropOp39
 70
     0
102
RTVSPost2010Prop40
 90
        0
102
RTVSPost2010PropOp40
 70
     0
102
RTVSPost2010Prop41ColorIndex
 90
       18
102
RTVSPost2010Prop41ColorRGB
 90
        0
102
RTVSPost2010PropOp41
 70
     0
102
RTVSPost2010Prop42
 90
       50
102
RTVSPost2010PropOp42
 70
     0
102
RTVSPost2010Prop43
 90
        3
102
RTVSPost2010PropOp43
 70
     0
102
RTVSPost2010Prop44ColorIndex
 90
        5
102
RTVSPost2010Prop44ColorRGB
 90
      255
102
RTVSPost2010PropOp44
 70
     0
102
RTVSPost2010Prop45
280
     0
102
RTVSPost2010PropOp45
 70
     0
102
RTVSPost2010Prop46
 90
       50
102
RTVSPost2010PropOp46
 70
     0
102
RTVSPost2010Prop47
 90
       50
102
RTVSPost2010PropOp47
 70
     0
102
RTVSPost2010Prop48
 90
       50
102
RTVSPost2010PropOp48
 70
     0
102
RTVSPost2010Prop49
280
     0
102
RTVSPost2010PropOp49
 70
     0
102
RTVSPost2010Prop50
 90
       50
102
RTVSPost2010PropOp50
 70
     0
102
RTVSPost2010Prop51ColorIndex
 90
      256
102
RTVSPost2010Prop51ColorRGB
 90
-16777216
102
RTVSPost2010PropOp51
 70
     0
102
RTVSPost2010Prop52
140
1.0
102
RTVSPost2010PropOp52
 70
     0
102
RTVSPost2010Prop53
 90
        2
102
RTVSPost2010PropOp53
 70
     0
102
RTVSPost2010Prop54
  1
strokes_ogs.tif
102
RTVSPost2010PropOp54
 70
     0
102
RTVSPost2010Prop55
280
     0
102
RTVSPost2010PropOp55
 70
     0
102
RTVSPost2010Prop56
140
1.0
102
RTVSPost2010PropOp56
 70
     0
102
RTVSPost2010Prop57
140
1.0
102
RTVSPost2010PropOp57
 70
     0
  0
XRECORD
  5
18A
102
{ACAD_REACTORS
330
189
102
}
330
189
100
AcDbXrecord
280
     1
102
RTVSPost2010Prop28
280
     0
102
RTVSPost2010PropOp28
 70
     1
102
RTVSPost2010Prop29
280
     1
102
RTVSPost2010PropOp29
 70
     1
102
RTVSPost2010Prop30
280
     1
102
RTVSPost2010PropOp30
 70
     1
102
RTVSPost2010Prop31
280
     0
102
RTVSPost2010PropOp31
 70
     1
102
RTVSPost2010Prop32
280
     0
102
RTVSPost2010PropOp32
 70
     1
102
RTVSPost2010Prop33
280
     0
102
RTVSPost2010PropOp33
 70
     1
102
RTVSPost2010Prop34
280
     0
102
RTVSPost2010PropOp34
 70
     1
102
RTVSPost2010Prop35
280
     0
102
RTVSPost2010PropOp35
 70
     1
102
RTVSPost2010Prop36
280
     0
102
RTVSPost2010PropOp36
 70
     1
102
RTVSPost2010Prop37
 90
       50
102
RTVSPost2010PropOp37
 70
     1
102
RTVSPost2010Prop38
140
0.0
102
RTVSPost2010PropOp38
 70
     1
102
RTVSPost2010Prop39
140
1.0
102
RTVSPost2010PropOp39
 70
     1
102
RTVSPost2010Prop40
 90
        0
102
RTVSPost2010PropOp40
 70
     1
102
RTVSPost2010Prop41ColorIndex
 90
       18
102
RTVSPost2010Prop41ColorRGB
 90
        0
102
RTVSPost2010PropOp41
 70
     1
102
RTVSPost2010Prop42
 90
       50
102
RTVSPost2010PropOp42
 70
     1
102
RTVSPost2010Prop43
 90
        3
102
RTVSPost2010PropOp43
 70
     1
102
RTVSPost2010Prop44ColorIndex
 90
        5
102
RTVSPost2010Prop44ColorRGB
 90
      255
102
RTVSPost2010PropOp44
 70
     1
102
RTVSPost2010Prop45
280
     0
102
RTVSPost2010PropOp45
 70
     1
102
RTVSPost2010Prop46
 90
       50
102
RTVSPost2010PropOp46
 70
     1
102
RTVSPost2010Prop47
 90
       50
102
RTVSPost2010PropOp47
 70
     1
102
RTVSPost2010Prop48
 90
       50
102
RTVSPost2010PropOp48
 70
     1
102
RTVSPost2010Prop49
280
     0
102
RTVSPost2010PropOp49
 70
     1
102
RTVSPost2010Prop50
 90
       50
102
RTVSPost2010PropOp50
 70
     1
102
RTVSPost2010Prop51ColorIndex
 90
      256
102
RTVSPost2010Prop51ColorRGB
 90
-16777216
102
RTVSPost2010PropOp51
 70
     0
102
RTVSPost2010Prop52
140
1.0
102
RTVSPost2010PropOp52
 70
     0
102
RTVSPost2010Prop53
 90
        2
102
RTVSPost2010PropOp53
 70
     1
102
RTVSPost2010Prop54
  1
strokes_ogs.tif
102
RTVSPost2010PropOp54
 70
     1
102
RTVSPost2010Prop55
280
     0
102
RTVSPost2010PropOp55
 70
     1
102
RTVSPost2010Prop56
140
1.0
102
RTVSPost2010PropOp56
 70
     1
102
RTVSPost2010Prop57
140
1.0
102
RTVSPost2010PropOp57
 70
     1
  0
XRECORD
  5
1A0
102
{ACAD_REACTORS
330
19F
102
}
330
19F
100
AcDbXrecord
280
     1
102
RTVSPost2010Prop28
280
     0
102
RTVSPost2010PropOp28
 70
     1
102
RTVSPost2010Prop29
280
     1
102
RTVSPost2010PropOp29
 70
     1
102
RTVSPost2010Prop30
280
     1
102
RTVSPost2010PropOp30
 70
     1
102
RTVSPost2010Prop31
280
     0
102
RTVSPost2010PropOp31
 70
     1
102
RTVSPost2010Prop32
280
     0
102
RTVSPost2010PropOp32
 70
     1
102
RTVSPost2010Prop33
280
     0
102
RTVSPost2010PropOp33
 70
     1
102
RTVSPost2010Prop34
280
     0
102
RTVSPost2010PropOp34
 70
     1
102
RTVSPost2010Prop35
280
     0
102
RTVSPost2010PropOp35
 70
     1
102
RTVSPost2010Prop36
280
     0
102
RTVSPost2010PropOp36
 70
     1
102
RTVSPost2010Prop37
 90
       50
102
RTVSPost2010PropOp37
 70
     1
102
RTVSPost2010Prop38
140
0.0
102
RTVSPost2010PropOp38
 70
     1
102
RTVSPost2010Prop39
140
1.0
102
RTVSPost2010PropOp39
 70
     1
102
RTVSPost2010Prop40
 90
        0
102
RTVSPost2010PropOp40
 70
     1
102
RTVSPost2010Prop41ColorIndex
 90
       18
102
RTVSPost2010Prop41ColorRGB
 90
        0
102
RTVSPost2010PropOp41
 70
     1
102
RTVSPost2010Prop42
 90
       50
102
RTVSPost2010PropOp42
 70
     1
102
RTVSPost2010Prop43
 90
        3
102
RTVSPost2010PropOp43
 70
     1
102
RTVSPost2010Prop44ColorIndex
 90
        5
102
RTVSPost2010Prop44ColorRGB
 90
      255
102
RTVSPost2010PropOp44
 70
     1
102
RTVSPost2010Prop45
280
     0
102
RTVSPost2010PropOp45
 70
     1
102
RTVSPost2010Prop46
 90
       50
102
RTVSPost2010PropOp46
 70
     1
102
RTVSPost2010Prop47
 90
       50
102
RTVSPost2010PropOp47
 70
     1
102
RTVSPost2010Prop48
 90
       50
102
RTVSPost2010PropOp48
 70
     1
102
RTVSPost2010Prop49
280
     0
102
RTVSPost2010PropOp49
 70
     1
102
RTVSPost2010Prop50
 90
       50
102
RTVSPost2010PropOp50
 70
     1
102
RTVSPost2010Prop51ColorIndex
 90
      256
102
RTVSPost2010Prop51ColorRGB
 90
-16777216
102
RTVSPost2010PropOp51
 70
     0
102
RTVSPost2010Prop52
140
1.0
102
RTVSPost2010PropOp52
 70
     0
102
RTVSPost2010Prop53
 90
        2
102
RTVSPost2010PropOp53
 70
     1
102
RTVSPost2010Prop54
  1
strokes_ogs.tif
102
RTVSPost2010PropOp54
 70
     1
102
RTVSPost2010Prop55
280
     0
102
RTVSPost2010PropOp55
 70
     1
102
RTVSPost2010Prop56
140
1.0
102
RTVSPost2010PropOp56
 70
     1
102
RTVSPost2010Prop57
140
1.0
102
RTVSPost2010PropOp57
 70
     1
  0
XRECORD
  5
19E
102
{ACAD_REACTORS
330
19D
102
}
330
19D
100
AcDbXrecord
280
     1
102
RTVSPost2010Prop28
280
     0
102
RTVSPost2010PropOp28
 70
     1
102
RTVSPost2010Prop29
280
     1
102
RTVSPost2010PropOp29
 70
     1
102
RTVSPost2010Prop30
280
     1
102
RTVSPost2010PropOp30
 70
     1
102
RTVSPost2010Prop31
280
     0
102
RTVSPost2010PropOp31
 70
     1
102
RTVSPost2010Prop32
280
     0
102
RTVSPost2010PropOp32
 70
     1
102
RTVSPost2010Prop33
280
     0
102
RTVSPost2010PropOp33
 70
     1
102
RTVSPost2010Prop34
280
     0
102
RTVSPost2010PropOp34
 70
     1
102
RTVSPost2010Prop35
280
     0
102
RTVSPost2010PropOp35
 70
     1
102
RTVSPost2010Prop36
280
     0
102
RTVSPost2010PropOp36
 70
     1
102
RTVSPost2010Prop37
 90
       50
102
RTVSPost2010PropOp37
 70
     1
102
RTVSPost2010Prop38
140
0.0
102
RTVSPost2010PropOp38
 70
     1
102
RTVSPost2010Prop39
140
1.0
102
RTVSPost2010PropOp39
 70
     1
102
RTVSPost2010Prop40
 90
        0
102
RTVSPost2010PropOp40
 70
     1
102
RTVSPost2010Prop41ColorIndex
 90
       18
102
RTVSPost2010Prop41ColorRGB
 90
        0
102
RTVSPost2010PropOp41
 70
     1
102
RTVSPost2010Prop42
 90
       50
102
RTVSPost2010PropOp42
 70
     1
102
RTVSPost2010Prop43
 90
        3
102
RTVSPost2010PropOp43
 70
     1
102
RTVSPost2010Prop44ColorIndex
 90
        5
102
RTVSPost2010Prop44ColorRGB
 90
      255
102
RTVSPost2010PropOp44
 70
     1
102
RTVSPost2010Prop45
280
     0
102
RTVSPost2010PropOp45
 70
     1
102
RTVSPost2010Prop46
 90
       50
102
RTVSPost2010PropOp46
 70
     1
102
RTVSPost2010Prop47
 90
       50
102
RTVSPost2010PropOp47
 70
     1
102
RTVSPost2010Prop48
 90
       50
102
RTVSPost2010PropOp48
 70
     1
102
RTVSPost2010Prop49
280
     0
102
RTVSPost2010PropOp49
 70
     1
102
RTVSPost2010Prop50
 90
       50
102
RTVSPost2010PropOp50
 70
     1
102
RTVSPost2010Prop51ColorIndex
 90
      256
102
RTVSPost2010Prop51ColorRGB
 90
-16777216
102
RTVSPost2010PropOp51
 70
     0
102
RTVSPost2010Prop52
140
1.0
102
RTVSPost2010PropOp52
 70
     0
102
RTVSPost2010Prop53
 90
        2
102
RTVSPost2010PropOp53
 70
     1
102
RTVSPost2010Prop54
  1
strokes_ogs.tif
102
RTVSPost2010PropOp54
 70
     1
102
RTVSPost2010Prop55
280
     0
102
RTVSPost2010PropOp55
 70
     1
102
RTVSPost2010Prop56
140
1.0
102
RTVSPost2010PropOp56
 70
     1
102
RTVSPost2010Prop57
140
1.0
102
RTVSPost2010PropOp57
 70
     1
  0
XRECORD
  5
198
102
{ACAD_REACTORS
330
197
102
}
330
197
100
AcDbXrecord
280
     1
102
RTVSPost2010Prop28
280
     0
102
RTVSPost2010PropOp28
 70
     1
102
RTVSPost2010Prop29
280
     1
102
RTVSPost2010PropOp29
 70
     1
102
RTVSPost2010Prop30
280
     1
102
RTVSPost2010PropOp30
 70
     1
102
RTVSPost2010Prop31
280
     0
102
RTVSPost2010PropOp31
 70
     1
102
RTVSPost2010Prop32
280
     0
102
RTVSPost2010PropOp32
 70
     1
102
RTVSPost2010Prop33
280
     0
102
RTVSPost2010PropOp33
 70
     1
102
RTVSPost2010Prop34
280
     0
102
RTVSPost2010PropOp34
 70
     1
102
RTVSPost2010Prop35
280
     0
102
RTVSPost2010PropOp35
 70
     1
102
RTVSPost2010Prop36
280
     0
102
RTVSPost2010PropOp36
 70
     1
102
RTVSPost2010Prop37
 90
       50
102
RTVSPost2010PropOp37
 70
     1
102
RTVSPost2010Prop38
140
0.0
102
RTVSPost2010PropOp38
 70
     1
102
RTVSPost2010Prop39
140
1.0
102
RTVSPost2010PropOp39
 70
     1
102
RTVSPost2010Prop40
 90
        0
102
RTVSPost2010PropOp40
 70
     1
102
RTVSPost2010Prop41ColorIndex
 90
       18
102
RTVSPost2010Prop41ColorRGB
 90
        0
102
RTVSPost2010PropOp41
 70
     1
102
RTVSPost2010Prop42
 90
       50
102
RTVSPost2010PropOp42
 70
     1
102
RTVSPost2010Prop43
 90
        3
102
RTVSPost2010PropOp43
 70
     1
102
RTVSPost2010Prop44ColorIndex
 90
        5
102
RTVSPost2010Prop44ColorRGB
 90
      255
102
RTVSPost2010PropOp44
 70
     1
102
RTVSPost2010Prop45
280
     0
102
RTVSPost2010PropOp45
 70
     1
102
RTVSPost2010Prop46
 90
       50
102
RTVSPost2010PropOp46
 70
     1
102
RTVSPost2010Prop47
 90
       50
102
RTVSPost2010PropOp47
 70
     1
102
RTVSPost2010Prop48
 90
       50
102
RTVSPost2010PropOp48
 70
     1
102
RTVSPost2010Prop49
280
     0
102
RTVSPost2010PropOp49
 70
     1
102
RTVSPost2010Prop50
 90
       50
102
RTVSPost2010PropOp50
 70
     1
102
RTVSPost2010Prop51ColorIndex
 90
      256
102
RTVSPost2010Prop51ColorRGB
 90
-16777216
102
RTVSPost2010PropOp51
 70
     0
102
RTVSPost2010Prop52
140
1.0
102
RTVSPost2010PropOp52
 70
     0
102
RTVSPost2010Prop53
 90
        2
102
RTVSPost2010PropOp53
 70
     1
102
RTVSPost2010Prop54
  1
strokes_ogs.tif
102
RTVSPost2010PropOp54
 70
     1
102
RTVSPost2010Prop55
280
     0
102
RTVSPost2010PropOp55
 70
     1
102
RTVSPost2010Prop56
140
1.0
102
RTVSPost2010PropOp56
 70
     1
102
RTVSPost2010Prop57
140
1.0
102
RTVSPost2010PropOp57
 70
     1
  0
XRECORD
  5
19A
102
{ACAD_REACTORS
330
199
102
}
330
199
100
AcDbXrecord
280
     1
102
RTVSPost2010Prop28
280
     0
102
RTVSPost2010PropOp28
 70
     1
102
RTVSPost2010Prop29
280
     1
102
RTVSPost2010PropOp29
 70
     1
102
RTVSPost2010Prop30
280
     1
102
RTVSPost2010PropOp30
 70
     1
102
RTVSPost2010Prop31
280
     0
102
RTVSPost2010PropOp31
 70
     1
102
RTVSPost2010Prop32
280
     0
102
RTVSPost2010PropOp32
 70
     1
102
RTVSPost2010Prop33
280
     0
102
RTVSPost2010PropOp33
 70
     1
102
RTVSPost2010Prop34
280
     0
102
RTVSPost2010PropOp34
 70
     1
102
RTVSPost2010Prop35
280
     0
102
RTVSPost2010PropOp35
 70
     1
102
RTVSPost2010Prop36
280
     0
102
RTVSPost2010PropOp36
 70
     1
102
RTVSPost2010Prop37
 90
       50
102
RTVSPost2010PropOp37
 70
     1
102
RTVSPost2010Prop38
140
0.0
102
RTVSPost2010PropOp38
 70
     1
102
RTVSPost2010Prop39
140
1.0
102
RTVSPost2010PropOp39
 70
     1
102
RTVSPost2010Prop40
 90
        0
102
RTVSPost2010PropOp40
 70
     1
102
RTVSPost2010Prop41ColorIndex
 90
       18
102
RTVSPost2010Prop41ColorRGB
 90
        0
102
RTVSPost2010PropOp41
 70
     1
102
RTVSPost2010Prop42
 90
       50
102
RTVSPost2010PropOp42
 70
     1
102
RTVSPost2010Prop43
 90
        3
102
RTVSPost2010PropOp43
 70
     1
102
RTVSPost2010Prop44ColorIndex
 90
        5
102
RTVSPost2010Prop44ColorRGB
 90
      255
102
RTVSPost2010PropOp44
 70
     1
102
RTVSPost2010Prop45
280
     0
102
RTVSPost2010PropOp45
 70
     1
102
RTVSPost2010Prop46
 90
       50
102
RTVSPost2010PropOp46
 70
     1
102
RTVSPost2010Prop47
 90
       50
102
RTVSPost2010PropOp47
 70
     1
102
RTVSPost2010Prop48
 90
       50
102
RTVSPost2010PropOp48
 70
     1
102
RTVSPost2010Prop49
280
     0
102
RTVSPost2010PropOp49
 70
     1
102
RTVSPost2010Prop50
 90
       50
102
RTVSPost2010PropOp50
 70
     1
102
RTVSPost2010Prop51ColorIndex
 90
      256
102
RTVSPost2010Prop51ColorRGB
 90
-16777216
102
RTVSPost2010PropOp51
 70
     0
102
RTVSPost2010Prop52
140
1.0
102
RTVSPost2010PropOp52
 70
     0
102
RTVSPost2010Prop53
 90
        2
102
RTVSPost2010PropOp53
 70
     1
102
RTVSPost2010Prop54
  1
strokes_ogs.tif
102
RTVSPost2010PropOp54
 70
     1
102
RTVSPost2010Prop55
280
     0
102
RTVSPost2010PropOp55
 70
     1
102
RTVSPost2010Prop56
140
1.0
102
RTVSPost2010PropOp56
 70
     1
102
RTVSPost2010Prop57
140
1.0
102
RTVSPost2010PropOp57
 70
     1
  0
XRECORD
  5
190
102
{ACAD_REACTORS
330
18F
102
}
330
18F
100
AcDbXrecord
280
     1
102
RTVSPost2010Prop28
280
     0
102
RTVSPost2010PropOp28
 70
     1
102
RTVSPost2010Prop29
280
     1
102
RTVSPost2010PropOp29
 70
     1
102
RTVSPost2010Prop30
280
     1
102
RTVSPost2010PropOp30
 70
     1
102
RTVSPost2010Prop31
280
     0
102
RTVSPost2010PropOp31
 70
     1
102
RTVSPost2010Prop32
280
     0
102
RTVSPost2010PropOp32
 70
     1
102
RTVSPost2010Prop33
280
     0
102
RTVSPost2010PropOp33
 70
     1
102
RTVSPost2010Prop34
280
     0
102
RTVSPost2010PropOp34
 70
     1
102
RTVSPost2010Prop35
280
     0
102
RTVSPost2010PropOp35
 70
     1
102
RTVSPost2010Prop36
280
     0
102
RTVSPost2010PropOp36
 70
     1
102
RTVSPost2010Prop37
 90
       50
102
RTVSPost2010PropOp37
 70
     1
102
RTVSPost2010Prop38
140
0.0
102
RTVSPost2010PropOp38
 70
     1
102
RTVSPost2010Prop39
140
1.0
102
RTVSPost2010PropOp39
 70
     1
102
RTVSPost2010Prop40
 90
        0
102
RTVSPost2010PropOp40
 70
     1
102
RTVSPost2010Prop41ColorIndex
 90
       18
102
RTVSPost2010Prop41ColorRGB
 90
        0
102
RTVSPost2010PropOp41
 70
     1
102
RTVSPost2010Prop42
 90
       50
102
RTVSPost2010PropOp42
 70
     1
102
RTVSPost2010Prop43
 90
        3
102
RTVSPost2010PropOp43
 70
     1
102
RTVSPost2010Prop44ColorIndex
 90
        5
102
RTVSPost2010Prop44ColorRGB
 90
      255
102
RTVSPost2010PropOp44
 70
     1
102
RTVSPost2010Prop45
280
     0
102
RTVSPost2010PropOp45
 70
     1
102
RTVSPost2010Prop46
 90
       50
102
RTVSPost2010PropOp46
 70
     1
102
RTVSPost2010Prop47
 90
       50
102
RTVSPost2010PropOp47
 70
     1
102
RTVSPost2010Prop48
 90
       50
102
RTVSPost2010PropOp48
 70
     1
102
RTVSPost2010Prop49
280
     0
102
RTVSPost2010PropOp49
 70
     1
102
RTVSPost2010Prop50
 90
       50
102
RTVSPost2010PropOp50
 70
     1
102
RTVSPost2010Prop51ColorIndex
 90
      256
102
RTVSPost2010Prop51ColorRGB
 90
-16777216
102
RTVSPost2010PropOp51
 70
     0
102
RTVSPost2010Prop52
140
1.0
102
RTVSPost2010PropOp52
 70
     0
102
RTVSPost2010Prop53
 90
        2
102
RTVSPost2010PropOp53
 70
     1
102
RTVSPost2010Prop54
  1
strokes_ogs.tif
102
RTVSPost2010PropOp54
 70
     1
102
RTVSPost2010Prop55
280
     0
102
RTVSPost2010PropOp55
 70
     1
102
RTVSPost2010Prop56
140
1.0
102
RTVSPost2010PropOp56
 70
     1
102
RTVSPost2010Prop57
140
1.0
102
RTVSPost2010PropOp57
 70
     1
  0
XRECORD
  5
184
102
{ACAD_REACTORS
330
183
102
}
330
183
100
AcDbXrecord
280
     1
102
RTVSPost2010Prop28
280
     0
102
RTVSPost2010PropOp28
 70
     1
102
RTVSPost2010Prop29
280
     1
102
RTVSPost2010PropOp29
 70
     1
102
RTVSPost2010Prop30
280
     1
102
RTVSPost2010PropOp30
 70
     1
102
RTVSPost2010Prop31
280
     0
102
RTVSPost2010PropOp31
 70
     1
102
RTVSPost2010Prop32
280
     0
102
RTVSPost2010PropOp32
 70
     1
102
RTVSPost2010Prop33
280
     0
102
RTVSPost2010PropOp33
 70
     1
102
RTVSPost2010Prop34
280
     0
102
RTVSPost2010PropOp34
 70
     1
102
RTVSPost2010Prop35
280
     0
102
RTVSPost2010PropOp35
 70
     1
102
RTVSPost2010Prop36
280
     0
102
RTVSPost2010PropOp36
 70
     1
102
RTVSPost2010Prop37
 90
       50
102
RTVSPost2010PropOp37
 70
     1
102
RTVSPost2010Prop38
140
0.0
102
RTVSPost2010PropOp38
 70
     1
102
RTVSPost2010Prop39
140
1.0
102
RTVSPost2010PropOp39
 70
     1
102
RTVSPost2010Prop40
 90
        0
102
RTVSPost2010PropOp40
 70
     1
102
RTVSPost2010Prop41ColorIndex
 90
       18
102
RTVSPost2010Prop41ColorRGB
 90
        0
102
RTVSPost2010PropOp41
 70
     1
102
RTVSPost2010Prop42
 90
       50
102
RTVSPost2010PropOp42
 70
     1
102
RTVSPost2010Prop43
 90
        3
102
RTVSPost2010PropOp43
 70
     1
102
RTVSPost2010Prop44ColorIndex
 90
        5
102
RTVSPost2010Prop44ColorRGB
 90
      255
102
RTVSPost2010PropOp44
 70
     1
102
RTVSPost2010Prop45
280
     0
102
RTVSPost2010PropOp45
 70
     1
102
RTVSPost2010Prop46
 90
       50
102
RTVSPost2010PropOp46
 70
     1
102
RTVSPost2010Prop47
 90
       50
102
RTVSPost2010PropOp47
 70
     1
102
RTVSPost2010Prop48
 90
       50
102
RTVSPost2010PropOp48
 70
     1
102
RTVSPost2010Prop49
280
     0
102
RTVSPost2010PropOp49
 70
     1
102
RTVSPost2010Prop50
 90
       50
102
RTVSPost2010PropOp50
 70
     1
102
RTVSPost2010Prop51ColorIndex
 90
      256
102
RTVSPost2010Prop51ColorRGB
 90
-16777216
102
RTVSPost2010PropOp51
 70
     0
102
RTVSPost2010Prop52
140
1.0
102
RTVSPost2010PropOp52
 70
     0
102
RTVSPost2010Prop53
 90
        2
102
RTVSPost2010PropOp53
 70
     1
102
RTVSPost2010Prop54
  1
strokes_ogs.tif
102
RTVSPost2010PropOp54
 70
     1
102
RTVSPost2010Prop55
280
     0
102
RTVSPost2010PropOp55
 70
     1
102
RTVSPost2010Prop56
140
1.0
102
RTVSPost2010PropOp56
 70
     1
102
RTVSPost2010Prop57
140
1.0
102
RTVSPost2010PropOp57
 70
     1
  0
XRECORD
  5
19C
102
{ACAD_REACTORS
330
19B
102
}
330
19B
100
AcDbXrecord
280
     1
102
RTVSPost2010Prop28
280
     0
102
RTVSPost2010PropOp28
 70
     1
102
RTVSPost2010Prop29
280
     1
102
RTVSPost2010PropOp29
 70
     1
102
RTVSPost2010Prop30
280
     1
102
RTVSPost2010PropOp30
 70
     1
102
RTVSPost2010Prop31
280
     0
102
RTVSPost2010PropOp31
 70
     1
102
RTVSPost2010Prop32
280
     0
102
RTVSPost2010PropOp32
 70
     1
102
RTVSPost2010Prop33
280
     0
102
RTVSPost2010PropOp33
 70
     1
102
RTVSPost2010Prop34
280
     0
102
RTVSPost2010PropOp34
 70
     1
102
RTVSPost2010Prop35
280
     0
102
RTVSPost2010PropOp35
 70
     1
102
RTVSPost2010Prop36
280
     0
102
RTVSPost2010PropOp36
 70
     1
102
RTVSPost2010Prop37
 90
       50
102
RTVSPost2010PropOp37
 70
     1
102
RTVSPost2010Prop38
140
0.0
102
RTVSPost2010PropOp38
 70
     1
102
RTVSPost2010Prop39
140
1.0
102
RTVSPost2010PropOp39
 70
     1
102
RTVSPost2010Prop40
 90
        0
102
RTVSPost2010PropOp40
 70
     1
102
RTVSPost2010Prop41ColorIndex
 90
       18
102
RTVSPost2010Prop41ColorRGB
 90
        0
102
RTVSPost2010PropOp41
 70
     1
102
RTVSPost2010Prop42
 90
       50
102
RTVSPost2010PropOp42
 70
     1
102
RTVSPost2010Prop43
 90
        3
102
RTVSPost2010PropOp43
 70
     1
102
RTVSPost2010Prop44ColorIndex
 90
        5
102
RTVSPost2010Prop44ColorRGB
 90
      255
102
RTVSPost2010PropOp44
 70
     1
102
RTVSPost2010Prop45
280
     0
102
RTVSPost2010PropOp45
 70
     1
102
RTVSPost2010Prop46
 90
       50
102
RTVSPost2010PropOp46
 70
     1
102
RTVSPost2010Prop47
 90
       50
102
RTVSPost2010PropOp47
 70
     1
102
RTVSPost2010Prop48
 90
       50
102
RTVSPost2010PropOp48
 70
     1
102
RTVSPost2010Prop49
280
     0
102
RTVSPost2010PropOp49
 70
     1
102
RTVSPost2010Prop50
 90
       50
102
RTVSPost2010PropOp50
 70
     1
102
RTVSPost2010Prop51ColorIndex
 90
      256
102
RTVSPost2010Prop51ColorRGB
 90
-16777216
102
RTVSPost2010PropOp51
 70
     0
102
RTVSPost2010Prop52
140
1.0
102
RTVSPost2010PropOp52
 70
     0
102
RTVSPost2010Prop53
 90
        2
102
RTVSPost2010PropOp53
 70
     1
102
RTVSPost2010Prop54
  1
strokes_ogs.tif
102
RTVSPost2010PropOp54
 70
     1
102
RTVSPost2010Prop55
280
     0
102
RTVSPost2010PropOp55
 70
     1
102
RTVSPost2010Prop56
140
1.0
102
RTVSPost2010PropOp56
 70
     1
102
RTVSPost2010Prop57
140
1.0
102
RTVSPost2010PropOp57
 70
     1
  0
ENDSEC
  0
EOF
