  0
SECTION
  2
HEADER
  9
$ACADVER
  1
AC1024
  9
$ACADMAINTVER
 70
   226
  9
$DWGCODEPAGE
  3
ANSI_932
  9
$INSBASE
 10
0.0
 20
0.0
 30
0.0
  9
$EXTMIN
 10
1.000000000000000E+20
 20
1.000000000000000E+20
 30
1.000000000000000E+20
  9
$EXTMAX
 10
-1.000000000000000E+20
 20
-1.000000000000000E+20
 30
-1.000000000000000E+20
  9
$LIMMIN
 10
0.0
 20
0.0
  9
$LIMMAX
 10
12.0
 20
9.0
  9
$ORTHOMODE
 70
     0
  9
$REGENMODE
 70
     1
  9
$FILLMODE
 70
     1
  9
$QTEXTMODE
 70
     0
  9
$MIRRTEXT
 70
     0
  9
$LTSCALE
 40
1.0
  9
$ATTMODE
 70
     1
  9
$TEXTSIZE
 40
0.2
  9
$TRACEWID
 40
0.05
  9
$TEXTSTYLE
  7
Standard
  9
$CLAYER
  8
0
  9
$CELTYPE
  6
ByLayer
  9
$CECOLOR
 62
   256
  9
$CELTSCALE
 40
1.0
  9
$DISPSILH
 70
     0
  9
$DIMSCALE
 40
1.0
  9
$DIMASZ
 40
0.18
  9
$DIMEXO
 40
0.0625
  9
$DIMDLI
 40
0.38
  9
$DIMRND
 40
0.0
  9
$DIMDLE
 40
0.0
  9
$DIMEXE
 40
0.18
  9
$DIMTP
 40
0.0
  9
$DIMTM
 40
0.0
  9
$DIMTXT
 40
0.18
  9
$DIMCEN
 40
0.09
  9
$DIMTSZ
 40
0.0
  9
$DIMTOL
 70
     0
  9
$DIMLIM
 70
     0
  9
$DIMTIH
 70
     1
  9
$DIMTOH
 70
     1
  9
$DIMSE1
 70
     0
  9
$DIMSE2
 70
     0
  9
$DIMTAD
 70
     0
  9
$DIMZIN
 70
     0
  9
$DIMBLK
  1

  9
$DIMASO
 70
     1
  9
$DIMSHO
 70
     1
  9
$DIMPOST
  1

  9
$DIMAPOST
  1

  9
$DIMALT
 70
     0
  9
$DIMALTD
 70
     2
  9
$DIMALTF
 40
25.4
  9
$DIMLFAC
 40
1.0
  9
$DIMTOFL
 70
     0
  9
$DIMTVP
 40
0.0
  9
$DIMTIX
 70
     0
  9
$DIMSOXD
 70
     0
  9
$DIMSAH
 70
     0
  9
$DIMBLK1
  1

  9
$DIMBLK2
  1

  9
$DIMSTYLE
  2
Standard
  9
$DIMCLRD
 70
     0
  9
$DIMCLRE
 70
     0
  9
$DIMCLRT
 70
     0
  9
$DIMTFAC
 40
1.0
  9
$DIMGAP
 40
0.09
  9
$DIMJUST
 70
     0
  9
$DIMSD1
 70
     0
  9
$DIMSD2
 70
     0
  9
$DIMTOLJ
 70
     1
  9
$DIMTZIN
 70
     0
  9
$DIMALTZ
 70
     0
  9
$DIMALTTZ
 70
     0
  9
$DIMUPT
 70
     0
  9
$DIMDEC
 70
     4
  9
$DIMTDEC
 70
     4
  9
$DIMALTU
 70
     2
  9
$DIMALTTD
 70
     2
  9
$DIMTXSTY
  7
Standard
  9
$DIMAUNIT
 70
     0
  9
$DIMADEC
 70
     0
  9
$DIMALTRND
 40
0.0
  9
$DIMAZIN
 70
     0
  9
$DIMDSEP
 70
    46
  9
$DIMATFIT
 70
     3
  9
$DIMFRAC
 70
     0
  9
$DIMLDRBLK
  1

  9
$DIMLUNIT
 70
     2
  9
$DIMLWD
 70
    -2
  9
$DIMLWE
 70
    -2
  9
$DIMTMOVE
 70
     0
  9
$DIMFXL
 40
1.0
  9
$DIMFXLON
 70
     0
  9
$DIMJOGANG
 40
0.7853981633974483
  9
$DIMTFILL
 70
     0
  9
$DIMTFILLCLR
 70
     0
  9
$DIMARCSYM
 70
     0
  9
$DIMLTYPE
  6

  9
$DIMLTEX1
  6

  9
$DIMLTEX2
  6

  9
$DIMTXTDIRECTION
 70
     0
  9
$LUNITS
 70
     2
  9
$LUPREC
 70
     4
  9
$SKETCHINC
 40
0.1
  9
$FILLETRAD
 40
0.0
  9
$AUNITS
 70
     0
  9
$AUPREC
 70
     0
  9
$MENU
  1
.
  9
$ELEVATION
 40
0.0
  9
$PELEVATION
 40
0.0
  9
$THICKNESS
 40
0.0
  9
$LIMCHECK
 70
     0
  9
$CHAMFERA
 40
0.0
  9
$CHAMFERB
 40
0.0
  9
$CHAMFERC
 40
0.0
  9
$CHAMFERD
 40
0.0
  9
$SKPOLY
 70
     0
  9
$TDCREATE
 40
2459569.503587963
  9
$TDUCREATE
 40
2459569.128587963
  9
$TDUPDATE
 40
2459569.503587963
  9
$TDUUPDATE
 40
2459569.128587963
  9
$TDINDWG
 40
0.0000000000
  9
$TDUSRTIMER
 40
0.0000000000
  9
$USRTIMER
 70
     1
  9
$ANGBASE
 50
0.0
  9
$ANGDIR
 70
     0
  9
$PDMODE
 70
     0
  9
$PDSIZE
 40
0.0
  9
$PLINEWID
 40
0.0
  9
$SPLFRAME
 70
     0
  9
$SPLINETYPE
 70
     6
  9
$SPLINESEGS
 70
     8
  9
$HANDSEED
  5
1E0
  9
$SURFTAB1
 70
     6
  9
$SURFTAB2
 70
     6
  9
$SURFTYPE
 70
     6
  9
$SURFU
 70
     6
  9
$SURFV
 70
     6
  9
$UCSBASE
  2

  9
$UCSNAME
  2

  9
$UCSORG
 10
0.0
 20
0.0
 30
0.0
  9
$UCSXDIR
 10
1.0
 20
0.0
 30
0.0
  9
$UCSYDIR
 10
0.0
 20
1.0
 30
0.0
  9
$UCSORTHOREF
  2

  9
$UCSORTHOVIEW
 70
     0
  9
$UCSORGTOP
 10
0.0
 20
0.0
 30
0.0
  9
$UCSORGBOTTOM
 10
0.0
 20
0.0
 30
0.0
  9
$UCSORGLEFT
 10
0.0
 20
0.0
 30
0.0
  9
$UCSORGRIGHT
 10
0.0
 20
0.0
 30
0.0
  9
$UCSORGFRONT
 10
0.0
 20
0.0
 30
0.0
  9
$UCSORGBACK
 10
0.0
 20
0.0
 30
0.0
  9
$PUCSBASE
  2

  9
$PUCSNAME
  2

  9
$PUCSORG
 10
0.0
 20
0.0
 30
0.0
  9
$PUCSXDIR
 10
1.0
 20
0.0
 30
0.0
  9
$PUCSYDIR
 10
0.0
 20
1.0
 30
0.0
  9
$PUCSORTHOREF
  2

  9
$PUCSORTHOVIEW
 70
     0
  9
$PUCSORGTOP
 10
0.0
 20
0.0
 30
0.0
  9
$PUCSORGBOTTOM
 10
0.0
 20
0.0
 30
0.0
  9
$PUCSORGLEFT
 10
0.0
 20
0.0
 30
0.0
  9
$PUCSORGRIGHT
 10
0.0
 20
0.0
 30
0.0
  9
$PUCSORGFRONT
 10
0.0
 20
0.0
 30
0.0
  9
$PUCSORGBACK
 10
0.0
 20
0.0
 30
0.0
  9
$USERI1
 70
     0
  9
$USERI2
 70
     0
  9
$USERI3
 70
     0
  9
$USERI4
 70
     0
  9
$USERI5
 70
     0
  9
$USERR1
 40
0.0
  9
$USERR2
 40
0.0
  9
$USERR3
 40
0.0
  9
$USERR4
 40
0.0
  9
$USERR5
 40
0.0
  9
$WORLDVIEW
 70
     1
  9
$SHADEDGE
 70
     3
  9
$SHADEDIF
 70
    70
  9
$TILEMODE
 70
     1
  9
$MAXACTVP
 70
    64
  9
$PINSBASE
 10
0.0
 20
0.0
 30
0.0
  9
$PLIMCHECK
 70
     0
  9
$PEXTMIN
 10
1.000000000000000E+20
 20
1.000000000000000E+20
 30
1.000000000000000E+20
  9
$PEXTMAX
 10
-1.000000000000000E+20
 20
-1.000000000000000E+20
 30
-1.000000000000000E+20
  9
$PLIMMIN
 10
0.0
 20
0.0
  9
$PLIMMAX
 10
12.0
 20
9.0
  9
$UNITMODE
 70
     0
  9
$VISRETAIN
 70
     1
  9
$PLINEGEN
 70
     0
  9
$PSLTSCALE
 70
     1
  9
$TREEDEPTH
 70
  3020
  9
$CMLSTYLE
  2
Standard
  9
$CMLJUST
 70
     0
  9
$CMLSCALE
 40
1.0
  9
$PROXYGRAPHICS
 70
     1
  9
$MEASUREMENT
 70
     0
  9
$CELWEIGHT
370
    -1
  9
$ENDCAPS
280
     0
  9
$JOINSTYLE
280
     0
  9
$LWDISPLAY
290
     1
  9
$INSUNITS
 70
     4
  9
$HYPERLINKBASE
  1

  9
$STYLESHEET
  1

  9
$XEDIT
290
     1
  9
$CEPSNTYPE
380
     0
  9
$PSTYLEMODE
290
     1
  9
$FINGERPRINTGUID
  2
{4C0BED8A-75F7-AC43-ADB3-915FBA9A2DE2}
  9
$VERSIONGUID
  2
{0B2CDCE5-81A5-0B43-8B59-5C742AFAE202}
  9
$EXTNAMES
290
     1
  9
$PSVPSCALE
 40
0.0
  9
$OLESTARTUP
290
     0
  9
$SORTENTS
280
   127
  9
$INDEXCTL
280
     0
  9
$HIDETEXT
280
     1
  9
$XCLIPFRAME
280
     2
  9
$HALOGAP
280
     0
  9
$OBSCOLOR
 70
   257
  9
$OBSLTYPE
280
     0
  9
$INTERSECTIONDISPLAY
280
     0
  9
$INTERSECTIONCOLOR
 70
   257
  9
$DIMASSOC
280
     2
  9
$PROJECTNAME
  1

  9
$CAMERADISPLAY
290
     0
  9
$LENSLENGTH
 40
50.0
  9
$CAMERAHEIGHT
 40
0.0
  9
$STEPSPERSEC
 40
2.0
  9
$STEPSIZE
 40
6.0
  9
$3DDWFPREC
 40
2.0
  9
$PSOLWIDTH
 40
0.25
  9
$PSOLHEIGHT
 40
4.0
  9
$LOFTANG1
 40
1.570796326794896
  9
$LOFTANG2
 40
1.570796326794896
  9
$LOFTMAG1
 40
0.0
  9
$LOFTMAG2
 40
0.0
  9
$LOFTPARAM
 70
     7
  9
$LOFTNORMALS
280
     1
  9
$LATITUDE
 40
37.795
  9
$LONGITUDE
 40
-122.394
  9
$NORTHDIRECTION
 40
0.0
  9
$TIMEZONE
 70
 -8000
  9
$LIGHTGLYPHDISPLAY
280
     1
  9
$TILEMODELIGHTSYNCH
280
     1
  9
$CMATERIAL
347
11
  9
$SOLIDHIST
280
     0
  9
$SHOWHIST
280
     1
  9
$DWFFRAME
280
     2
  9
$DGNFRAME
280
     0
  9
$REALWORLDSCALE
290
     1
  9
$INTERFERECOLOR
 62
     1
  9
$INTERFEREOBJVS
345
33
  9
$INTERFEREVPVS
346
30
  9
$CSHADOW
280
     0
  9
$SHADOWPLANELOCATION
 40
0.0
  0
ENDSEC
  0
SECTION
  2
CLASSES
  0
CLASS
  1
ACDBDICTIONARYWDFLT
  2
AcDbDictionaryWithDefault
  3
ObjectDBX Classes
 90
        0
 91
        1
280
     0
281
     0
  0
CLASS
  1
MATERIAL
  2
AcDbMaterial
  3
ObjectDBX Classes
 90
     1153
 91
        3
280
     0
281
     0
  0
CLASS
  1
VISUALSTYLE
  2
AcDbVisualStyle
  3
ObjectDBX Classes
 90
     4095
 91
       24
280
     0
281
     0
  0
CLASS
  1
SCALE
  2
AcDbScale
  3
ObjectDBX Classes
 90
     1153
 91
       17
280
     0
281
     0
  0
CLASS
  1
TABLESTYLE
  2
AcDbTableStyle
  3
ObjectDBX Classes
 90
     4095
 91
        1
280
     0
281
     0
  0
CLASS
  1
MLEADERSTYLE
  2
AcDbMLeaderStyle
  3
ACDB_MLEADERSTYLE_CLASS
 90
     4095
 91
        1
280
     0
281
     0
  0
CLASS
  1
ACDBSECTIONVIEWSTYLE
  2
AcDbSectionViewStyle
  3
ObjectDBX Classes
 90
     1025
 91
        1
280
     0
281
     0
  0
CLASS
  1
ACDBDETAILVIEWSTYLE
  2
AcDbDetailViewStyle
  3
ObjectDBX Classes
 90
     1025
 91
        1
280
     0
281
     0
  0
CLASS
  1
DICTIONARYVAR
  2
AcDbDictionaryVar
  3
ObjectDBX Classes
 90
        0
 91
        5
280
     0
281
     0
  0
CLASS
  1
CELLSTYLEMAP
  2
AcDbCellStyleMap
  3
ObjectDBX Classes
 90
     1152
 91
        1
280
     0
281
     0
  0
ENDSEC
  0
SECTION
  2
TABLES
  0
TABLE
  2
VPORT
  5
8
330
0
100
AcDbSymbolTable
 70
     1
  0
VPORT
  5
57
330
8
100
AcDbSymbolTableRecord
100
AcDbViewportTableRecord
  2
*Active
 70
     0
 10
0.0
 20
0.0
 11
1.0
 21
1.0
 12
0.0
 22
0.0
 13
0.0
 23
0.0
 14
1.0
 24
1.0
 15
0.0
 25
0.0
 16
0.0
 26
0.0
 36
1.0
 17
104.9999999737534
 27
-148.4999999628701
 37
0.0
 40
302.939999924255
 41
0.7070707070707534
 42
50.0
 43
0.0
 44
0.0
 50
0.0
 51
0.0
 71
     0
 72
   100
 73
     1
 74
     0
 75
     1
 76
     0
 77
     0
 78
     0
281
     0
 65
     1
110
0.0
120
0.0
130
0.0
111
1.0
121
0.0
131
0.0
112
0.0
122
1.0
132
0.0
 79
     0
146
0.0
 60
     3
 61
     5
292
     1
282
     1
141
0.0
142
0.0
 63
   250
421
  3355443
  0
ENDTAB
  0
TABLE
  2
LTYPE
  5
5
330
0
100
AcDbSymbolTable
 70
     3
  0
LTYPE
  5
5B
330
5
100
AcDbSymbolTableRecord
100
AcDbLinetypeTableRecord
  2
ByBlock
 70
     0
  3

 72
    65
 73
     0
 40
0.0
  0
LTYPE
  5
5C
330
5
100
AcDbSymbolTableRecord
100
AcDbLinetypeTableRecord
  2
ByLayer
 70
     0
  3

 72
    65
 73
     0
 40
0.0
  0
LTYPE
  5
5D
330
5
100
AcDbSymbolTableRecord
100
AcDbLinetypeTableRecord
  2
Continuous
 70
     0
  3
Solid line
 72
    65
 73
     0
 40
0.0
  0
LTYPE
  5
7A
330
5
100
AcDbSymbolTableRecord
100
AcDbLinetypeTableRecord
  2
AI-Linetype-0
 70
     0
  3
Adobe Illustrator Linetype No. 0
 72
    65
 73
     2
 40
1.411111110758333
 49
0.7055555553791667
 74
     0
 49
-0.7055555553791667
 74
     0
  0
LTYPE
  5
7C
330
5
100
AcDbSymbolTableRecord
100
AcDbLinetypeTableRecord
  2
AI-Linetype-1
 70
     0
  3
Adobe Illustrator Linetype No. 1
 72
    65
 73
     2
 40
1.411111110758333
 49
0.7055555553791667
 74
     0
 49
-0.7055555553791667
 74
     0
  0
ENDTAB
  0
TABLE
  2
LAYER
  5
2
330
0
100
AcDbSymbolTable
 70
     2
  0
LAYER
  5
54
330
2
100
AcDbSymbolTableRecord
100
AcDbLayerTableRecord
  2
0
 70
     0
 62
     7
  6
Continuous
370
    -3
390
F
347
21
  0
LAYER
  5
78
330
2
100
AcDbSymbolTableRecord
100
AcDbLayerTableRecord
  2
レイヤー 1
 70
     0
 62
     7
  6
Continuous
370
     0
390
F
347
21
  0
ENDTAB
  0
TABLE
  2
STYLE
  5
3
330
0
100
AcDbSymbolTable
 70
     2
  0
STYLE
  5
55
330
3
100
AcDbSymbolTableRecord
100
AcDbTextStyleTableRecord
  2
Standard
 70
     0
 40
0.0
 41
1.0
 50
0.0
 71
     0
 42
0.2
  3
txt
  4

  0
STYLE
  5
5A
330
3
100
AcDbSymbolTableRecord
100
AcDbTextStyleTableRecord
  2
Annotative
 70
     0
 40
0.0
 41
1.0
 50
0.0
 71
     0
 42
0.2
  3
txt
  4

1001
AcadAnnotative
1000
AnnotativeData
1002
{
1070
     1
1070
     1
1002
}
  0
ENDTAB
  0
TABLE
  2
VIEW
  5
6
330
0
100
AcDbSymbolTable
 70
     0
  0
ENDTAB
  0
TABLE
  2
UCS
  5
7
330
0
100
AcDbSymbolTable
 70
     0
  0
ENDTAB
  0
TABLE
  2
APPID
  5
9
330
0
100
AcDbSymbolTable
 70
     2
  0
APPID
  5
56
330
9
100
AcDbSymbolTableRecord
100
AcDbRegAppTableRecord
  2
ACAD
 70
     0
  0
APPID
  5
5E
330
9
100
AcDbSymbolTableRecord
100
AcDbRegAppTableRecord
  2
AcadAnnotative
 70
     0
  0
ENDTAB
  0
TABLE
  2
DIMSTYLE
  5
A
330
0
100
AcDbSymbolTable
 70
     2
100
AcDbDimStyleTable
 71
     0
  0
DIMSTYLE
105
58
330
A
100
AcDbSymbolTableRecord
100
AcDbDimStyleTableRecord
  2
Standard
 70
     0
340
55
  0
DIMSTYLE
105
59
330
A
100
AcDbSymbolTableRecord
100
AcDbDimStyleTableRecord
  2
Annotative
 70
     0
340
55
1001
AcadAnnotative
1000
AnnotativeData
1002
{
1070
     1
1070
     1
1002
}
  0
ENDTAB
  0
TABLE
  2
BLOCK_RECORD
  5
1
330
0
100
AcDbSymbolTable
 70
    18
  0
BLOCK_RECORD
  5
70
330
1
100
AcDbSymbolTableRecord
100
AcDbBlockTableRecord
  2
*Model_Space
340
73
 70
     0
280
     1
281
     0
  0
BLOCK_RECORD
  5
6C
330
1
100
AcDbSymbolTableRecord
100
AcDbBlockTableRecord
  2
*Paper_Space
340
6F
 70
     0
280
     1
281
     0
  0
BLOCK_RECORD
  5
74
330
1
100
AcDbSymbolTableRecord
100
AcDbBlockTableRecord
  2
*Paper_Space0
340
77
 70
     0
280
     1
281
     0
  0
BLOCK_RECORD
  5
E4
330
1
100
AcDbSymbolTableRecord
100
AcDbBlockTableRecord
  2
Block_0
340
0
102
{BLKREFS
331
E5
102
}
 70
     0
280
     1
281
     0
  0
BLOCK_RECORD
  5
E8
330
1
100
AcDbSymbolTableRecord
100
AcDbBlockTableRecord
  2
Block_1
340
0
102
{BLKREFS
331
E9
102
}
 70
     0
280
     1
281
     0
  0
BLOCK_RECORD
  5
F5
330
1
100
AcDbSymbolTableRecord
100
AcDbBlockTableRecord
  2
Block_2
340
0
102
{BLKREFS
331
F6
102
}
 70
     0
280
     1
281
     0
  0
BLOCK_RECORD
  5
F9
330
1
100
AcDbSymbolTableRecord
100
AcDbBlockTableRecord
  2
Block_3
340
0
102
{BLKREFS
331
FA
102
}
 70
     0
280
     1
281
     0
  0
BLOCK_RECORD
  5
103
330
1
100
AcDbSymbolTableRecord
100
AcDbBlockTableRecord
  2
Block_4
340
0
102
{BLKREFS
331
104
102
}
 70
     0
280
     1
281
     0
  0
BLOCK_RECORD
  5
10D
330
1
100
AcDbSymbolTableRecord
100
AcDbBlockTableRecord
  2
Block_5
340
0
102
{BLKREFS
331
10E
102
}
 70
     0
280
     1
281
     0
  0
BLOCK_RECORD
  5
111
330
1
100
AcDbSymbolTableRecord
100
AcDbBlockTableRecord
  2
Block_6
340
0
102
{BLKREFS
331
112
102
}
 70
     0
280
     1
281
     0
  0
BLOCK_RECORD
  5
11C
330
1
100
AcDbSymbolTableRecord
100
AcDbBlockTableRecord
  2
Block_7
340
0
102
{BLKREFS
331
11D
102
}
 70
     0
280
     1
281
     0
  0
BLOCK_RECORD
  5
120
330
1
100
AcDbSymbolTableRecord
100
AcDbBlockTableRecord
  2
Block_8
340
0
102
{BLKREFS
331
121
102
}
 70
     0
280
     1
281
     0
  0
BLOCK_RECORD
  5
12D
330
1
100
AcDbSymbolTableRecord
100
AcDbBlockTableRecord
  2
Block_9
340
0
102
{BLKREFS
331
12E
102
}
 70
     0
280
     1
281
     0
  0
BLOCK_RECORD
  5
131
330
1
100
AcDbSymbolTableRecord
100
AcDbBlockTableRecord
  2
Block_10
340
0
102
{BLKREFS
331
132
102
}
 70
     0
280
     1
281
     0
  0
BLOCK_RECORD
  5
13B
330
1
100
AcDbSymbolTableRecord
100
AcDbBlockTableRecord
  2
Block_11
340
0
102
{BLKREFS
331
13C
102
}
 70
     0
280
     1
281
     0
  0
BLOCK_RECORD
  5
141
330
1
100
AcDbSymbolTableRecord
100
AcDbBlockTableRecord
  2
Block_12
340
0
102
{BLKREFS
331
142
102
}
 70
     0
280
     1
281
     0
  0
BLOCK_RECORD
  5
17B
330
1
100
AcDbSymbolTableRecord
100
AcDbBlockTableRecord
  2
Block_13
340
0
102
{BLKREFS
331
17C
102
}
 70
     0
280
     1
281
     0
  0
BLOCK_RECORD
  5
17F
330
1
100
AcDbSymbolTableRecord
100
AcDbBlockTableRecord
  2
Block_14
340
0
102
{BLKREFS
331
180
102
}
 70
     0
280
     1
281
     0
  0
BLOCK_RECORD
  5
186
330
1
100
AcDbSymbolTableRecord
100
AcDbBlockTableRecord
  2
Block_15
340
0
102
{BLKREFS
331
187
102
}
 70
     0
280
     1
281
     0
  0
BLOCK_RECORD
  5
18A
330
1
100
AcDbSymbolTableRecord
100
AcDbBlockTableRecord
  2
Block_16
340
0
102
{BLKREFS
331
18B
102
}
 70
     0
280
     1
281
     0
  0
ENDTAB
  0
ENDSEC
  0
SECTION
  2
BLOCKS
  0
BLOCK
  5
71
330
70
100
AcDbEntity
  8
0
100
AcDbBlockBegin
  2
*Model_Space
 70
     0
 10
0.0
 20
0.0
 30
0.0
  3
*Model_Space
  1

  0
ENDBLK
  5
72
330
70
100
AcDbEntity
  8
0
100
AcDbBlockEnd
  0
BLOCK
  5
6D
330
6C
100
AcDbEntity
 67
     1
  8
0
100
AcDbBlockBegin
  2
*Paper_Space
 70
     0
 10
0.0
 20
0.0
 30
0.0
  3
*Paper_Space
  1

  0
ENDBLK
  5
6E
330
6C
100
AcDbEntity
 67
     1
  8
0
100
AcDbBlockEnd
  0
BLOCK
  5
75
330
74
100
AcDbEntity
 67
     1
  8
0
100
AcDbBlockBegin
  2
*Paper_Space0
 70
     0
 10
0.0
 20
0.0
 30
0.0
  3
*Paper_Space0
  1

  0
ENDBLK
  5
76
330
74
100
AcDbEntity
 67
     1
  8
0
100
AcDbBlockEnd
  0
BLOCK
  5
E6
330
E4
100
AcDbEntity
  8
0
100
AcDbBlockBegin
  2
Block_0
 70
     0
 10
0.0
 20
0.0
 30
0.0
  3
Block_0
  1

  0
INSERT
  5
E9
330
E4
100
AcDbEntity
  8
レイヤー 1
100
AcDbBlockReference
  2
Block_1
 10
0.0
 20
0.0
 30
0.0
  0
ENDBLK
  5
E7
330
E4
100
AcDbEntity
  8
0
100
AcDbBlockEnd
  0
BLOCK
  5
EA
330
E8
100
AcDbEntity
  8
0
100
AcDbBlockBegin
  2
Block_1
 70
     0
 10
0.0
 20
0.0
 30
0.0
  3
Block_1
  1

  0
SPLINE
  5
EC
330
E8
100
AcDbEntity
  8
レイヤー 1
100
AcDbSpline
210
0.0
220
0.0
230
1.0
 70
     9
 71
     3
 72
    17
 73
    13
 74
     0
 42
0.0000000001
 43
0.0000000001
 40
0.0
 40
0.0
 40
0.0
 40
0.0
 40
1.0
 40
1.0
 40
1.0
 40
2.0
 40
2.0
 40
2.0
 40
3.0
 40
3.0
 40
3.0
 40
4.0
 40
4.0
 40
4.0
 40
4.0
 10
60.9571750064621
 20
-146.9653618339184
 30
0.0
 10
60.9571750064621
 20
-147.215131256599
 30
0.0
 10
61.2405341101239
 20
-147.2616400456498
 30
0.0
 10
61.5853881681974
 20
-147.2616400456498
 30
0.0
 10
61.90492077445433
 20
-147.2616400456498
 30
0.0
 10
62.21377358470697
 20
-147.2254665430547
 30
0.0
 10
62.21377358470697
 20
-146.9653618339184
 30
0.0
 10
62.21377358470697
 20
-146.7176594685289
 30
0.0
 10
61.93230928356206
 20
-146.6690836221869
 30
0.0
 10
61.5853881681974
 20
-146.6690836221869
 30
0.0
 10
61.26602781671475
 20
-146.6690836221869
 30
0.0
 10
60.9571750064621
 20
-146.7073241820731
 30
0.0
 10
60.9571750064621
 20
-146.9653618339184
 30
0.0
  0
SPLINE
  5
ED
330
E8
100
AcDbEntity
  8
レイヤー 1
100
AcDbSpline
210
0.0
220
0.0
230
1.0
 70
     9
 71
     3
 72
    29
 73
    25
 74
     0
 42
0.0000000001
 43
0.0000000001
 40
0.0
 40
0.0
 40
0.0
 40
0.0
 40
1.0
 40
1.0
 40
1.0
 40
2.0
 40
2.0
 40
2.0
 40
3.0
 40
3.0
 40
3.0
 40
4.0
 40
4.0
 40
4.0
 40
5.0
 40
5.0
 40
5.0
 40
6.0
 40
6.0
 40
6.0
 40
7.0
 40
7.0
 40
7.0
 40
8.0
 40
8.0
 40
8.0
 40
8.0
 10
62.17983939417726
 20
-146.567453305372
 30
0.0
 10
62.38930119968046
 20
-146.6756293036088
 30
0.0
 10
62.40842147962359
 20
-146.8489176065169
 30
0.0
 10
62.40842147962359
 20
-146.9653618339184
 30
0.0
 10
62.40842147962359
 20
-147.1262477930795
 30
0.0
 10
62.36191269057272
 20
-147.2678412175233
 30
0.0
 10
62.17983939417726
 20
-147.3629258529162
 30
0.0
 10
61.98536375403492
 20
-147.4666232270222
 30
0.0
 10
61.74834118464972
 20
-147.4859157617396
 30
0.0
 10
61.5853881681974
 20
-147.4859157617396
 30
0.0
 10
61.44155543168822
 20
-147.4859157617396
 30
0.0
 10
61.18989120649072
 20
-147.4686902843134
 30
0.0
 10
60.99093694221754
 20
-147.3629258529162
 30
0.0
 10
60.78784856336207
 20
-147.2550943642279
 30
0.0
 10
60.76459416883663
 20
-147.0942084050667
 30
0.0
 10
60.76459416883663
 20
-146.9653618339184
 30
0.0
 10
60.76459416883663
 20
-146.8065429320483
 30
0.0
 10
60.80903590059635
 20
-146.6628824503134
 30
0.0
 10
60.99093694221754
 20
-146.567453305372
 30
0.0
 10
61.18351777984301
 20
-146.4682345553968
 30
0.0
 10
61.41192761051508
 20
-146.4448079060971
 30
0.0
 10
61.5853881681974
 20
-146.4448079060971
 30
0.0
 10
61.75678166858858
 20
-146.4448079060971
 30
0.0
 10
61.98743081132606
 20
-146.4661674981057
 30
0.0
 10
62.17983939417726
 20
-146.567453305372
 30
0.0
  0
HATCH
  5
EE
330
E8
100
AcDbEntity
  8
レイヤー 1
 62
   250
420
  2299925
440
 33554687
100
AcDbHatch
 10
0.0
 20
0.0
 30
0.0
210
0.0
220
0.0
230
1.0
  2
SOLID
 70
     1
 71
     1
 91
        2
 92
        1
 93
        1
 72
     4
 94
        3
 73
     0
 74
     0
 95
       17
 96
       13
 40
0.0
 40
0.0
 40
0.0
 40
0.0
 40
1.0
 40
1.0
 40
1.0
 40
2.0
 40
2.0
 40
2.0
 40
3.0
 40
3.0
 40
3.0
 40
4.0
 40
4.0
 40
4.0
 40
4.0
 10
60.9571750064621
 20
-146.9653618339184
 10
60.9571750064621
 20
-147.215131256599
 10
61.2405341101239
 20
-147.2616400456498
 10
61.5853881681974
 20
-147.2616400456498
 10
61.90492077445433
 20
-147.2616400456498
 10
62.21377358470697
 20
-147.2254665430547
 10
62.21377358470697
 20
-146.9653618339184
 10
62.21377358470697
 20
-146.7176594685289
 10
61.93230928356206
 20
-146.6690836221869
 10
61.5853881681974
 20
-146.6690836221869
 10
61.26602781671475
 20
-146.6690836221869
 10
60.9571750064621
 20
-146.7073241820731
 10
60.9571750064621
 20
-146.9653618339184
 97
        0
 97
        1
330
EC
 92
        1
 93
        1
 72
     4
 94
        3
 73
     0
 74
     0
 95
       29
 96
       25
 40
0.0
 40
0.0
 40
0.0
 40
0.0
 40
1.0
 40
1.0
 40
1.0
 40
2.0
 40
2.0
 40
2.0
 40
3.0
 40
3.0
 40
3.0
 40
4.0
 40
4.0
 40
4.0
 40
5.0
 40
5.0
 40
5.0
 40
6.0
 40
6.0
 40
6.0
 40
7.0
 40
7.0
 40
7.0
 40
8.0
 40
8.0
 40
8.0
 40
8.0
 10
62.17983939417726
 20
-146.567453305372
 10
62.38930119968046
 20
-146.6756293036088
 10
62.40842147962359
 20
-146.8489176065169
 10
62.40842147962359
 20
-146.9653618339184
 10
62.40842147962359
 20
-147.1262477930795
 10
62.36191269057272
 20
-147.2678412175233
 10
62.17983939417726
 20
-147.3629258529162
 10
61.98536375403492
 20
-147.4666232270222
 10
61.74834118464972
 20
-147.4859157617396
 10
61.5853881681974
 20
-147.4859157617396
 10
61.44155543168822
 20
-147.4859157617396
 10
61.18989120649072
 20
-147.4686902843134
 10
60.99093694221754
 20
-147.3629258529162
 10
60.78784856336207
 20
-147.2550943642279
 10
60.76459416883663
 20
-147.0942084050667
 10
60.76459416883663
 20
-146.9653618339184
 10
60.76459416883663
 20
-146.8065429320483
 10
60.80903590059635
 20
-146.6628824503134
 10
60.99093694221754
 20
-146.567453305372
 10
61.18351777984301
 20
-146.4682345553968
 10
61.41192761051508
 20
-146.4448079060971
 10
61.5853881681974
 20
-146.4448079060971
 10
61.75678166858858
 20
-146.4448079060971
 10
61.98743081132606
 20
-146.4661674981057
 10
62.17983939417726
 20
-146.567453305372
 97
        0
 97
        1
330
ED
 75
     2
 76
     1
 98
        1
 10
0.0
 20
0.0
450
        0
451
        0
460
0.0
461
0.0
452
        0
462
0.0
453
        0
470

  0
SPLINE
  5
EF
330
E8
100
AcDbEntity
  8
レイヤー 1
100
AcDbSpline
210
0.0
220
0.0
230
1.0
 70
    11
 71
     3
 72
    17
 73
    13
 74
     0
 42
0.0000000001
 43
0.0000000001
 40
0.0
 40
0.0
 40
0.0
 40
0.0
 40
1.0
 40
1.0
 40
1.0
 40
2.0
 40
2.0
 40
2.0
 40
3.0
 40
3.0
 40
3.0
 40
4.0
 40
4.0
 40
4.0
 40
4.0
 10
62.35760632121616
 20
-146.2284559096234
 30
0.0
 10
62.35760632121616
 20
-146.2284559096234
 30
0.0
 10
62.10594209601866
 20
-146.2284559096234
 30
0.0
 10
62.10594209601866
 20
-146.2284559096234
 30
0.0
 10
62.10594209601866
 20
-146.2284559096234
 30
0.0
 10
62.10594209601866
 20
-145.9766194296517
 30
0.0
 10
62.10594209601866
 20
-145.9766194296517
 30
0.0
 10
62.10594209601866
 20
-145.9766194296517
 30
0.0
 10
62.35760632121616
 20
-145.9766194296517
 30
0.0
 10
62.35760632121616
 20
-145.9766194296517
 30
0.0
 10
62.35760632121616
 20
-145.9766194296517
 30
0.0
 10
62.35760632121616
 20
-146.2284559096234
 30
0.0
 10
62.35760632121616
 20
-146.2284559096234
 30
0.0
  0
HATCH
  5
F0
330
E8
100
AcDbEntity
  8
レイヤー 1
 62
   250
420
  2299925
440
 33554687
100
AcDbHatch
 10
0.0
 20
0.0
 30
0.0
210
0.0
220
0.0
230
1.0
  2
SOLID
 70
     1
 71
     1
 91
        1
 92
        1
 93
        1
 72
     4
 94
        3
 73
     0
 74
     0
 95
       17
 96
       13
 40
0.0
 40
0.0
 40
0.0
 40
0.0
 40
1.0
 40
1.0
 40
1.0
 40
2.0
 40
2.0
 40
2.0
 40
3.0
 40
3.0
 40
3.0
 40
4.0
 40
4.0
 40
4.0
 40
4.0
 10
62.35760632121616
 20
-146.2284559096234
 10
62.35760632121616
 20
-146.2284559096234
 10
62.10594209601866
 20
-146.2284559096234
 10
62.10594209601866
 20
-146.2284559096234
 10
62.10594209601866
 20
-146.2284559096234
 10
62.10594209601866
 20
-145.9766194296517
 10
62.10594209601866
 20
-145.9766194296517
 10
62.10594209601866
 20
-145.9766194296517
 10
62.35760632121616
 20
-145.9766194296517
 10
62.35760632121616
 20
-145.9766194296517
 10
62.35760632121616
 20
-145.9766194296517
 10
62.35760632121616
 20
-146.2284559096234
 10
62.35760632121616
 20
-146.2284559096234
 97
        0
 97
        1
330
EF
 75
     2
 76
     1
 98
        1
 10
0.0
 20
0.0
450
        0
451
        0
460
0.0
461
0.0
452
        0
462
0.0
453
        0
470

  0
SPLINE
  5
F1
330
E8
100
AcDbEntity
  8
レイヤー 1
100
AcDbSpline
210
0.0
220
0.0
230
1.0
 70
     9
 71
     3
 72
    53
 73
    49
 74
     0
 42
0.0000000001
 43
0.0000000001
 40
0.0
 40
0.0
 40
0.0
 40
0.0
 40
1.0
 40
1.0
 40
1.0
 40
2.0
 40
2.0
 40
2.0
 40
3.0
 40
3.0
 40
3.0
 40
4.0
 40
4.0
 40
4.0
 40
5.0
 40
5.0
 40
5.0
 40
6.0
 40
6.0
 40
6.0
 40
7.0
 40
7.0
 40
7.0
 40
8.0
 40
8.0
 40
8.0
 40
9.0
 40
9.0
 40
9.0
 40
10.0
 40
10.0
 40
10.0
 40
11.0
 40
11.0
 40
11.0
 40
12.0
 40
12.0
 40
12.0
 40
13.0
 40
13.0
 40
13.0
 40
14.0
 40
14.0
 40
14.0
 40
15.0
 40
15.0
 40
15.0
 40
16.0
 40
16.0
 40
16.0
 40
16.0
 10
62.40842147962359
 20
-145.2593505496226
 30
0.0
 10
62.40842147962359
 20
-145.3375542171378
 30
0.0
 10
62.39154051174587
 20
-145.4391845339527
 30
0.0
 10
62.32797850004301
 20
-145.5408148507676
 30
0.0
 10
62.21790769928928
 20
-145.7141031536756
 30
0.0
 10
62.08682181607552
 20
-145.7354627456842
 30
0.0
 10
61.9789903273872
 20
-145.754410770853
 30
0.0
 10
61.9789903273872
 20
-145.754410770853
 30
0.0
 10
61.9789903273872
 20
-145.5322021120544
 30
0.0
 10
61.9789903273872
 20
-145.5322021120544
 30
0.0
 10
62.17777233688611
 20
-145.477425093839
 30
0.0
 10
62.20740015805926
 20
-145.3503010704332
 30
0.0
 10
62.20740015805926
 20
-145.2572834923315
 30
0.0
 10
62.20740015805926
 20
-145.1177571251789
 30
0.0
 10
62.10800915330981
 20
-144.9654839047308
 30
0.0
 10
61.87529295328118
 20
-144.9654839047308
 30
0.0
 10
61.61932235872711
 20
-144.9654839047308
 30
0.0
 10
61.5495591751508
 20
-145.1453178890609
 30
0.0
 10
61.5495591751508
 20
-145.2658962310446
 30
0.0
 10
61.5495591751508
 20
-145.2975911095089
 30
0.0
 10
61.5495591751508
 20
-145.4391845339527
 30
0.0
 10
61.67857800107341
 20
-145.5280679974721
 30
0.0
 10
61.67857800107341
 20
-145.5280679974721
 30
0.0
 10
61.65945772113028
 20
-145.7037678672199
 30
0.0
 10
61.65945772113028
 20
-145.7037678672199
 30
0.0
 10
61.65945772113028
 20
-145.7037678672199
 30
0.0
 10
60.81334226995291
 20
-145.5831895252361
 30
0.0
 10
60.81334226995291
 20
-145.5831895252361
 30
0.0
 10
60.81334226995291
 20
-145.5831895252361
 30
0.0
 10
60.81334226995291
 20
-144.8045979455697
 30
0.0
 10
60.81334226995291
 20
-144.8045979455697
 30
0.0
 10
60.81334226995291
 20
-144.8045979455697
 30
0.0
 10
61.00799016486953
 20
-144.8045979455697
 30
0.0
 10
61.00799016486953
 20
-144.8045979455697
 30
0.0
 10
61.00799016486953
 20
-144.8045979455697
 30
0.0
 10
61.00799016486953
 20
-145.4202365087838
 30
0.0
 10
61.00799016486953
 20
-145.4202365087838
 30
0.0
 10
61.00799016486953
 20
-145.4202365087838
 30
0.0
 10
61.43104789045821
 20
-145.4856933230036
 30
0.0
 10
61.43104789045821
 20
-145.4856933230036
 30
0.0
 10
61.3971136999285
 20
-145.4243706233661
 30
0.0
 10
61.35697833752534
 20
-145.3420328412686
 30
0.0
 10
61.35697833752534
 20
-145.223521556576
 30
0.0
 10
61.35697833752534
 20
-144.9696180193131
 30
0.0
 10
61.54318574850309
 20
-144.7325954499279
 30
0.0
 10
61.85617267333804
 20
-144.7325954499279
 30
0.0
 10
62.17363822230382
 20
-144.7325954499279
 30
0.0
 10
62.40842147962359
 20
-144.9568711660177
 30
0.0
 10
62.40842147962359
 20
-145.2593505496226
 30
0.0
  0
HATCH
  5
F2
330
E8
100
AcDbEntity
  8
レイヤー 1
 62
   250
420
  2299925
440
 33554687
100
AcDbHatch
 10
0.0
 20
0.0
 30
0.0
210
0.0
220
0.0
230
1.0
  2
SOLID
 70
     1
 71
     1
 91
        1
 92
        1
 93
        1
 72
     4
 94
        3
 73
     0
 74
     0
 95
       53
 96
       49
 40
0.0
 40
0.0
 40
0.0
 40
0.0
 40
1.0
 40
1.0
 40
1.0
 40
2.0
 40
2.0
 40
2.0
 40
3.0
 40
3.0
 40
3.0
 40
4.0
 40
4.0
 40
4.0
 40
5.0
 40
5.0
 40
5.0
 40
6.0
 40
6.0
 40
6.0
 40
7.0
 40
7.0
 40
7.0
 40
8.0
 40
8.0
 40
8.0
 40
9.0
 40
9.0
 40
9.0
 40
10.0
 40
10.0
 40
10.0
 40
11.0
 40
11.0
 40
11.0
 40
12.0
 40
12.0
 40
12.0
 40
13.0
 40
13.0
 40
13.0
 40
14.0
 40
14.0
 40
14.0
 40
15.0
 40
15.0
 40
15.0
 40
16.0
 40
16.0
 40
16.0
 40
16.0
 10
62.40842147962359
 20
-145.2593505496226
 10
62.40842147962359
 20
-145.3375542171378
 10
62.39154051174587
 20
-145.4391845339527
 10
62.32797850004301
 20
-145.5408148507676
 10
62.21790769928928
 20
-145.7141031536756
 10
62.08682181607552
 20
-145.7354627456842
 10
61.9789903273872
 20
-145.754410770853
 10
61.9789903273872
 20
-145.754410770853
 10
61.9789903273872
 20
-145.5322021120544
 10
61.9789903273872
 20
-145.5322021120544
 10
62.17777233688611
 20
-145.477425093839
 10
62.20740015805926
 20
-145.3503010704332
 10
62.20740015805926
 20
-145.2572834923315
 10
62.20740015805926
 20
-145.1177571251789
 10
62.10800915330981
 20
-144.9654839047308
 10
61.87529295328118
 20
-144.9654839047308
 10
61.61932235872711
 20
-144.9654839047308
 10
61.5495591751508
 20
-145.1453178890609
 10
61.5495591751508
 20
-145.2658962310446
 10
61.5495591751508
 20
-145.2975911095089
 10
61.5495591751508
 20
-145.4391845339527
 10
61.67857800107341
 20
-145.5280679974721
 10
61.67857800107341
 20
-145.5280679974721
 10
61.65945772113028
 20
-145.7037678672199
 10
61.65945772113028
 20
-145.7037678672199
 10
61.65945772113028
 20
-145.7037678672199
 10
60.81334226995291
 20
-145.5831895252361
 10
60.81334226995291
 20
-145.5831895252361
 10
60.81334226995291
 20
-145.5831895252361
 10
60.81334226995291
 20
-144.8045979455697
 10
60.81334226995291
 20
-144.8045979455697
 10
60.81334226995291
 20
-144.8045979455697
 10
61.00799016486953
 20
-144.8045979455697
 10
61.00799016486953
 20
-144.8045979455697
 10
61.00799016486953
 20
-144.8045979455697
 10
61.00799016486953
 20
-145.4202365087838
 10
61.00799016486953
 20
-145.4202365087838
 10
61.00799016486953
 20
-145.4202365087838
 10
61.43104789045821
 20
-145.4856933230036
 10
61.43104789045821
 20
-145.4856933230036
 10
61.3971136999285
 20
-145.4243706233661
 10
61.35697833752534
 20
-145.3420328412686
 10
61.35697833752534
 20
-145.223521556576
 10
61.35697833752534
 20
-144.9696180193131
 10
61.54318574850309
 20
-144.7325954499279
 10
61.85617267333804
 20
-144.7325954499279
 10
62.17363822230382
 20
-144.7325954499279
 10
62.40842147962359
 20
-144.9568711660177
 10
62.40842147962359
 20
-145.2593505496226
 97
        0
 97
        1
330
F1
 75
     2
 76
     1
 98
        1
 10
0.0
 20
0.0
450
        0
451
        0
460
0.0
461
0.0
452
        0
462
0.0
453
        0
470

  0
ENDBLK
  5
EB
330
E8
100
AcDbEntity
  8
0
100
AcDbBlockEnd
  0
BLOCK
  5
F7
330
F5
100
AcDbEntity
  8
0
100
AcDbBlockBegin
  2
Block_2
 70
     0
 10
0.0
 20
0.0
 30
0.0
  3
Block_2
  1

  0
INSERT
  5
FA
330
F5
100
AcDbEntity
  8
レイヤー 1
100
AcDbBlockReference
  2
Block_3
 10
0.0
 20
0.0
 30
0.0
  0
ENDBLK
  5
F8
330
F5
100
AcDbEntity
  8
0
100
AcDbBlockEnd
  0
BLOCK
  5
FB
330
F9
100
AcDbEntity
  8
0
100
AcDbBlockBegin
  2
Block_3
 70
     0
 10
0.0
 20
0.0
 30
0.0
  3
Block_3
  1

  0
SPLINE
  5
FD
330
F9
100
AcDbEntity
  8
レイヤー 1
100
AcDbSpline
210
0.0
220
0.0
230
1.0
 70
     9
 71
     3
 72
    44
 73
    40
 74
     0
 42
0.0000000001
 43
0.0000000001
 40
0.0
 40
0.0
 40
0.0
 40
0.0
 40
1.0
 40
1.0
 40
1.0
 40
2.0
 40
2.0
 40
2.0
 40
3.0
 40
3.0
 40
3.0
 40
4.0
 40
4.0
 40
4.0
 40
5.0
 40
5.0
 40
5.0
 40
6.0
 40
6.0
 40
6.0
 40
7.0
 40
7.0
 40
7.0
 40
8.0
 40
8.0
 40
8.0
 40
9.0
 40
9.0
 40
9.0
 40
10.0
 40
10.0
 40
10.0
 40
11.0
 40
11.0
 40
11.0
 40
12.0
 40
12.0
 40
12.0
 40
13.0
 40
13.0
 40
13.0
 40
13.0
 10
75.96039358995088
 20
-139.7530544355478
 30
0.0
 10
75.74249130050883
 20
-139.9117010826436
 30
0.0
 10
75.64930146763281
 20
-139.9857706355764
 30
0.0
 10
75.60072562129079
 20
-140.1296033720856
 30
0.0
 10
75.60072562129079
 20
-140.1296033720856
 30
0.0
 10
76.37914494618299
 20
-140.1296033720856
 30
0.0
 10
76.37914494618299
 20
-140.1296033720856
 30
0.0
 10
76.37914494618299
 20
-140.1296033720856
 30
0.0
 10
76.37914494618299
 20
-140.3347588082323
 30
0.0
 10
76.37914494618299
 20
-140.3347588082323
 30
0.0
 10
76.37914494618299
 20
-140.3347588082323
 30
0.0
 10
75.35112845338445
 20
-140.3347588082323
 30
0.0
 10
75.35112845338445
 20
-140.3347588082323
 30
0.0
 10
75.38282333184874
 20
-139.9771578968633
 30
0.0
 10
75.44845240084275
 20
-139.8989542293482
 30
0.0
 10
75.83344182131942
 20
-139.6006089603255
 30
0.0
 10
76.08941241587348
 20
-139.4018269508266
 30
0.0
 10
76.15486923009322
 20
-139.3341308245414
 30
0.0
 10
76.15486923009322
 20
-139.19667151468
 30
0.0
 10
76.15486923009322
 20
-139.0781602299874
 30
0.0
 10
76.08303898922577
 20
-138.9469020919994
 30
0.0
 10
75.886324037018
 20
-138.9469020919994
 30
0.0
 10
75.62604707310739
 20
-138.9469020919994
 30
0.0
 10
75.61760658916852
 20
-139.1775512347368
 30
0.0
 10
75.61330021981196
 20
-139.2939954621383
 30
0.0
 10
75.61330021981196
 20
-139.2939954621383
 30
0.0
 10
75.38919675849645
 20
-139.2939954621383
 30
0.0
 10
75.38919675849645
 20
-139.2939954621383
 30
0.0
 10
75.39763724243532
 20
-139.1670436935068
 30
0.0
 10
75.40814478366534
 20
-139.0549058354619
 30
0.0
 10
75.48858776324592
 20
-138.9363945507694
 30
0.0
 10
75.59848630922537
 20
-138.7756808463824
 30
0.0
 10
75.78469372020314
 20
-138.7417466558527
 30
0.0
 10
75.90113794760458
 20
-138.7417466558527
 30
0.0
 10
76.17829587939294
 20
-138.7417466558527
 30
0.0
 10
76.3855183728307
 20
-138.9258870095393
 30
0.0
 10
76.3855183728307
 20
-139.1987385719711
 30
0.0
 10
76.3855183728307
 20
-139.4271484026432
 30
0.0
 10
76.26924640020352
 20
-139.5267116621669
 30
0.0
 10
75.96039358995088
 20
-139.7530544355478
 30
0.0
  0
HATCH
  5
FE
330
F9
100
AcDbEntity
  8
レイヤー 1
 62
   250
420
  2299925
440
 33554687
100
AcDbHatch
 10
0.0
 20
0.0
 30
0.0
210
0.0
220
0.0
230
1.0
  2
SOLID
 70
     1
 71
     1
 91
        1
 92
        1
 93
        1
 72
     4
 94
        3
 73
     0
 74
     0
 95
       44
 96
       40
 40
0.0
 40
0.0
 40
0.0
 40
0.0
 40
1.0
 40
1.0
 40
1.0
 40
2.0
 40
2.0
 40
2.0
 40
3.0
 40
3.0
 40
3.0
 40
4.0
 40
4.0
 40
4.0
 40
5.0
 40
5.0
 40
5.0
 40
6.0
 40
6.0
 40
6.0
 40
7.0
 40
7.0
 40
7.0
 40
8.0
 40
8.0
 40
8.0
 40
9.0
 40
9.0
 40
9.0
 40
10.0
 40
10.0
 40
10.0
 40
11.0
 40
11.0
 40
11.0
 40
12.0
 40
12.0
 40
12.0
 40
13.0
 40
13.0
 40
13.0
 40
13.0
 10
75.96039358995088
 20
-139.7530544355478
 10
75.74249130050883
 20
-139.9117010826436
 10
75.64930146763281
 20
-139.9857706355764
 10
75.60072562129079
 20
-140.1296033720856
 10
75.60072562129079
 20
-140.1296033720856
 10
76.37914494618299
 20
-140.1296033720856
 10
76.37914494618299
 20
-140.1296033720856
 10
76.37914494618299
 20
-140.1296033720856
 10
76.37914494618299
 20
-140.3347588082323
 10
76.37914494618299
 20
-140.3347588082323
 10
76.37914494618299
 20
-140.3347588082323
 10
75.35112845338445
 20
-140.3347588082323
 10
75.35112845338445
 20
-140.3347588082323
 10
75.38282333184874
 20
-139.9771578968633
 10
75.44845240084275
 20
-139.8989542293482
 10
75.83344182131942
 20
-139.6006089603255
 10
76.08941241587348
 20
-139.4018269508266
 10
76.15486923009322
 20
-139.3341308245414
 10
76.15486923009322
 20
-139.19667151468
 10
76.15486923009322
 20
-139.0781602299874
 10
76.08303898922577
 20
-138.9469020919994
 10
75.886324037018
 20
-138.9469020919994
 10
75.62604707310739
 20
-138.9469020919994
 10
75.61760658916852
 20
-139.1775512347368
 10
75.61330021981196
 20
-139.2939954621383
 10
75.61330021981196
 20
-139.2939954621383
 10
75.38919675849645
 20
-139.2939954621383
 10
75.38919675849645
 20
-139.2939954621383
 10
75.39763724243532
 20
-139.1670436935068
 10
75.40814478366534
 20
-139.0549058354619
 10
75.48858776324592
 20
-138.9363945507694
 10
75.59848630922537
 20
-138.7756808463824
 10
75.78469372020314
 20
-138.7417466558527
 10
75.90113794760458
 20
-138.7417466558527
 10
76.17829587939294
 20
-138.7417466558527
 10
76.3855183728307
 20
-138.9258870095393
 10
76.3855183728307
 20
-139.1987385719711
 10
76.3855183728307
 20
-139.4271484026432
 10
76.26924640020352
 20
-139.5267116621669
 10
75.96039358995088
 20
-139.7530544355478
 97
        0
 97
        1
330
FD
 75
     2
 76
     1
 98
        1
 10
0.0
 20
0.0
450
        0
451
        0
460
0.0
461
0.0
452
        0
462
0.0
453
        0
470

  0
SPLINE
  5
FF
330
F9
100
AcDbEntity
  8
レイヤー 1
100
AcDbSpline
210
0.0
220
0.0
230
1.0
 70
    11
 71
     3
 72
    26
 73
    22
 74
     0
 42
0.0000000001
 43
0.0000000001
 40
0.0
 40
0.0
 40
0.0
 40
0.0
 40
1.0
 40
1.0
 40
1.0
 40
2.0
 40
2.0
 40
2.0
 40
3.0
 40
3.0
 40
3.0
 40
4.0
 40
4.0
 40
4.0
 40
5.0
 40
5.0
 40
5.0
 40
6.0
 40
6.0
 40
6.0
 40
7.0
 40
7.0
 40
7.0
 40
7.0
 10
76.99547252849419
 20
-140.3347588082323
 30
0.0
 10
76.99547252849419
 20
-140.3347588082323
 30
0.0
 10
76.99547252849419
 20
-139.2304334504354
 30
0.0
 10
76.99547252849419
 20
-139.2304334504354
 30
0.0
 10
76.99547252849419
 20
-139.2304334504354
 30
0.0
 10
76.66543238100725
 20
-139.2304334504354
 30
0.0
 10
76.66543238100725
 20
-139.2304334504354
 30
0.0
 10
76.66543238100725
 20
-139.2304334504354
 30
0.0
 10
76.66543238100725
 20
-139.0822943445697
 30
0.0
 10
76.66543238100725
 20
-139.0822943445697
 30
0.0
 10
76.99753958578535
 20
-139.0676526887574
 30
0.0
 10
77.04404837483621
 20
-138.904699672305
 30
0.0
 10
77.07367619600936
 20
-138.790494756969
 30
0.0
 10
77.07367619600936
 20
-138.790494756969
 30
0.0
 10
77.21974824458396
 20
-138.790494756969
 30
0.0
 10
77.21974824458396
 20
-138.790494756969
 30
0.0
 10
77.21974824458396
 20
-138.790494756969
 30
0.0
 10
77.21974824458396
 20
-140.3347588082323
 30
0.0
 10
77.21974824458396
 20
-140.3347588082323
 30
0.0
 10
77.21974824458396
 20
-140.3347588082323
 30
0.0
 10
76.99547252849419
 20
-140.3347588082323
 30
0.0
 10
76.99547252849419
 20
-140.3347588082323
 30
0.0
  0
HATCH
  5
100
330
F9
100
AcDbEntity
  8
レイヤー 1
 62
   250
420
  2299925
440
 33554687
100
AcDbHatch
 10
0.0
 20
0.0
 30
0.0
210
0.0
220
0.0
230
1.0
  2
SOLID
 70
     1
 71
     1
 91
        1
 92
        1
 93
        1
 72
     4
 94
        3
 73
     0
 74
     0
 95
       26
 96
       22
 40
0.0
 40
0.0
 40
0.0
 40
0.0
 40
1.0
 40
1.0
 40
1.0
 40
2.0
 40
2.0
 40
2.0
 40
3.0
 40
3.0
 40
3.0
 40
4.0
 40
4.0
 40
4.0
 40
5.0
 40
5.0
 40
5.0
 40
6.0
 40
6.0
 40
6.0
 40
7.0
 40
7.0
 40
7.0
 40
7.0
 10
76.99547252849419
 20
-140.3347588082323
 10
76.99547252849419
 20
-140.3347588082323
 10
76.99547252849419
 20
-139.2304334504354
 10
76.99547252849419
 20
-139.2304334504354
 10
76.99547252849419
 20
-139.2304334504354
 10
76.66543238100725
 20
-139.2304334504354
 10
76.66543238100725
 20
-139.2304334504354
 10
76.66543238100725
 20
-139.2304334504354
 10
76.66543238100725
 20
-139.0822943445697
 10
76.66543238100725
 20
-139.0822943445697
 10
76.99753958578535
 20
-139.0676526887574
 10
77.04404837483621
 20
-138.904699672305
 10
77.07367619600936
 20
-138.790494756969
 10
77.07367619600936
 20
-138.790494756969
 10
77.21974824458396
 20
-138.790494756969
 10
77.21974824458396
 20
-138.790494756969
 10
77.21974824458396
 20
-138.790494756969
 10
77.21974824458396
 20
-140.3347588082323
 10
77.21974824458396
 20
-140.3347588082323
 10
77.21974824458396
 20
-140.3347588082323
 10
76.99547252849419
 20
-140.3347588082323
 10
76.99547252849419
 20
-140.3347588082323
 97
        0
 97
        1
330
FF
 75
     2
 76
     1
 98
        1
 10
0.0
 20
0.0
450
        0
451
        0
460
0.0
461
0.0
452
        0
462
0.0
453
        0
470

  0
ENDBLK
  5
FC
330
F9
100
AcDbEntity
  8
0
100
AcDbBlockEnd
  0
BLOCK
  5
105
330
103
100
AcDbEntity
  8
0
100
AcDbBlockBegin
  2
Block_4
 70
     0
 10
0.0
 20
0.0
 30
0.0
  3
Block_4
  1

  0
SPLINE
  5
107
330
103
100
AcDbEntity
  8
レイヤー 1
100
AcDbSpline
210
0.0
220
0.0
230
1.0
 70
     9
 71
     3
 72
    17
 73
    13
 74
     0
 42
0.0000000001
 43
0.0000000001
 40
0.0
 40
0.0
 40
0.0
 40
0.0
 40
1.0
 40
1.0
 40
1.0
 40
2.0
 40
2.0
 40
2.0
 40
3.0
 40
3.0
 40
3.0
 40
4.0
 40
4.0
 40
4.0
 40
4.0
 10
62.34778779908319
 20
-150.1575873105509
 30
0.0
 10
62.34778779908319
 20
-150.3012477922858
 30
0.0
 10
62.43443195053723
 20
-150.4538655222823
 30
0.0
 10
62.63752032939271
 20
-150.4538655222823
 30
0.0
 10
62.84267576553933
 20
-150.4538655222823
 30
0.0
 10
62.9443060823542
 20
-150.3267414988766
 30
0.0
 10
62.9443060823542
 20
-150.1575873105509
 30
0.0
 10
62.9443060823542
 20
-149.9715521543474
 30
0.0
 10
62.82166068307931
 20
-149.8613090988194
 30
0.0
 10
62.64389375604042
 20
-149.8613090988194
 30
0.0
 10
62.4216850972418
 20
-149.8613090988194
 30
0.0
 10
62.34778779908319
 20
-150.0242621152717
 30
0.0
 10
62.34778779908319
 20
-150.1575873105509
 30
0.0
  0
SPLINE
  5
108
330
103
100
AcDbEntity
  8
レイヤー 1
100
AcDbSpline
210
0.0
220
0.0
230
1.0
 70
     9
 71
     3
 72
    17
 73
    13
 74
     0
 42
0.0000000001
 43
0.0000000001
 40
0.0
 40
0.0
 40
0.0
 40
0.0
 40
1.0
 40
1.0
 40
1.0
 40
2.0
 40
2.0
 40
2.0
 40
3.0
 40
3.0
 40
3.0
 40
4.0
 40
4.0
 40
4.0
 40
4.0
 10
61.68770750410932
 20
-150.1575873105509
 30
0.0
 10
61.68770750410932
 20
-150.3226073842943
 30
0.0
 10
61.78279213950222
 20
-150.4073567332315
 30
0.0
 10
61.91818439207254
 20
-150.4073567332315
 30
0.0
 10
62.0410020461217
 20
-150.4073567332315
 30
0.0
 10
62.15951333081429
 20
-150.3353542375897
 30
0.0
 10
62.15951333081429
 20
-150.1575873105509
 30
0.0
 10
62.15951333081429
 20
-149.979820383512
 30
0.0
 10
62.0410020461217
 20
-149.9078178878702
 30
0.0
 10
61.91818439207254
 20
-149.9078178878702
 30
0.0
 10
61.78279213950222
 20
-149.9078178878702
 30
0.0
 10
61.68770750410932
 20
-149.9946342940986
 30
0.0
 10
61.68770750410932
 20
-150.1575873105509
 30
0.0
  0
SPLINE
  5
109
330
103
100
AcDbEntity
  8
レイヤー 1
100
AcDbSpline
210
0.0
220
0.0
230
1.0
 70
     9
 71
     3
 72
    29
 73
    25
 74
     0
 42
0.0000000001
 43
0.0000000001
 40
0.0
 40
0.0
 40
0.0
 40
0.0
 40
1.0
 40
1.0
 40
1.0
 40
2.0
 40
2.0
 40
2.0
 40
3.0
 40
3.0
 40
3.0
 40
4.0
 40
4.0
 40
4.0
 40
5.0
 40
5.0
 40
5.0
 40
6.0
 40
6.0
 40
6.0
 40
7.0
 40
7.0
 40
7.0
 40
8.0
 40
8.0
 40
8.0
 40
8.0
 10
63.13895397727082
 20
-150.1575873105509
 30
0.0
 10
63.13895397727082
 20
-150.4242377011092
 30
0.0
 10
63.00132241263509
 20
-150.6781412383721
 30
0.0
 10
62.65233423997928
 20
-150.6781412383721
 30
0.0
 10
62.39636364542522
 20
-150.6781412383721
 30
0.0
 10
62.30110675525806
 20
-150.5362033043798
 30
0.0
 10
62.23978405562061
 20
-150.4304388729827
 30
0.0
 10
62.18052841327431
 20
-150.5551513295487
 30
0.0
 10
62.06632349793828
 20
-150.6312879397727
 30
0.0
 10
61.90560979355137
 20
-150.6312879397727
 30
0.0
 10
61.63051891905418
 20
-150.6312879397727
 30
0.0
 10
61.49512666648386
 20
-150.4325059302738
 30
0.0
 10
61.49512666648386
 20
-150.1575873105509
 30
0.0
 10
61.49512666648386
 20
-149.8740559521148
 30
0.0
 10
61.63895940299304
 20
-149.6835421717805
 30
0.0
 10
61.90560979355137
 20
-149.6835421717805
 30
0.0
 10
62.06632349793828
 20
-149.6835421717805
 30
0.0
 10
62.18052841327431
 20
-149.7620903488442
 30
0.0
 10
62.23978405562061
 20
-149.8868028054102
 30
0.0
 10
62.29059921402805
 20
-149.7979193418908
 30
0.0
 10
62.3858561041952
 20
-149.6391004400208
 30
0.0
 10
62.64802787062272
 20
-149.6391004400208
 30
0.0
 10
63.02250974986938
 20
-149.6391004400208
 30
0.0
 10
63.13895397727082
 20
-149.9184976838745
 30
0.0
 10
63.13895397727082
 20
-150.1575873105509
 30
0.0
  0
HATCH
  5
10A
330
103
100
AcDbEntity
  8
レイヤー 1
 62
   250
420
  2299925
440
 33554687
100
AcDbHatch
 10
0.0
 20
0.0
 30
0.0
210
0.0
220
0.0
230
1.0
  2
SOLID
 70
     1
 71
     1
 91
        3
 92
        1
 93
        1
 72
     4
 94
        3
 73
     0
 74
     0
 95
       17
 96
       13
 40
0.0
 40
0.0
 40
0.0
 40
0.0
 40
1.0
 40
1.0
 40
1.0
 40
2.0
 40
2.0
 40
2.0
 40
3.0
 40
3.0
 40
3.0
 40
4.0
 40
4.0
 40
4.0
 40
4.0
 10
62.34778779908319
 20
-150.1575873105509
 10
62.34778779908319
 20
-150.3012477922858
 10
62.43443195053723
 20
-150.4538655222823
 10
62.63752032939271
 20
-150.4538655222823
 10
62.84267576553933
 20
-150.4538655222823
 10
62.9443060823542
 20
-150.3267414988766
 10
62.9443060823542
 20
-150.1575873105509
 10
62.9443060823542
 20
-149.9715521543474
 10
62.82166068307931
 20
-149.8613090988194
 10
62.64389375604042
 20
-149.8613090988194
 10
62.4216850972418
 20
-149.8613090988194
 10
62.34778779908319
 20
-150.0242621152717
 10
62.34778779908319
 20
-150.1575873105509
 97
        0
 97
        1
330
107
 92
        1
 93
        1
 72
     4
 94
        3
 73
     0
 74
     0
 95
       17
 96
       13
 40
0.0
 40
0.0
 40
0.0
 40
0.0
 40
1.0
 40
1.0
 40
1.0
 40
2.0
 40
2.0
 40
2.0
 40
3.0
 40
3.0
 40
3.0
 40
4.0
 40
4.0
 40
4.0
 40
4.0
 10
61.68770750410932
 20
-150.1575873105509
 10
61.68770750410932
 20
-150.3226073842943
 10
61.78279213950222
 20
-150.4073567332315
 10
61.91818439207254
 20
-150.4073567332315
 10
62.0410020461217
 20
-150.4073567332315
 10
62.15951333081429
 20
-150.3353542375897
 10
62.15951333081429
 20
-150.1575873105509
 10
62.15951333081429
 20
-149.979820383512
 10
62.0410020461217
 20
-149.9078178878702
 10
61.91818439207254
 20
-149.9078178878702
 10
61.78279213950222
 20
-149.9078178878702
 10
61.68770750410932
 20
-149.9946342940986
 10
61.68770750410932
 20
-150.1575873105509
 97
        0
 97
        1
330
108
 92
        1
 93
        1
 72
     4
 94
        3
 73
     0
 74
     0
 95
       29
 96
       25
 40
0.0
 40
0.0
 40
0.0
 40
0.0
 40
1.0
 40
1.0
 40
1.0
 40
2.0
 40
2.0
 40
2.0
 40
3.0
 40
3.0
 40
3.0
 40
4.0
 40
4.0
 40
4.0
 40
5.0
 40
5.0
 40
5.0
 40
6.0
 40
6.0
 40
6.0
 40
7.0
 40
7.0
 40
7.0
 40
8.0
 40
8.0
 40
8.0
 40
8.0
 10
63.13895397727082
 20
-150.1575873105509
 10
63.13895397727082
 20
-150.4242377011092
 10
63.00132241263509
 20
-150.6781412383721
 10
62.65233423997928
 20
-150.6781412383721
 10
62.39636364542522
 20
-150.6781412383721
 10
62.30110675525806
 20
-150.5362033043798
 10
62.23978405562061
 20
-150.4304388729827
 10
62.18052841327431
 20
-150.5551513295487
 10
62.06632349793828
 20
-150.6312879397727
 10
61.90560979355137
 20
-150.6312879397727
 10
61.63051891905418
 20
-150.6312879397727
 10
61.49512666648386
 20
-150.4325059302738
 10
61.49512666648386
 20
-150.1575873105509
 10
61.49512666648386
 20
-149.8740559521148
 10
61.63895940299304
 20
-149.6835421717805
 10
61.90560979355137
 20
-149.6835421717805
 10
62.06632349793828
 20
-149.6835421717805
 10
62.18052841327431
 20
-149.7620903488442
 10
62.23978405562061
 20
-149.8868028054102
 10
62.29059921402805
 20
-149.7979193418908
 10
62.3858561041952
 20
-149.6391004400208
 10
62.64802787062272
 20
-149.6391004400208
 10
63.02250974986938
 20
-149.6391004400208
 10
63.13895397727082
 20
-149.9184976838745
 10
63.13895397727082
 20
-150.1575873105509
 97
        0
 97
        1
330
109
 75
     2
 76
     1
 98
        1
 10
0.0
 20
0.0
450
        0
451
        0
460
0.0
461
0.0
452
        0
462
0.0
453
        0
470

  0
ENDBLK
  5
106
330
103
100
AcDbEntity
  8
0
100
AcDbBlockEnd
  0
BLOCK
  5
10F
330
10D
100
AcDbEntity
  8
0
100
AcDbBlockBegin
  2
Block_5
 70
     0
 10
0.0
 20
0.0
 30
0.0
  3
Block_5
  1

  0
INSERT
  5
112
330
10D
100
AcDbEntity
  8
レイヤー 1
100
AcDbBlockReference
  2
Block_6
 10
0.0
 20
0.0
 30
0.0
  0
ENDBLK
  5
110
330
10D
100
AcDbEntity
  8
0
100
AcDbBlockEnd
  0
BLOCK
  5
113
330
111
100
AcDbEntity
  8
0
100
AcDbBlockBegin
  2
Block_6
 70
     0
 10
0.0
 20
0.0
 30
0.0
  3
Block_6
  1

  0
SPLINE
  5
115
330
111
100
AcDbEntity
  8
レイヤー 1
100
AcDbSpline
210
0.0
220
0.0
230
1.0
 70
     9
 71
     3
 72
    44
 73
    40
 74
     0
 42
0.0000000001
 43
0.0000000001
 40
0.0
 40
0.0
 40
0.0
 40
0.0
 40
1.0
 40
1.0
 40
1.0
 40
2.0
 40
2.0
 40
2.0
 40
3.0
 40
3.0
 40
3.0
 40
4.0
 40
4.0
 40
4.0
 40
5.0
 40
5.0
 40
5.0
 40
6.0
 40
6.0
 40
6.0
 40
7.0
 40
7.0
 40
7.0
 40
8.0
 40
8.0
 40
8.0
 40
9.0
 40
9.0
 40
9.0
 40
10.0
 40
10.0
 40
10.0
 40
11.0
 40
11.0
 40
11.0
 40
12.0
 40
12.0
 40
12.0
 40
13.0
 40
13.0
 40
13.0
 40
13.0
 10
109.0861924640479
 20
-139.7530544355478
 30
0.0
 10
108.8684624293801
 20
-139.9117010826436
 30
0.0
 10
108.7754448512783
 20
-139.9857706355764
 30
0.0
 10
108.7265244953878
 20
-140.1296033720856
 30
0.0
 10
108.7265244953878
 20
-140.1296033720856
 30
0.0
 10
109.5051160750543
 20
-140.1296033720856
 30
0.0
 10
109.5051160750543
 20
-140.1296033720856
 30
0.0
 10
109.5051160750543
 20
-140.1296033720856
 30
0.0
 10
109.5051160750543
 20
-140.3347588082323
 30
0.0
 10
109.5051160750543
 20
-140.3347588082323
 30
0.0
 10
109.5051160750543
 20
-140.3347588082323
 30
0.0
 10
108.4770995822557
 20
-140.3347588082323
 30
0.0
 10
108.4770995822557
 20
-140.3347588082323
 30
0.0
 10
108.50879446072
 20
-139.9771578968633
 30
0.0
 10
108.5742512749398
 20
-139.8989542293482
 30
0.0
 10
108.9594129501907
 20
-139.6006089603255
 30
0.0
 10
109.2153835447447
 20
-139.4018269508266
 30
0.0
 10
109.2808403589645
 20
-139.3341308245414
 30
0.0
 10
109.2808403589645
 20
-139.19667151468
 30
0.0
 10
109.2808403589645
 20
-139.0781602299874
 30
0.0
 10
109.2088378633228
 20
-138.9469020919994
 30
0.0
 10
109.012122911115
 20
-138.9469020919994
 30
0.0
 10
108.7520182019787
 20
-138.9469020919994
 30
0.0
 10
108.7437499728141
 20
-139.1775512347368
 30
0.0
 10
108.7392713486832
 20
-139.2939954621383
 30
0.0
 10
108.7392713486832
 20
-139.2939954621383
 30
0.0
 10
108.5149956325935
 20
-139.2939954621383
 30
0.0
 10
108.5149956325935
 20
-139.2939954621383
 30
0.0
 10
108.5236083713066
 20
-139.1670436935068
 30
0.0
 10
108.5342881673108
 20
-139.0549058354619
 30
0.0
 10
108.6145588921172
 20
-138.9363945507694
 30
0.0
 10
108.7244574380966
 20
-138.7756808463824
 30
0.0
 10
108.9108371038487
 20
-138.7417466558527
 30
0.0
 10
109.0269368217016
 20
-138.7417466558527
 30
0.0
 10
109.3042670082642
 20
-138.7417466558527
 30
0.0
 10
109.5116617564762
 20
-138.9258870095393
 30
0.0
 10
109.5116617564762
 20
-139.1987385719711
 30
0.0
 10
109.5116617564762
 20
-139.4271484026432
 30
0.0
 10
109.3952175290748
 20
-139.5267116621669
 30
0.0
 10
109.0861924640479
 20
-139.7530544355478
 30
0.0
  0
HATCH
  5
116
330
111
100
AcDbEntity
  8
レイヤー 1
 62
   250
420
  2299925
440
 33554687
100
AcDbHatch
 10
0.0
 20
0.0
 30
0.0
210
0.0
220
0.0
230
1.0
  2
SOLID
 70
     1
 71
     1
 91
        1
 92
        1
 93
        1
 72
     4
 94
        3
 73
     0
 74
     0
 95
       44
 96
       40
 40
0.0
 40
0.0
 40
0.0
 40
0.0
 40
1.0
 40
1.0
 40
1.0
 40
2.0
 40
2.0
 40
2.0
 40
3.0
 40
3.0
 40
3.0
 40
4.0
 40
4.0
 40
4.0
 40
5.0
 40
5.0
 40
5.0
 40
6.0
 40
6.0
 40
6.0
 40
7.0
 40
7.0
 40
7.0
 40
8.0
 40
8.0
 40
8.0
 40
9.0
 40
9.0
 40
9.0
 40
10.0
 40
10.0
 40
10.0
 40
11.0
 40
11.0
 40
11.0
 40
12.0
 40
12.0
 40
12.0
 40
13.0
 40
13.0
 40
13.0
 40
13.0
 10
109.0861924640479
 20
-139.7530544355478
 10
108.8684624293801
 20
-139.9117010826436
 10
108.7754448512783
 20
-139.9857706355764
 10
108.7265244953878
 20
-140.1296033720856
 10
108.7265244953878
 20
-140.1296033720856
 10
109.5051160750543
 20
-140.1296033720856
 10
109.5051160750543
 20
-140.1296033720856
 10
109.5051160750543
 20
-140.1296033720856
 10
109.5051160750543
 20
-140.3347588082323
 10
109.5051160750543
 20
-140.3347588082323
 10
109.5051160750543
 20
-140.3347588082323
 10
108.4770995822557
 20
-140.3347588082323
 10
108.4770995822557
 20
-140.3347588082323
 10
108.50879446072
 20
-139.9771578968633
 10
108.5742512749398
 20
-139.8989542293482
 10
108.9594129501907
 20
-139.6006089603255
 10
109.2153835447447
 20
-139.4018269508266
 10
109.2808403589645
 20
-139.3341308245414
 10
109.2808403589645
 20
-139.19667151468
 10
109.2808403589645
 20
-139.0781602299874
 10
109.2088378633228
 20
-138.9469020919994
 10
109.012122911115
 20
-138.9469020919994
 10
108.7520182019787
 20
-138.9469020919994
 10
108.7437499728141
 20
-139.1775512347368
 10
108.7392713486832
 20
-139.2939954621383
 10
108.7392713486832
 20
-139.2939954621383
 10
108.5149956325935
 20
-139.2939954621383
 10
108.5149956325935
 20
-139.2939954621383
 10
108.5236083713066
 20
-139.1670436935068
 10
108.5342881673108
 20
-139.0549058354619
 10
108.6145588921172
 20
-138.9363945507694
 10
108.7244574380966
 20
-138.7756808463824
 10
108.9108371038487
 20
-138.7417466558527
 10
109.0269368217016
 20
-138.7417466558527
 10
109.3042670082642
 20
-138.7417466558527
 10
109.5116617564762
 20
-138.9258870095393
 10
109.5116617564762
 20
-139.1987385719711
 10
109.5116617564762
 20
-139.4271484026432
 10
109.3952175290748
 20
-139.5267116621669
 10
109.0861924640479
 20
-139.7530544355478
 97
        0
 97
        1
330
115
 75
     2
 76
     1
 98
        1
 10
0.0
 20
0.0
450
        0
451
        0
460
0.0
461
0.0
452
        0
462
0.0
453
        0
470

  0
SPLINE
  5
117
330
111
100
AcDbEntity
  8
レイヤー 1
100
AcDbSpline
210
0.0
220
0.0
230
1.0
 70
    11
 71
     3
 72
    26
 73
    22
 74
     0
 42
0.0000000001
 43
0.0000000001
 40
0.0
 40
0.0
 40
0.0
 40
0.0
 40
1.0
 40
1.0
 40
1.0
 40
2.0
 40
2.0
 40
2.0
 40
3.0
 40
3.0
 40
3.0
 40
4.0
 40
4.0
 40
4.0
 40
5.0
 40
5.0
 40
5.0
 40
6.0
 40
6.0
 40
6.0
 40
7.0
 40
7.0
 40
7.0
 40
7.0
 10
110.1214436573654
 20
-140.3347588082323
 30
0.0
 10
110.1214436573654
 20
-140.3347588082323
 30
0.0
 10
110.1214436573654
 20
-139.2304334504354
 30
0.0
 10
110.1214436573654
 20
-139.2304334504354
 30
0.0
 10
110.1214436573654
 20
-139.2304334504354
 30
0.0
 10
109.7914035098785
 20
-139.2304334504354
 30
0.0
 10
109.7914035098785
 20
-139.2304334504354
 30
0.0
 10
109.7914035098785
 20
-139.2304334504354
 30
0.0
 10
109.7914035098785
 20
-139.0822943445697
 30
0.0
 10
109.7914035098785
 20
-139.0822943445697
 30
0.0
 10
110.1235107146566
 20
-139.0676526887574
 30
0.0
 10
110.1700195037075
 20
-138.904699672305
 30
0.0
 10
110.1996473248806
 20
-138.790494756969
 30
0.0
 10
110.1996473248806
 20
-138.790494756969
 30
0.0
 10
110.3457193734552
 20
-138.790494756969
 30
0.0
 10
110.3457193734552
 20
-138.790494756969
 30
0.0
 10
110.3457193734552
 20
-138.790494756969
 30
0.0
 10
110.3457193734552
 20
-140.3347588082323
 30
0.0
 10
110.3457193734552
 20
-140.3347588082323
 30
0.0
 10
110.3457193734552
 20
-140.3347588082323
 30
0.0
 10
110.1214436573654
 20
-140.3347588082323
 30
0.0
 10
110.1214436573654
 20
-140.3347588082323
 30
0.0
  0
HATCH
  5
118
330
111
100
AcDbEntity
  8
レイヤー 1
 62
   250
420
  2299925
440
 33554687
100
AcDbHatch
 10
0.0
 20
0.0
 30
0.0
210
0.0
220
0.0
230
1.0
  2
SOLID
 70
     1
 71
     1
 91
        1
 92
        1
 93
        1
 72
     4
 94
        3
 73
     0
 74
     0
 95
       26
 96
       22
 40
0.0
 40
0.0
 40
0.0
 40
0.0
 40
1.0
 40
1.0
 40
1.0
 40
2.0
 40
2.0
 40
2.0
 40
3.0
 40
3.0
 40
3.0
 40
4.0
 40
4.0
 40
4.0
 40
5.0
 40
5.0
 40
5.0
 40
6.0
 40
6.0
 40
6.0
 40
7.0
 40
7.0
 40
7.0
 40
7.0
 10
110.1214436573654
 20
-140.3347588082323
 10
110.1214436573654
 20
-140.3347588082323
 10
110.1214436573654
 20
-139.2304334504354
 10
110.1214436573654
 20
-139.2304334504354
 10
110.1214436573654
 20
-139.2304334504354
 10
109.7914035098785
 20
-139.2304334504354
 10
109.7914035098785
 20
-139.2304334504354
 10
109.7914035098785
 20
-139.2304334504354
 10
109.7914035098785
 20
-139.0822943445697
 10
109.7914035098785
 20
-139.0822943445697
 10
110.1235107146566
 20
-139.0676526887574
 10
110.1700195037075
 20
-138.904699672305
 10
110.1996473248806
 20
-138.790494756969
 10
110.1996473248806
 20
-138.790494756969
 10
110.3457193734552
 20
-138.790494756969
 10
110.3457193734552
 20
-138.790494756969
 10
110.3457193734552
 20
-138.790494756969
 10
110.3457193734552
 20
-140.3347588082323
 10
110.3457193734552
 20
-140.3347588082323
 10
110.3457193734552
 20
-140.3347588082323
 10
110.1214436573654
 20
-140.3347588082323
 10
110.1214436573654
 20
-140.3347588082323
 97
        0
 97
        1
330
117
 75
     2
 76
     1
 98
        1
 10
0.0
 20
0.0
450
        0
451
        0
460
0.0
461
0.0
452
        0
462
0.0
453
        0
470

  0
ENDBLK
  5
114
330
111
100
AcDbEntity
  8
0
100
AcDbBlockEnd
  0
BLOCK
  5
11E
330
11C
100
AcDbEntity
  8
0
100
AcDbBlockBegin
  2
Block_7
 70
     0
 10
0.0
 20
0.0
 30
0.0
  3
Block_7
  1

  0
INSERT
  5
121
330
11C
100
AcDbEntity
  8
レイヤー 1
100
AcDbBlockReference
  2
Block_8
 10
0.0
 20
0.0
 30
0.0
  0
ENDBLK
  5
11F
330
11C
100
AcDbEntity
  8
0
100
AcDbBlockEnd
  0
BLOCK
  5
122
330
120
100
AcDbEntity
  8
0
100
AcDbBlockBegin
  2
Block_8
 70
     0
 10
0.0
 20
0.0
 30
0.0
  3
Block_8
  1

  0
SPLINE
  5
124
330
120
100
AcDbEntity
  8
レイヤー 1
100
AcDbSpline
210
0.0
220
0.0
230
1.0
 70
    11
 71
     3
 72
    26
 73
    22
 74
     0
 42
0.0000000001
 43
0.0000000001
 40
0.0
 40
0.0
 40
0.0
 40
0.0
 40
1.0
 40
1.0
 40
1.0
 40
2.0
 40
2.0
 40
2.0
 40
3.0
 40
3.0
 40
3.0
 40
4.0
 40
4.0
 40
4.0
 40
5.0
 40
5.0
 40
5.0
 40
6.0
 40
6.0
 40
6.0
 40
7.0
 40
7.0
 40
7.0
 40
7.0
 10
92.5211398423211
 20
-140.3347588082323
 30
0.0
 10
92.5211398423211
 20
-140.3347588082323
 30
0.0
 10
92.5211398423211
 20
-139.2304334504354
 30
0.0
 10
92.5211398423211
 20
-139.2304334504354
 30
0.0
 10
92.5211398423211
 20
-139.2304334504354
 30
0.0
 10
92.19109969483417
 20
-139.2304334504354
 30
0.0
 10
92.19109969483417
 20
-139.2304334504354
 30
0.0
 10
92.19109969483417
 20
-139.2304334504354
 30
0.0
 10
92.19109969483417
 20
-139.0822943445697
 30
0.0
 10
92.19109969483417
 20
-139.0822943445697
 30
0.0
 10
92.52320689961226
 20
-139.0676526887574
 30
0.0
 10
92.56971568866314
 20
-138.904699672305
 30
0.0
 10
92.59934350983627
 20
-138.790494756969
 30
0.0
 10
92.59934350983627
 20
-138.790494756969
 30
0.0
 10
92.74541555841087
 20
-138.790494756969
 30
0.0
 10
92.74541555841087
 20
-138.790494756969
 30
0.0
 10
92.74541555841087
 20
-138.790494756969
 30
0.0
 10
92.74541555841087
 20
-140.3347588082323
 30
0.0
 10
92.74541555841087
 20
-140.3347588082323
 30
0.0
 10
92.74541555841087
 20
-140.3347588082323
 30
0.0
 10
92.5211398423211
 20
-140.3347588082323
 30
0.0
 10
92.5211398423211
 20
-140.3347588082323
 30
0.0
  0
HATCH
  5
125
330
120
100
AcDbEntity
  8
レイヤー 1
 62
   250
420
  2299925
440
 33554687
100
AcDbHatch
 10
0.0
 20
0.0
 30
0.0
210
0.0
220
0.0
230
1.0
  2
SOLID
 70
     1
 71
     1
 91
        1
 92
        1
 93
        1
 72
     4
 94
        3
 73
     0
 74
     0
 95
       26
 96
       22
 40
0.0
 40
0.0
 40
0.0
 40
0.0
 40
1.0
 40
1.0
 40
1.0
 40
2.0
 40
2.0
 40
2.0
 40
3.0
 40
3.0
 40
3.0
 40
4.0
 40
4.0
 40
4.0
 40
5.0
 40
5.0
 40
5.0
 40
6.0
 40
6.0
 40
6.0
 40
7.0
 40
7.0
 40
7.0
 40
7.0
 10
92.5211398423211
 20
-140.3347588082323
 10
92.5211398423211
 20
-140.3347588082323
 10
92.5211398423211
 20
-139.2304334504354
 10
92.5211398423211
 20
-139.2304334504354
 10
92.5211398423211
 20
-139.2304334504354
 10
92.19109969483417
 20
-139.2304334504354
 10
92.19109969483417
 20
-139.2304334504354
 10
92.19109969483417
 20
-139.2304334504354
 10
92.19109969483417
 20
-139.0822943445697
 10
92.19109969483417
 20
-139.0822943445697
 10
92.52320689961226
 20
-139.0676526887574
 10
92.56971568866314
 20
-138.904699672305
 10
92.59934350983627
 20
-138.790494756969
 10
92.59934350983627
 20
-138.790494756969
 10
92.74541555841087
 20
-138.790494756969
 10
92.74541555841087
 20
-138.790494756969
 10
92.74541555841087
 20
-138.790494756969
 10
92.74541555841087
 20
-140.3347588082323
 10
92.74541555841087
 20
-140.3347588082323
 10
92.74541555841087
 20
-140.3347588082323
 10
92.5211398423211
 20
-140.3347588082323
 10
92.5211398423211
 20
-140.3347588082323
 97
        0
 97
        1
330
124
 75
     2
 76
     1
 98
        1
 10
0.0
 20
0.0
450
        0
451
        0
460
0.0
461
0.0
452
        0
462
0.0
453
        0
470

  0
SPLINE
  5
126
330
120
100
AcDbEntity
  8
レイヤー 1
100
AcDbSpline
210
0.0
220
0.0
230
1.0
 70
     9
 71
     3
 72
    44
 73
    40
 74
     0
 42
0.0000000001
 43
0.0000000001
 40
0.0
 40
0.0
 40
0.0
 40
0.0
 40
1.0
 40
1.0
 40
1.0
 40
2.0
 40
2.0
 40
2.0
 40
3.0
 40
3.0
 40
3.0
 40
4.0
 40
4.0
 40
4.0
 40
5.0
 40
5.0
 40
5.0
 40
6.0
 40
6.0
 40
6.0
 40
7.0
 40
7.0
 40
7.0
 40
8.0
 40
8.0
 40
8.0
 40
9.0
 40
9.0
 40
9.0
 40
10.0
 40
10.0
 40
10.0
 40
11.0
 40
11.0
 40
11.0
 40
12.0
 40
12.0
 40
12.0
 40
13.0
 40
13.0
 40
13.0
 40
13.0
 10
93.83957788452622
 20
-139.7530544355478
 30
0.0
 10
93.62184784985842
 20
-139.9117010826436
 30
0.0
 10
93.52883027175669
 20
-139.9857706355764
 30
0.0
 10
93.47990991586614
 20
-140.1296033720856
 30
0.0
 10
93.47990991586614
 20
-140.1296033720856
 30
0.0
 10
94.2585014955326
 20
-140.1296033720856
 30
0.0
 10
94.2585014955326
 20
-140.1296033720856
 30
0.0
 10
94.2585014955326
 20
-140.1296033720856
 30
0.0
 10
94.2585014955326
 20
-140.3347588082323
 30
0.0
 10
94.2585014955326
 20
-140.3347588082323
 30
0.0
 10
94.2585014955326
 20
-140.3347588082323
 30
0.0
 10
93.23048500273406
 20
-140.3347588082323
 30
0.0
 10
93.23048500273406
 20
-140.3347588082323
 30
0.0
 10
93.26217988119834
 20
-139.9771578968633
 30
0.0
 10
93.3276366954181
 20
-139.8989542293482
 30
0.0
 10
93.71279837066902
 20
-139.6006089603255
 30
0.0
 10
93.96876896522309
 20
-139.4018269508266
 30
0.0
 10
94.03422577944283
 20
-139.3341308245414
 30
0.0
 10
94.03422577944283
 20
-139.19667151468
 30
0.0
 10
94.03422577944283
 20
-139.0781602299874
 30
0.0
 10
93.9622232838011
 20
-138.9469020919994
 30
0.0
 10
93.76550833159335
 20
-138.9469020919994
 30
0.0
 10
93.50540362245698
 20
-138.9469020919994
 30
0.0
 10
93.49679088374385
 20
-139.1775512347368
 30
0.0
 10
93.49265676916155
 20
-139.2939954621383
 30
0.0
 10
93.49265676916155
 20
-139.2939954621383
 30
0.0
 10
93.2683810530718
 20
-139.2939954621383
 30
0.0
 10
93.2683810530718
 20
-139.2939954621383
 30
0.0
 10
93.27699379178492
 20
-139.1670436935068
 30
0.0
 10
93.2876735877892
 20
-139.0549058354619
 30
0.0
 10
93.36794431259551
 20
-138.9363945507694
 30
0.0
 10
93.47784285857498
 20
-138.7756808463824
 30
0.0
 10
93.664222524327
 20
-138.7417466558527
 30
0.0
 10
93.78032224217992
 20
-138.7417466558527
 30
0.0
 10
94.05765242874252
 20
-138.7417466558527
 30
0.0
 10
94.26504717695458
 20
-138.9258870095393
 30
0.0
 10
94.26504717695458
 20
-139.1987385719711
 30
0.0
 10
94.26504717695458
 20
-139.4271484026432
 30
0.0
 10
94.14860294955314
 20
-139.5267116621669
 30
0.0
 10
93.83957788452622
 20
-139.7530544355478
 30
0.0
  0
HATCH
  5
127
330
120
100
AcDbEntity
  8
レイヤー 1
 62
   250
420
  2299925
440
 33554687
100
AcDbHatch
 10
0.0
 20
0.0
 30
0.0
210
0.0
220
0.0
230
1.0
  2
SOLID
 70
     1
 71
     1
 91
        1
 92
        1
 93
        1
 72
     4
 94
        3
 73
     0
 74
     0
 95
       44
 96
       40
 40
0.0
 40
0.0
 40
0.0
 40
0.0
 40
1.0
 40
1.0
 40
1.0
 40
2.0
 40
2.0
 40
2.0
 40
3.0
 40
3.0
 40
3.0
 40
4.0
 40
4.0
 40
4.0
 40
5.0
 40
5.0
 40
5.0
 40
6.0
 40
6.0
 40
6.0
 40
7.0
 40
7.0
 40
7.0
 40
8.0
 40
8.0
 40
8.0
 40
9.0
 40
9.0
 40
9.0
 40
10.0
 40
10.0
 40
10.0
 40
11.0
 40
11.0
 40
11.0
 40
12.0
 40
12.0
 40
12.0
 40
13.0
 40
13.0
 40
13.0
 40
13.0
 10
93.83957788452622
 20
-139.7530544355478
 10
93.62184784985842
 20
-139.9117010826436
 10
93.52883027175669
 20
-139.9857706355764
 10
93.47990991586614
 20
-140.1296033720856
 10
93.47990991586614
 20
-140.1296033720856
 10
94.2585014955326
 20
-140.1296033720856
 10
94.2585014955326
 20
-140.1296033720856
 10
94.2585014955326
 20
-140.1296033720856
 10
94.2585014955326
 20
-140.3347588082323
 10
94.2585014955326
 20
-140.3347588082323
 10
94.2585014955326
 20
-140.3347588082323
 10
93.23048500273406
 20
-140.3347588082323
 10
93.23048500273406
 20
-140.3347588082323
 10
93.26217988119834
 20
-139.9771578968633
 10
93.3276366954181
 20
-139.8989542293482
 10
93.71279837066902
 20
-139.6006089603255
 10
93.96876896522309
 20
-139.4018269508266
 10
94.03422577944283
 20
-139.3341308245414
 10
94.03422577944283
 20
-139.19667151468
 10
94.03422577944283
 20
-139.0781602299874
 10
93.9622232838011
 20
-138.9469020919994
 10
93.76550833159335
 20
-138.9469020919994
 10
93.50540362245698
 20
-138.9469020919994
 10
93.49679088374385
 20
-139.1775512347368
 10
93.49265676916155
 20
-139.2939954621383
 10
93.49265676916155
 20
-139.2939954621383
 10
93.2683810530718
 20
-139.2939954621383
 10
93.2683810530718
 20
-139.2939954621383
 10
93.27699379178492
 20
-139.1670436935068
 10
93.2876735877892
 20
-139.0549058354619
 10
93.36794431259551
 20
-138.9363945507694
 10
93.47784285857498
 20
-138.7756808463824
 10
93.664222524327
 20
-138.7417466558527
 10
93.78032224217992
 20
-138.7417466558527
 10
94.05765242874252
 20
-138.7417466558527
 10
94.26504717695458
 20
-138.9258870095393
 10
94.26504717695458
 20
-139.1987385719711
 10
94.26504717695458
 20
-139.4271484026432
 10
94.14860294955314
 20
-139.5267116621669
 10
93.83957788452622
 20
-139.7530544355478
 97
        0
 97
        1
330
126
 75
     2
 76
     1
 98
        1
 10
0.0
 20
0.0
450
        0
451
        0
460
0.0
461
0.0
452
        0
462
0.0
453
        0
470

  0
ENDBLK
  5
123
330
120
100
AcDbEntity
  8
0
100
AcDbBlockEnd
  0
BLOCK
  5
12F
330
12D
100
AcDbEntity
  8
0
100
AcDbBlockBegin
  2
Block_9
 70
     0
 10
0.0
 20
0.0
 30
0.0
  3
Block_9
  1

  0
INSERT
  5
132
330
12D
100
AcDbEntity
  8
レイヤー 1
100
AcDbBlockReference
  2
Block_10
 10
0.0
 20
0.0
 30
0.0
  0
ENDBLK
  5
130
330
12D
100
AcDbEntity
  8
0
100
AcDbBlockEnd
  0
BLOCK
  5
133
330
131
100
AcDbEntity
  8
0
100
AcDbBlockBegin
  2
Block_10
 70
     0
 10
0.0
 20
0.0
 30
0.0
  3
Block_10
  1

  0
SPLINE
  5
135
330
131
100
AcDbEntity
  8
レイヤー 1
100
AcDbSpline
210
0.0
220
0.0
230
1.0
 70
    11
 71
     3
 72
    26
 73
    22
 74
     0
 42
0.0000000001
 43
0.0000000001
 40
0.0
 40
0.0
 40
0.0
 40
0.0
 40
1.0
 40
1.0
 40
1.0
 40
2.0
 40
2.0
 40
2.0
 40
3.0
 40
3.0
 40
3.0
 40
4.0
 40
4.0
 40
4.0
 40
5.0
 40
5.0
 40
5.0
 40
6.0
 40
6.0
 40
6.0
 40
7.0
 40
7.0
 40
7.0
 40
7.0
 10
92.5211398423211
 20
-157.4046901733224
 30
0.0
 10
92.5211398423211
 20
-157.4046901733224
 30
0.0
 10
92.5211398423211
 20
-156.3005370702998
 30
0.0
 10
92.5211398423211
 20
-156.3005370702998
 30
0.0
 10
92.5211398423211
 20
-156.3005370702998
 30
0.0
 10
92.19109969483417
 20
-156.3005370702998
 30
0.0
 10
92.19109969483417
 20
-156.3005370702998
 30
0.0
 10
92.19109969483417
 20
-156.3005370702998
 30
0.0
 10
92.19109969483417
 20
-156.1523979644341
 30
0.0
 10
92.19109969483417
 20
-156.1523979644341
 30
0.0
 10
92.52320689961226
 20
-156.1375840538475
 30
0.0
 10
92.56971568866314
 20
-155.9746310373952
 30
0.0
 10
92.59934350983627
 20
-155.8602538672849
 30
0.0
 10
92.59934350983627
 20
-155.8602538672849
 30
0.0
 10
92.74541555841087
 20
-155.8602538672849
 30
0.0
 10
92.74541555841087
 20
-155.8602538672849
 30
0.0
 10
92.74541555841087
 20
-155.8602538672849
 30
0.0
 10
92.74541555841087
 20
-157.4046901733224
 30
0.0
 10
92.74541555841087
 20
-157.4046901733224
 30
0.0
 10
92.74541555841087
 20
-157.4046901733224
 30
0.0
 10
92.5211398423211
 20
-157.4046901733224
 30
0.0
 10
92.5211398423211
 20
-157.4046901733224
 30
0.0
  0
HATCH
  5
136
330
131
100
AcDbEntity
  8
レイヤー 1
 62
   250
420
  2299925
440
 33554687
100
AcDbHatch
 10
0.0
 20
0.0
 30
0.0
210
0.0
220
0.0
230
1.0
  2
SOLID
 70
     1
 71
     1
 91
        1
 92
        1
 93
        1
 72
     4
 94
        3
 73
     0
 74
     0
 95
       26
 96
       22
 40
0.0
 40
0.0
 40
0.0
 40
0.0
 40
1.0
 40
1.0
 40
1.0
 40
2.0
 40
2.0
 40
2.0
 40
3.0
 40
3.0
 40
3.0
 40
4.0
 40
4.0
 40
4.0
 40
5.0
 40
5.0
 40
5.0
 40
6.0
 40
6.0
 40
6.0
 40
7.0
 40
7.0
 40
7.0
 40
7.0
 10
92.5211398423211
 20
-157.4046901733224
 10
92.5211398423211
 20
-157.4046901733224
 10
92.5211398423211
 20
-156.3005370702998
 10
92.5211398423211
 20
-156.3005370702998
 10
92.5211398423211
 20
-156.3005370702998
 10
92.19109969483417
 20
-156.3005370702998
 10
92.19109969483417
 20
-156.3005370702998
 10
92.19109969483417
 20
-156.3005370702998
 10
92.19109969483417
 20
-156.1523979644341
 10
92.19109969483417
 20
-156.1523979644341
 10
92.52320689961226
 20
-156.1375840538475
 10
92.56971568866314
 20
-155.9746310373952
 10
92.59934350983627
 20
-155.8602538672849
 10
92.59934350983627
 20
-155.8602538672849
 10
92.74541555841087
 20
-155.8602538672849
 10
92.74541555841087
 20
-155.8602538672849
 10
92.74541555841087
 20
-155.8602538672849
 10
92.74541555841087
 20
-157.4046901733224
 10
92.74541555841087
 20
-157.4046901733224
 10
92.74541555841087
 20
-157.4046901733224
 10
92.5211398423211
 20
-157.4046901733224
 10
92.5211398423211
 20
-157.4046901733224
 97
        0
 97
        1
330
135
 75
     2
 76
     1
 98
        1
 10
0.0
 20
0.0
450
        0
451
        0
460
0.0
461
0.0
452
        0
462
0.0
453
        0
470

  0
SPLINE
  5
137
330
131
100
AcDbEntity
  8
レイヤー 1
100
AcDbSpline
210
0.0
220
0.0
230
1.0
 70
    11
 71
     3
 72
    14
 73
    10
 74
     0
 42
0.0000000001
 43
0.0000000001
 40
0.0
 40
0.0
 40
0.0
 40
0.0
 40
1.0
 40
1.0
 40
1.0
 40
2.0
 40
2.0
 40
2.0
 40
3.0
 40
3.0
 40
3.0
 40
3.0
 10
93.86093747653477
 20
-156.2030408680673
 30
0.0
 10
93.86093747653477
 20
-156.2030408680673
 30
0.0
 10
93.40377330564212
 20
-156.8589870484588
 30
0.0
 10
93.40377330564212
 20
-156.8589870484588
 30
0.0
 10
93.40377330564212
 20
-156.8589870484588
 30
0.0
 10
93.86093747653477
 20
-156.8589870484588
 30
0.0
 10
93.86093747653477
 20
-156.8589870484588
 30
0.0
 10
93.86093747653477
 20
-156.8589870484588
 30
0.0
 10
93.86093747653477
 20
-156.2030408680673
 30
0.0
 10
93.86093747653477
 20
-156.2030408680673
 30
0.0
  0
SPLINE
  5
138
330
131
100
AcDbEntity
  8
レイヤー 1
100
AcDbSpline
210
0.0
220
0.0
230
1.0
 70
    11
 71
     3
 72
    38
 73
    34
 74
     0
 42
0.0000000001
 43
0.0000000001
 40
0.0
 40
0.0
 40
0.0
 40
0.0
 40
1.0
 40
1.0
 40
1.0
 40
2.0
 40
2.0
 40
2.0
 40
3.0
 40
3.0
 40
3.0
 40
4.0
 40
4.0
 40
4.0
 40
5.0
 40
5.0
 40
5.0
 40
6.0
 40
6.0
 40
6.0
 40
7.0
 40
7.0
 40
7.0
 40
8.0
 40
8.0
 40
8.0
 40
9.0
 40
9.0
 40
9.0
 40
10.0
 40
10.0
 40
10.0
 40
11.0
 40
11.0
 40
11.0
 40
11.0
 10
94.07866751120256
 20
-157.0577690579578
 30
0.0
 10
94.07866751120256
 20
-157.0577690579578
 30
0.0
 10
94.07866751120256
 20
-157.4046901733224
 30
0.0
 10
94.07866751120256
 20
-157.4046901733224
 30
0.0
 10
94.07866751120256
 20
-157.4046901733224
 30
0.0
 10
93.86093747653477
 20
-157.4046901733224
 30
0.0
 10
93.86093747653477
 20
-157.4046901733224
 30
0.0
 10
93.86093747653477
 20
-157.4046901733224
 30
0.0
 10
93.86093747653477
 20
-157.0577690579578
 30
0.0
 10
93.86093747653477
 20
-157.0577690579578
 30
0.0
 10
93.86093747653477
 20
-157.0577690579578
 30
0.0
 10
93.2049912961432
 20
-157.0577690579578
 30
0.0
 10
93.2049912961432
 20
-157.0577690579578
 30
0.0
 10
93.2049912961432
 20
-157.0577690579578
 30
0.0
 10
93.2049912961432
 20
-156.833493341868
 30
0.0
 10
93.2049912961432
 20
-156.833493341868
 30
0.0
 10
93.2049912961432
 20
-156.833493341868
 30
0.0
 10
93.88401961628593
 20
-155.8602538672849
 30
0.0
 10
93.88401961628593
 20
-155.8602538672849
 30
0.0
 10
93.88401961628593
 20
-155.8602538672849
 30
0.0
 10
94.07866751120256
 20
-155.8602538672849
 30
0.0
 10
94.07866751120256
 20
-155.8602538672849
 30
0.0
 10
94.07866751120256
 20
-155.8602538672849
 30
0.0
 10
94.07866751120256
 20
-156.8589870484588
 30
0.0
 10
94.07866751120256
 20
-156.8589870484588
 30
0.0
 10
94.07866751120256
 20
-156.8589870484588
 30
0.0
 10
94.28606225941461
 20
-156.8589870484588
 30
0.0
 10
94.28606225941461
 20
-156.8589870484588
 30
0.0
 10
94.28606225941461
 20
-156.8589870484588
 30
0.0
 10
94.28606225941461
 20
-157.0577690579578
 30
0.0
 10
94.28606225941461
 20
-157.0577690579578
 30
0.0
 10
94.28606225941461
 20
-157.0577690579578
 30
0.0
 10
94.07866751120256
 20
-157.0577690579578
 30
0.0
 10
94.07866751120256
 20
-157.0577690579578
 30
0.0
  0
HATCH
  5
139
330
131
100
AcDbEntity
  8
レイヤー 1
 62
   250
420
  2299925
440
 33554687
100
AcDbHatch
 10
0.0
 20
0.0
 30
0.0
210
0.0
220
0.0
230
1.0
  2
SOLID
 70
     1
 71
     1
 91
        2
 92
        1
 93
        1
 72
     4
 94
        3
 73
     0
 74
     0
 95
       14
 96
       10
 40
0.0
 40
0.0
 40
0.0
 40
0.0
 40
1.0
 40
1.0
 40
1.0
 40
2.0
 40
2.0
 40
2.0
 40
3.0
 40
3.0
 40
3.0
 40
3.0
 10
93.86093747653477
 20
-156.2030408680673
 10
93.86093747653477
 20
-156.2030408680673
 10
93.40377330564212
 20
-156.8589870484588
 10
93.40377330564212
 20
-156.8589870484588
 10
93.40377330564212
 20
-156.8589870484588
 10
93.86093747653477
 20
-156.8589870484588
 10
93.86093747653477
 20
-156.8589870484588
 10
93.86093747653477
 20
-156.8589870484588
 10
93.86093747653477
 20
-156.2030408680673
 10
93.86093747653477
 20
-156.2030408680673
 97
        0
 97
        1
330
137
 92
        1
 93
        1
 72
     4
 94
        3
 73
     0
 74
     0
 95
       38
 96
       34
 40
0.0
 40
0.0
 40
0.0
 40
0.0
 40
1.0
 40
1.0
 40
1.0
 40
2.0
 40
2.0
 40
2.0
 40
3.0
 40
3.0
 40
3.0
 40
4.0
 40
4.0
 40
4.0
 40
5.0
 40
5.0
 40
5.0
 40
6.0
 40
6.0
 40
6.0
 40
7.0
 40
7.0
 40
7.0
 40
8.0
 40
8.0
 40
8.0
 40
9.0
 40
9.0
 40
9.0
 40
10.0
 40
10.0
 40
10.0
 40
11.0
 40
11.0
 40
11.0
 40
11.0
 10
94.07866751120256
 20
-157.0577690579578
 10
94.07866751120256
 20
-157.0577690579578
 10
94.07866751120256
 20
-157.4046901733224
 10
94.07866751120256
 20
-157.4046901733224
 10
94.07866751120256
 20
-157.4046901733224
 10
93.86093747653477
 20
-157.4046901733224
 10
93.86093747653477
 20
-157.4046901733224
 10
93.86093747653477
 20
-157.4046901733224
 10
93.86093747653477
 20
-157.0577690579578
 10
93.86093747653477
 20
-157.0577690579578
 10
93.86093747653477
 20
-157.0577690579578
 10
93.2049912961432
 20
-157.0577690579578
 10
93.2049912961432
 20
-157.0577690579578
 10
93.2049912961432
 20
-157.0577690579578
 10
93.2049912961432
 20
-156.833493341868
 10
93.2049912961432
 20
-156.833493341868
 10
93.2049912961432
 20
-156.833493341868
 10
93.88401961628593
 20
-155.8602538672849
 10
93.88401961628593
 20
-155.8602538672849
 10
93.88401961628593
 20
-155.8602538672849
 10
94.07866751120256
 20
-155.8602538672849
 10
94.07866751120256
 20
-155.8602538672849
 10
94.07866751120256
 20
-155.8602538672849
 10
94.07866751120256
 20
-156.8589870484588
 10
94.07866751120256
 20
-156.8589870484588
 10
94.07866751120256
 20
-156.8589870484588
 10
94.28606225941461
 20
-156.8589870484588
 10
94.28606225941461
 20
-156.8589870484588
 10
94.28606225941461
 20
-156.8589870484588
 10
94.28606225941461
 20
-157.0577690579578
 10
94.28606225941461
 20
-157.0577690579578
 10
94.28606225941461
 20
-157.0577690579578
 10
94.07866751120256
 20
-157.0577690579578
 10
94.07866751120256
 20
-157.0577690579578
 97
        0
 97
        1
330
138
 75
     2
 76
     1
 98
        1
 10
0.0
 20
0.0
450
        0
451
        0
460
0.0
461
0.0
452
        0
462
0.0
453
        0
470

  0
ENDBLK
  5
134
330
131
100
AcDbEntity
  8
0
100
AcDbBlockEnd
  0
BLOCK
  5
13D
330
13B
100
AcDbEntity
  8
0
100
AcDbBlockBegin
  2
Block_11
 70
     0
 10
0.0
 20
0.0
 30
0.0
  3
Block_11
  1

  0
SPLINE
  5
13F
330
13B
100
AcDbEntity
  8
レイヤー 1
100
AcDbSpline
210
0.0
220
0.0
230
1.0
 70
    11
 71
     3
 72
    26
 73
    22
 74
     0
 42
0.0000000001
 43
0.0000000001
 40
0.0
 40
0.0
 40
0.0
 40
0.0
 40
1.0
 40
1.0
 40
1.0
 40
2.0
 40
2.0
 40
2.0
 40
3.0
 40
3.0
 40
3.0
 40
4.0
 40
4.0
 40
4.0
 40
5.0
 40
5.0
 40
5.0
 40
6.0
 40
6.0
 40
6.0
 40
7.0
 40
7.0
 40
7.0
 40
7.0
 10
102.0933376480878
 20
-149.6876762863628
 30
0.0
 10
102.0933376480878
 20
-149.6876762863628
 30
0.0
 10
102.0933376480878
 20
-148.5831786737917
 30
0.0
 10
102.0933376480878
 20
-148.5831786737917
 30
0.0
 10
102.0933376480878
 20
-148.5831786737917
 30
0.0
 10
101.7632975006008
 20
-148.5831786737917
 30
0.0
 10
101.7632975006008
 20
-148.5831786737917
 30
0.0
 10
101.7632975006008
 20
-148.5831786737917
 30
0.0
 10
101.7632975006008
 20
-148.4350395679259
 30
0.0
 10
101.7632975006008
 20
-148.4350395679259
 30
0.0
 10
102.0954047053789
 20
-148.4203979121136
 30
0.0
 10
102.1419134944298
 20
-148.2574448956613
 30
0.0
 10
102.1715413156029
 20
-148.1432399803253
 30
0.0
 10
102.1715413156029
 20
-148.1432399803253
 30
0.0
 10
102.3176133641775
 20
-148.1432399803253
 30
0.0
 10
102.3176133641775
 20
-148.1432399803253
 30
0.0
 10
102.3176133641775
 20
-148.1432399803253
 30
0.0
 10
102.3176133641775
 20
-149.6876762863628
 30
0.0
 10
102.3176133641775
 20
-149.6876762863628
 30
0.0
 10
102.3176133641775
 20
-149.6876762863628
 30
0.0
 10
102.0933376480878
 20
-149.6876762863628
 30
0.0
 10
102.0933376480878
 20
-149.6876762863628
 30
0.0
  0
HATCH
  5
140
330
13B
100
AcDbEntity
  8
レイヤー 1
 62
   250
420
  2299925
440
 33554687
100
AcDbHatch
 10
0.0
 20
0.0
 30
0.0
210
0.0
220
0.0
230
1.0
  2
SOLID
 70
     1
 71
     1
 91
        1
 92
        1
 93
        1
 72
     4
 94
        3
 73
     0
 74
     0
 95
       26
 96
       22
 40
0.0
 40
0.0
 40
0.0
 40
0.0
 40
1.0
 40
1.0
 40
1.0
 40
2.0
 40
2.0
 40
2.0
 40
3.0
 40
3.0
 40
3.0
 40
4.0
 40
4.0
 40
4.0
 40
5.0
 40
5.0
 40
5.0
 40
6.0
 40
6.0
 40
6.0
 40
7.0
 40
7.0
 40
7.0
 40
7.0
 10
102.0933376480878
 20
-149.6876762863628
 10
102.0933376480878
 20
-149.6876762863628
 10
102.0933376480878
 20
-148.5831786737917
 10
102.0933376480878
 20
-148.5831786737917
 10
102.0933376480878
 20
-148.5831786737917
 10
101.7632975006008
 20
-148.5831786737917
 10
101.7632975006008
 20
-148.5831786737917
 10
101.7632975006008
 20
-148.5831786737917
 10
101.7632975006008
 20
-148.4350395679259
 10
101.7632975006008
 20
-148.4350395679259
 10
102.0954047053789
 20
-148.4203979121136
 10
102.1419134944298
 20
-148.2574448956613
 10
102.1715413156029
 20
-148.1432399803253
 10
102.1715413156029
 20
-148.1432399803253
 10
102.3176133641775
 20
-148.1432399803253
 10
102.3176133641775
 20
-148.1432399803253
 10
102.3176133641775
 20
-148.1432399803253
 10
102.3176133641775
 20
-149.6876762863628
 10
102.3176133641775
 20
-149.6876762863628
 10
102.3176133641775
 20
-149.6876762863628
 10
102.0933376480878
 20
-149.6876762863628
 10
102.0933376480878
 20
-149.6876762863628
 97
        0
 97
        1
330
13F
 75
     2
 76
     1
 98
        1
 10
0.0
 20
0.0
450
        0
451
        0
460
0.0
461
0.0
452
        0
462
0.0
453
        0
470

  0
ENDBLK
  5
13E
330
13B
100
AcDbEntity
  8
0
100
AcDbBlockEnd
  0
BLOCK
  5
143
330
141
100
AcDbEntity
  8
0
100
AcDbBlockBegin
  2
Block_12
 70
     0
 10
0.0
 20
0.0
 30
0.0
  3
Block_12
  1

  0
SPLINE
  5
145
330
141
100
AcDbEntity
  8
レイヤー 1
 62
   250
420
  2299925
370
     9
100
AcDbSpline
210
0.0
220
0.0
230
1.0
 70
     8
 71
     3
 72
     8
 73
     4
 74
     0
 42
0.0000000001
 43
0.0000000001
 40
0.0
 40
0.0
 40
0.0
 40
0.0
 40
1.0
 40
1.0
 40
1.0
 40
1.0
 10
133.790399488645
 20
-150.3713875927367
 30
0.0
 10
133.790399488645
 20
-150.3713875927367
 30
0.0
 10
133.0862197843879
 20
-149.8963370373003
 30
0.0
 10
132.9725195095109
 20
-150.3142023149734
 30
0.0
  0
SPLINE
  5
146
330
141
100
AcDbEntity
  8
レイヤー 1
 62
   250
420
  2299925
370
     9
100
AcDbSpline
210
0.0
220
0.0
230
1.0
 70
     8
 71
     3
 72
    26
 73
    22
 74
     0
 42
0.0000000001
 43
0.0000000001
 40
0.0
 40
0.0
 40
0.0
 40
0.0
 40
1.0
 40
1.0
 40
1.0
 40
2.0
 40
2.0
 40
2.0
 40
3.0
 40
3.0
 40
3.0
 40
4.0
 40
4.0
 40
4.0
 40
5.0
 40
5.0
 40
5.0
 40
6.0
 40
6.0
 40
6.0
 40
7.0
 40
7.0
 40
7.0
 40
7.0
 10
134.3223178084079
 20
-143.3571775944908
 30
0.0
 10
134.3223178084079
 20
-143.3571775944908
 30
0.0
 10
125.7302388609435
 20
-146.3799187048459
 30
0.0
 10
125.7302388609435
 20
-146.3799187048459
 30
0.0
 10
125.7302388609435
 20
-146.3799187048459
 30
0.0
 10
124.3618491736318
 20
-146.6455250936683
 30
0.0
 10
124.8751761049802
 20
-147.1020195379985
 30
0.0
 10
124.8751761049802
 20
-147.1020195379985
 30
0.0
 10
125.1790235972284
 20
-147.2918139823957
 30
0.0
 10
125.7116474725289
 20
-147.5012934267876
 30
0.0
 10
125.7116474725289
 20
-147.5012934267876
 30
0.0
 10
130.7483615106983
 20
-149.5352689818352
 30
0.0
 10
130.7483615106983
 20
-149.5352689818352
 30
0.0
 10
130.7483615106983
 20
-149.5352689818352
 30
0.0
 10
130.7104731783316
 20
-152.5948753699584
 30
0.0
 10
130.7104731783316
 20
-152.5948753699584
 30
0.0
 10
130.7104731783316
 20
-152.5948753699584
 30
0.0
 10
133.3528492220301
 20
-153.868861758529
 30
0.0
 10
133.3528492220301
 20
-153.868861758529
 30
0.0
 10
133.3528492220301
 20
-153.868861758529
 30
0.0
 10
137.0590971830313
 20
-152.2909925922574
 30
0.0
 10
137.0590971830313
 20
-152.2909925922574
 30
0.0
  0
LINE
  5
147
330
141
100
AcDbEntity
  8
レイヤー 1
 62
   250
420
  2299925
370
     9
100
AcDbLine
 10
133.0483314520212
 20
-150.1812403705624
 30
0.0
 11
142.3431789926676
 21
-146.1893834271157
 31
0.0
  0
SPLINE
  5
148
330
141
100
AcDbEntity
  8
レイヤー 1
 62
   250
420
  2299925
370
     9
100
AcDbSpline
210
0.0
220
0.0
230
1.0
 70
     8
 71
     3
 72
    26
 73
    22
 74
     0
 42
0.0000000001
 43
0.0000000001
 40
0.0
 40
0.0
 40
0.0
 40
0.0
 40
1.0
 40
1.0
 40
1.0
 40
2.0
 40
2.0
 40
2.0
 40
3.0
 40
3.0
 40
3.0
 40
4.0
 40
4.0
 40
4.0
 40
5.0
 40
5.0
 40
5.0
 40
6.0
 40
6.0
 40
6.0
 40
7.0
 40
7.0
 40
7.0
 40
7.0
 10
134.4167211393328
 20
-143.5280631500034
 30
0.0
 10
134.4167211393328
 20
-143.5280631500034
 30
0.0
 10
125.5214649773809
 20
-146.6455250936683
 30
0.0
 10
125.5214649773809
 20
-146.6455250936683
 30
0.0
 10
125.5214649773809
 20
-146.6455250936683
 30
0.0
 10
125.0467319339368
 20
-146.7216545380936
 30
0.0
 10
125.0846241463111
 20
-146.8925400936066
 30
0.0
 10
125.0846241463111
 20
-146.8925400936066
 30
0.0
 10
125.0653586001282
 20
-146.9686695380319
 30
0.0
 10
125.3698763701371
 20
-147.0637784268973
 30
0.0
 10
125.3698763701371
 20
-147.0637784268973
 30
0.0
 10
131.0522442807234
 20
-149.3065278707807
 30
0.0
 10
131.0522442807234
 20
-149.3065278707807
 30
0.0
 10
131.0522442807234
 20
-149.3065278707807
 30
0.0
 10
131.0522442807234
 20
-152.272401203373
 30
0.0
 10
131.0522442807234
 20
-152.272401203373
 30
0.0
 10
131.0522442807234
 20
-152.272401203373
 30
0.0
 10
132.8588545124107
 20
-153.1274639809366
 30
0.0
 10
132.8588545124107
 20
-153.1274639809366
 30
0.0
 10
132.8588545124107
 20
-153.1274639809366
 30
0.0
 10
132.9911461757023
 20
-150.3142023149734
 30
0.0
 10
132.9911461757023
 20
-150.3142023149734
 30
0.0
  0
LINE
  5
149
330
141
100
AcDbEntity
  8
レイヤー 1
 62
   250
420
  2299925
370
     9
100
AcDbLine
 10
140.3670943208595
 20
-145.5809828717121
 30
0.0
 11
131.0522442807234
 21
-149.3640659263224
 31
0.0
  0
SPLINE
  5
14A
330
141
100
AcDbEntity
  8
レイヤー 1
 62
   250
420
  2299925
370
     9
100
AcDbSpline
210
0.0
220
0.0
230
1.0
 70
     8
 71
     3
 72
    20
 73
    16
 74
     0
 42
0.0000000001
 43
0.0000000001
 40
0.0
 40
0.0
 40
0.0
 40
0.0
 40
1.0
 40
1.0
 40
1.0
 40
2.0
 40
2.0
 40
2.0
 40
3.0
 40
3.0
 40
3.0
 40
4.0
 40
4.0
 40
4.0
 40
5.0
 40
5.0
 40
5.0
 40
5.0
 10
133.3528492220301
 20
-153.868861758529
 30
0.0
 10
133.3528492220301
 20
-153.868861758529
 30
0.0
 10
133.3528492220301
 20
-150.9415470370388
 30
0.0
 10
133.3528492220301
 20
-150.9415470370388
 30
0.0
 10
133.3528492220301
 20
-150.9415470370388
 30
0.0
 10
133.3528492220301
 20
-150.599811203791
 30
0.0
 10
133.5809241441866
 20
-150.7328084259802
 30
0.0
 10
133.5809241441866
 20
-150.7328084259802
 30
0.0
 10
138.8464104707665
 20
-153.0323903698491
 30
0.0
 10
138.8464104707665
 20
-153.0323903698491
 30
0.0
 10
138.8464104707665
 20
-153.0323903698491
 30
0.0
 10
139.5871026740921
 20
-153.48888481418
 30
0.0
 10
140.289906545051
 20
-153.2794053697878
 30
0.0
 10
140.289906545051
 20
-153.2794053697878
 30
0.0
 10
149.8334976904626
 20
-149.2307159263555
 30
0.0
 10
149.8334976904626
 20
-149.2307159263555
 30
0.0
  0
SPLINE
  5
14B
330
141
100
AcDbEntity
  8
レイヤー 1
 62
   250
420
  2299925
370
     9
100
AcDbSpline
210
0.0
220
0.0
230
1.0
 70
     8
 71
     3
 72
    20
 73
    16
 74
     0
 42
0.0000000001
 43
0.0000000001
 40
0.0
 40
0.0
 40
0.0
 40
0.0
 40
1.0
 40
1.0
 40
1.0
 40
2.0
 40
2.0
 40
2.0
 40
3.0
 40
3.0
 40
3.0
 40
4.0
 40
4.0
 40
4.0
 40
5.0
 40
5.0
 40
5.0
 40
5.0
 10
133.523734773226
 20
-150.238072870548
 30
0.0
 10
133.523734773226
 20
-150.238072870548
 30
0.0
 10
137.0405057946168
 20
-151.8538303701444
 30
0.0
 10
137.212065809946
 20
-151.949256759009
 30
0.0
 10
137.212065809946
 20
-151.949256759009
 30
0.0
 10
139.3590318465774
 20
-152.9566137032021
 30
0.0
 10
139.3590318465774
 20
-152.9566137032021
 30
0.0
 10
139.3590318465774
 20
-152.9566137032021
 30
0.0
 10
139.7779554470008
 20
-153.2990550920047
 30
0.0
 10
140.6902387570599
 20
-152.8425606476751
 30
0.0
 10
140.6902387570599
 20
-152.8425606476751
 30
0.0
 10
147.9897046819461
 20
-149.6682662040237
 30
0.0
 10
147.9897046819461
 20
-149.6682662040237
 30
0.0
 10
147.9897046819461
 20
-149.6682662040237
 30
0.0
 10
149.6433504730914
 20
-148.9644392597552
 30
0.0
 10
149.6433504730914
 20
-148.9644392597552
 30
0.0
  0
LINE
  5
14C
330
141
100
AcDbEntity
  8
レイヤー 1
 62
   250
420
  2299925
370
     9
100
AcDbLine
 10
131.0522442807234
 20
-152.272401203373
 30
0.0
 11
132.8967428447774
 21
-151.606462592428
 31
0.0
  0
SPLINE
  5
14D
330
141
100
AcDbEntity
  8
レイヤー 1
 62
   250
420
  2299925
370
     9
100
AcDbSpline
210
0.0
220
0.0
230
1.0
 70
     9
 71
     3
 72
    17
 73
    13
 74
     0
 42
0.0000000001
 43
0.0000000001
 40
0.0
 40
0.0
 40
0.0
 40
0.0
 40
1.0
 40
1.0
 40
1.0
 40
2.0
 40
2.0
 40
2.0
 40
3.0
 40
3.0
 40
3.0
 40
4.0
 40
4.0
 40
4.0
 40
4.0
 10
137.6468249458149
 20
-145.3622253717671
 30
0.0
 10
137.6468249458149
 20
-145.5971753717081
 30
0.0
 10
137.3181771764217
 20
-145.7880634272161
 30
0.0
 10
136.9137174645181
 20
-145.7880634272161
 30
0.0
 10
136.5072158101223
 20
-145.7880634272161
 30
0.0
 10
136.1799044276837
 20
-145.5971753717081
 30
0.0
 10
136.1799044276837
 20
-145.3622253717671
 30
0.0
 10
136.1799044276837
 20
-145.126922594048
 30
0.0
 10
136.5072158101223
 20
-144.9370928718733
 30
0.0
 10
136.9137174645181
 20
-144.9370928718733
 30
0.0
 10
137.3181771764217
 20
-144.9370928718733
 30
0.0
 10
137.6468249458149
 20
-145.126922594048
 30
0.0
 10
137.6468249458149
 20
-145.3622253717671
 30
0.0
  0
SPLINE
  5
14E
330
141
100
AcDbEntity
  8
レイヤー 1
 62
   250
420
  2299925
370
     9
100
AcDbSpline
210
0.0
220
0.0
230
1.0
 70
     8
 71
     3
 72
    11
 73
     7
 74
     0
 42
0.0000000001
 43
0.0000000001
 40
0.0
 40
0.0
 40
0.0
 40
0.0
 40
1.0
 40
1.0
 40
1.0
 40
2.0
 40
2.0
 40
2.0
 40
2.0
 10
136.307363035543
 20
-145.5965050939307
 30
0.0
 10
136.307363035543
 20
-145.5965050939307
 30
0.0
 10
136.2853185879553
 20
-145.085259538503
 30
0.0
 10
137.114906626052
 20
-145.1286512051587
 30
0.0
 10
137.114906626052
 20
-145.1286512051587
 30
0.0
 10
137.604103558016
 20
-145.1920453718093
 30
0.0
 10
137.5193663379556
 20
-145.5751267606025
 30
0.0
  0
SPLINE
  5
14F
330
141
100
AcDbEntity
  8
レイヤー 1
 62
   250
420
  2299925
370
     9
100
AcDbSpline
210
0.0
220
0.0
230
1.0
 70
     9
 71
     3
 72
    17
 73
    13
 74
     0
 42
0.0000000001
 43
0.0000000001
 40
0.0
 40
0.0
 40
0.0
 40
0.0
 40
1.0
 40
1.0
 40
1.0
 40
2.0
 40
2.0
 40
2.0
 40
3.0
 40
3.0
 40
3.0
 40
4.0
 40
4.0
 40
4.0
 40
4.0
 10
137.4104991185108
 20
-144.2818434275928
 30
0.0
 10
137.4104991185108
 20
-144.5167934275337
 30
0.0
 10
137.0818513491175
 20
-144.7076814830417
 30
0.0
 10
136.6773916372139
 20
-144.7076814830417
 30
0.0
 10
136.2715602546252
 20
-144.7076814830417
 30
0.0
 10
135.9435786003795
 20
-144.5167934275337
 30
0.0
 10
135.9435786003795
 20
-144.2818434275928
 30
0.0
 10
135.9435786003795
 20
-144.0468934276514
 30
0.0
 10
136.2715602546252
 20
-143.8560406499213
 30
0.0
 10
136.6773916372139
 20
-143.8560406499213
 30
0.0
 10
137.0818513491175
 20
-143.8560406499213
 30
0.0
 10
137.4104991185108
 20
-144.0468934276514
 30
0.0
 10
137.4104991185108
 20
-144.2818434275928
 30
0.0
  0
SPLINE
  5
150
330
141
100
AcDbEntity
  8
レイヤー 1
 62
   250
420
  2299925
370
     9
100
AcDbSpline
210
0.0
220
0.0
230
1.0
 70
     8
 71
     3
 72
    11
 73
     7
 74
     0
 42
0.0000000001
 43
0.0000000001
 40
0.0
 40
0.0
 40
0.0
 40
0.0
 40
1.0
 40
1.0
 40
1.0
 40
2.0
 40
2.0
 40
2.0
 40
2.0
 10
136.0710372082389
 20
-144.5154175942009
 30
0.0
 10
136.0710372082389
 20
-144.5154175942009
 30
0.0
 10
136.0496941532278
 20
-144.0045248165512
 30
0.0
 10
136.8792510765085
 20
-144.0479164832065
 30
0.0
 10
136.8792510765085
 20
-144.0479164832065
 30
0.0
 10
137.3677777307118
 20
-144.1109578720801
 30
0.0
 10
137.2830405106514
 20
-144.4947448164282
 30
0.0
  0
SPLINE
  5
151
330
141
100
AcDbEntity
  8
レイヤー 1
 62
   250
420
  2299925
370
     9
100
AcDbSpline
210
0.0
220
0.0
230
1.0
 70
     9
 71
     3
 72
    17
 73
    13
 74
     0
 42
0.0000000001
 43
0.0000000001
 40
0.0
 40
0.0
 40
0.0
 40
0.0
 40
1.0
 40
1.0
 40
1.0
 40
2.0
 40
2.0
 40
2.0
 40
3.0
 40
3.0
 40
3.0
 40
4.0
 40
4.0
 40
4.0
 40
4.0
 10
127.7539132537597
 20
-146.8815334269425
 30
0.0
 10
127.7539132537597
 20
-147.1164834268838
 30
0.0
 10
127.4252302065896
 20
-147.3069834268362
 30
0.0
 10
127.0201002169253
 20
-147.3069834268362
 30
0.0
 10
126.6149349494841
 20
-147.3069834268362
 30
0.0
 10
126.2862871800908
 20
-147.1164834268838
 30
0.0
 10
126.2862871800908
 20
-146.8815334269425
 30
0.0
 10
126.2862871800908
 20
-146.646548149224
 30
0.0
 10
126.6149349494841
 20
-146.4556953714936
 30
0.0
 10
127.0201002169253
 20
-146.4556953714936
 30
0.0
 10
127.4252302065896
 20
-146.4556953714936
 30
0.0
 10
127.7539132537597
 20
-146.646548149224
 30
0.0
 10
127.7539132537597
 20
-146.8815334269425
 30
0.0
  0
SPLINE
  5
152
330
141
100
AcDbEntity
  8
レイヤー 1
 62
   250
420
  2299925
370
     9
100
AcDbSpline
210
0.0
220
0.0
230
1.0
 70
     8
 71
     3
 72
    11
 73
     7
 74
     0
 42
0.0000000001
 43
0.0000000001
 40
0.0
 40
0.0
 40
0.0
 40
0.0
 40
1.0
 40
1.0
 40
1.0
 40
2.0
 40
2.0
 40
2.0
 40
2.0
 10
126.4144513434878
 20
-147.1154250935509
 30
0.0
 10
126.4144513434878
 20
-147.1154250935509
 30
0.0
 10
126.3924027329392
 20
-146.6045323159009
 30
0.0
 10
127.2219596562198
 20
-146.6476064825567
 30
0.0
 10
127.2219596562198
 20
-146.6476064825567
 30
0.0
 10
127.7111918659607
 20
-146.7113181492073
 30
0.0
 10
127.6264193681235
 20
-147.0944348157782
 30
0.0
  0
SPLINE
  5
153
330
141
100
AcDbEntity
  8
レイヤー 1
 62
   250
420
  2299925
370
     9
100
AcDbSpline
210
0.0
220
0.0
230
1.0
 70
     9
 71
     3
 72
    17
 73
    13
 74
     0
 42
0.0000000001
 43
0.0000000001
 40
0.0
 40
0.0
 40
0.0
 40
0.0
 40
1.0
 40
1.0
 40
1.0
 40
2.0
 40
2.0
 40
2.0
 40
3.0
 40
3.0
 40
3.0
 40
4.0
 40
4.0
 40
4.0
 40
4.0
 10
135.4523002795797
 20
-146.4426073159414
 30
0.0
 10
135.4523002795797
 20
-146.6775573158825
 30
0.0
 10
135.1222766768882
 20
-146.8684453713904
 30
0.0
 10
134.7178169649846
 20
-146.8684453713904
 30
0.0
 10
134.313357253081
 20
-146.8684453713904
 30
0.0
 10
133.9847094836877
 20
-146.6775573158825
 30
0.0
 10
133.9847094836877
 20
-146.4426073159414
 30
0.0
 10
133.9847094836877
 20
-146.2080100937775
 30
0.0
 10
134.313357253081
 20
-146.0174748160477
 30
0.0
 10
134.7178169649846
 20
-146.0174748160477
 30
0.0
 10
135.1222766768882
 20
-146.0174748160477
 30
0.0
 10
135.4523002795797
 20
-146.2080100937775
 30
0.0
 10
135.4523002795797
 20
-146.4426073159414
 30
0.0
  0
SPLINE
  5
154
330
141
100
AcDbEntity
  8
レイヤー 1
 62
   250
420
  2299925
370
     9
100
AcDbSpline
210
0.0
220
0.0
230
1.0
 70
     8
 71
     3
 72
    11
 73
     7
 74
     0
 42
0.0000000001
 43
0.0000000001
 40
0.0
 40
0.0
 40
0.0
 40
0.0
 40
1.0
 40
1.0
 40
1.0
 40
2.0
 40
2.0
 40
2.0
 40
2.0
 10
134.1121680915471
 20
-146.6768870381051
 30
0.0
 10
134.1121680915471
 20
-146.6768870381051
 30
0.0
 10
134.0907897587592
 20
-146.1656414826773
 30
0.0
 10
134.9203819598167
 20
-146.209033149333
 30
0.0
 10
134.9203819598167
 20
-146.209033149333
 30
0.0
 10
135.4095788917808
 20
-146.2724273159837
 30
0.0
 10
135.3241361161828
 20
-146.6555087047769
 30
0.0
  0
SPLINE
  5
155
330
141
100
AcDbEntity
  8
レイヤー 1
 62
   250
420
  2299925
370
     9
100
AcDbSpline
210
0.0
220
0.0
230
1.0
 70
     9
 71
     3
 72
    17
 73
    13
 74
     0
 42
0.0000000001
 43
0.0000000001
 40
0.0
 40
0.0
 40
0.0
 40
0.0
 40
1.0
 40
1.0
 40
1.0
 40
2.0
 40
2.0
 40
2.0
 40
3.0
 40
3.0
 40
3.0
 40
4.0
 40
4.0
 40
4.0
 40
4.0
 10
135.215268896738
 20
-145.3622253717671
 30
0.0
 10
135.215268896738
 20
-145.5971753717081
 30
0.0
 10
134.8866211273447
 20
-145.7880634272161
 30
0.0
 10
134.4814911376805
 20
-145.7880634272161
 30
0.0
 10
134.0770314257769
 20
-145.7880634272161
 30
0.0
 10
133.747678100846
 20
-145.5971753717081
 30
0.0
 10
133.747678100846
 20
-145.3622253717671
 30
0.0
 10
133.747678100846
 20
-145.126922594048
 30
0.0
 10
134.0770314257769
 20
-144.9370928718733
 30
0.0
 10
134.4814911376805
 20
-144.9370928718733
 30
0.0
 10
134.8866211273447
 20
-144.9370928718733
 30
0.0
 10
135.215268896738
 20
-145.126922594048
 30
0.0
 10
135.215268896738
 20
-145.3622253717671
 30
0.0
  0
SPLINE
  5
156
330
141
100
AcDbEntity
  8
レイヤー 1
 62
   250
420
  2299925
370
     9
100
AcDbSpline
210
0.0
220
0.0
230
1.0
 70
     8
 71
     3
 72
    11
 73
     7
 74
     0
 42
0.0000000001
 43
0.0000000001
 40
0.0
 40
0.0
 40
0.0
 40
0.0
 40
1.0
 40
1.0
 40
1.0
 40
2.0
 40
2.0
 40
2.0
 40
2.0
 10
133.8765125420036
 20
-145.5965050939307
 30
0.0
 10
133.8765125420036
 20
-145.5965050939307
 30
0.0
 10
133.854463931455
 20
-145.085259538503
 30
0.0
 10
134.6833546994665
 20
-145.1286512051587
 30
0.0
 10
134.6833546994665
 20
-145.1286512051587
 30
0.0
 10
135.1725827867159
 20
-145.1920453718093
 30
0.0
 10
135.0878102888786
 20
-145.5751267606025
 30
0.0
  0
SPLINE
  5
157
330
141
100
AcDbEntity
  8
レイヤー 1
 62
   250
420
  2299925
370
     9
100
AcDbSpline
210
0.0
220
0.0
230
1.0
 70
    11
 71
     3
 72
    17
 73
    13
 74
     0
 42
0.0000000001
 43
0.0000000001
 40
0.0
 40
0.0
 40
0.0
 40
0.0
 40
1.0
 40
1.0
 40
1.0
 40
2.0
 40
2.0
 40
2.0
 40
3.0
 40
3.0
 40
3.0
 40
4.0
 40
4.0
 40
4.0
 40
4.0
 10
134.6757658549463
 20
-144.4168867608921
 30
0.0
 10
134.6757658549463
 20
-144.6518367608334
 30
0.0
 10
134.3464519217737
 20
-144.8427248163414
 30
0.0
 10
133.9419880958887
 20
-144.8427248163414
 30
0.0
 10
133.5368269219754
 20
-144.8427248163414
 30
0.0
 10
133.2074695035168
 20
-144.6518367608334
 30
0.0
 10
133.2074695035168
 20
-144.4168867608921
 30
0.0
 10
133.2074695035168
 20
-144.1819367609508
 30
0.0
 10
133.5368269219754
 20
-143.9914367609984
 30
0.0
 10
133.9419880958887
 20
-143.9914367609984
 30
0.0
 10
134.3464519217737
 20
-143.9914367609984
 30
0.0
 10
134.6757658549463
 20
-144.1819367609508
 30
0.0
 10
134.6757658549463
 20
-144.4168867608921
 30
0.0
  0
SPLINE
  5
158
330
141
100
AcDbEntity
  8
レイヤー 1
 62
   250
420
  2299925
370
     9
100
AcDbSpline
210
0.0
220
0.0
230
1.0
 70
     8
 71
     3
 72
    11
 73
     7
 74
     0
 42
0.0000000001
 43
0.0000000001
 40
0.0
 40
0.0
 40
0.0
 40
0.0
 40
1.0
 40
1.0
 40
1.0
 40
2.0
 40
2.0
 40
2.0
 40
2.0
 10
133.3356336669137
 20
-144.6511664830557
 30
0.0
 10
133.3356336669137
 20
-144.6511664830557
 30
0.0
 10
133.3149608896633
 20
-144.139920927628
 30
0.0
 10
134.1431772574227
 20
-144.1829598165062
 30
0.0
 10
134.1431772574227
 20
-144.1829598165062
 30
0.0
 10
134.6323741893866
 20
-144.2467067609347
 30
0.0
 10
134.5476369693263
 20
-144.6297881497278
 30
0.0
  0
SPLINE
  5
159
330
141
100
AcDbEntity
  8
レイヤー 1
 62
   250
420
  2299925
370
     9
100
AcDbSpline
210
0.0
220
0.0
230
1.0
 70
    11
 71
     3
 72
    17
 73
    13
 74
     0
 42
0.0000000001
 43
0.0000000001
 40
0.0
 40
0.0
 40
0.0
 40
0.0
 40
1.0
 40
1.0
 40
1.0
 40
2.0
 40
2.0
 40
2.0
 40
3.0
 40
3.0
 40
3.0
 40
4.0
 40
4.0
 40
4.0
 40
4.0
 10
133.1558269220713
 20
-147.2529025935164
 30
0.0
 10
133.1558269220713
 20
-147.4878525934578
 30
0.0
 10
132.8264695132369
 20
-147.6787053711882
 30
0.0
 10
132.4220098013333
 20
-147.6787053711882
 30
0.0
 10
132.0161742561315
 20
-147.6787053711882
 30
0.0
 10
131.6889023200364
 20
-147.4878525934578
 30
0.0
 10
131.6889023200364
 20
-147.2529025935164
 30
0.0
 10
131.6889023200364
 20
-147.0179525935751
 30
0.0
 10
132.0161742561315
 20
-146.8277700936227
 30
0.0
 10
132.4220098013333
 20
-146.8277700936227
 30
0.0
 10
132.8264695132369
 20
-146.8277700936227
 30
0.0
 10
133.1558269220713
 20
-147.0179525935751
 30
0.0
 10
133.1558269220713
 20
-147.2529025935164
 30
0.0
  0
SPLINE
  5
15A
330
141
100
AcDbEntity
  8
レイヤー 1
 62
   250
420
  2299925
370
     9
100
AcDbSpline
210
0.0
220
0.0
230
1.0
 70
     8
 71
     3
 72
    11
 73
     7
 74
     0
 42
0.0000000001
 43
0.0000000001
 40
0.0
 40
0.0
 40
0.0
 40
0.0
 40
1.0
 40
1.0
 40
1.0
 40
2.0
 40
2.0
 40
2.0
 40
2.0
 10
131.8163609278958
 20
-147.4868295379023
 30
0.0
 10
131.8163609278958
 20
-147.4868295379023
 30
0.0
 10
131.7943123173472
 20
-146.9759014824744
 30
0.0
 10
132.6245747961654
 20
-147.0193284269083
 30
0.0
 10
132.6245747961654
 20
-147.0193284269083
 30
0.0
 10
133.1131014503688
 20
-147.082722593559
 30
0.0
 10
133.0276586747708
 20
-147.4658039823521
 30
0.0
  0
SPLINE
  5
15B
330
141
100
AcDbEntity
  8
レイヤー 1
 62
   250
420
  2299925
370
     9
100
AcDbSpline
210
0.0
220
0.0
230
1.0
 70
     9
 71
     3
 72
    17
 73
    13
 74
     0
 42
0.0000000001
 43
0.0000000001
 40
0.0
 40
0.0
 40
0.0
 40
0.0
 40
1.0
 40
1.0
 40
1.0
 40
2.0
 40
2.0
 40
2.0
 40
3.0
 40
3.0
 40
3.0
 40
4.0
 40
4.0
 40
4.0
 40
4.0
 10
132.918791455326
 20
-146.1725206493421
 30
0.0
 10
132.918791455326
 20
-146.4074706492834
 30
0.0
 10
132.5901084081559
 20
-146.5979706492358
 30
0.0
 10
132.185688033425
 20
-146.5979706492358
 30
0.0
 10
131.780518706588
 20
-146.5979706492358
 30
0.0
 10
131.4518709371947
 20
-146.4074706492834
 30
0.0
 10
131.4518709371947
 20
-146.1725206493421
 30
0.0
 10
131.4518709371947
 20
-145.9379234271785
 30
0.0
 10
131.780518706588
 20
-145.7467178716709
 30
0.0
 10
132.185688033425
 20
-145.7467178716709
 30
0.0
 10
132.5901084081559
 20
-145.7467178716709
 30
0.0
 10
132.918791455326
 20
-145.9379234271785
 30
0.0
 10
132.918791455326
 20
-146.1725206493421
 30
0.0
  0
SPLINE
  5
15C
330
141
100
AcDbEntity
  8
レイヤー 1
 62
   250
420
  2299925
370
     9
100
AcDbSpline
210
0.0
220
0.0
230
1.0
 70
     8
 71
     3
 72
    11
 73
     7
 74
     0
 42
0.0000000001
 43
0.0000000001
 40
0.0
 40
0.0
 40
0.0
 40
0.0
 40
1.0
 40
1.0
 40
1.0
 40
2.0
 40
2.0
 40
2.0
 40
2.0
 10
131.5800351005916
 20
-146.4060948159505
 30
0.0
 10
131.5800351005916
 20
-146.4060948159505
 30
0.0
 10
131.5586567678037
 20
-145.8955195383001
 30
0.0
 10
132.3875434133237
 20
-145.9385937049562
 30
0.0
 10
132.3875434133237
 20
-145.9385937049562
 30
0.0
 10
132.8767403452877
 20
-146.0023406493847
 30
0.0
 10
132.7913328474666
 20
-146.3854220381778
 30
0.0
  0
SPLINE
  5
15D
330
141
100
AcDbEntity
  8
レイヤー 1
 62
   250
420
  2299925
370
     9
100
AcDbSpline
210
0.0
220
0.0
230
1.0
 70
     9
 71
     3
 72
    17
 73
    13
 74
     0
 42
0.0000000001
 43
0.0000000001
 40
0.0
 40
0.0
 40
0.0
 40
0.0
 40
1.0
 40
1.0
 40
1.0
 40
2.0
 40
2.0
 40
2.0
 40
3.0
 40
3.0
 40
3.0
 40
4.0
 40
4.0
 40
4.0
 40
4.0
 10
132.3792884135343
 20
-145.2271820384671
 30
0.0
 10
132.3792884135343
 20
-145.4621320384087
 30
0.0
 10
132.0499350886035
 20
-145.6523145383612
 30
0.0
 10
131.6461809322374
 20
-145.6523145383612
 30
0.0
 10
131.2403453870356
 20
-145.6523145383612
 30
0.0
 10
130.9116623398655
 20
-145.4621320384087
 30
0.0
 10
130.9116623398655
 20
-145.2271820384671
 30
0.0
 10
130.9116623398655
 20
-144.9922320385261
 30
0.0
 10
131.2403453870356
 20
-144.8020495385736
 30
0.0
 10
131.6461809322374
 20
-144.8020495385736
 30
0.0
 10
132.0499350886035
 20
-144.8020495385736
 30
0.0
 10
132.3792884135343
 20
-144.9922320385261
 30
0.0
 10
132.3792884135343
 20
-145.2271820384671
 30
0.0
  0
SPLINE
  5
15E
330
141
100
AcDbEntity
  8
レイヤー 1
 62
   250
420
  2299925
370
     9
100
AcDbSpline
210
0.0
220
0.0
230
1.0
 70
     8
 71
     3
 72
    11
 73
     7
 74
     0
 42
0.0000000001
 43
0.0000000001
 40
0.0
 40
0.0
 40
0.0
 40
0.0
 40
1.0
 40
1.0
 40
1.0
 40
2.0
 40
2.0
 40
2.0
 40
2.0
 10
131.0398265032624
 20
-145.4607562050755
 30
0.0
 10
131.0398265032624
 20
-145.4607562050755
 30
0.0
 10
131.0184834482513
 20
-144.9498634274255
 30
0.0
 10
131.8466685890642
 20
-144.9936078718589
 30
0.0
 10
131.8466685890642
 20
-144.9936078718589
 30
0.0
 10
132.3365670257353
 20
-145.0566492607322
 30
0.0
 10
132.251829805675
 20
-145.4397306495254
 30
0.0
  0
SPLINE
  5
15F
330
141
100
AcDbEntity
  8
レイヤー 1
 62
   250
420
  2299925
370
     9
100
AcDbSpline
210
0.0
220
0.0
230
1.0
 70
     9
 71
     3
 72
    17
 73
    13
 74
     0
 42
0.0000000001
 43
0.0000000001
 40
0.0
 40
0.0
 40
0.0
 40
0.0
 40
1.0
 40
1.0
 40
1.0
 40
2.0
 40
2.0
 40
2.0
 40
3.0
 40
3.0
 40
3.0
 40
4.0
 40
4.0
 40
4.0
 40
4.0
 10
130.7242667890908
 20
-148.0635153710916
 30
0.0
 10
130.7242667890908
 20
-148.2981478710331
 30
0.0
 10
130.3955837419206
 20
-148.4890006487631
 30
0.0
 10
129.9904537522563
 20
-148.4890006487631
 30
0.0
 10
129.5853237625921
 20
-148.4890006487631
 30
0.0
 10
129.2566407154219
 20
-148.2981478710331
 30
0.0
 10
129.2566407154219
 20
-148.0635153710916
 30
0.0
 10
129.2566407154219
 20
-147.8285653711503
 30
0.0
 10
129.5853237625921
 20
-147.638065371198
 30
0.0
 10
129.9904537522563
 20
-147.638065371198
 30
0.0
 10
130.3955837419206
 20
-147.638065371198
 30
0.0
 10
130.7242667890908
 20
-147.8285653711503
 30
0.0
 10
130.7242667890908
 20
-148.0635153710916
 30
0.0
  0
SPLINE
  5
160
330
141
100
AcDbEntity
  8
レイヤー 1
 62
   250
420
  2299925
370
     9
100
AcDbSpline
210
0.0
220
0.0
230
1.0
 70
     8
 71
     3
 72
    11
 73
     7
 74
     0
 42
0.0000000001
 43
0.0000000001
 40
0.0
 40
0.0
 40
0.0
 40
0.0
 40
1.0
 40
1.0
 40
1.0
 40
2.0
 40
2.0
 40
2.0
 40
2.0
 10
129.3848048788188
 20
-148.2971248154776
 30
0.0
 10
129.3848048788188
 20
-148.2971248154776
 30
0.0
 10
129.3627602563528
 20
-147.7865495378275
 30
0.0
 10
130.1930187470885
 20
-147.8296237044833
 30
0.0
 10
130.1930187470885
 20
-147.8296237044833
 30
0.0
 10
130.6815454012918
 20
-147.8926650933566
 30
0.0
 10
130.5974824782663
 20
-148.2764520377052
 30
0.0
  0
SPLINE
  5
161
330
141
100
AcDbEntity
  8
レイヤー 1
 62
   250
420
  2299925
370
     9
100
AcDbSpline
210
0.0
220
0.0
230
1.0
 70
    11
 71
     3
 72
    17
 73
    13
 74
     0
 42
0.0000000001
 43
0.0000000001
 40
0.0
 40
0.0
 40
0.0
 40
0.0
 40
1.0
 40
1.0
 40
1.0
 40
2.0
 40
2.0
 40
2.0
 40
3.0
 40
3.0
 40
3.0
 40
4.0
 40
4.0
 40
4.0
 40
4.0
 10
130.4886112395473
 20
-146.9828159269174
 30
0.0
 10
130.4886112395473
 20
-147.2177659268587
 30
0.0
 10
130.1585876368558
 20
-147.4082659268114
 30
0.0
 10
129.7541279249522
 20
-147.4082659268114
 30
0.0
 10
129.3489626575111
 20
-147.4082659268114
 30
0.0
 10
129.0210204436553
 20
-147.2177659268587
 30
0.0
 10
129.0210204436553
 20
-146.9828159269174
 30
0.0
 10
129.0210204436553
 20
-146.7478659269761
 30
0.0
 10
129.3489626575111
 20
-146.5573306492458
 30
0.0
 10
129.7541279249522
 20
-146.5573306492458
 30
0.0
 10
130.1585876368558
 20
-146.5573306492458
 30
0.0
 10
130.4886112395473
 20
-146.7478659269761
 30
0.0
 10
130.4886112395473
 20
-146.9828159269174
 30
0.0
  0
SPLINE
  5
162
330
141
100
AcDbEntity
  8
レイヤー 1
 62
   250
420
  2299925
370
     9
100
AcDbSpline
210
0.0
220
0.0
230
1.0
 70
     8
 71
     3
 72
    11
 73
     7
 74
     0
 42
0.0000000001
 43
0.0000000001
 40
0.0
 40
0.0
 40
0.0
 40
0.0
 40
1.0
 40
1.0
 40
1.0
 40
2.0
 40
2.0
 40
2.0
 40
2.0
 10
129.1477734959771
 20
-147.2167428713032
 30
0.0
 10
129.1477734959771
 20
-147.2167428713032
 30
0.0
 10
129.1271047008556
 20
-146.7058148158754
 30
0.0
 10
129.9566929197843
 20
-146.7492417603089
 30
0.0
 10
129.9566929197843
 20
-146.7492417603089
 30
0.0
 10
130.4458898517483
 20
-146.8126006491821
 30
0.0
 10
130.3604470761504
 20
-147.1957173157531
 30
0.0
  0
SPLINE
  5
163
330
141
100
AcDbEntity
  8
レイヤー 1
 62
   250
420
  2299925
370
     9
100
AcDbSpline
210
0.0
220
0.0
230
1.0
 70
    11
 71
     3
 72
    17
 73
    13
 74
     0
 42
0.0000000001
 43
0.0000000001
 40
0.0
 40
0.0
 40
0.0
 40
0.0
 40
1.0
 40
1.0
 40
1.0
 40
2.0
 40
2.0
 40
2.0
 40
3.0
 40
3.0
 40
3.0
 40
4.0
 40
4.0
 40
4.0
 40
4.0
 10
129.9477323644574
 20
-146.0374773160427
 30
0.0
 10
129.9477323644574
 20
-146.2724273159837
 30
0.0
 10
129.6190845950641
 20
-146.4632800937138
 30
0.0
 10
129.2146248831605
 20
-146.4632800937138
 30
0.0
 10
128.8087893379587
 20
-146.4632800937138
 30
0.0
 10
128.4808158121288
 20
-146.2724273159837
 30
0.0
 10
128.4808158121288
 20
-146.0374773160427
 30
0.0
 10
128.4808158121288
 20
-145.8025273161017
 30
0.0
 10
128.8087893379587
 20
-145.6123448161489
 30
0.0
 10
129.2146248831605
 20
-145.6123448161489
 30
0.0
 10
129.6190845950641
 20
-145.6123448161489
 30
0.0
 10
129.9477323644574
 20
-145.8025273161017
 30
0.0
 10
129.9477323644574
 20
-146.0374773160427
 30
0.0
  0
SPLINE
  5
164
330
141
100
AcDbEntity
  8
レイヤー 1
 62
   250
420
  2299925
370
     9
100
AcDbSpline
210
0.0
220
0.0
230
1.0
 70
     8
 71
     3
 72
    11
 73
     7
 74
     0
 42
0.0000000001
 43
0.0000000001
 40
0.0
 40
0.0
 40
0.0
 40
0.0
 40
1.0
 40
1.0
 40
1.0
 40
2.0
 40
2.0
 40
2.0
 40
2.0
 10
128.608976009723
 20
-146.2714042604289
 30
0.0
 10
128.608976009723
 20
-146.2714042604289
 30
0.0
 10
128.5869273991744
 20
-145.7604762050011
 30
0.0
 10
129.4164843224551
 20
-145.8035503716565
 30
0.0
 10
129.4164843224551
 20
-145.8035503716565
 30
0.0
 10
129.905716532196
 20
-145.867297316085
 30
0.0
 10
129.820273756598
 20
-146.2503787048781
 30
0.0
  0
SPLINE
  5
165
330
141
100
AcDbEntity
  8
レイヤー 1
 62
   250
420
  2299925
370
     9
100
AcDbSpline
210
0.0
220
0.0
230
1.0
 70
     9
 71
     3
 72
    17
 73
    13
 74
     0
 42
0.0000000001
 43
0.0000000001
 40
0.0
 40
0.0
 40
0.0
 40
0.0
 40
1.0
 40
1.0
 40
1.0
 40
2.0
 40
2.0
 40
2.0
 40
3.0
 40
3.0
 40
3.0
 40
4.0
 40
4.0
 40
4.0
 40
4.0
 10
140.280945989724
 20
-150.765158148194
 30
0.0
 10
140.280945989724
 20
-151.0001434259131
 30
0.0
 10
139.9515926647932
 20
-151.1906434258658
 30
0.0
 10
139.5464626751289
 20
-151.1906434258658
 30
0.0
 10
139.1413326854646
 20
-151.1906434258658
 30
0.0
 10
138.8133551938321
 20
-151.0001434259131
 30
0.0
 10
138.8133551938321
 20
-150.765158148194
 30
0.0
 10
138.8133551938321
 20
-150.530208148253
 30
0.0
 10
139.1413326854646
 20
-150.3397081483003
 30
0.0
 10
139.5464626751289
 20
-150.3397081483003
 30
0.0
 10
139.9515926647932
 20
-150.3397081483003
 30
0.0
 10
140.280945989724
 20
-150.530208148253
 30
0.0
 10
140.280945989724
 20
-150.765158148194
 30
0.0
  0
SPLINE
  5
166
330
141
100
AcDbEntity
  8
レイヤー 1
 62
   250
420
  2299925
370
     9
100
AcDbSpline
210
0.0
220
0.0
230
1.0
 70
     8
 71
     3
 72
    11
 73
     7
 74
     0
 42
0.0000000001
 43
0.0000000001
 40
0.0
 40
0.0
 40
0.0
 40
0.0
 40
1.0
 40
1.0
 40
1.0
 40
2.0
 40
2.0
 40
2.0
 40
2.0
 10
138.9408138016914
 20
-150.9987675925802
 30
0.0
 10
138.9408138016914
 20
-150.9987675925802
 30
0.0
 10
138.9194354689035
 20
-150.4881923149302
 30
0.0
 10
139.7483573922004
 20
-150.5309137038085
 30
0.0
 10
139.7483573922004
 20
-150.5309137038085
 30
0.0
 10
140.238224601925
 20
-150.5946606482366
 30
0.0
 10
140.1534873818647
 20
-150.977389259252
 30
0.0
  0
SPLINE
  5
167
330
141
100
AcDbEntity
  8
レイヤー 1
 62
   250
420
  2299925
370
     9
100
AcDbSpline
210
0.0
220
0.0
230
1.0
 70
     9
 71
     3
 72
    17
 73
    13
 74
     0
 42
0.0000000001
 43
0.0000000001
 40
0.0
 40
0.0
 40
0.0
 40
0.0
 40
1.0
 40
1.0
 40
1.0
 40
2.0
 40
2.0
 40
2.0
 40
3.0
 40
3.0
 40
3.0
 40
4.0
 40
4.0
 40
4.0
 40
4.0
 10
140.280945989724
 20
-152.0815484256426
 30
0.0
 10
140.280945989724
 20
-152.3172039811398
 30
0.0
 10
139.9515926647932
 20
-152.507351203314
 30
0.0
 10
139.5464626751289
 20
-152.507351203314
 30
0.0
 10
139.1413326854646
 20
-152.507351203314
 30
0.0
 10
138.8133551938321
 20
-152.3172039811398
 30
0.0
 10
138.8133551938321
 20
-152.0815484256426
 30
0.0
 10
138.8133551938321
 20
-151.8469512034787
 30
0.0
 10
139.1413326854646
 20
-151.6564159257491
 30
0.0
 10
139.5464626751289
 20
-151.6564159257491
 30
0.0
 10
139.9515926647932
 20
-151.6564159257491
 30
0.0
 10
140.280945989724
 20
-151.8469512034787
 30
0.0
 10
140.280945989724
 20
-152.0815484256426
 30
0.0
  0
SPLINE
  5
168
330
141
100
AcDbEntity
  8
レイヤー 1
 62
   250
420
  2299925
370
     9
100
AcDbSpline
210
0.0
220
0.0
230
1.0
 70
     8
 71
     3
 72
    11
 73
     7
 74
     0
 42
0.0000000001
 43
0.0000000001
 40
0.0
 40
0.0
 40
0.0
 40
0.0
 40
1.0
 40
1.0
 40
1.0
 40
2.0
 40
2.0
 40
2.0
 40
2.0
 10
138.9408138016914
 20
-152.3158281478062
 30
0.0
 10
138.9408138016914
 20
-152.3158281478062
 30
0.0
 10
138.9194354689035
 20
-151.8045473146006
 30
0.0
 10
139.7483573922004
 20
-151.8483270368122
 30
0.0
 10
139.7483573922004
 20
-151.8483270368122
 30
0.0
 10
140.238224601925
 20
-151.9113684256849
 30
0.0
 10
140.1534873818647
 20
-152.2944498144786
 30
0.0
  0
SPLINE
  5
169
330
141
100
AcDbEntity
  8
レイヤー 1
 62
   250
420
  2299925
370
     9
100
AcDbSpline
210
0.0
220
0.0
230
1.0
 70
     9
 71
     3
 72
    17
 73
    13
 74
     0
 42
0.0000000001
 43
0.0000000001
 40
0.0
 40
0.0
 40
0.0
 40
0.0
 40
1.0
 40
1.0
 40
1.0
 40
2.0
 40
2.0
 40
2.0
 40
3.0
 40
3.0
 40
3.0
 40
4.0
 40
4.0
 40
4.0
 40
4.0
 10
140.280945989724
 20
-149.54941537072
 30
0.0
 10
140.280945989724
 20
-149.7847181484394
 30
0.0
 10
139.9515926647932
 20
-149.9748653706137
 30
0.0
 10
139.5464626751289
 20
-149.9748653706137
 30
0.0
 10
139.1413326854646
 20
-149.9748653706137
 30
0.0
 10
138.8133551938321
 20
-149.7847181484394
 30
0.0
 10
138.8133551938321
 20
-149.54941537072
 30
0.0
 10
138.8133551938321
 20
-149.3141125930012
 30
0.0
 10
139.1413326854646
 20
-149.1239300930488
 30
0.0
 10
139.5464626751289
 20
-149.1239300930488
 30
0.0
 10
139.9515926647932
 20
-149.1239300930488
 30
0.0
 10
140.280945989724
 20
-149.3141125930012
 30
0.0
 10
140.280945989724
 20
-149.54941537072
 30
0.0
  0
SPLINE
  5
16A
330
141
100
AcDbEntity
  8
レイヤー 1
 62
   250
420
  2299925
370
     9
100
AcDbSpline
210
0.0
220
0.0
230
1.0
 70
     8
 71
     3
 72
    11
 73
     7
 74
     0
 42
0.0000000001
 43
0.0000000001
 40
0.0
 40
0.0
 40
0.0
 40
0.0
 40
1.0
 40
1.0
 40
1.0
 40
2.0
 40
2.0
 40
2.0
 40
2.0
 10
138.9408138016914
 20
-149.7833070373284
 30
0.0
 10
138.9408138016914
 20
-149.7833070373284
 30
0.0
 10
138.9194354689035
 20
-149.2720614819009
 30
0.0
 10
139.7483573922004
 20
-149.3154884263341
 30
0.0
 10
139.7483573922004
 20
-149.3154884263341
 30
0.0
 10
140.238224601925
 20
-149.3792000929848
 30
0.0
 10
140.1534873818647
 20
-149.7623167595561
 30
0.0
  0
SPLINE
  5
16B
330
141
100
AcDbEntity
  8
レイヤー 1
 62
   250
420
  2299925
370
     9
100
AcDbSpline
210
0.0
220
0.0
230
1.0
 70
     9
 71
     3
 72
    17
 73
    13
 74
     0
 42
0.0000000001
 43
0.0000000001
 40
0.0
 40
0.0
 40
0.0
 40
0.0
 40
1.0
 40
1.0
 40
1.0
 40
2.0
 40
2.0
 40
2.0
 40
3.0
 40
3.0
 40
3.0
 40
4.0
 40
4.0
 40
4.0
 40
4.0
 10
142.4920159333149
 20
-149.9380000928453
 30
0.0
 10
142.4920159333149
 20
-150.1726325927867
 30
0.0
 10
142.1633681639217
 20
-150.3631325927388
 30
0.0
 10
141.7582028964805
 20
-150.3631325927388
 30
0.0
 10
141.3530729068162
 20
-150.3631325927388
 30
0.0
 10
141.0243898596461
 20
-150.1726325927867
 30
0.0
 10
141.0243898596461
 20
-149.9380000928453
 30
0.0
 10
141.0243898596461
 20
-149.7026973151259
 30
0.0
 10
141.3530729068162
 20
-149.5121973151739
 30
0.0
 10
141.7582028964805
 20
-149.5121973151739
 30
0.0
 10
142.1633681639217
 20
-149.5121973151739
 30
0.0
 10
142.4920159333149
 20
-149.7026973151259
 30
0.0
 10
142.4920159333149
 20
-149.9380000928453
 30
0.0
  0
SPLINE
  5
16C
330
141
100
AcDbEntity
  8
レイヤー 1
 62
   250
420
  2299925
370
     9
100
AcDbSpline
210
0.0
220
0.0
230
1.0
 70
     8
 71
     3
 72
    11
 73
     7
 74
     0
 42
0.0000000001
 43
0.0000000001
 40
0.0
 40
0.0
 40
0.0
 40
0.0
 40
1.0
 40
1.0
 40
1.0
 40
2.0
 40
2.0
 40
2.0
 40
2.0
 10
141.1518880311825
 20
-150.1715742594534
 30
0.0
 10
141.1518880311825
 20
-150.1715742594534
 30
0.0
 10
141.1305054124944
 20
-149.6610342595809
 30
0.0
 10
141.9601019198697
 20
-149.7040731484588
 30
0.0
 10
141.9601019198697
 20
-149.7040731484588
 30
0.0
 10
142.449294545516
 20
-149.7674673151098
 30
0.0
 10
142.3645573254556
 20
-150.1509014816807
 30
0.0
  0
SPLINE
  5
16D
330
141
100
AcDbEntity
  8
レイヤー 1
 62
   250
420
  2299925
370
     9
100
AcDbSpline
210
0.0
220
0.0
230
1.0
 70
     9
 71
     3
 72
    17
 73
    13
 74
     0
 42
0.0000000001
 43
0.0000000001
 40
0.0
 40
0.0
 40
0.0
 40
0.0
 40
1.0
 40
1.0
 40
1.0
 40
2.0
 40
2.0
 40
2.0
 40
3.0
 40
3.0
 40
3.0
 40
4.0
 40
4.0
 40
4.0
 40
4.0
 10
142.4920159333149
 20
-151.2547078702942
 30
0.0
 10
142.4920159333149
 20
-151.4896931480127
 30
0.0
 10
142.1633681639217
 20
-151.6801931479654
 30
0.0
 10
141.7582028964805
 20
-151.6801931479654
 30
0.0
 10
141.3530729068162
 20
-151.6801931479654
 30
0.0
 10
141.0243898596461
 20
-151.4896931480127
 30
0.0
 10
141.0243898596461
 20
-151.2547078702942
 30
0.0
 10
141.0243898596461
 20
-151.0201106481303
 30
0.0
 10
141.3530729068162
 20
-150.8289050926221
 30
0.0
 10
141.7582028964805
 20
-150.8289050926221
 30
0.0
 10
142.1633681639217
 20
-150.8289050926221
 30
0.0
 10
142.4920159333149
 20
-151.0201106481303
 30
0.0
 10
142.4920159333149
 20
-151.2547078702942
 30
0.0
  0
SPLINE
  5
16E
330
141
100
AcDbEntity
  8
レイヤー 1
 62
   250
420
  2299925
370
     9
100
AcDbSpline
210
0.0
220
0.0
230
1.0
 70
     8
 71
     3
 72
    11
 73
     7
 74
     0
 42
0.0000000001
 43
0.0000000001
 40
0.0
 40
0.0
 40
0.0
 40
0.0
 40
1.0
 40
1.0
 40
1.0
 40
2.0
 40
2.0
 40
2.0
 40
2.0
 10
141.1518880311825
 20
-151.4886348146794
 30
0.0
 10
141.1518880311825
 20
-151.4886348146794
 30
0.0
 10
141.1305054124944
 20
-150.977389259252
 30
0.0
 10
141.9601019198697
 20
-151.0211337036854
 30
0.0
 10
141.9601019198697
 20
-151.0211337036854
 30
0.0
 10
142.449294545516
 20
-151.0845278703365
 30
0.0
 10
142.3645573254556
 20
-151.4679620369067
 30
0.0
  0
SPLINE
  5
16F
330
141
100
AcDbEntity
  8
レイヤー 1
 62
   250
420
  2299925
370
     9
100
AcDbSpline
210
0.0
220
0.0
230
1.0
 70
     9
 71
     3
 72
    17
 73
    13
 74
     0
 42
0.0000000001
 43
0.0000000001
 40
0.0
 40
0.0
 40
0.0
 40
0.0
 40
1.0
 40
1.0
 40
1.0
 40
2.0
 40
2.0
 40
2.0
 40
3.0
 40
3.0
 40
3.0
 40
4.0
 40
4.0
 40
4.0
 40
4.0
 10
142.4920159333149
 20
-148.7225748153713
 30
0.0
 10
142.4920159333149
 20
-148.9568545375346
 30
0.0
 10
142.1633681639217
 20
-149.147707315265
 30
0.0
 10
141.7582028964805
 20
-149.147707315265
 30
0.0
 10
141.3530729068162
 20
-149.147707315265
 30
0.0
 10
141.0243898596461
 20
-148.9568545375346
 30
0.0
 10
141.0243898596461
 20
-148.7225748153713
 30
0.0
 10
141.0243898596461
 20
-148.4879775932077
 30
0.0
 10
141.3530729068162
 20
-148.2967720376998
 30
0.0
 10
141.7582028964805
 20
-148.2967720376998
 30
0.0
 10
142.1633681639217
 20
-148.2967720376998
 30
0.0
 10
142.4920159333149
 20
-148.4879775932077
 30
0.0
 10
142.4920159333149
 20
-148.7225748153713
 30
0.0
  0
SPLINE
  5
170
330
141
100
AcDbEntity
  8
レイヤー 1
 62
   250
420
  2299925
370
     9
100
AcDbSpline
210
0.0
220
0.0
230
1.0
 70
     8
 71
     3
 72
    11
 73
     7
 74
     0
 42
0.0000000001
 43
0.0000000001
 40
0.0
 40
0.0
 40
0.0
 40
0.0
 40
1.0
 40
1.0
 40
1.0
 40
2.0
 40
2.0
 40
2.0
 40
2.0
 10
141.1518880311825
 20
-148.9561489819797
 30
0.0
 10
141.1518880311825
 20
-148.9561489819797
 30
0.0
 10
141.1305054124944
 20
-148.444903426552
 30
0.0
 10
141.9601019198697
 20
-148.4882950932077
 30
0.0
 10
141.9601019198697
 20
-148.4882950932077
 30
0.0
 10
142.449294545516
 20
-148.5516892598583
 30
0.0
 10
142.3645573254556
 20
-148.9351234264292
 30
0.0
  0
SPLINE
  5
171
330
141
100
AcDbEntity
  8
レイヤー 1
 62
   250
420
  2299925
370
     9
100
AcDbSpline
210
0.0
220
0.0
230
1.0
 70
     9
 71
     3
 72
    17
 73
    13
 74
     0
 42
0.0000000001
 43
0.0000000001
 40
0.0
 40
0.0
 40
0.0
 40
0.0
 40
1.0
 40
1.0
 40
1.0
 40
2.0
 40
2.0
 40
2.0
 40
3.0
 40
3.0
 40
3.0
 40
4.0
 40
4.0
 40
4.0
 40
4.0
 10
144.9401172597475
 20
-149.0092067597444
 30
0.0
 10
144.9401172597475
 20
-149.2445095374632
 30
0.0
 10
144.6107639348167
 20
-149.4350095374152
 30
0.0
 10
144.2069745006738
 20
-149.4350095374152
 30
0.0
 10
143.801138955472
 20
-149.4350095374152
 30
0.0
 10
143.4724911860787
 20
-149.2445095374632
 30
0.0
 10
143.4724911860787
 20
-149.0092067597444
 30
0.0
 10
143.4724911860787
 20
-148.7742567598028
 30
0.0
 10
143.801138955472
 20
-148.5837567598504
 30
0.0
 10
144.2069745006738
 20
-148.5837567598504
 30
0.0
 10
144.6107639348167
 20
-148.5837567598504
 30
0.0
 10
144.9401172597475
 20
-148.7742567598028
 30
0.0
 10
144.9401172597475
 20
-149.0092067597444
 30
0.0
  0
SPLINE
  5
172
330
141
100
AcDbEntity
  8
レイヤー 1
 62
   250
420
  2299925
370
     9
100
AcDbSpline
210
0.0
220
0.0
230
1.0
 70
     8
 71
     3
 72
    11
 73
     7
 74
     0
 42
0.0000000001
 43
0.0000000001
 40
0.0
 40
0.0
 40
0.0
 40
0.0
 40
1.0
 40
1.0
 40
1.0
 40
2.0
 40
2.0
 40
2.0
 40
2.0
 10
143.5999497939381
 20
-149.2431337041296
 30
0.0
 10
143.5999497939381
 20
-149.2431337041296
 30
0.0
 10
143.578606738927
 20
-148.7318881487022
 30
0.0
 10
144.4081636622077
 20
-148.7752798153585
 30
0.0
 10
144.4081636622077
 20
-148.7752798153585
 30
0.0
 10
144.8973958719486
 20
-148.8386739820089
 30
0.0
 10
144.8119574747119
 20
-149.221755370802
 30
0.0
  0
SPLINE
  5
173
330
141
100
AcDbEntity
  8
レイヤー 1
 62
   250
420
  2299925
370
     9
100
AcDbSpline
210
0.0
220
0.0
230
1.0
 70
    11
 71
     3
 72
    17
 73
    13
 74
     0
 42
0.0000000001
 43
0.0000000001
 40
0.0
 40
0.0
 40
0.0
 40
0.0
 40
1.0
 40
1.0
 40
1.0
 40
2.0
 40
2.0
 40
2.0
 40
3.0
 40
3.0
 40
3.0
 40
4.0
 40
4.0
 40
4.0
 40
4.0
 10
144.9401172597475
 20
-150.3262673149704
 30
0.0
 10
144.9401172597475
 20
-150.5615700926892
 30
0.0
 10
144.6107639348167
 20
-150.7517525926422
 30
0.0
 10
144.2069745006738
 20
-150.7517525926422
 30
0.0
 10
143.801138955472
 20
-150.7517525926422
 30
0.0
 10
143.4724911860787
 20
-150.5615700926892
 30
0.0
 10
143.4724911860787
 20
-150.3262673149704
 30
0.0
 10
143.4724911860787
 20
-150.0909645372516
 30
0.0
 10
143.801138955472
 20
-149.9008173150767
 30
0.0
 10
144.2069745006738
 20
-149.9008173150767
 30
0.0
 10
144.6107639348167
 20
-149.9008173150767
 30
0.0
 10
144.9401172597475
 20
-150.0909645372516
 30
0.0
 10
144.9401172597475
 20
-150.3262673149704
 30
0.0
  0
SPLINE
  5
174
330
141
100
AcDbEntity
  8
レイヤー 1
 62
   250
420
  2299925
370
     9
100
AcDbSpline
210
0.0
220
0.0
230
1.0
 70
     8
 71
     3
 72
    11
 73
     7
 74
     0
 42
0.0000000001
 43
0.0000000001
 40
0.0
 40
0.0
 40
0.0
 40
0.0
 40
1.0
 40
1.0
 40
1.0
 40
2.0
 40
2.0
 40
2.0
 40
2.0
 10
143.5999497939381
 20
-150.5601942593562
 30
0.0
 10
143.5999497939381
 20
-150.5601942593562
 30
0.0
 10
143.578606738927
 20
-150.0489487039288
 30
0.0
 10
144.4081636622077
 20
-150.0919875928067
 30
0.0
 10
144.4081636622077
 20
-150.0919875928067
 30
0.0
 10
144.8973958719486
 20
-150.1557345372355
 30
0.0
 10
144.8119574747119
 20
-150.538815926028
 30
0.0
  0
SPLINE
  5
175
330
141
100
AcDbEntity
  8
レイヤー 1
 62
   250
420
  2299925
370
     9
100
AcDbSpline
210
0.0
220
0.0
230
1.0
 70
     9
 71
     3
 72
    17
 73
    13
 74
     0
 42
0.0000000001
 43
0.0000000001
 40
0.0
 40
0.0
 40
0.0
 40
0.0
 40
1.0
 40
1.0
 40
1.0
 40
2.0
 40
2.0
 40
2.0
 40
3.0
 40
3.0
 40
3.0
 40
4.0
 40
4.0
 40
4.0
 40
4.0
 10
144.9401172597475
 20
-147.79378148227
 30
0.0
 10
144.9401172597475
 20
-148.0283787044336
 30
0.0
 10
144.6107639348167
 20
-148.2189139821638
 30
0.0
 10
144.2069745006738
 20
-148.2189139821638
 30
0.0
 10
143.801138955472
 20
-148.2189139821638
 30
0.0
 10
143.4724911860787
 20
-148.0283787044336
 30
0.0
 10
143.4724911860787
 20
-147.79378148227
 30
0.0
 10
143.4724911860787
 20
-147.558831482329
 30
0.0
 10
143.801138955472
 20
-147.3682962045988
 30
0.0
 10
144.2069745006738
 20
-147.3682962045988
 30
0.0
 10
144.6107639348167
 20
-147.3682962045988
 30
0.0
 10
144.9401172597475
 20
-147.558831482329
 30
0.0
 10
144.9401172597475
 20
-147.79378148227
 30
0.0
  0
SPLINE
  5
176
330
141
100
AcDbEntity
  8
レイヤー 1
 62
   250
420
  2299925
370
     9
100
AcDbSpline
210
0.0
220
0.0
230
1.0
 70
     8
 71
     3
 72
    11
 73
     7
 74
     0
 42
0.0000000001
 43
0.0000000001
 40
0.0
 40
0.0
 40
0.0
 40
0.0
 40
1.0
 40
1.0
 40
1.0
 40
2.0
 40
2.0
 40
2.0
 40
2.0
 10
143.5999497939381
 20
-148.0277084266562
 30
0.0
 10
143.5999497939381
 20
-148.0277084266562
 30
0.0
 10
143.578606738927
 20
-147.5167803712284
 30
0.0
 10
144.4081636622077
 20
-147.5598545378842
 30
0.0
 10
144.4081636622077
 20
-147.5598545378842
 30
0.0
 10
144.8973958719486
 20
-147.6232487045355
 30
0.0
 10
144.8119574747119
 20
-148.0066828711058
 30
0.0
  0
SPLINE
  5
177
330
141
100
AcDbEntity
  8
レイヤー 1
 62
   250
420
  2299925
370
     9
100
AcDbSpline
210
0.0
220
0.0
230
1.0
 70
     9
 71
     3
 72
    17
 73
    13
 74
     0
 42
0.0000000001
 43
0.0000000001
 40
0.0
 40
0.0
 40
0.0
 40
0.0
 40
1.0
 40
1.0
 40
1.0
 40
2.0
 40
2.0
 40
2.0
 40
3.0
 40
3.0
 40
3.0
 40
4.0
 40
4.0
 40
4.0
 40
4.0
 10
147.3041163661036
 20
-149.54941537072
 30
0.0
 10
147.3041163661036
 20
-149.7847181484394
 30
0.0
 10
146.9740927634121
 20
-149.9748653706137
 30
0.0
 10
146.5703033292691
 20
-149.9748653706137
 30
0.0
 10
146.1645074743747
 20
-149.9748653706137
 30
0.0
 10
145.8365255702116
 20
-149.7847181484394
 30
0.0
 10
145.8365255702116
 20
-149.54941537072
 30
0.0
 10
145.8365255702116
 20
-149.3141125930012
 30
0.0
 10
146.1645074743747
 20
-149.1239300930488
 30
0.0
 10
146.5703033292691
 20
-149.1239300930488
 30
0.0
 10
146.9740927634121
 20
-149.1239300930488
 30
0.0
 10
147.3041163661036
 20
-149.3141125930012
 30
0.0
 10
147.3041163661036
 20
-149.54941537072
 30
0.0
  0
SPLINE
  5
178
330
141
100
AcDbEntity
  8
レイヤー 1
 62
   250
420
  2299925
370
     9
100
AcDbSpline
210
0.0
220
0.0
230
1.0
 70
     8
 71
     3
 72
    11
 73
     7
 74
     0
 42
0.0000000001
 43
0.0000000001
 40
0.0
 40
0.0
 40
0.0
 40
0.0
 40
1.0
 40
1.0
 40
1.0
 40
2.0
 40
2.0
 40
2.0
 40
2.0
 10
145.963984178071
 20
-149.7833070373284
 30
0.0
 10
145.963984178071
 20
-149.7833070373284
 30
0.0
 10
145.9426102522077
 20
-149.2720614819009
 30
0.0
 10
146.7721980463406
 20
-149.3154884263341
 30
0.0
 10
146.7721980463406
 20
-149.3154884263341
 30
0.0
 10
147.2613949783046
 20
-149.3792000929848
 30
0.0
 10
147.1759522027066
 20
-149.7623167595561
 30
0.0
  0
SPLINE
  5
179
330
141
100
AcDbEntity
  8
レイヤー 1
 62
   250
420
  2299925
370
     9
100
AcDbSpline
210
0.0
220
0.0
230
1.0
 70
     9
 71
     3
 72
    17
 73
    13
 74
     0
 42
0.0000000001
 43
0.0000000001
 40
0.0
 40
0.0
 40
0.0
 40
0.0
 40
1.0
 40
1.0
 40
1.0
 40
2.0
 40
2.0
 40
2.0
 40
3.0
 40
3.0
 40
3.0
 40
4.0
 40
4.0
 40
4.0
 40
4.0
 10
147.3041163661036
 20
-148.3339548154684
 30
0.0
 10
147.3041163661036
 20
-148.5685873154102
 30
0.0
 10
146.9740927634121
 20
-148.75944009314
 30
0.0
 10
146.5703033292691
 20
-148.75944009314
 30
0.0
 10
146.1645074743747
 20
-148.75944009314
 30
0.0
 10
145.8365255702116
 20
-148.5685873154102
 30
0.0
 10
145.8365255702116
 20
-148.3339548154684
 30
0.0
 10
145.8365255702116
 20
-148.0990048155272
 30
0.0
 10
146.1645074743747
 20
-147.9085048155748
 30
0.0
 10
146.5703033292691
 20
-147.9085048155748
 30
0.0
 10
146.9740927634121
 20
-147.9085048155748
 30
0.0
 10
147.3041163661036
 20
-148.0990048155272
 30
0.0
 10
147.3041163661036
 20
-148.3339548154684
 30
0.0
  0
SPLINE
  5
17A
330
141
100
AcDbEntity
  8
レイヤー 1
 62
   250
420
  2299925
370
     9
100
AcDbSpline
210
0.0
220
0.0
230
1.0
 70
     8
 71
     3
 72
    11
 73
     7
 74
     0
 42
0.0000000001
 43
0.0000000001
 40
0.0
 40
0.0
 40
0.0
 40
0.0
 40
1.0
 40
1.0
 40
1.0
 40
2.0
 40
2.0
 40
2.0
 40
2.0
 10
145.963984178071
 20
-148.5678817598543
 30
0.0
 10
145.963984178071
 20
-148.5678817598543
 30
0.0
 10
145.9426102522077
 20
-148.0569889822043
 30
0.0
 10
146.7721980463406
 20
-148.1000631488604
 30
0.0
 10
146.7721980463406
 20
-148.1000631488604
 30
0.0
 10
147.2613949783046
 20
-148.1634220377333
 30
0.0
 10
147.1759522027066
 20
-148.5461859265265
 30
0.0
  0
ENDBLK
  5
144
330
141
100
AcDbEntity
  8
0
100
AcDbBlockEnd
  0
BLOCK
  5
17D
330
17B
100
AcDbEntity
  8
0
100
AcDbBlockBegin
  2
Block_13
 70
     0
 10
0.0
 20
0.0
 30
0.0
  3
Block_13
  1

  0
INSERT
  5
180
330
17B
100
AcDbEntity
  8
レイヤー 1
100
AcDbBlockReference
  2
Block_14
 10
0.0
 20
0.0
 30
0.0
  0
INSERT
  5
187
330
17B
100
AcDbEntity
  8
レイヤー 1
100
AcDbBlockReference
  2
Block_15
 10
0.0
 20
0.0
 30
0.0
  0
ENDBLK
  5
17E
330
17B
100
AcDbEntity
  8
0
100
AcDbBlockEnd
  0
BLOCK
  5
181
330
17F
100
AcDbEntity
  8
0
100
AcDbBlockBegin
  2
Block_14
 70
     0
 10
0.0
 20
0.0
 30
0.0
  3
Block_14
  1

  0
LINE
  5
183
330
17F
100
AcDbEntity
  8
レイヤー 1
 62
    18
420
        0
370
     9
100
AcDbLine
 10
111.5109664459296
 20
-147.4608298156866
 30
0.0
 11
112.3222847585644
 21
-148.045453148874
 31
0.0
  0
LINE
  5
184
330
17F
100
AcDbEntity
  8
レイヤー 1
 62
    18
420
        0
370
     9
100
AcDbLine
 10
111.5109664459296
 20
-147.4608298156866
 30
0.0
 11
114.0885724912805
 21
-150.6179087037862
 31
0.0
  0
LINE
  5
185
330
17F
100
AcDbEntity
  8
レイヤー 1
 62
    18
420
        0
370
     9
100
AcDbLine
 10
111.5109664459296
 20
-147.4608298156866
 30
0.0
 11
111.9212822687949
 21
-148.3729014821259
 31
0.0
  0
ENDBLK
  5
182
330
17F
100
AcDbEntity
  8
0
100
AcDbBlockEnd
  0
BLOCK
  5
188
330
186
100
AcDbEntity
  8
0
100
AcDbBlockBegin
  2
Block_15
 70
     0
 10
0.0
 20
0.0
 30
0.0
  3
Block_15
  1

  0
INSERT
  5
18B
330
186
100
AcDbEntity
  8
レイヤー 1
100
AcDbBlockReference
  2
Block_16
 10
0.0
 20
0.0
 30
0.0
  0
ENDBLK
  5
189
330
186
100
AcDbEntity
  8
0
100
AcDbBlockEnd
  0
BLOCK
  5
18C
330
18A
100
AcDbEntity
  8
0
100
AcDbBlockBegin
  2
Block_16
 70
     0
 10
0.0
 20
0.0
 30
0.0
  3
Block_16
  1

  0
SPLINE
  5
18E
330
18A
100
AcDbEntity
  8
レイヤー 1
100
AcDbSpline
210
0.0
220
0.0
230
1.0
 70
     9
 71
     3
 72
    17
 73
    13
 74
     0
 42
0.0000000001
 43
0.0000000001
 40
0.0
 40
0.0
 40
0.0
 40
0.0
 40
1.0
 40
1.0
 40
1.0
 40
2.0
 40
2.0
 40
2.0
 40
3.0
 40
3.0
 40
3.0
 40
4.0
 40
4.0
 40
4.0
 40
4.0
 10
115.754863794846
 20
-151.0657144804627
 30
0.0
 10
115.7379828269683
 20
-151.0953423016359
 30
0.0
 10
115.6873399233351
 20
-151.1883598797376
 30
0.0
 10
115.6766601273308
 20
-151.2073079049065
 30
0.0
 10
115.8671739076651
 20
-151.2665635472528
 30
0.0
 10
115.8881889901252
 20
-151.2731092286748
 30
0.0
 10
115.9601914857669
 20
-151.3003254830082
 30
0.0
 10
116.0149685039824
 20
-151.2138535863285
 30
0.0
 10
116.038395153282
 20
-151.1397840333956
 30
0.0
 10
116.0532090638686
 20
-151.0657144804627
 30
0.0
 10
116.0532090638686
 20
-151.0657144804627
 30
0.0
 10
115.754863794846
 20
-151.0657144804627
 30
0.0
 10
115.754863794846
 20
-151.0657144804627
 30
0.0
  0
SPLINE
  5
18F
330
18A
100
AcDbEntity
  8
レイヤー 1
100
AcDbSpline
210
0.0
220
0.0
230
1.0
 70
    11
 71
     3
 72
    20
 73
    16
 74
     0
 42
0.0000000001
 43
0.0000000001
 40
0.0
 40
0.0
 40
0.0
 40
0.0
 40
1.0
 40
1.0
 40
1.0
 40
2.0
 40
2.0
 40
2.0
 40
3.0
 40
3.0
 40
3.0
 40
4.0
 40
4.0
 40
4.0
 40
5.0
 40
5.0
 40
5.0
 40
5.0
 10
115.6914740379174
 20
-150.2151204051545
 30
0.0
 10
115.6914740379174
 20
-150.2151204051545
 30
0.0
 10
115.6597791594531
 20
-150.2151204051545
 30
0.0
 10
115.6597791594531
 20
-150.2151204051545
 30
0.0
 10
115.706287948504
 20
-150.3146836646783
 30
0.0
 10
115.7379828269683
 20
-150.3949543894846
 30
0.0
 10
115.7717447627237
 20
-150.5220784128903
 30
0.0
 10
115.7717447627237
 20
-150.5220784128903
 30
0.0
 10
115.9791395109358
 20
-150.5220784128903
 30
0.0
 10
115.9791395109358
 20
-150.5220784128903
 30
0.0
 10
116.0108343894
 20
-150.4290608347885
 30
0.0
 10
116.0342610386997
 20
-150.3443114858514
 30
0.0
 10
116.0573431784509
 20
-150.2151204051545
 30
0.0
 10
116.0573431784509
 20
-150.2151204051545
 30
0.0
 10
115.6914740379174
 20
-150.2151204051545
 30
0.0
 10
115.6914740379174
 20
-150.2151204051545
 30
0.0
  0
SPLINE
  5
190
330
18A
100
AcDbEntity
  8
レイヤー 1
100
AcDbSpline
210
0.0
220
0.0
230
1.0
 70
     9
 71
     3
 72
   242
 73
   238
 74
     0
 42
0.0000000001
 43
0.0000000001
 40
0.0
 40
0.0
 40
0.0
 40
0.0
 40
1.0
 40
1.0
 40
1.0
 40
2.0
 40
2.0
 40
2.0
 40
3.0
 40
3.0
 40
3.0
 40
4.0
 40
4.0
 40
4.0
 40
5.0
 40
5.0
 40
5.0
 40
6.0
 40
6.0
 40
6.0
 40
7.0
 40
7.0
 40
7.0
 40
8.0
 40
8.0
 40
8.0
 40
9.0
 40
9.0
 40
9.0
 40
10.0
 40
10.0
 40
10.0
 40
11.0
 40
11.0
 40
11.0
 40
12.0
 40
12.0
 40
12.0
 40
13.0
 40
13.0
 40
13.0
 40
14.0
 40
14.0
 40
14.0
 40
15.0
 40
15.0
 40
15.0
 40
16.0
 40
16.0
 40
16.0
 40
17.0
 40
17.0
 40
17.0
 40
18.0
 40
18.0
 40
18.0
 40
19.0
 40
19.0
 40
19.0
 40
20.0
 40
20.0
 40
20.0
 40
21.0
 40
21.0
 40
21.0
 40
22.0
 40
22.0
 40
22.0
 40
23.0
 40
23.0
 40
23.0
 40
24.0
 40
24.0
 40
24.0
 40
25.0
 40
25.0
 40
25.0
 40
26.0
 40
26.0
 40
26.0
 40
27.0
 40
27.0
 40
27.0
 40
28.0
 40
28.0
 40
28.0
 40
29.0
 40
29.0
 40
29.0
 40
30.0
 40
30.0
 40
30.0
 40
31.0
 40
31.0
 40
31.0
 40
32.0
 40
32.0
 40
32.0
 40
33.0
 40
33.0
 40
33.0
 40
34.0
 40
34.0
 40
34.0
 40
35.0
 40
35.0
 40
35.0
 40
36.0
 40
36.0
 40
36.0
 40
37.0
 40
37.0
 40
37.0
 40
38.0
 40
38.0
 40
38.0
 40
39.0
 40
39.0
 40
39.0
 40
40.0
 40
40.0
 40
40.0
 40
41.0
 40
41.0
 40
41.0
 40
42.0
 40
42.0
 40
42.0
 40
43.0
 40
43.0
 40
43.0
 40
44.0
 40
44.0
 40
44.0
 40
45.0
 40
45.0
 40
45.0
 40
46.0
 40
46.0
 40
46.0
 40
47.0
 40
47.0
 40
47.0
 40
48.0
 40
48.0
 40
48.0
 40
49.0
 40
49.0
 40
49.0
 40
50.0
 40
50.0
 40
50.0
 40
51.0
 40
51.0
 40
51.0
 40
52.0
 40
52.0
 40
52.0
 40
53.0
 40
53.0
 40
53.0
 40
54.0
 40
54.0
 40
54.0
 40
55.0
 40
55.0
 40
55.0
 40
56.0
 40
56.0
 40
56.0
 40
57.0
 40
57.0
 40
57.0
 40
58.0
 40
58.0
 40
58.0
 40
59.0
 40
59.0
 40
59.0
 40
60.0
 40
60.0
 40
60.0
 40
61.0
 40
61.0
 40
61.0
 40
62.0
 40
62.0
 40
62.0
 40
63.0
 40
63.0
 40
63.0
 40
64.0
 40
64.0
 40
64.0
 40
65.0
 40
65.0
 40
65.0
 40
66.0
 40
66.0
 40
66.0
 40
67.0
 40
67.0
 40
67.0
 40
68.0
 40
68.0
 40
68.0
 40
69.0
 40
69.0
 40
69.0
 40
70.0
 40
70.0
 40
70.0
 40
71.0
 40
71.0
 40
71.0
 40
72.0
 40
72.0
 40
72.0
 40
73.0
 40
73.0
 40
73.0
 40
74.0
 40
74.0
 40
74.0
 40
75.0
 40
75.0
 40
75.0
 40
76.0
 40
76.0
 40
76.0
 40
77.0
 40
77.0
 40
77.0
 40
78.0
 40
78.0
 40
78.0
 40
79.0
 40
79.0
 40
79.0
 40
79.0
 10
116.319859454427
 20
-150.6805528052118
 30
0.0
 10
116.319859454427
 20
-150.6805528052118
 30
0.0
 10
116.0659559171641
 20
-150.6805528052118
 30
0.0
 10
116.0659559171641
 20
-150.6805528052118
 30
0.0
 10
116.0659559171641
 20
-150.6805528052118
 30
0.0
 10
115.7886257306014
 20
-150.6805528052118
 30
0.0
 10
115.7886257306014
 20
-150.6805528052118
 30
0.0
 10
115.7886257306014
 20
-150.6805528052118
 30
0.0
 10
115.9157497540072
 20
-150.7229274796804
 30
0.0
 10
115.9157497540072
 20
-150.7229274796804
 30
0.0
 10
115.9264295500114
 20
-150.7270615942627
 30
0.0
 10
115.9388318937583
 20
-150.7336072756846
 30
0.0
 10
115.9388318937583
 20
-150.74635412898
 30
0.0
 10
115.9388318937583
 20
-150.7673692114401
 30
0.0
 10
115.907137015294
 20
-150.7735703833136
 30
0.0
 10
115.886121932834
 20
-150.7780490074444
 30
0.0
 10
115.8754421368297
 20
-150.8011311471955
 30
0.0
 10
115.8458143156566
 20
-150.8669324709638
 30
0.0
 10
115.8268662904877
 20
-150.9113742027235
 30
0.0
 10
115.8268662904877
 20
-150.9113742027235
 30
0.0
 10
116.0976507956283
 20
-150.9113742027235
 30
0.0
 10
116.0976507956283
 20
-150.9113742027235
 30
0.0
 10
116.1886013164389
 20
-150.9113742027235
 30
0.0
 10
116.3853162686467
 20
-150.9068955785927
 30
0.0
 10
116.5269096930905
 20
-150.8986273494281
 30
0.0
 10
116.5269096930905
 20
-150.8986273494281
 30
0.0
 10
116.5269096930905
 20
-151.076394276467
 30
0.0
 10
116.5269096930905
 20
-151.076394276467
 30
0.0
 10
116.444571910993
 20
-151.0719156523362
 30
0.0
 10
116.423556828533
 20
-151.0719156523362
 30
0.0
 10
116.2437228442029
 20
-151.0677815377539
 30
0.0
 10
116.2120279657386
 20
-151.2221218154931
 30
0.0
 10
116.1675862339789
 20
-151.3027370498479
 30
0.0
 10
116.1231445022192
 20
-151.37232797865
 30
0.0
 10
116.2437228442029
 20
-151.4315836209962
 30
0.0
 10
116.3494872756001
 20
-151.4994520020557
 30
0.0
 10
116.4531846497061
 20
-151.5817897841531
 30
0.0
 10
116.4531846497061
 20
-151.5817897841531
 30
0.0
 10
116.3346733650135
 20
-151.7488769151878
 30
0.0
 10
116.3346733650135
 20
-151.7488769151878
 30
0.0
 10
116.3112467157138
 20
-151.7299288900189
 30
0.0
 10
116.2984998624184
 20
-151.7213161513058
 30
0.0
 10
116.1865342591478
 20
-151.6369113119172
 30
0.0
 10
116.1379584128058
 20
-151.5986707520309
 30
0.0
 10
116.0787027704595
 20
-151.5628417589843
 30
0.0
 10
115.9980875361046
 20
-151.5184000272246
 30
0.0
 10
115.7865586733103
 20
-151.7044351834281
 30
0.0
 10
115.5815754919379
 20
-151.7278618327277
 30
0.0
 10
115.2914984520799
 20
-151.7574896539009
 30
0.0
 10
115.2914984520799
 20
-151.7574896539009
 30
0.0
 10
115.1878010779739
 20
-151.5776556695709
 30
0.0
 10
115.1878010779739
 20
-151.5776556695709
 30
0.0
 10
115.5054388817139
 20
-151.5735215549885
 30
0.0
 10
115.6807942419131
 20
-151.5480278483977
 30
0.0
 10
115.8330674623612
 20
-151.4381293024182
 30
0.0
 10
115.7145561776686
 20
-151.3871418892365
 30
0.0
 10
115.6260172236976
 20
-151.3595811253545
 30
0.0
 10
115.5898437211025
 20
-151.3471787816076
 30
0.0
 10
115.5708956959337
 20
-151.3743950359411
 30
0.0
 10
115.5560817853471
 20
-151.3936875706585
 30
0.0
 10
115.5285210214651
 20
-151.427449506414
 30
0.0
 10
115.5285210214651
 20
-151.427449506414
 30
0.0
 10
115.3318060692573
 20
-151.344767214768
 30
0.0
 10
115.3318060692573
 20
-151.344767214768
 30
0.0
 10
115.4141438513548
 20
-151.2644964899616
 30
0.0
 10
115.4758110605408
 20
-151.1694118545688
 30
0.0
 10
115.5326551360474
 20
-151.0677815377539
 30
0.0
 10
115.3424858652616
 20
-151.0719156523362
 30
0.0
 10
115.321126273253
 20
-151.0719156523362
 30
0.0
 10
115.2387884911556
 20
-151.076394276467
 30
0.0
 10
115.2387884911556
 20
-151.076394276467
 30
0.0
 10
115.2387884911556
 20
-150.8986273494281
 30
0.0
 10
115.2387884911556
 20
-150.8986273494281
 30
0.0
 10
115.3783148583082
 20
-150.9048285213015
 30
0.0
 10
115.5877766638114
 20
-150.9089626358839
 30
0.0
 10
115.6132703704022
 20
-150.9089626358839
 30
0.0
 10
115.63015133828
 20
-150.8752007001284
 30
0.0
 10
115.6849283564954
 20
-150.7546223581447
 30
0.0
 10
115.7042208912128
 20
-150.6805528052118
 30
0.0
 10
115.6849283564954
 20
-150.6805528052118
 30
0.0
 10
115.507505939005
 20
-150.6870984866338
 30
0.0
 10
115.3128580440884
 20
-150.6998453399292
 30
0.0
 10
115.3128580440884
 20
-150.6998453399292
 30
0.0
 10
115.3128580440884
 20
-150.8328260256599
 30
0.0
 10
115.3128580440884
 20
-150.8328260256599
 30
0.0
 10
115.2642821977464
 20
-150.8583197322507
 30
0.0
 10
115.2050265554001
 20
-150.890014610715
 30
0.0
 10
115.0717013601209
 20
-150.9558159344832
 30
0.0
 10
115.0717013601209
 20
-150.9558159344832
 30
0.0
 10
115.0717013601209
 20
-151.1015434735093
 30
0.0
 10
115.0717013601209
 20
-151.1015434735093
 30
0.0
 10
115.0717013601209
 20
-151.1015434735093
 30
0.0
 10
115.0717013601209
 20
-151.5690429308577
 30
0.0
 10
115.0717013601209
 20
-151.5690429308577
 30
0.0
 10
115.0717013601209
 20
-151.6961669542635
 30
0.0
 10
115.0355278575258
 20
-151.7554225966098
 30
0.0
 10
114.7519964990898
 20
-151.7468098578966
 30
0.0
 10
114.7519964990898
 20
-151.7468098578966
 30
0.0
 10
114.6486436345323
 20
-151.5394151096846
 30
0.0
 10
114.6486436345323
 20
-151.5394151096846
 30
0.0
 10
114.7120333914609
 20
-151.55216196298
 30
0.0
 10
114.7606092378029
 20
-151.5566405871108
 30
0.0
 10
114.8009168549803
 20
-151.5566405871108
 30
0.0
 10
114.8770534652043
 20
-151.5566405871108
 30
0.0
 10
114.8873887516601
 20
-151.5332139378111
 30
0.0
 10
114.8873887516601
 20
-151.4677571235914
 30
0.0
 10
114.8873887516601
 20
-151.4677571235914
 30
0.0
 10
114.8873887516601
 20
-151.0381537165807
 30
0.0
 10
114.8873887516601
 20
-151.0381537165807
 30
0.0
 10
114.790237058976
 20
-151.0784613337581
 30
0.0
 10
114.7733560910983
 20
-151.0846625056316
 30
0.0
 10
114.7268473020474
 20
-151.1036105308005
 30
0.0
 10
114.7227131874651
 20
-151.124970122809
 30
0.0
 10
114.7182345633343
 20
-151.1545979439822
 30
0.0
 10
114.6992865381655
 20
-151.1545979439822
 30
0.0
 10
114.6906737994523
 20
-151.1545979439822
 30
0.0
 10
114.6803385129966
 20
-151.1501193198514
 30
0.0
 10
114.6737928315746
 20
-151.1270371801002
 30
0.0
 10
114.6737928315746
 20
-151.1270371801002
 30
0.0
 10
114.6210828706503
 20
-150.9344563424747
 30
0.0
 10
114.6210828706503
 20
-150.9344563424747
 30
0.0
 10
114.7668104096763
 20
-150.8879475534238
 30
0.0
 10
114.8326117334446
 20
-150.8648654136726
 30
0.0
 10
114.8873887516601
 20
-150.8435058216641
 30
0.0
 10
114.8873887516601
 20
-150.8435058216641
 30
0.0
 10
114.8873887516601
 20
-150.4311278920797
 30
0.0
 10
114.8873887516601
 20
-150.4311278920797
 30
0.0
 10
114.8873887516601
 20
-150.4311278920797
 30
0.0
 10
114.8346787907358
 20
-150.4311278920797
 30
0.0
 10
114.8346787907358
 20
-150.4311278920797
 30
0.0
 10
114.8346787907358
 20
-150.4311278920797
 30
0.0
 10
114.7564751232206
 20
-150.4311278920797
 30
0.0
 10
114.7564751232206
 20
-150.4311278920797
 30
0.0
 10
114.6886067421612
 20
-150.4311278920797
 30
0.0
 10
114.6803385129966
 20
-150.4311278920797
 30
0.0
 10
114.6441650104014
 20
-150.4373290639532
 30
0.0
 10
114.6441650104014
 20
-150.4373290639532
 30
0.0
 10
114.6441650104014
 20
-150.2426811690365
 30
0.0
 10
114.6441650104014
 20
-150.2426811690365
 30
0.0
 10
114.6717257742834
 20
-150.2492268504585
 30
0.0
 10
114.6803385129966
 20
-150.2492268504585
 30
0.0
 10
114.7499294417986
 20
-150.2492268504585
 30
0.0
 10
114.7499294417986
 20
-150.2492268504585
 30
0.0
 10
114.8832546370778
 20
-150.2492268504585
 30
0.0
 10
114.8832546370778
 20
-150.2492268504585
 30
0.0
 10
114.8832546370778
 20
-150.179291412108
 30
0.0
 10
114.8832546370778
 20
-150.096609120462
 30
0.0
 10
114.8811875797866
 20
-150.0924750058796
 30
0.0
 10
114.8725748410735
 20
-149.9126410215496
 30
0.0
 10
114.8725748410735
 20
-149.8936929963807
 30
0.0
 10
114.8705077837824
 20
-149.8471842073299
 30
0.0
 10
114.8705077837824
 20
-149.8471842073299
 30
0.0
 10
115.0865152707075
 20
-149.8554524364945
 30
0.0
 10
115.0865152707075
 20
-149.8554524364945
 30
0.0
 10
115.0968505571633
 20
-149.8554524364945
 30
0.0
 10
115.1182101491718
 20
-149.8578640033341
 30
0.0
 10
115.1182101491718
 20
-149.8747449712118
 30
0.0
 10
115.1182101491718
 20
-149.8936929963807
 30
0.0
 10
115.1033962385852
 20
-149.904372792385
 30
0.0
 10
115.0779025319944
 20
-149.9233208175539
 30
0.0
 10
115.0779025319944
 20
-149.973963721187
 30
0.0
 10
115.0717013601209
 20
-150.2027180614076
 30
0.0
 10
115.0737684174121
 20
-150.2492268504585
 30
0.0
 10
115.2026149885605
 20
-150.2492268504585
 30
0.0
 10
115.2153618418559
 20
-150.2492268504585
 30
0.0
 10
115.3128580440884
 20
-150.2406141117454
 30
0.0
 10
115.3128580440884
 20
-150.2406141117454
 30
0.0
 10
115.3128580440884
 20
-150.435262006662
 30
0.0
 10
115.3128580440884
 20
-150.435262006662
 30
0.0
 10
115.2746174842022
 20
-150.4331949493709
 30
0.0
 10
115.2070936126913
 20
-150.4290608347885
 30
0.0
 10
115.0717013601209
 20
-150.4311278920797
 30
0.0
 10
115.0717013601209
 20
-150.4311278920797
 30
0.0
 10
115.0717013601209
 20
-150.7694362687312
 30
0.0
 10
115.0717013601209
 20
-150.7694362687312
 30
0.0
 10
115.1264783783364
 20
-150.74635412898
 30
0.0
 10
115.1922797021047
 20
-150.7187933650981
 30
0.0
 10
115.2408555484467
 20
-150.6953667157984
 30
0.0
 10
115.2408555484467
 20
-150.6953667157984
 30
0.0
 10
115.2408555484467
 20
-150.5175997887595
 30
0.0
 10
115.2408555484467
 20
-150.5175997887595
 30
0.0
 10
115.355232718557
 20
-150.5303466420549
 30
0.0
 10
115.4733994937011
 20
-150.5303466420549
 30
0.0
 10
115.5898437211025
 20
-150.5303466420549
 30
0.0
 10
115.5667615813513
 20
-150.435262006662
 30
0.0
 10
115.5392008174694
 20
-150.352579715016
 30
0.0
 10
115.4758110605408
 20
-150.2195990292854
 30
0.0
 10
115.431369328781
 20
-150.2216660865765
 30
0.0
 10
115.348687037135
 20
-150.2258002011588
 30
0.0
 10
115.3107909867973
 20
-150.22786725845
 30
0.0
 10
115.3107909867973
 20
-150.22786725845
 30
0.0
 10
115.3107909867973
 20
-150.0480332741199
 30
0.0
 10
115.3107909867973
 20
-150.0480332741199
 30
0.0
 10
115.4355034433633
 20
-150.056646012833
 30
0.0
 10
115.6087917462714
 20
-150.0607801274153
 30
0.0
 10
115.6914740379174
 20
-150.0607801274153
 30
0.0
 10
115.6914740379174
 20
-150.0607801274153
 30
0.0
 10
115.7738118200149
 20
-150.0607801274153
 30
0.0
 10
115.7738118200149
 20
-150.0607801274153
 30
0.0
 10
115.7738118200149
 20
-149.897827110963
 30
0.0
 10
115.7738118200149
 20
-149.8874918245073
 30
0.0
 10
115.7717447627237
 20
-149.8323702967433
 30
0.0
 10
115.7717447627237
 20
-149.8323702967433
 30
0.0
 10
115.9960204788135
 20
-149.8578640033341
 30
0.0
 10
115.9960204788135
 20
-149.8578640033341
 30
0.0
 10
116.0001545933958
 20
-149.8578640033341
 30
0.0
 10
116.0215141854043
 20
-149.8599310606253
 30
0.0
 10
116.0215141854043
 20
-149.876812028503
 30
0.0
 10
116.0215141854043
 20
-149.8916259390896
 30
0.0
 10
116.0108343894
 20
-149.8998941682542
 30
0.0
 10
115.9832736255181
 20
-149.9147080788407
 30
0.0
 10
115.9770724536446
 20
-149.980509402609
 30
0.0
 10
115.9750053963535
 20
-150.001524485069
 30
0.0
 10
115.9750053963535
 20
-150.0607801274153
 30
0.0
 10
115.9750053963535
 20
-150.0607801274153
 30
0.0
 10
116.0700900317463
 20
-150.0607801274153
 30
0.0
 10
116.0700900317463
 20
-150.0607801274153
 30
0.0
 10
116.1527723233923
 20
-150.0607801274153
 30
0.0
 10
116.3260606263004
 20
-150.056646012833
 30
0.0
 10
116.4507730828665
 20
-150.0480332741199
 30
0.0
 10
116.4507730828665
 20
-150.0480332741199
 30
0.0
 10
116.4507730828665
 20
-150.22786725845
 30
0.0
 10
116.4507730828665
 20
-150.22786725845
 30
0.0
 10
116.4211452616933
 20
-150.2258002011588
 30
0.0
 10
116.3029784865492
 20
-150.2216660865765
 30
0.0
 10
116.2626708693718
 20
-150.2195990292854
 30
0.0
 10
116.2478569587852
 20
-150.2702419329185
 30
0.0
 10
116.2140950230298
 20
-150.3822075361892
 30
0.0
 10
116.1482936992615
 20
-150.5220784128903
 30
0.0
 10
116.1906683737301
 20
-150.5220784128903
 30
0.0
 10
116.4679985602927
 20
-150.5027858781729
 30
0.0
 10
116.5293212599301
 20
-150.5007188208817
 30
0.0
 10
116.5293212599301
 20
-150.5007188208817
 30
0.0
 10
116.5293212599301
 20
-150.6850314293426
 30
0.0
 10
116.5293212599301
 20
-150.6850314293426
 30
0.0
 10
116.499693438757
 20
-150.6850314293426
 30
0.0
 10
116.4828124708793
 20
-150.6805528052118
 30
0.0
 10
116.319859454427
 20
-150.6805528052118
 30
0.0
  0
HATCH
  5
191
330
18A
100
AcDbEntity
  8
レイヤー 1
 62
    18
420
        0
440
 33554687
100
AcDbHatch
 10
0.0
 20
0.0
 30
0.0
210
0.0
220
0.0
230
1.0
  2
SOLID
 70
     1
 71
     1
 91
        3
 92
        1
 93
        1
 72
     4
 94
        3
 73
     0
 74
     0
 95
       17
 96
       13
 40
0.0
 40
0.0
 40
0.0
 40
0.0
 40
1.0
 40
1.0
 40
1.0
 40
2.0
 40
2.0
 40
2.0
 40
3.0
 40
3.0
 40
3.0
 40
4.0
 40
4.0
 40
4.0
 40
4.0
 10
115.754863794846
 20
-151.0657144804627
 10
115.7379828269683
 20
-151.0953423016359
 10
115.6873399233351
 20
-151.1883598797376
 10
115.6766601273308
 20
-151.2073079049065
 10
115.8671739076651
 20
-151.2665635472528
 10
115.8881889901252
 20
-151.2731092286748
 10
115.9601914857669
 20
-151.3003254830082
 10
116.0149685039824
 20
-151.2138535863285
 10
116.038395153282
 20
-151.1397840333956
 10
116.0532090638686
 20
-151.0657144804627
 10
116.0532090638686
 20
-151.0657144804627
 10
115.754863794846
 20
-151.0657144804627
 10
115.754863794846
 20
-151.0657144804627
 97
        0
 97
        1
330
18E
 92
        1
 93
        1
 72
     4
 94
        3
 73
     0
 74
     0
 95
       20
 96
       16
 40
0.0
 40
0.0
 40
0.0
 40
0.0
 40
1.0
 40
1.0
 40
1.0
 40
2.0
 40
2.0
 40
2.0
 40
3.0
 40
3.0
 40
3.0
 40
4.0
 40
4.0
 40
4.0
 40
5.0
 40
5.0
 40
5.0
 40
5.0
 10
115.6914740379174
 20
-150.2151204051545
 10
115.6914740379174
 20
-150.2151204051545
 10
115.6597791594531
 20
-150.2151204051545
 10
115.6597791594531
 20
-150.2151204051545
 10
115.706287948504
 20
-150.3146836646783
 10
115.7379828269683
 20
-150.3949543894846
 10
115.7717447627237
 20
-150.5220784128903
 10
115.7717447627237
 20
-150.5220784128903
 10
115.9791395109358
 20
-150.5220784128903
 10
115.9791395109358
 20
-150.5220784128903
 10
116.0108343894
 20
-150.4290608347885
 10
116.0342610386997
 20
-150.3443114858514
 10
116.0573431784509
 20
-150.2151204051545
 10
116.0573431784509
 20
-150.2151204051545
 10
115.6914740379174
 20
-150.2151204051545
 10
115.6914740379174
 20
-150.2151204051545
 97
        0
 97
        1
330
18F
 92
        1
 93
        1
 72
     4
 94
        3
 73
     0
 74
     0
 95
      242
 96
      238
 40
0.0
 40
0.0
 40
0.0
 40
0.0
 40
1.0
 40
1.0
 40
1.0
 40
2.0
 40
2.0
 40
2.0
 40
3.0
 40
3.0
 40
3.0
 40
4.0
 40
4.0
 40
4.0
 40
5.0
 40
5.0
 40
5.0
 40
6.0
 40
6.0
 40
6.0
 40
7.0
 40
7.0
 40
7.0
 40
8.0
 40
8.0
 40
8.0
 40
9.0
 40
9.0
 40
9.0
 40
10.0
 40
10.0
 40
10.0
 40
11.0
 40
11.0
 40
11.0
 40
12.0
 40
12.0
 40
12.0
 40
13.0
 40
13.0
 40
13.0
 40
14.0
 40
14.0
 40
14.0
 40
15.0
 40
15.0
 40
15.0
 40
16.0
 40
16.0
 40
16.0
 40
17.0
 40
17.0
 40
17.0
 40
18.0
 40
18.0
 40
18.0
 40
19.0
 40
19.0
 40
19.0
 40
20.0
 40
20.0
 40
20.0
 40
21.0
 40
21.0
 40
21.0
 40
22.0
 40
22.0
 40
22.0
 40
23.0
 40
23.0
 40
23.0
 40
24.0
 40
24.0
 40
24.0
 40
25.0
 40
25.0
 40
25.0
 40
26.0
 40
26.0
 40
26.0
 40
27.0
 40
27.0
 40
27.0
 40
28.0
 40
28.0
 40
28.0
 40
29.0
 40
29.0
 40
29.0
 40
30.0
 40
30.0
 40
30.0
 40
31.0
 40
31.0
 40
31.0
 40
32.0
 40
32.0
 40
32.0
 40
33.0
 40
33.0
 40
33.0
 40
34.0
 40
34.0
 40
34.0
 40
35.0
 40
35.0
 40
35.0
 40
36.0
 40
36.0
 40
36.0
 40
37.0
 40
37.0
 40
37.0
 40
38.0
 40
38.0
 40
38.0
 40
39.0
 40
39.0
 40
39.0
 40
40.0
 40
40.0
 40
40.0
 40
41.0
 40
41.0
 40
41.0
 40
42.0
 40
42.0
 40
42.0
 40
43.0
 40
43.0
 40
43.0
 40
44.0
 40
44.0
 40
44.0
 40
45.0
 40
45.0
 40
45.0
 40
46.0
 40
46.0
 40
46.0
 40
47.0
 40
47.0
 40
47.0
 40
48.0
 40
48.0
 40
48.0
 40
49.0
 40
49.0
 40
49.0
 40
50.0
 40
50.0
 40
50.0
 40
51.0
 40
51.0
 40
51.0
 40
52.0
 40
52.0
 40
52.0
 40
53.0
 40
53.0
 40
53.0
 40
54.0
 40
54.0
 40
54.0
 40
55.0
 40
55.0
 40
55.0
 40
56.0
 40
56.0
 40
56.0
 40
57.0
 40
57.0
 40
57.0
 40
58.0
 40
58.0
 40
58.0
 40
59.0
 40
59.0
 40
59.0
 40
60.0
 40
60.0
 40
60.0
 40
61.0
 40
61.0
 40
61.0
 40
62.0
 40
62.0
 40
62.0
 40
63.0
 40
63.0
 40
63.0
 40
64.0
 40
64.0
 40
64.0
 40
65.0
 40
65.0
 40
65.0
 40
66.0
 40
66.0
 40
66.0
 40
67.0
 40
67.0
 40
67.0
 40
68.0
 40
68.0
 40
68.0
 40
69.0
 40
69.0
 40
69.0
 40
70.0
 40
70.0
 40
70.0
 40
71.0
 40
71.0
 40
71.0
 40
72.0
 40
72.0
 40
72.0
 40
73.0
 40
73.0
 40
73.0
 40
74.0
 40
74.0
 40
74.0
 40
75.0
 40
75.0
 40
75.0
 40
76.0
 40
76.0
 40
76.0
 40
77.0
 40
77.0
 40
77.0
 40
78.0
 40
78.0
 40
78.0
 40
79.0
 40
79.0
 40
79.0
 40
79.0
 10
116.319859454427
 20
-150.6805528052118
 10
116.319859454427
 20
-150.6805528052118
 10
116.0659559171641
 20
-150.6805528052118
 10
116.0659559171641
 20
-150.6805528052118
 10
116.0659559171641
 20
-150.6805528052118
 10
115.7886257306014
 20
-150.6805528052118
 10
115.7886257306014
 20
-150.6805528052118
 10
115.7886257306014
 20
-150.6805528052118
 10
115.9157497540072
 20
-150.7229274796804
 10
115.9157497540072
 20
-150.7229274796804
 10
115.9264295500114
 20
-150.7270615942627
 10
115.9388318937583
 20
-150.7336072756846
 10
115.9388318937583
 20
-150.74635412898
 10
115.9388318937583
 20
-150.7673692114401
 10
115.907137015294
 20
-150.7735703833136
 10
115.886121932834
 20
-150.7780490074444
 10
115.8754421368297
 20
-150.8011311471955
 10
115.8458143156566
 20
-150.8669324709638
 10
115.8268662904877
 20
-150.9113742027235
 10
115.8268662904877
 20
-150.9113742027235
 10
116.0976507956283
 20
-150.9113742027235
 10
116.0976507956283
 20
-150.9113742027235
 10
116.1886013164389
 20
-150.9113742027235
 10
116.3853162686467
 20
-150.9068955785927
 10
116.5269096930905
 20
-150.8986273494281
 10
116.5269096930905
 20
-150.8986273494281
 10
116.5269096930905
 20
-151.076394276467
 10
116.5269096930905
 20
-151.076394276467
 10
116.444571910993
 20
-151.0719156523362
 10
116.423556828533
 20
-151.0719156523362
 10
116.2437228442029
 20
-151.0677815377539
 10
116.2120279657386
 20
-151.2221218154931
 10
116.1675862339789
 20
-151.3027370498479
 10
116.1231445022192
 20
-151.37232797865
 10
116.2437228442029
 20
-151.4315836209962
 10
116.3494872756001
 20
-151.4994520020557
 10
116.4531846497061
 20
-151.5817897841531
 10
116.4531846497061
 20
-151.5817897841531
 10
116.3346733650135
 20
-151.7488769151878
 10
116.3346733650135
 20
-151.7488769151878
 10
116.3112467157138
 20
-151.7299288900189
 10
116.2984998624184
 20
-151.7213161513058
 10
116.1865342591478
 20
-151.6369113119172
 10
116.1379584128058
 20
-151.5986707520309
 10
116.0787027704595
 20
-151.5628417589843
 10
115.9980875361046
 20
-151.5184000272246
 10
115.7865586733103
 20
-151.7044351834281
 10
115.5815754919379
 20
-151.7278618327277
 10
115.2914984520799
 20
-151.7574896539009
 10
115.2914984520799
 20
-151.7574896539009
 10
115.1878010779739
 20
-151.5776556695709
 10
115.1878010779739
 20
-151.5776556695709
 10
115.5054388817139
 20
-151.5735215549885
 10
115.6807942419131
 20
-151.5480278483977
 10
115.8330674623612
 20
-151.4381293024182
 10
115.7145561776686
 20
-151.3871418892365
 10
115.6260172236976
 20
-151.3595811253545
 10
115.5898437211025
 20
-151.3471787816076
 10
115.5708956959337
 20
-151.3743950359411
 10
115.5560817853471
 20
-151.3936875706585
 10
115.5285210214651
 20
-151.427449506414
 10
115.5285210214651
 20
-151.427449506414
 10
115.3318060692573
 20
-151.344767214768
 10
115.3318060692573
 20
-151.344767214768
 10
115.4141438513548
 20
-151.2644964899616
 10
115.4758110605408
 20
-151.1694118545688
 10
115.5326551360474
 20
-151.0677815377539
 10
115.3424858652616
 20
-151.0719156523362
 10
115.321126273253
 20
-151.0719156523362
 10
115.2387884911556
 20
-151.076394276467
 10
115.2387884911556
 20
-151.076394276467
 10
115.2387884911556
 20
-150.8986273494281
 10
115.2387884911556
 20
-150.8986273494281
 10
115.3783148583082
 20
-150.9048285213015
 10
115.5877766638114
 20
-150.9089626358839
 10
115.6132703704022
 20
-150.9089626358839
 10
115.63015133828
 20
-150.8752007001284
 10
115.6849283564954
 20
-150.7546223581447
 10
115.7042208912128
 20
-150.6805528052118
 10
115.6849283564954
 20
-150.6805528052118
 10
115.507505939005
 20
-150.6870984866338
 10
115.3128580440884
 20
-150.6998453399292
 10
115.3128580440884
 20
-150.6998453399292
 10
115.3128580440884
 20
-150.8328260256599
 10
115.3128580440884
 20
-150.8328260256599
 10
115.2642821977464
 20
-150.8583197322507
 10
115.2050265554001
 20
-150.890014610715
 10
115.0717013601209
 20
-150.9558159344832
 10
115.0717013601209
 20
-150.9558159344832
 10
115.0717013601209
 20
-151.1015434735093
 10
115.0717013601209
 20
-151.1015434735093
 10
115.0717013601209
 20
-151.1015434735093
 10
115.0717013601209
 20
-151.5690429308577
 10
115.0717013601209
 20
-151.5690429308577
 10
115.0717013601209
 20
-151.6961669542635
 10
115.0355278575258
 20
-151.7554225966098
 10
114.7519964990898
 20
-151.7468098578966
 10
114.7519964990898
 20
-151.7468098578966
 10
114.6486436345323
 20
-151.5394151096846
 10
114.6486436345323
 20
-151.5394151096846
 10
114.7120333914609
 20
-151.55216196298
 10
114.7606092378029
 20
-151.5566405871108
 10
114.8009168549803
 20
-151.5566405871108
 10
114.8770534652043
 20
-151.5566405871108
 10
114.8873887516601
 20
-151.5332139378111
 10
114.8873887516601
 20
-151.4677571235914
 10
114.8873887516601
 20
-151.4677571235914
 10
114.8873887516601
 20
-151.0381537165807
 10
114.8873887516601
 20
-151.0381537165807
 10
114.790237058976
 20
-151.0784613337581
 10
114.7733560910983
 20
-151.0846625056316
 10
114.7268473020474
 20
-151.1036105308005
 10
114.7227131874651
 20
-151.124970122809
 10
114.7182345633343
 20
-151.1545979439822
 10
114.6992865381655
 20
-151.1545979439822
 10
114.6906737994523
 20
-151.1545979439822
 10
114.6803385129966
 20
-151.1501193198514
 10
114.6737928315746
 20
-151.1270371801002
 10
114.6737928315746
 20
-151.1270371801002
 10
114.6210828706503
 20
-150.9344563424747
 10
114.6210828706503
 20
-150.9344563424747
 10
114.7668104096763
 20
-150.8879475534238
 10
114.8326117334446
 20
-150.8648654136726
 10
114.8873887516601
 20
-150.8435058216641
 10
114.8873887516601
 20
-150.8435058216641
 10
114.8873887516601
 20
-150.4311278920797
 10
114.8873887516601
 20
-150.4311278920797
 10
114.8873887516601
 20
-150.4311278920797
 10
114.8346787907358
 20
-150.4311278920797
 10
114.8346787907358
 20
-150.4311278920797
 10
114.8346787907358
 20
-150.4311278920797
 10
114.7564751232206
 20
-150.4311278920797
 10
114.7564751232206
 20
-150.4311278920797
 10
114.6886067421612
 20
-150.4311278920797
 10
114.6803385129966
 20
-150.4311278920797
 10
114.6441650104014
 20
-150.4373290639532
 10
114.6441650104014
 20
-150.4373290639532
 10
114.6441650104014
 20
-150.2426811690365
 10
114.6441650104014
 20
-150.2426811690365
 10
114.6717257742834
 20
-150.2492268504585
 10
114.6803385129966
 20
-150.2492268504585
 10
114.7499294417986
 20
-150.2492268504585
 10
114.7499294417986
 20
-150.2492268504585
 10
114.8832546370778
 20
-150.2492268504585
 10
114.8832546370778
 20
-150.2492268504585
 10
114.8832546370778
 20
-150.179291412108
 10
114.8832546370778
 20
-150.096609120462
 10
114.8811875797866
 20
-150.0924750058796
 10
114.8725748410735
 20
-149.9126410215496
 10
114.8725748410735
 20
-149.8936929963807
 10
114.8705077837824
 20
-149.8471842073299
 10
114.8705077837824
 20
-149.8471842073299
 10
115.0865152707075
 20
-149.8554524364945
 10
115.0865152707075
 20
-149.8554524364945
 10
115.0968505571633
 20
-149.8554524364945
 10
115.1182101491718
 20
-149.8578640033341
 10
115.1182101491718
 20
-149.8747449712118
 10
115.1182101491718
 20
-149.8936929963807
 10
115.1033962385852
 20
-149.904372792385
 10
115.0779025319944
 20
-149.9233208175539
 10
115.0779025319944
 20
-149.973963721187
 10
115.0717013601209
 20
-150.2027180614076
 10
115.0737684174121
 20
-150.2492268504585
 10
115.2026149885605
 20
-150.2492268504585
 10
115.2153618418559
 20
-150.2492268504585
 10
115.3128580440884
 20
-150.2406141117454
 10
115.3128580440884
 20
-150.2406141117454
 10
115.3128580440884
 20
-150.435262006662
 10
115.3128580440884
 20
-150.435262006662
 10
115.2746174842022
 20
-150.4331949493709
 10
115.2070936126913
 20
-150.4290608347885
 10
115.0717013601209
 20
-150.4311278920797
 10
115.0717013601209
 20
-150.4311278920797
 10
115.0717013601209
 20
-150.7694362687312
 10
115.0717013601209
 20
-150.7694362687312
 10
115.1264783783364
 20
-150.74635412898
 10
115.1922797021047
 20
-150.7187933650981
 10
115.2408555484467
 20
-150.6953667157984
 10
115.2408555484467
 20
-150.6953667157984
 10
115.2408555484467
 20
-150.5175997887595
 10
115.2408555484467
 20
-150.5175997887595
 10
115.355232718557
 20
-150.5303466420549
 10
115.4733994937011
 20
-150.5303466420549
 10
115.5898437211025
 20
-150.5303466420549
 10
115.5667615813513
 20
-150.435262006662
 10
115.5392008174694
 20
-150.352579715016
 10
115.4758110605408
 20
-150.2195990292854
 10
115.431369328781
 20
-150.2216660865765
 10
115.348687037135
 20
-150.2258002011588
 10
115.3107909867973
 20
-150.22786725845
 10
115.3107909867973
 20
-150.22786725845
 10
115.3107909867973
 20
-150.0480332741199
 10
115.3107909867973
 20
-150.0480332741199
 10
115.4355034433633
 20
-150.056646012833
 10
115.6087917462714
 20
-150.0607801274153
 10
115.6914740379174
 20
-150.0607801274153
 10
115.6914740379174
 20
-150.0607801274153
 10
115.7738118200149
 20
-150.0607801274153
 10
115.7738118200149
 20
-150.0607801274153
 10
115.7738118200149
 20
-149.897827110963
 10
115.7738118200149
 20
-149.8874918245073
 10
115.7717447627237
 20
-149.8323702967433
 10
115.7717447627237
 20
-149.8323702967433
 10
115.9960204788135
 20
-149.8578640033341
 10
115.9960204788135
 20
-149.8578640033341
 10
116.0001545933958
 20
-149.8578640033341
 10
116.0215141854043
 20
-149.8599310606253
 10
116.0215141854043
 20
-149.876812028503
 10
116.0215141854043
 20
-149.8916259390896
 10
116.0108343894
 20
-149.8998941682542
 10
115.9832736255181
 20
-149.9147080788407
 10
115.9770724536446
 20
-149.980509402609
 10
115.9750053963535
 20
-150.001524485069
 10
115.9750053963535
 20
-150.0607801274153
 10
115.9750053963535
 20
-150.0607801274153
 10
116.0700900317463
 20
-150.0607801274153
 10
116.0700900317463
 20
-150.0607801274153
 10
116.1527723233923
 20
-150.0607801274153
 10
116.3260606263004
 20
-150.056646012833
 10
116.4507730828665
 20
-150.0480332741199
 10
116.4507730828665
 20
-150.0480332741199
 10
116.4507730828665
 20
-150.22786725845
 10
116.4507730828665
 20
-150.22786725845
 10
116.4211452616933
 20
-150.2258002011588
 10
116.3029784865492
 20
-150.2216660865765
 10
116.2626708693718
 20
-150.2195990292854
 10
116.2478569587852
 20
-150.2702419329185
 10
116.2140950230298
 20
-150.3822075361892
 10
116.1482936992615
 20
-150.5220784128903
 10
116.1906683737301
 20
-150.5220784128903
 10
116.4679985602927
 20
-150.5027858781729
 10
116.5293212599301
 20
-150.5007188208817
 10
116.5293212599301
 20
-150.5007188208817
 10
116.5293212599301
 20
-150.6850314293426
 10
116.5293212599301
 20
-150.6850314293426
 10
116.499693438757
 20
-150.6850314293426
 10
116.4828124708793
 20
-150.6805528052118
 10
116.319859454427
 20
-150.6805528052118
 97
        0
 97
        1
330
190
 75
     2
 76
     1
 98
        1
 10
0.0
 20
0.0
450
        0
451
        0
460
0.0
461
0.0
452
        0
462
0.0
453
        0
470

  0
SPLINE
  5
192
330
18A
100
AcDbEntity
  8
レイヤー 1
100
AcDbSpline
210
0.0
220
0.0
230
1.0
 70
    11
 71
     3
 72
    17
 73
    13
 74
     0
 42
0.0000000001
 43
0.0000000001
 40
0.0
 40
0.0
 40
0.0
 40
0.0
 40
1.0
 40
1.0
 40
1.0
 40
2.0
 40
2.0
 40
2.0
 40
3.0
 40
3.0
 40
3.0
 40
4.0
 40
4.0
 40
4.0
 40
4.0
 10
118.1760769018796
 20
-151.4801594673383
 30
0.0
 10
118.1760769018796
 20
-151.4801594673383
 30
0.0
 10
117.4694878178548
 20
-151.4801594673383
 30
0.0
 10
117.4694878178548
 20
-151.4801594673383
 30
0.0
 10
117.4694878178548
 20
-151.4801594673383
 30
0.0
 10
117.4694878178548
 20
-151.5945366374486
 30
0.0
 10
117.4694878178548
 20
-151.5945366374486
 30
0.0
 10
117.4694878178548
 20
-151.5945366374486
 30
0.0
 10
118.1760769018796
 20
-151.5945366374486
 30
0.0
 10
118.1760769018796
 20
-151.5945366374486
 30
0.0
 10
118.1760769018796
 20
-151.5945366374486
 30
0.0
 10
118.1760769018796
 20
-151.4801594673383
 30
0.0
 10
118.1760769018796
 20
-151.4801594673383
 30
0.0
  0
SPLINE
  5
193
330
18A
100
AcDbEntity
  8
レイヤー 1
100
AcDbSpline
210
0.0
220
0.0
230
1.0
 70
    11
 71
     3
 72
    17
 73
    13
 74
     0
 42
0.0000000001
 43
0.0000000001
 40
0.0
 40
0.0
 40
0.0
 40
0.0
 40
1.0
 40
1.0
 40
1.0
 40
2.0
 40
2.0
 40
2.0
 40
3.0
 40
3.0
 40
3.0
 40
4.0
 40
4.0
 40
4.0
 40
4.0
 10
118.1760769018796
 20
-151.2369357260796
 30
0.0
 10
118.1760769018796
 20
-151.2369357260796
 30
0.0
 10
117.4694878178548
 20
-151.2369357260796
 30
0.0
 10
117.4694878178548
 20
-151.2369357260796
 30
0.0
 10
117.4694878178548
 20
-151.2369357260796
 30
0.0
 10
117.4694878178548
 20
-151.3513128961899
 30
0.0
 10
117.4694878178548
 20
-151.3513128961899
 30
0.0
 10
117.4694878178548
 20
-151.3513128961899
 30
0.0
 10
118.1760769018796
 20
-151.3513128961899
 30
0.0
 10
118.1760769018796
 20
-151.3513128961899
 30
0.0
 10
118.1760769018796
 20
-151.3513128961899
 30
0.0
 10
118.1760769018796
 20
-151.2369357260796
 30
0.0
 10
118.1760769018796
 20
-151.2369357260796
 30
0.0
  0
SPLINE
  5
194
330
18A
100
AcDbEntity
  8
レイヤー 1
100
AcDbSpline
210
0.0
220
0.0
230
1.0
 70
    11
 71
     3
 72
    17
 73
    13
 74
     0
 42
0.0000000001
 43
0.0000000001
 40
0.0
 40
0.0
 40
0.0
 40
0.0
 40
1.0
 40
1.0
 40
1.0
 40
2.0
 40
2.0
 40
2.0
 40
3.0
 40
3.0
 40
3.0
 40
4.0
 40
4.0
 40
4.0
 40
4.0
 10
118.1760769018796
 20
-151.0043917808253
 30
0.0
 10
118.1760769018796
 20
-151.0043917808253
 30
0.0
 10
117.4694878178548
 20
-151.0043917808253
 30
0.0
 10
117.4694878178548
 20
-151.0043917808253
 30
0.0
 10
117.4694878178548
 20
-151.0043917808253
 30
0.0
 10
117.4694878178548
 20
-151.1122232695136
 30
0.0
 10
117.4694878178548
 20
-151.1122232695136
 30
0.0
 10
117.4694878178548
 20
-151.1122232695136
 30
0.0
 10
118.1760769018796
 20
-151.1122232695136
 30
0.0
 10
118.1760769018796
 20
-151.1122232695136
 30
0.0
 10
118.1760769018796
 20
-151.1122232695136
 30
0.0
 10
118.1760769018796
 20
-151.0043917808253
 30
0.0
 10
118.1760769018796
 20
-151.0043917808253
 30
0.0
  0
SPLINE
  5
195
330
18A
100
AcDbEntity
  8
レイヤー 1
100
AcDbSpline
210
0.0
220
0.0
230
1.0
 70
     9
 71
     3
 72
   203
 73
   199
 74
     0
 42
0.0000000001
 43
0.0000000001
 40
0.0
 40
0.0
 40
0.0
 40
0.0
 40
1.0
 40
1.0
 40
1.0
 40
2.0
 40
2.0
 40
2.0
 40
3.0
 40
3.0
 40
3.0
 40
4.0
 40
4.0
 40
4.0
 40
5.0
 40
5.0
 40
5.0
 40
6.0
 40
6.0
 40
6.0
 40
7.0
 40
7.0
 40
7.0
 40
8.0
 40
8.0
 40
8.0
 40
9.0
 40
9.0
 40
9.0
 40
10.0
 40
10.0
 40
10.0
 40
11.0
 40
11.0
 40
11.0
 40
12.0
 40
12.0
 40
12.0
 40
13.0
 40
13.0
 40
13.0
 40
14.0
 40
14.0
 40
14.0
 40
15.0
 40
15.0
 40
15.0
 40
16.0
 40
16.0
 40
16.0
 40
17.0
 40
17.0
 40
17.0
 40
18.0
 40
18.0
 40
18.0
 40
19.0
 40
19.0
 40
19.0
 40
20.0
 40
20.0
 40
20.0
 40
21.0
 40
21.0
 40
21.0
 40
22.0
 40
22.0
 40
22.0
 40
23.0
 40
23.0
 40
23.0
 40
24.0
 40
24.0
 40
24.0
 40
25.0
 40
25.0
 40
25.0
 40
26.0
 40
26.0
 40
26.0
 40
27.0
 40
27.0
 40
27.0
 40
28.0
 40
28.0
 40
28.0
 40
29.0
 40
29.0
 40
29.0
 40
30.0
 40
30.0
 40
30.0
 40
31.0
 40
31.0
 40
31.0
 40
32.0
 40
32.0
 40
32.0
 40
33.0
 40
33.0
 40
33.0
 40
34.0
 40
34.0
 40
34.0
 40
35.0
 40
35.0
 40
35.0
 40
36.0
 40
36.0
 40
36.0
 40
37.0
 40
37.0
 40
37.0
 40
38.0
 40
38.0
 40
38.0
 40
39.0
 40
39.0
 40
39.0
 40
40.0
 40
40.0
 40
40.0
 40
41.0
 40
41.0
 40
41.0
 40
42.0
 40
42.0
 40
42.0
 40
43.0
 40
43.0
 40
43.0
 40
44.0
 40
44.0
 40
44.0
 40
45.0
 40
45.0
 40
45.0
 40
46.0
 40
46.0
 40
46.0
 40
47.0
 40
47.0
 40
47.0
 40
48.0
 40
48.0
 40
48.0
 40
49.0
 40
49.0
 40
49.0
 40
50.0
 40
50.0
 40
50.0
 40
51.0
 40
51.0
 40
51.0
 40
52.0
 40
52.0
 40
52.0
 40
53.0
 40
53.0
 40
53.0
 40
54.0
 40
54.0
 40
54.0
 40
55.0
 40
55.0
 40
55.0
 40
56.0
 40
56.0
 40
56.0
 40
57.0
 40
57.0
 40
57.0
 40
58.0
 40
58.0
 40
58.0
 40
59.0
 40
59.0
 40
59.0
 40
60.0
 40
60.0
 40
60.0
 40
61.0
 40
61.0
 40
61.0
 40
62.0
 40
62.0
 40
62.0
 40
63.0
 40
63.0
 40
63.0
 40
64.0
 40
64.0
 40
64.0
 40
65.0
 40
65.0
 40
65.0
 40
66.0
 40
66.0
 40
66.0
 40
66.0
 10
118.0110568281361
 20
-150.7484211862712
 30
0.0
 10
118.0110568281361
 20
-150.7484211862712
 30
0.0
 10
117.4526068499771
 20
-150.7484211862712
 30
0.0
 10
117.4526068499771
 20
-150.7484211862712
 30
0.0
 10
117.4422715635214
 20
-150.7928629180309
 30
0.0
 10
117.4336588248082
 20
-150.8245577964953
 30
0.0
 10
117.4209119715128
 20
-150.862453846833
 30
0.0
 10
117.4464056781037
 20
-150.862453846833
 30
0.0
 10
117.4612195886902
 20
-150.8648654136726
 30
0.0
 10
117.4674207605637
 20
-150.8648654136726
 30
0.0
 10
117.4674207605637
 20
-150.8648654136726
 30
0.0
 10
117.6558674836069
 20
-150.8648654136726
 30
0.0
 10
117.6558674836069
 20
-150.8648654136726
 30
0.0
 10
117.6558674836069
 20
-150.8648654136726
 30
0.0
 10
118.0303493628535
 20
-150.8648654136726
 30
0.0
 10
118.0303493628535
 20
-150.8648654136726
 30
0.0
 10
118.0809922664867
 20
-150.8648654136726
 30
0.0
 10
118.3645236249228
 20
-150.8521185603772
 30
0.0
 10
118.396218503387
 20
-150.8521185603772
 30
0.0
 10
118.3941514460959
 20
-150.8793348147107
 30
0.0
 10
118.3920843888047
 20
-150.8986273494281
 30
0.0
 10
118.3920843888047
 20
-150.9282551706013
 30
0.0
 10
118.3900173315136
 20
-150.9599500490656
 30
0.0
 10
118.3900173315136
 20
-151.0953423016359
 30
0.0
 10
118.3900173315136
 20
-151.1229030655179
 30
0.0
 10
118.3900173315136
 20
-151.1229030655179
 30
0.0
 10
118.3900173315136
 20
-151.3681938640677
 30
0.0
 10
118.3900173315136
 20
-151.3681938640677
 30
0.0
 10
118.3900173315136
 20
-151.4126355958274
 30
0.0
 10
118.3941514460959
 20
-151.6093505480351
 30
0.0
 10
118.3982855606782
 20
-151.7616237684832
 30
0.0
 10
118.3982855606782
 20
-151.7616237684832
 30
0.0
 10
118.1719427872973
 20
-151.7616237684832
 30
0.0
 10
118.1719427872973
 20
-151.7616237684832
 30
0.0
 10
118.1719427872973
 20
-151.7616237684832
 30
0.0
 10
118.1740098445884
 20
-151.7278618327277
 30
0.0
 10
118.1740098445884
 20
-151.7278618327277
 30
0.0
 10
118.1740098445884
 20
-151.7278618327277
 30
0.0
 10
117.4718993846945
 20
-151.7278618327277
 30
0.0
 10
117.4718993846945
 20
-151.7278618327277
 30
0.0
 10
117.4718993846945
 20
-151.7278618327277
 30
0.0
 10
117.4739664419857
 20
-151.7616237684832
 30
0.0
 10
117.4739664419857
 20
-151.7616237684832
 30
0.0
 10
117.4739664419857
 20
-151.7616237684832
 30
0.0
 10
117.2558918977693
 20
-151.7616237684832
 30
0.0
 10
117.2558918977693
 20
-151.7616237684832
 30
0.0
 10
117.2600260123516
 20
-151.7065022407192
 30
0.0
 10
117.2600260123516
 20
-151.6940998969723
 30
0.0
 10
117.2665716937736
 20
-151.579722726862
 30
0.0
 10
117.2686387510648
 20
-151.55216196298
 30
0.0
 10
117.2707058083559
 20
-151.4188367677008
 30
0.0
 10
117.2707058083559
 20
-151.399888742532
 30
0.0
 10
117.2707058083559
 20
-151.399888742532
 30
0.0
 10
117.2707058083559
 20
-151.1969726184507
 30
0.0
 10
117.2707058083559
 20
-151.1969726184507
 30
0.0
 10
117.1311794412033
 20
-151.4463975315828
 30
0.0
 10
116.9620252528775
 20
-151.5776556695709
 30
0.0
 10
116.8562608214804
 20
-151.6431124837906
 30
0.0
 10
116.8562608214804
 20
-151.6431124837906
 30
0.0
 10
116.6826280090238
 20
-151.503586116638
 30
0.0
 10
116.6826280090238
 20
-151.503586116638
 30
0.0
 10
116.7715114725432
 20
-151.4529432130048
 30
0.0
 10
116.9155164638266
 20
-151.3661268067765
 30
0.0
 10
117.0529757736881
 20
-151.1714789118599
 30
0.0
 10
117.1439262944987
 20
-151.0443548884542
 30
0.0
 10
117.2093831087185
 20
-150.9006944067193
 30
0.0
 10
117.2431450444739
 20
-150.7484211862712
 30
0.0
 10
117.0147352138019
 20
-150.7504882435624
 30
0.0
 10
116.8349012294718
 20
-150.7566894154358
 30
0.0
 10
116.7398165940789
 20
-150.758756472727
 30
0.0
 10
116.7398165940789
 20
-150.758756472727
 30
0.0
 10
116.7398165940789
 20
-150.5813340552366
 30
0.0
 10
116.7398165940789
 20
-150.5813340552366
 30
0.0
 10
116.9365315462867
 20
-150.58753522711
 30
0.0
 10
117.2200629047227
 20
-150.5916693416924
 30
0.0
 10
117.3702690678796
 20
-150.5916693416924
 30
0.0
 10
117.3702690678796
 20
-150.5916693416924
 30
0.0
 10
117.5838649879651
 20
-150.5916693416924
 30
0.0
 10
117.5838649879651
 20
-150.5916693416924
 30
0.0
 10
117.5838649879651
 20
-150.5916693416924
 30
0.0
 10
117.5838649879651
 20
-150.483837853004
 30
0.0
 10
117.5838649879651
 20
-150.483837853004
 30
0.0
 10
117.5838649879651
 20
-150.483837853004
 30
0.0
 10
117.4377929393905
 20
-150.483837853004
 30
0.0
 10
117.4377929393905
 20
-150.483837853004
 30
0.0
 10
117.2686387510648
 20
-150.483837853004
 30
0.0
 10
117.099484562739
 20
-150.4879719675863
 30
0.0
 10
116.9323974317044
 20
-150.4945176490083
 30
0.0
 10
116.9323974317044
 20
-150.4945176490083
 30
0.0
 10
116.9323974317044
 20
-150.3232964033914
 30
0.0
 10
116.9323974317044
 20
-150.3232964033914
 30
0.0
 10
117.0867377094436
 20
-150.3336316898471
 30
0.0
 10
117.2727728656471
 20
-150.3336316898471
 30
0.0
 10
117.4377929393905
 20
-150.3336316898471
 30
0.0
 10
117.4377929393905
 20
-150.3336316898471
 30
0.0
 10
117.5838649879651
 20
-150.3336316898471
 30
0.0
 10
117.5838649879651
 20
-150.3336316898471
 30
0.0
 10
117.5838649879651
 20
-150.3336316898471
 30
0.0
 10
117.5838649879651
 20
-150.2151204051545
 30
0.0
 10
117.5838649879651
 20
-150.2151204051545
 30
0.0
 10
117.5838649879651
 20
-150.2151204051545
 30
0.0
 10
117.4526068499771
 20
-150.2151204051545
 30
0.0
 10
117.4526068499771
 20
-150.2151204051545
 30
0.0
 10
117.4060980609262
 20
-150.2151204051545
 30
0.0
 10
117.203181936845
 20
-150.2237331438677
 30
0.0
 10
117.1608072623764
 20
-150.2237331438677
 30
0.0
 10
116.9575466287467
 20
-150.22786725845
 30
0.0
 10
116.8814100185227
 20
-150.2299343157411
 30
0.0
 10
116.8032063510075
 20
-150.2320013730323
 30
0.0
 10
116.8032063510075
 20
-150.2320013730323
 30
0.0
 10
116.8032063510075
 20
-150.0480332741199
 30
0.0
 10
116.8032063510075
 20
-150.0480332741199
 30
0.0
 10
116.9175835211178
 20
-150.056646012833
 30
0.0
 10
116.9620252528775
 20
-150.056646012833
 30
0.0
 10
117.3447753612888
 20
-150.0649142419976
 30
0.0
 10
117.2813856043602
 20
-149.9698296066048
 30
0.0
 10
117.2538248404782
 20
-149.9422688427227
 30
0.0
 10
117.2179958474316
 20
-149.9064398496761
 30
0.0
 10
117.2179958474316
 20
-149.9064398496761
 30
0.0
 10
117.3933512076308
 20
-149.8237575580301
 30
0.0
 10
117.3933512076308
 20
-149.8237575580301
 30
0.0
 10
117.4336588248082
 20
-149.8599310606253
 30
0.0
 10
117.4781005565679
 20
-149.9023057350939
 30
0.0
 10
117.5521701095008
 20
-150.0122042810733
 30
0.0
 10
117.5521701095008
 20
-150.0122042810733
 30
0.0
 10
117.4377929393905
 20
-150.0669812992888
 30
0.0
 10
117.4377929393905
 20
-150.0669812992888
 30
0.0
 10
117.4377929393905
 20
-150.0669812992888
 30
0.0
 10
117.4484727353948
 20
-150.0669812992888
 30
0.0
 10
117.4484727353948
 20
-150.0669812992888
 30
0.0
 10
117.4484727353948
 20
-150.0669812992888
 30
0.0
 10
117.9710937205072
 20
-150.0669812992888
 30
0.0
 10
117.9710937205072
 20
-150.0669812992888
 30
0.0
 10
117.9710937205072
 20
-150.0669812992888
 30
0.0
 10
117.8756645755658
 20
-150.0228840770776
 30
0.0
 10
117.8756645755658
 20
-150.0228840770776
 30
0.0
 10
117.9032253394478
 20
-149.9846435171913
 30
0.0
 10
117.9604139245029
 20
-149.904372792385
 30
0.0
 10
117.9752278350895
 20
-149.8303032394521
 30
0.0
 10
117.9752278350895
 20
-149.8303032394521
 30
0.0
 10
118.188823755175
 20
-149.8936929963807
 30
0.0
 10
118.188823755175
 20
-149.8936929963807
 30
0.0
 10
118.1974364938881
 20
-149.8957600536719
 30
0.0
 10
118.2184515763482
 20
-149.9064398496761
 30
0.0
 10
118.2184515763482
 20
-149.9274549321362
 30
0.0
 10
118.2184515763482
 20
-149.9656954920224
 30
0.0
 10
118.1529947621284
 20
-149.9656954920224
 30
0.0
 10
118.1340467369595
 20
-149.9656954920224
 30
0.0
 10
118.1233669409553
 20
-149.9846435171913
 30
0.0
 10
118.0999402916556
 20
-150.0249511343687
 30
0.0
 10
118.0703124704824
 20
-150.0649142419976
 30
0.0
 10
118.4702880563199
 20
-150.0587130701242
 30
0.0
 10
118.4999158774931
 20
-150.056646012833
 30
0.0
 10
118.5760524877171
 20
-150.0501003314111
 30
0.0
 10
118.5760524877171
 20
-150.0501003314111
 30
0.0
 10
118.5760524877171
 20
-150.2320013730323
 30
0.0
 10
118.5760524877171
 20
-150.2320013730323
 30
0.0
 10
118.5571044625482
 20
-150.2320013730323
 30
0.0
 10
118.5316107559573
 20
-150.2299343157411
 30
0.0
 10
118.3114691544499
 20
-150.2216660865765
 30
0.0
 10
118.2608262508167
 20
-150.2195990292854
 30
0.0
 10
118.0406846493093
 20
-150.2151204051545
 30
0.0
 10
117.9962429175495
 20
-150.2151204051545
 30
0.0
 10
117.9962429175495
 20
-150.2151204051545
 30
0.0
 10
117.7805799401729
 20
-150.2151204051545
 30
0.0
 10
117.7805799401729
 20
-150.2151204051545
 30
0.0
 10
117.7805799401729
 20
-150.2151204051545
 30
0.0
 10
117.7805799401729
 20
-150.3336316898471
 30
0.0
 10
117.7805799401729
 20
-150.3336316898471
 30
0.0
 10
117.7805799401729
 20
-150.3336316898471
 30
0.0
 10
117.9542127526295
 20
-150.3336316898471
 30
0.0
 10
117.9542127526295
 20
-150.3336316898471
 30
0.0
 10
118.1168212595333
 20
-150.3336316898471
 30
0.0
 10
118.3073350398676
 20
-150.3336316898471
 30
0.0
 10
118.4640868844465
 20
-150.3232964033914
 30
0.0
 10
118.4640868844465
 20
-150.3232964033914
 30
0.0
 10
118.4640868844465
 20
-150.4945176490083
 30
0.0
 10
118.4640868844465
 20
-150.4945176490083
 30
0.0
 10
118.2546250789433
 20
-150.4859049102952
 30
0.0
 10
118.0579101267355
 20
-150.483837853004
 30
0.0
 10
117.9542127526295
 20
-150.483837853004
 30
0.0
 10
117.9542127526295
 20
-150.483837853004
 30
0.0
 10
117.7805799401729
 20
-150.483837853004
 30
0.0
 10
117.7805799401729
 20
-150.483837853004
 30
0.0
 10
117.7805799401729
 20
-150.483837853004
 30
0.0
 10
117.7805799401729
 20
-150.5916693416924
 30
0.0
 10
117.7805799401729
 20
-150.5916693416924
 30
0.0
 10
117.7805799401729
 20
-150.5916693416924
 30
0.0
 10
118.0110568281361
 20
-150.5916693416924
 30
0.0
 10
118.0110568281361
 20
-150.5916693416924
 30
0.0
 10
118.1443820234153
 20
-150.5916693416924
 30
0.0
 10
118.4320474964336
 20
-150.58753522711
 30
0.0
 10
118.6415093019368
 20
-150.5813340552366
 30
0.0
 10
118.6415093019368
 20
-150.5813340552366
 30
0.0
 10
118.6415093019368
 20
-150.758756472727
 30
0.0
 10
118.6415093019368
 20
-150.758756472727
 30
0.0
 10
118.4492729738599
 20
-150.7525553008535
 30
0.0
 10
118.1361137942507
 20
-150.7484211862712
 30
0.0
 10
118.0110568281361
 20
-150.7484211862712
 30
0.0
  0
HATCH
  5
196
330
18A
100
AcDbEntity
  8
レイヤー 1
 62
    18
420
        0
440
 33554687
100
AcDbHatch
 10
0.0
 20
0.0
 30
0.0
210
0.0
220
0.0
230
1.0
  2
SOLID
 70
     1
 71
     1
 91
        4
 92
        1
 93
        1
 72
     4
 94
        3
 73
     0
 74
     0
 95
       17
 96
       13
 40
0.0
 40
0.0
 40
0.0
 40
0.0
 40
1.0
 40
1.0
 40
1.0
 40
2.0
 40
2.0
 40
2.0
 40
3.0
 40
3.0
 40
3.0
 40
4.0
 40
4.0
 40
4.0
 40
4.0
 10
118.1760769018796
 20
-151.4801594673383
 10
118.1760769018796
 20
-151.4801594673383
 10
117.4694878178548
 20
-151.4801594673383
 10
117.4694878178548
 20
-151.4801594673383
 10
117.4694878178548
 20
-151.4801594673383
 10
117.4694878178548
 20
-151.5945366374486
 10
117.4694878178548
 20
-151.5945366374486
 10
117.4694878178548
 20
-151.5945366374486
 10
118.1760769018796
 20
-151.5945366374486
 10
118.1760769018796
 20
-151.5945366374486
 10
118.1760769018796
 20
-151.5945366374486
 10
118.1760769018796
 20
-151.4801594673383
 10
118.1760769018796
 20
-151.4801594673383
 97
        0
 97
        1
330
192
 92
        1
 93
        1
 72
     4
 94
        3
 73
     0
 74
     0
 95
       17
 96
       13
 40
0.0
 40
0.0
 40
0.0
 40
0.0
 40
1.0
 40
1.0
 40
1.0
 40
2.0
 40
2.0
 40
2.0
 40
3.0
 40
3.0
 40
3.0
 40
4.0
 40
4.0
 40
4.0
 40
4.0
 10
118.1760769018796
 20
-151.2369357260796
 10
118.1760769018796
 20
-151.2369357260796
 10
117.4694878178548
 20
-151.2369357260796
 10
117.4694878178548
 20
-151.2369357260796
 10
117.4694878178548
 20
-151.2369357260796
 10
117.4694878178548
 20
-151.3513128961899
 10
117.4694878178548
 20
-151.3513128961899
 10
117.4694878178548
 20
-151.3513128961899
 10
118.1760769018796
 20
-151.3513128961899
 10
118.1760769018796
 20
-151.3513128961899
 10
118.1760769018796
 20
-151.3513128961899
 10
118.1760769018796
 20
-151.2369357260796
 10
118.1760769018796
 20
-151.2369357260796
 97
        0
 97
        1
330
193
 92
        1
 93
        1
 72
     4
 94
        3
 73
     0
 74
     0
 95
       17
 96
       13
 40
0.0
 40
0.0
 40
0.0
 40
0.0
 40
1.0
 40
1.0
 40
1.0
 40
2.0
 40
2.0
 40
2.0
 40
3.0
 40
3.0
 40
3.0
 40
4.0
 40
4.0
 40
4.0
 40
4.0
 10
118.1760769018796
 20
-151.0043917808253
 10
118.1760769018796
 20
-151.0043917808253
 10
117.4694878178548
 20
-151.0043917808253
 10
117.4694878178548
 20
-151.0043917808253
 10
117.4694878178548
 20
-151.0043917808253
 10
117.4694878178548
 20
-151.1122232695136
 10
117.4694878178548
 20
-151.1122232695136
 10
117.4694878178548
 20
-151.1122232695136
 10
118.1760769018796
 20
-151.1122232695136
 10
118.1760769018796
 20
-151.1122232695136
 10
118.1760769018796
 20
-151.1122232695136
 10
118.1760769018796
 20
-151.0043917808253
 10
118.1760769018796
 20
-151.0043917808253
 97
        0
 97
        1
330
194
 92
        1
 93
        1
 72
     4
 94
        3
 73
     0
 74
     0
 95
      203
 96
      199
 40
0.0
 40
0.0
 40
0.0
 40
0.0
 40
1.0
 40
1.0
 40
1.0
 40
2.0
 40
2.0
 40
2.0
 40
3.0
 40
3.0
 40
3.0
 40
4.0
 40
4.0
 40
4.0
 40
5.0
 40
5.0
 40
5.0
 40
6.0
 40
6.0
 40
6.0
 40
7.0
 40
7.0
 40
7.0
 40
8.0
 40
8.0
 40
8.0
 40
9.0
 40
9.0
 40
9.0
 40
10.0
 40
10.0
 40
10.0
 40
11.0
 40
11.0
 40
11.0
 40
12.0
 40
12.0
 40
12.0
 40
13.0
 40
13.0
 40
13.0
 40
14.0
 40
14.0
 40
14.0
 40
15.0
 40
15.0
 40
15.0
 40
16.0
 40
16.0
 40
16.0
 40
17.0
 40
17.0
 40
17.0
 40
18.0
 40
18.0
 40
18.0
 40
19.0
 40
19.0
 40
19.0
 40
20.0
 40
20.0
 40
20.0
 40
21.0
 40
21.0
 40
21.0
 40
22.0
 40
22.0
 40
22.0
 40
23.0
 40
23.0
 40
23.0
 40
24.0
 40
24.0
 40
24.0
 40
25.0
 40
25.0
 40
25.0
 40
26.0
 40
26.0
 40
26.0
 40
27.0
 40
27.0
 40
27.0
 40
28.0
 40
28.0
 40
28.0
 40
29.0
 40
29.0
 40
29.0
 40
30.0
 40
30.0
 40
30.0
 40
31.0
 40
31.0
 40
31.0
 40
32.0
 40
32.0
 40
32.0
 40
33.0
 40
33.0
 40
33.0
 40
34.0
 40
34.0
 40
34.0
 40
35.0
 40
35.0
 40
35.0
 40
36.0
 40
36.0
 40
36.0
 40
37.0
 40
37.0
 40
37.0
 40
38.0
 40
38.0
 40
38.0
 40
39.0
 40
39.0
 40
39.0
 40
40.0
 40
40.0
 40
40.0
 40
41.0
 40
41.0
 40
41.0
 40
42.0
 40
42.0
 40
42.0
 40
43.0
 40
43.0
 40
43.0
 40
44.0
 40
44.0
 40
44.0
 40
45.0
 40
45.0
 40
45.0
 40
46.0
 40
46.0
 40
46.0
 40
47.0
 40
47.0
 40
47.0
 40
48.0
 40
48.0
 40
48.0
 40
49.0
 40
49.0
 40
49.0
 40
50.0
 40
50.0
 40
50.0
 40
51.0
 40
51.0
 40
51.0
 40
52.0
 40
52.0
 40
52.0
 40
53.0
 40
53.0
 40
53.0
 40
54.0
 40
54.0
 40
54.0
 40
55.0
 40
55.0
 40
55.0
 40
56.0
 40
56.0
 40
56.0
 40
57.0
 40
57.0
 40
57.0
 40
58.0
 40
58.0
 40
58.0
 40
59.0
 40
59.0
 40
59.0
 40
60.0
 40
60.0
 40
60.0
 40
61.0
 40
61.0
 40
61.0
 40
62.0
 40
62.0
 40
62.0
 40
63.0
 40
63.0
 40
63.0
 40
64.0
 40
64.0
 40
64.0
 40
65.0
 40
65.0
 40
65.0
 40
66.0
 40
66.0
 40
66.0
 40
66.0
 10
118.0110568281361
 20
-150.7484211862712
 10
118.0110568281361
 20
-150.7484211862712
 10
117.4526068499771
 20
-150.7484211862712
 10
117.4526068499771
 20
-150.7484211862712
 10
117.4422715635214
 20
-150.7928629180309
 10
117.4336588248082
 20
-150.8245577964953
 10
117.4209119715128
 20
-150.862453846833
 10
117.4464056781037
 20
-150.862453846833
 10
117.4612195886902
 20
-150.8648654136726
 10
117.4674207605637
 20
-150.8648654136726
 10
117.4674207605637
 20
-150.8648654136726
 10
117.6558674836069
 20
-150.8648654136726
 10
117.6558674836069
 20
-150.8648654136726
 10
117.6558674836069
 20
-150.8648654136726
 10
118.0303493628535
 20
-150.8648654136726
 10
118.0303493628535
 20
-150.8648654136726
 10
118.0809922664867
 20
-150.8648654136726
 10
118.3645236249228
 20
-150.8521185603772
 10
118.396218503387
 20
-150.8521185603772
 10
118.3941514460959
 20
-150.8793348147107
 10
118.3920843888047
 20
-150.8986273494281
 10
118.3920843888047
 20
-150.9282551706013
 10
118.3900173315136
 20
-150.9599500490656
 10
118.3900173315136
 20
-151.0953423016359
 10
118.3900173315136
 20
-151.1229030655179
 10
118.3900173315136
 20
-151.1229030655179
 10
118.3900173315136
 20
-151.3681938640677
 10
118.3900173315136
 20
-151.3681938640677
 10
118.3900173315136
 20
-151.4126355958274
 10
118.3941514460959
 20
-151.6093505480351
 10
118.3982855606782
 20
-151.7616237684832
 10
118.3982855606782
 20
-151.7616237684832
 10
118.1719427872973
 20
-151.7616237684832
 10
118.1719427872973
 20
-151.7616237684832
 10
118.1719427872973
 20
-151.7616237684832
 10
118.1740098445884
 20
-151.7278618327277
 10
118.1740098445884
 20
-151.7278618327277
 10
118.1740098445884
 20
-151.7278618327277
 10
117.4718993846945
 20
-151.7278618327277
 10
117.4718993846945
 20
-151.7278618327277
 10
117.4718993846945
 20
-151.7278618327277
 10
117.4739664419857
 20
-151.7616237684832
 10
117.4739664419857
 20
-151.7616237684832
 10
117.4739664419857
 20
-151.7616237684832
 10
117.2558918977693
 20
-151.7616237684832
 10
117.2558918977693
 20
-151.7616237684832
 10
117.2600260123516
 20
-151.7065022407192
 10
117.2600260123516
 20
-151.6940998969723
 10
117.2665716937736
 20
-151.579722726862
 10
117.2686387510648
 20
-151.55216196298
 10
117.2707058083559
 20
-151.4188367677008
 10
117.2707058083559
 20
-151.399888742532
 10
117.2707058083559
 20
-151.399888742532
 10
117.2707058083559
 20
-151.1969726184507
 10
117.2707058083559
 20
-151.1969726184507
 10
117.1311794412033
 20
-151.4463975315828
 10
116.9620252528775
 20
-151.5776556695709
 10
116.8562608214804
 20
-151.6431124837906
 10
116.8562608214804
 20
-151.6431124837906
 10
116.6826280090238
 20
-151.503586116638
 10
116.6826280090238
 20
-151.503586116638
 10
116.7715114725432
 20
-151.4529432130048
 10
116.9155164638266
 20
-151.3661268067765
 10
117.0529757736881
 20
-151.1714789118599
 10
117.1439262944987
 20
-151.0443548884542
 10
117.2093831087185
 20
-150.9006944067193
 10
117.2431450444739
 20
-150.7484211862712
 10
117.0147352138019
 20
-150.7504882435624
 10
116.8349012294718
 20
-150.7566894154358
 10
116.7398165940789
 20
-150.758756472727
 10
116.7398165940789
 20
-150.758756472727
 10
116.7398165940789
 20
-150.5813340552366
 10
116.7398165940789
 20
-150.5813340552366
 10
116.9365315462867
 20
-150.58753522711
 10
117.2200629047227
 20
-150.5916693416924
 10
117.3702690678796
 20
-150.5916693416924
 10
117.3702690678796
 20
-150.5916693416924
 10
117.5838649879651
 20
-150.5916693416924
 10
117.5838649879651
 20
-150.5916693416924
 10
117.5838649879651
 20
-150.5916693416924
 10
117.5838649879651
 20
-150.483837853004
 10
117.5838649879651
 20
-150.483837853004
 10
117.5838649879651
 20
-150.483837853004
 10
117.4377929393905
 20
-150.483837853004
 10
117.4377929393905
 20
-150.483837853004
 10
117.2686387510648
 20
-150.483837853004
 10
117.099484562739
 20
-150.4879719675863
 10
116.9323974317044
 20
-150.4945176490083
 10
116.9323974317044
 20
-150.4945176490083
 10
116.9323974317044
 20
-150.3232964033914
 10
116.9323974317044
 20
-150.3232964033914
 10
117.0867377094436
 20
-150.3336316898471
 10
117.2727728656471
 20
-150.3336316898471
 10
117.4377929393905
 20
-150.3336316898471
 10
117.4377929393905
 20
-150.3336316898471
 10
117.5838649879651
 20
-150.3336316898471
 10
117.5838649879651
 20
-150.3336316898471
 10
117.5838649879651
 20
-150.3336316898471
 10
117.5838649879651
 20
-150.2151204051545
 10
117.5838649879651
 20
-150.2151204051545
 10
117.5838649879651
 20
-150.2151204051545
 10
117.4526068499771
 20
-150.2151204051545
 10
117.4526068499771
 20
-150.2151204051545
 10
117.4060980609262
 20
-150.2151204051545
 10
117.203181936845
 20
-150.2237331438677
 10
117.1608072623764
 20
-150.2237331438677
 10
116.9575466287467
 20
-150.22786725845
 10
116.8814100185227
 20
-150.2299343157411
 10
116.8032063510075
 20
-150.2320013730323
 10
116.8032063510075
 20
-150.2320013730323
 10
116.8032063510075
 20
-150.0480332741199
 10
116.8032063510075
 20
-150.0480332741199
 10
116.9175835211178
 20
-150.056646012833
 10
116.9620252528775
 20
-150.056646012833
 10
117.3447753612888
 20
-150.0649142419976
 10
117.2813856043602
 20
-149.9698296066048
 10
117.2538248404782
 20
-149.9422688427227
 10
117.2179958474316
 20
-149.9064398496761
 10
117.2179958474316
 20
-149.9064398496761
 10
117.3933512076308
 20
-149.8237575580301
 10
117.3933512076308
 20
-149.8237575580301
 10
117.4336588248082
 20
-149.8599310606253
 10
117.4781005565679
 20
-149.9023057350939
 10
117.5521701095008
 20
-150.0122042810733
 10
117.5521701095008
 20
-150.0122042810733
 10
117.4377929393905
 20
-150.0669812992888
 10
117.4377929393905
 20
-150.0669812992888
 10
117.4377929393905
 20
-150.0669812992888
 10
117.4484727353948
 20
-150.0669812992888
 10
117.4484727353948
 20
-150.0669812992888
 10
117.4484727353948
 20
-150.0669812992888
 10
117.9710937205072
 20
-150.0669812992888
 10
117.9710937205072
 20
-150.0669812992888
 10
117.9710937205072
 20
-150.0669812992888
 10
117.8756645755658
 20
-150.0228840770776
 10
117.8756645755658
 20
-150.0228840770776
 10
117.9032253394478
 20
-149.9846435171913
 10
117.9604139245029
 20
-149.904372792385
 10
117.9752278350895
 20
-149.8303032394521
 10
117.9752278350895
 20
-149.8303032394521
 10
118.188823755175
 20
-149.8936929963807
 10
118.188823755175
 20
-149.8936929963807
 10
118.1974364938881
 20
-149.8957600536719
 10
118.2184515763482
 20
-149.9064398496761
 10
118.2184515763482
 20
-149.9274549321362
 10
118.2184515763482
 20
-149.9656954920224
 10
118.1529947621284
 20
-149.9656954920224
 10
118.1340467369595
 20
-149.9656954920224
 10
118.1233669409553
 20
-149.9846435171913
 10
118.0999402916556
 20
-150.0249511343687
 10
118.0703124704824
 20
-150.0649142419976
 10
118.4702880563199
 20
-150.0587130701242
 10
118.4999158774931
 20
-150.056646012833
 10
118.5760524877171
 20
-150.0501003314111
 10
118.5760524877171
 20
-150.0501003314111
 10
118.5760524877171
 20
-150.2320013730323
 10
118.5760524877171
 20
-150.2320013730323
 10
118.5571044625482
 20
-150.2320013730323
 10
118.5316107559573
 20
-150.2299343157411
 10
118.3114691544499
 20
-150.2216660865765
 10
118.2608262508167
 20
-150.2195990292854
 10
118.0406846493093
 20
-150.2151204051545
 10
117.9962429175495
 20
-150.2151204051545
 10
117.9962429175495
 20
-150.2151204051545
 10
117.7805799401729
 20
-150.2151204051545
 10
117.7805799401729
 20
-150.2151204051545
 10
117.7805799401729
 20
-150.2151204051545
 10
117.7805799401729
 20
-150.3336316898471
 10
117.7805799401729
 20
-150.3336316898471
 10
117.7805799401729
 20
-150.3336316898471
 10
117.9542127526295
 20
-150.3336316898471
 10
117.9542127526295
 20
-150.3336316898471
 10
118.1168212595333
 20
-150.3336316898471
 10
118.3073350398676
 20
-150.3336316898471
 10
118.4640868844465
 20
-150.3232964033914
 10
118.4640868844465
 20
-150.3232964033914
 10
118.4640868844465
 20
-150.4945176490083
 10
118.4640868844465
 20
-150.4945176490083
 10
118.2546250789433
 20
-150.4859049102952
 10
118.0579101267355
 20
-150.483837853004
 10
117.9542127526295
 20
-150.483837853004
 10
117.9542127526295
 20
-150.483837853004
 10
117.7805799401729
 20
-150.483837853004
 10
117.7805799401729
 20
-150.483837853004
 10
117.7805799401729
 20
-150.483837853004
 10
117.7805799401729
 20
-150.5916693416924
 10
117.7805799401729
 20
-150.5916693416924
 10
117.7805799401729
 20
-150.5916693416924
 10
118.0110568281361
 20
-150.5916693416924
 10
118.0110568281361
 20
-150.5916693416924
 10
118.1443820234153
 20
-150.5916693416924
 10
118.4320474964336
 20
-150.58753522711
 10
118.6415093019368
 20
-150.5813340552366
 10
118.6415093019368
 20
-150.5813340552366
 10
118.6415093019368
 20
-150.758756472727
 10
118.6415093019368
 20
-150.758756472727
 10
118.4492729738599
 20
-150.7525553008535
 10
118.1361137942507
 20
-150.7484211862712
 10
118.0110568281361
 20
-150.7484211862712
 97
        0
 97
        1
330
195
 75
     2
 76
     1
 98
        1
 10
0.0
 20
0.0
450
        0
451
        0
460
0.0
461
0.0
452
        0
462
0.0
453
        0
470

  0
SPLINE
  5
197
330
18A
100
AcDbEntity
  8
レイヤー 1
100
AcDbSpline
210
0.0
220
0.0
230
1.0
 70
     9
 71
     3
 72
    29
 73
    25
 74
     0
 42
0.0000000001
 43
0.0000000001
 40
0.0
 40
0.0
 40
0.0
 40
0.0
 40
1.0
 40
1.0
 40
1.0
 40
2.0
 40
2.0
 40
2.0
 40
3.0
 40
3.0
 40
3.0
 40
4.0
 40
4.0
 40
4.0
 40
5.0
 40
5.0
 40
5.0
 40
6.0
 40
6.0
 40
6.0
 40
7.0
 40
7.0
 40
7.0
 40
8.0
 40
8.0
 40
8.0
 40
8.0
 10
119.8865668103061
 20
-150.1961723799857
 30
0.0
 10
119.8865668103061
 20
-150.1961723799857
 30
0.0
 10
119.533444523068
 20
-150.1961723799857
 30
0.0
 10
119.533444523068
 20
-150.1961723799857
 30
0.0
 10
119.4211344102489
 20
-150.1961723799857
 30
0.0
 10
119.2816080430962
 20
-150.2027180614076
 30
0.0
 10
119.1737765544079
 20
-150.2151204051545
 30
0.0
 10
119.1737765544079
 20
-150.2151204051545
 30
0.0
 10
119.1737765544079
 20
-149.980509402609
 30
0.0
 10
119.1737765544079
 20
-149.980509402609
 30
0.0
 10
119.2922878391005
 20
-149.9953233131956
 30
0.0
 10
119.4762559380128
 20
-149.9994574277779
 30
0.0
 10
119.533444523068
 20
-149.9994574277779
 30
0.0
 10
119.533444523068
 20
-149.9994574277779
 30
0.0
 10
119.8865668103061
 20
-149.9994574277779
 30
0.0
 10
119.8865668103061
 20
-149.9994574277779
 30
0.0
 10
119.9058593450235
 20
-149.9994574277779
 30
0.0
 10
120.1087754691047
 20
-149.9994574277779
 30
0.0
 10
120.2503688935485
 20
-149.980509402609
 30
0.0
 10
120.2503688935485
 20
-149.980509402609
 30
0.0
 10
120.2503688935485
 20
-150.2151204051545
 30
0.0
 10
120.2503688935485
 20
-150.2151204051545
 30
0.0
 10
120.0939615585182
 20
-150.1961723799857
 30
0.0
 10
119.9034477781838
 20
-150.1961723799857
 30
0.0
 10
119.8865668103061
 20
-150.1961723799857
 30
0.0
  0
SPLINE
  5
198
330
18A
100
AcDbEntity
  8
レイヤー 1
100
AcDbSpline
210
0.0
220
0.0
230
1.0
 70
     9
 71
     3
 72
    47
 73
    43
 74
     0
 42
0.0000000001
 43
0.0000000001
 40
0.0
 40
0.0
 40
0.0
 40
0.0
 40
1.0
 40
1.0
 40
1.0
 40
2.0
 40
2.0
 40
2.0
 40
3.0
 40
3.0
 40
3.0
 40
4.0
 40
4.0
 40
4.0
 40
5.0
 40
5.0
 40
5.0
 40
6.0
 40
6.0
 40
6.0
 40
7.0
 40
7.0
 40
7.0
 40
8.0
 40
8.0
 40
8.0
 40
9.0
 40
9.0
 40
9.0
 40
10.0
 40
10.0
 40
10.0
 40
11.0
 40
11.0
 40
11.0
 40
12.0
 40
12.0
 40
12.0
 40
13.0
 40
13.0
 40
13.0
 40
14.0
 40
14.0
 40
14.0
 40
14.0
 10
119.988197127121
 20
-150.7249945369715
 30
0.0
 10
119.988197127121
 20
-150.7249945369715
 30
0.0
 10
119.8865668103061
 20
-150.7249945369715
 30
0.0
 10
119.8865668103061
 20
-150.7249945369715
 30
0.0
 10
119.8865668103061
 20
-150.8118109431998
 30
0.0
 10
119.8655517278461
 20
-151.2011067330331
 30
0.0
 10
119.6688367756383
 20
-151.420903824992
 30
0.0
 10
119.5165635551903
 20
-151.5904025228663
 30
0.0
 10
119.3091688069782
 20
-151.6599934516683
 30
0.0
 10
119.2244194580411
 20
-151.6875542155503
 30
0.0
 10
119.2244194580411
 20
-151.6875542155503
 30
0.0
 10
119.0297715631245
 20
-151.5204670845157
 30
0.0
 10
119.0297715631245
 20
-151.5204670845157
 30
0.0
 10
119.127267765357
 20
-151.5077202312203
 30
0.0
 10
119.3026231255563
 20
-151.4846380914691
 30
0.0
 10
119.4910698485994
 20
-151.2961913684259
 30
0.0
 10
119.5651394015323
 20
-151.2241888727842
 30
0.0
 10
119.6688367756383
 20
-151.0846625056316
 30
0.0
 10
119.6688367756383
 20
-150.7249945369715
 30
0.0
 10
119.6688367756383
 20
-150.7249945369715
 30
0.0
 10
119.4380153781266
 20
-150.7249945369715
 30
0.0
 10
119.4380153781266
 20
-150.7249945369715
 30
0.0
 10
119.2519802219231
 20
-150.7249945369715
 30
0.0
 10
119.0659450657196
 20
-150.7294731611023
 30
0.0
 10
118.8795653999676
 20
-150.7442870716889
 30
0.0
 10
118.8795653999676
 20
-150.7442870716889
 30
0.0
 10
118.8795653999676
 20
-150.5241454701815
 30
0.0
 10
118.8795653999676
 20
-150.5241454701815
 30
0.0
 10
119.0680121230107
 20
-150.538959380768
 30
0.0
 10
119.353610538738
 20
-150.5430934953503
 30
0.0
 10
119.4380153781266
 20
-150.5430934953503
 30
0.0
 10
119.4380153781266
 20
-150.5430934953503
 30
0.0
 10
119.988197127121
 20
-150.5430934953503
 30
0.0
 10
119.988197127121
 20
-150.5430934953503
 30
0.0
 10
120.0071451522898
 20
-150.5430934953503
 30
0.0
 10
120.3244384464814
 20
-150.5430934953503
 30
0.0
 10
120.553192786702
 20
-150.5241454701815
 30
0.0
 10
120.553192786702
 20
-150.5241454701815
 30
0.0
 10
120.553192786702
 20
-150.7442870716889
 30
0.0
 10
120.553192786702
 20
-150.7442870716889
 30
0.0
 10
120.3647460636588
 20
-150.7294731611023
 30
0.0
 10
120.1766438501641
 20
-150.7249945369715
 30
0.0
 10
119.988197127121
 20
-150.7249945369715
 30
0.0
  0
HATCH
  5
199
330
18A
100
AcDbEntity
  8
レイヤー 1
 62
    18
420
        0
440
 33554687
100
AcDbHatch
 10
0.0
 20
0.0
 30
0.0
210
0.0
220
0.0
230
1.0
  2
SOLID
 70
     1
 71
     1
 91
        2
 92
        1
 93
        1
 72
     4
 94
        3
 73
     0
 74
     0
 95
       29
 96
       25
 40
0.0
 40
0.0
 40
0.0
 40
0.0
 40
1.0
 40
1.0
 40
1.0
 40
2.0
 40
2.0
 40
2.0
 40
3.0
 40
3.0
 40
3.0
 40
4.0
 40
4.0
 40
4.0
 40
5.0
 40
5.0
 40
5.0
 40
6.0
 40
6.0
 40
6.0
 40
7.0
 40
7.0
 40
7.0
 40
8.0
 40
8.0
 40
8.0
 40
8.0
 10
119.8865668103061
 20
-150.1961723799857
 10
119.8865668103061
 20
-150.1961723799857
 10
119.533444523068
 20
-150.1961723799857
 10
119.533444523068
 20
-150.1961723799857
 10
119.4211344102489
 20
-150.1961723799857
 10
119.2816080430962
 20
-150.2027180614076
 10
119.1737765544079
 20
-150.2151204051545
 10
119.1737765544079
 20
-150.2151204051545
 10
119.1737765544079
 20
-149.980509402609
 10
119.1737765544079
 20
-149.980509402609
 10
119.2922878391005
 20
-149.9953233131956
 10
119.4762559380128
 20
-149.9994574277779
 10
119.533444523068
 20
-149.9994574277779
 10
119.533444523068
 20
-149.9994574277779
 10
119.8865668103061
 20
-149.9994574277779
 10
119.8865668103061
 20
-149.9994574277779
 10
119.9058593450235
 20
-149.9994574277779
 10
120.1087754691047
 20
-149.9994574277779
 10
120.2503688935485
 20
-149.980509402609
 10
120.2503688935485
 20
-149.980509402609
 10
120.2503688935485
 20
-150.2151204051545
 10
120.2503688935485
 20
-150.2151204051545
 10
120.0939615585182
 20
-150.1961723799857
 10
119.9034477781838
 20
-150.1961723799857
 10
119.8865668103061
 20
-150.1961723799857
 97
        0
 97
        1
330
197
 92
        1
 93
        1
 72
     4
 94
        3
 73
     0
 74
     0
 95
       47
 96
       43
 40
0.0
 40
0.0
 40
0.0
 40
0.0
 40
1.0
 40
1.0
 40
1.0
 40
2.0
 40
2.0
 40
2.0
 40
3.0
 40
3.0
 40
3.0
 40
4.0
 40
4.0
 40
4.0
 40
5.0
 40
5.0
 40
5.0
 40
6.0
 40
6.0
 40
6.0
 40
7.0
 40
7.0
 40
7.0
 40
8.0
 40
8.0
 40
8.0
 40
9.0
 40
9.0
 40
9.0
 40
10.0
 40
10.0
 40
10.0
 40
11.0
 40
11.0
 40
11.0
 40
12.0
 40
12.0
 40
12.0
 40
13.0
 40
13.0
 40
13.0
 40
14.0
 40
14.0
 40
14.0
 40
14.0
 10
119.988197127121
 20
-150.7249945369715
 10
119.988197127121
 20
-150.7249945369715
 10
119.8865668103061
 20
-150.7249945369715
 10
119.8865668103061
 20
-150.7249945369715
 10
119.8865668103061
 20
-150.8118109431998
 10
119.8655517278461
 20
-151.2011067330331
 10
119.6688367756383
 20
-151.420903824992
 10
119.5165635551903
 20
-151.5904025228663
 10
119.3091688069782
 20
-151.6599934516683
 10
119.2244194580411
 20
-151.6875542155503
 10
119.2244194580411
 20
-151.6875542155503
 10
119.0297715631245
 20
-151.5204670845157
 10
119.0297715631245
 20
-151.5204670845157
 10
119.127267765357
 20
-151.5077202312203
 10
119.3026231255563
 20
-151.4846380914691
 10
119.4910698485994
 20
-151.2961913684259
 10
119.5651394015323
 20
-151.2241888727842
 10
119.6688367756383
 20
-151.0846625056316
 10
119.6688367756383
 20
-150.7249945369715
 10
119.6688367756383
 20
-150.7249945369715
 10
119.4380153781266
 20
-150.7249945369715
 10
119.4380153781266
 20
-150.7249945369715
 10
119.2519802219231
 20
-150.7249945369715
 10
119.0659450657196
 20
-150.7294731611023
 10
118.8795653999676
 20
-150.7442870716889
 10
118.8795653999676
 20
-150.7442870716889
 10
118.8795653999676
 20
-150.5241454701815
 10
118.8795653999676
 20
-150.5241454701815
 10
119.0680121230107
 20
-150.538959380768
 10
119.353610538738
 20
-150.5430934953503
 10
119.4380153781266
 20
-150.5430934953503
 10
119.4380153781266
 20
-150.5430934953503
 10
119.988197127121
 20
-150.5430934953503
 10
119.988197127121
 20
-150.5430934953503
 10
120.0071451522898
 20
-150.5430934953503
 10
120.3244384464814
 20
-150.5430934953503
 10
120.553192786702
 20
-150.5241454701815
 10
120.553192786702
 20
-150.5241454701815
 10
120.553192786702
 20
-150.7442870716889
 10
120.553192786702
 20
-150.7442870716889
 10
120.3647460636588
 20
-150.7294731611023
 10
120.1766438501641
 20
-150.7249945369715
 10
119.988197127121
 20
-150.7249945369715
 97
        0
 97
        1
330
198
 75
     2
 76
     1
 98
        1
 10
0.0
 20
0.0
450
        0
451
        0
460
0.0
461
0.0
452
        0
462
0.0
453
        0
470

  0
SPLINE
  5
19A
330
18A
100
AcDbEntity
  8
レイヤー 1
100
AcDbSpline
210
0.0
220
0.0
230
1.0
 70
     9
 71
     3
 72
    29
 73
    25
 74
     0
 42
0.0000000001
 43
0.0000000001
 40
0.0
 40
0.0
 40
0.0
 40
0.0
 40
1.0
 40
1.0
 40
1.0
 40
2.0
 40
2.0
 40
2.0
 40
3.0
 40
3.0
 40
3.0
 40
4.0
 40
4.0
 40
4.0
 40
5.0
 40
5.0
 40
5.0
 40
6.0
 40
6.0
 40
6.0
 40
7.0
 40
7.0
 40
7.0
 40
8.0
 40
8.0
 40
8.0
 40
8.0
 10
121.8340792881178
 20
-150.8879475534238
 30
0.0
 10
121.8340792881178
 20
-150.8879475534238
 30
0.0
 10
121.3496988628917
 20
-150.8879475534238
 30
0.0
 10
121.3496988628917
 20
-150.8879475534238
 30
0.0
 10
121.3221380990097
 20
-150.8879475534238
 30
0.0
 10
121.0048448048182
 20
-150.8879475534238
 30
0.0
 10
120.7933159420239
 20
-150.9134412600147
 30
0.0
 10
120.7933159420239
 20
-150.9134412600147
 30
0.0
 10
120.7933159420239
 20
-150.6826198625029
 30
0.0
 10
120.7933159420239
 20
-150.6826198625029
 30
0.0
 10
120.9517903343454
 20
-150.7060465118027
 30
0.0
 10
121.1423041146797
 20
-150.7081135690938
 30
0.0
 10
121.3496988628917
 20
-150.7081135690938
 30
0.0
 10
121.3496988628917
 20
-150.7081135690938
 30
0.0
 10
121.8340792881178
 20
-150.7081135690938
 30
0.0
 10
121.8340792881178
 20
-150.7081135690938
 30
0.0
 10
122.0201144443213
 20
-150.7081135690938
 30
0.0
 10
122.2061496005248
 20
-150.7060465118027
 30
0.0
 10
122.3904622089857
 20
-150.6826198625029
 30
0.0
 10
122.3904622089857
 20
-150.6826198625029
 30
0.0
 10
122.3904622089857
 20
-150.9134412600147
 30
0.0
 10
122.3904622089857
 20
-150.9134412600147
 30
0.0
 10
122.2061496005248
 20
-150.890014610715
 30
0.0
 10
121.9587917446839
 20
-150.8879475534238
 30
0.0
 10
121.8340792881178
 20
-150.8879475534238
 30
0.0
  0
HATCH
  5
19B
330
18A
100
AcDbEntity
  8
レイヤー 1
 62
    18
420
        0
440
 33554687
100
AcDbHatch
 10
0.0
 20
0.0
 30
0.0
210
0.0
220
0.0
230
1.0
  2
SOLID
 70
     1
 71
     1
 91
        1
 92
        1
 93
        1
 72
     4
 94
        3
 73
     0
 74
     0
 95
       29
 96
       25
 40
0.0
 40
0.0
 40
0.0
 40
0.0
 40
1.0
 40
1.0
 40
1.0
 40
2.0
 40
2.0
 40
2.0
 40
3.0
 40
3.0
 40
3.0
 40
4.0
 40
4.0
 40
4.0
 40
5.0
 40
5.0
 40
5.0
 40
6.0
 40
6.0
 40
6.0
 40
7.0
 40
7.0
 40
7.0
 40
8.0
 40
8.0
 40
8.0
 40
8.0
 10
121.8340792881178
 20
-150.8879475534238
 10
121.8340792881178
 20
-150.8879475534238
 10
121.3496988628917
 20
-150.8879475534238
 10
121.3496988628917
 20
-150.8879475534238
 10
121.3221380990097
 20
-150.8879475534238
 10
121.0048448048182
 20
-150.8879475534238
 10
120.7933159420239
 20
-150.9134412600147
 10
120.7933159420239
 20
-150.9134412600147
 10
120.7933159420239
 20
-150.6826198625029
 10
120.7933159420239
 20
-150.6826198625029
 10
120.9517903343454
 20
-150.7060465118027
 10
121.1423041146797
 20
-150.7081135690938
 10
121.3496988628917
 20
-150.7081135690938
 10
121.3496988628917
 20
-150.7081135690938
 10
121.8340792881178
 20
-150.7081135690938
 10
121.8340792881178
 20
-150.7081135690938
 10
122.0201144443213
 20
-150.7081135690938
 10
122.2061496005248
 20
-150.7060465118027
 10
122.3904622089857
 20
-150.6826198625029
 10
122.3904622089857
 20
-150.6826198625029
 10
122.3904622089857
 20
-150.9134412600147
 10
122.3904622089857
 20
-150.9134412600147
 10
122.2061496005248
 20
-150.890014610715
 10
121.9587917446839
 20
-150.8879475534238
 10
121.8340792881178
 20
-150.8879475534238
 97
        0
 97
        1
330
19A
 75
     2
 76
     1
 98
        1
 10
0.0
 20
0.0
450
        0
451
        0
460
0.0
461
0.0
452
        0
462
0.0
453
        0
470

  0
SPLINE
  5
19C
330
18A
100
AcDbEntity
  8
レイヤー 1
100
AcDbSpline
210
0.0
220
0.0
230
1.0
 70
     9
 71
     3
 72
    47
 73
    43
 74
     0
 42
0.0000000001
 43
0.0000000001
 40
0.0
 40
0.0
 40
0.0
 40
0.0
 40
1.0
 40
1.0
 40
1.0
 40
2.0
 40
2.0
 40
2.0
 40
3.0
 40
3.0
 40
3.0
 40
4.0
 40
4.0
 40
4.0
 40
5.0
 40
5.0
 40
5.0
 40
6.0
 40
6.0
 40
6.0
 40
7.0
 40
7.0
 40
7.0
 40
8.0
 40
8.0
 40
8.0
 40
9.0
 40
9.0
 40
9.0
 40
10.0
 40
10.0
 40
10.0
 40
11.0
 40
11.0
 40
11.0
 40
12.0
 40
12.0
 40
12.0
 40
13.0
 40
13.0
 40
13.0
 40
14.0
 40
14.0
 40
14.0
 40
14.0
 10
124.0540988188129
 20
-150.2936685822182
 30
0.0
 10
123.9841633804623
 20
-150.5727213165235
 30
0.0
 10
123.9080267702383
 20
-150.8772677574196
 30
0.0
 10
123.5952121001776
 20
-151.2093749621977
 30
0.0
 10
123.3581895307924
 20
-151.4591443848783
 30
0.0
 10
123.1128987322426
 20
-151.558707644402
 30
0.0
 10
123.0071343008454
 20
-151.600737809322
 30
0.0
 10
123.0071343008454
 20
-151.600737809322
 30
0.0
 10
122.8124864059288
 20
-151.4188367677008
 30
0.0
 10
122.8124864059288
 20
-151.4188367677008
 30
0.0
 10
122.9985215621323
 20
-151.37232797865
 30
0.0
 10
123.3602565880835
 20
-151.2793104005482
 30
0.0
 10
123.656534799815
 20
-150.7842501793178
 30
0.0
 10
123.8170762494277
 20
-150.5175997887595
 30
0.0
 10
123.8298231027231
 20
-150.3443114858514
 30
0.0
 10
123.8384358414362
 20
-150.2533609650408
 30
0.0
 10
123.8384358414362
 20
-150.2533609650408
 30
0.0
 10
123.3326958242015
 20
-150.2533609650408
 30
0.0
 10
123.3326958242015
 20
-150.2533609650408
 30
0.0
 10
123.2141845395089
 20
-150.2533609650408
 30
0.0
 10
122.7931938712114
 20
-150.2723089902097
 30
0.0
 10
122.6409206507634
 20
-150.282988786214
 30
0.0
 10
122.6409206507634
 20
-150.282988786214
 30
0.0
 10
122.6409206507634
 20
-150.0735269807108
 30
0.0
 10
122.6409206507634
 20
-150.0735269807108
 30
0.0
 10
122.7828585847557
 20
-150.0862738340062
 30
0.0
 10
123.0598442617697
 20
-150.0904079485885
 30
0.0
 10
123.1762884891712
 20
-150.0904079485885
 30
0.0
 10
123.1762884891712
 20
-150.0904079485885
 30
0.0
 10
123.5314778337004
 20
-150.0904079485885
 30
0.0
 10
123.5314778337004
 20
-150.0904079485885
 30
0.0
 10
123.5590385975825
 20
-150.0904079485885
 30
0.0
 10
123.7199245567436
 20
-150.0883408912974
 30
0.0
 10
123.8298231027231
 20
-150.0735269807108
 30
0.0
 10
123.8870116877782
 20
-150.0669812992888
 30
0.0
 10
123.903892655656
 20
-150.0480332741199
 30
0.0
 10
123.9273193049557
 20
-150.0249511343687
 30
0.0
 10
123.9273193049557
 20
-150.0249511343687
 30
0.0
 10
124.1154215184503
 20
-150.1751572975256
 30
0.0
 10
124.1154215184503
 20
-150.1751572975256
 30
0.0
 10
124.1006076078637
 20
-150.2047851186988
 30
0.0
 10
124.090272321408
 20
-150.2237331438677
 30
0.0
 10
124.0540988188129
 20
-150.2936685822182
 30
0.0
  0
HATCH
  5
19D
330
18A
100
AcDbEntity
  8
レイヤー 1
 62
    18
420
        0
440
 33554687
100
AcDbHatch
 10
0.0
 20
0.0
 30
0.0
210
0.0
220
0.0
230
1.0
  2
SOLID
 70
     1
 71
     1
 91
        1
 92
        1
 93
        1
 72
     4
 94
        3
 73
     0
 74
     0
 95
       47
 96
       43
 40
0.0
 40
0.0
 40
0.0
 40
0.0
 40
1.0
 40
1.0
 40
1.0
 40
2.0
 40
2.0
 40
2.0
 40
3.0
 40
3.0
 40
3.0
 40
4.0
 40
4.0
 40
4.0
 40
5.0
 40
5.0
 40
5.0
 40
6.0
 40
6.0
 40
6.0
 40
7.0
 40
7.0
 40
7.0
 40
8.0
 40
8.0
 40
8.0
 40
9.0
 40
9.0
 40
9.0
 40
10.0
 40
10.0
 40
10.0
 40
11.0
 40
11.0
 40
11.0
 40
12.0
 40
12.0
 40
12.0
 40
13.0
 40
13.0
 40
13.0
 40
14.0
 40
14.0
 40
14.0
 40
14.0
 10
124.0540988188129
 20
-150.2936685822182
 10
123.9841633804623
 20
-150.5727213165235
 10
123.9080267702383
 20
-150.8772677574196
 10
123.5952121001776
 20
-151.2093749621977
 10
123.3581895307924
 20
-151.4591443848783
 10
123.1128987322426
 20
-151.558707644402
 10
123.0071343008454
 20
-151.600737809322
 10
123.0071343008454
 20
-151.600737809322
 10
122.8124864059288
 20
-151.4188367677008
 10
122.8124864059288
 20
-151.4188367677008
 10
122.9985215621323
 20
-151.37232797865
 10
123.3602565880835
 20
-151.2793104005482
 10
123.656534799815
 20
-150.7842501793178
 10
123.8170762494277
 20
-150.5175997887595
 10
123.8298231027231
 20
-150.3443114858514
 10
123.8384358414362
 20
-150.2533609650408
 10
123.8384358414362
 20
-150.2533609650408
 10
123.3326958242015
 20
-150.2533609650408
 10
123.3326958242015
 20
-150.2533609650408
 10
123.2141845395089
 20
-150.2533609650408
 10
122.7931938712114
 20
-150.2723089902097
 10
122.6409206507634
 20
-150.282988786214
 10
122.6409206507634
 20
-150.282988786214
 10
122.6409206507634
 20
-150.0735269807108
 10
122.6409206507634
 20
-150.0735269807108
 10
122.7828585847557
 20
-150.0862738340062
 10
123.0598442617697
 20
-150.0904079485885
 10
123.1762884891712
 20
-150.0904079485885
 10
123.1762884891712
 20
-150.0904079485885
 10
123.5314778337004
 20
-150.0904079485885
 10
123.5314778337004
 20
-150.0904079485885
 10
123.5590385975825
 20
-150.0904079485885
 10
123.7199245567436
 20
-150.0883408912974
 10
123.8298231027231
 20
-150.0735269807108
 10
123.8870116877782
 20
-150.0669812992888
 10
123.903892655656
 20
-150.0480332741199
 10
123.9273193049557
 20
-150.0249511343687
 10
123.9273193049557
 20
-150.0249511343687
 10
124.1154215184503
 20
-150.1751572975256
 10
124.1154215184503
 20
-150.1751572975256
 10
124.1006076078637
 20
-150.2047851186988
 10
124.090272321408
 20
-150.2237331438677
 10
124.0540988188129
 20
-150.2936685822182
 97
        0
 97
        1
330
19C
 75
     2
 76
     1
 98
        1
 10
0.0
 20
0.0
450
        0
451
        0
460
0.0
461
0.0
452
        0
462
0.0
453
        0
470

  0
SPLINE
  5
19E
330
18A
100
AcDbEntity
  8
レイヤー 1
100
AcDbSpline
210
0.0
220
0.0
230
1.0
 70
    11
 71
     3
 72
    17
 73
    13
 74
     0
 42
0.0000000001
 43
0.0000000001
 40
0.0
 40
0.0
 40
0.0
 40
0.0
 40
1.0
 40
1.0
 40
1.0
 40
2.0
 40
2.0
 40
2.0
 40
3.0
 40
3.0
 40
3.0
 40
4.0
 40
4.0
 40
4.0
 40
4.0
 10
124.4444281372917
 20
-150.0755940380019
 30
0.0
 10
124.4444281372917
 20
-150.1348496803482
 30
0.0
 10
124.4909369263425
 20
-150.1813584693991
 30
0.0
 10
124.5501925686888
 20
-150.1813584693991
 30
0.0
 10
124.6094482110351
 20
-150.1813584693991
 30
0.0
 10
124.6580240573771
 20
-150.1348496803482
 30
0.0
 10
124.6580240573771
 20
-150.0755940380019
 30
0.0
 10
124.6580240573771
 20
-150.0163383956556
 30
0.0
 10
124.6094482110351
 20
-149.9677625493136
 30
0.0
 10
124.5501925686888
 20
-149.9677625493136
 30
0.0
 10
124.4909369263425
 20
-149.9677625493136
 30
0.0
 10
124.4444281372917
 20
-150.0163383956556
 30
0.0
 10
124.4444281372917
 20
-150.0755940380019
 30
0.0
  0
SPLINE
  5
19F
330
18A
100
AcDbEntity
  8
レイヤー 1
100
AcDbSpline
210
0.0
220
0.0
230
1.0
 70
     9
 71
     3
 72
    17
 73
    13
 74
     0
 42
0.0000000001
 43
0.0000000001
 40
0.0
 40
0.0
 40
0.0
 40
0.0
 40
1.0
 40
1.0
 40
1.0
 40
2.0
 40
2.0
 40
2.0
 40
3.0
 40
3.0
 40
3.0
 40
4.0
 40
4.0
 40
4.0
 40
4.0
 10
124.759654374192
 20
-150.0755940380019
 30
0.0
 10
124.759654374192
 20
-150.1899712081122
 30
0.0
 10
124.6666367960903
 20
-150.2850558435051
 30
0.0
 10
124.5501925686888
 20
-150.2850558435051
 30
0.0
 10
124.4358153985785
 20
-150.2850558435051
 30
0.0
 10
124.3407307631856
 20
-150.1899712081122
 30
0.0
 10
124.3407307631856
 20
-150.0755940380019
 30
0.0
 10
124.3407307631856
 20
-149.9591498106005
 30
0.0
 10
124.4358153985785
 20
-149.8661322324987
 30
0.0
 10
124.5501925686888
 20
-149.8661322324987
 30
0.0
 10
124.6645697387991
 20
-149.8661322324987
 30
0.0
 10
124.759654374192
 20
-149.9591498106005
 30
0.0
 10
124.759654374192
 20
-150.0755940380019
 30
0.0
  0
HATCH
  5
1A0
330
18A
100
AcDbEntity
  8
レイヤー 1
 62
    18
420
        0
440
 33554687
100
AcDbHatch
 10
0.0
 20
0.0
 30
0.0
210
0.0
220
0.0
230
1.0
  2
SOLID
 70
     1
 71
     1
 91
        2
 92
        1
 93
        1
 72
     4
 94
        3
 73
     0
 74
     0
 95
       17
 96
       13
 40
0.0
 40
0.0
 40
0.0
 40
0.0
 40
1.0
 40
1.0
 40
1.0
 40
2.0
 40
2.0
 40
2.0
 40
3.0
 40
3.0
 40
3.0
 40
4.0
 40
4.0
 40
4.0
 40
4.0
 10
124.4444281372917
 20
-150.0755940380019
 10
124.4444281372917
 20
-150.1348496803482
 10
124.4909369263425
 20
-150.1813584693991
 10
124.5501925686888
 20
-150.1813584693991
 10
124.6094482110351
 20
-150.1813584693991
 10
124.6580240573771
 20
-150.1348496803482
 10
124.6580240573771
 20
-150.0755940380019
 10
124.6580240573771
 20
-150.0163383956556
 10
124.6094482110351
 20
-149.9677625493136
 10
124.5501925686888
 20
-149.9677625493136
 10
124.4909369263425
 20
-149.9677625493136
 10
124.4444281372917
 20
-150.0163383956556
 10
124.4444281372917
 20
-150.0755940380019
 97
        0
 97
        1
330
19E
 92
        1
 93
        1
 72
     4
 94
        3
 73
     0
 74
     0
 95
       17
 96
       13
 40
0.0
 40
0.0
 40
0.0
 40
0.0
 40
1.0
 40
1.0
 40
1.0
 40
2.0
 40
2.0
 40
2.0
 40
3.0
 40
3.0
 40
3.0
 40
4.0
 40
4.0
 40
4.0
 40
4.0
 10
124.759654374192
 20
-150.0755940380019
 10
124.759654374192
 20
-150.1899712081122
 10
124.6666367960903
 20
-150.2850558435051
 10
124.5501925686888
 20
-150.2850558435051
 10
124.4358153985785
 20
-150.2850558435051
 10
124.3407307631856
 20
-150.1899712081122
 10
124.3407307631856
 20
-150.0755940380019
 10
124.3407307631856
 20
-149.9591498106005
 10
124.4358153985785
 20
-149.8661322324987
 10
124.5501925686888
 20
-149.8661322324987
 10
124.6645697387991
 20
-149.8661322324987
 10
124.759654374192
 20
-149.9591498106005
 10
124.759654374192
 20
-150.0755940380019
 97
        0
 97
        1
330
19F
 75
     2
 76
     1
 98
        1
 10
0.0
 20
0.0
450
        0
451
        0
460
0.0
461
0.0
452
        0
462
0.0
453
        0
470

  0
ENDBLK
  5
18D
330
18A
100
AcDbEntity
  8
0
100
AcDbBlockEnd
  0
ENDSEC
  0
SECTION
  2
ENTITIES
  0
LINE
  5
79
330
70
100
AcDbEntity
  8
レイヤー 1
  6
AI-Linetype-0
 62
   154
420
    23468
370
    25
100
AcDbLine
 10
66.03156205064999
 20
-147.0489617602342
 30
0.0
 11
76.0314712399755
 21
-147.0489617602342
 31
0.0
  0
LINE
  5
7B
330
70
100
AcDbEntity
  8
レイヤー 1
  6
AI-Linetype-1
 62
   154
420
    23468
370
    25
100
AcDbLine
 10
109.6940198256171
 20
-147.0489617602342
 30
0.0
 11
119.6944581815958
 21
-147.0489617602342
 31
0.0
  0
LINE
  5
7D
330
70
100
AcDbEntity
  8
レイヤー 1
 62
   250
420
  2299925
370
    25
100
AcDbLine
 10
100.1573078466963
 20
-154.0046106473839
 30
0.0
 11
86.03240348483046
 21
-154.0046106473839
 31
0.0
  0
LINE
  5
7E
330
70
100
AcDbEntity
  8
レイヤー 1
 62
   250
420
  2299925
370
    25
100
AcDbLine
 10
66.03156205064999
 20
-145.8101120383217
 30
0.0
 11
66.03156205064999
 21
-146.3103156493079
 31
0.0
  0
LINE
  5
7F
330
70
100
AcDbEntity
  8
レイヤー 1
 62
   250
420
  2299925
370
    25
100
AcDbLine
 10
86.03240348483046
 20
-146.3103156493079
 30
0.0
 11
66.03156205064999
 21
-146.3103156493079
 31
0.0
  0
LINE
  5
80
330
70
100
AcDbEntity
  8
レイヤー 1
 62
   250
420
  2299925
370
    25
100
AcDbLine
 10
66.03156205064999
 20
-145.8101120383217
 30
0.0
 11
66.54488898199836
 21
-146.1921703715594
 31
0.0
  0
LINE
  5
81
330
70
100
AcDbEntity
  8
レイヤー 1
 62
   250
420
  2299925
370
    25
100
AcDbLine
 10
66.54488898199836
 20
-146.1921703715594
 30
0.0
 11
67.03062869182834
 21
-145.7746225938862
 31
0.0
  0
LINE
  5
82
330
70
100
AcDbEntity
  8
レイヤー 1
 62
   250
420
  2299925
370
    25
100
AcDbLine
 10
67.5446611787146
 20
-146.1566809271239
 30
0.0
 11
68.02973061078358
 21
-145.7387803716729
 31
0.0
  0
LINE
  5
83
330
70
100
AcDbEntity
  8
レイヤー 1
 62
   250
420
  2299925
370
    25
100
AcDbLine
 10
67.03062869182834
 20
-145.7746225938862
 30
0.0
 11
67.5446611787146
 21
-146.1566809271239
 31
0.0
  0
LINE
  5
84
330
70
100
AcDbEntity
  8
レイヤー 1
 62
   250
420
  2299925
370
    25
100
AcDbLine
 10
68.02973061078358
 20
-145.7387803716729
 30
0.0
 11
68.54372781989264
 21
-146.1208387049106
 31
0.0
  0
LINE
  5
85
330
70
100
AcDbEntity
  8
レイヤー 1
 62
   250
420
  2299925
370
    25
100
AcDbLine
 10
68.54372781989264
 20
-146.1208387049106
 30
0.0
 11
69.02950280749948
 21
-145.7032909272371
 31
0.0
  0
LINE
  5
86
330
70
100
AcDbEntity
  8
レイヤー 1
 62
   250
420
  2299925
370
    25
100
AcDbLine
 10
69.02950280749948
 20
-145.7032909272371
 30
0.0
 11
69.54350001660855
 21
-146.0849964826974
 31
0.0
  0
LINE
  5
87
330
70
100
AcDbEntity
  8
レイヤー 1
 62
   250
420
  2299925
370
    25
100
AcDbLine
 10
69.54350001660855
 20
-146.0849964826974
 30
0.0
 11
70.02856944867784
 21
-145.6674839828017
 31
0.0
  0
LINE
  5
88
330
70
100
AcDbEntity
  8
レイヤー 1
 62
   250
420
  2299925
370
    25
100
AcDbLine
 10
70.02856944867784
 20
-145.6674839828017
 30
0.0
 11
70.54256665778689
 21
-146.0491895382619
 31
0.0
  0
LINE
  5
89
330
70
100
AcDbEntity
  8
レイヤー 1
 62
   250
420
  2299925
370
    25
100
AcDbLine
 10
70.54256665778689
 20
-146.0491895382619
 30
0.0
 11
71.02834164539375
 21
-145.6316417605885
 31
0.0
  0
LINE
  5
8A
330
70
100
AcDbEntity
  8
レイヤー 1
 62
   250
420
  2299925
370
    25
100
AcDbLine
 10
71.02834164539375
 20
-145.6316417605885
 30
0.0
 11
71.54233885450313
 21
-146.0137000938268
 31
0.0
  0
LINE
  5
8B
330
70
100
AcDbEntity
  8
レイヤー 1
 62
   250
420
  2299925
370
    25
100
AcDbLine
 10
71.54233885450313
 20
-146.0137000938268
 30
0.0
 11
72.02740828657209
 21
-145.596152316153
 31
0.0
  0
LINE
  5
8C
330
70
100
AcDbEntity
  8
レイヤー 1
 62
   250
420
  2299925
370
    25
100
AcDbLine
 10
72.02740828657209
 20
-145.596152316153
 30
0.0
 11
72.54140549568116
 21
-145.9782106493907
 31
0.0
  0
LINE
  5
8D
330
70
100
AcDbEntity
  8
レイヤー 1
 62
   250
420
  2299925
370
    25
100
AcDbLine
 10
72.54140549568116
 20
-145.9782106493907
 30
0.0
 11
73.02647492775045
 21
-145.5603100939397
 31
0.0
  0
LINE
  5
8E
330
70
100
AcDbEntity
  8
レイヤー 1
 62
   250
420
  2299925
370
    25
100
AcDbLine
 10
73.54050741463639
 20
-145.9424037049553
 30
0.0
 11
74.02624712446668
 21
-145.5248559272817
 31
0.0
  0
LINE
  5
8F
330
70
100
AcDbEntity
  8
レイヤー 1
 62
   250
420
  2299925
370
    25
100
AcDbLine
 10
73.02647492775045
 20
-145.5603100939397
 30
0.0
 11
73.54050741463639
 21
-145.9424037049553
 31
0.0
  0
LINE
  5
90
330
70
100
AcDbEntity
  8
レイヤー 1
 62
   250
420
  2299925
370
    25
100
AcDbLine
 10
74.02624712446668
 20
-145.5248559272817
 30
0.0
 11
74.5402796113523
 21
-145.906561482742
 31
0.0
  0
LINE
  5
91
330
70
100
AcDbEntity
  8
レイヤー 1
 62
   250
420
  2299925
370
    25
100
AcDbLine
 10
74.5402796113523
 20
-145.906561482742
 30
0.0
 11
75.0253490434216
 21
-145.4890137050685
 31
0.0
  0
LINE
  5
92
330
70
100
AcDbEntity
  8
レイヤー 1
 62
   250
420
  2299925
370
    25
100
AcDbLine
 10
75.53934625253065
 20
-145.8707192605291
 30
0.0
 11
76.02526235124502
 21
-145.4531714828553
 31
0.0
  0
LINE
  5
93
330
70
100
AcDbEntity
  8
レイヤー 1
 62
   250
420
  2299925
370
    25
100
AcDbLine
 10
75.0253490434216
 20
-145.4890137050685
 30
0.0
 11
75.53934625253065
 21
-145.8707192605291
 31
0.0
  0
LINE
  5
94
330
70
100
AcDbEntity
  8
レイヤー 1
 62
   250
420
  2299925
370
    25
100
AcDbLine
 10
76.53929483813096
 20
-145.8352298160933
 30
0.0
 11
77.02418788131552
 21
-145.4176820384198
 31
0.0
  0
LINE
  5
95
330
70
100
AcDbEntity
  8
レイヤー 1
 62
   250
420
  2299925
370
    25
100
AcDbLine
 10
76.02526235124502
 20
-145.4531714828553
 30
0.0
 11
76.53929483813096
 21
-145.8352298160933
 31
0.0
  0
LINE
  5
96
330
70
100
AcDbEntity
  8
レイヤー 1
 62
   250
420
  2299925
370
    25
100
AcDbLine
 10
77.02418788131552
 20
-145.4176820384198
 30
0.0
 11
77.53818509042523
 21
-145.7997756494353
 31
0.0
  0
LINE
  5
97
330
70
100
AcDbEntity
  8
レイヤー 1
 62
   250
420
  2299925
370
    25
100
AcDbLine
 10
77.53818509042523
 20
-145.7997756494353
 30
0.0
 11
78.02396007803176
 21
-145.3818750939843
 31
0.0
  0
LINE
  5
98
330
70
100
AcDbEntity
  8
レイヤー 1
 62
   250
420
  2299925
370
    25
100
AcDbLine
 10
78.02396007803176
 20
-145.3818750939843
 30
0.0
 11
78.53725173160326
 21
-145.763933427222
 31
0.0
  0
LINE
  5
99
330
70
100
AcDbEntity
  8
レイヤー 1
 62
   250
420
  2299925
370
    25
100
AcDbLine
 10
78.53725173160326
 20
-145.763933427222
 30
0.0
 11
79.02302671921012
 21
-145.3463856495486
 31
0.0
  0
LINE
  5
9A
330
70
100
AcDbEntity
  8
レイヤー 1
 62
   250
420
  2299925
370
    25
100
AcDbLine
 10
79.02302671921012
 20
-145.3463856495486
 30
0.0
 11
79.53702392831917
 21
-145.7280912050088
 31
0.0
  0
LINE
  5
9B
330
70
100
AcDbEntity
  8
レイヤー 1
 62
   250
420
  2299925
370
    25
100
AcDbLine
 10
79.53702392831917
 20
-145.7280912050088
 30
0.0
 11
80.02209336038847
 21
-145.3105434273353
 31
0.0
  0
LINE
  5
9C
330
70
100
AcDbEntity
  8
レイヤー 1
 62
   250
420
  2299925
370
    25
100
AcDbLine
 10
80.02209336038847
 20
-145.3105434273353
 30
0.0
 11
80.53612584727408
 21
-145.6922842605737
 31
0.0
  0
LINE
  5
9D
330
70
100
AcDbEntity
  8
レイヤー 1
 62
   250
420
  2299925
370
    25
100
AcDbLine
 10
80.53612584727408
 20
-145.6922842605737
 30
0.0
 11
81.02186555710437
 21
-145.2747364828999
 31
0.0
  0
LINE
  5
9E
330
70
100
AcDbEntity
  8
レイヤー 1
 62
   250
420
  2299925
370
    25
100
AcDbLine
 10
81.02186555710437
 20
-145.2747364828999
 30
0.0
 11
81.53586276621345
 21
-145.6567948161376
 31
0.0
  0
LINE
  5
9F
330
70
100
AcDbEntity
  8
レイヤー 1
 62
   250
420
  2299925
370
    25
100
AcDbLine
 10
81.53586276621345
 20
-145.6567948161376
 30
0.0
 11
82.02093219828274
 21
-145.2392470384647
 31
0.0
  0
LINE
  5
A0
330
70
100
AcDbEntity
  8
レイヤー 1
 62
   250
420
  2299925
370
    25
100
AcDbLine
 10
82.02093219828274
 20
-145.2392470384647
 30
0.0
 11
82.53496468516868
 21
-145.6213053717021
 31
0.0
  0
LINE
  5
A1
330
70
100
AcDbEntity
  8
レイヤー 1
 62
   250
420
  2299925
370
    25
100
AcDbLine
 10
82.53496468516868
 20
-145.6213053717021
 30
0.0
 11
83.02070439499864
 21
-145.2034048162515
 31
0.0
  0
LINE
  5
A2
330
70
100
AcDbEntity
  8
レイヤー 1
 62
   250
420
  2299925
370
    25
100
AcDbLine
 10
83.02070439499864
 20
-145.2034048162515
 30
0.0
 11
83.53473688188458
 21
-145.5854631494888
 31
0.0
  0
LINE
  5
A3
330
70
100
AcDbEntity
  8
レイヤー 1
 62
   250
420
  2299925
370
    25
100
AcDbLine
 10
83.53473688188458
 20
-145.5854631494888
 30
0.0
 11
84.01980631395387
 21
-145.1679153718154
 31
0.0
  0
LINE
  5
A4
330
70
100
AcDbEntity
  8
レイヤー 1
 62
   250
420
  2299925
370
    25
100
AcDbLine
 10
84.01980631395387
 20
-145.1679153718154
 30
0.0
 11
84.53380352306293
 21
-145.5496562050534
 31
0.0
  0
LINE
  5
A5
330
70
100
AcDbEntity
  8
レイヤー 1
 62
   250
420
  2299925
370
    25
100
AcDbLine
 10
84.53380352306293
 20
-145.5496562050534
 30
0.0
 11
85.01887295513222
 21
-145.1321084273799
 31
0.0
  0
LINE
  5
A6
330
70
100
AcDbEntity
  8
レイヤー 1
 62
   250
420
  2299925
370
    25
100
AcDbLine
 10
85.01887295513222
 20
-145.1321084273799
 30
0.0
 11
85.53287016424128
 21
-145.5138139828399
 31
0.0
  0
LINE
  5
A7
330
70
100
AcDbEntity
  8
レイヤー 1
 62
   250
420
  2299925
370
    25
100
AcDbLine
 10
85.53287016424128
 20
-145.5138139828399
 30
0.0
 11
86.01864515184812
 21
-145.0962662051667
 31
0.0
  0
LINE
  5
A8
330
70
100
AcDbEntity
  8
レイヤー 1
 62
   250
420
  2299925
370
    25
100
AcDbLine
 10
86.09264236106614
 20
-145.0480414829565
 30
0.0
 11
87.03288123708393
 21
-145.0480414829565
 31
0.0
  0
LINE
  5
A9
330
70
100
AcDbEntity
  8
レイヤー 1
 62
   250
420
  2299925
370
    25
100
AcDbLine
 10
87.03288123708393
 20
-145.0480414829565
 30
0.0
 11
87.03288123708393
 21
-153.0044856476342
 31
0.0
  0
LINE
  5
AA
330
70
100
AcDbEntity
  8
レイヤー 1
 62
   250
420
  2299925
370
    25
100
AcDbLine
 10
86.03240348483046
 20
-146.3103156493079
 30
0.0
 11
86.03240348483046
 21
-154.0046106473839
 31
0.0
  0
LINE
  5
AB
330
70
100
AcDbEntity
  8
レイヤー 1
 62
   250
420
  2299925
370
    25
100
AcDbLine
 10
99.15753564998045
 20
-153.0044856476342
 30
0.0
 11
87.03288123708393
 21
-153.0044856476342
 31
0.0
  0
LINE
  5
AC
330
70
100
AcDbEntity
  8
レイヤー 1
 62
   250
420
  2299925
370
    25
100
AcDbLine
 10
110.1652991500405
 20
-145.4531714828553
 30
0.0
 11
109.6513019279473
 21
-145.8352298160933
 31
0.0
  0
LINE
  5
AD
330
70
100
AcDbEntity
  8
レイヤー 1
 62
   250
420
  2299925
370
    25
100
AcDbLine
 10
115.1620752416709
 20
-145.6316417605885
 30
0.0
 11
114.6480780325619
 21
-146.0137000938268
 31
0.0
  0
LINE
  5
AE
330
70
100
AcDbEntity
  8
レイヤー 1
 62
   250
420
  2299925
370
    25
100
AcDbLine
 10
110.6503685943637
 20
-145.8707192605291
 30
0.0
 11
110.1652991500405
 21
-145.4531714828553
 31
0.0
  0
LINE
  5
AF
330
70
100
AcDbEntity
  8
レイヤー 1
 62
   250
420
  2299925
370
    25
100
AcDbLine
 10
111.6501408163356
 20
-145.906561482742
 30
0.0
 11
111.1643975658824
 21
-145.4890137050685
 31
0.0
  0
LINE
  5
B0
330
70
100
AcDbEntity
  8
レイヤー 1
 62
   250
420
  2299925
370
    25
100
AcDbLine
 10
109.6513019279473
 20
-145.8352298160933
 30
0.0
 11
109.1655269280686
 21
-145.4176820384198
 31
0.0
  0
LINE
  5
B1
330
70
100
AcDbEntity
  8
レイヤー 1
 62
   250
420
  2299925
370
    25
100
AcDbLine
 10
111.1643975658824
 20
-145.4890137050685
 30
0.0
 11
110.6503685943637
 21
-145.8707192605291
 31
0.0
  0
LINE
  5
B2
330
70
100
AcDbEntity
  8
レイヤー 1
 62
   250
420
  2299925
370
    25
100
AcDbLine
 10
119.1597529174595
 20
-145.7746225938862
 30
0.0
 11
118.6457557083504
 21
-146.1566809271239
 31
0.0
  0
LINE
  5
B3
330
70
100
AcDbEntity
  8
レイヤー 1
 62
   250
420
  2299925
370
    25
100
AcDbLine
 10
112.1641380384301
 20
-145.5248559272817
 30
0.0
 11
111.6501408163356
 21
-145.906561482742
 31
0.0
  0
LINE
  5
B4
330
70
100
AcDbEntity
  8
レイヤー 1
 62
   250
420
  2299925
370
    25
100
AcDbLine
 10
113.1632364037767
 20
-145.5603100939397
 30
0.0
 11
112.6492074827532
 21
-145.9424037049553
 31
0.0
  0
LINE
  5
B5
330
70
100
AcDbEntity
  8
レイヤー 1
 62
   250
420
  2299925
370
    25
100
AcDbLine
 10
99.15753564998045
 20
-145.0480414829565
 30
0.0
 11
99.15753564998045
 21
-153.0044856476342
 31
0.0
  0
LINE
  5
B6
330
70
100
AcDbEntity
  8
レイヤー 1
 62
   250
420
  2299925
370
    25
100
AcDbLine
 10
112.6492074827532
 20
-145.9424037049553
 30
0.0
 11
112.1641380384301
 21
-145.5248559272817
 31
0.0
  0
LINE
  5
B7
330
70
100
AcDbEntity
  8
レイヤー 1
 62
   250
420
  2299925
370
    25
100
AcDbLine
 10
113.6489797047251
 20
-145.9782106493907
 30
0.0
 11
113.1632364037767
 21
-145.5603100939397
 31
0.0
  0
LINE
  5
B8
330
70
100
AcDbEntity
  8
レイヤー 1
 62
   250
420
  2299925
370
    25
100
AcDbLine
 10
118.6457557083504
 20
-146.1566809271239
 30
0.0
 11
118.1599807207435
 21
-145.7387803716729
 31
0.0
  0
LINE
  5
B9
330
70
100
AcDbEntity
  8
レイヤー 1
 62
   250
420
  2299925
370
    25
100
AcDbLine
 10
114.162303044955
 20
-145.596152316153
 30
0.0
 11
113.6489797047251
 21
-145.9782106493907
 31
0.0
  0
LINE
  5
BA
330
70
100
AcDbEntity
  8
レイヤー 1
 62
   250
420
  2299925
370
    25
100
AcDbLine
 10
114.6480780325619
 20
-146.0137000938268
 30
0.0
 11
114.162303044955
 21
-145.596152316153
 31
0.0
  0
LINE
  5
BB
330
70
100
AcDbEntity
  8
レイヤー 1
 62
   250
420
  2299925
370
    25
100
AcDbLine
 10
119.6448223495287
 20
-146.1921703715594
 30
0.0
 11
119.1597529174595
 21
-145.7746225938862
 31
0.0
  0
LINE
  5
BC
330
70
100
AcDbEntity
  8
レイヤー 1
 62
   250
420
  2299925
370
    25
100
AcDbLine
 10
116.1611418828493
 20
-145.6674839828017
 30
0.0
 11
115.6471446737402
 21
-146.0491895382619
 31
0.0
  0
LINE
  5
BD
330
70
100
AcDbEntity
  8
レイヤー 1
 62
   250
420
  2299925
370
    25
100
AcDbLine
 10
117.1609140795652
 20
-145.7032909272371
 30
0.0
 11
116.6469168704561
 21
-146.0849964826974
 31
0.0
  0
LINE
  5
BE
330
70
100
AcDbEntity
  8
レイヤー 1
 62
   250
420
  2299925
370
    25
100
AcDbLine
 10
116.6469168704561
 20
-146.0849964826974
 30
0.0
 11
116.1611418828493
 21
-145.6674839828017
 31
0.0
  0
LINE
  5
BF
330
70
100
AcDbEntity
  8
レイヤー 1
 62
   250
420
  2299925
370
    25
100
AcDbLine
 10
120.1588548364147
 20
-145.8101120383217
 30
0.0
 11
119.6448223495287
 21
-146.1921703715594
 31
0.0
  0
LINE
  5
C0
330
70
100
AcDbEntity
  8
レイヤー 1
 62
   250
420
  2299925
370
    25
100
AcDbLine
 10
115.6471446737402
 20
-146.0491895382619
 30
0.0
 11
115.1620752416709
 21
-145.6316417605885
 31
0.0
  0
LINE
  5
C1
330
70
100
AcDbEntity
  8
レイヤー 1
 62
   250
420
  2299925
370
    25
100
AcDbLine
 10
118.1599807207435
 20
-145.7387803716729
 30
0.0
 11
117.6459835116345
 21
-146.1208387049106
 31
0.0
  0
LINE
  5
C2
330
70
100
AcDbEntity
  8
レイヤー 1
 62
   250
420
  2299925
370
    25
100
AcDbLine
 10
117.6459835116345
 20
-146.1208387049106
 30
0.0
 11
117.1609140795652
 21
-145.7032909272371
 31
0.0
  0
LINE
  5
C3
330
70
100
AcDbEntity
  8
レイヤー 1
 62
   250
420
  2299925
370
    25
100
AcDbLine
 10
120.1588548364147
 20
-145.8101120383217
 30
0.0
 11
120.1588548364147
 21
-146.3103156493079
 31
0.0
  0
LINE
  5
C4
330
70
100
AcDbEntity
  8
レイヤー 1
 62
   250
420
  2299925
370
    25
100
AcDbLine
 10
100.1573078466963
 20
-146.3103156493079
 30
0.0
 11
120.1588548364147
 21
-146.3103156493079
 31
0.0
  0
LINE
  5
C5
330
70
100
AcDbEntity
  8
レイヤー 1
 62
   250
420
  2299925
370
    25
100
AcDbLine
 10
109.1655269280686
 20
-145.4176820384198
 30
0.0
 11
108.6515297059741
 21
-145.7997756494353
 31
0.0
  0
LINE
  5
C6
330
70
100
AcDbEntity
  8
レイヤー 1
 62
   250
420
  2299925
370
    25
100
AcDbLine
 10
108.6515297059741
 20
-145.7997756494353
 30
0.0
 11
108.1664602616509
 21
-145.3818750939843
 31
0.0
  0
LINE
  5
C7
330
70
100
AcDbEntity
  8
レイヤー 1
 62
   250
420
  2299925
370
    25
100
AcDbLine
 10
108.1664602616509
 20
-145.3818750939843
 30
0.0
 11
107.6524630395577
 21
-145.763933427222
 31
0.0
  0
LINE
  5
C8
330
70
100
AcDbEntity
  8
レイヤー 1
 62
   250
420
  2299925
370
    25
100
AcDbLine
 10
107.6524630395577
 20
-145.763933427222
 30
0.0
 11
107.1673935952346
 21
-145.3463856495486
 31
0.0
  0
LINE
  5
C9
330
70
100
AcDbEntity
  8
レイヤー 1
 62
   250
420
  2299925
370
    25
100
AcDbLine
 10
107.1673935952346
 20
-145.3463856495486
 30
0.0
 11
106.6533963731414
 21
-145.7280912050088
 31
0.0
  0
LINE
  5
CA
330
70
100
AcDbEntity
  8
レイヤー 1
 62
   250
420
  2299925
370
    25
100
AcDbLine
 10
106.6533963731414
 20
-145.7280912050088
 30
0.0
 11
106.1676213732627
 21
-145.3105434273353
 31
0.0
  0
LINE
  5
CB
330
70
100
AcDbEntity
  8
レイヤー 1
 62
   250
420
  2299925
370
    25
100
AcDbLine
 10
106.1676213732627
 20
-145.3105434273353
 30
0.0
 11
105.6536241511682
 21
-145.6922842605737
 31
0.0
  0
LINE
  5
CC
330
70
100
AcDbEntity
  8
レイヤー 1
 62
   250
420
  2299925
370
    25
100
AcDbLine
 10
105.6536241511682
 20
-145.6922842605737
 30
0.0
 11
105.1685547068453
 21
-145.2747364828999
 31
0.0
  0
LINE
  5
CD
330
70
100
AcDbEntity
  8
レイヤー 1
 62
   250
420
  2299925
370
    25
100
AcDbLine
 10
105.1685547068453
 20
-145.2747364828999
 30
0.0
 11
104.654518843074
 21
-145.6567948161376
 31
0.0
  0
LINE
  5
CE
330
70
100
AcDbEntity
  8
レイヤー 1
 62
   250
420
  2299925
370
    25
100
AcDbLine
 10
104.654518843074
 20
-145.6567948161376
 30
0.0
 11
104.1687824848734
 21
-145.2392470384647
 31
0.0
  0
LINE
  5
CF
330
70
100
AcDbEntity
  8
レイヤー 1
 62
   250
420
  2299925
370
    25
100
AcDbLine
 10
104.1687824848734
 20
-145.2392470384647
 30
0.0
 11
103.6547852627796
 21
-145.6213053717021
 31
0.0
  0
LINE
  5
D0
330
70
100
AcDbEntity
  8
レイヤー 1
 62
   250
420
  2299925
370
    25
100
AcDbLine
 10
103.6547852627796
 20
-145.6213053717021
 30
0.0
 11
103.1697158184564
 21
-145.2034048162515
 31
0.0
  0
LINE
  5
D1
330
70
100
AcDbEntity
  8
レイヤー 1
 62
   250
420
  2299925
370
    25
100
AcDbLine
 10
103.1697158184564
 20
-145.2034048162515
 30
0.0
 11
102.6556800051794
 21
-145.5854631494888
 31
0.0
  0
LINE
  5
D2
330
70
100
AcDbEntity
  8
レイヤー 1
 62
   250
420
  2299925
370
    25
100
AcDbLine
 10
102.6556800051794
 20
-145.5854631494888
 30
0.0
 11
102.1706105731105
 21
-145.1679153718154
 31
0.0
  0
LINE
  5
D3
330
70
100
AcDbEntity
  8
レイヤー 1
 62
   250
420
  2299925
370
    25
100
AcDbLine
 10
102.1706105731105
 20
-145.1679153718154
 30
0.0
 11
101.6566133640014
 21
-145.5496562050534
 31
0.0
  0
LINE
  5
D4
330
70
100
AcDbEntity
  8
レイヤー 1
 62
   250
420
  2299925
370
    25
100
AcDbLine
 10
101.6566133640014
 20
-145.5496562050534
 30
0.0
 11
101.1708383763946
 21
-145.1321084273799
 31
0.0
  0
LINE
  5
D5
330
70
100
AcDbEntity
  8
レイヤー 1
 62
   250
420
  2299925
370
    25
100
AcDbLine
 10
101.1708383763946
 20
-145.1321084273799
 30
0.0
 11
100.6568411672855
 21
-145.5138139828399
 31
0.0
  0
LINE
  5
D6
330
70
100
AcDbEntity
  8
レイヤー 1
 62
   250
420
  2299925
370
    25
100
AcDbLine
 10
100.6568411672855
 20
-145.5138139828399
 30
0.0
 11
100.1717717352162
 21
-145.0962662051667
 31
0.0
  0
LINE
  5
D7
330
70
100
AcDbEntity
  8
レイヤー 1
 62
   250
420
  2299925
370
    25
100
AcDbLine
 10
100.0977745259982
 20
-145.0480414829565
 30
0.0
 11
99.15753564998045
 21
-145.0480414829565
 31
0.0
  0
LINE
  5
D8
330
70
100
AcDbEntity
  8
レイヤー 1
 62
   250
420
  2299925
370
    25
100
AcDbLine
 10
100.1573078466963
 20
-146.3103156493079
 30
0.0
 11
100.1573078466963
 21
-154.0046106473839
 31
0.0
  0
SPLINE
  5
D9
330
70
100
AcDbEntity
  8
レイヤー 1
 62
   250
420
  2299925
370
     9
100
AcDbSpline
210
0.0
220
0.0
230
1.0
 70
     9
 71
     3
 72
    17
 73
    13
 74
     0
 42
0.0000000001
 43
0.0000000001
 40
0.0
 40
0.0
 40
0.0
 40
0.0
 40
1.0
 40
1.0
 40
1.0
 40
2.0
 40
2.0
 40
2.0
 40
3.0
 40
3.0
 40
3.0
 40
4.0
 40
4.0
 40
4.0
 40
4.0
 10
66.13146871476783
 20
-141.04828231729
 30
0.0
 10
66.13146871476783
 20
-140.9928256506369
 30
0.0
 10
66.08670121590994
 20
-140.9480228728709
 30
0.0
 10
66.03156205064999
 20
-140.9480228728709
 30
0.0
 10
65.97575260762936
 20
-140.9480228728709
 30
0.0
 10
65.9309851087718
 20
-140.9928256506369
 30
0.0
 10
65.9309851087718
 20
-141.04828231729
 30
0.0
 10
65.9309851087718
 20
-141.1034214839427
 30
0.0
 10
65.97575260762936
 20
-141.1481889839313
 30
0.0
 10
66.03156205064999
 20
-141.1481889839313
 30
0.0
 10
66.08670121590994
 20
-141.1481889839313
 30
0.0
 10
66.13146871476783
 20
-141.1034214839427
 30
0.0
 10
66.13146871476783
 20
-141.04828231729
 30
0.0
  0
SPLINE
  5
DA
330
70
100
AcDbEntity
  8
レイヤー 1
 62
   250
420
  2299925
370
     9
100
AcDbSpline
210
0.0
220
0.0
230
1.0
 70
     9
 71
     3
 72
    17
 73
    13
 74
     0
 42
0.0000000001
 43
0.0000000001
 40
0.0
 40
0.0
 40
0.0
 40
0.0
 40
1.0
 40
1.0
 40
1.0
 40
2.0
 40
2.0
 40
2.0
 40
3.0
 40
3.0
 40
3.0
 40
4.0
 40
4.0
 40
4.0
 40
4.0
 10
63.90180738276233
 20
-145.8101120383217
 30
0.0
 10
63.90180738276233
 20
-145.7549728716689
 30
0.0
 10
63.85703988390446
 20
-145.7101700939022
 30
0.0
 10
63.80123044088414
 20
-145.7101700939022
 30
0.0
 10
63.74609360608998
 20
-145.7101700939022
 30
0.0
 10
63.70129082832326
 20
-145.7549728716689
 30
0.0
 10
63.70129082832326
 20
-145.8101120383217
 30
0.0
 10
63.70129082832326
 20
-145.8652159271969
 30
0.0
 10
63.74609360608998
 20
-145.9100187049633
 30
0.0
 10
63.80123044088414
 20
-145.9100187049633
 30
0.0
 10
63.85703988390446
 20
-145.9100187049633
 30
0.0
 10
63.90180738276233
 20
-145.8652159271969
 30
0.0
 10
63.90180738276233
 20
-145.8101120383217
 30
0.0
  0
SPLINE
  5
DB
330
70
100
AcDbEntity
  8
レイヤー 1
 62
   250
420
  2299925
370
     9
100
AcDbSpline
210
0.0
220
0.0
230
1.0
 70
     9
 71
     3
 72
    17
 73
    13
 74
     0
 42
0.0000000001
 43
0.0000000001
 40
0.0
 40
0.0
 40
0.0
 40
0.0
 40
1.0
 40
1.0
 40
1.0
 40
2.0
 40
2.0
 40
2.0
 40
3.0
 40
3.0
 40
3.0
 40
4.0
 40
4.0
 40
4.0
 40
4.0
 10
63.90180738276233
 20
-146.3103156493079
 30
0.0
 10
63.90180738276233
 20
-146.2552117604326
 30
0.0
 10
63.85703988390446
 20
-146.2104089826659
 30
0.0
 10
63.80123044088414
 20
-146.2104089826659
 30
0.0
 10
63.74609360608998
 20
-146.2104089826659
 30
0.0
 10
63.70129082832326
 20
-146.2552117604326
 30
0.0
 10
63.70129082832326
 20
-146.3103156493079
 30
0.0
 10
63.70129082832326
 20
-146.3654548159606
 30
0.0
 10
63.74609360608998
 20
-146.4102223159495
 30
0.0
 10
63.80123044088414
 20
-146.4102223159495
 30
0.0
 10
63.85703988390446
 20
-146.4102223159495
 30
0.0
 10
63.90180738276233
 20
-146.3654548159606
 30
0.0
 10
63.90180738276233
 20
-146.3103156493079
 30
0.0
  0
SPLINE
  5
DC
330
70
100
AcDbEntity
  8
レイヤー 1
 62
   250
420
  2299925
370
     9
100
AcDbSpline
210
0.0
220
0.0
230
1.0
 70
     9
 71
     3
 72
    17
 73
    13
 74
     0
 42
0.0000000001
 43
0.0000000001
 40
0.0
 40
0.0
 40
0.0
 40
0.0
 40
1.0
 40
1.0
 40
1.0
 40
2.0
 40
2.0
 40
2.0
 40
3.0
 40
3.0
 40
3.0
 40
4.0
 40
4.0
 40
4.0
 40
4.0
 10
63.90180738276233
 20
-154.0046106473839
 30
0.0
 10
63.90180738276233
 20
-153.9494714807314
 30
0.0
 10
63.85703988390446
 20
-153.9047039807429
 30
0.0
 10
63.80123044088414
 20
-153.9047039807429
 30
0.0
 10
63.74609360608998
 20
-153.9047039807429
 30
0.0
 10
63.70129082832326
 20
-153.9494714807314
 30
0.0
 10
63.70129082832326
 20
-154.0046106473839
 30
0.0
 10
63.70129082832326
 20
-154.0597145362594
 30
0.0
 10
63.74609360608998
 20
-154.1045173140261
 30
0.0
 10
63.80123044088414
 20
-154.1045173140261
 30
0.0
 10
63.85703988390446
 20
-154.1045173140261
 30
0.0
 10
63.90180738276233
 20
-154.0597145362594
 30
0.0
 10
63.90180738276233
 20
-154.0046106473839
 30
0.0
  0
SPLINE
  5
DD
330
70
100
AcDbEntity
  8
レイヤー 1
 62
   250
420
  2299925
370
     9
100
AcDbSpline
210
0.0
220
0.0
230
1.0
 70
     9
 71
     3
 72
    17
 73
    13
 74
     0
 42
0.0000000001
 43
0.0000000001
 40
0.0
 40
0.0
 40
0.0
 40
0.0
 40
1.0
 40
1.0
 40
1.0
 40
2.0
 40
2.0
 40
2.0
 40
3.0
 40
3.0
 40
3.0
 40
4.0
 40
4.0
 40
4.0
 40
4.0
 10
87.13279082246542
 20
-141.04828231729
 30
0.0
 10
87.13279082246542
 20
-140.9928256506369
 30
0.0
 10
87.0879880446987
 20
-140.9480228728709
 30
0.0
 10
87.03288123708393
 20
-140.9480228728709
 30
0.0
 10
86.97707179406329
 20
-140.9480228728709
 30
0.0
 10
86.93226901742853
 20
-140.9928256506369
 30
0.0
 10
86.93226901742853
 20
-141.04828231729
 30
0.0
 10
86.93226901742853
 20
-141.1034214839427
 30
0.0
 10
86.97707179406329
 20
-141.1481889839313
 30
0.0
 10
87.03288123708393
 20
-141.1481889839313
 30
0.0
 10
87.0879880446987
 20
-141.1481889839313
 30
0.0
 10
87.13279082246542
 20
-141.1034214839427
 30
0.0
 10
87.13279082246542
 20
-141.04828231729
 30
0.0
  0
SPLINE
  5
DE
330
70
100
AcDbEntity
  8
レイヤー 1
 62
   250
420
  2299925
370
     9
100
AcDbSpline
210
0.0
220
0.0
230
1.0
 70
     9
 71
     3
 72
    17
 73
    13
 74
     0
 42
0.0000000001
 43
0.0000000001
 40
0.0
 40
0.0
 40
0.0
 40
0.0
 40
1.0
 40
1.0
 40
1.0
 40
2.0
 40
2.0
 40
2.0
 40
3.0
 40
3.0
 40
3.0
 40
4.0
 40
4.0
 40
4.0
 40
4.0
 10
120.2587615005325
 20
-141.04828231729
 30
0.0
 10
120.2587615005325
 20
-140.9928256506369
 30
0.0
 10
120.2139587238977
 20
-140.9480228728709
 30
0.0
 10
120.1588548364147
 20
-140.9480228728709
 30
0.0
 10
120.1037156711547
 20
-140.9480228728709
 30
0.0
 10
120.0589519253455
 20
-140.9928256506369
 30
0.0
 10
120.0589519253455
 20
-141.04828231729
 30
0.0
 10
120.0589519253455
 20
-141.1034214839427
 30
0.0
 10
120.1037156711547
 20
-141.1481889839313
 30
0.0
 10
120.1588548364147
 20
-141.1481889839313
 30
0.0
 10
120.2139587238977
 20
-141.1481889839313
 30
0.0
 10
120.2587615005325
 20
-141.1034214839427
 30
0.0
 10
120.2587615005325
 20
-141.04828231729
 30
0.0
  0
SPLINE
  5
DF
330
70
100
AcDbEntity
  8
レイヤー 1
 62
   250
420
  2299925
370
     9
100
AcDbSpline
210
0.0
220
0.0
230
1.0
 70
     9
 71
     3
 72
    17
 73
    13
 74
     0
 42
0.0000000001
 43
0.0000000001
 40
0.0
 40
0.0
 40
0.0
 40
0.0
 40
1.0
 40
1.0
 40
1.0
 40
2.0
 40
2.0
 40
2.0
 40
3.0
 40
3.0
 40
3.0
 40
4.0
 40
4.0
 40
4.0
 40
4.0
 10
99.25744231409796
 20
-141.04828231729
 30
0.0
 10
99.25744231409796
 20
-140.9928256506369
 30
0.0
 10
99.2126748152404
 20
-140.9480228728709
 30
0.0
 10
99.15753564998045
 20
-140.9480228728709
 30
0.0
 10
99.10243176249737
 20
-140.9480228728709
 30
0.0
 10
99.0576289858626
 20
-140.9928256506369
 30
0.0
 10
99.0576289858626
 20
-141.04828231729
 30
0.0
 10
99.0576289858626
 20
-141.1034214839427
 30
0.0
 10
99.10243176249737
 20
-141.1481889839313
 30
0.0
 10
99.15753564998045
 20
-141.1481889839313
 30
0.0
 10
99.2126748152404
 20
-141.1481889839313
 30
0.0
 10
99.25744231409796
 20
-141.1034214839427
 30
0.0
 10
99.25744231409796
 20
-141.04828231729
 30
0.0
  0
LINE
  5
E0
330
70
100
AcDbEntity
  8
レイヤー 1
 62
   250
420
  2299925
370
     9
100
AcDbLine
 10
63.80123044088414
 20
-145.8101120383217
 30
0.0
 11
63.80123044088414
 21
-140.5525237063027
 31
0.0
  0
LINE
  5
E1
330
70
100
AcDbEntity
  8
レイヤー 1
 62
   250
420
  2299925
370
     9
100
AcDbLine
 10
63.80123044088414
 20
-145.8101120383217
 30
0.0
 11
63.80123044088414
 21
-146.3103156493079
 31
0.0
  0
LINE
  5
E2
330
70
100
AcDbEntity
  8
レイヤー 1
 62
   250
420
  2299925
370
     9
100
AcDbLine
 10
65.26123651474708
 20
-145.8101120383217
 30
0.0
 11
62.80145824416791
 21
-145.8101120383217
 31
0.0
  0
LINE
  5
E3
330
70
100
AcDbEntity
  8
レイヤー 1
 62
   250
420
  2299925
370
     9
100
AcDbLine
 10
65.26123651474708
 20
-146.3103156493079
 30
0.0
 11
62.80145824416791
 21
-146.3103156493079
 31
0.0
  0
INSERT
  5
E5
330
70
100
AcDbEntity
  8
レイヤー 1
100
AcDbBlockReference
  2
Block_0
 10
0.0
 20
0.0
 30
0.0
  0
LINE
  5
F3
330
70
100
AcDbEntity
  8
レイヤー 1
 62
   250
420
  2299925
370
     9
100
AcDbLine
 10
66.03156205064999
 20
-141.04828231729
 30
0.0
 11
87.03288123708393
 21
-141.04828231729
 31
0.0
  0
LINE
  5
F4
330
70
100
AcDbEntity
  8
レイヤー 1
 62
   250
420
  2299925
370
     9
100
AcDbLine
 10
66.03156205064999
 20
-143.270358983401
 30
0.0
 11
66.03156205064999
 21
-140.04815731754
 31
0.0
  0
INSERT
  5
F6
330
70
100
AcDbEntity
  8
レイヤー 1
100
AcDbBlockReference
  2
Block_2
 10
0.0
 20
0.0
 30
0.0
  0
LINE
  5
101
330
70
100
AcDbEntity
  8
レイヤー 1
 62
   250
420
  2299925
370
     9
100
AcDbLine
 10
63.80123044088414
 20
-146.3103156493079
 30
0.0
 11
63.80123044088414
 21
-154.0046106473839
 31
0.0
  0
LINE
  5
102
330
70
100
AcDbEntity
  8
レイヤー 1
 62
   250
420
  2299925
370
     9
100
AcDbLine
 10
85.2627835044651
 20
-154.0046106473839
 30
0.0
 11
62.80145824416791
 21
-154.0046106473839
 31
0.0
  0
INSERT
  5
104
330
70
100
AcDbEntity
  8
レイヤー 1
100
AcDbBlockReference
  2
Block_4
 10
0.0
 20
0.0
 30
0.0
  0
LINE
  5
10B
330
70
100
AcDbEntity
  8
レイヤー 1
 62
   250
420
  2299925
370
     9
100
AcDbLine
 10
120.1588548364147
 20
-141.04828231729
 30
0.0
 11
99.15753564998045
 21
-141.04828231729
 31
0.0
  0
LINE
  5
10C
330
70
100
AcDbEntity
  8
レイヤー 1
 62
   250
420
  2299925
370
     9
100
AcDbLine
 10
120.1588548364147
 20
-143.270358983401
 30
0.0
 11
120.1588548364147
 21
-140.04815731754
 31
0.0
  0
INSERT
  5
10E
330
70
100
AcDbEntity
  8
レイヤー 1
100
AcDbBlockReference
  2
Block_5
 10
0.0
 20
0.0
 30
0.0
  0
LINE
  5
119
330
70
100
AcDbEntity
  8
レイヤー 1
 62
   250
420
  2299925
370
     9
100
AcDbLine
 10
87.03288123708393
 20
-141.04828231729
 30
0.0
 11
99.15753564998045
 21
-141.04828231729
 31
0.0
  0
LINE
  5
11A
330
70
100
AcDbEntity
  8
レイヤー 1
 62
   250
420
  2299925
370
     9
100
AcDbLine
 10
87.03288123708393
 20
-142.5083237058137
 30
0.0
 11
87.03288123708393
 21
-140.04815731754
 31
0.0
  0
LINE
  5
11B
330
70
100
AcDbEntity
  8
レイヤー 1
 62
   250
420
  2299925
370
     9
100
AcDbLine
 10
99.15753564998045
 20
-142.5083237058137
 30
0.0
 11
99.15753564998045
 21
-140.04815731754
 31
0.0
  0
INSERT
  5
11D
330
70
100
AcDbEntity
  8
レイヤー 1
100
AcDbBlockReference
  2
Block_7
 10
0.0
 20
0.0
 30
0.0
  0
SPLINE
  5
128
330
70
100
AcDbEntity
  8
レイヤー 1
 62
   250
420
  2299925
370
     9
100
AcDbSpline
210
0.0
220
0.0
230
1.0
 70
     9
 71
     3
 72
    17
 73
    13
 74
     0
 42
0.0000000001
 43
0.0000000001
 40
0.0
 40
0.0
 40
0.0
 40
0.0
 40
1.0
 40
1.0
 40
1.0
 40
2.0
 40
2.0
 40
2.0
 40
3.0
 40
3.0
 40
3.0
 40
4.0
 40
4.0
 40
4.0
 40
4.0
 10
86.26047431234523
 20
-158.1180348130225
 30
0.0
 10
86.26047431234523
 20
-158.062930924147
 30
0.0
 10
86.21570681348734
 20
-158.0181281463809
 30
0.0
 10
86.15989737046671
 20
-158.0181281463809
 30
0.0
 10
86.10546376074431
 20
-158.0181281463809
 30
0.0
 10
86.06066098410954
 20
-158.062930924147
 30
0.0
 10
86.06066098410954
 20
-158.1180348130225
 30
0.0
 10
86.06066098410954
 20
-158.173173979675
 30
0.0
 10
86.10546376074431
 20
-158.2179414796642
 30
0.0
 10
86.15989737046671
 20
-158.2179414796642
 30
0.0
 10
86.21570681348734
 20
-158.2179414796642
 30
0.0
 10
86.26047431234523
 20
-158.173173979675
 30
0.0
 10
86.26047431234523
 20
-158.1180348130225
 30
0.0
  0
CIRCLE
  5
129
330
70
100
AcDbEntity
  8
レイヤー 1
 62
   250
420
  2299925
370
     9
100
AcDbCircle
 10
100.1573078466963
 20
-158.1180348130225
 30
0.0
 40
0.0999066653797365
  0
LINE
  5
12A
330
70
100
AcDbEntity
  8
レイヤー 1
 62
   250
420
  2299925
370
     9
100
AcDbLine
 10
100.157978124457
 20
-158.1180348130225
 30
0.0
 11
86.15989737046671
 21
-158.1180348130225
 31
0.0
  0
LINE
  5
12B
330
70
100
AcDbEntity
  8
レイヤー 1
 62
   250
420
  2299925
370
     9
100
AcDbLine
 10
100.157978124457
 20
-156.6580287022763
 30
0.0
 11
100.157978124457
 21
-159.1181598127722
 31
0.0
  0
LINE
  5
12C
330
70
100
AcDbEntity
  8
レイヤー 1
 62
   250
420
  2299925
370
     9
100
AcDbLine
 10
86.15989737046671
 20
-156.6580287022763
 30
0.0
 11
86.15989737046671
 21
-159.1181598127722
 31
0.0
  0
INSERT
  5
12E
330
70
100
AcDbEntity
  8
レイヤー 1
100
AcDbBlockReference
  2
Block_9
 10
0.0
 20
0.0
 30
0.0
  0
LINE
  5
13A
330
70
100
AcDbEntity
  8
レイヤー 1
 62
   250
420
  2299925
370
     9
100
AcDbLine
 10
97.13319097940356
 20
-150.4554545371604
 30
0.0
 11
105.1334146641897
 21
-150.4554545371604
 31
0.0
  0
INSERT
  5
13C
330
70
100
AcDbEntity
  8
レイヤー 1
100
AcDbBlockReference
  2
Block_11
 10
0.0
 20
0.0
 30
0.0
  0
INSERT
  5
142
330
70
100
AcDbEntity
  8
レイヤー 1
100
AcDbBlockReference
  2
Block_12
 10
0.0
 20
0.0
 30
0.0
  0
INSERT
  5
17C
330
70
100
AcDbEntity
  8
レイヤー 1
100
AcDbBlockReference
  2
Block_13
 10
0.0
 20
0.0
 30
0.0
  0
ENDSEC
  0
SECTION
  2
OBJECTS
  0
DICTIONARY
  5
C
330
0
100
AcDbDictionary
281
     1
  3
ACAD_COLOR
350
63
  3
ACAD_DETAILVIEWSTYLE
350
6A
  3
ACAD_GROUP
350
D
  3
ACAD_LAYOUT
350
62
  3
ACAD_MATERIAL
350
10
  3
ACAD_MLEADERSTYLE
350
66
  3
ACAD_MLINESTYLE
350
5F
  3
ACAD_PLOTSETTINGS
350
61
  3
ACAD_PLOTSTYLENAME
350
E
  3
ACAD_SCALELIST
350
42
  3
ACAD_SECTIONVIEWSTYLE
350
68
  3
ACAD_TABLESTYLE
350
64
  3
ACAD_VISUALSTYLE
350
29
  3
ACDB_RECOMPOSE_DATA
350
1A9
  3
AcDbVariableDictionary
350
1A1
  0
DICTIONARY
  5
63
102
{ACAD_REACTORS
330
C
102
}
330
C
100
AcDbDictionary
281
     1
  0
DICTIONARY
  5
6A
102
{ACAD_REACTORS
330
C
102
}
330
C
100
AcDbDictionary
281
     1
  3
Imperial24
350
6B
  0
DICTIONARY
  5
D
102
{ACAD_REACTORS
330
C
102
}
330
C
100
AcDbDictionary
281
     1
  0
DICTIONARY
  5
62
102
{ACAD_REACTORS
330
C
102
}
330
C
100
AcDbDictionary
281
     1
  3
Layout1
350
6F
  3
Layout2
350
77
  3
Model
350
73
  0
DICTIONARY
  5
10
102
{ACAD_REACTORS
330
C
102
}
330
C
100
AcDbDictionary
281
     1
  3
ByBlock
350
19
  3
ByLayer
350
11
  3
Global
350
21
  0
DICTIONARY
  5
66
102
{ACAD_REACTORS
330
C
102
}
330
C
100
AcDbDictionary
281
     1
  3
Standard
350
67
  0
DICTIONARY
  5
5F
102
{ACAD_REACTORS
330
C
102
}
330
C
100
AcDbDictionary
281
     1
  3
Standard
350
60
  0
DICTIONARY
  5
61
102
{ACAD_REACTORS
330
C
102
}
330
C
100
AcDbDictionary
281
     1
  0
ACDBDICTIONARYWDFLT
  5
E
102
{ACAD_REACTORS
330
C
102
}
330
C
100
AcDbDictionary
281
     1
  3
Normal
350
F
100
AcDbDictionaryWithDefault
340
F
  0
DICTIONARY
  5
42
102
{ACAD_REACTORS
330
C
102
}
330
C
100
AcDbDictionary
281
     1
  3
A0
350
43
  3
A1
350
44
  3
A2
350
45
  3
A3
350
46
  3
A4
350
47
  3
A5
350
48
  3
A6
350
49
  3
A7
350
4A
  3
A8
350
4B
  3
A9
350
4C
  3
B0
350
4D
  3
B1
350
4E
  3
B2
350
4F
  3
B3
350
50
  3
B4
350
51
  3
B5
350
52
  3
B6
350
53
  0
DICTIONARY
  5
68
102
{ACAD_REACTORS
330
C
102
}
330
C
100
AcDbDictionary
281
     1
  3
Imperial24
350
69
  0
DICTIONARY
  5
64
102
{ACAD_REACTORS
330
C
102
}
330
C
100
AcDbDictionary
281
     1
  3
Standard
350
65
  0
DICTIONARY
  5
29
102
{ACAD_REACTORS
330
C
102
}
330
C
100
AcDbDictionary
281
     1
  3
2dWireframe
350
2F
  3
Basic
350
2E
  3
Brighten
350
35
  3
ColorChange
350
39
  3
Conceptual
350
32
  3
Dim
350
34
  3
EdgeColorOff
350
41
  3
Facepattern
350
38
  3
Flat
350
2A
  3
FlatWithEdges
350
2B
  3
Gouraud
350
2C
  3
GouraudWithEdges
350
2D
  3
Hidden
350
31
  3
JitterOff
350
3F
  3
Linepattern
350
37
  3
OverhangOff
350
40
  3
Realistic
350
33
  3
Shaded
350
3E
  3
Shaded with edges
350
3D
  3
Shades of Gray
350
3A
  3
Sketchy
350
3B
  3
Thicken
350
36
  3
Wireframe
350
30
  3
X-Ray
350
3C
  0
XRECORD
  5
1A9
102
{ACAD_REACTORS
330
C
102
}
330
C
100
AcDbXrecord
280
     1
 90
        1
330
65
  0
DICTIONARY
  5
1A1
102
{ACAD_REACTORS
330
C
102
}
330
C
100
AcDbDictionary
281
     1
  3
CANNOSCALE
350
1A6
  3
CMLEADERSTYLE
350
1A3
  3
CTABLESTYLE
350
1A2
  3
CVIEWDETAILSTYLE
350
1A4
  3
CVIEWSECTIONSTYLE
350
1A5
  0
ACDBDETAILVIEWSTYLE
  5
6B
102
{ACAD_XDICTIONARY
360
1DE
102
}
102
{ACAD_REACTORS
330
6A
102
}
330
6A
100
AcDbModelDocViewStyle
 70
     0
  3
Imperial24
290
     0
100
AcDbDetailViewStyle
 70
     0
 71
     0
 90
        3
 71
     1
340
55
 62
   256
 40
0.24
340
0
 62
   256
 40
0.24
300

 40
0.36
280
     3
 71
     2
340
5D
 90
       25
 62
   256
 71
     3
340
55
 62
   256
 40
0.24
 90
        1
 40
0.75
 90
        1
300
%<\AcVar ViewType \f "%tc1">% %<\AcVar ViewDetailId>%\PSCALE %<\AcVar ViewScale \f "%sn">%
 71
     4
340
5D
 90
       25
 62
   256
340
5D
 90
       25
 62
   256
280
     0
  0
LAYOUT
  5
6F
102
{ACAD_REACTORS
330
62
102
}
330
62
100
AcDbPlotSettings
  1

  2

  4

  6

 40
0.0
 41
0.0
 42
0.0
 43
0.0
 44
0.0
 45
0.0
 46
0.0
 47
0.0
 48
0.0
 49
0.0
140
0.0
141
0.0
142
1.0
143
1.0
 70
   688
 72
     0
 73
     0
 74
     5
  7

 75
    16
147
1.0
 76
     0
 77
     2
 78
   300
148
0.0
149
0.0
100
AcDbLayout
  1
Layout1
 70
     1
 71
     1
 10
0.0
 20
0.0
 11
12.0
 21
9.0
 12
0.0
 22
0.0
 32
0.0
 14
0.0
 24
0.0
 34
0.0
 15
0.0
 25
0.0
 35
0.0
146
0.0
 13
0.0
 23
0.0
 33
0.0
 16
1.0
 26
0.0
 36
0.0
 17
0.0
 27
1.0
 37
0.0
 76
     0
330
6C
  0
LAYOUT
  5
77
102
{ACAD_REACTORS
330
62
102
}
330
62
100
AcDbPlotSettings
  1

  2

  4

  6

 40
0.0
 41
0.0
 42
0.0
 43
0.0
 44
0.0
 45
0.0
 46
0.0
 47
0.0
 48
0.0
 49
0.0
140
0.0
141
0.0
142
1.0
143
1.0
 70
   688
 72
     0
 73
     0
 74
     5
  7

 75
    16
147
1.0
 76
     0
 77
     2
 78
   300
148
0.0
149
0.0
100
AcDbLayout
  1
Layout2
 70
     1
 71
     2
 10
0.0
 20
0.0
 11
12.0
 21
9.0
 12
0.0
 22
0.0
 32
0.0
 14
0.0
 24
0.0
 34
0.0
 15
0.0
 25
0.0
 35
0.0
146
0.0
 13
0.0
 23
0.0
 33
0.0
 16
1.0
 26
0.0
 36
0.0
 17
0.0
 27
1.0
 37
0.0
 76
     0
330
74
  0
LAYOUT
  5
73
102
{ACAD_REACTORS
330
62
102
}
330
62
100
AcDbPlotSettings
  1

  2

  4

  6

 40
0.0
 41
0.0
 42
0.0
 43
0.0
 44
0.0
 45
0.0
 46
0.0
 47
0.0
 48
0.0
 49
0.0
140
0.0
141
0.0
142
1.0
143
1.0
 70
  1712
 72
     0
 73
     0
 74
     0
  7

 75
     0
147
1.0
 76
     0
 77
     2
 78
   300
148
0.0
149
0.0
100
AcDbLayout
  1
Model
 70
     1
 71
     0
 10
0.0
 20
0.0
 11
12.0
 21
9.0
 12
0.0
 22
0.0
 32
0.0
 14
0.0
 24
0.0
 34
0.0
 15
0.0
 25
0.0
 35
0.0
146
0.0
 13
0.0
 23
0.0
 33
0.0
 16
1.0
 26
0.0
 36
0.0
 17
0.0
 27
1.0
 37
0.0
 76
     0
330
70
  0
MATERIAL
  5
19
102
{ACAD_XDICTIONARY
360
1A
102
}
102
{ACAD_REACTORS
330
10
102
}
330
10
100
AcDbMaterial
  1
ByBlock
 72
     0
 43
0.0208333333333333
 43
0.0
 43
0.0
 43
0.0
 43
0.0
 43
0.0208333333333333
 43
0.0
 43
0.0
 43
0.0
 43
0.0
 43
1.0
 43
0.0
 43
0.0
 43
0.0
 43
0.0
 43
1.0
 77
     0
 47
0.0208333333333333
 47
0.0
 47
0.0
 47
0.0
 47
0.0
 47
0.0208333333333333
 47
0.0
 47
0.0
 47
0.0
 47
0.0
 47
1.0
 47
0.0
 47
0.0
 47
0.0
 47
0.0
 47
1.0
171
     0
 49
0.0208333333333333
 49
0.0
 49
0.0
 49
0.0
 49
0.0
 49
0.0208333333333333
 49
0.0
 49
0.0
 49
0.0
 49
0.0
 49
1.0
 49
0.0
 49
0.0
 49
0.0
 49
0.0
 49
1.0
175
     0
142
0.0208333333333333
142
0.0
142
0.0
142
0.0
142
0.0
142
0.0208333333333333
142
0.0
142
0.0
142
0.0
142
0.0
142
1.0
142
0.0
142
0.0
142
0.0
142
0.0
142
1.0
179
     0
144
0.0208333333333333
144
0.0
144
0.0
144
0.0
144
0.0
144
0.0208333333333333
144
0.0
144
0.0
144
0.0
144
0.0
144
1.0
144
0.0
144
0.0
144
0.0
144
0.0
144
1.0
147
0.0208333333333333
147
0.0
147
0.0
147
0.0
147
0.0
147
0.0208333333333333
147
0.0
147
0.0
147
0.0
147
0.0
147
1.0
147
0.0
147
0.0
147
0.0
147
0.0
147
1.0
  0
MATERIAL
  5
11
102
{ACAD_XDICTIONARY
360
12
102
}
102
{ACAD_REACTORS
330
10
102
}
330
10
100
AcDbMaterial
  1
ByLayer
 72
     0
 43
0.0208333333333333
 43
0.0
 43
0.0
 43
0.0
 43
0.0
 43
0.0208333333333333
 43
0.0
 43
0.0
 43
0.0
 43
0.0
 43
1.0
 43
0.0
 43
0.0
 43
0.0
 43
0.0
 43
1.0
 77
     0
 47
0.0208333333333333
 47
0.0
 47
0.0
 47
0.0
 47
0.0
 47
0.0208333333333333
 47
0.0
 47
0.0
 47
0.0
 47
0.0
 47
1.0
 47
0.0
 47
0.0
 47
0.0
 47
0.0
 47
1.0
171
     0
 49
0.0208333333333333
 49
0.0
 49
0.0
 49
0.0
 49
0.0
 49
0.0208333333333333
 49
0.0
 49
0.0
 49
0.0
 49
0.0
 49
1.0
 49
0.0
 49
0.0
 49
0.0
 49
0.0
 49
1.0
175
     0
142
0.0208333333333333
142
0.0
142
0.0
142
0.0
142
0.0
142
0.0208333333333333
142
0.0
142
0.0
142
0.0
142
0.0
142
1.0
142
0.0
142
0.0
142
0.0
142
0.0
142
1.0
179
     0
144
0.0208333333333333
144
0.0
144
0.0
144
0.0
144
0.0
144
0.0208333333333333
144
0.0
144
0.0
144
0.0
144
0.0
144
1.0
144
0.0
144
0.0
144
0.0
144
0.0
144
1.0
147
0.0208333333333333
147
0.0
147
0.0
147
0.0
147
0.0
147
0.0208333333333333
147
0.0
147
0.0
147
0.0
147
0.0
147
1.0
147
0.0
147
0.0
147
0.0
147
0.0
147
1.0
  0
MATERIAL
  5
21
102
{ACAD_XDICTIONARY
360
22
102
}
102
{ACAD_REACTORS
330
10
102
}
330
10
100
AcDbMaterial
  1
Global
 72
     0
 43
0.0208333333333333
 43
0.0
 43
0.0
 43
0.0
 43
0.0
 43
0.0208333333333333
 43
0.0
 43
0.0
 43
0.0
 43
0.0
 43
1.0
 43
0.0
 43
0.0
 43
0.0
 43
0.0
 43
1.0
 77
     0
 47
0.0208333333333333
 47
0.0
 47
0.0
 47
0.0
 47
0.0
 47
0.0208333333333333
 47
0.0
 47
0.0
 47
0.0
 47
0.0
 47
1.0
 47
0.0
 47
0.0
 47
0.0
 47
0.0
 47
1.0
171
     0
 49
0.0208333333333333
 49
0.0
 49
0.0
 49
0.0
 49
0.0
 49
0.0208333333333333
 49
0.0
 49
0.0
 49
0.0
 49
0.0
 49
1.0
 49
0.0
 49
0.0
 49
0.0
 49
0.0
 49
1.0
175
     0
142
0.0208333333333333
142
0.0
142
0.0
142
0.0
142
0.0
142
0.0208333333333333
142
0.0
142
0.0
142
0.0
142
0.0
142
1.0
142
0.0
142
0.0
142
0.0
142
0.0
142
1.0
179
     0
144
0.0208333333333333
144
0.0
144
0.0
144
0.0
144
0.0
144
0.0208333333333333
144
0.0
144
0.0
144
0.0
144
0.0
144
1.0
144
0.0
144
0.0
144
0.0
144
0.0
144
1.0
147
0.0208333333333333
147
0.0
147
0.0
147
0.0
147
0.0
147
0.0208333333333333
147
0.0
147
0.0
147
0.0
147
0.0
147
1.0
147
0.0
147
0.0
147
0.0
147
0.0
147
1.0
  0
MLEADERSTYLE
  5
67
102
{ACAD_XDICTIONARY
360
1DA
102
}
102
{ACAD_REACTORS
330
66
102
}
330
66
100
AcDbMLeaderStyle
179
     2
170
     2
171
     1
172
     0
 90
        2
 40
0.0
 41
0.0
173
     1
 91
-1056964608
340
5B
 92
       -2
290
     1
 42
0.09
291
     1
 43
0.36
  3
Standard
 44
0.18
300

342
55
174
     1
178
     6
175
     1
176
     0
 93
-1056964608
 45
0.18
292
     0
297
     0
 46
0.18
 94
-1056964608
 47
1.0
 49
1.0
140
1.0
293
     1
141
0.0
294
     1
177
     0
142
1.0
295
     0
296
     0
143
0.125
271
     0
272
     9
273
     9
  0
MLINESTYLE
  5
60
102
{ACAD_REACTORS
330
5F
102
}
330
5F
100
AcDbMlineStyle
  2
STANDARD
 70
     0
  3

 62
   256
 51
90.0
 52
90.0
 71
     2
 49
0.5
 62
   256
  6
BYLAYER
 49
-0.5
 62
   256
  6
BYLAYER
  0
ACDBPLACEHOLDER
  5
F
102
{ACAD_REACTORS
330
E
102
}
330
E
  0
SCALE
  5
43
102
{ACAD_REACTORS
330
42
102
}
330
42
100
AcDbScale
 70
     0
300
1:1
140
1.0
141
1.0
290
     1
  0
SCALE
  5
44
102
{ACAD_REACTORS
330
42
102
}
330
42
100
AcDbScale
 70
     0
300
1/128" = 1'-0"
140
0.0078125
141
12.0
290
     0
  0
SCALE
  5
45
102
{ACAD_REACTORS
330
42
102
}
330
42
100
AcDbScale
 70
     0
300
1/64" = 1'-0"
140
0.015625
141
12.0
290
     0
  0
SCALE
  5
46
102
{ACAD_REACTORS
330
42
102
}
330
42
100
AcDbScale
 70
     0
300
1/32" = 1'-0"
140
0.03125
141
12.0
290
     0
  0
SCALE
  5
47
102
{ACAD_REACTORS
330
42
102
}
330
42
100
AcDbScale
 70
     0
300
1/16" = 1'-0"
140
0.0625
141
12.0
290
     0
  0
SCALE
  5
48
102
{ACAD_REACTORS
330
42
102
}
330
42
100
AcDbScale
 70
     0
300
3/32" = 1'-0"
140
0.09375
141
12.0
290
     0
  0
SCALE
  5
49
102
{ACAD_REACTORS
330
42
102
}
330
42
100
AcDbScale
 70
     0
300
1/8" = 1'-0"
140
0.125
141
12.0
290
     0
  0
SCALE
  5
4A
102
{ACAD_REACTORS
330
42
102
}
330
42
100
AcDbScale
 70
     0
300
3/16" = 1'-0"
140
0.1875
141
12.0
290
     0
  0
SCALE
  5
4B
102
{ACAD_REACTORS
330
42
102
}
330
42
100
AcDbScale
 70
     0
300
1/4" = 1'-0"
140
0.25
141
12.0
290
     0
  0
SCALE
  5
4C
102
{ACAD_REACTORS
330
42
102
}
330
42
100
AcDbScale
 70
     0
300
3/8" = 1'-0"
140
0.375
141
12.0
290
     0
  0
SCALE
  5
4D
102
{ACAD_REACTORS
330
42
102
}
330
42
100
AcDbScale
 70
     0
300
1/2" = 1'-0"
140
0.5
141
12.0
290
     0
  0
SCALE
  5
4E
102
{ACAD_REACTORS
330
42
102
}
330
42
100
AcDbScale
 70
     0
300
3/4" = 1'-0"
140
0.75
141
12.0
290
     0
  0
SCALE
  5
4F
102
{ACAD_REACTORS
330
42
102
}
330
42
100
AcDbScale
 70
     0
300
1" = 1'-0"
140
1.0
141
12.0
290
     0
  0
SCALE
  5
50
102
{ACAD_REACTORS
330
42
102
}
330
42
100
AcDbScale
 70
     0
300
1-1/2" = 1'-0"
140
1.5
141
12.0
290
     0
  0
SCALE
  5
51
102
{ACAD_REACTORS
330
42
102
}
330
42
100
AcDbScale
 70
     0
300
3" = 1'-0"
140
3.0
141
12.0
290
     0
  0
SCALE
  5
52
102
{ACAD_REACTORS
330
42
102
}
330
42
100
AcDbScale
 70
     0
300
6" = 1'-0"
140
6.0
141
12.0
290
     0
  0
SCALE
  5
53
102
{ACAD_REACTORS
330
42
102
}
330
42
100
AcDbScale
 70
     0
300
1'-0" = 1'-0"
140
12.0
141
12.0
290
     0
  0
ACDBSECTIONVIEWSTYLE
  5
69
102
{ACAD_XDICTIONARY
360
1DC
102
}
102
{ACAD_REACTORS
330
68
102
}
330
68
100
AcDbModelDocViewStyle
 70
     0
  3
Imperial24
290
     0
100
AcDbSectionViewStyle
 70
     0
 71
     0
 90
       78
 71
     1
340
55
 62
   256
 40
0.24
340
0
340
0
 62
   256
 40
0.24
300
I, O, Q, S, X, Z
 40
0.48
 90
        3
 40
0.18
 90
        1
 71
     2
340
5D
 90
       25
 62
   256
340
5D
 90
       50
 62
   256
 40
0.24
 40
0.0
 40
0.24
 71
     3
340
55
 62
   256
 40
0.24
 90
        1
 40
0.75
 90
        1
300
%<\AcVar ViewType \f "%tc1">% %<\AcVar ViewSectionStartId>%-%<\AcVar ViewSectionEndId>%\PSCALE %<\AcVar ViewScale \f "%sn">%
 71
     4
 62
   256
 62
   257
300
ANSI31
 40
1.0
 90
        0
290
     0
290
     0
 90
        6
 40
0.0
 40
1.570796326794896
 40
0.2617993877991494
 40
1.308996938995747
 40
-0.2617993877991494
 40
1.832595714594046
  0
TABLESTYLE
  5
65
102
{ACAD_XDICTIONARY
360
1A7
102
}
102
{ACAD_REACTORS
330
64
102
}
330
64
100
AcDbTableStyle
280
     0
  3
Standard
 70
     0
 71
     0
 40
0.06
 41
0.06
280
     0
281
     0
  7
Standard
140
0.18
170
     2
 62
     0
 63
     7
283
     0
 90
      512
 91
        0
  1

274
    -2
284
     1
 64
     0
275
    -2
285
     1
 65
     0
276
    -2
286
     1
 66
     0
277
    -2
287
     1
 67
     0
278
    -2
288
     1
 68
     0
279
    -2
289
     1
 69
     0
  7
Standard
140
0.25
170
     5
 62
     0
 63
     7
283
     0
 90
      512
 91
        0
  1

274
    -2
284
     1
 64
     0
275
    -2
285
     1
 65
     0
276
    -2
286
     1
 66
     0
277
    -2
287
     1
 67
     0
278
    -2
288
     1
 68
     0
279
    -2
289
     1
 69
     0
  7
Standard
140
0.18
170
     5
 62
     0
 63
     7
283
     0
 90
      512
 91
        0
  1

274
    -2
284
     1
 64
     0
275
    -2
285
     1
 65
     0
276
    -2
286
     1
 66
     0
277
    -2
287
     1
 67
     0
278
    -2
288
     1
 68
     0
279
    -2
289
     1
 69
     0
  0
VISUALSTYLE
  5
2F
102
{ACAD_XDICTIONARY
360
1B4
102
}
102
{ACAD_REACTORS
330
29
102
}
330
29
100
AcDbVisualStyle
  2
2dWireframe
 70
     4
177
     2
291
     0
 71
     0
176
     1
 72
     2
176
     1
 73
     0
176
     1
 90
        0
176
     1
 40
0.6
176
     1
 41
30.0
176
     1
 63
     7
421
 16777215
176
     1
 74
     1
176
     1
 91
        4
176
     1
 64
     7
176
     1
 65
   257
176
     1
 75
     1
176
     1
175
     1
176
     1
 42
1.0
176
     1
 92
        0
176
     1
 66
   257
176
     1
 43
1.0
176
     1
 76
     1
176
     1
 77
     6
176
     1
 78
     2
176
     1
 67
     7
176
     1
 79
     5
176
     1
170
     0
176
     1
171
     0
176
     1
290
     0
176
     1
 93
        1
176
     1
 44
0.0
176
     1
173
     0
176
     1
1001
ACAD
1000
AcDbSavedByObjectVersion
1070
     0
  0
VISUALSTYLE
  5
2E
102
{ACAD_XDICTIONARY
360
1B2
102
}
102
{ACAD_REACTORS
330
29
102
}
330
29
100
AcDbVisualStyle
  2
Basic
 70
     7
177
     2
291
     1
 71
     1
176
     1
 72
     0
176
     1
 73
     1
176
     1
 90
        0
176
     1
 40
0.6
176
     1
 41
30.0
176
     1
 63
     7
421
 16777215
176
     1
 74
     0
176
     1
 91
        4
176
     1
 64
     7
176
     1
 65
   257
176
     1
 75
     1
176
     1
175
     1
176
     1
 42
1.0
176
     1
 92
        8
176
     1
 66
     7
176
     1
 43
1.0
176
     1
 76
     1
176
     1
 77
     6
176
     1
 78
     2
176
     1
 67
     7
176
     1
 79
     5
176
     1
170
     0
176
     1
171
     0
176
     1
290
     0
176
     1
 93
        1
176
     1
 44
0.0
176
     1
173
     0
176
     1
1001
ACAD
1000
AcDbSavedByObjectVersion
1070
     0
  0
VISUALSTYLE
  5
35
102
{ACAD_XDICTIONARY
360
1C0
102
}
102
{ACAD_REACTORS
330
29
102
}
330
29
100
AcDbVisualStyle
  2
Brighten
 70
    12
177
     2
291
     1
 71
     2
176
     1
 72
     2
176
     1
 73
     0
176
     1
 90
        0
176
     1
 40
0.6
176
     1
 41
30.0
176
     1
 63
     7
421
 16777215
176
     1
 74
     1
176
     1
 91
        4
176
     1
 64
     7
176
     1
 65
   257
176
     1
 75
     1
176
     1
175
     1
176
     1
 42
1.0
176
     1
 92
        8
176
     1
 66
     7
176
     1
 43
1.0
176
     1
 76
     1
176
     1
 77
     6
176
     1
 78
     2
176
     1
 67
     7
176
     1
 79
     5
176
     1
170
     0
176
     1
171
     0
176
     1
290
     0
176
     1
 93
        1
176
     1
 44
50.0
176
     1
173
     0
176
     1
1001
ACAD
1000
AcDbSavedByObjectVersion
1070
     0
  0
VISUALSTYLE
  5
39
102
{ACAD_XDICTIONARY
360
1C8
102
}
102
{ACAD_REACTORS
330
29
102
}
330
29
100
AcDbVisualStyle
  2
ColorChange
 70
    16
177
     2
291
     1
 71
     2
176
     1
 72
     2
176
     1
 73
     3
176
     1
 90
        0
176
     1
 40
0.6
176
     1
 41
30.0
176
     1
 63
     8
421
  8421504
176
     1
 74
     1
176
     1
 91
        4
176
     1
 64
     7
176
     1
 65
   257
176
     1
 75
     1
176
     1
175
     1
176
     1
 42
1.0
176
     1
 92
        8
176
     1
 66
     8
424
  8421504
176
     1
 43
1.0
176
     1
 76
     1
176
     1
 77
     6
176
     1
 78
     2
176
     1
 67
     7
176
     1
 79
     5
176
     1
170
     0
176
     1
171
     0
176
     1
290
     0
176
     1
 93
        1
176
     1
 44
0.0
176
     1
173
     0
176
     1
1001
ACAD
1000
AcDbSavedByObjectVersion
1070
     0
  0
VISUALSTYLE
  5
32
102
{ACAD_XDICTIONARY
360
1BA
102
}
102
{ACAD_REACTORS
330
29
102
}
330
29
100
AcDbVisualStyle
  2
Conceptual
 70
     9
177
     2
291
     0
 71
     3
176
     1
 72
     2
176
     1
 73
     0
176
     1
 90
        0
176
     1
 40
0.6
176
     1
 41
30.0
176
     1
 63
     7
421
 16777215
176
     1
 74
     2
176
     1
 91
        2
176
     1
 64
     7
176
     1
 65
   257
176
     1
 75
     1
176
     1
175
     1
176
     1
 42
179.0
176
     1
 92
        8
176
     1
 66
     7
176
     1
 43
1.0
176
     1
 76
     1
176
     1
 77
     6
176
     1
 78
     2
176
     1
 67
     7
176
     1
 79
     3
176
     1
170
     0
176
     1
171
     0
176
     1
290
     0
176
     1
 93
        1
176
     1
 44
0.0
176
     1
173
     0
176
     1
1001
ACAD
1000
AcDbSavedByObjectVersion
1070
     0
  0
VISUALSTYLE
  5
34
102
{ACAD_XDICTIONARY
360
1BE
102
}
102
{ACAD_REACTORS
330
29
102
}
330
29
100
AcDbVisualStyle
  2
Dim
 70
    11
177
     2
291
     1
 71
     2
176
     1
 72
     2
176
     1
 73
     0
176
     1
 90
        0
176
     1
 40
0.6
176
     1
 41
30.0
176
     1
 63
     7
421
 16777215
176
     1
 74
     1
176
     1
 91
        4
176
     1
 64
     7
176
     1
 65
   257
176
     1
 75
     1
176
     1
175
     1
176
     1
 42
1.0
176
     1
 92
        8
176
     1
 66
     7
176
     1
 43
1.0
176
     1
 76
     1
176
     1
 77
     6
176
     1
 78
     2
176
     1
 67
     7
176
     1
 79
     5
176
     1
170
     0
176
     1
171
     0
176
     1
290
     0
176
     1
 93
        1
176
     1
 44
-50.0
176
     1
173
     0
176
     1
1001
ACAD
1000
AcDbSavedByObjectVersion
1070
     0
  0
VISUALSTYLE
  5
41
102
{ACAD_XDICTIONARY
360
1D8
102
}
102
{ACAD_REACTORS
330
29
102
}
330
29
100
AcDbVisualStyle
  2
EdgeColorOff
 70
    22
177
     2
291
     1
 71
     2
176
     0
 72
     2
176
     0
 73
     0
176
     0
 90
        0
176
     0
 40
0.6
176
     0
 41
30.0
176
     0
 63
     7
421
 16777215
176
     0
 74
     1
176
     0
 91
        4
176
     0
 64
     7
176
     0
 65
   257
176
     0
 75
     1
176
     0
175
     1
176
     0
 42
1.0
176
     0
 92
        8
176
     2
 66
     7
176
     0
 43
1.0
176
     0
 76
     1
176
     0
 77
     6
176
     0
 78
     2
176
     0
 67
     7
176
     0
 79
     5
176
     0
170
     0
176
     0
171
     0
176
     0
290
     0
176
     0
 93
        1
176
     0
 44
0.0
176
     0
173
     0
176
     0
1001
ACAD
1000
AcDbSavedByObjectVersion
1070
     0
  0
VISUALSTYLE
  5
38
102
{ACAD_XDICTIONARY
360
1C6
102
}
102
{ACAD_REACTORS
330
29
102
}
330
29
100
AcDbVisualStyle
  2
Facepattern
 70
    15
177
     2
291
     1
 71
     2
176
     1
 72
     2
176
     1
 73
     0
176
     1
 90
        0
176
     1
 40
0.6
176
     1
 41
30.0
176
     1
 63
     7
421
 16777215
176
     1
 74
     1
176
     1
 91
        4
176
     1
 64
     7
176
     1
 65
   257
176
     1
 75
     1
176
     1
175
     1
176
     1
 42
1.0
176
     1
 92
        8
176
     1
 66
     7
176
     1
 43
1.0
176
     1
 76
     1
176
     1
 77
     6
176
     1
 78
     2
176
     1
 67
     7
176
     1
 79
     5
176
     1
170
     0
176
     1
171
     0
176
     1
290
     0
176
     1
 93
        1
176
     1
 44
0.0
176
     1
173
     0
176
     1
1001
ACAD
1000
AcDbSavedByObjectVersion
1070
     0
  0
VISUALSTYLE
  5
2A
102
{ACAD_XDICTIONARY
360
1AA
102
}
102
{ACAD_REACTORS
330
29
102
}
330
29
100
AcDbVisualStyle
  2
Flat
 70
     0
177
     2
291
     1
 71
     2
176
     1
 72
     1
176
     1
 73
     1
176
     1
 90
        2
176
     1
 40
0.6
176
     1
 41
30.0
176
     1
 63
     7
421
 16777215
176
     1
 74
     0
176
     1
 91
        0
176
     1
 64
     7
176
     1
 65
   257
176
     1
 75
     1
176
     1
175
     1
176
     1
 42
1.0
176
     1
 92
        8
176
     1
 66
     7
176
     1
 43
1.0
176
     1
 76
     1
176
     1
 77
     6
176
     1
 78
     2
176
     1
 67
     7
176
     1
 79
     5
176
     1
170
     0
176
     1
171
     0
176
     1
290
     0
176
     1
 93
       13
176
     1
 44
0.0
176
     1
173
     0
176
     1
1001
ACAD
1000
AcDbSavedByObjectVersion
1070
     0
  0
VISUALSTYLE
  5
2B
102
{ACAD_XDICTIONARY
360
1AC
102
}
102
{ACAD_REACTORS
330
29
102
}
330
29
100
AcDbVisualStyle
  2
FlatWithEdges
 70
     1
177
     2
291
     1
 71
     2
176
     1
 72
     1
176
     1
 73
     1
176
     1
 90
        2
176
     1
 40
0.6
176
     1
 41
30.0
176
     1
 63
     7
421
 16777215
176
     1
 74
     1
176
     1
 91
        0
176
     1
 64
     7
176
     1
 65
   257
176
     1
 75
     1
176
     1
175
     1
176
     1
 42
1.0
176
     1
 92
        0
176
     1
 66
   257
176
     1
 43
1.0
176
     1
 76
     1
176
     1
 77
     6
176
     1
 78
     2
176
     1
 67
     7
176
     1
 79
     5
176
     1
170
     0
176
     1
171
     0
176
     1
290
     0
176
     1
 93
       13
176
     1
 44
0.0
176
     1
173
     0
176
     1
1001
ACAD
1000
AcDbSavedByObjectVersion
1070
     0
  0
VISUALSTYLE
  5
2C
102
{ACAD_XDICTIONARY
360
1AE
102
}
102
{ACAD_REACTORS
330
29
102
}
330
29
100
AcDbVisualStyle
  2
Gouraud
 70
     2
177
     2
291
     1
 71
     2
176
     1
 72
     2
176
     1
 73
     1
176
     1
 90
        2
176
     1
 40
0.6
176
     1
 41
30.0
176
     1
 63
     7
421
 16777215
176
     1
 74
     0
176
     1
 91
        0
176
     1
 64
     7
176
     1
 65
   257
176
     1
 75
     1
176
     1
175
     1
176
     1
 42
1.0
176
     1
 92
        0
176
     1
 66
     7
176
     1
 43
1.0
176
     1
 76
     1
176
     1
 77
     6
176
     1
 78
     2
176
     1
 67
     7
176
     1
 79
     5
176
     1
170
     0
176
     1
171
     0
176
     1
290
     0
176
     1
 93
       13
176
     1
 44
0.0
176
     1
173
     0
176
     1
1001
ACAD
1000
AcDbSavedByObjectVersion
1070
     0
  0
VISUALSTYLE
  5
2D
102
{ACAD_XDICTIONARY
360
1B0
102
}
102
{ACAD_REACTORS
330
29
102
}
330
29
100
AcDbVisualStyle
  2
GouraudWithEdges
 70
     3
177
     2
291
     1
 71
     2
176
     1
 72
     2
176
     1
 73
     1
176
     1
 90
        2
176
     1
 40
0.6
176
     1
 41
30.0
176
     1
 63
     7
421
 16777215
176
     1
 74
     1
176
     1
 91
        0
176
     1
 64
     7
176
     1
 65
   257
176
     1
 75
     1
176
     1
175
     1
176
     1
 42
1.0
176
     1
 92
        0
176
     1
 66
   257
176
     1
 43
1.0
176
     1
 76
     1
176
     1
 77
     6
176
     1
 78
     2
176
     1
 67
     7
176
     1
 79
     5
176
     1
170
     0
176
     1
171
     0
176
     1
290
     0
176
     1
 93
       13
176
     1
 44
0.0
176
     1
173
     0
176
     1
1001
ACAD
1000
AcDbSavedByObjectVersion
1070
     0
  0
VISUALSTYLE
  5
31
102
{ACAD_XDICTIONARY
360
1B8
102
}
102
{ACAD_REACTORS
330
29
102
}
330
29
100
AcDbVisualStyle
  2
Hidden
 70
     6
177
     2
291
     0
 71
     1
176
     1
 72
     2
176
     1
 73
     2
176
     1
 90
        0
176
     1
 40
0.6
176
     1
 41
30.0
176
     1
 63
     7
421
 16777215
176
     1
 74
     2
176
     1
 91
        2
176
     1
 64
     7
176
     1
 65
   257
176
     1
 75
     2
176
     1
175
     1
176
     1
 42
40.0
176
     1
 92
        0
176
     1
 66
   257
176
     1
 43
1.0
176
     1
 76
     1
176
     1
 77
     6
176
     1
 78
     2
176
     1
 67
     7
176
     1
 79
     3
176
     1
170
     0
176
     1
171
     0
176
     1
290
     0
176
     1
 93
        1
176
     1
 44
0.0
176
     1
173
     0
176
     1
1001
ACAD
1000
AcDbSavedByObjectVersion
1070
     0
  0
VISUALSTYLE
  5
3F
102
{ACAD_XDICTIONARY
360
1D4
102
}
102
{ACAD_REACTORS
330
29
102
}
330
29
100
AcDbVisualStyle
  2
JitterOff
 70
    20
177
     2
291
     1
 71
     2
176
     0
 72
     2
176
     0
 73
     0
176
     0
 90
        0
176
     0
 40
0.6
176
     0
 41
30.0
176
     0
 63
     7
421
 16777215
176
     0
 74
     1
176
     0
 91
        4
176
     0
 64
     7
176
     0
 65
   257
176
     0
 75
     1
176
     0
175
     1
176
     0
 42
1.0
176
     0
 92
       10
176
     2
 66
     7
176
     0
 43
1.0
176
     0
 76
     1
176
     0
 77
     6
176
     0
 78
     2
176
     0
 67
     7
176
     0
 79
     5
176
     0
170
     0
176
     0
171
     0
176
     0
290
     0
176
     0
 93
        1
176
     0
 44
0.0
176
     0
173
     0
176
     0
1001
ACAD
1000
AcDbSavedByObjectVersion
1070
     0
  0
VISUALSTYLE
  5
37
102
{ACAD_XDICTIONARY
360
1C4
102
}
102
{ACAD_REACTORS
330
29
102
}
330
29
100
AcDbVisualStyle
  2
Linepattern
 70
    14
177
     2
291
     1
 71
     2
176
     1
 72
     2
176
     1
 73
     0
176
     1
 90
        0
176
     1
 40
0.6
176
     1
 41
30.0
176
     1
 63
     7
421
 16777215
176
     1
 74
     1
176
     1
 91
        4
176
     1
 64
     7
176
     1
 65
   257
176
     1
 75
     7
176
     1
175
     7
176
     1
 42
1.0
176
     1
 92
        8
176
     1
 66
     7
176
     1
 43
1.0
176
     1
 76
     1
176
     1
 77
     6
176
     1
 78
     2
176
     1
 67
     7
176
     1
 79
     5
176
     1
170
     0
176
     1
171
     0
176
     1
290
     0
176
     1
 93
        1
176
     1
 44
0.0
176
     1
173
     0
176
     1
1001
ACAD
1000
AcDbSavedByObjectVersion
1070
     0
  0
VISUALSTYLE
  5
40
102
{ACAD_XDICTIONARY
360
1D6
102
}
102
{ACAD_REACTORS
330
29
102
}
330
29
100
AcDbVisualStyle
  2
OverhangOff
 70
    21
177
     2
291
     1
 71
     2
176
     0
 72
     2
176
     0
 73
     0
176
     0
 90
        0
176
     0
 40
0.6
176
     0
 41
30.0
176
     0
 63
     7
421
 16777215
176
     0
 74
     1
176
     0
 91
        4
176
     0
 64
     7
176
     0
 65
   257
176
     0
 75
     1
176
     0
175
     1
176
     0
 42
1.0
176
     0
 92
        9
176
     2
 66
     7
176
     0
 43
1.0
176
     0
 76
     1
176
     0
 77
     6
176
     0
 78
     2
176
     0
 67
     7
176
     0
 79
     5
176
     0
170
     0
176
     0
171
     0
176
     0
290
     0
176
     0
 93
        1
176
     0
 44
0.0
176
     0
173
     0
176
     0
1001
ACAD
1000
AcDbSavedByObjectVersion
1070
     0
  0
VISUALSTYLE
  5
33
102
{ACAD_XDICTIONARY
360
1BC
102
}
102
{ACAD_REACTORS
330
29
102
}
330
29
100
AcDbVisualStyle
  2
Realistic
 70
     8
177
     2
291
     0
 71
     2
176
     1
 72
     3
176
     1
 73
     0
176
     1
 90
        2
176
     1
 40
0.6
176
     1
 41
30.0
176
     1
 63
     7
421
 16777215
176
     1
 74
     0
176
     1
 91
        0
176
     1
 64
     7
176
     1
 65
   257
176
     1
 75
     1
176
     1
175
     1
176
     1
 42
1.0
176
     1
 92
        8
176
     1
 66
   257
176
     1
 43
1.0
176
     1
 76
     1
176
     1
 77
     6
176
     1
 78
     2
176
     1
 67
     7
176
     1
 79
     3
176
     1
170
     0
176
     1
171
     0
176
     1
290
     0
176
     1
 93
       13
176
     1
 44
0.0
176
     1
173
     0
176
     1
1001
ACAD
1000
AcDbSavedByObjectVersion
1070
     0
  0
VISUALSTYLE
  5
3E
102
{ACAD_XDICTIONARY
360
1D2
102
}
102
{ACAD_REACTORS
330
29
102
}
330
29
100
AcDbVisualStyle
  2
Shaded
 70
    27
177
     2
291
     0
 71
     2
176
     1
 72
     2
176
     1
 73
     1
176
     1
 90
        2
176
     1
 40
0.6
176
     1
 41
30.0
176
     1
 63
     7
421
 16777215
176
     1
 74
     0
176
     1
 91
        4
176
     1
 64
     7
176
     1
 65
   257
176
     1
 75
     1
176
     1
175
     1
176
     1
 42
1.0
176
     1
 92
        8
176
     1
 66
   257
176
     1
 43
1.0
176
     1
 76
     1
176
     1
 77
     6
176
     1
 78
     2
176
     1
 67
     8
425
  7895160
176
     1
 79
     3
176
     1
170
     0
176
     1
171
     0
176
     1
290
     0
176
     1
 93
        5
176
     1
 44
0.0
176
     1
173
     0
176
     1
1001
ACAD
1000
AcDbSavedByObjectVersion
1070
     0
  0
VISUALSTYLE
  5
3D
102
{ACAD_XDICTIONARY
360
1D0
102
}
102
{ACAD_REACTORS
330
29
102
}
330
29
100
AcDbVisualStyle
  2
Shaded with edges
 70
    26
177
     2
291
     0
 71
     2
176
     1
 72
     2
176
     1
 73
     1
176
     1
 90
        2
176
     1
 40
0.6
176
     1
 41
30.0
176
     1
 63
     7
421
 16777215
176
     1
 74
     1
176
     1
 91
        2
176
     1
 64
     7
176
     1
 65
   257
176
     1
 75
     2
176
     1
175
     1
176
     1
 42
1.0
176
     1
 92
        8
176
     1
 66
   257
176
     1
 43
1.0
176
     1
 76
     1
176
     1
 77
     6
176
     1
 78
     2
176
     1
 67
     7
176
     1
 79
     3
176
     1
170
     0
176
     1
171
     0
176
     1
290
     0
176
     1
 93
        5
176
     1
 44
0.0
176
     1
173
     0
176
     1
1001
ACAD
1000
AcDbSavedByObjectVersion
1070
     0
  0
VISUALSTYLE
  5
3A
102
{ACAD_XDICTIONARY
360
1CA
102
}
102
{ACAD_REACTORS
330
29
102
}
330
29
100
AcDbVisualStyle
  2
Shades of Gray
 70
    23
177
     2
291
     0
 71
     2
176
     1
 72
     2
176
     1
 73
     3
176
     1
 90
        0
176
     1
 40
0.6
176
     1
 41
30.0
176
     1
 63
     7
421
 16777215
176
     1
 74
     2
176
     1
 91
        2
176
     1
 64
     7
176
     1
 65
     7
176
     1
 75
     1
176
     1
175
     1
176
     1
 42
40.0
176
     1
 92
        8
176
     1
 66
     7
176
     1
 43
1.0
176
     1
 76
     1
176
     1
 77
     6
176
     1
 78
     2
176
     1
 67
     7
176
     1
 79
     3
176
     1
170
     0
176
     1
171
     0
176
     1
290
     0
176
     1
 93
        1
176
     1
 44
0.0
176
     1
173
     0
176
     1
1001
ACAD
1000
AcDbSavedByObjectVersion
1070
     0
  0
VISUALSTYLE
  5
3B
102
{ACAD_XDICTIONARY
360
1CC
102
}
102
{ACAD_REACTORS
330
29
102
}
330
29
100
AcDbVisualStyle
  2
Sketchy
 70
    24
177
     2
291
     0
 71
     1
176
     1
 72
     2
176
     1
 73
     2
176
     1
 90
        0
176
     1
 40
0.6
176
     1
 41
30.0
176
     1
 63
     7
421
 16777215
176
     1
 74
     2
176
     1
 91
        2
176
     1
 64
     7
176
     1
 65
     7
176
     1
 75
     1
176
     1
175
     1
176
     1
 42
40.0
176
     1
 92
       11
176
     1
 66
     7
176
     1
 43
1.0
176
     1
 76
     1
176
     1
 77
     6
176
     1
 78
     2
176
     1
 67
     7
176
     1
 79
     6
176
     1
170
     0
176
     1
171
     0
176
     1
290
     0
176
     1
 93
        1
176
     1
 44
0.0
176
     1
173
     0
176
     1
1001
ACAD
1000
AcDbSavedByObjectVersion
1070
     0
  0
VISUALSTYLE
  5
36
102
{ACAD_XDICTIONARY
360
1C2
102
}
102
{ACAD_REACTORS
330
29
102
}
330
29
100
AcDbVisualStyle
  2
Thicken
 70
    13
177
     2
291
     1
 71
     2
176
     1
 72
     2
176
     1
 73
     0
176
     1
 90
        0
176
     1
 40
0.6
176
     1
 41
30.0
176
     1
 63
     7
421
 16777215
176
     1
 74
     1
176
     1
 91
        4
176
     1
 64
     7
176
     1
 65
   257
176
     1
 75
     1
176
     1
175
     1
176
     1
 42
1.0
176
     1
 92
       12
176
     1
 66
     7
176
     1
 43
1.0
176
     1
 76
     1
176
     1
 77
     6
176
     1
 78
     2
176
     1
 67
     7
176
     1
 79
     5
176
     1
170
     0
176
     1
171
     0
176
     1
290
     0
176
     1
 93
        1
176
     1
 44
0.0
176
     1
173
     0
176
     1
1001
ACAD
1000
AcDbSavedByObjectVersion
1070
     0
  0
VISUALSTYLE
  5
30
102
{ACAD_XDICTIONARY
360
1B6
102
}
102
{ACAD_REACTORS
330
29
102
}
330
29
100
AcDbVisualStyle
  2
Wireframe
 70
     5
177
     2
291
     0
 71
     0
176
     1
 72
     2
176
     1
 73
     0
176
     1
 90
        0
176
     1
 40
0.6
176
     1
 41
30.0
176
     1
 63
     7
421
 16777215
176
     1
 74
     1
176
     1
 91
        4
176
     1
 64
     7
176
     1
 65
   257
176
     1
 75
     1
176
     1
175
     1
176
     1
 42
1.0
176
     1
 92
        0
176
     1
 66
   257
176
     1
 43
1.0
176
     1
 76
     1
176
     1
 77
     6
176
     1
 78
     2
176
     1
 67
     7
176
     1
 79
     3
176
     1
170
     0
176
     1
171
     0
176
     1
290
     0
176
     1
 93
        1
176
     1
 44
0.0
176
     1
173
     0
176
     1
1001
ACAD
1000
AcDbSavedByObjectVersion
1070
     0
  0
VISUALSTYLE
  5
3C
102
{ACAD_XDICTIONARY
360
1CE
102
}
102
{ACAD_REACTORS
330
29
102
}
330
29
100
AcDbVisualStyle
  2
X-Ray
 70
    25
177
     2
291
     0
 71
     2
176
     1
 72
     2
176
     1
 73
     1
176
     1
 90
        1
176
     1
 40
0.5
176
     1
 41
30.0
176
     1
 63
     7
421
 16777215
176
     1
 74
     1
176
     1
 91
        0
176
     1
 64
     7
176
     1
 65
   257
176
     1
 75
     1
176
     1
175
     1
176
     1
 42
1.0
176
     1
 92
        8
176
     1
 66
     7
176
     1
 43
1.0
176
     1
 76
     1
176
     1
 77
     6
176
     1
 78
     2
176
     1
 67
     7
176
     1
 79
     3
176
     1
170
     0
176
     1
171
     0
176
     1
290
     0
176
     1
 93
       13
176
     1
 44
0.0
176
     1
173
     0
176
     1
1001
ACAD
1000
AcDbSavedByObjectVersion
1070
     0
  0
DICTIONARYVAR
  5
1A6
102
{ACAD_REACTORS
330
1A1
102
}
330
1A1
100
DictionaryVariables
280
     0
  1
1:1
  0
DICTIONARYVAR
  5
1A3
102
{ACAD_REACTORS
330
1A1
102
}
330
1A1
100
DictionaryVariables
280
     0
  1
STANDARD
  0
DICTIONARYVAR
  5
1A2
102
{ACAD_REACTORS
330
1A1
102
}
330
1A1
100
DictionaryVariables
280
     0
  1
STANDARD
  0
DICTIONARYVAR
  5
1A4
102
{ACAD_REACTORS
330
1A1
102
}
330
1A1
100
DictionaryVariables
280
     0
  1
Imperial24
  0
DICTIONARYVAR
  5
1A5
102
{ACAD_REACTORS
330
1A1
102
}
330
1A1
100
DictionaryVariables
280
     0
  1
Imperial24
  0
DICTIONARY
  5
1DE
330
6B
100
AcDbDictionary
280
     1
281
     1
  3
ACAD_XREC_ROUNDTRIP
360
1DF
  0
DICTIONARY
  5
1A
330
19
100
AcDbDictionary
280
     1
281
     1
  3
BUMPTILE
360
1C
  3
DIFFUSETILE
360
1B
  3
OPACITYTILE
360
1F
  3
REFLECTIONTILE
360
1E
  3
REFRACTIONTILE
360
20
  3
SPECULARTILE
360
1D
  0
DICTIONARY
  5
12
330
11
100
AcDbDictionary
280
     1
281
     1
  3
BUMPTILE
360
14
  3
DIFFUSETILE
360
13
  3
OPACITYTILE
360
17
  3
REFLECTIONTILE
360
16
  3
REFRACTIONTILE
360
18
  3
SPECULARTILE
360
15
  0
DICTIONARY
  5
22
330
21
100
AcDbDictionary
280
     1
281
     1
  3
BUMPTILE
360
24
  3
DIFFUSETILE
360
23
  3
OPACITYTILE
360
27
  3
REFLECTIONTILE
360
26
  3
REFRACTIONTILE
360
28
  3
SPECULARTILE
360
25
  0
DICTIONARY
  5
1DA
330
67
100
AcDbDictionary
280
     1
281
     1
  3
ACAD_XREC_ROUNDTRIP
360
1DB
  0
DICTIONARY
  5
1DC
330
69
100
AcDbDictionary
280
     1
281
     1
  3
ACAD_XREC_ROUNDTRIP
360
1DD
  0
DICTIONARY
  5
1A7
330
65
100
AcDbDictionary
280
     1
281
     1
  3
ACAD_ROUNDTRIP_2008_TABLESTYLE_CELLSTYLEMAP
360
1A8
  0
DICTIONARY
  5
1B4
330
2F
100
AcDbDictionary
280
     1
281
     1
  3
ACAD_XREC_ROUNDTRIP
360
1B5
  0
DICTIONARY
  5
1B2
330
2E
100
AcDbDictionary
280
     1
281
     1
  3
ACAD_XREC_ROUNDTRIP
360
1B3
  0
DICTIONARY
  5
1C0
330
35
100
AcDbDictionary
280
     1
281
     1
  3
ACAD_XREC_ROUNDTRIP
360
1C1
  0
DICTIONARY
  5
1C8
330
39
100
AcDbDictionary
280
     1
281
     1
  3
ACAD_XREC_ROUNDTRIP
360
1C9
  0
DICTIONARY
  5
1BA
330
32
100
AcDbDictionary
280
     1
281
     1
  3
ACAD_XREC_ROUNDTRIP
360
1BB
  0
DICTIONARY
  5
1BE
330
34
100
AcDbDictionary
280
     1
281
     1
  3
ACAD_XREC_ROUNDTRIP
360
1BF
  0
DICTIONARY
  5
1D8
330
41
100
AcDbDictionary
280
     1
281
     1
  3
ACAD_XREC_ROUNDTRIP
360
1D9
  0
DICTIONARY
  5
1C6
330
38
100
AcDbDictionary
280
     1
281
     1
  3
ACAD_XREC_ROUNDTRIP
360
1C7
  0
DICTIONARY
  5
1AA
330
2A
100
AcDbDictionary
280
     1
281
     1
  3
ACAD_XREC_ROUNDTRIP
360
1AB
  0
DICTIONARY
  5
1AC
330
2B
100
AcDbDictionary
280
     1
281
     1
  3
ACAD_XREC_ROUNDTRIP
360
1AD
  0
DICTIONARY
  5
1AE
330
2C
100
AcDbDictionary
280
     1
281
     1
  3
ACAD_XREC_ROUNDTRIP
360
1AF
  0
DICTIONARY
  5
1B0
330
2D
100
AcDbDictionary
280
     1
281
     1
  3
ACAD_XREC_ROUNDTRIP
360
1B1
  0
DICTIONARY
  5
1B8
330
31
100
AcDbDictionary
280
     1
281
     1
  3
ACAD_XREC_ROUNDTRIP
360
1B9
  0
DICTIONARY
  5
1D4
330
3F
100
AcDbDictionary
280
     1
281
     1
  3
ACAD_XREC_ROUNDTRIP
360
1D5
  0
DICTIONARY
  5
1C4
330
37
100
AcDbDictionary
280
     1
281
     1
  3
ACAD_XREC_ROUNDTRIP
360
1C5
  0
DICTIONARY
  5
1D6
330
40
100
AcDbDictionary
280
     1
281
     1
  3
ACAD_XREC_ROUNDTRIP
360
1D7
  0
DICTIONARY
  5
1BC
330
33
100
AcDbDictionary
280
     1
281
     1
  3
ACAD_XREC_ROUNDTRIP
360
1BD
  0
DICTIONARY
  5
1D2
330
3E
100
AcDbDictionary
280
     1
281
     1
  3
ACAD_XREC_ROUNDTRIP
360
1D3
  0
DICTIONARY
  5
1D0
330
3D
100
AcDbDictionary
280
     1
281
     1
  3
ACAD_XREC_ROUNDTRIP
360
1D1
  0
DICTIONARY
  5
1CA
330
3A
100
AcDbDictionary
280
     1
281
     1
  3
ACAD_XREC_ROUNDTRIP
360
1CB
  0
DICTIONARY
  5
1CC
330
3B
100
AcDbDictionary
280
     1
281
     1
  3
ACAD_XREC_ROUNDTRIP
360
1CD
  0
DICTIONARY
  5
1C2
330
36
100
AcDbDictionary
280
     1
281
     1
  3
ACAD_XREC_ROUNDTRIP
360
1C3
  0
DICTIONARY
  5
1B6
330
30
100
AcDbDictionary
280
     1
281
     1
  3
ACAD_XREC_ROUNDTRIP
360
1B7
  0
DICTIONARY
  5
1CE
330
3C
100
AcDbDictionary
280
     1
281
     1
  3
ACAD_XREC_ROUNDTRIP
360
1CF
  0
XRECORD
  5
1DF
102
{ACAD_REACTORS
330
1DE
102
}
330
1DE
100
AcDbXrecord
280
     1
102
DISPLAYNAME
  1
Imperial24
102
FLAGS
 90
        0
  0
XRECORD
  5
1C
102
{ACAD_REACTORS
330
1A
102
}
330
1A
100
AcDbXrecord
280
     1
270
     1
271
     1
  0
XRECORD
  5
1B
102
{ACAD_REACTORS
330
1A
102
}
330
1A
100
AcDbXrecord
280
     1
270
     1
271
     1
  0
XRECORD
  5
1F
102
{ACAD_REACTORS
330
1A
102
}
330
1A
100
AcDbXrecord
280
     1
270
     1
271
     1
  0
XRECORD
  5
1E
102
{ACAD_REACTORS
330
1A
102
}
330
1A
100
AcDbXrecord
280
     1
270
     1
271
     1
  0
XRECORD
  5
20
102
{ACAD_REACTORS
330
1A
102
}
330
1A
100
AcDbXrecord
280
     1
270
     1
271
     1
  0
XRECORD
  5
1D
102
{ACAD_REACTORS
330
1A
102
}
330
1A
100
AcDbXrecord
280
     1
270
     1
271
     1
  0
XRECORD
  5
14
102
{ACAD_REACTORS
330
12
102
}
330
12
100
AcDbXrecord
280
     1
270
     1
271
     1
  0
XRECORD
  5
13
102
{ACAD_REACTORS
330
12
102
}
330
12
100
AcDbXrecord
280
     1
270
     1
271
     1
  0
XRECORD
  5
17
102
{ACAD_REACTORS
330
12
102
}
330
12
100
AcDbXrecord
280
     1
270
     1
271
     1
  0
XRECORD
  5
16
102
{ACAD_REACTORS
330
12
102
}
330
12
100
AcDbXrecord
280
     1
270
     1
271
     1
  0
XRECORD
  5
18
102
{ACAD_REACTORS
330
12
102
}
330
12
100
AcDbXrecord
280
     1
270
     1
271
     1
  0
XRECORD
  5
15
102
{ACAD_REACTORS
330
12
102
}
330
12
100
AcDbXrecord
280
     1
270
     1
271
     1
  0
XRECORD
  5
24
102
{ACAD_REACTORS
330
22
102
}
330
22
100
AcDbXrecord
280
     1
270
     1
271
     1
  0
XRECORD
  5
23
102
{ACAD_REACTORS
330
22
102
}
330
22
100
AcDbXrecord
280
     1
270
     1
271
     1
  0
XRECORD
  5
27
102
{ACAD_REACTORS
330
22
102
}
330
22
100
AcDbXrecord
280
     1
270
     1
271
     1
  0
XRECORD
  5
26
102
{ACAD_REACTORS
330
22
102
}
330
22
100
AcDbXrecord
280
     1
270
     1
271
     1
  0
XRECORD
  5
28
102
{ACAD_REACTORS
330
22
102
}
330
22
100
AcDbXrecord
280
     1
270
     1
271
     1
  0
XRECORD
  5
25
102
{ACAD_REACTORS
330
22
102
}
330
22
100
AcDbXrecord
280
     1
270
     1
271
     1
  0
XRECORD
  5
1DB
102
{ACAD_REACTORS
330
1DA
102
}
330
1DA
100
AcDbXrecord
280
     1
102
ACAD_ROUNDTRIP_2012_MLEADER_STYLE
298
     1
  0
XRECORD
  5
1DD
102
{ACAD_REACTORS
330
1DC
102
}
330
1DC
100
AcDbXrecord
280
     1
102
DISPLAYNAME
  1
Imperial24
102
FLAGS
 90
        0
  0
CELLSTYLEMAP
  5
1A8
102
{ACAD_REACTORS
330
1A7
102
}
330
1A7
100
AcDbCellStyleMap
 90
        3
300
CELLSTYLE
  1
TABLEFORMAT_BEGIN
 90
        5
170
     1
 91
        0
 92
    32768
 62
   257
 93
        1
300
CONTENTFORMAT
  1
CONTENTFORMAT_BEGIN
 90
        0
 91
        0
 92
      512
 93
        0
300

 40
0.0
140
1.0
 94
        5
 62
     0
340
55
144
0.25
309
CONTENTFORMAT_END
171
     0
 94
        0
309
TABLEFORMAT_END
  1
CELLSTYLE_BEGIN
 90
        1
 91
        1
300
_TITLE
309
CELLSTYLE_END
300
CELLSTYLE
  1
TABLEFORMAT_BEGIN
 90
        5
170
     1
 91
        0
 92
        0
 62
   257
 93
        1
300
CONTENTFORMAT
  1
CONTENTFORMAT_BEGIN
 90
        0
 91
        0
 92
      512
 93
        0
300

 40
0.0
140
1.0
 94
        5
 62
     0
340
55
144
0.18
309
CONTENTFORMAT_END
171
     0
 94
        0
309
TABLEFORMAT_END
  1
CELLSTYLE_BEGIN
 90
        2
 91
        1
300
_HEADER
309
CELLSTYLE_END
300
CELLSTYLE
  1
TABLEFORMAT_BEGIN
 90
        5
170
     1
 91
        0
 92
        0
 62
   257
 93
        1
300
CONTENTFORMAT
  1
CONTENTFORMAT_BEGIN
 90
        0
 91
        0
 92
      512
 93
        0
300

 40
0.0
140
1.0
 94
        2
 62
     0
340
55
144
0.18
309
CONTENTFORMAT_END
171
     0
 94
        0
309
TABLEFORMAT_END
  1
CELLSTYLE_BEGIN
 90
        3
 91
        2
300
_DATA
309
CELLSTYLE_END
  0
XRECORD
  5
1B5
102
{ACAD_REACTORS
330
1B4
102
}
330
1B4
100
AcDbXrecord
280
     1
102
RTVSPost2010Prop28
280
     1
102
RTVSPost2010PropOp28
 70
     1
102
RTVSPost2010Prop29
280
     1
102
RTVSPost2010PropOp29
 70
     1
102
RTVSPost2010Prop30
280
     0
102
RTVSPost2010PropOp30
 70
     1
102
RTVSPost2010Prop31
280
     0
102
RTVSPost2010PropOp31
 70
     1
102
RTVSPost2010Prop32
280
     0
102
RTVSPost2010PropOp32
 70
     1
102
RTVSPost2010Prop33
280
     0
102
RTVSPost2010PropOp33
 70
     1
102
RTVSPost2010Prop34
280
     0
102
RTVSPost2010PropOp34
 70
     1
102
RTVSPost2010Prop35
280
     0
102
RTVSPost2010PropOp35
 70
     1
102
RTVSPost2010Prop36
280
     0
102
RTVSPost2010PropOp36
 70
     1
102
RTVSPost2010Prop37
 90
       50
102
RTVSPost2010PropOp37
 70
     1
102
RTVSPost2010Prop38
140
0.0
102
RTVSPost2010PropOp38
 70
     1
102
RTVSPost2010Prop39
140
1.0
102
RTVSPost2010PropOp39
 70
     1
102
RTVSPost2010Prop40
 90
        0
102
RTVSPost2010PropOp40
 70
     1
102
RTVSPost2010Prop41ColorIndex
 90
       18
102
RTVSPost2010Prop41ColorRGB
 90
        0
102
RTVSPost2010PropOp41
 70
     1
102
RTVSPost2010Prop42
 90
       50
102
RTVSPost2010PropOp42
 70
     1
102
RTVSPost2010Prop43
 90
        3
102
RTVSPost2010PropOp43
 70
     1
102
RTVSPost2010Prop44ColorIndex
 90
        5
102
RTVSPost2010Prop44ColorRGB
 90
      255
102
RTVSPost2010PropOp44
 70
     1
102
RTVSPost2010Prop45
280
     0
102
RTVSPost2010PropOp45
 70
     1
102
RTVSPost2010Prop46
 90
       50
102
RTVSPost2010PropOp46
 70
     1
102
RTVSPost2010Prop47
 90
       50
102
RTVSPost2010PropOp47
 70
     1
102
RTVSPost2010Prop48
 90
       50
102
RTVSPost2010PropOp48
 70
     1
102
RTVSPost2010Prop49
280
     0
102
RTVSPost2010PropOp49
 70
     1
102
RTVSPost2010Prop50
 90
       50
102
RTVSPost2010PropOp50
 70
     1
102
RTVSPost2010Prop51ColorIndex
 90
      256
102
RTVSPost2010Prop51ColorRGB
 90
-16777216
102
RTVSPost2010PropOp51
 70
     0
102
RTVSPost2010Prop52
140
1.0
102
RTVSPost2010PropOp52
 70
     0
102
RTVSPost2010Prop53
 90
        2
102
RTVSPost2010PropOp53
 70
     1
102
RTVSPost2010Prop54
  1
strokes_ogs.tif
102
RTVSPost2010PropOp54
 70
     1
102
RTVSPost2010Prop55
280
     0
102
RTVSPost2010PropOp55
 70
     1
102
RTVSPost2010Prop56
140
1.0
102
RTVSPost2010PropOp56
 70
     1
102
RTVSPost2010Prop57
140
1.0
102
RTVSPost2010PropOp57
 70
     1
  0
XRECORD
  5
1B3
102
{ACAD_REACTORS
330
1B2
102
}
330
1B2
100
AcDbXrecord
280
     1
102
RTVSPost2010Prop28
280
     0
102
RTVSPost2010PropOp28
 70
     1
102
RTVSPost2010Prop29
280
     1
102
RTVSPost2010PropOp29
 70
     1
102
RTVSPost2010Prop30
280
     1
102
RTVSPost2010PropOp30
 70
     1
102
RTVSPost2010Prop31
280
     0
102
RTVSPost2010PropOp31
 70
     1
102
RTVSPost2010Prop32
280
     0
102
RTVSPost2010PropOp32
 70
     1
102
RTVSPost2010Prop33
280
     0
102
RTVSPost2010PropOp33
 70
     1
102
RTVSPost2010Prop34
280
     0
102
RTVSPost2010PropOp34
 70
     1
102
RTVSPost2010Prop35
280
     0
102
RTVSPost2010PropOp35
 70
     1
102
RTVSPost2010Prop36
280
     0
102
RTVSPost2010PropOp36
 70
     1
102
RTVSPost2010Prop37
 90
       50
102
RTVSPost2010PropOp37
 70
     1
102
RTVSPost2010Prop38
140
0.0
102
RTVSPost2010PropOp38
 70
     1
102
RTVSPost2010Prop39
140
1.0
102
RTVSPost2010PropOp39
 70
     1
102
RTVSPost2010Prop40
 90
        0
102
RTVSPost2010PropOp40
 70
     1
102
RTVSPost2010Prop41ColorIndex
 90
       18
102
RTVSPost2010Prop41ColorRGB
 90
        0
102
RTVSPost2010PropOp41
 70
     1
102
RTVSPost2010Prop42
 90
       50
102
RTVSPost2010PropOp42
 70
     1
102
RTVSPost2010Prop43
 90
        3
102
RTVSPost2010PropOp43
 70
     1
102
RTVSPost2010Prop44ColorIndex
 90
        5
102
RTVSPost2010Prop44ColorRGB
 90
      255
102
RTVSPost2010PropOp44
 70
     1
102
RTVSPost2010Prop45
280
     0
102
RTVSPost2010PropOp45
 70
     1
102
RTVSPost2010Prop46
 90
       50
102
RTVSPost2010PropOp46
 70
     1
102
RTVSPost2010Prop47
 90
       50
102
RTVSPost2010PropOp47
 70
     1
102
RTVSPost2010Prop48
 90
       50
102
RTVSPost2010PropOp48
 70
     1
102
RTVSPost2010Prop49
280
     0
102
RTVSPost2010PropOp49
 70
     1
102
RTVSPost2010Prop50
 90
       50
102
RTVSPost2010PropOp50
 70
     1
102
RTVSPost2010Prop51ColorIndex
 90
      256
102
RTVSPost2010Prop51ColorRGB
 90
-16777216
102
RTVSPost2010PropOp51
 70
     0
102
RTVSPost2010Prop52
140
1.0
102
RTVSPost2010PropOp52
 70
     0
102
RTVSPost2010Prop53
 90
        2
102
RTVSPost2010PropOp53
 70
     1
102
RTVSPost2010Prop54
  1
strokes_ogs.tif
102
RTVSPost2010PropOp54
 70
     1
102
RTVSPost2010Prop55
280
     0
102
RTVSPost2010PropOp55
 70
     1
102
RTVSPost2010Prop56
140
1.0
102
RTVSPost2010PropOp56
 70
     1
102
RTVSPost2010Prop57
140
1.0
102
RTVSPost2010PropOp57
 70
     1
  0
XRECORD
  5
1C1
102
{ACAD_REACTORS
330
1C0
102
}
330
1C0
100
AcDbXrecord
280
     1
102
RTVSPost2010Prop28
280
     0
102
RTVSPost2010PropOp28
 70
     1
102
RTVSPost2010Prop29
280
     1
102
RTVSPost2010PropOp29
 70
     1
102
RTVSPost2010Prop30
280
     1
102
RTVSPost2010PropOp30
 70
     1
102
RTVSPost2010Prop31
280
     0
102
RTVSPost2010PropOp31
 70
     1
102
RTVSPost2010Prop32
280
     0
102
RTVSPost2010PropOp32
 70
     1
102
RTVSPost2010Prop33
280
     0
102
RTVSPost2010PropOp33
 70
     1
102
RTVSPost2010Prop34
280
     0
102
RTVSPost2010PropOp34
 70
     1
102
RTVSPost2010Prop35
280
     0
102
RTVSPost2010PropOp35
 70
     1
102
RTVSPost2010Prop36
280
     0
102
RTVSPost2010PropOp36
 70
     1
102
RTVSPost2010Prop37
 90
       50
102
RTVSPost2010PropOp37
 70
     1
102
RTVSPost2010Prop38
140
0.0
102
RTVSPost2010PropOp38
 70
     1
102
RTVSPost2010Prop39
140
1.0
102
RTVSPost2010PropOp39
 70
     1
102
RTVSPost2010Prop40
 90
        0
102
RTVSPost2010PropOp40
 70
     1
102
RTVSPost2010Prop41ColorIndex
 90
       18
102
RTVSPost2010Prop41ColorRGB
 90
        0
102
RTVSPost2010PropOp41
 70
     1
102
RTVSPost2010Prop42
 90
       50
102
RTVSPost2010PropOp42
 70
     1
102
RTVSPost2010Prop43
 90
        3
102
RTVSPost2010PropOp43
 70
     1
102
RTVSPost2010Prop44ColorIndex
 90
        5
102
RTVSPost2010Prop44ColorRGB
 90
      255
102
RTVSPost2010PropOp44
 70
     1
102
RTVSPost2010Prop45
280
     0
102
RTVSPost2010PropOp45
 70
     1
102
RTVSPost2010Prop46
 90
       50
102
RTVSPost2010PropOp46
 70
     1
102
RTVSPost2010Prop47
 90
       50
102
RTVSPost2010PropOp47
 70
     1
102
RTVSPost2010Prop48
 90
       50
102
RTVSPost2010PropOp48
 70
     1
102
RTVSPost2010Prop49
280
     0
102
RTVSPost2010PropOp49
 70
     1
102
RTVSPost2010Prop50
 90
       50
102
RTVSPost2010PropOp50
 70
     1
102
RTVSPost2010Prop51ColorIndex
 90
      256
102
RTVSPost2010Prop51ColorRGB
 90
-16777216
102
RTVSPost2010PropOp51
 70
     0
102
RTVSPost2010Prop52
140
1.0
102
RTVSPost2010PropOp52
 70
     0
102
RTVSPost2010Prop53
 90
        2
102
RTVSPost2010PropOp53
 70
     1
102
RTVSPost2010Prop54
  1
strokes_ogs.tif
102
RTVSPost2010PropOp54
 70
     1
102
RTVSPost2010Prop55
280
     0
102
RTVSPost2010PropOp55
 70
     1
102
RTVSPost2010Prop56
140
1.0
102
RTVSPost2010PropOp56
 70
     1
102
RTVSPost2010Prop57
140
1.0
102
RTVSPost2010PropOp57
 70
     1
  0
XRECORD
  5
1C9
102
{ACAD_REACTORS
330
1C8
102
}
330
1C8
100
AcDbXrecord
280
     1
102
RTVSPost2010Prop28
280
     0
102
RTVSPost2010PropOp28
 70
     1
102
RTVSPost2010Prop29
280
     1
102
RTVSPost2010PropOp29
 70
     1
102
RTVSPost2010Prop30
280
     1
102
RTVSPost2010PropOp30
 70
     1
102
RTVSPost2010Prop31
280
     0
102
RTVSPost2010PropOp31
 70
     1
102
RTVSPost2010Prop32
280
     0
102
RTVSPost2010PropOp32
 70
     1
102
RTVSPost2010Prop33
280
     0
102
RTVSPost2010PropOp33
 70
     1
102
RTVSPost2010Prop34
280
     0
102
RTVSPost2010PropOp34
 70
     1
102
RTVSPost2010Prop35
280
     0
102
RTVSPost2010PropOp35
 70
     1
102
RTVSPost2010Prop36
280
     0
102
RTVSPost2010PropOp36
 70
     1
102
RTVSPost2010Prop37
 90
       50
102
RTVSPost2010PropOp37
 70
     1
102
RTVSPost2010Prop38
140
0.0
102
RTVSPost2010PropOp38
 70
     1
102
RTVSPost2010Prop39
140
1.0
102
RTVSPost2010PropOp39
 70
     1
102
RTVSPost2010Prop40
 90
        0
102
RTVSPost2010PropOp40
 70
     1
102
RTVSPost2010Prop41ColorIndex
 90
       18
102
RTVSPost2010Prop41ColorRGB
 90
        0
102
RTVSPost2010PropOp41
 70
     1
102
RTVSPost2010Prop42
 90
       50
102
RTVSPost2010PropOp42
 70
     1
102
RTVSPost2010Prop43
 90
        3
102
RTVSPost2010PropOp43
 70
     1
102
RTVSPost2010Prop44ColorIndex
 90
        5
102
RTVSPost2010Prop44ColorRGB
 90
      255
102
RTVSPost2010PropOp44
 70
     1
102
RTVSPost2010Prop45
280
     0
102
RTVSPost2010PropOp45
 70
     1
102
RTVSPost2010Prop46
 90
       50
102
RTVSPost2010PropOp46
 70
     1
102
RTVSPost2010Prop47
 90
       50
102
RTVSPost2010PropOp47
 70
     1
102
RTVSPost2010Prop48
 90
       50
102
RTVSPost2010PropOp48
 70
     1
102
RTVSPost2010Prop49
280
     0
102
RTVSPost2010PropOp49
 70
     1
102
RTVSPost2010Prop50
 90
       50
102
RTVSPost2010PropOp50
 70
     1
102
RTVSPost2010Prop51ColorIndex
 90
      256
102
RTVSPost2010Prop51ColorRGB
 90
-16777216
102
RTVSPost2010PropOp51
 70
     0
102
RTVSPost2010Prop52
140
1.0
102
RTVSPost2010PropOp52
 70
     0
102
RTVSPost2010Prop53
 90
        2
102
RTVSPost2010PropOp53
 70
     1
102
RTVSPost2010Prop54
  1
strokes_ogs.tif
102
RTVSPost2010PropOp54
 70
     1
102
RTVSPost2010Prop55
280
     0
102
RTVSPost2010PropOp55
 70
     1
102
RTVSPost2010Prop56
140
1.0
102
RTVSPost2010PropOp56
 70
     1
102
RTVSPost2010Prop57
140
1.0
102
RTVSPost2010PropOp57
 70
     1
  0
XRECORD
  5
1BB
102
{ACAD_REACTORS
330
1BA
102
}
330
1BA
100
AcDbXrecord
280
     1
102
RTVSPost2010Prop28
280
     0
102
RTVSPost2010PropOp28
 70
     1
102
RTVSPost2010Prop29
280
     1
102
RTVSPost2010PropOp29
 70
     1
102
RTVSPost2010Prop30
280
     1
102
RTVSPost2010PropOp30
 70
     1
102
RTVSPost2010Prop31
280
     0
102
RTVSPost2010PropOp31
 70
     1
102
RTVSPost2010Prop32
280
     0
102
RTVSPost2010PropOp32
 70
     1
102
RTVSPost2010Prop33
280
     0
102
RTVSPost2010PropOp33
 70
     1
102
RTVSPost2010Prop34
280
     0
102
RTVSPost2010PropOp34
 70
     1
102
RTVSPost2010Prop35
280
     0
102
RTVSPost2010PropOp35
 70
     1
102
RTVSPost2010Prop36
280
     0
102
RTVSPost2010PropOp36
 70
     1
102
RTVSPost2010Prop37
 90
       50
102
RTVSPost2010PropOp37
 70
     1
102
RTVSPost2010Prop38
140
0.0
102
RTVSPost2010PropOp38
 70
     1
102
RTVSPost2010Prop39
140
1.0
102
RTVSPost2010PropOp39
 70
     1
102
RTVSPost2010Prop40
 90
        0
102
RTVSPost2010PropOp40
 70
     1
102
RTVSPost2010Prop41ColorIndex
 90
       18
102
RTVSPost2010Prop41ColorRGB
 90
        0
102
RTVSPost2010PropOp41
 70
     1
102
RTVSPost2010Prop42
 90
       50
102
RTVSPost2010PropOp42
 70
     1
102
RTVSPost2010Prop43
 90
        3
102
RTVSPost2010PropOp43
 70
     1
102
RTVSPost2010Prop44ColorIndex
 90
        5
102
RTVSPost2010Prop44ColorRGB
 90
      255
102
RTVSPost2010PropOp44
 70
     1
102
RTVSPost2010Prop45
280
     0
102
RTVSPost2010PropOp45
 70
     1
102
RTVSPost2010Prop46
 90
       50
102
RTVSPost2010PropOp46
 70
     1
102
RTVSPost2010Prop47
 90
       50
102
RTVSPost2010PropOp47
 70
     1
102
RTVSPost2010Prop48
 90
       50
102
RTVSPost2010PropOp48
 70
     1
102
RTVSPost2010Prop49
280
     0
102
RTVSPost2010PropOp49
 70
     1
102
RTVSPost2010Prop50
 90
       50
102
RTVSPost2010PropOp50
 70
     1
102
RTVSPost2010Prop51ColorIndex
 90
      256
102
RTVSPost2010Prop51ColorRGB
 90
-16777216
102
RTVSPost2010PropOp51
 70
     0
102
RTVSPost2010Prop52
140
1.0
102
RTVSPost2010PropOp52
 70
     0
102
RTVSPost2010Prop53
 90
        2
102
RTVSPost2010PropOp53
 70
     1
102
RTVSPost2010Prop54
  1
strokes_ogs.tif
102
RTVSPost2010PropOp54
 70
     1
102
RTVSPost2010Prop55
280
     0
102
RTVSPost2010PropOp55
 70
     1
102
RTVSPost2010Prop56
140
1.0
102
RTVSPost2010PropOp56
 70
     1
102
RTVSPost2010Prop57
140
1.0
102
RTVSPost2010PropOp57
 70
     1
  0
XRECORD
  5
1BF
102
{ACAD_REACTORS
330
1BE
102
}
330
1BE
100
AcDbXrecord
280
     1
102
RTVSPost2010Prop28
280
     0
102
RTVSPost2010PropOp28
 70
     1
102
RTVSPost2010Prop29
280
     1
102
RTVSPost2010PropOp29
 70
     1
102
RTVSPost2010Prop30
280
     1
102
RTVSPost2010PropOp30
 70
     1
102
RTVSPost2010Prop31
280
     0
102
RTVSPost2010PropOp31
 70
     1
102
RTVSPost2010Prop32
280
     0
102
RTVSPost2010PropOp32
 70
     1
102
RTVSPost2010Prop33
280
     0
102
RTVSPost2010PropOp33
 70
     1
102
RTVSPost2010Prop34
280
     0
102
RTVSPost2010PropOp34
 70
     1
102
RTVSPost2010Prop35
280
     0
102
RTVSPost2010PropOp35
 70
     1
102
RTVSPost2010Prop36
280
     0
102
RTVSPost2010PropOp36
 70
     1
102
RTVSPost2010Prop37
 90
       50
102
RTVSPost2010PropOp37
 70
     1
102
RTVSPost2010Prop38
140
0.0
102
RTVSPost2010PropOp38
 70
     1
102
RTVSPost2010Prop39
140
1.0
102
RTVSPost2010PropOp39
 70
     1
102
RTVSPost2010Prop40
 90
        0
102
RTVSPost2010PropOp40
 70
     1
102
RTVSPost2010Prop41ColorIndex
 90
       18
102
RTVSPost2010Prop41ColorRGB
 90
        0
102
RTVSPost2010PropOp41
 70
     1
102
RTVSPost2010Prop42
 90
       50
102
RTVSPost2010PropOp42
 70
     1
102
RTVSPost2010Prop43
 90
        3
102
RTVSPost2010PropOp43
 70
     1
102
RTVSPost2010Prop44ColorIndex
 90
        5
102
RTVSPost2010Prop44ColorRGB
 90
      255
102
RTVSPost2010PropOp44
 70
     1
102
RTVSPost2010Prop45
280
     0
102
RTVSPost2010PropOp45
 70
     1
102
RTVSPost2010Prop46
 90
       50
102
RTVSPost2010PropOp46
 70
     1
102
RTVSPost2010Prop47
 90
       50
102
RTVSPost2010PropOp47
 70
     1
102
RTVSPost2010Prop48
 90
       50
102
RTVSPost2010PropOp48
 70
     1
102
RTVSPost2010Prop49
280
     0
102
RTVSPost2010PropOp49
 70
     1
102
RTVSPost2010Prop50
 90
       50
102
RTVSPost2010PropOp50
 70
     1
102
RTVSPost2010Prop51ColorIndex
 90
      256
102
RTVSPost2010Prop51ColorRGB
 90
-16777216
102
RTVSPost2010PropOp51
 70
     0
102
RTVSPost2010Prop52
140
1.0
102
RTVSPost2010PropOp52
 70
     0
102
RTVSPost2010Prop53
 90
        2
102
RTVSPost2010PropOp53
 70
     1
102
RTVSPost2010Prop54
  1
strokes_ogs.tif
102
RTVSPost2010PropOp54
 70
     1
102
RTVSPost2010Prop55
280
     0
102
RTVSPost2010PropOp55
 70
     1
102
RTVSPost2010Prop56
140
1.0
102
RTVSPost2010PropOp56
 70
     1
102
RTVSPost2010Prop57
140
1.0
102
RTVSPost2010PropOp57
 70
     1
  0
XRECORD
  5
1D9
102
{ACAD_REACTORS
330
1D8
102
}
330
1D8
100
AcDbXrecord
280
     1
102
RTVSPost2010Prop28
280
     0
102
RTVSPost2010PropOp28
 70
     0
102
RTVSPost2010Prop29
280
     1
102
RTVSPost2010PropOp29
 70
     0
102
RTVSPost2010Prop30
280
     1
102
RTVSPost2010PropOp30
 70
     0
102
RTVSPost2010Prop31
280
     0
102
RTVSPost2010PropOp31
 70
     0
102
RTVSPost2010Prop32
280
     0
102
RTVSPost2010PropOp32
 70
     0
102
RTVSPost2010Prop33
280
     0
102
RTVSPost2010PropOp33
 70
     0
102
RTVSPost2010Prop34
280
     0
102
RTVSPost2010PropOp34
 70
     0
102
RTVSPost2010Prop35
280
     0
102
RTVSPost2010PropOp35
 70
     0
102
RTVSPost2010Prop36
280
     0
102
RTVSPost2010PropOp36
 70
     0
102
RTVSPost2010Prop37
 90
       50
102
RTVSPost2010PropOp37
 70
     0
102
RTVSPost2010Prop38
140
0.0
102
RTVSPost2010PropOp38
 70
     0
102
RTVSPost2010Prop39
140
1.0
102
RTVSPost2010PropOp39
 70
     0
102
RTVSPost2010Prop40
 90
        0
102
RTVSPost2010PropOp40
 70
     0
102
RTVSPost2010Prop41ColorIndex
 90
       18
102
RTVSPost2010Prop41ColorRGB
 90
        0
102
RTVSPost2010PropOp41
 70
     0
102
RTVSPost2010Prop42
 90
       50
102
RTVSPost2010PropOp42
 70
     0
102
RTVSPost2010Prop43
 90
        3
102
RTVSPost2010PropOp43
 70
     0
102
RTVSPost2010Prop44ColorIndex
 90
        5
102
RTVSPost2010Prop44ColorRGB
 90
      255
102
RTVSPost2010PropOp44
 70
     0
102
RTVSPost2010Prop45
280
     0
102
RTVSPost2010PropOp45
 70
     0
102
RTVSPost2010Prop46
 90
       50
102
RTVSPost2010PropOp46
 70
     0
102
RTVSPost2010Prop47
 90
       50
102
RTVSPost2010PropOp47
 70
     0
102
RTVSPost2010Prop48
 90
       50
102
RTVSPost2010PropOp48
 70
     0
102
RTVSPost2010Prop49
280
     0
102
RTVSPost2010PropOp49
 70
     0
102
RTVSPost2010Prop50
 90
       50
102
RTVSPost2010PropOp50
 70
     0
102
RTVSPost2010Prop51ColorIndex
 90
      256
102
RTVSPost2010Prop51ColorRGB
 90
-16777216
102
RTVSPost2010PropOp51
 70
     0
102
RTVSPost2010Prop52
140
1.0
102
RTVSPost2010PropOp52
 70
     0
102
RTVSPost2010Prop53
 90
        2
102
RTVSPost2010PropOp53
 70
     0
102
RTVSPost2010Prop54
  1
strokes_ogs.tif
102
RTVSPost2010PropOp54
 70
     0
102
RTVSPost2010Prop55
280
     0
102
RTVSPost2010PropOp55
 70
     0
102
RTVSPost2010Prop56
140
1.0
102
RTVSPost2010PropOp56
 70
     0
102
RTVSPost2010Prop57
140
1.0
102
RTVSPost2010PropOp57
 70
     0
  0
XRECORD
  5
1C7
102
{ACAD_REACTORS
330
1C6
102
}
330
1C6
100
AcDbXrecord
280
     1
102
RTVSPost2010Prop28
280
     0
102
RTVSPost2010PropOp28
 70
     1
102
RTVSPost2010Prop29
280
     1
102
RTVSPost2010PropOp29
 70
     1
102
RTVSPost2010Prop30
280
     1
102
RTVSPost2010PropOp30
 70
     1
102
RTVSPost2010Prop31
280
     0
102
RTVSPost2010PropOp31
 70
     1
102
RTVSPost2010Prop32
280
     0
102
RTVSPost2010PropOp32
 70
     1
102
RTVSPost2010Prop33
280
     0
102
RTVSPost2010PropOp33
 70
     1
102
RTVSPost2010Prop34
280
     0
102
RTVSPost2010PropOp34
 70
     1
102
RTVSPost2010Prop35
280
     0
102
RTVSPost2010PropOp35
 70
     1
102
RTVSPost2010Prop36
280
     0
102
RTVSPost2010PropOp36
 70
     1
102
RTVSPost2010Prop37
 90
       50
102
RTVSPost2010PropOp37
 70
     1
102
RTVSPost2010Prop38
140
0.0
102
RTVSPost2010PropOp38
 70
     1
102
RTVSPost2010Prop39
140
1.0
102
RTVSPost2010PropOp39
 70
     1
102
RTVSPost2010Prop40
 90
        0
102
RTVSPost2010PropOp40
 70
     1
102
RTVSPost2010Prop41ColorIndex
 90
       18
102
RTVSPost2010Prop41ColorRGB
 90
        0
102
RTVSPost2010PropOp41
 70
     1
102
RTVSPost2010Prop42
 90
       50
102
RTVSPost2010PropOp42
 70
     1
102
RTVSPost2010Prop43
 90
        3
102
RTVSPost2010PropOp43
 70
     1
102
RTVSPost2010Prop44ColorIndex
 90
        5
102
RTVSPost2010Prop44ColorRGB
 90
      255
102
RTVSPost2010PropOp44
 70
     1
102
RTVSPost2010Prop45
280
     0
102
RTVSPost2010PropOp45
 70
     1
102
RTVSPost2010Prop46
 90
       50
102
RTVSPost2010PropOp46
 70
     1
102
RTVSPost2010Prop47
 90
       50
102
RTVSPost2010PropOp47
 70
     1
102
RTVSPost2010Prop48
 90
       50
102
RTVSPost2010PropOp48
 70
     1
102
RTVSPost2010Prop49
280
     0
102
RTVSPost2010PropOp49
 70
     1
102
RTVSPost2010Prop50
 90
       50
102
RTVSPost2010PropOp50
 70
     1
102
RTVSPost2010Prop51ColorIndex
 90
      256
102
RTVSPost2010Prop51ColorRGB
 90
-16777216
102
RTVSPost2010PropOp51
 70
     0
102
RTVSPost2010Prop52
140
1.0
102
RTVSPost2010PropOp52
 70
     0
102
RTVSPost2010Prop53
 90
        2
102
RTVSPost2010PropOp53
 70
     1
102
RTVSPost2010Prop54
  1
strokes_ogs.tif
102
RTVSPost2010PropOp54
 70
     1
102
RTVSPost2010Prop55
280
     0
102
RTVSPost2010PropOp55
 70
     1
102
RTVSPost2010Prop56
140
1.0
102
RTVSPost2010PropOp56
 70
     1
102
RTVSPost2010Prop57
140
1.0
102
RTVSPost2010PropOp57
 70
     1
  0
XRECORD
  5
1AB
102
{ACAD_REACTORS
330
1AA
102
}
330
1AA
100
AcDbXrecord
280
     1
102
RTVSPost2010Prop28
280
     0
102
RTVSPost2010PropOp28
 70
     1
102
RTVSPost2010Prop29
280
     1
102
RTVSPost2010PropOp29
 70
     1
102
RTVSPost2010Prop30
280
     1
102
RTVSPost2010PropOp30
 70
     1
102
RTVSPost2010Prop31
280
     0
102
RTVSPost2010PropOp31
 70
     1
102
RTVSPost2010Prop32
280
     0
102
RTVSPost2010PropOp32
 70
     1
102
RTVSPost2010Prop33
280
     0
102
RTVSPost2010PropOp33
 70
     1
102
RTVSPost2010Prop34
280
     0
102
RTVSPost2010PropOp34
 70
     1
102
RTVSPost2010Prop35
280
     0
102
RTVSPost2010PropOp35
 70
     1
102
RTVSPost2010Prop36
280
     0
102
RTVSPost2010PropOp36
 70
     1
102
RTVSPost2010Prop37
 90
       50
102
RTVSPost2010PropOp37
 70
     1
102
RTVSPost2010Prop38
140
0.0
102
RTVSPost2010PropOp38
 70
     1
102
RTVSPost2010Prop39
140
1.0
102
RTVSPost2010PropOp39
 70
     1
102
RTVSPost2010Prop40
 90
        0
102
RTVSPost2010PropOp40
 70
     1
102
RTVSPost2010Prop41ColorIndex
 90
       18
102
RTVSPost2010Prop41ColorRGB
 90
        0
102
RTVSPost2010PropOp41
 70
     1
102
RTVSPost2010Prop42
 90
       50
102
RTVSPost2010PropOp42
 70
     1
102
RTVSPost2010Prop43
 90
        3
102
RTVSPost2010PropOp43
 70
     1
102
RTVSPost2010Prop44ColorIndex
 90
        5
102
RTVSPost2010Prop44ColorRGB
 90
      255
102
RTVSPost2010PropOp44
 70
     1
102
RTVSPost2010Prop45
280
     0
102
RTVSPost2010PropOp45
 70
     1
102
RTVSPost2010Prop46
 90
       50
102
RTVSPost2010PropOp46
 70
     1
102
RTVSPost2010Prop47
 90
       50
102
RTVSPost2010PropOp47
 70
     1
102
RTVSPost2010Prop48
 90
       50
102
RTVSPost2010PropOp48
 70
     1
102
RTVSPost2010Prop49
280
     0
102
RTVSPost2010PropOp49
 70
     1
102
RTVSPost2010Prop50
 90
       50
102
RTVSPost2010PropOp50
 70
     1
102
RTVSPost2010Prop51ColorIndex
 90
      256
102
RTVSPost2010Prop51ColorRGB
 90
-16777216
102
RTVSPost2010PropOp51
 70
     0
102
RTVSPost2010Prop52
140
1.0
102
RTVSPost2010PropOp52
 70
     0
102
RTVSPost2010Prop53
 90
        2
102
RTVSPost2010PropOp53
 70
     1
102
RTVSPost2010Prop54
  1
strokes_ogs.tif
102
RTVSPost2010PropOp54
 70
     1
102
RTVSPost2010Prop55
280
     0
102
RTVSPost2010PropOp55
 70
     1
102
RTVSPost2010Prop56
140
1.0
102
RTVSPost2010PropOp56
 70
     1
102
RTVSPost2010Prop57
140
1.0
102
RTVSPost2010PropOp57
 70
     1
  0
XRECORD
  5
1AD
102
{ACAD_REACTORS
330
1AC
102
}
330
1AC
100
AcDbXrecord
280
     1
102
RTVSPost2010Prop28
280
     0
102
RTVSPost2010PropOp28
 70
     1
102
RTVSPost2010Prop29
280
     1
102
RTVSPost2010PropOp29
 70
     1
102
RTVSPost2010Prop30
280
     1
102
RTVSPost2010PropOp30
 70
     1
102
RTVSPost2010Prop31
280
     0
102
RTVSPost2010PropOp31
 70
     1
102
RTVSPost2010Prop32
280
     0
102
RTVSPost2010PropOp32
 70
     1
102
RTVSPost2010Prop33
280
     0
102
RTVSPost2010PropOp33
 70
     1
102
RTVSPost2010Prop34
280
     0
102
RTVSPost2010PropOp34
 70
     1
102
RTVSPost2010Prop35
280
     0
102
RTVSPost2010PropOp35
 70
     1
102
RTVSPost2010Prop36
280
     0
102
RTVSPost2010PropOp36
 70
     1
102
RTVSPost2010Prop37
 90
       50
102
RTVSPost2010PropOp37
 70
     1
102
RTVSPost2010Prop38
140
0.0
102
RTVSPost2010PropOp38
 70
     1
102
RTVSPost2010Prop39
140
1.0
102
RTVSPost2010PropOp39
 70
     1
102
RTVSPost2010Prop40
 90
        0
102
RTVSPost2010PropOp40
 70
     1
102
RTVSPost2010Prop41ColorIndex
 90
       18
102
RTVSPost2010Prop41ColorRGB
 90
        0
102
RTVSPost2010PropOp41
 70
     1
102
RTVSPost2010Prop42
 90
       50
102
RTVSPost2010PropOp42
 70
     1
102
RTVSPost2010Prop43
 90
        3
102
RTVSPost2010PropOp43
 70
     1
102
RTVSPost2010Prop44ColorIndex
 90
        5
102
RTVSPost2010Prop44ColorRGB
 90
      255
102
RTVSPost2010PropOp44
 70
     1
102
RTVSPost2010Prop45
280
     0
102
RTVSPost2010PropOp45
 70
     1
102
RTVSPost2010Prop46
 90
       50
102
RTVSPost2010PropOp46
 70
     1
102
RTVSPost2010Prop47
 90
       50
102
RTVSPost2010PropOp47
 70
     1
102
RTVSPost2010Prop48
 90
       50
102
RTVSPost2010PropOp48
 70
     1
102
RTVSPost2010Prop49
280
     0
102
RTVSPost2010PropOp49
 70
     1
102
RTVSPost2010Prop50
 90
       50
102
RTVSPost2010PropOp50
 70
     1
102
RTVSPost2010Prop51ColorIndex
 90
      256
102
RTVSPost2010Prop51ColorRGB
 90
-16777216
102
RTVSPost2010PropOp51
 70
     0
102
RTVSPost2010Prop52
140
1.0
102
RTVSPost2010PropOp52
 70
     0
102
RTVSPost2010Prop53
 90
        2
102
RTVSPost2010PropOp53
 70
     1
102
RTVSPost2010Prop54
  1
strokes_ogs.tif
102
RTVSPost2010PropOp54
 70
     1
102
RTVSPost2010Prop55
280
     0
102
RTVSPost2010PropOp55
 70
     1
102
RTVSPost2010Prop56
140
1.0
102
RTVSPost2010PropOp56
 70
     1
102
RTVSPost2010Prop57
140
1.0
102
RTVSPost2010PropOp57
 70
     1
  0
XRECORD
  5
1AF
102
{ACAD_REACTORS
330
1AE
102
}
330
1AE
100
AcDbXrecord
280
     1
102
RTVSPost2010Prop28
280
     0
102
RTVSPost2010PropOp28
 70
     1
102
RTVSPost2010Prop29
280
     1
102
RTVSPost2010PropOp29
 70
     1
102
RTVSPost2010Prop30
280
     1
102
RTVSPost2010PropOp30
 70
     1
102
RTVSPost2010Prop31
280
     0
102
RTVSPost2010PropOp31
 70
     1
102
RTVSPost2010Prop32
280
     0
102
RTVSPost2010PropOp32
 70
     1
102
RTVSPost2010Prop33
280
     0
102
RTVSPost2010PropOp33
 70
     1
102
RTVSPost2010Prop34
280
     0
102
RTVSPost2010PropOp34
 70
     1
102
RTVSPost2010Prop35
280
     0
102
RTVSPost2010PropOp35
 70
     1
102
RTVSPost2010Prop36
280
     0
102
RTVSPost2010PropOp36
 70
     1
102
RTVSPost2010Prop37
 90
       50
102
RTVSPost2010PropOp37
 70
     1
102
RTVSPost2010Prop38
140
0.0
102
RTVSPost2010PropOp38
 70
     1
102
RTVSPost2010Prop39
140
1.0
102
RTVSPost2010PropOp39
 70
     1
102
RTVSPost2010Prop40
 90
        0
102
RTVSPost2010PropOp40
 70
     1
102
RTVSPost2010Prop41ColorIndex
 90
       18
102
RTVSPost2010Prop41ColorRGB
 90
        0
102
RTVSPost2010PropOp41
 70
     1
102
RTVSPost2010Prop42
 90
       50
102
RTVSPost2010PropOp42
 70
     1
102
RTVSPost2010Prop43
 90
        3
102
RTVSPost2010PropOp43
 70
     1
102
RTVSPost2010Prop44ColorIndex
 90
        5
102
RTVSPost2010Prop44ColorRGB
 90
      255
102
RTVSPost2010PropOp44
 70
     1
102
RTVSPost2010Prop45
280
     0
102
RTVSPost2010PropOp45
 70
     1
102
RTVSPost2010Prop46
 90
       50
102
RTVSPost2010PropOp46
 70
     1
102
RTVSPost2010Prop47
 90
       50
102
RTVSPost2010PropOp47
 70
     1
102
RTVSPost2010Prop48
 90
       50
102
RTVSPost2010PropOp48
 70
     1
102
RTVSPost2010Prop49
280
     0
102
RTVSPost2010PropOp49
 70
     1
102
RTVSPost2010Prop50
 90
       50
102
RTVSPost2010PropOp50
 70
     1
102
RTVSPost2010Prop51ColorIndex
 90
      256
102
RTVSPost2010Prop51ColorRGB
 90
-16777216
102
RTVSPost2010PropOp51
 70
     0
102
RTVSPost2010Prop52
140
1.0
102
RTVSPost2010PropOp52
 70
     0
102
RTVSPost2010Prop53
 90
        2
102
RTVSPost2010PropOp53
 70
     1
102
RTVSPost2010Prop54
  1
strokes_ogs.tif
102
RTVSPost2010PropOp54
 70
     1
102
RTVSPost2010Prop55
280
     0
102
RTVSPost2010PropOp55
 70
     1
102
RTVSPost2010Prop56
140
1.0
102
RTVSPost2010PropOp56
 70
     1
102
RTVSPost2010Prop57
140
1.0
102
RTVSPost2010PropOp57
 70
     1
  0
XRECORD
  5
1B1
102
{ACAD_REACTORS
330
1B0
102
}
330
1B0
100
AcDbXrecord
280
     1
102
RTVSPost2010Prop28
280
     0
102
RTVSPost2010PropOp28
 70
     1
102
RTVSPost2010Prop29
280
     1
102
RTVSPost2010PropOp29
 70
     1
102
RTVSPost2010Prop30
280
     1
102
RTVSPost2010PropOp30
 70
     1
102
RTVSPost2010Prop31
280
     0
102
RTVSPost2010PropOp31
 70
     1
102
RTVSPost2010Prop32
280
     0
102
RTVSPost2010PropOp32
 70
     1
102
RTVSPost2010Prop33
280
     0
102
RTVSPost2010PropOp33
 70
     1
102
RTVSPost2010Prop34
280
     0
102
RTVSPost2010PropOp34
 70
     1
102
RTVSPost2010Prop35
280
     0
102
RTVSPost2010PropOp35
 70
     1
102
RTVSPost2010Prop36
280
     0
102
RTVSPost2010PropOp36
 70
     1
102
RTVSPost2010Prop37
 90
       50
102
RTVSPost2010PropOp37
 70
     1
102
RTVSPost2010Prop38
140
0.0
102
RTVSPost2010PropOp38
 70
     1
102
RTVSPost2010Prop39
140
1.0
102
RTVSPost2010PropOp39
 70
     1
102
RTVSPost2010Prop40
 90
        0
102
RTVSPost2010PropOp40
 70
     1
102
RTVSPost2010Prop41ColorIndex
 90
       18
102
RTVSPost2010Prop41ColorRGB
 90
        0
102
RTVSPost2010PropOp41
 70
     1
102
RTVSPost2010Prop42
 90
       50
102
RTVSPost2010PropOp42
 70
     1
102
RTVSPost2010Prop43
 90
        3
102
RTVSPost2010PropOp43
 70
     1
102
RTVSPost2010Prop44ColorIndex
 90
        5
102
RTVSPost2010Prop44ColorRGB
 90
      255
102
RTVSPost2010PropOp44
 70
     1
102
RTVSPost2010Prop45
280
     0
102
RTVSPost2010PropOp45
 70
     1
102
RTVSPost2010Prop46
 90
       50
102
RTVSPost2010PropOp46
 70
     1
102
RTVSPost2010Prop47
 90
       50
102
RTVSPost2010PropOp47
 70
     1
102
RTVSPost2010Prop48
 90
       50
102
RTVSPost2010PropOp48
 70
     1
102
RTVSPost2010Prop49
280
     0
102
RTVSPost2010PropOp49
 70
     1
102
RTVSPost2010Prop50
 90
       50
102
RTVSPost2010PropOp50
 70
     1
102
RTVSPost2010Prop51ColorIndex
 90
      256
102
RTVSPost2010Prop51ColorRGB
 90
-16777216
102
RTVSPost2010PropOp51
 70
     0
102
RTVSPost2010Prop52
140
1.0
102
RTVSPost2010PropOp52
 70
     0
102
RTVSPost2010Prop53
 90
        2
102
RTVSPost2010PropOp53
 70
     1
102
RTVSPost2010Prop54
  1
strokes_ogs.tif
102
RTVSPost2010PropOp54
 70
     1
102
RTVSPost2010Prop55
280
     0
102
RTVSPost2010PropOp55
 70
     1
102
RTVSPost2010Prop56
140
1.0
102
RTVSPost2010PropOp56
 70
     1
102
RTVSPost2010Prop57
140
1.0
102
RTVSPost2010PropOp57
 70
     1
  0
XRECORD
  5
1B9
102
{ACAD_REACTORS
330
1B8
102
}
330
1B8
100
AcDbXrecord
280
     1
102
RTVSPost2010Prop28
280
     0
102
RTVSPost2010PropOp28
 70
     1
102
RTVSPost2010Prop29
280
     1
102
RTVSPost2010PropOp29
 70
     1
102
RTVSPost2010Prop30
280
     1
102
RTVSPost2010PropOp30
 70
     1
102
RTVSPost2010Prop31
280
     0
102
RTVSPost2010PropOp31
 70
     1
102
RTVSPost2010Prop32
280
     0
102
RTVSPost2010PropOp32
 70
     1
102
RTVSPost2010Prop33
280
     0
102
RTVSPost2010PropOp33
 70
     1
102
RTVSPost2010Prop34
280
     0
102
RTVSPost2010PropOp34
 70
     1
102
RTVSPost2010Prop35
280
     0
102
RTVSPost2010PropOp35
 70
     1
102
RTVSPost2010Prop36
280
     0
102
RTVSPost2010PropOp36
 70
     1
102
RTVSPost2010Prop37
 90
       50
102
RTVSPost2010PropOp37
 70
     1
102
RTVSPost2010Prop38
140
0.0
102
RTVSPost2010PropOp38
 70
     1
102
RTVSPost2010Prop39
140
1.0
102
RTVSPost2010PropOp39
 70
     1
102
RTVSPost2010Prop40
 90
        0
102
RTVSPost2010PropOp40
 70
     1
102
RTVSPost2010Prop41ColorIndex
 90
       18
102
RTVSPost2010Prop41ColorRGB
 90
        0
102
RTVSPost2010PropOp41
 70
     1
102
RTVSPost2010Prop42
 90
       50
102
RTVSPost2010PropOp42
 70
     1
102
RTVSPost2010Prop43
 90
        3
102
RTVSPost2010PropOp43
 70
     1
102
RTVSPost2010Prop44ColorIndex
 90
        5
102
RTVSPost2010Prop44ColorRGB
 90
      255
102
RTVSPost2010PropOp44
 70
     1
102
RTVSPost2010Prop45
280
     0
102
RTVSPost2010PropOp45
 70
     1
102
RTVSPost2010Prop46
 90
       50
102
RTVSPost2010PropOp46
 70
     1
102
RTVSPost2010Prop47
 90
       50
102
RTVSPost2010PropOp47
 70
     1
102
RTVSPost2010Prop48
 90
       50
102
RTVSPost2010PropOp48
 70
     1
102
RTVSPost2010Prop49
280
     0
102
RTVSPost2010PropOp49
 70
     1
102
RTVSPost2010Prop50
 90
       50
102
RTVSPost2010PropOp50
 70
     1
102
RTVSPost2010Prop51ColorIndex
 90
      256
102
RTVSPost2010Prop51ColorRGB
 90
-16777216
102
RTVSPost2010PropOp51
 70
     0
102
RTVSPost2010Prop52
140
1.0
102
RTVSPost2010PropOp52
 70
     0
102
RTVSPost2010Prop53
 90
        2
102
RTVSPost2010PropOp53
 70
     1
102
RTVSPost2010Prop54
  1
strokes_ogs.tif
102
RTVSPost2010PropOp54
 70
     1
102
RTVSPost2010Prop55
280
     0
102
RTVSPost2010PropOp55
 70
     1
102
RTVSPost2010Prop56
140
1.0
102
RTVSPost2010PropOp56
 70
     1
102
RTVSPost2010Prop57
140
1.0
102
RTVSPost2010PropOp57
 70
     1
  0
XRECORD
  5
1D5
102
{ACAD_REACTORS
330
1D4
102
}
330
1D4
100
AcDbXrecord
280
     1
102
RTVSPost2010Prop28
280
     0
102
RTVSPost2010PropOp28
 70
     0
102
RTVSPost2010Prop29
280
     1
102
RTVSPost2010PropOp29
 70
     0
102
RTVSPost2010Prop30
280
     1
102
RTVSPost2010PropOp30
 70
     0
102
RTVSPost2010Prop31
280
     0
102
RTVSPost2010PropOp31
 70
     0
102
RTVSPost2010Prop32
280
     0
102
RTVSPost2010PropOp32
 70
     0
102
RTVSPost2010Prop33
280
     0
102
RTVSPost2010PropOp33
 70
     0
102
RTVSPost2010Prop34
280
     0
102
RTVSPost2010PropOp34
 70
     0
102
RTVSPost2010Prop35
280
     0
102
RTVSPost2010PropOp35
 70
     0
102
RTVSPost2010Prop36
280
     0
102
RTVSPost2010PropOp36
 70
     0
102
RTVSPost2010Prop37
 90
       50
102
RTVSPost2010PropOp37
 70
     0
102
RTVSPost2010Prop38
140
0.0
102
RTVSPost2010PropOp38
 70
     0
102
RTVSPost2010Prop39
140
1.0
102
RTVSPost2010PropOp39
 70
     0
102
RTVSPost2010Prop40
 90
        0
102
RTVSPost2010PropOp40
 70
     0
102
RTVSPost2010Prop41ColorIndex
 90
       18
102
RTVSPost2010Prop41ColorRGB
 90
        0
102
RTVSPost2010PropOp41
 70
     0
102
RTVSPost2010Prop42
 90
       50
102
RTVSPost2010PropOp42
 70
     0
102
RTVSPost2010Prop43
 90
        3
102
RTVSPost2010PropOp43
 70
     0
102
RTVSPost2010Prop44ColorIndex
 90
        5
102
RTVSPost2010Prop44ColorRGB
 90
      255
102
RTVSPost2010PropOp44
 70
     0
102
RTVSPost2010Prop45
280
     0
102
RTVSPost2010PropOp45
 70
     0
102
RTVSPost2010Prop46
 90
       50
102
RTVSPost2010PropOp46
 70
     0
102
RTVSPost2010Prop47
 90
       50
102
RTVSPost2010PropOp47
 70
     0
102
RTVSPost2010Prop48
 90
       50
102
RTVSPost2010PropOp48
 70
     0
102
RTVSPost2010Prop49
280
     0
102
RTVSPost2010PropOp49
 70
     0
102
RTVSPost2010Prop50
 90
       50
102
RTVSPost2010PropOp50
 70
     0
102
RTVSPost2010Prop51ColorIndex
 90
      256
102
RTVSPost2010Prop51ColorRGB
 90
-16777216
102
RTVSPost2010PropOp51
 70
     0
102
RTVSPost2010Prop52
140
1.0
102
RTVSPost2010PropOp52
 70
     0
102
RTVSPost2010Prop53
 90
        2
102
RTVSPost2010PropOp53
 70
     0
102
RTVSPost2010Prop54
  1
strokes_ogs.tif
102
RTVSPost2010PropOp54
 70
     0
102
RTVSPost2010Prop55
280
     0
102
RTVSPost2010PropOp55
 70
     0
102
RTVSPost2010Prop56
140
1.0
102
RTVSPost2010PropOp56
 70
     0
102
RTVSPost2010Prop57
140
1.0
102
RTVSPost2010PropOp57
 70
     0
  0
XRECORD
  5
1C5
102
{ACAD_REACTORS
330
1C4
102
}
330
1C4
100
AcDbXrecord
280
     1
102
RTVSPost2010Prop28
280
     0
102
RTVSPost2010PropOp28
 70
     1
102
RTVSPost2010Prop29
280
     1
102
RTVSPost2010PropOp29
 70
     1
102
RTVSPost2010Prop30
280
     1
102
RTVSPost2010PropOp30
 70
     1
102
RTVSPost2010Prop31
280
     0
102
RTVSPost2010PropOp31
 70
     1
102
RTVSPost2010Prop32
280
     0
102
RTVSPost2010PropOp32
 70
     1
102
RTVSPost2010Prop33
280
     0
102
RTVSPost2010PropOp33
 70
     1
102
RTVSPost2010Prop34
280
     0
102
RTVSPost2010PropOp34
 70
     1
102
RTVSPost2010Prop35
280
     0
102
RTVSPost2010PropOp35
 70
     1
102
RTVSPost2010Prop36
280
     0
102
RTVSPost2010PropOp36
 70
     1
102
RTVSPost2010Prop37
 90
       50
102
RTVSPost2010PropOp37
 70
     1
102
RTVSPost2010Prop38
140
0.0
102
RTVSPost2010PropOp38
 70
     1
102
RTVSPost2010Prop39
140
1.0
102
RTVSPost2010PropOp39
 70
     1
102
RTVSPost2010Prop40
 90
        0
102
RTVSPost2010PropOp40
 70
     1
102
RTVSPost2010Prop41ColorIndex
 90
       18
102
RTVSPost2010Prop41ColorRGB
 90
        0
102
RTVSPost2010PropOp41
 70
     1
102
RTVSPost2010Prop42
 90
       50
102
RTVSPost2010PropOp42
 70
     1
102
RTVSPost2010Prop43
 90
        3
102
RTVSPost2010PropOp43
 70
     1
102
RTVSPost2010Prop44ColorIndex
 90
        5
102
RTVSPost2010Prop44ColorRGB
 90
      255
102
RTVSPost2010PropOp44
 70
     1
102
RTVSPost2010Prop45
280
     0
102
RTVSPost2010PropOp45
 70
     1
102
RTVSPost2010Prop46
 90
       50
102
RTVSPost2010PropOp46
 70
     1
102
RTVSPost2010Prop47
 90
       50
102
RTVSPost2010PropOp47
 70
     1
102
RTVSPost2010Prop48
 90
       50
102
RTVSPost2010PropOp48
 70
     1
102
RTVSPost2010Prop49
280
     0
102
RTVSPost2010PropOp49
 70
     1
102
RTVSPost2010Prop50
 90
       50
102
RTVSPost2010PropOp50
 70
     1
102
RTVSPost2010Prop51ColorIndex
 90
      256
102
RTVSPost2010Prop51ColorRGB
 90
-16777216
102
RTVSPost2010PropOp51
 70
     0
102
RTVSPost2010Prop52
140
1.0
102
RTVSPost2010PropOp52
 70
     0
102
RTVSPost2010Prop53
 90
        2
102
RTVSPost2010PropOp53
 70
     1
102
RTVSPost2010Prop54
  1
strokes_ogs.tif
102
RTVSPost2010PropOp54
 70
     1
102
RTVSPost2010Prop55
280
     0
102
RTVSPost2010PropOp55
 70
     1
102
RTVSPost2010Prop56
140
1.0
102
RTVSPost2010PropOp56
 70
     1
102
RTVSPost2010Prop57
140
1.0
102
RTVSPost2010PropOp57
 70
     1
  0
XRECORD
  5
1D7
102
{ACAD_REACTORS
330
1D6
102
}
330
1D6
100
AcDbXrecord
280
     1
102
RTVSPost2010Prop28
280
     0
102
RTVSPost2010PropOp28
 70
     0
102
RTVSPost2010Prop29
280
     1
102
RTVSPost2010PropOp29
 70
     0
102
RTVSPost2010Prop30
280
     1
102
RTVSPost2010PropOp30
 70
     0
102
RTVSPost2010Prop31
280
     0
102
RTVSPost2010PropOp31
 70
     0
102
RTVSPost2010Prop32
280
     0
102
RTVSPost2010PropOp32
 70
     0
102
RTVSPost2010Prop33
280
     0
102
RTVSPost2010PropOp33
 70
     0
102
RTVSPost2010Prop34
280
     0
102
RTVSPost2010PropOp34
 70
     0
102
RTVSPost2010Prop35
280
     0
102
RTVSPost2010PropOp35
 70
     0
102
RTVSPost2010Prop36
280
     0
102
RTVSPost2010PropOp36
 70
     0
102
RTVSPost2010Prop37
 90
       50
102
RTVSPost2010PropOp37
 70
     0
102
RTVSPost2010Prop38
140
0.0
102
RTVSPost2010PropOp38
 70
     0
102
RTVSPost2010Prop39
140
1.0
102
RTVSPost2010PropOp39
 70
     0
102
RTVSPost2010Prop40
 90
        0
102
RTVSPost2010PropOp40
 70
     0
102
RTVSPost2010Prop41ColorIndex
 90
       18
102
RTVSPost2010Prop41ColorRGB
 90
        0
102
RTVSPost2010PropOp41
 70
     0
102
RTVSPost2010Prop42
 90
       50
102
RTVSPost2010PropOp42
 70
     0
102
RTVSPost2010Prop43
 90
        3
102
RTVSPost2010PropOp43
 70
     0
102
RTVSPost2010Prop44ColorIndex
 90
        5
102
RTVSPost2010Prop44ColorRGB
 90
      255
102
RTVSPost2010PropOp44
 70
     0
102
RTVSPost2010Prop45
280
     0
102
RTVSPost2010PropOp45
 70
     0
102
RTVSPost2010Prop46
 90
       50
102
RTVSPost2010PropOp46
 70
     0
102
RTVSPost2010Prop47
 90
       50
102
RTVSPost2010PropOp47
 70
     0
102
RTVSPost2010Prop48
 90
       50
102
RTVSPost2010PropOp48
 70
     0
102
RTVSPost2010Prop49
280
     0
102
RTVSPost2010PropOp49
 70
     0
102
RTVSPost2010Prop50
 90
       50
102
RTVSPost2010PropOp50
 70
     0
102
RTVSPost2010Prop51ColorIndex
 90
      256
102
RTVSPost2010Prop51ColorRGB
 90
-16777216
102
RTVSPost2010PropOp51
 70
     0
102
RTVSPost2010Prop52
140
1.0
102
RTVSPost2010PropOp52
 70
     0
102
RTVSPost2010Prop53
 90
        2
102
RTVSPost2010PropOp53
 70
     0
102
RTVSPost2010Prop54
  1
strokes_ogs.tif
102
RTVSPost2010PropOp54
 70
     0
102
RTVSPost2010Prop55
280
     0
102
RTVSPost2010PropOp55
 70
     0
102
RTVSPost2010Prop56
140
1.0
102
RTVSPost2010PropOp56
 70
     0
102
RTVSPost2010Prop57
140
1.0
102
RTVSPost2010PropOp57
 70
     0
  0
XRECORD
  5
1BD
102
{ACAD_REACTORS
330
1BC
102
}
330
1BC
100
AcDbXrecord
280
     1
102
RTVSPost2010Prop28
280
     0
102
RTVSPost2010PropOp28
 70
     1
102
RTVSPost2010Prop29
280
     1
102
RTVSPost2010PropOp29
 70
     1
102
RTVSPost2010Prop30
280
     1
102
RTVSPost2010PropOp30
 70
     1
102
RTVSPost2010Prop31
280
     0
102
RTVSPost2010PropOp31
 70
     1
102
RTVSPost2010Prop32
280
     0
102
RTVSPost2010PropOp32
 70
     1
102
RTVSPost2010Prop33
280
     0
102
RTVSPost2010PropOp33
 70
     1
102
RTVSPost2010Prop34
280
     0
102
RTVSPost2010PropOp34
 70
     1
102
RTVSPost2010Prop35
280
     0
102
RTVSPost2010PropOp35
 70
     1
102
RTVSPost2010Prop36
280
     0
102
RTVSPost2010PropOp36
 70
     1
102
RTVSPost2010Prop37
 90
       50
102
RTVSPost2010PropOp37
 70
     1
102
RTVSPost2010Prop38
140
0.0
102
RTVSPost2010PropOp38
 70
     1
102
RTVSPost2010Prop39
140
1.0
102
RTVSPost2010PropOp39
 70
     1
102
RTVSPost2010Prop40
 90
        0
102
RTVSPost2010PropOp40
 70
     1
102
RTVSPost2010Prop41ColorIndex
 90
       18
102
RTVSPost2010Prop41ColorRGB
 90
        0
102
RTVSPost2010PropOp41
 70
     1
102
RTVSPost2010Prop42
 90
       50
102
RTVSPost2010PropOp42
 70
     1
102
RTVSPost2010Prop43
 90
        3
102
RTVSPost2010PropOp43
 70
     1
102
RTVSPost2010Prop44ColorIndex
 90
        5
102
RTVSPost2010Prop44ColorRGB
 90
      255
102
RTVSPost2010PropOp44
 70
     1
102
RTVSPost2010Prop45
280
     0
102
RTVSPost2010PropOp45
 70
     1
102
RTVSPost2010Prop46
 90
       50
102
RTVSPost2010PropOp46
 70
     1
102
RTVSPost2010Prop47
 90
       50
102
RTVSPost2010PropOp47
 70
     1
102
RTVSPost2010Prop48
 90
       50
102
RTVSPost2010PropOp48
 70
     1
102
RTVSPost2010Prop49
280
     0
102
RTVSPost2010PropOp49
 70
     1
102
RTVSPost2010Prop50
 90
       50
102
RTVSPost2010PropOp50
 70
     1
102
RTVSPost2010Prop51ColorIndex
 90
      256
102
RTVSPost2010Prop51ColorRGB
 90
-16777216
102
RTVSPost2010PropOp51
 70
     0
102
RTVSPost2010Prop52
140
1.0
102
RTVSPost2010PropOp52
 70
     0
102
RTVSPost2010Prop53
 90
        2
102
RTVSPost2010PropOp53
 70
     1
102
RTVSPost2010Prop54
  1
strokes_ogs.tif
102
RTVSPost2010PropOp54
 70
     1
102
RTVSPost2010Prop55
280
     0
102
RTVSPost2010PropOp55
 70
     1
102
RTVSPost2010Prop56
140
1.0
102
RTVSPost2010PropOp56
 70
     1
102
RTVSPost2010Prop57
140
1.0
102
RTVSPost2010PropOp57
 70
     1
  0
XRECORD
  5
1D3
102
{ACAD_REACTORS
330
1D2
102
}
330
1D2
100
AcDbXrecord
280
     1
102
RTVSPost2010Prop28
280
     0
102
RTVSPost2010PropOp28
 70
     1
102
RTVSPost2010Prop29
280
     1
102
RTVSPost2010PropOp29
 70
     1
102
RTVSPost2010Prop30
280
     1
102
RTVSPost2010PropOp30
 70
     1
102
RTVSPost2010Prop31
280
     0
102
RTVSPost2010PropOp31
 70
     1
102
RTVSPost2010Prop32
280
     0
102
RTVSPost2010PropOp32
 70
     1
102
RTVSPost2010Prop33
280
     0
102
RTVSPost2010PropOp33
 70
     1
102
RTVSPost2010Prop34
280
     0
102
RTVSPost2010PropOp34
 70
     1
102
RTVSPost2010Prop35
280
     0
102
RTVSPost2010PropOp35
 70
     1
102
RTVSPost2010Prop36
280
     0
102
RTVSPost2010PropOp36
 70
     1
102
RTVSPost2010Prop37
 90
       50
102
RTVSPost2010PropOp37
 70
     1
102
RTVSPost2010Prop38
140
0.0
102
RTVSPost2010PropOp38
 70
     1
102
RTVSPost2010Prop39
140
1.0
102
RTVSPost2010PropOp39
 70
     1
102
RTVSPost2010Prop40
 90
        0
102
RTVSPost2010PropOp40
 70
     1
102
RTVSPost2010Prop41ColorIndex
 90
       18
102
RTVSPost2010Prop41ColorRGB
 90
        0
102
RTVSPost2010PropOp41
 70
     1
102
RTVSPost2010Prop42
 90
       50
102
RTVSPost2010PropOp42
 70
     1
102
RTVSPost2010Prop43
 90
        3
102
RTVSPost2010PropOp43
 70
     1
102
RTVSPost2010Prop44ColorIndex
 90
        5
102
RTVSPost2010Prop44ColorRGB
 90
      255
102
RTVSPost2010PropOp44
 70
     1
102
RTVSPost2010Prop45
280
     0
102
RTVSPost2010PropOp45
 70
     1
102
RTVSPost2010Prop46
 90
       50
102
RTVSPost2010PropOp46
 70
     1
102
RTVSPost2010Prop47
 90
       50
102
RTVSPost2010PropOp47
 70
     1
102
RTVSPost2010Prop48
 90
       50
102
RTVSPost2010PropOp48
 70
     1
102
RTVSPost2010Prop49
280
     0
102
RTVSPost2010PropOp49
 70
     1
102
RTVSPost2010Prop50
 90
       50
102
RTVSPost2010PropOp50
 70
     1
102
RTVSPost2010Prop51ColorIndex
 90
      256
102
RTVSPost2010Prop51ColorRGB
 90
-16777216
102
RTVSPost2010PropOp51
 70
     0
102
RTVSPost2010Prop52
140
1.0
102
RTVSPost2010PropOp52
 70
     0
102
RTVSPost2010Prop53
 90
        2
102
RTVSPost2010PropOp53
 70
     1
102
RTVSPost2010Prop54
  1
strokes_ogs.tif
102
RTVSPost2010PropOp54
 70
     1
102
RTVSPost2010Prop55
280
     0
102
RTVSPost2010PropOp55
 70
     1
102
RTVSPost2010Prop56
140
1.0
102
RTVSPost2010PropOp56
 70
     1
102
RTVSPost2010Prop57
140
1.0
102
RTVSPost2010PropOp57
 70
     1
  0
XRECORD
  5
1D1
102
{ACAD_REACTORS
330
1D0
102
}
330
1D0
100
AcDbXrecord
280
     1
102
RTVSPost2010Prop28
280
     0
102
RTVSPost2010PropOp28
 70
     1
102
RTVSPost2010Prop29
280
     1
102
RTVSPost2010PropOp29
 70
     1
102
RTVSPost2010Prop30
280
     1
102
RTVSPost2010PropOp30
 70
     1
102
RTVSPost2010Prop31
280
     0
102
RTVSPost2010PropOp31
 70
     1
102
RTVSPost2010Prop32
280
     0
102
RTVSPost2010PropOp32
 70
     1
102
RTVSPost2010Prop33
280
     0
102
RTVSPost2010PropOp33
 70
     1
102
RTVSPost2010Prop34
280
     0
102
RTVSPost2010PropOp34
 70
     1
102
RTVSPost2010Prop35
280
     0
102
RTVSPost2010PropOp35
 70
     1
102
RTVSPost2010Prop36
280
     0
102
RTVSPost2010PropOp36
 70
     1
102
RTVSPost2010Prop37
 90
       50
102
RTVSPost2010PropOp37
 70
     1
102
RTVSPost2010Prop38
140
0.0
102
RTVSPost2010PropOp38
 70
     1
102
RTVSPost2010Prop39
140
1.0
102
RTVSPost2010PropOp39
 70
     1
102
RTVSPost2010Prop40
 90
        0
102
RTVSPost2010PropOp40
 70
     1
102
RTVSPost2010Prop41ColorIndex
 90
       18
102
RTVSPost2010Prop41ColorRGB
 90
        0
102
RTVSPost2010PropOp41
 70
     1
102
RTVSPost2010Prop42
 90
       50
102
RTVSPost2010PropOp42
 70
     1
102
RTVSPost2010Prop43
 90
        3
102
RTVSPost2010PropOp43
 70
     1
102
RTVSPost2010Prop44ColorIndex
 90
        5
102
RTVSPost2010Prop44ColorRGB
 90
      255
102
RTVSPost2010PropOp44
 70
     1
102
RTVSPost2010Prop45
280
     0
102
RTVSPost2010PropOp45
 70
     1
102
RTVSPost2010Prop46
 90
       50
102
RTVSPost2010PropOp46
 70
     1
102
RTVSPost2010Prop47
 90
       50
102
RTVSPost2010PropOp47
 70
     1
102
RTVSPost2010Prop48
 90
       50
102
RTVSPost2010PropOp48
 70
     1
102
RTVSPost2010Prop49
280
     0
102
RTVSPost2010PropOp49
 70
     1
102
RTVSPost2010Prop50
 90
       50
102
RTVSPost2010PropOp50
 70
     1
102
RTVSPost2010Prop51ColorIndex
 90
      256
102
RTVSPost2010Prop51ColorRGB
 90
-16777216
102
RTVSPost2010PropOp51
 70
     0
102
RTVSPost2010Prop52
140
1.0
102
RTVSPost2010PropOp52
 70
     0
102
RTVSPost2010Prop53
 90
        2
102
RTVSPost2010PropOp53
 70
     1
102
RTVSPost2010Prop54
  1
strokes_ogs.tif
102
RTVSPost2010PropOp54
 70
     1
102
RTVSPost2010Prop55
280
     0
102
RTVSPost2010PropOp55
 70
     1
102
RTVSPost2010Prop56
140
1.0
102
RTVSPost2010PropOp56
 70
     1
102
RTVSPost2010Prop57
140
1.0
102
RTVSPost2010PropOp57
 70
     1
  0
XRECORD
  5
1CB
102
{ACAD_REACTORS
330
1CA
102
}
330
1CA
100
AcDbXrecord
280
     1
102
RTVSPost2010Prop28
280
     0
102
RTVSPost2010PropOp28
 70
     1
102
RTVSPost2010Prop29
280
     1
102
RTVSPost2010PropOp29
 70
     1
102
RTVSPost2010Prop30
280
     1
102
RTVSPost2010PropOp30
 70
     1
102
RTVSPost2010Prop31
280
     0
102
RTVSPost2010PropOp31
 70
     1
102
RTVSPost2010Prop32
280
     0
102
RTVSPost2010PropOp32
 70
     1
102
RTVSPost2010Prop33
280
     0
102
RTVSPost2010PropOp33
 70
     1
102
RTVSPost2010Prop34
280
     0
102
RTVSPost2010PropOp34
 70
     1
102
RTVSPost2010Prop35
280
     0
102
RTVSPost2010PropOp35
 70
     1
102
RTVSPost2010Prop36
280
     0
102
RTVSPost2010PropOp36
 70
     1
102
RTVSPost2010Prop37
 90
       50
102
RTVSPost2010PropOp37
 70
     1
102
RTVSPost2010Prop38
140
0.0
102
RTVSPost2010PropOp38
 70
     1
102
RTVSPost2010Prop39
140
1.0
102
RTVSPost2010PropOp39
 70
     1
102
RTVSPost2010Prop40
 90
        0
102
RTVSPost2010PropOp40
 70
     1
102
RTVSPost2010Prop41ColorIndex
 90
       18
102
RTVSPost2010Prop41ColorRGB
 90
        0
102
RTVSPost2010PropOp41
 70
     1
102
RTVSPost2010Prop42
 90
       50
102
RTVSPost2010PropOp42
 70
     1
102
RTVSPost2010Prop43
 90
        3
102
RTVSPost2010PropOp43
 70
     1
102
RTVSPost2010Prop44ColorIndex
 90
        5
102
RTVSPost2010Prop44ColorRGB
 90
      255
102
RTVSPost2010PropOp44
 70
     1
102
RTVSPost2010Prop45
280
     0
102
RTVSPost2010PropOp45
 70
     1
102
RTVSPost2010Prop46
 90
       50
102
RTVSPost2010PropOp46
 70
     1
102
RTVSPost2010Prop47
 90
       50
102
RTVSPost2010PropOp47
 70
     1
102
RTVSPost2010Prop48
 90
       50
102
RTVSPost2010PropOp48
 70
     1
102
RTVSPost2010Prop49
280
     0
102
RTVSPost2010PropOp49
 70
     1
102
RTVSPost2010Prop50
 90
       50
102
RTVSPost2010PropOp50
 70
     1
102
RTVSPost2010Prop51ColorIndex
 90
      256
102
RTVSPost2010Prop51ColorRGB
 90
-16777216
102
RTVSPost2010PropOp51
 70
     0
102
RTVSPost2010Prop52
140
1.0
102
RTVSPost2010PropOp52
 70
     0
102
RTVSPost2010Prop53
 90
        2
102
RTVSPost2010PropOp53
 70
     1
102
RTVSPost2010Prop54
  1
strokes_ogs.tif
102
RTVSPost2010PropOp54
 70
     1
102
RTVSPost2010Prop55
280
     0
102
RTVSPost2010PropOp55
 70
     1
102
RTVSPost2010Prop56
140
1.0
102
RTVSPost2010PropOp56
 70
     1
102
RTVSPost2010Prop57
140
1.0
102
RTVSPost2010PropOp57
 70
     1
  0
XRECORD
  5
1CD
102
{ACAD_REACTORS
330
1CC
102
}
330
1CC
100
AcDbXrecord
280
     1
102
RTVSPost2010Prop28
280
     0
102
RTVSPost2010PropOp28
 70
     1
102
RTVSPost2010Prop29
280
     1
102
RTVSPost2010PropOp29
 70
     1
102
RTVSPost2010Prop30
280
     1
102
RTVSPost2010PropOp30
 70
     1
102
RTVSPost2010Prop31
280
     0
102
RTVSPost2010PropOp31
 70
     1
102
RTVSPost2010Prop32
280
     0
102
RTVSPost2010PropOp32
 70
     1
102
RTVSPost2010Prop33
280
     0
102
RTVSPost2010PropOp33
 70
     1
102
RTVSPost2010Prop34
280
     0
102
RTVSPost2010PropOp34
 70
     1
102
RTVSPost2010Prop35
280
     0
102
RTVSPost2010PropOp35
 70
     1
102
RTVSPost2010Prop36
280
     0
102
RTVSPost2010PropOp36
 70
     1
102
RTVSPost2010Prop37
 90
       50
102
RTVSPost2010PropOp37
 70
     1
102
RTVSPost2010Prop38
140
0.0
102
RTVSPost2010PropOp38
 70
     1
102
RTVSPost2010Prop39
140
1.0
102
RTVSPost2010PropOp39
 70
     1
102
RTVSPost2010Prop40
 90
        0
102
RTVSPost2010PropOp40
 70
     1
102
RTVSPost2010Prop41ColorIndex
 90
       18
102
RTVSPost2010Prop41ColorRGB
 90
        0
102
RTVSPost2010PropOp41
 70
     1
102
RTVSPost2010Prop42
 90
       50
102
RTVSPost2010PropOp42
 70
     1
102
RTVSPost2010Prop43
 90
        3
102
RTVSPost2010PropOp43
 70
     1
102
RTVSPost2010Prop44ColorIndex
 90
        5
102
RTVSPost2010Prop44ColorRGB
 90
      255
102
RTVSPost2010PropOp44
 70
     1
102
RTVSPost2010Prop45
280
     0
102
RTVSPost2010PropOp45
 70
     1
102
RTVSPost2010Prop46
 90
       50
102
RTVSPost2010PropOp46
 70
     1
102
RTVSPost2010Prop47
 90
       50
102
RTVSPost2010PropOp47
 70
     1
102
RTVSPost2010Prop48
 90
       50
102
RTVSPost2010PropOp48
 70
     1
102
RTVSPost2010Prop49
280
     0
102
RTVSPost2010PropOp49
 70
     1
102
RTVSPost2010Prop50
 90
       50
102
RTVSPost2010PropOp50
 70
     1
102
RTVSPost2010Prop51ColorIndex
 90
      256
102
RTVSPost2010Prop51ColorRGB
 90
-16777216
102
RTVSPost2010PropOp51
 70
     0
102
RTVSPost2010Prop52
140
1.0
102
RTVSPost2010PropOp52
 70
     0
102
RTVSPost2010Prop53
 90
        2
102
RTVSPost2010PropOp53
 70
     1
102
RTVSPost2010Prop54
  1
strokes_ogs.tif
102
RTVSPost2010PropOp54
 70
     1
102
RTVSPost2010Prop55
280
     0
102
RTVSPost2010PropOp55
 70
     1
102
RTVSPost2010Prop56
140
1.0
102
RTVSPost2010PropOp56
 70
     1
102
RTVSPost2010Prop57
140
1.0
102
RTVSPost2010PropOp57
 70
     1
  0
XRECORD
  5
1C3
102
{ACAD_REACTORS
330
1C2
102
}
330
1C2
100
AcDbXrecord
280
     1
102
RTVSPost2010Prop28
280
     0
102
RTVSPost2010PropOp28
 70
     1
102
RTVSPost2010Prop29
280
     1
102
RTVSPost2010PropOp29
 70
     1
102
RTVSPost2010Prop30
280
     1
102
RTVSPost2010PropOp30
 70
     1
102
RTVSPost2010Prop31
280
     0
102
RTVSPost2010PropOp31
 70
     1
102
RTVSPost2010Prop32
280
     0
102
RTVSPost2010PropOp32
 70
     1
102
RTVSPost2010Prop33
280
     0
102
RTVSPost2010PropOp33
 70
     1
102
RTVSPost2010Prop34
280
     0
102
RTVSPost2010PropOp34
 70
     1
102
RTVSPost2010Prop35
280
     0
102
RTVSPost2010PropOp35
 70
     1
102
RTVSPost2010Prop36
280
     0
102
RTVSPost2010PropOp36
 70
     1
102
RTVSPost2010Prop37
 90
       50
102
RTVSPost2010PropOp37
 70
     1
102
RTVSPost2010Prop38
140
0.0
102
RTVSPost2010PropOp38
 70
     1
102
RTVSPost2010Prop39
140
1.0
102
RTVSPost2010PropOp39
 70
     1
102
RTVSPost2010Prop40
 90
        0
102
RTVSPost2010PropOp40
 70
     1
102
RTVSPost2010Prop41ColorIndex
 90
       18
102
RTVSPost2010Prop41ColorRGB
 90
        0
102
RTVSPost2010PropOp41
 70
     1
102
RTVSPost2010Prop42
 90
       50
102
RTVSPost2010PropOp42
 70
     1
102
RTVSPost2010Prop43
 90
        3
102
RTVSPost2010PropOp43
 70
     1
102
RTVSPost2010Prop44ColorIndex
 90
        5
102
RTVSPost2010Prop44ColorRGB
 90
      255
102
RTVSPost2010PropOp44
 70
     1
102
RTVSPost2010Prop45
280
     0
102
RTVSPost2010PropOp45
 70
     1
102
RTVSPost2010Prop46
 90
       50
102
RTVSPost2010PropOp46
 70
     1
102
RTVSPost2010Prop47
 90
       50
102
RTVSPost2010PropOp47
 70
     1
102
RTVSPost2010Prop48
 90
       50
102
RTVSPost2010PropOp48
 70
     1
102
RTVSPost2010Prop49
280
     0
102
RTVSPost2010PropOp49
 70
     1
102
RTVSPost2010Prop50
 90
       50
102
RTVSPost2010PropOp50
 70
     1
102
RTVSPost2010Prop51ColorIndex
 90
      256
102
RTVSPost2010Prop51ColorRGB
 90
-16777216
102
RTVSPost2010PropOp51
 70
     0
102
RTVSPost2010Prop52
140
1.0
102
RTVSPost2010PropOp52
 70
     0
102
RTVSPost2010Prop53
 90
        2
102
RTVSPost2010PropOp53
 70
     1
102
RTVSPost2010Prop54
  1
strokes_ogs.tif
102
RTVSPost2010PropOp54
 70
     1
102
RTVSPost2010Prop55
280
     0
102
RTVSPost2010PropOp55
 70
     1
102
RTVSPost2010Prop56
140
1.0
102
RTVSPost2010PropOp56
 70
     1
102
RTVSPost2010Prop57
140
1.0
102
RTVSPost2010PropOp57
 70
     1
  0
XRECORD
  5
1B7
102
{ACAD_REACTORS
330
1B6
102
}
330
1B6
100
AcDbXrecord
280
     1
102
RTVSPost2010Prop28
280
     0
102
RTVSPost2010PropOp28
 70
     1
102
RTVSPost2010Prop29
280
     1
102
RTVSPost2010PropOp29
 70
     1
102
RTVSPost2010Prop30
280
     1
102
RTVSPost2010PropOp30
 70
     1
102
RTVSPost2010Prop31
280
     0
102
RTVSPost2010PropOp31
 70
     1
102
RTVSPost2010Prop32
280
     0
102
RTVSPost2010PropOp32
 70
     1
102
RTVSPost2010Prop33
280
     0
102
RTVSPost2010PropOp33
 70
     1
102
RTVSPost2010Prop34
280
     0
102
RTVSPost2010PropOp34
 70
     1
102
RTVSPost2010Prop35
280
     0
102
RTVSPost2010PropOp35
 70
     1
102
RTVSPost2010Prop36
280
     0
102
RTVSPost2010PropOp36
 70
     1
102
RTVSPost2010Prop37
 90
       50
102
RTVSPost2010PropOp37
 70
     1
102
RTVSPost2010Prop38
140
0.0
102
RTVSPost2010PropOp38
 70
     1
102
RTVSPost2010Prop39
140
1.0
102
RTVSPost2010PropOp39
 70
     1
102
RTVSPost2010Prop40
 90
        0
102
RTVSPost2010PropOp40
 70
     1
102
RTVSPost2010Prop41ColorIndex
 90
       18
102
RTVSPost2010Prop41ColorRGB
 90
        0
102
RTVSPost2010PropOp41
 70
     1
102
RTVSPost2010Prop42
 90
       50
102
RTVSPost2010PropOp42
 70
     1
102
RTVSPost2010Prop43
 90
        3
102
RTVSPost2010PropOp43
 70
     1
102
RTVSPost2010Prop44ColorIndex
 90
        5
102
RTVSPost2010Prop44ColorRGB
 90
      255
102
RTVSPost2010PropOp44
 70
     1
102
RTVSPost2010Prop45
280
     0
102
RTVSPost2010PropOp45
 70
     1
102
RTVSPost2010Prop46
 90
       50
102
RTVSPost2010PropOp46
 70
     1
102
RTVSPost2010Prop47
 90
       50
102
RTVSPost2010PropOp47
 70
     1
102
RTVSPost2010Prop48
 90
       50
102
RTVSPost2010PropOp48
 70
     1
102
RTVSPost2010Prop49
280
     0
102
RTVSPost2010PropOp49
 70
     1
102
RTVSPost2010Prop50
 90
       50
102
RTVSPost2010PropOp50
 70
     1
102
RTVSPost2010Prop51ColorIndex
 90
      256
102
RTVSPost2010Prop51ColorRGB
 90
-16777216
102
RTVSPost2010PropOp51
 70
     0
102
RTVSPost2010Prop52
140
1.0
102
RTVSPost2010PropOp52
 70
     0
102
RTVSPost2010Prop53
 90
        2
102
RTVSPost2010PropOp53
 70
     1
102
RTVSPost2010Prop54
  1
strokes_ogs.tif
102
RTVSPost2010PropOp54
 70
     1
102
RTVSPost2010Prop55
280
     0
102
RTVSPost2010PropOp55
 70
     1
102
RTVSPost2010Prop56
140
1.0
102
RTVSPost2010PropOp56
 70
     1
102
RTVSPost2010Prop57
140
1.0
102
RTVSPost2010PropOp57
 70
     1
  0
XRECORD
  5
1CF
102
{ACAD_REACTORS
330
1CE
102
}
330
1CE
100
AcDbXrecord
280
     1
102
RTVSPost2010Prop28
280
     0
102
RTVSPost2010PropOp28
 70
     1
102
RTVSPost2010Prop29
280
     1
102
RTVSPost2010PropOp29
 70
     1
102
RTVSPost2010Prop30
280
     1
102
RTVSPost2010PropOp30
 70
     1
102
RTVSPost2010Prop31
280
     0
102
RTVSPost2010PropOp31
 70
     1
102
RTVSPost2010Prop32
280
     0
102
RTVSPost2010PropOp32
 70
     1
102
RTVSPost2010Prop33
280
     0
102
RTVSPost2010PropOp33
 70
     1
102
RTVSPost2010Prop34
280
     0
102
RTVSPost2010PropOp34
 70
     1
102
RTVSPost2010Prop35
280
     0
102
RTVSPost2010PropOp35
 70
     1
102
RTVSPost2010Prop36
280
     0
102
RTVSPost2010PropOp36
 70
     1
102
RTVSPost2010Prop37
 90
       50
102
RTVSPost2010PropOp37
 70
     1
102
RTVSPost2010Prop38
140
0.0
102
RTVSPost2010PropOp38
 70
     1
102
RTVSPost2010Prop39
140
1.0
102
RTVSPost2010PropOp39
 70
     1
102
RTVSPost2010Prop40
 90
        0
102
RTVSPost2010PropOp40
 70
     1
102
RTVSPost2010Prop41ColorIndex
 90
       18
102
RTVSPost2010Prop41ColorRGB
 90
        0
102
RTVSPost2010PropOp41
 70
     1
102
RTVSPost2010Prop42
 90
       50
102
RTVSPost2010PropOp42
 70
     1
102
RTVSPost2010Prop43
 90
        3
102
RTVSPost2010PropOp43
 70
     1
102
RTVSPost2010Prop44ColorIndex
 90
        5
102
RTVSPost2010Prop44ColorRGB
 90
      255
102
RTVSPost2010PropOp44
 70
     1
102
RTVSPost2010Prop45
280
     0
102
RTVSPost2010PropOp45
 70
     1
102
RTVSPost2010Prop46
 90
       50
102
RTVSPost2010PropOp46
 70
     1
102
RTVSPost2010Prop47
 90
       50
102
RTVSPost2010PropOp47
 70
     1
102
RTVSPost2010Prop48
 90
       50
102
RTVSPost2010PropOp48
 70
     1
102
RTVSPost2010Prop49
280
     0
102
RTVSPost2010PropOp49
 70
     1
102
RTVSPost2010Prop50
 90
       50
102
RTVSPost2010PropOp50
 70
     1
102
RTVSPost2010Prop51ColorIndex
 90
      256
102
RTVSPost2010Prop51ColorRGB
 90
-16777216
102
RTVSPost2010PropOp51
 70
     0
102
RTVSPost2010Prop52
140
1.0
102
RTVSPost2010PropOp52
 70
     0
102
RTVSPost2010Prop53
 90
        2
102
RTVSPost2010PropOp53
 70
     1
102
RTVSPost2010Prop54
  1
strokes_ogs.tif
102
RTVSPost2010PropOp54
 70
     1
102
RTVSPost2010Prop55
280
     0
102
RTVSPost2010PropOp55
 70
     1
102
RTVSPost2010Prop56
140
1.0
102
RTVSPost2010PropOp56
 70
     1
102
RTVSPost2010Prop57
140
1.0
102
RTVSPost2010PropOp57
 70
     1
  0
ENDSEC
  0
EOF
