  0
SECTION
  2
HEADER
  9
$ACADVER
  1
AC1024
  9
$ACADMAINTVER
 70
   226
  9
$DWGCODEPAGE
  3
ANSI_932
  9
$INSBASE
 10
0.0
 20
0.0
 30
0.0
  9
$EXTMIN
 10
1.000000000000000E+20
 20
1.000000000000000E+20
 30
1.000000000000000E+20
  9
$EXTMAX
 10
-1.000000000000000E+20
 20
-1.000000000000000E+20
 30
-1.000000000000000E+20
  9
$LIMMIN
 10
0.0
 20
0.0
  9
$LIMMAX
 10
12.0
 20
9.0
  9
$ORTHOMODE
 70
     0
  9
$REGENMODE
 70
     1
  9
$FILLMODE
 70
     1
  9
$QTEXTMODE
 70
     0
  9
$MIRRTEXT
 70
     0
  9
$LTSCALE
 40
1.0
  9
$ATTMODE
 70
     1
  9
$TEXTSIZE
 40
0.2
  9
$TRACEWID
 40
0.05
  9
$TEXTSTYLE
  7
Standard
  9
$CLAYER
  8
0
  9
$CELTYPE
  6
ByLayer
  9
$CECOLOR
 62
   256
  9
$CELTSCALE
 40
1.0
  9
$DISPSILH
 70
     0
  9
$DIMSCALE
 40
1.0
  9
$DIMASZ
 40
0.18
  9
$DIMEXO
 40
0.0625
  9
$DIMDLI
 40
0.38
  9
$DIMRND
 40
0.0
  9
$DIMDLE
 40
0.0
  9
$DIMEXE
 40
0.18
  9
$DIMTP
 40
0.0
  9
$DIMTM
 40
0.0
  9
$DIMTXT
 40
0.18
  9
$DIMCEN
 40
0.09
  9
$DIMTSZ
 40
0.0
  9
$DIMTOL
 70
     0
  9
$DIMLIM
 70
     0
  9
$DIMTIH
 70
     1
  9
$DIMTOH
 70
     1
  9
$DIMSE1
 70
     0
  9
$DIMSE2
 70
     0
  9
$DIMTAD
 70
     0
  9
$DIMZIN
 70
     0
  9
$DIMBLK
  1

  9
$DIMASO
 70
     1
  9
$DIMSHO
 70
     1
  9
$DIMPOST
  1

  9
$DIMAPOST
  1

  9
$DIMALT
 70
     0
  9
$DIMALTD
 70
     2
  9
$DIMALTF
 40
25.4
  9
$DIMLFAC
 40
1.0
  9
$DIMTOFL
 70
     0
  9
$DIMTVP
 40
0.0
  9
$DIMTIX
 70
     0
  9
$DIMSOXD
 70
     0
  9
$DIMSAH
 70
     0
  9
$DIMBLK1
  1

  9
$DIMBLK2
  1

  9
$DIMSTYLE
  2
Standard
  9
$DIMCLRD
 70
     0
  9
$DIMCLRE
 70
     0
  9
$DIMCLRT
 70
     0
  9
$DIMTFAC
 40
1.0
  9
$DIMGAP
 40
0.09
  9
$DIMJUST
 70
     0
  9
$DIMSD1
 70
     0
  9
$DIMSD2
 70
     0
  9
$DIMTOLJ
 70
     1
  9
$DIMTZIN
 70
     0
  9
$DIMALTZ
 70
     0
  9
$DIMALTTZ
 70
     0
  9
$DIMUPT
 70
     0
  9
$DIMDEC
 70
     4
  9
$DIMTDEC
 70
     4
  9
$DIMALTU
 70
     2
  9
$DIMALTTD
 70
     2
  9
$DIMTXSTY
  7
Standard
  9
$DIMAUNIT
 70
     0
  9
$DIMADEC
 70
     0
  9
$DIMALTRND
 40
0.0
  9
$DIMAZIN
 70
     0
  9
$DIMDSEP
 70
    46
  9
$DIMATFIT
 70
     3
  9
$DIMFRAC
 70
     0
  9
$DIMLDRBLK
  1

  9
$DIMLUNIT
 70
     2
  9
$DIMLWD
 70
    -2
  9
$DIMLWE
 70
    -2
  9
$DIMTMOVE
 70
     0
  9
$DIMFXL
 40
1.0
  9
$DIMFXLON
 70
     0
  9
$DIMJOGANG
 40
0.7853981633974483
  9
$DIMTFILL
 70
     0
  9
$DIMTFILLCLR
 70
     0
  9
$DIMARCSYM
 70
     0
  9
$DIMLTYPE
  6

  9
$DIMLTEX1
  6

  9
$DIMLTEX2
  6

  9
$DIMTXTDIRECTION
 70
     0
  9
$LUNITS
 70
     2
  9
$LUPREC
 70
     4
  9
$SKETCHINC
 40
0.1
  9
$FILLETRAD
 40
0.0
  9
$AUNITS
 70
     0
  9
$AUPREC
 70
     0
  9
$MENU
  1
.
  9
$ELEVATION
 40
0.0
  9
$PELEVATION
 40
0.0
  9
$THICKNESS
 40
0.0
  9
$LIMCHECK
 70
     0
  9
$CHAMFERA
 40
0.0
  9
$CHAMFERB
 40
0.0
  9
$CHAMFERC
 40
0.0
  9
$CHAMFERD
 40
0.0
  9
$SKPOLY
 70
     0
  9
$TDCREATE
 40
2459569.503576389
  9
$TDUCREATE
 40
2459569.128576389
  9
$TDUPDATE
 40
2459569.503576389
  9
$TDUUPDATE
 40
2459569.128576389
  9
$TDINDWG
 40
0.0000000000
  9
$TDUSRTIMER
 40
0.0000000000
  9
$USRTIMER
 70
     1
  9
$ANGBASE
 50
0.0
  9
$ANGDIR
 70
     0
  9
$PDMODE
 70
     0
  9
$PDSIZE
 40
0.0
  9
$PLINEWID
 40
0.0
  9
$SPLFRAME
 70
     0
  9
$SPLINETYPE
 70
     6
  9
$SPLINESEGS
 70
     8
  9
$HANDSEED
  5
1A6
  9
$SURFTAB1
 70
     6
  9
$SURFTAB2
 70
     6
  9
$SURFTYPE
 70
     6
  9
$SURFU
 70
     6
  9
$SURFV
 70
     6
  9
$UCSBASE
  2

  9
$UCSNAME
  2

  9
$UCSORG
 10
0.0
 20
0.0
 30
0.0
  9
$UCSXDIR
 10
1.0
 20
0.0
 30
0.0
  9
$UCSYDIR
 10
0.0
 20
1.0
 30
0.0
  9
$UCSORTHOREF
  2

  9
$UCSORTHOVIEW
 70
     0
  9
$UCSORGTOP
 10
0.0
 20
0.0
 30
0.0
  9
$UCSORGBOTTOM
 10
0.0
 20
0.0
 30
0.0
  9
$UCSORGLEFT
 10
0.0
 20
0.0
 30
0.0
  9
$UCSORGRIGHT
 10
0.0
 20
0.0
 30
0.0
  9
$UCSORGFRONT
 10
0.0
 20
0.0
 30
0.0
  9
$UCSORGBACK
 10
0.0
 20
0.0
 30
0.0
  9
$PUCSBASE
  2

  9
$PUCSNAME
  2

  9
$PUCSORG
 10
0.0
 20
0.0
 30
0.0
  9
$PUCSXDIR
 10
1.0
 20
0.0
 30
0.0
  9
$PUCSYDIR
 10
0.0
 20
1.0
 30
0.0
  9
$PUCSORTHOREF
  2

  9
$PUCSORTHOVIEW
 70
     0
  9
$PUCSORGTOP
 10
0.0
 20
0.0
 30
0.0
  9
$PUCSORGBOTTOM
 10
0.0
 20
0.0
 30
0.0
  9
$PUCSORGLEFT
 10
0.0
 20
0.0
 30
0.0
  9
$PUCSORGRIGHT
 10
0.0
 20
0.0
 30
0.0
  9
$PUCSORGFRONT
 10
0.0
 20
0.0
 30
0.0
  9
$PUCSORGBACK
 10
0.0
 20
0.0
 30
0.0
  9
$USERI1
 70
     0
  9
$USERI2
 70
     0
  9
$USERI3
 70
     0
  9
$USERI4
 70
     0
  9
$USERI5
 70
     0
  9
$USERR1
 40
0.0
  9
$USERR2
 40
0.0
  9
$USERR3
 40
0.0
  9
$USERR4
 40
0.0
  9
$USERR5
 40
0.0
  9
$WORLDVIEW
 70
     1
  9
$SHADEDGE
 70
     3
  9
$SHADEDIF
 70
    70
  9
$TILEMODE
 70
     1
  9
$MAXACTVP
 70
    64
  9
$PINSBASE
 10
0.0
 20
0.0
 30
0.0
  9
$PLIMCHECK
 70
     0
  9
$PEXTMIN
 10
1.000000000000000E+20
 20
1.000000000000000E+20
 30
1.000000000000000E+20
  9
$PEXTMAX
 10
-1.000000000000000E+20
 20
-1.000000000000000E+20
 30
-1.000000000000000E+20
  9
$PLIMMIN
 10
0.0
 20
0.0
  9
$PLIMMAX
 10
12.0
 20
9.0
  9
$UNITMODE
 70
     0
  9
$VISRETAIN
 70
     1
  9
$PLINEGEN
 70
     0
  9
$PSLTSCALE
 70
     1
  9
$TREEDEPTH
 70
  3020
  9
$CMLSTYLE
  2
Standard
  9
$CMLJUST
 70
     0
  9
$CMLSCALE
 40
1.0
  9
$PROXYGRAPHICS
 70
     1
  9
$MEASUREMENT
 70
     0
  9
$CELWEIGHT
370
    -1
  9
$ENDCAPS
280
     0
  9
$JOINSTYLE
280
     0
  9
$LWDISPLAY
290
     1
  9
$INSUNITS
 70
     4
  9
$HYPERLINKBASE
  1

  9
$STYLESHEET
  1

  9
$XEDIT
290
     1
  9
$CEPSNTYPE
380
     0
  9
$PSTYLEMODE
290
     1
  9
$FINGERPRINTGUID
  2
{A495B80D-E3B4-B944-9693-196BA44924E4}
  9
$VERSIONGUID
  2
{DC6AFF08-2342-934F-AF99-F9E6032135A1}
  9
$EXTNAMES
290
     1
  9
$PSVPSCALE
 40
0.0
  9
$OLESTARTUP
290
     0
  9
$SORTENTS
280
   127
  9
$INDEXCTL
280
     0
  9
$HIDETEXT
280
     1
  9
$XCLIPFRAME
280
     2
  9
$HALOGAP
280
     0
  9
$OBSCOLOR
 70
   257
  9
$OBSLTYPE
280
     0
  9
$INTERSECTIONDISPLAY
280
     0
  9
$INTERSECTIONCOLOR
 70
   257
  9
$DIMASSOC
280
     2
  9
$PROJECTNAME
  1

  9
$CAMERADISPLAY
290
     0
  9
$LENSLENGTH
 40
50.0
  9
$CAMERAHEIGHT
 40
0.0
  9
$STEPSPERSEC
 40
2.0
  9
$STEPSIZE
 40
6.0
  9
$3DDWFPREC
 40
2.0
  9
$PSOLWIDTH
 40
0.25
  9
$PSOLHEIGHT
 40
4.0
  9
$LOFTANG1
 40
1.570796326794896
  9
$LOFTANG2
 40
1.570796326794896
  9
$LOFTMAG1
 40
0.0
  9
$LOFTMAG2
 40
0.0
  9
$LOFTPARAM
 70
     7
  9
$LOFTNORMALS
280
     1
  9
$LATITUDE
 40
37.795
  9
$LONGITUDE
 40
-122.394
  9
$NORTHDIRECTION
 40
0.0
  9
$TIMEZONE
 70
 -8000
  9
$LIGHTGLYPHDISPLAY
280
     1
  9
$TILEMODELIGHTSYNCH
280
     1
  9
$CMATERIAL
347
11
  9
$SOLIDHIST
280
     0
  9
$SHOWHIST
280
     1
  9
$DWFFRAME
280
     2
  9
$DGNFRAME
280
     0
  9
$REALWORLDSCALE
290
     1
  9
$INTERFERECOLOR
 62
     1
  9
$INTERFEREOBJVS
345
33
  9
$INTERFEREVPVS
346
30
  9
$CSHADOW
280
     0
  9
$SHADOWPLANELOCATION
 40
0.0
  0
ENDSEC
  0
SECTION
  2
CLASSES
  0
CLASS
  1
ACDBDICTIONARYWDFLT
  2
AcDbDictionaryWithDefault
  3
ObjectDBX Classes
 90
        0
 91
        1
280
     0
281
     0
  0
CLASS
  1
MATERIAL
  2
AcDbMaterial
  3
ObjectDBX Classes
 90
     1153
 91
        3
280
     0
281
     0
  0
CLASS
  1
VISUALSTYLE
  2
AcDbVisualStyle
  3
ObjectDBX Classes
 90
     4095
 91
       24
280
     0
281
     0
  0
CLASS
  1
SCALE
  2
AcDbScale
  3
ObjectDBX Classes
 90
     1153
 91
       17
280
     0
281
     0
  0
CLASS
  1
TABLESTYLE
  2
AcDbTableStyle
  3
ObjectDBX Classes
 90
     4095
 91
        1
280
     0
281
     0
  0
CLASS
  1
MLEADERSTYLE
  2
AcDbMLeaderStyle
  3
ACDB_MLEADERSTYLE_CLASS
 90
     4095
 91
        1
280
     0
281
     0
  0
CLASS
  1
ACDBSECTIONVIEWSTYLE
  2
AcDbSectionViewStyle
  3
ObjectDBX Classes
 90
     1025
 91
        1
280
     0
281
     0
  0
CLASS
  1
ACDBDETAILVIEWSTYLE
  2
AcDbDetailViewStyle
  3
ObjectDBX Classes
 90
     1025
 91
        1
280
     0
281
     0
  0
CLASS
  1
DICTIONARYVAR
  2
AcDbDictionaryVar
  3
ObjectDBX Classes
 90
        0
 91
        5
280
     0
281
     0
  0
CLASS
  1
CELLSTYLEMAP
  2
AcDbCellStyleMap
  3
ObjectDBX Classes
 90
     1152
 91
        1
280
     0
281
     0
  0
ENDSEC
  0
SECTION
  2
TABLES
  0
TABLE
  2
VPORT
  5
8
330
0
100
AcDbSymbolTable
 70
     1
  0
VPORT
  5
57
330
8
100
AcDbSymbolTableRecord
100
AcDbViewportTableRecord
  2
*Active
 70
     0
 10
0.0
 20
0.0
 11
1.0
 21
1.0
 12
0.0
 22
0.0
 13
0.0
 23
0.0
 14
1.0
 24
1.0
 15
0.0
 25
0.0
 16
0.0
 26
0.0
 36
1.0
 17
104.9999999737534
 27
-148.4999999628701
 37
0.0
 40
302.939999924255
 41
0.7070707070707534
 42
50.0
 43
0.0
 44
0.0
 50
0.0
 51
0.0
 71
     0
 72
   100
 73
     1
 74
     0
 75
     1
 76
     0
 77
     0
 78
     0
281
     0
 65
     1
110
0.0
120
0.0
130
0.0
111
1.0
121
0.0
131
0.0
112
0.0
122
1.0
132
0.0
 79
     0
146
0.0
 60
     3
 61
     5
292
     1
282
     1
141
0.0
142
0.0
 63
   250
421
  3355443
  0
ENDTAB
  0
TABLE
  2
LTYPE
  5
5
330
0
100
AcDbSymbolTable
 70
     3
  0
LTYPE
  5
5B
330
5
100
AcDbSymbolTableRecord
100
AcDbLinetypeTableRecord
  2
ByBlock
 70
     0
  3

 72
    65
 73
     0
 40
0.0
  0
LTYPE
  5
5C
330
5
100
AcDbSymbolTableRecord
100
AcDbLinetypeTableRecord
  2
ByLayer
 70
     0
  3

 72
    65
 73
     0
 40
0.0
  0
LTYPE
  5
5D
330
5
100
AcDbSymbolTableRecord
100
AcDbLinetypeTableRecord
  2
Continuous
 70
     0
  3
Solid line
 72
    65
 73
     0
 40
0.0
  0
LTYPE
  5
13E
330
5
100
AcDbSymbolTableRecord
100
AcDbLinetypeTableRecord
  2
AI-Linetype-0
 70
     0
  3
Adobe Illustrator Linetype No. 0
 72
    65
 73
     2
 40
1.411111110758333
 49
0.7055555553791667
 74
     0
 49
-0.7055555553791667
 74
     0
  0
LTYPE
  5
140
330
5
100
AcDbSymbolTableRecord
100
AcDbLinetypeTableRecord
  2
AI-Linetype-1
 70
     0
  3
Adobe Illustrator Linetype No. 1
 72
    65
 73
     2
 40
1.411111110758333
 49
0.7055555553791667
 74
     0
 49
-0.7055555553791667
 74
     0
  0
ENDTAB
  0
TABLE
  2
LAYER
  5
2
330
0
100
AcDbSymbolTable
 70
     2
  0
LAYER
  5
54
330
2
100
AcDbSymbolTableRecord
100
AcDbLayerTableRecord
  2
0
 70
     0
 62
     7
  6
Continuous
370
    -3
390
F
347
21
  0
LAYER
  5
78
330
2
100
AcDbSymbolTableRecord
100
AcDbLayerTableRecord
  2
レイヤー 1
 70
     0
 62
     7
  6
Continuous
370
     0
390
F
347
21
  0
ENDTAB
  0
TABLE
  2
STYLE
  5
3
330
0
100
AcDbSymbolTable
 70
     2
  0
STYLE
  5
55
330
3
100
AcDbSymbolTableRecord
100
AcDbTextStyleTableRecord
  2
Standard
 70
     0
 40
0.0
 41
1.0
 50
0.0
 71
     0
 42
0.2
  3
txt
  4

  0
STYLE
  5
5A
330
3
100
AcDbSymbolTableRecord
100
AcDbTextStyleTableRecord
  2
Annotative
 70
     0
 40
0.0
 41
1.0
 50
0.0
 71
     0
 42
0.2
  3
txt
  4

1001
AcadAnnotative
1000
AnnotativeData
1002
{
1070
     1
1070
     1
1002
}
  0
ENDTAB
  0
TABLE
  2
VIEW
  5
6
330
0
100
AcDbSymbolTable
 70
     0
  0
ENDTAB
  0
TABLE
  2
UCS
  5
7
330
0
100
AcDbSymbolTable
 70
     0
  0
ENDTAB
  0
TABLE
  2
APPID
  5
9
330
0
100
AcDbSymbolTable
 70
     2
  0
APPID
  5
56
330
9
100
AcDbSymbolTableRecord
100
AcDbRegAppTableRecord
  2
ACAD
 70
     0
  0
APPID
  5
5E
330
9
100
AcDbSymbolTableRecord
100
AcDbRegAppTableRecord
  2
AcadAnnotative
 70
     0
  0
ENDTAB
  0
TABLE
  2
DIMSTYLE
  5
A
330
0
100
AcDbSymbolTable
 70
     2
100
AcDbDimStyleTable
 71
     0
  0
DIMSTYLE
105
58
330
A
100
AcDbSymbolTableRecord
100
AcDbDimStyleTableRecord
  2
Standard
 70
     0
340
55
  0
DIMSTYLE
105
59
330
A
100
AcDbSymbolTableRecord
100
AcDbDimStyleTableRecord
  2
Annotative
 70
     0
340
55
1001
AcadAnnotative
1000
AnnotativeData
1002
{
1070
     1
1070
     1
1002
}
  0
ENDTAB
  0
TABLE
  2
BLOCK_RECORD
  5
1
330
0
100
AcDbSymbolTable
 70
    17
  0
BLOCK_RECORD
  5
70
330
1
100
AcDbSymbolTableRecord
100
AcDbBlockTableRecord
  2
*Model_Space
340
73
 70
     0
280
     1
281
     0
  0
BLOCK_RECORD
  5
6C
330
1
100
AcDbSymbolTableRecord
100
AcDbBlockTableRecord
  2
*Paper_Space
340
6F
 70
     0
280
     1
281
     0
  0
BLOCK_RECORD
  5
74
330
1
100
AcDbSymbolTableRecord
100
AcDbBlockTableRecord
  2
*Paper_Space0
340
77
 70
     0
280
     1
281
     0
  0
BLOCK_RECORD
  5
E0
330
1
100
AcDbSymbolTableRecord
100
AcDbBlockTableRecord
  2
Block_0
340
0
102
{BLKREFS
331
E1
102
}
 70
     0
280
     1
281
     0
  0
BLOCK_RECORD
  5
E4
330
1
100
AcDbSymbolTableRecord
100
AcDbBlockTableRecord
  2
Block_1
340
0
102
{BLKREFS
331
E5
102
}
 70
     0
280
     1
281
     0
  0
BLOCK_RECORD
  5
F1
330
1
100
AcDbSymbolTableRecord
100
AcDbBlockTableRecord
  2
Block_2
340
0
102
{BLKREFS
331
F2
102
}
 70
     0
280
     1
281
     0
  0
BLOCK_RECORD
  5
F5
330
1
100
AcDbSymbolTableRecord
100
AcDbBlockTableRecord
  2
Block_3
340
0
102
{BLKREFS
331
F6
102
}
 70
     0
280
     1
281
     0
  0
BLOCK_RECORD
  5
FF
330
1
100
AcDbSymbolTableRecord
100
AcDbBlockTableRecord
  2
Block_4
340
0
102
{BLKREFS
331
100
102
}
 70
     0
280
     1
281
     0
  0
BLOCK_RECORD
  5
109
330
1
100
AcDbSymbolTableRecord
100
AcDbBlockTableRecord
  2
Block_5
340
0
102
{BLKREFS
331
10A
102
}
 70
     0
280
     1
281
     0
  0
BLOCK_RECORD
  5
10D
330
1
100
AcDbSymbolTableRecord
100
AcDbBlockTableRecord
  2
Block_6
340
0
102
{BLKREFS
331
10E
102
}
 70
     0
280
     1
281
     0
  0
BLOCK_RECORD
  5
118
330
1
100
AcDbSymbolTableRecord
100
AcDbBlockTableRecord
  2
Block_7
340
0
102
{BLKREFS
331
119
102
}
 70
     0
280
     1
281
     0
  0
BLOCK_RECORD
  5
11C
330
1
100
AcDbSymbolTableRecord
100
AcDbBlockTableRecord
  2
Block_8
340
0
102
{BLKREFS
331
11D
102
}
 70
     0
280
     1
281
     0
  0
BLOCK_RECORD
  5
129
330
1
100
AcDbSymbolTableRecord
100
AcDbBlockTableRecord
  2
Block_9
340
0
102
{BLKREFS
331
12A
102
}
 70
     0
280
     1
281
     0
  0
BLOCK_RECORD
  5
12D
330
1
100
AcDbSymbolTableRecord
100
AcDbBlockTableRecord
  2
Block_10
340
0
102
{BLKREFS
331
12E
102
}
 70
     0
280
     1
281
     0
  0
BLOCK_RECORD
  5
137
330
1
100
AcDbSymbolTableRecord
100
AcDbBlockTableRecord
  2
Block_11
340
0
102
{BLKREFS
331
138
102
}
 70
     0
280
     1
281
     0
  0
BLOCK_RECORD
  5
141
330
1
100
AcDbSymbolTableRecord
100
AcDbBlockTableRecord
  2
Block_12
340
0
102
{BLKREFS
331
142
102
}
 70
     0
280
     1
281
     0
  0
BLOCK_RECORD
  5
145
330
1
100
AcDbSymbolTableRecord
100
AcDbBlockTableRecord
  2
Block_13
340
0
102
{BLKREFS
331
146
102
}
 70
     0
280
     1
281
     0
  0
BLOCK_RECORD
  5
14C
330
1
100
AcDbSymbolTableRecord
100
AcDbBlockTableRecord
  2
Block_14
340
0
102
{BLKREFS
331
14D
102
}
 70
     0
280
     1
281
     0
  0
BLOCK_RECORD
  5
150
330
1
100
AcDbSymbolTableRecord
100
AcDbBlockTableRecord
  2
Block_15
340
0
102
{BLKREFS
331
151
102
}
 70
     0
280
     1
281
     0
  0
ENDTAB
  0
ENDSEC
  0
SECTION
  2
BLOCKS
  0
BLOCK
  5
71
330
70
100
AcDbEntity
  8
0
100
AcDbBlockBegin
  2
*Model_Space
 70
     0
 10
0.0
 20
0.0
 30
0.0
  3
*Model_Space
  1

  0
ENDBLK
  5
72
330
70
100
AcDbEntity
  8
0
100
AcDbBlockEnd
  0
BLOCK
  5
6D
330
6C
100
AcDbEntity
 67
     1
  8
0
100
AcDbBlockBegin
  2
*Paper_Space
 70
     0
 10
0.0
 20
0.0
 30
0.0
  3
*Paper_Space
  1

  0
ENDBLK
  5
6E
330
6C
100
AcDbEntity
 67
     1
  8
0
100
AcDbBlockEnd
  0
BLOCK
  5
75
330
74
100
AcDbEntity
 67
     1
  8
0
100
AcDbBlockBegin
  2
*Paper_Space0
 70
     0
 10
0.0
 20
0.0
 30
0.0
  3
*Paper_Space0
  1

  0
ENDBLK
  5
76
330
74
100
AcDbEntity
 67
     1
  8
0
100
AcDbBlockEnd
  0
BLOCK
  5
E2
330
E0
100
AcDbEntity
  8
0
100
AcDbBlockBegin
  2
Block_0
 70
     0
 10
0.0
 20
0.0
 30
0.0
  3
Block_0
  1

  0
INSERT
  5
E5
330
E0
100
AcDbEntity
  8
レイヤー 1
100
AcDbBlockReference
  2
Block_1
 10
0.0
 20
0.0
 30
0.0
  0
ENDBLK
  5
E3
330
E0
100
AcDbEntity
  8
0
100
AcDbBlockEnd
  0
BLOCK
  5
E6
330
E4
100
AcDbEntity
  8
0
100
AcDbBlockBegin
  2
Block_1
 70
     0
 10
0.0
 20
0.0
 30
0.0
  3
Block_1
  1

  0
SPLINE
  5
E8
330
E4
100
AcDbEntity
  8
レイヤー 1
100
AcDbSpline
210
0.0
220
0.0
230
1.0
 70
     9
 71
     3
 72
    17
 73
    13
 74
     0
 42
0.0000000001
 43
0.0000000001
 40
0.0
 40
0.0
 40
0.0
 40
0.0
 40
1.0
 40
1.0
 40
1.0
 40
2.0
 40
2.0
 40
2.0
 40
3.0
 40
3.0
 40
3.0
 40
4.0
 40
4.0
 40
4.0
 40
4.0
 10
70.39156899281877
 20
-146.9641560504985
 30
0.0
 10
70.39156899281877
 20
-147.2139254731791
 30
0.0
 10
70.67492809648057
 20
-147.26043426223
 30
0.0
 10
71.01978215455408
 20
-147.26043426223
 30
0.0
 10
71.33931476081101
 20
-147.26043426223
 30
0.0
 10
71.64816757106365
 20
-147.2242607596349
 30
0.0
 10
71.64816757106365
 20
-146.9641560504985
 30
0.0
 10
71.64816757106365
 20
-146.7164536851091
 30
0.0
 10
71.36670326991874
 20
-146.667877838767
 30
0.0
 10
71.01978215455408
 20
-146.667877838767
 30
0.0
 10
70.70042180307142
 20
-146.667877838767
 30
0.0
 10
70.39156899281877
 20
-146.7061183986533
 30
0.0
 10
70.39156899281877
 20
-146.9641560504985
 30
0.0
  0
SPLINE
  5
E9
330
E4
100
AcDbEntity
  8
レイヤー 1
100
AcDbSpline
210
0.0
220
0.0
230
1.0
 70
     9
 71
     3
 72
    29
 73
    25
 74
     0
 42
0.0000000001
 43
0.0000000001
 40
0.0
 40
0.0
 40
0.0
 40
0.0
 40
1.0
 40
1.0
 40
1.0
 40
2.0
 40
2.0
 40
2.0
 40
3.0
 40
3.0
 40
3.0
 40
4.0
 40
4.0
 40
4.0
 40
5.0
 40
5.0
 40
5.0
 40
6.0
 40
6.0
 40
6.0
 40
7.0
 40
7.0
 40
7.0
 40
8.0
 40
8.0
 40
8.0
 40
8.0
 10
71.61423338053395
 20
-146.5662475219522
 30
0.0
 10
71.82369518603714
 20
-146.674423520189
 30
0.0
 10
71.84281546598026
 20
-146.8477118230971
 30
0.0
 10
71.84281546598026
 20
-146.9641560504985
 30
0.0
 10
71.84281546598026
 20
-147.1250420096597
 30
0.0
 10
71.7963066769294
 20
-147.2666354341034
 30
0.0
 10
71.61423338053395
 20
-147.3617200694964
 30
0.0
 10
71.41975774039159
 20
-147.4654174436024
 30
0.0
 10
71.18273517100639
 20
-147.4847099783198
 30
0.0
 10
71.01978215455408
 20
-147.4847099783198
 30
0.0
 10
70.87594941804491
 20
-147.4847099783198
 30
0.0
 10
70.62428519284741
 20
-147.4674845008935
 30
0.0
 10
70.42533092857422
 20
-147.3617200694964
 30
0.0
 10
70.22224254971874
 20
-147.253888580808
 30
0.0
 10
70.1989881551933
 20
-147.0930026216469
 30
0.0
 10
70.1989881551933
 20
-146.9641560504985
 30
0.0
 10
70.1989881551933
 20
-146.8053371486285
 30
0.0
 10
70.24342988695304
 20
-146.6616766668936
 30
0.0
 10
70.42533092857422
 20
-146.5662475219522
 30
0.0
 10
70.61791176619969
 20
-146.467028771977
 30
0.0
 10
70.84632159687176
 20
-146.4436021226773
 30
0.0
 10
71.01978215455408
 20
-146.4436021226773
 30
0.0
 10
71.19117565494526
 20
-146.4436021226773
 30
0.0
 10
71.42182479768274
 20
-146.4649617146858
 30
0.0
 10
71.61423338053395
 20
-146.5662475219522
 30
0.0
  0
HATCH
  5
EA
330
E4
100
AcDbEntity
  8
レイヤー 1
 62
   250
420
  2299925
440
 33554687
100
AcDbHatch
 10
0.0
 20
0.0
 30
0.0
210
0.0
220
0.0
230
1.0
  2
SOLID
 70
     1
 71
     1
 91
        2
 92
        1
 93
        1
 72
     4
 94
        3
 73
     0
 74
     0
 95
       17
 96
       13
 40
0.0
 40
0.0
 40
0.0
 40
0.0
 40
1.0
 40
1.0
 40
1.0
 40
2.0
 40
2.0
 40
2.0
 40
3.0
 40
3.0
 40
3.0
 40
4.0
 40
4.0
 40
4.0
 40
4.0
 10
70.39156899281877
 20
-146.9641560504985
 10
70.39156899281877
 20
-147.2139254731791
 10
70.67492809648057
 20
-147.26043426223
 10
71.01978215455408
 20
-147.26043426223
 10
71.33931476081101
 20
-147.26043426223
 10
71.64816757106365
 20
-147.2242607596349
 10
71.64816757106365
 20
-146.9641560504985
 10
71.64816757106365
 20
-146.7164536851091
 10
71.36670326991874
 20
-146.667877838767
 10
71.01978215455408
 20
-146.667877838767
 10
70.70042180307142
 20
-146.667877838767
 10
70.39156899281877
 20
-146.7061183986533
 10
70.39156899281877
 20
-146.9641560504985
 97
        0
 97
        1
330
E8
 92
        1
 93
        1
 72
     4
 94
        3
 73
     0
 74
     0
 95
       29
 96
       25
 40
0.0
 40
0.0
 40
0.0
 40
0.0
 40
1.0
 40
1.0
 40
1.0
 40
2.0
 40
2.0
 40
2.0
 40
3.0
 40
3.0
 40
3.0
 40
4.0
 40
4.0
 40
4.0
 40
5.0
 40
5.0
 40
5.0
 40
6.0
 40
6.0
 40
6.0
 40
7.0
 40
7.0
 40
7.0
 40
8.0
 40
8.0
 40
8.0
 40
8.0
 10
71.61423338053395
 20
-146.5662475219522
 10
71.82369518603714
 20
-146.674423520189
 10
71.84281546598026
 20
-146.8477118230971
 10
71.84281546598026
 20
-146.9641560504985
 10
71.84281546598026
 20
-147.1250420096597
 10
71.7963066769294
 20
-147.2666354341034
 10
71.61423338053395
 20
-147.3617200694964
 10
71.41975774039159
 20
-147.4654174436024
 10
71.18273517100639
 20
-147.4847099783198
 10
71.01978215455408
 20
-147.4847099783198
 10
70.87594941804491
 20
-147.4847099783198
 10
70.62428519284741
 20
-147.4674845008935
 10
70.42533092857422
 20
-147.3617200694964
 10
70.22224254971874
 20
-147.253888580808
 10
70.1989881551933
 20
-147.0930026216469
 10
70.1989881551933
 20
-146.9641560504985
 10
70.1989881551933
 20
-146.8053371486285
 10
70.24342988695304
 20
-146.6616766668936
 10
70.42533092857422
 20
-146.5662475219522
 10
70.61791176619969
 20
-146.467028771977
 10
70.84632159687176
 20
-146.4436021226773
 10
71.01978215455408
 20
-146.4436021226773
 10
71.19117565494526
 20
-146.4436021226773
 10
71.42182479768274
 20
-146.4649617146858
 10
71.61423338053395
 20
-146.5662475219522
 97
        0
 97
        1
330
E9
 75
     2
 76
     1
 98
        1
 10
0.0
 20
0.0
450
        0
451
        0
460
0.0
461
0.0
452
        0
462
0.0
453
        0
470

  0
SPLINE
  5
EB
330
E4
100
AcDbEntity
  8
レイヤー 1
100
AcDbSpline
210
0.0
220
0.0
230
1.0
 70
    11
 71
     3
 72
    17
 73
    13
 74
     0
 42
0.0000000001
 43
0.0000000001
 40
0.0
 40
0.0
 40
0.0
 40
0.0
 40
1.0
 40
1.0
 40
1.0
 40
2.0
 40
2.0
 40
2.0
 40
3.0
 40
3.0
 40
3.0
 40
4.0
 40
4.0
 40
4.0
 40
4.0
 10
71.79200030757283
 20
-146.2272501262036
 30
0.0
 10
71.79200030757283
 20
-146.2272501262036
 30
0.0
 10
71.54033608237533
 20
-146.2272501262036
 30
0.0
 10
71.54033608237533
 20
-146.2272501262036
 30
0.0
 10
71.54033608237533
 20
-146.2272501262036
 30
0.0
 10
71.54033608237533
 20
-145.9754136462318
 30
0.0
 10
71.54033608237533
 20
-145.9754136462318
 30
0.0
 10
71.54033608237533
 20
-145.9754136462318
 30
0.0
 10
71.79200030757283
 20
-145.9754136462318
 30
0.0
 10
71.79200030757283
 20
-145.9754136462318
 30
0.0
 10
71.79200030757283
 20
-145.9754136462318
 30
0.0
 10
71.79200030757283
 20
-146.2272501262036
 30
0.0
 10
71.79200030757283
 20
-146.2272501262036
 30
0.0
  0
HATCH
  5
EC
330
E4
100
AcDbEntity
  8
レイヤー 1
 62
   250
420
  2299925
440
 33554687
100
AcDbHatch
 10
0.0
 20
0.0
 30
0.0
210
0.0
220
0.0
230
1.0
  2
SOLID
 70
     1
 71
     1
 91
        1
 92
        1
 93
        1
 72
     4
 94
        3
 73
     0
 74
     0
 95
       17
 96
       13
 40
0.0
 40
0.0
 40
0.0
 40
0.0
 40
1.0
 40
1.0
 40
1.0
 40
2.0
 40
2.0
 40
2.0
 40
3.0
 40
3.0
 40
3.0
 40
4.0
 40
4.0
 40
4.0
 40
4.0
 10
71.79200030757283
 20
-146.2272501262036
 10
71.79200030757283
 20
-146.2272501262036
 10
71.54033608237533
 20
-146.2272501262036
 10
71.54033608237533
 20
-146.2272501262036
 10
71.54033608237533
 20
-146.2272501262036
 10
71.54033608237533
 20
-145.9754136462318
 10
71.54033608237533
 20
-145.9754136462318
 10
71.54033608237533
 20
-145.9754136462318
 10
71.79200030757283
 20
-145.9754136462318
 10
71.79200030757283
 20
-145.9754136462318
 10
71.79200030757283
 20
-145.9754136462318
 10
71.79200030757283
 20
-146.2272501262036
 10
71.79200030757283
 20
-146.2272501262036
 97
        0
 97
        1
330
EB
 75
     2
 76
     1
 98
        1
 10
0.0
 20
0.0
450
        0
451
        0
460
0.0
461
0.0
452
        0
462
0.0
453
        0
470

  0
SPLINE
  5
ED
330
E4
100
AcDbEntity
  8
レイヤー 1
100
AcDbSpline
210
0.0
220
0.0
230
1.0
 70
     9
 71
     3
 72
    53
 73
    49
 74
     0
 42
0.0000000001
 43
0.0000000001
 40
0.0
 40
0.0
 40
0.0
 40
0.0
 40
1.0
 40
1.0
 40
1.0
 40
2.0
 40
2.0
 40
2.0
 40
3.0
 40
3.0
 40
3.0
 40
4.0
 40
4.0
 40
4.0
 40
5.0
 40
5.0
 40
5.0
 40
6.0
 40
6.0
 40
6.0
 40
7.0
 40
7.0
 40
7.0
 40
8.0
 40
8.0
 40
8.0
 40
9.0
 40
9.0
 40
9.0
 40
10.0
 40
10.0
 40
10.0
 40
11.0
 40
11.0
 40
11.0
 40
12.0
 40
12.0
 40
12.0
 40
13.0
 40
13.0
 40
13.0
 40
14.0
 40
14.0
 40
14.0
 40
15.0
 40
15.0
 40
15.0
 40
16.0
 40
16.0
 40
16.0
 40
16.0
 10
71.84281546598026
 20
-145.2581447662028
 30
0.0
 10
71.84281546598026
 20
-145.336348433718
 30
0.0
 10
71.82593449810254
 20
-145.4379787505328
 30
0.0
 10
71.76237248639968
 20
-145.5396090673477
 30
0.0
 10
71.65230168564595
 20
-145.7128973702558
 30
0.0
 10
71.52121580243219
 20
-145.7342569622643
 30
0.0
 10
71.41338431374387
 20
-145.7532049874332
 30
0.0
 10
71.41338431374387
 20
-145.7532049874332
 30
0.0
 10
71.41338431374387
 20
-145.5309963286346
 30
0.0
 10
71.41338431374387
 20
-145.5309963286346
 30
0.0
 10
71.61216632324279
 20
-145.4762193104191
 30
0.0
 10
71.64179414441594
 20
-145.3490952870134
 30
0.0
 10
71.64179414441594
 20
-145.2560777089116
 30
0.0
 10
71.64179414441594
 20
-145.116551341759
 30
0.0
 10
71.54240313966649
 20
-144.964278121311
 30
0.0
 10
71.30968693963786
 20
-144.964278121311
 30
0.0
 10
71.05371634508379
 20
-144.964278121311
 30
0.0
 10
70.98395316150749
 20
-145.144112105641
 30
0.0
 10
70.98395316150749
 20
-145.2646904476248
 30
0.0
 10
70.98395316150749
 20
-145.2963853260891
 30
0.0
 10
70.98395316150749
 20
-145.4379787505328
 30
0.0
 10
71.1129719874301
 20
-145.5268622140523
 30
0.0
 10
71.1129719874301
 20
-145.5268622140523
 30
0.0
 10
71.09385170748696
 20
-145.7025620838001
 30
0.0
 10
71.09385170748696
 20
-145.7025620838001
 30
0.0
 10
71.09385170748696
 20
-145.7025620838001
 30
0.0
 10
70.2477362563096
 20
-145.5819837418163
 30
0.0
 10
70.2477362563096
 20
-145.5819837418163
 30
0.0
 10
70.2477362563096
 20
-145.5819837418163
 30
0.0
 10
70.2477362563096
 20
-144.8033921621498
 30
0.0
 10
70.2477362563096
 20
-144.8033921621498
 30
0.0
 10
70.2477362563096
 20
-144.8033921621498
 30
0.0
 10
70.4423841512262
 20
-144.8033921621498
 30
0.0
 10
70.4423841512262
 20
-144.8033921621498
 30
0.0
 10
70.4423841512262
 20
-144.8033921621498
 30
0.0
 10
70.4423841512262
 20
-145.419030725364
 30
0.0
 10
70.4423841512262
 20
-145.419030725364
 30
0.0
 10
70.4423841512262
 20
-145.419030725364
 30
0.0
 10
70.86544187681489
 20
-145.4844875395837
 30
0.0
 10
70.86544187681489
 20
-145.4844875395837
 30
0.0
 10
70.83150768628518
 20
-145.4231648399463
 30
0.0
 10
70.79137232388202
 20
-145.3408270578488
 30
0.0
 10
70.79137232388202
 20
-145.2223157731562
 30
0.0
 10
70.79137232388202
 20
-144.9684122358933
 30
0.0
 10
70.97757973485977
 20
-144.7313896665081
 30
0.0
 10
71.29056665969471
 20
-144.7313896665081
 30
0.0
 10
71.60803220866049
 20
-144.7313896665081
 30
0.0
 10
71.84281546598026
 20
-144.9556653825979
 30
0.0
 10
71.84281546598026
 20
-145.2581447662028
 30
0.0
  0
HATCH
  5
EE
330
E4
100
AcDbEntity
  8
レイヤー 1
 62
   250
420
  2299925
440
 33554687
100
AcDbHatch
 10
0.0
 20
0.0
 30
0.0
210
0.0
220
0.0
230
1.0
  2
SOLID
 70
     1
 71
     1
 91
        1
 92
        1
 93
        1
 72
     4
 94
        3
 73
     0
 74
     0
 95
       53
 96
       49
 40
0.0
 40
0.0
 40
0.0
 40
0.0
 40
1.0
 40
1.0
 40
1.0
 40
2.0
 40
2.0
 40
2.0
 40
3.0
 40
3.0
 40
3.0
 40
4.0
 40
4.0
 40
4.0
 40
5.0
 40
5.0
 40
5.0
 40
6.0
 40
6.0
 40
6.0
 40
7.0
 40
7.0
 40
7.0
 40
8.0
 40
8.0
 40
8.0
 40
9.0
 40
9.0
 40
9.0
 40
10.0
 40
10.0
 40
10.0
 40
11.0
 40
11.0
 40
11.0
 40
12.0
 40
12.0
 40
12.0
 40
13.0
 40
13.0
 40
13.0
 40
14.0
 40
14.0
 40
14.0
 40
15.0
 40
15.0
 40
15.0
 40
16.0
 40
16.0
 40
16.0
 40
16.0
 10
71.84281546598026
 20
-145.2581447662028
 10
71.84281546598026
 20
-145.336348433718
 10
71.82593449810254
 20
-145.4379787505328
 10
71.76237248639968
 20
-145.5396090673477
 10
71.65230168564595
 20
-145.7128973702558
 10
71.52121580243219
 20
-145.7342569622643
 10
71.41338431374387
 20
-145.7532049874332
 10
71.41338431374387
 20
-145.7532049874332
 10
71.41338431374387
 20
-145.5309963286346
 10
71.41338431374387
 20
-145.5309963286346
 10
71.61216632324279
 20
-145.4762193104191
 10
71.64179414441594
 20
-145.3490952870134
 10
71.64179414441594
 20
-145.2560777089116
 10
71.64179414441594
 20
-145.116551341759
 10
71.54240313966649
 20
-144.964278121311
 10
71.30968693963786
 20
-144.964278121311
 10
71.05371634508379
 20
-144.964278121311
 10
70.98395316150749
 20
-145.144112105641
 10
70.98395316150749
 20
-145.2646904476248
 10
70.98395316150749
 20
-145.2963853260891
 10
70.98395316150749
 20
-145.4379787505328
 10
71.1129719874301
 20
-145.5268622140523
 10
71.1129719874301
 20
-145.5268622140523
 10
71.09385170748696
 20
-145.7025620838001
 10
71.09385170748696
 20
-145.7025620838001
 10
71.09385170748696
 20
-145.7025620838001
 10
70.2477362563096
 20
-145.5819837418163
 10
70.2477362563096
 20
-145.5819837418163
 10
70.2477362563096
 20
-145.5819837418163
 10
70.2477362563096
 20
-144.8033921621498
 10
70.2477362563096
 20
-144.8033921621498
 10
70.2477362563096
 20
-144.8033921621498
 10
70.4423841512262
 20
-144.8033921621498
 10
70.4423841512262
 20
-144.8033921621498
 10
70.4423841512262
 20
-144.8033921621498
 10
70.4423841512262
 20
-145.419030725364
 10
70.4423841512262
 20
-145.419030725364
 10
70.4423841512262
 20
-145.419030725364
 10
70.86544187681489
 20
-145.4844875395837
 10
70.86544187681489
 20
-145.4844875395837
 10
70.83150768628518
 20
-145.4231648399463
 10
70.79137232388202
 20
-145.3408270578488
 10
70.79137232388202
 20
-145.2223157731562
 10
70.79137232388202
 20
-144.9684122358933
 10
70.97757973485977
 20
-144.7313896665081
 10
71.29056665969471
 20
-144.7313896665081
 10
71.60803220866049
 20
-144.7313896665081
 10
71.84281546598026
 20
-144.9556653825979
 10
71.84281546598026
 20
-145.2581447662028
 97
        0
 97
        1
330
ED
 75
     2
 76
     1
 98
        1
 10
0.0
 20
0.0
450
        0
451
        0
460
0.0
461
0.0
452
        0
462
0.0
453
        0
470

  0
ENDBLK
  5
E7
330
E4
100
AcDbEntity
  8
0
100
AcDbBlockEnd
  0
BLOCK
  5
F3
330
F1
100
AcDbEntity
  8
0
100
AcDbBlockBegin
  2
Block_2
 70
     0
 10
0.0
 20
0.0
 30
0.0
  3
Block_2
  1

  0
INSERT
  5
F6
330
F1
100
AcDbEntity
  8
レイヤー 1
100
AcDbBlockReference
  2
Block_3
 10
0.0
 20
0.0
 30
0.0
  0
ENDBLK
  5
F4
330
F1
100
AcDbEntity
  8
0
100
AcDbBlockEnd
  0
BLOCK
  5
F7
330
F5
100
AcDbEntity
  8
0
100
AcDbBlockBegin
  2
Block_3
 70
     0
 10
0.0
 20
0.0
 30
0.0
  3
Block_3
  1

  0
SPLINE
  5
F9
330
F5
100
AcDbEntity
  8
レイヤー 1
100
AcDbSpline
210
0.0
220
0.0
230
1.0
 70
     9
 71
     3
 72
    44
 73
    40
 74
     0
 42
0.0000000001
 43
0.0000000001
 40
0.0
 40
0.0
 40
0.0
 40
0.0
 40
1.0
 40
1.0
 40
1.0
 40
2.0
 40
2.0
 40
2.0
 40
3.0
 40
3.0
 40
3.0
 40
4.0
 40
4.0
 40
4.0
 40
5.0
 40
5.0
 40
5.0
 40
6.0
 40
6.0
 40
6.0
 40
7.0
 40
7.0
 40
7.0
 40
8.0
 40
8.0
 40
8.0
 40
9.0
 40
9.0
 40
9.0
 40
10.0
 40
10.0
 40
10.0
 40
11.0
 40
11.0
 40
11.0
 40
12.0
 40
12.0
 40
12.0
 40
13.0
 40
13.0
 40
13.0
 40
13.0
 10
85.39427081198477
 20
-139.751848652128
 30
0.0
 10
85.17636852254272
 20
-139.9104952992238
 30
0.0
 10
85.0831786896667
 20
-139.9845648521566
 30
0.0
 10
85.03460284332469
 20
-140.1283975886658
 30
0.0
 10
85.03460284332469
 20
-140.1283975886658
 30
0.0
 10
85.81302216821688
 20
-140.1283975886658
 30
0.0
 10
85.81302216821688
 20
-140.1283975886658
 30
0.0
 10
85.81302216821688
 20
-140.1283975886658
 30
0.0
 10
85.81302216821688
 20
-140.3335530248124
 30
0.0
 10
85.81302216821688
 20
-140.3335530248124
 30
0.0
 10
85.81302216821688
 20
-140.3335530248124
 30
0.0
 10
84.78500567541834
 20
-140.3335530248124
 30
0.0
 10
84.78500567541834
 20
-140.3335530248124
 30
0.0
 10
84.81670055388264
 20
-139.9759521134435
 30
0.0
 10
84.88232962287664
 20
-139.8977484459283
 30
0.0
 10
85.26731904335331
 20
-139.5994031769057
 30
0.0
 10
85.52328963790738
 20
-139.4006211674068
 30
0.0
 10
85.58874645212712
 20
-139.3329250411216
 30
0.0
 10
85.58874645212712
 20
-139.1954657312601
 30
0.0
 10
85.58874645212712
 20
-139.0769544465676
 30
0.0
 10
85.51691621125966
 20
-138.9456963085795
 30
0.0
 10
85.32020125905189
 20
-138.9456963085795
 30
0.0
 10
85.05992429514128
 20
-138.9456963085795
 30
0.0
 10
85.05148381120241
 20
-139.176345451317
 30
0.0
 10
85.04717744184585
 20
-139.2927896787184
 30
0.0
 10
85.04717744184585
 20
-139.2927896787184
 30
0.0
 10
84.82307398053036
 20
-139.2927896787184
 30
0.0
 10
84.82307398053036
 20
-139.2927896787184
 30
0.0
 10
84.83151446446921
 20
-139.165837910087
 30
0.0
 10
84.84202200569923
 20
-139.0537000520421
 30
0.0
 10
84.92246498527981
 20
-138.9351887673495
 30
0.0
 10
85.03236353125927
 20
-138.7744750629626
 30
0.0
 10
85.21857094223703
 20
-138.7405408724329
 30
0.0
 10
85.33501516963847
 20
-138.7405408724329
 30
0.0
 10
85.61217310142682
 20
-138.7405408724329
 30
0.0
 10
85.8193955948646
 20
-138.9246812261195
 30
0.0
 10
85.8193955948646
 20
-139.1975327885513
 30
0.0
 10
85.8193955948646
 20
-139.4259426192234
 30
0.0
 10
85.70312362223742
 20
-139.5255058787471
 30
0.0
 10
85.39427081198477
 20
-139.751848652128
 30
0.0
  0
HATCH
  5
FA
330
F5
100
AcDbEntity
  8
レイヤー 1
 62
   250
420
  2299925
440
 33554687
100
AcDbHatch
 10
0.0
 20
0.0
 30
0.0
210
0.0
220
0.0
230
1.0
  2
SOLID
 70
     1
 71
     1
 91
        1
 92
        1
 93
        1
 72
     4
 94
        3
 73
     0
 74
     0
 95
       44
 96
       40
 40
0.0
 40
0.0
 40
0.0
 40
0.0
 40
1.0
 40
1.0
 40
1.0
 40
2.0
 40
2.0
 40
2.0
 40
3.0
 40
3.0
 40
3.0
 40
4.0
 40
4.0
 40
4.0
 40
5.0
 40
5.0
 40
5.0
 40
6.0
 40
6.0
 40
6.0
 40
7.0
 40
7.0
 40
7.0
 40
8.0
 40
8.0
 40
8.0
 40
9.0
 40
9.0
 40
9.0
 40
10.0
 40
10.0
 40
10.0
 40
11.0
 40
11.0
 40
11.0
 40
12.0
 40
12.0
 40
12.0
 40
13.0
 40
13.0
 40
13.0
 40
13.0
 10
85.39427081198477
 20
-139.751848652128
 10
85.17636852254272
 20
-139.9104952992238
 10
85.0831786896667
 20
-139.9845648521566
 10
85.03460284332469
 20
-140.1283975886658
 10
85.03460284332469
 20
-140.1283975886658
 10
85.81302216821688
 20
-140.1283975886658
 10
85.81302216821688
 20
-140.1283975886658
 10
85.81302216821688
 20
-140.1283975886658
 10
85.81302216821688
 20
-140.3335530248124
 10
85.81302216821688
 20
-140.3335530248124
 10
85.81302216821688
 20
-140.3335530248124
 10
84.78500567541834
 20
-140.3335530248124
 10
84.78500567541834
 20
-140.3335530248124
 10
84.81670055388264
 20
-139.9759521134435
 10
84.88232962287664
 20
-139.8977484459283
 10
85.26731904335331
 20
-139.5994031769057
 10
85.52328963790738
 20
-139.4006211674068
 10
85.58874645212712
 20
-139.3329250411216
 10
85.58874645212712
 20
-139.1954657312601
 10
85.58874645212712
 20
-139.0769544465676
 10
85.51691621125966
 20
-138.9456963085795
 10
85.32020125905189
 20
-138.9456963085795
 10
85.05992429514128
 20
-138.9456963085795
 10
85.05148381120241
 20
-139.176345451317
 10
85.04717744184585
 20
-139.2927896787184
 10
85.04717744184585
 20
-139.2927896787184
 10
84.82307398053036
 20
-139.2927896787184
 10
84.82307398053036
 20
-139.2927896787184
 10
84.83151446446921
 20
-139.165837910087
 10
84.84202200569923
 20
-139.0537000520421
 10
84.92246498527981
 20
-138.9351887673495
 10
85.03236353125927
 20
-138.7744750629626
 10
85.21857094223703
 20
-138.7405408724329
 10
85.33501516963847
 20
-138.7405408724329
 10
85.61217310142682
 20
-138.7405408724329
 10
85.8193955948646
 20
-138.9246812261195
 10
85.8193955948646
 20
-139.1975327885513
 10
85.8193955948646
 20
-139.4259426192234
 10
85.70312362223742
 20
-139.5255058787471
 10
85.39427081198477
 20
-139.751848652128
 97
        0
 97
        1
330
F9
 75
     2
 76
     1
 98
        1
 10
0.0
 20
0.0
450
        0
451
        0
460
0.0
461
0.0
452
        0
462
0.0
453
        0
470

  0
SPLINE
  5
FB
330
F5
100
AcDbEntity
  8
レイヤー 1
100
AcDbSpline
210
0.0
220
0.0
230
1.0
 70
    11
 71
     3
 72
    26
 73
    22
 74
     0
 42
0.0000000001
 43
0.0000000001
 40
0.0
 40
0.0
 40
0.0
 40
0.0
 40
1.0
 40
1.0
 40
1.0
 40
2.0
 40
2.0
 40
2.0
 40
3.0
 40
3.0
 40
3.0
 40
4.0
 40
4.0
 40
4.0
 40
5.0
 40
5.0
 40
5.0
 40
6.0
 40
6.0
 40
6.0
 40
7.0
 40
7.0
 40
7.0
 40
7.0
 10
86.42934975052808
 20
-140.3335530248124
 30
0.0
 10
86.42934975052808
 20
-140.3335530248124
 30
0.0
 10
86.42934975052808
 20
-139.2292276670156
 30
0.0
 10
86.42934975052808
 20
-139.2292276670156
 30
0.0
 10
86.42934975052808
 20
-139.2292276670156
 30
0.0
 10
86.09930960304115
 20
-139.2292276670156
 30
0.0
 10
86.09930960304115
 20
-139.2292276670156
 30
0.0
 10
86.09930960304115
 20
-139.2292276670156
 30
0.0
 10
86.09930960304115
 20
-139.0810885611498
 30
0.0
 10
86.09930960304115
 20
-139.0810885611498
 30
0.0
 10
86.43141680781923
 20
-139.0664469053375
 30
0.0
 10
86.4779255968701
 20
-138.9034938888852
 30
0.0
 10
86.50755341804325
 20
-138.7892889735492
 30
0.0
 10
86.50755341804325
 20
-138.7892889735492
 30
0.0
 10
86.65362546661786
 20
-138.7892889735492
 30
0.0
 10
86.65362546661786
 20
-138.7892889735492
 30
0.0
 10
86.65362546661786
 20
-138.7892889735492
 30
0.0
 10
86.65362546661786
 20
-140.3335530248124
 30
0.0
 10
86.65362546661786
 20
-140.3335530248124
 30
0.0
 10
86.65362546661786
 20
-140.3335530248124
 30
0.0
 10
86.42934975052808
 20
-140.3335530248124
 30
0.0
 10
86.42934975052808
 20
-140.3335530248124
 30
0.0
  0
HATCH
  5
FC
330
F5
100
AcDbEntity
  8
レイヤー 1
 62
   250
420
  2299925
440
 33554687
100
AcDbHatch
 10
0.0
 20
0.0
 30
0.0
210
0.0
220
0.0
230
1.0
  2
SOLID
 70
     1
 71
     1
 91
        1
 92
        1
 93
        1
 72
     4
 94
        3
 73
     0
 74
     0
 95
       26
 96
       22
 40
0.0
 40
0.0
 40
0.0
 40
0.0
 40
1.0
 40
1.0
 40
1.0
 40
2.0
 40
2.0
 40
2.0
 40
3.0
 40
3.0
 40
3.0
 40
4.0
 40
4.0
 40
4.0
 40
5.0
 40
5.0
 40
5.0
 40
6.0
 40
6.0
 40
6.0
 40
7.0
 40
7.0
 40
7.0
 40
7.0
 10
86.42934975052808
 20
-140.3335530248124
 10
86.42934975052808
 20
-140.3335530248124
 10
86.42934975052808
 20
-139.2292276670156
 10
86.42934975052808
 20
-139.2292276670156
 10
86.42934975052808
 20
-139.2292276670156
 10
86.09930960304115
 20
-139.2292276670156
 10
86.09930960304115
 20
-139.2292276670156
 10
86.09930960304115
 20
-139.2292276670156
 10
86.09930960304115
 20
-139.0810885611498
 10
86.09930960304115
 20
-139.0810885611498
 10
86.43141680781923
 20
-139.0664469053375
 10
86.4779255968701
 20
-138.9034938888852
 10
86.50755341804325
 20
-138.7892889735492
 10
86.50755341804325
 20
-138.7892889735492
 10
86.65362546661786
 20
-138.7892889735492
 10
86.65362546661786
 20
-138.7892889735492
 10
86.65362546661786
 20
-138.7892889735492
 10
86.65362546661786
 20
-140.3335530248124
 10
86.65362546661786
 20
-140.3335530248124
 10
86.65362546661786
 20
-140.3335530248124
 10
86.42934975052808
 20
-140.3335530248124
 10
86.42934975052808
 20
-140.3335530248124
 97
        0
 97
        1
330
FB
 75
     2
 76
     1
 98
        1
 10
0.0
 20
0.0
450
        0
451
        0
460
0.0
461
0.0
452
        0
462
0.0
453
        0
470

  0
ENDBLK
  5
F8
330
F5
100
AcDbEntity
  8
0
100
AcDbBlockEnd
  0
BLOCK
  5
101
330
FF
100
AcDbEntity
  8
0
100
AcDbBlockBegin
  2
Block_4
 70
     0
 10
0.0
 20
0.0
 30
0.0
  3
Block_4
  1

  0
SPLINE
  5
103
330
FF
100
AcDbEntity
  8
レイヤー 1
100
AcDbSpline
210
0.0
220
0.0
230
1.0
 70
     9
 71
     3
 72
    17
 73
    13
 74
     0
 42
0.0000000001
 43
0.0000000001
 40
0.0
 40
0.0
 40
0.0
 40
0.0
 40
1.0
 40
1.0
 40
1.0
 40
2.0
 40
2.0
 40
2.0
 40
3.0
 40
3.0
 40
3.0
 40
4.0
 40
4.0
 40
4.0
 40
4.0
 10
71.78235404021413
 20
-150.1575873105509
 30
0.0
 10
71.78235404021413
 20
-150.3012477922858
 30
0.0
 10
71.86899819166817
 20
-150.4538655222823
 30
0.0
 10
72.07208657052365
 20
-150.4538655222823
 30
0.0
 10
72.27724200667028
 20
-150.4538655222823
 30
0.0
 10
72.37887232348514
 20
-150.3267414988766
 30
0.0
 10
72.37887232348514
 20
-150.1575873105509
 30
0.0
 10
72.37887232348514
 20
-149.9715521543474
 30
0.0
 10
72.25622692421025
 20
-149.8613090988194
 30
0.0
 10
72.07845999717136
 20
-149.8613090988194
 30
0.0
 10
71.85625133837274
 20
-149.8613090988194
 30
0.0
 10
71.78235404021413
 20
-150.0242621152717
 30
0.0
 10
71.78235404021413
 20
-150.1575873105509
 30
0.0
  0
SPLINE
  5
104
330
FF
100
AcDbEntity
  8
レイヤー 1
100
AcDbSpline
210
0.0
220
0.0
230
1.0
 70
     9
 71
     3
 72
    17
 73
    13
 74
     0
 42
0.0000000001
 43
0.0000000001
 40
0.0
 40
0.0
 40
0.0
 40
0.0
 40
1.0
 40
1.0
 40
1.0
 40
2.0
 40
2.0
 40
2.0
 40
3.0
 40
3.0
 40
3.0
 40
4.0
 40
4.0
 40
4.0
 40
4.0
 10
71.12227374524026
 20
-150.1575873105509
 30
0.0
 10
71.12227374524026
 20
-150.3226073842943
 30
0.0
 10
71.21735838063315
 20
-150.4073567332315
 30
0.0
 10
71.35275063320348
 20
-150.4073567332315
 30
0.0
 10
71.47556828725264
 20
-150.4073567332315
 30
0.0
 10
71.59407957194523
 20
-150.3353542375897
 30
0.0
 10
71.59407957194523
 20
-150.1575873105509
 30
0.0
 10
71.59407957194523
 20
-149.979820383512
 30
0.0
 10
71.47556828725264
 20
-149.9078178878702
 30
0.0
 10
71.35275063320348
 20
-149.9078178878702
 30
0.0
 10
71.21735838063315
 20
-149.9078178878702
 30
0.0
 10
71.12227374524026
 20
-149.9946342940986
 30
0.0
 10
71.12227374524026
 20
-150.1575873105509
 30
0.0
  0
SPLINE
  5
105
330
FF
100
AcDbEntity
  8
レイヤー 1
100
AcDbSpline
210
0.0
220
0.0
230
1.0
 70
     9
 71
     3
 72
    29
 73
    25
 74
     0
 42
0.0000000001
 43
0.0000000001
 40
0.0
 40
0.0
 40
0.0
 40
0.0
 40
1.0
 40
1.0
 40
1.0
 40
2.0
 40
2.0
 40
2.0
 40
3.0
 40
3.0
 40
3.0
 40
4.0
 40
4.0
 40
4.0
 40
5.0
 40
5.0
 40
5.0
 40
6.0
 40
6.0
 40
6.0
 40
7.0
 40
7.0
 40
7.0
 40
8.0
 40
8.0
 40
8.0
 40
8.0
 10
72.57352021840176
 20
-150.1575873105509
 30
0.0
 10
72.57352021840176
 20
-150.4242377011092
 30
0.0
 10
72.43588865376603
 20
-150.6781412383721
 30
0.0
 10
72.08690048111022
 20
-150.6781412383721
 30
0.0
 10
71.83092988655616
 20
-150.6781412383721
 30
0.0
 10
71.735672996389
 20
-150.5362033043798
 30
0.0
 10
71.67435029675155
 20
-150.4304388729827
 30
0.0
 10
71.61509465440525
 20
-150.5551513295487
 30
0.0
 10
71.50088973906922
 20
-150.6312879397727
 30
0.0
 10
71.34017603468231
 20
-150.6312879397727
 30
0.0
 10
71.06508516018512
 20
-150.6312879397727
 30
0.0
 10
70.9296929076148
 20
-150.4325059302738
 30
0.0
 10
70.9296929076148
 20
-150.1575873105509
 30
0.0
 10
70.9296929076148
 20
-149.8740559521148
 30
0.0
 10
71.07352564412399
 20
-149.6835421717805
 30
0.0
 10
71.34017603468231
 20
-149.6835421717805
 30
0.0
 10
71.50088973906922
 20
-149.6835421717805
 30
0.0
 10
71.61509465440525
 20
-149.7620903488442
 30
0.0
 10
71.67435029675155
 20
-149.8868028054102
 30
0.0
 10
71.72516545515899
 20
-149.7979193418908
 30
0.0
 10
71.82042234532615
 20
-149.6391004400208
 30
0.0
 10
72.08276636652792
 20
-149.6391004400208
 30
0.0
 10
72.45707599100033
 20
-149.6391004400208
 30
0.0
 10
72.57352021840176
 20
-149.9184976838745
 30
0.0
 10
72.57352021840176
 20
-150.1575873105509
 30
0.0
  0
HATCH
  5
106
330
FF
100
AcDbEntity
  8
レイヤー 1
 62
   250
420
  2299925
440
 33554687
100
AcDbHatch
 10
0.0
 20
0.0
 30
0.0
210
0.0
220
0.0
230
1.0
  2
SOLID
 70
     1
 71
     1
 91
        3
 92
        1
 93
        1
 72
     4
 94
        3
 73
     0
 74
     0
 95
       17
 96
       13
 40
0.0
 40
0.0
 40
0.0
 40
0.0
 40
1.0
 40
1.0
 40
1.0
 40
2.0
 40
2.0
 40
2.0
 40
3.0
 40
3.0
 40
3.0
 40
4.0
 40
4.0
 40
4.0
 40
4.0
 10
71.78235404021413
 20
-150.1575873105509
 10
71.78235404021413
 20
-150.3012477922858
 10
71.86899819166817
 20
-150.4538655222823
 10
72.07208657052365
 20
-150.4538655222823
 10
72.27724200667028
 20
-150.4538655222823
 10
72.37887232348514
 20
-150.3267414988766
 10
72.37887232348514
 20
-150.1575873105509
 10
72.37887232348514
 20
-149.9715521543474
 10
72.25622692421025
 20
-149.8613090988194
 10
72.07845999717136
 20
-149.8613090988194
 10
71.85625133837274
 20
-149.8613090988194
 10
71.78235404021413
 20
-150.0242621152717
 10
71.78235404021413
 20
-150.1575873105509
 97
        0
 97
        1
330
103
 92
        1
 93
        1
 72
     4
 94
        3
 73
     0
 74
     0
 95
       17
 96
       13
 40
0.0
 40
0.0
 40
0.0
 40
0.0
 40
1.0
 40
1.0
 40
1.0
 40
2.0
 40
2.0
 40
2.0
 40
3.0
 40
3.0
 40
3.0
 40
4.0
 40
4.0
 40
4.0
 40
4.0
 10
71.12227374524026
 20
-150.1575873105509
 10
71.12227374524026
 20
-150.3226073842943
 10
71.21735838063315
 20
-150.4073567332315
 10
71.35275063320348
 20
-150.4073567332315
 10
71.47556828725264
 20
-150.4073567332315
 10
71.59407957194523
 20
-150.3353542375897
 10
71.59407957194523
 20
-150.1575873105509
 10
71.59407957194523
 20
-149.979820383512
 10
71.47556828725264
 20
-149.9078178878702
 10
71.35275063320348
 20
-149.9078178878702
 10
71.21735838063315
 20
-149.9078178878702
 10
71.12227374524026
 20
-149.9946342940986
 10
71.12227374524026
 20
-150.1575873105509
 97
        0
 97
        1
330
104
 92
        1
 93
        1
 72
     4
 94
        3
 73
     0
 74
     0
 95
       29
 96
       25
 40
0.0
 40
0.0
 40
0.0
 40
0.0
 40
1.0
 40
1.0
 40
1.0
 40
2.0
 40
2.0
 40
2.0
 40
3.0
 40
3.0
 40
3.0
 40
4.0
 40
4.0
 40
4.0
 40
5.0
 40
5.0
 40
5.0
 40
6.0
 40
6.0
 40
6.0
 40
7.0
 40
7.0
 40
7.0
 40
8.0
 40
8.0
 40
8.0
 40
8.0
 10
72.57352021840176
 20
-150.1575873105509
 10
72.57352021840176
 20
-150.4242377011092
 10
72.43588865376603
 20
-150.6781412383721
 10
72.08690048111022
 20
-150.6781412383721
 10
71.83092988655616
 20
-150.6781412383721
 10
71.735672996389
 20
-150.5362033043798
 10
71.67435029675155
 20
-150.4304388729827
 10
71.61509465440525
 20
-150.5551513295487
 10
71.50088973906922
 20
-150.6312879397727
 10
71.34017603468231
 20
-150.6312879397727
 10
71.06508516018512
 20
-150.6312879397727
 10
70.9296929076148
 20
-150.4325059302738
 10
70.9296929076148
 20
-150.1575873105509
 10
70.9296929076148
 20
-149.8740559521148
 10
71.07352564412399
 20
-149.6835421717805
 10
71.34017603468231
 20
-149.6835421717805
 10
71.50088973906922
 20
-149.6835421717805
 10
71.61509465440525
 20
-149.7620903488442
 10
71.67435029675155
 20
-149.8868028054102
 10
71.72516545515899
 20
-149.7979193418908
 10
71.82042234532615
 20
-149.6391004400208
 10
72.08276636652792
 20
-149.6391004400208
 10
72.45707599100033
 20
-149.6391004400208
 10
72.57352021840176
 20
-149.9184976838745
 10
72.57352021840176
 20
-150.1575873105509
 97
        0
 97
        1
330
105
 75
     2
 76
     1
 98
        1
 10
0.0
 20
0.0
450
        0
451
        0
460
0.0
461
0.0
452
        0
462
0.0
453
        0
470

  0
ENDBLK
  5
102
330
FF
100
AcDbEntity
  8
0
100
AcDbBlockEnd
  0
BLOCK
  5
10B
330
109
100
AcDbEntity
  8
0
100
AcDbBlockBegin
  2
Block_5
 70
     0
 10
0.0
 20
0.0
 30
0.0
  3
Block_5
  1

  0
INSERT
  5
10E
330
109
100
AcDbEntity
  8
レイヤー 1
100
AcDbBlockReference
  2
Block_6
 10
0.0
 20
0.0
 30
0.0
  0
ENDBLK
  5
10C
330
109
100
AcDbEntity
  8
0
100
AcDbBlockEnd
  0
BLOCK
  5
10F
330
10D
100
AcDbEntity
  8
0
100
AcDbBlockBegin
  2
Block_6
 70
     0
 10
0.0
 20
0.0
 30
0.0
  3
Block_6
  1

  0
SPLINE
  5
111
330
10D
100
AcDbEntity
  8
レイヤー 1
100
AcDbSpline
210
0.0
220
0.0
230
1.0
 70
     9
 71
     3
 72
    44
 73
    40
 74
     0
 42
0.0000000001
 43
0.0000000001
 40
0.0
 40
0.0
 40
0.0
 40
0.0
 40
1.0
 40
1.0
 40
1.0
 40
2.0
 40
2.0
 40
2.0
 40
3.0
 40
3.0
 40
3.0
 40
4.0
 40
4.0
 40
4.0
 40
5.0
 40
5.0
 40
5.0
 40
6.0
 40
6.0
 40
6.0
 40
7.0
 40
7.0
 40
7.0
 40
8.0
 40
8.0
 40
8.0
 40
9.0
 40
9.0
 40
9.0
 40
10.0
 40
10.0
 40
10.0
 40
11.0
 40
11.0
 40
11.0
 40
12.0
 40
12.0
 40
12.0
 40
13.0
 40
13.0
 40
13.0
 40
13.0
 10
118.2232747100275
 20
-139.751848652128
 30
0.0
 10
118.0055446753597
 20
-139.9104952992238
 30
0.0
 10
117.912527097258
 20
-139.9845648521566
 30
0.0
 10
117.8636067413674
 20
-140.1283975886658
 30
0.0
 10
117.8636067413674
 20
-140.1283975886658
 30
0.0
 10
118.6421983210339
 20
-140.1283975886658
 30
0.0
 10
118.6421983210339
 20
-140.1283975886658
 30
0.0
 10
118.6421983210339
 20
-140.1283975886658
 30
0.0
 10
118.6421983210339
 20
-140.3335530248124
 30
0.0
 10
118.6421983210339
 20
-140.3335530248124
 30
0.0
 10
118.6421983210339
 20
-140.3335530248124
 30
0.0
 10
117.6141818282353
 20
-140.3335530248124
 30
0.0
 10
117.6141818282353
 20
-140.3335530248124
 30
0.0
 10
117.6458767066996
 20
-139.9759521134435
 30
0.0
 10
117.7113335209194
 20
-139.8977484459283
 30
0.0
 10
118.0964951961703
 20
-139.5994031769057
 30
0.0
 10
118.3524657907244
 20
-139.4006211674068
 30
0.0
 10
118.4179226049441
 20
-139.3329250411216
 30
0.0
 10
118.4179226049441
 20
-139.1954657312601
 30
0.0
 10
118.4179226049441
 20
-139.0769544465676
 30
0.0
 10
118.3459201093024
 20
-138.9456963085795
 30
0.0
 10
118.1492051570946
 20
-138.9456963085795
 30
0.0
 10
117.8891004479583
 20
-138.9456963085795
 30
0.0
 10
117.8808322187937
 20
-139.176345451317
 30
0.0
 10
117.8763535946628
 20
-139.2927896787184
 30
0.0
 10
117.8763535946628
 20
-139.2927896787184
 30
0.0
 10
117.6520778785731
 20
-139.2927896787184
 30
0.0
 10
117.6520778785731
 20
-139.2927896787184
 30
0.0
 10
117.6606906172862
 20
-139.165837910087
 30
0.0
 10
117.6713704132905
 20
-139.0537000520421
 30
0.0
 10
117.7516411380968
 20
-138.9351887673495
 30
0.0
 10
117.8615396840763
 20
-138.7744750629626
 30
0.0
 10
118.0479193498283
 20
-138.7405408724329
 30
0.0
 10
118.1640190676812
 20
-138.7405408724329
 30
0.0
 10
118.4413492542438
 20
-138.7405408724329
 30
0.0
 10
118.6487440024558
 20
-138.9246812261195
 30
0.0
 10
118.6487440024558
 20
-139.1975327885513
 30
0.0
 10
118.6487440024558
 20
-139.4259426192234
 30
0.0
 10
118.5322997750544
 20
-139.5255058787471
 30
0.0
 10
118.2232747100275
 20
-139.751848652128
 30
0.0
  0
HATCH
  5
112
330
10D
100
AcDbEntity
  8
レイヤー 1
 62
   250
420
  2299925
440
 33554687
100
AcDbHatch
 10
0.0
 20
0.0
 30
0.0
210
0.0
220
0.0
230
1.0
  2
SOLID
 70
     1
 71
     1
 91
        1
 92
        1
 93
        1
 72
     4
 94
        3
 73
     0
 74
     0
 95
       44
 96
       40
 40
0.0
 40
0.0
 40
0.0
 40
0.0
 40
1.0
 40
1.0
 40
1.0
 40
2.0
 40
2.0
 40
2.0
 40
3.0
 40
3.0
 40
3.0
 40
4.0
 40
4.0
 40
4.0
 40
5.0
 40
5.0
 40
5.0
 40
6.0
 40
6.0
 40
6.0
 40
7.0
 40
7.0
 40
7.0
 40
8.0
 40
8.0
 40
8.0
 40
9.0
 40
9.0
 40
9.0
 40
10.0
 40
10.0
 40
10.0
 40
11.0
 40
11.0
 40
11.0
 40
12.0
 40
12.0
 40
12.0
 40
13.0
 40
13.0
 40
13.0
 40
13.0
 10
118.2232747100275
 20
-139.751848652128
 10
118.0055446753597
 20
-139.9104952992238
 10
117.912527097258
 20
-139.9845648521566
 10
117.8636067413674
 20
-140.1283975886658
 10
117.8636067413674
 20
-140.1283975886658
 10
118.6421983210339
 20
-140.1283975886658
 10
118.6421983210339
 20
-140.1283975886658
 10
118.6421983210339
 20
-140.1283975886658
 10
118.6421983210339
 20
-140.3335530248124
 10
118.6421983210339
 20
-140.3335530248124
 10
118.6421983210339
 20
-140.3335530248124
 10
117.6141818282353
 20
-140.3335530248124
 10
117.6141818282353
 20
-140.3335530248124
 10
117.6458767066996
 20
-139.9759521134435
 10
117.7113335209194
 20
-139.8977484459283
 10
118.0964951961703
 20
-139.5994031769057
 10
118.3524657907244
 20
-139.4006211674068
 10
118.4179226049441
 20
-139.3329250411216
 10
118.4179226049441
 20
-139.1954657312601
 10
118.4179226049441
 20
-139.0769544465676
 10
118.3459201093024
 20
-138.9456963085795
 10
118.1492051570946
 20
-138.9456963085795
 10
117.8891004479583
 20
-138.9456963085795
 10
117.8808322187937
 20
-139.176345451317
 10
117.8763535946628
 20
-139.2927896787184
 10
117.8763535946628
 20
-139.2927896787184
 10
117.6520778785731
 20
-139.2927896787184
 10
117.6520778785731
 20
-139.2927896787184
 10
117.6606906172862
 20
-139.165837910087
 10
117.6713704132905
 20
-139.0537000520421
 10
117.7516411380968
 20
-138.9351887673495
 10
117.8615396840763
 20
-138.7744750629626
 10
118.0479193498283
 20
-138.7405408724329
 10
118.1640190676812
 20
-138.7405408724329
 10
118.4413492542438
 20
-138.7405408724329
 10
118.6487440024558
 20
-138.9246812261195
 10
118.6487440024558
 20
-139.1975327885513
 10
118.6487440024558
 20
-139.4259426192234
 10
118.5322997750544
 20
-139.5255058787471
 10
118.2232747100275
 20
-139.751848652128
 97
        0
 97
        1
330
111
 75
     2
 76
     1
 98
        1
 10
0.0
 20
0.0
450
        0
451
        0
460
0.0
461
0.0
452
        0
462
0.0
453
        0
470

  0
SPLINE
  5
113
330
10D
100
AcDbEntity
  8
レイヤー 1
100
AcDbSpline
210
0.0
220
0.0
230
1.0
 70
    11
 71
     3
 72
    26
 73
    22
 74
     0
 42
0.0000000001
 43
0.0000000001
 40
0.0
 40
0.0
 40
0.0
 40
0.0
 40
1.0
 40
1.0
 40
1.0
 40
2.0
 40
2.0
 40
2.0
 40
3.0
 40
3.0
 40
3.0
 40
4.0
 40
4.0
 40
4.0
 40
5.0
 40
5.0
 40
5.0
 40
6.0
 40
6.0
 40
6.0
 40
7.0
 40
7.0
 40
7.0
 40
7.0
 10
119.2585259033451
 20
-140.3335530248124
 30
0.0
 10
119.2585259033451
 20
-140.3335530248124
 30
0.0
 10
119.2585259033451
 20
-139.2292276670156
 30
0.0
 10
119.2585259033451
 20
-139.2292276670156
 30
0.0
 10
119.2585259033451
 20
-139.2292276670156
 30
0.0
 10
118.9284857558581
 20
-139.2292276670156
 30
0.0
 10
118.9284857558581
 20
-139.2292276670156
 30
0.0
 10
118.9284857558581
 20
-139.2292276670156
 30
0.0
 10
118.9284857558581
 20
-139.0810885611498
 30
0.0
 10
118.9284857558581
 20
-139.0810885611498
 30
0.0
 10
119.2605929606362
 20
-139.0664469053375
 30
0.0
 10
119.3071017496871
 20
-138.9034938888852
 30
0.0
 10
119.3367295708602
 20
-138.7892889735492
 30
0.0
 10
119.3367295708602
 20
-138.7892889735492
 30
0.0
 10
119.4828016194348
 20
-138.7892889735492
 30
0.0
 10
119.4828016194348
 20
-138.7892889735492
 30
0.0
 10
119.4828016194348
 20
-138.7892889735492
 30
0.0
 10
119.4828016194348
 20
-140.3335530248124
 30
0.0
 10
119.4828016194348
 20
-140.3335530248124
 30
0.0
 10
119.4828016194348
 20
-140.3335530248124
 30
0.0
 10
119.2585259033451
 20
-140.3335530248124
 30
0.0
 10
119.2585259033451
 20
-140.3335530248124
 30
0.0
  0
HATCH
  5
114
330
10D
100
AcDbEntity
  8
レイヤー 1
 62
   250
420
  2299925
440
 33554687
100
AcDbHatch
 10
0.0
 20
0.0
 30
0.0
210
0.0
220
0.0
230
1.0
  2
SOLID
 70
     1
 71
     1
 91
        1
 92
        1
 93
        1
 72
     4
 94
        3
 73
     0
 74
     0
 95
       26
 96
       22
 40
0.0
 40
0.0
 40
0.0
 40
0.0
 40
1.0
 40
1.0
 40
1.0
 40
2.0
 40
2.0
 40
2.0
 40
3.0
 40
3.0
 40
3.0
 40
4.0
 40
4.0
 40
4.0
 40
5.0
 40
5.0
 40
5.0
 40
6.0
 40
6.0
 40
6.0
 40
7.0
 40
7.0
 40
7.0
 40
7.0
 10
119.2585259033451
 20
-140.3335530248124
 10
119.2585259033451
 20
-140.3335530248124
 10
119.2585259033451
 20
-139.2292276670156
 10
119.2585259033451
 20
-139.2292276670156
 10
119.2585259033451
 20
-139.2292276670156
 10
118.9284857558581
 20
-139.2292276670156
 10
118.9284857558581
 20
-139.2292276670156
 10
118.9284857558581
 20
-139.2292276670156
 10
118.9284857558581
 20
-139.0810885611498
 10
118.9284857558581
 20
-139.0810885611498
 10
119.2605929606362
 20
-139.0664469053375
 10
119.3071017496871
 20
-138.9034938888852
 10
119.3367295708602
 20
-138.7892889735492
 10
119.3367295708602
 20
-138.7892889735492
 10
119.4828016194348
 20
-138.7892889735492
 10
119.4828016194348
 20
-138.7892889735492
 10
119.4828016194348
 20
-138.7892889735492
 10
119.4828016194348
 20
-140.3335530248124
 10
119.4828016194348
 20
-140.3335530248124
 10
119.4828016194348
 20
-140.3335530248124
 10
119.2585259033451
 20
-140.3335530248124
 10
119.2585259033451
 20
-140.3335530248124
 97
        0
 97
        1
330
113
 75
     2
 76
     1
 98
        1
 10
0.0
 20
0.0
450
        0
451
        0
460
0.0
461
0.0
452
        0
462
0.0
453
        0
470

  0
ENDBLK
  5
110
330
10D
100
AcDbEntity
  8
0
100
AcDbBlockEnd
  0
BLOCK
  5
11A
330
118
100
AcDbEntity
  8
0
100
AcDbBlockBegin
  2
Block_7
 70
     0
 10
0.0
 20
0.0
 30
0.0
  3
Block_7
  1

  0
INSERT
  5
11D
330
118
100
AcDbEntity
  8
レイヤー 1
100
AcDbBlockReference
  2
Block_8
 10
0.0
 20
0.0
 30
0.0
  0
ENDBLK
  5
11B
330
118
100
AcDbEntity
  8
0
100
AcDbBlockEnd
  0
BLOCK
  5
11E
330
11C
100
AcDbEntity
  8
0
100
AcDbBlockBegin
  2
Block_8
 70
     0
 10
0.0
 20
0.0
 30
0.0
  3
Block_8
  1

  0
SPLINE
  5
120
330
11C
100
AcDbEntity
  8
レイヤー 1
100
AcDbSpline
210
0.0
220
0.0
230
1.0
 70
    11
 71
     3
 72
    26
 73
    22
 74
     0
 42
0.0000000001
 43
0.0000000001
 40
0.0
 40
0.0
 40
0.0
 40
0.0
 40
1.0
 40
1.0
 40
1.0
 40
2.0
 40
2.0
 40
2.0
 40
3.0
 40
3.0
 40
3.0
 40
4.0
 40
4.0
 40
4.0
 40
5.0
 40
5.0
 40
5.0
 40
6.0
 40
6.0
 40
6.0
 40
7.0
 40
7.0
 40
7.0
 40
7.0
 10
101.892660836072
 20
-140.3335530248124
 30
0.0
 10
101.892660836072
 20
-140.3335530248124
 30
0.0
 10
101.892660836072
 20
-139.2292276670156
 30
0.0
 10
101.892660836072
 20
-139.2292276670156
 30
0.0
 10
101.892660836072
 20
-139.2292276670156
 30
0.0
 10
101.562620688585
 20
-139.2292276670156
 30
0.0
 10
101.562620688585
 20
-139.2292276670156
 30
0.0
 10
101.562620688585
 20
-139.2292276670156
 30
0.0
 10
101.562620688585
 20
-139.0810885611498
 30
0.0
 10
101.562620688585
 20
-139.0810885611498
 30
0.0
 10
101.8947278933631
 20
-139.0664469053375
 30
0.0
 10
101.941236682414
 20
-138.9034938888852
 30
0.0
 10
101.9708645035871
 20
-138.7892889735492
 30
0.0
 10
101.9708645035871
 20
-138.7892889735492
 30
0.0
 10
102.1169365521617
 20
-138.7892889735492
 30
0.0
 10
102.1169365521617
 20
-138.7892889735492
 30
0.0
 10
102.1169365521617
 20
-138.7892889735492
 30
0.0
 10
102.1169365521617
 20
-140.3335530248124
 30
0.0
 10
102.1169365521617
 20
-140.3335530248124
 30
0.0
 10
102.1169365521617
 20
-140.3335530248124
 30
0.0
 10
101.892660836072
 20
-140.3335530248124
 30
0.0
 10
101.892660836072
 20
-140.3335530248124
 30
0.0
  0
HATCH
  5
121
330
11C
100
AcDbEntity
  8
レイヤー 1
 62
   250
420
  2299925
440
 33554687
100
AcDbHatch
 10
0.0
 20
0.0
 30
0.0
210
0.0
220
0.0
230
1.0
  2
SOLID
 70
     1
 71
     1
 91
        1
 92
        1
 93
        1
 72
     4
 94
        3
 73
     0
 74
     0
 95
       26
 96
       22
 40
0.0
 40
0.0
 40
0.0
 40
0.0
 40
1.0
 40
1.0
 40
1.0
 40
2.0
 40
2.0
 40
2.0
 40
3.0
 40
3.0
 40
3.0
 40
4.0
 40
4.0
 40
4.0
 40
5.0
 40
5.0
 40
5.0
 40
6.0
 40
6.0
 40
6.0
 40
7.0
 40
7.0
 40
7.0
 40
7.0
 10
101.892660836072
 20
-140.3335530248124
 10
101.892660836072
 20
-140.3335530248124
 10
101.892660836072
 20
-139.2292276670156
 10
101.892660836072
 20
-139.2292276670156
 10
101.892660836072
 20
-139.2292276670156
 10
101.562620688585
 20
-139.2292276670156
 10
101.562620688585
 20
-139.2292276670156
 10
101.562620688585
 20
-139.2292276670156
 10
101.562620688585
 20
-139.0810885611498
 10
101.562620688585
 20
-139.0810885611498
 10
101.8947278933631
 20
-139.0664469053375
 10
101.941236682414
 20
-138.9034938888852
 10
101.9708645035871
 20
-138.7892889735492
 10
101.9708645035871
 20
-138.7892889735492
 10
102.1169365521617
 20
-138.7892889735492
 10
102.1169365521617
 20
-138.7892889735492
 10
102.1169365521617
 20
-138.7892889735492
 10
102.1169365521617
 20
-140.3335530248124
 10
102.1169365521617
 20
-140.3335530248124
 10
102.1169365521617
 20
-140.3335530248124
 10
101.892660836072
 20
-140.3335530248124
 10
101.892660836072
 20
-140.3335530248124
 97
        0
 97
        1
330
120
 75
     2
 76
     1
 98
        1
 10
0.0
 20
0.0
450
        0
451
        0
460
0.0
461
0.0
452
        0
462
0.0
453
        0
470

  0
SPLINE
  5
122
330
11C
100
AcDbEntity
  8
レイヤー 1
100
AcDbSpline
210
0.0
220
0.0
230
1.0
 70
     9
 71
     3
 72
    44
 73
    40
 74
     0
 42
0.0000000001
 43
0.0000000001
 40
0.0
 40
0.0
 40
0.0
 40
0.0
 40
1.0
 40
1.0
 40
1.0
 40
2.0
 40
2.0
 40
2.0
 40
3.0
 40
3.0
 40
3.0
 40
4.0
 40
4.0
 40
4.0
 40
5.0
 40
5.0
 40
5.0
 40
6.0
 40
6.0
 40
6.0
 40
7.0
 40
7.0
 40
7.0
 40
8.0
 40
8.0
 40
8.0
 40
9.0
 40
9.0
 40
9.0
 40
10.0
 40
10.0
 40
10.0
 40
11.0
 40
11.0
 40
11.0
 40
12.0
 40
12.0
 40
12.0
 40
13.0
 40
13.0
 40
13.0
 40
13.0
 10
103.2110988782771
 20
-139.751848652128
 30
0.0
 10
102.9933688436093
 20
-139.9104952992238
 30
0.0
 10
102.9003512655075
 20
-139.9845648521566
 30
0.0
 10
102.851430909617
 20
-140.1283975886658
 30
0.0
 10
102.851430909617
 20
-140.1283975886658
 30
0.0
 10
103.6300224892835
 20
-140.1283975886658
 30
0.0
 10
103.6300224892835
 20
-140.1283975886658
 30
0.0
 10
103.6300224892835
 20
-140.1283975886658
 30
0.0
 10
103.6300224892835
 20
-140.3335530248124
 30
0.0
 10
103.6300224892835
 20
-140.3335530248124
 30
0.0
 10
103.6300224892835
 20
-140.3335530248124
 30
0.0
 10
102.6020059964849
 20
-140.3335530248124
 30
0.0
 10
102.6020059964849
 20
-140.3335530248124
 30
0.0
 10
102.6337008749492
 20
-139.9759521134435
 30
0.0
 10
102.6991576891689
 20
-139.8977484459283
 30
0.0
 10
103.0843193644199
 20
-139.5994031769057
 30
0.0
 10
103.3402899589739
 20
-139.4006211674068
 30
0.0
 10
103.4057467731937
 20
-139.3329250411216
 30
0.0
 10
103.4057467731937
 20
-139.1954657312601
 30
0.0
 10
103.4057467731937
 20
-139.0769544465676
 30
0.0
 10
103.333744277552
 20
-138.9456963085795
 30
0.0
 10
103.1370293253442
 20
-138.9456963085795
 30
0.0
 10
102.8769246162078
 20
-138.9456963085795
 30
0.0
 10
102.8683118774947
 20
-139.176345451317
 30
0.0
 10
102.8641777629124
 20
-139.2927896787184
 30
0.0
 10
102.8641777629124
 20
-139.2927896787184
 30
0.0
 10
102.6399020468226
 20
-139.2927896787184
 30
0.0
 10
102.6399020468226
 20
-139.2927896787184
 30
0.0
 10
102.6485147855358
 20
-139.165837910087
 30
0.0
 10
102.65919458154
 20
-139.0537000520421
 30
0.0
 10
102.7394653063464
 20
-138.9351887673495
 30
0.0
 10
102.8493638523258
 20
-138.7744750629626
 30
0.0
 10
103.0357435180778
 20
-138.7405408724329
 30
0.0
 10
103.1518432359308
 20
-138.7405408724329
 30
0.0
 10
103.4291734224934
 20
-138.7405408724329
 30
0.0
 10
103.6365681707054
 20
-138.9246812261195
 30
0.0
 10
103.6365681707054
 20
-139.1975327885513
 30
0.0
 10
103.6365681707054
 20
-139.4259426192234
 30
0.0
 10
103.520123943304
 20
-139.5255058787471
 30
0.0
 10
103.2110988782771
 20
-139.751848652128
 30
0.0
  0
HATCH
  5
123
330
11C
100
AcDbEntity
  8
レイヤー 1
 62
   250
420
  2299925
440
 33554687
100
AcDbHatch
 10
0.0
 20
0.0
 30
0.0
210
0.0
220
0.0
230
1.0
  2
SOLID
 70
     1
 71
     1
 91
        1
 92
        1
 93
        1
 72
     4
 94
        3
 73
     0
 74
     0
 95
       44
 96
       40
 40
0.0
 40
0.0
 40
0.0
 40
0.0
 40
1.0
 40
1.0
 40
1.0
 40
2.0
 40
2.0
 40
2.0
 40
3.0
 40
3.0
 40
3.0
 40
4.0
 40
4.0
 40
4.0
 40
5.0
 40
5.0
 40
5.0
 40
6.0
 40
6.0
 40
6.0
 40
7.0
 40
7.0
 40
7.0
 40
8.0
 40
8.0
 40
8.0
 40
9.0
 40
9.0
 40
9.0
 40
10.0
 40
10.0
 40
10.0
 40
11.0
 40
11.0
 40
11.0
 40
12.0
 40
12.0
 40
12.0
 40
13.0
 40
13.0
 40
13.0
 40
13.0
 10
103.2110988782771
 20
-139.751848652128
 10
102.9933688436093
 20
-139.9104952992238
 10
102.9003512655075
 20
-139.9845648521566
 10
102.851430909617
 20
-140.1283975886658
 10
102.851430909617
 20
-140.1283975886658
 10
103.6300224892835
 20
-140.1283975886658
 10
103.6300224892835
 20
-140.1283975886658
 10
103.6300224892835
 20
-140.1283975886658
 10
103.6300224892835
 20
-140.3335530248124
 10
103.6300224892835
 20
-140.3335530248124
 10
103.6300224892835
 20
-140.3335530248124
 10
102.6020059964849
 20
-140.3335530248124
 10
102.6020059964849
 20
-140.3335530248124
 10
102.6337008749492
 20
-139.9759521134435
 10
102.6991576891689
 20
-139.8977484459283
 10
103.0843193644199
 20
-139.5994031769057
 10
103.3402899589739
 20
-139.4006211674068
 10
103.4057467731937
 20
-139.3329250411216
 10
103.4057467731937
 20
-139.1954657312601
 10
103.4057467731937
 20
-139.0769544465676
 10
103.333744277552
 20
-138.9456963085795
 10
103.1370293253442
 20
-138.9456963085795
 10
102.8769246162078
 20
-138.9456963085795
 10
102.8683118774947
 20
-139.176345451317
 10
102.8641777629124
 20
-139.2927896787184
 10
102.8641777629124
 20
-139.2927896787184
 10
102.6399020468226
 20
-139.2927896787184
 10
102.6399020468226
 20
-139.2927896787184
 10
102.6485147855358
 20
-139.165837910087
 10
102.65919458154
 20
-139.0537000520421
 10
102.7394653063464
 20
-138.9351887673495
 10
102.8493638523258
 20
-138.7744750629626
 10
103.0357435180778
 20
-138.7405408724329
 10
103.1518432359308
 20
-138.7405408724329
 10
103.4291734224934
 20
-138.7405408724329
 10
103.6365681707054
 20
-138.9246812261195
 10
103.6365681707054
 20
-139.1975327885513
 10
103.6365681707054
 20
-139.4259426192234
 10
103.520123943304
 20
-139.5255058787471
 10
103.2110988782771
 20
-139.751848652128
 97
        0
 97
        1
330
122
 75
     2
 76
     1
 98
        1
 10
0.0
 20
0.0
450
        0
451
        0
460
0.0
461
0.0
452
        0
462
0.0
453
        0
470

  0
ENDBLK
  5
11F
330
11C
100
AcDbEntity
  8
0
100
AcDbBlockEnd
  0
BLOCK
  5
12B
330
129
100
AcDbEntity
  8
0
100
AcDbBlockBegin
  2
Block_9
 70
     0
 10
0.0
 20
0.0
 30
0.0
  3
Block_9
  1

  0
INSERT
  5
12E
330
129
100
AcDbEntity
  8
レイヤー 1
100
AcDbBlockReference
  2
Block_10
 10
0.0
 20
0.0
 30
0.0
  0
ENDBLK
  5
12C
330
129
100
AcDbEntity
  8
0
100
AcDbBlockEnd
  0
BLOCK
  5
12F
330
12D
100
AcDbEntity
  8
0
100
AcDbBlockBegin
  2
Block_10
 70
     0
 10
0.0
 20
0.0
 30
0.0
  3
Block_10
  1

  0
SPLINE
  5
131
330
12D
100
AcDbEntity
  8
レイヤー 1
100
AcDbSpline
210
0.0
220
0.0
230
1.0
 70
    11
 71
     3
 72
    26
 73
    22
 74
     0
 42
0.0000000001
 43
0.0000000001
 40
0.0
 40
0.0
 40
0.0
 40
0.0
 40
1.0
 40
1.0
 40
1.0
 40
2.0
 40
2.0
 40
2.0
 40
3.0
 40
3.0
 40
3.0
 40
4.0
 40
4.0
 40
4.0
 40
5.0
 40
5.0
 40
5.0
 40
6.0
 40
6.0
 40
6.0
 40
7.0
 40
7.0
 40
7.0
 40
7.0
 10
101.892660836072
 20
-157.405723701968
 30
0.0
 10
101.892660836072
 20
-157.405723701968
 30
0.0
 10
101.892660836072
 20
-156.3015705989454
 30
0.0
 10
101.892660836072
 20
-156.3015705989454
 30
0.0
 10
101.892660836072
 20
-156.3015705989454
 30
0.0
 10
101.562620688585
 20
-156.3015705989454
 30
0.0
 10
101.562620688585
 20
-156.3015705989454
 30
0.0
 10
101.562620688585
 20
-156.3015705989454
 30
0.0
 10
101.562620688585
 20
-156.1534314930797
 30
0.0
 10
101.562620688585
 20
-156.1534314930797
 30
0.0
 10
101.8947278933631
 20
-156.1386175824931
 30
0.0
 10
101.941236682414
 20
-155.9756645660408
 30
0.0
 10
101.9708645035871
 20
-155.8612873959305
 30
0.0
 10
101.9708645035871
 20
-155.8612873959305
 30
0.0
 10
102.1169365521617
 20
-155.8612873959305
 30
0.0
 10
102.1169365521617
 20
-155.8612873959305
 30
0.0
 10
102.1169365521617
 20
-155.8612873959305
 30
0.0
 10
102.1169365521617
 20
-157.405723701968
 30
0.0
 10
102.1169365521617
 20
-157.405723701968
 30
0.0
 10
102.1169365521617
 20
-157.405723701968
 30
0.0
 10
101.892660836072
 20
-157.405723701968
 30
0.0
 10
101.892660836072
 20
-157.405723701968
 30
0.0
  0
HATCH
  5
132
330
12D
100
AcDbEntity
  8
レイヤー 1
 62
   250
420
  2299925
440
 33554687
100
AcDbHatch
 10
0.0
 20
0.0
 30
0.0
210
0.0
220
0.0
230
1.0
  2
SOLID
 70
     1
 71
     1
 91
        1
 92
        1
 93
        1
 72
     4
 94
        3
 73
     0
 74
     0
 95
       26
 96
       22
 40
0.0
 40
0.0
 40
0.0
 40
0.0
 40
1.0
 40
1.0
 40
1.0
 40
2.0
 40
2.0
 40
2.0
 40
3.0
 40
3.0
 40
3.0
 40
4.0
 40
4.0
 40
4.0
 40
5.0
 40
5.0
 40
5.0
 40
6.0
 40
6.0
 40
6.0
 40
7.0
 40
7.0
 40
7.0
 40
7.0
 10
101.892660836072
 20
-157.405723701968
 10
101.892660836072
 20
-157.405723701968
 10
101.892660836072
 20
-156.3015705989454
 10
101.892660836072
 20
-156.3015705989454
 10
101.892660836072
 20
-156.3015705989454
 10
101.562620688585
 20
-156.3015705989454
 10
101.562620688585
 20
-156.3015705989454
 10
101.562620688585
 20
-156.3015705989454
 10
101.562620688585
 20
-156.1534314930797
 10
101.562620688585
 20
-156.1534314930797
 10
101.8947278933631
 20
-156.1386175824931
 10
101.941236682414
 20
-155.9756645660408
 10
101.9708645035871
 20
-155.8612873959305
 10
101.9708645035871
 20
-155.8612873959305
 10
102.1169365521617
 20
-155.8612873959305
 10
102.1169365521617
 20
-155.8612873959305
 10
102.1169365521617
 20
-155.8612873959305
 10
102.1169365521617
 20
-157.405723701968
 10
102.1169365521617
 20
-157.405723701968
 10
102.1169365521617
 20
-157.405723701968
 10
101.892660836072
 20
-157.405723701968
 10
101.892660836072
 20
-157.405723701968
 97
        0
 97
        1
330
131
 75
     2
 76
     1
 98
        1
 10
0.0
 20
0.0
450
        0
451
        0
460
0.0
461
0.0
452
        0
462
0.0
453
        0
470

  0
SPLINE
  5
133
330
12D
100
AcDbEntity
  8
レイヤー 1
100
AcDbSpline
210
0.0
220
0.0
230
1.0
 70
    11
 71
     3
 72
    14
 73
    10
 74
     0
 42
0.0000000001
 43
0.0000000001
 40
0.0
 40
0.0
 40
0.0
 40
0.0
 40
1.0
 40
1.0
 40
1.0
 40
2.0
 40
2.0
 40
2.0
 40
3.0
 40
3.0
 40
3.0
 40
3.0
 10
103.2324584702856
 20
-156.2040743967129
 30
0.0
 10
103.2324584702856
 20
-156.2040743967129
 30
0.0
 10
102.775294299393
 20
-156.8600205771044
 30
0.0
 10
102.775294299393
 20
-156.8600205771044
 30
0.0
 10
102.775294299393
 20
-156.8600205771044
 30
0.0
 10
103.2324584702856
 20
-156.8600205771044
 30
0.0
 10
103.2324584702856
 20
-156.8600205771044
 30
0.0
 10
103.2324584702856
 20
-156.8600205771044
 30
0.0
 10
103.2324584702856
 20
-156.2040743967129
 30
0.0
 10
103.2324584702856
 20
-156.2040743967129
 30
0.0
  0
SPLINE
  5
134
330
12D
100
AcDbEntity
  8
レイヤー 1
100
AcDbSpline
210
0.0
220
0.0
230
1.0
 70
    11
 71
     3
 72
    38
 73
    34
 74
     0
 42
0.0000000001
 43
0.0000000001
 40
0.0
 40
0.0
 40
0.0
 40
0.0
 40
1.0
 40
1.0
 40
1.0
 40
2.0
 40
2.0
 40
2.0
 40
3.0
 40
3.0
 40
3.0
 40
4.0
 40
4.0
 40
4.0
 40
5.0
 40
5.0
 40
5.0
 40
6.0
 40
6.0
 40
6.0
 40
7.0
 40
7.0
 40
7.0
 40
8.0
 40
8.0
 40
8.0
 40
9.0
 40
9.0
 40
9.0
 40
10.0
 40
10.0
 40
10.0
 40
11.0
 40
11.0
 40
11.0
 40
11.0
 10
103.4501885049534
 20
-157.0588025866033
 30
0.0
 10
103.4501885049534
 20
-157.0588025866033
 30
0.0
 10
103.4501885049534
 20
-157.405723701968
 30
0.0
 10
103.4501885049534
 20
-157.405723701968
 30
0.0
 10
103.4501885049534
 20
-157.405723701968
 30
0.0
 10
103.2324584702856
 20
-157.405723701968
 30
0.0
 10
103.2324584702856
 20
-157.405723701968
 30
0.0
 10
103.2324584702856
 20
-157.405723701968
 30
0.0
 10
103.2324584702856
 20
-157.0588025866033
 30
0.0
 10
103.2324584702856
 20
-157.0588025866033
 30
0.0
 10
103.2324584702856
 20
-157.0588025866033
 30
0.0
 10
102.576512289894
 20
-157.0588025866033
 30
0.0
 10
102.576512289894
 20
-157.0588025866033
 30
0.0
 10
102.576512289894
 20
-157.0588025866033
 30
0.0
 10
102.576512289894
 20
-156.8345268705136
 30
0.0
 10
102.576512289894
 20
-156.8345268705136
 30
0.0
 10
102.576512289894
 20
-156.8345268705136
 30
0.0
 10
103.2555406100368
 20
-155.8612873959305
 30
0.0
 10
103.2555406100368
 20
-155.8612873959305
 30
0.0
 10
103.2555406100368
 20
-155.8612873959305
 30
0.0
 10
103.4501885049534
 20
-155.8612873959305
 30
0.0
 10
103.4501885049534
 20
-155.8612873959305
 30
0.0
 10
103.4501885049534
 20
-155.8612873959305
 30
0.0
 10
103.4501885049534
 20
-156.8600205771044
 30
0.0
 10
103.4501885049534
 20
-156.8600205771044
 30
0.0
 10
103.4501885049534
 20
-156.8600205771044
 30
0.0
 10
103.6575832531654
 20
-156.8600205771044
 30
0.0
 10
103.6575832531654
 20
-156.8600205771044
 30
0.0
 10
103.6575832531654
 20
-156.8600205771044
 30
0.0
 10
103.6575832531654
 20
-157.0588025866033
 30
0.0
 10
103.6575832531654
 20
-157.0588025866033
 30
0.0
 10
103.6575832531654
 20
-157.0588025866033
 30
0.0
 10
103.4501885049534
 20
-157.0588025866033
 30
0.0
 10
103.4501885049534
 20
-157.0588025866033
 30
0.0
  0
HATCH
  5
135
330
12D
100
AcDbEntity
  8
レイヤー 1
 62
   250
420
  2299925
440
 33554687
100
AcDbHatch
 10
0.0
 20
0.0
 30
0.0
210
0.0
220
0.0
230
1.0
  2
SOLID
 70
     1
 71
     1
 91
        2
 92
        1
 93
        1
 72
     4
 94
        3
 73
     0
 74
     0
 95
       14
 96
       10
 40
0.0
 40
0.0
 40
0.0
 40
0.0
 40
1.0
 40
1.0
 40
1.0
 40
2.0
 40
2.0
 40
2.0
 40
3.0
 40
3.0
 40
3.0
 40
3.0
 10
103.2324584702856
 20
-156.2040743967129
 10
103.2324584702856
 20
-156.2040743967129
 10
102.775294299393
 20
-156.8600205771044
 10
102.775294299393
 20
-156.8600205771044
 10
102.775294299393
 20
-156.8600205771044
 10
103.2324584702856
 20
-156.8600205771044
 10
103.2324584702856
 20
-156.8600205771044
 10
103.2324584702856
 20
-156.8600205771044
 10
103.2324584702856
 20
-156.2040743967129
 10
103.2324584702856
 20
-156.2040743967129
 97
        0
 97
        1
330
133
 92
        1
 93
        1
 72
     4
 94
        3
 73
     0
 74
     0
 95
       38
 96
       34
 40
0.0
 40
0.0
 40
0.0
 40
0.0
 40
1.0
 40
1.0
 40
1.0
 40
2.0
 40
2.0
 40
2.0
 40
3.0
 40
3.0
 40
3.0
 40
4.0
 40
4.0
 40
4.0
 40
5.0
 40
5.0
 40
5.0
 40
6.0
 40
6.0
 40
6.0
 40
7.0
 40
7.0
 40
7.0
 40
8.0
 40
8.0
 40
8.0
 40
9.0
 40
9.0
 40
9.0
 40
10.0
 40
10.0
 40
10.0
 40
11.0
 40
11.0
 40
11.0
 40
11.0
 10
103.4501885049534
 20
-157.0588025866033
 10
103.4501885049534
 20
-157.0588025866033
 10
103.4501885049534
 20
-157.405723701968
 10
103.4501885049534
 20
-157.405723701968
 10
103.4501885049534
 20
-157.405723701968
 10
103.2324584702856
 20
-157.405723701968
 10
103.2324584702856
 20
-157.405723701968
 10
103.2324584702856
 20
-157.405723701968
 10
103.2324584702856
 20
-157.0588025866033
 10
103.2324584702856
 20
-157.0588025866033
 10
103.2324584702856
 20
-157.0588025866033
 10
102.576512289894
 20
-157.0588025866033
 10
102.576512289894
 20
-157.0588025866033
 10
102.576512289894
 20
-157.0588025866033
 10
102.576512289894
 20
-156.8345268705136
 10
102.576512289894
 20
-156.8345268705136
 10
102.576512289894
 20
-156.8345268705136
 10
103.2555406100368
 20
-155.8612873959305
 10
103.2555406100368
 20
-155.8612873959305
 10
103.2555406100368
 20
-155.8612873959305
 10
103.4501885049534
 20
-155.8612873959305
 10
103.4501885049534
 20
-155.8612873959305
 10
103.4501885049534
 20
-155.8612873959305
 10
103.4501885049534
 20
-156.8600205771044
 10
103.4501885049534
 20
-156.8600205771044
 10
103.4501885049534
 20
-156.8600205771044
 10
103.6575832531654
 20
-156.8600205771044
 10
103.6575832531654
 20
-156.8600205771044
 10
103.6575832531654
 20
-156.8600205771044
 10
103.6575832531654
 20
-157.0588025866033
 10
103.6575832531654
 20
-157.0588025866033
 10
103.6575832531654
 20
-157.0588025866033
 10
103.4501885049534
 20
-157.0588025866033
 10
103.4501885049534
 20
-157.0588025866033
 97
        0
 97
        1
330
134
 75
     2
 76
     1
 98
        1
 10
0.0
 20
0.0
450
        0
451
        0
460
0.0
461
0.0
452
        0
462
0.0
453
        0
470

  0
ENDBLK
  5
130
330
12D
100
AcDbEntity
  8
0
100
AcDbBlockEnd
  0
BLOCK
  5
139
330
137
100
AcDbEntity
  8
0
100
AcDbBlockBegin
  2
Block_11
 70
     0
 10
0.0
 20
0.0
 30
0.0
  3
Block_11
  1

  0
SPLINE
  5
13B
330
137
100
AcDbEntity
  8
レイヤー 1
100
AcDbSpline
210
0.0
220
0.0
230
1.0
 70
    11
 71
     3
 72
    26
 73
    22
 74
     0
 42
0.0000000001
 43
0.0000000001
 40
0.0
 40
0.0
 40
0.0
 40
0.0
 40
1.0
 40
1.0
 40
1.0
 40
2.0
 40
2.0
 40
2.0
 40
3.0
 40
3.0
 40
3.0
 40
4.0
 40
4.0
 40
4.0
 40
5.0
 40
5.0
 40
5.0
 40
6.0
 40
6.0
 40
6.0
 40
7.0
 40
7.0
 40
7.0
 40
7.0
 10
111.2304198940674
 20
-149.6862982481687
 30
0.0
 10
111.2304198940674
 20
-149.6862982481687
 30
0.0
 10
111.2304198940674
 20
-148.5819728903718
 30
0.0
 10
111.2304198940674
 20
-148.5819728903718
 30
0.0
 10
111.2304198940674
 20
-148.5819728903718
 30
0.0
 10
110.9003797465804
 20
-148.5819728903718
 30
0.0
 10
110.9003797465804
 20
-148.5819728903718
 30
0.0
 10
110.9003797465804
 20
-148.5819728903718
 30
0.0
 10
110.9003797465804
 20
-148.4338337845061
 30
0.0
 10
110.9003797465804
 20
-148.4338337845061
 30
0.0
 10
111.2324869513585
 20
-148.4191921286938
 30
0.0
 10
111.2789957404094
 20
-148.2562391122415
 30
0.0
 10
111.3086235615825
 20
-148.1420341969054
 30
0.0
 10
111.3086235615825
 20
-148.1420341969054
 30
0.0
 10
111.4546956101571
 20
-148.1420341969054
 30
0.0
 10
111.4546956101571
 20
-148.1420341969054
 30
0.0
 10
111.4546956101571
 20
-148.1420341969054
 30
0.0
 10
111.4546956101571
 20
-149.6862982481687
 30
0.0
 10
111.4546956101571
 20
-149.6862982481687
 30
0.0
 10
111.4546956101571
 20
-149.6862982481687
 30
0.0
 10
111.2304198940674
 20
-149.6862982481687
 30
0.0
 10
111.2304198940674
 20
-149.6862982481687
 30
0.0
  0
HATCH
  5
13C
330
137
100
AcDbEntity
  8
レイヤー 1
 62
   250
420
  2299925
440
 33554687
100
AcDbHatch
 10
0.0
 20
0.0
 30
0.0
210
0.0
220
0.0
230
1.0
  2
SOLID
 70
     1
 71
     1
 91
        1
 92
        1
 93
        1
 72
     4
 94
        3
 73
     0
 74
     0
 95
       26
 96
       22
 40
0.0
 40
0.0
 40
0.0
 40
0.0
 40
1.0
 40
1.0
 40
1.0
 40
2.0
 40
2.0
 40
2.0
 40
3.0
 40
3.0
 40
3.0
 40
4.0
 40
4.0
 40
4.0
 40
5.0
 40
5.0
 40
5.0
 40
6.0
 40
6.0
 40
6.0
 40
7.0
 40
7.0
 40
7.0
 40
7.0
 10
111.2304198940674
 20
-149.6862982481687
 10
111.2304198940674
 20
-149.6862982481687
 10
111.2304198940674
 20
-148.5819728903718
 10
111.2304198940674
 20
-148.5819728903718
 10
111.2304198940674
 20
-148.5819728903718
 10
110.9003797465804
 20
-148.5819728903718
 10
110.9003797465804
 20
-148.5819728903718
 10
110.9003797465804
 20
-148.5819728903718
 10
110.9003797465804
 20
-148.4338337845061
 10
110.9003797465804
 20
-148.4338337845061
 10
111.2324869513585
 20
-148.4191921286938
 10
111.2789957404094
 20
-148.2562391122415
 10
111.3086235615825
 20
-148.1420341969054
 10
111.3086235615825
 20
-148.1420341969054
 10
111.4546956101571
 20
-148.1420341969054
 10
111.4546956101571
 20
-148.1420341969054
 10
111.4546956101571
 20
-148.1420341969054
 10
111.4546956101571
 20
-149.6862982481687
 10
111.4546956101571
 20
-149.6862982481687
 10
111.4546956101571
 20
-149.6862982481687
 10
111.2304198940674
 20
-149.6862982481687
 10
111.2304198940674
 20
-149.6862982481687
 97
        0
 97
        1
330
13B
 75
     2
 76
     1
 98
        1
 10
0.0
 20
0.0
450
        0
451
        0
460
0.0
461
0.0
452
        0
462
0.0
453
        0
470

  0
ENDBLK
  5
13A
330
137
100
AcDbEntity
  8
0
100
AcDbBlockEnd
  0
BLOCK
  5
143
330
141
100
AcDbEntity
  8
0
100
AcDbBlockBegin
  2
Block_12
 70
     0
 10
0.0
 20
0.0
 30
0.0
  3
Block_12
  1

  0
INSERT
  5
146
330
141
100
AcDbEntity
  8
レイヤー 1
100
AcDbBlockReference
  2
Block_13
 10
0.0
 20
0.0
 30
0.0
  0
INSERT
  5
14D
330
141
100
AcDbEntity
  8
レイヤー 1
100
AcDbBlockReference
  2
Block_14
 10
0.0
 20
0.0
 30
0.0
  0
ENDBLK
  5
144
330
141
100
AcDbEntity
  8
0
100
AcDbBlockEnd
  0
BLOCK
  5
147
330
145
100
AcDbEntity
  8
0
100
AcDbBlockBegin
  2
Block_13
 70
     0
 10
0.0
 20
0.0
 30
0.0
  3
Block_13
  1

  0
LINE
  5
149
330
145
100
AcDbEntity
  8
レイヤー 1
 62
    18
420
        0
370
     9
100
AcDbLine
 10
123.7845387430976
 20
-147.4497881468525
 30
0.0
 11
124.5958570557325
 21
-148.0344114800402
 31
0.0
  0
LINE
  5
14A
330
145
100
AcDbEntity
  8
レイヤー 1
 62
    18
420
        0
370
     9
100
AcDbLine
 10
123.7845387430976
 20
-147.4497881468525
 30
0.0
 11
126.3621837401718
 21
-150.6068670349522
 31
0.0
  0
LINE
  5
14B
330
145
100
AcDbEntity
  8
レイヤー 1
 62
    18
420
        0
370
     9
100
AcDbLine
 10
123.7845387430976
 20
-147.4497881468525
 30
0.0
 11
124.1948545659629
 21
-148.361895091069
 31
0.0
  0
ENDBLK
  5
148
330
145
100
AcDbEntity
  8
0
100
AcDbBlockEnd
  0
BLOCK
  5
14E
330
14C
100
AcDbEntity
  8
0
100
AcDbBlockBegin
  2
Block_14
 70
     0
 10
0.0
 20
0.0
 30
0.0
  3
Block_14
  1

  0
INSERT
  5
151
330
14C
100
AcDbEntity
  8
レイヤー 1
100
AcDbBlockReference
  2
Block_15
 10
0.0
 20
0.0
 30
0.0
  0
ENDBLK
  5
14F
330
14C
100
AcDbEntity
  8
0
100
AcDbBlockEnd
  0
BLOCK
  5
152
330
150
100
AcDbEntity
  8
0
100
AcDbBlockBegin
  2
Block_15
 70
     0
 10
0.0
 20
0.0
 30
0.0
  3
Block_15
  1

  0
SPLINE
  5
154
330
150
100
AcDbEntity
  8
レイヤー 1
100
AcDbSpline
210
0.0
220
0.0
230
1.0
 70
     9
 71
     3
 72
    17
 73
    13
 74
     0
 42
0.0000000001
 43
0.0000000001
 40
0.0
 40
0.0
 40
0.0
 40
0.0
 40
1.0
 40
1.0
 40
1.0
 40
2.0
 40
2.0
 40
2.0
 40
3.0
 40
3.0
 40
3.0
 40
4.0
 40
4.0
 40
4.0
 40
4.0
 10
128.0290499896941
 20
-151.0546901749099
 30
0.0
 10
128.0121690218164
 20
-151.0843179960831
 30
0.0
 10
127.9615261181832
 20
-151.1773355741848
 30
0.0
 10
127.9508463221789
 20
-151.1962835993537
 30
0.0
 10
128.1413601025133
 20
-151.2555392417
 30
0.0
 10
128.1623751849733
 20
-151.262084923122
 30
0.0
 10
128.234377680615
 20
-151.2893011774554
 30
0.0
 10
128.2891546988305
 20
-151.2028292807757
 30
0.0
 10
128.3125813481301
 20
-151.1287597278428
 30
0.0
 10
128.3273952587167
 20
-151.0546901749099
 30
0.0
 10
128.3273952587167
 20
-151.0546901749099
 30
0.0
 10
128.0290499896941
 20
-151.0546901749099
 30
0.0
 10
128.0290499896941
 20
-151.0546901749099
 30
0.0
  0
SPLINE
  5
155
330
150
100
AcDbEntity
  8
レイヤー 1
100
AcDbSpline
210
0.0
220
0.0
230
1.0
 70
    11
 71
     3
 72
    20
 73
    16
 74
     0
 42
0.0000000001
 43
0.0000000001
 40
0.0
 40
0.0
 40
0.0
 40
0.0
 40
1.0
 40
1.0
 40
1.0
 40
2.0
 40
2.0
 40
2.0
 40
3.0
 40
3.0
 40
3.0
 40
4.0
 40
4.0
 40
4.0
 40
5.0
 40
5.0
 40
5.0
 40
5.0
 10
127.9656602327655
 20
-150.2040960996017
 30
0.0
 10
127.9656602327655
 20
-150.2040960996017
 30
0.0
 10
127.9339653543012
 20
-150.2040960996017
 30
0.0
 10
127.9339653543012
 20
-150.2040960996017
 30
0.0
 10
127.9804741433521
 20
-150.3036593591255
 30
0.0
 10
128.0121690218164
 20
-150.3839300839318
 30
0.0
 10
128.0459309575718
 20
-150.5110541073375
 30
0.0
 10
128.0459309575718
 20
-150.5110541073375
 30
0.0
 10
128.2533257057839
 20
-150.5110541073375
 30
0.0
 10
128.2533257057839
 20
-150.5110541073375
 30
0.0
 10
128.2850205842482
 20
-150.4180365292357
 30
0.0
 10
128.3084472335479
 20
-150.3332871802986
 30
0.0
 10
128.3315293732991
 20
-150.2040960996017
 30
0.0
 10
128.3315293732991
 20
-150.2040960996017
 30
0.0
 10
127.9656602327655
 20
-150.2040960996017
 30
0.0
 10
127.9656602327655
 20
-150.2040960996017
 30
0.0
  0
SPLINE
  5
156
330
150
100
AcDbEntity
  8
レイヤー 1
100
AcDbSpline
210
0.0
220
0.0
230
1.0
 70
     9
 71
     3
 72
   242
 73
   238
 74
     0
 42
0.0000000001
 43
0.0000000001
 40
0.0
 40
0.0
 40
0.0
 40
0.0
 40
1.0
 40
1.0
 40
1.0
 40
2.0
 40
2.0
 40
2.0
 40
3.0
 40
3.0
 40
3.0
 40
4.0
 40
4.0
 40
4.0
 40
5.0
 40
5.0
 40
5.0
 40
6.0
 40
6.0
 40
6.0
 40
7.0
 40
7.0
 40
7.0
 40
8.0
 40
8.0
 40
8.0
 40
9.0
 40
9.0
 40
9.0
 40
10.0
 40
10.0
 40
10.0
 40
11.0
 40
11.0
 40
11.0
 40
12.0
 40
12.0
 40
12.0
 40
13.0
 40
13.0
 40
13.0
 40
14.0
 40
14.0
 40
14.0
 40
15.0
 40
15.0
 40
15.0
 40
16.0
 40
16.0
 40
16.0
 40
17.0
 40
17.0
 40
17.0
 40
18.0
 40
18.0
 40
18.0
 40
19.0
 40
19.0
 40
19.0
 40
20.0
 40
20.0
 40
20.0
 40
21.0
 40
21.0
 40
21.0
 40
22.0
 40
22.0
 40
22.0
 40
23.0
 40
23.0
 40
23.0
 40
24.0
 40
24.0
 40
24.0
 40
25.0
 40
25.0
 40
25.0
 40
26.0
 40
26.0
 40
26.0
 40
27.0
 40
27.0
 40
27.0
 40
28.0
 40
28.0
 40
28.0
 40
29.0
 40
29.0
 40
29.0
 40
30.0
 40
30.0
 40
30.0
 40
31.0
 40
31.0
 40
31.0
 40
32.0
 40
32.0
 40
32.0
 40
33.0
 40
33.0
 40
33.0
 40
34.0
 40
34.0
 40
34.0
 40
35.0
 40
35.0
 40
35.0
 40
36.0
 40
36.0
 40
36.0
 40
37.0
 40
37.0
 40
37.0
 40
38.0
 40
38.0
 40
38.0
 40
39.0
 40
39.0
 40
39.0
 40
40.0
 40
40.0
 40
40.0
 40
41.0
 40
41.0
 40
41.0
 40
42.0
 40
42.0
 40
42.0
 40
43.0
 40
43.0
 40
43.0
 40
44.0
 40
44.0
 40
44.0
 40
45.0
 40
45.0
 40
45.0
 40
46.0
 40
46.0
 40
46.0
 40
47.0
 40
47.0
 40
47.0
 40
48.0
 40
48.0
 40
48.0
 40
49.0
 40
49.0
 40
49.0
 40
50.0
 40
50.0
 40
50.0
 40
51.0
 40
51.0
 40
51.0
 40
52.0
 40
52.0
 40
52.0
 40
53.0
 40
53.0
 40
53.0
 40
54.0
 40
54.0
 40
54.0
 40
55.0
 40
55.0
 40
55.0
 40
56.0
 40
56.0
 40
56.0
 40
57.0
 40
57.0
 40
57.0
 40
58.0
 40
58.0
 40
58.0
 40
59.0
 40
59.0
 40
59.0
 40
60.0
 40
60.0
 40
60.0
 40
61.0
 40
61.0
 40
61.0
 40
62.0
 40
62.0
 40
62.0
 40
63.0
 40
63.0
 40
63.0
 40
64.0
 40
64.0
 40
64.0
 40
65.0
 40
65.0
 40
65.0
 40
66.0
 40
66.0
 40
66.0
 40
67.0
 40
67.0
 40
67.0
 40
68.0
 40
68.0
 40
68.0
 40
69.0
 40
69.0
 40
69.0
 40
70.0
 40
70.0
 40
70.0
 40
71.0
 40
71.0
 40
71.0
 40
72.0
 40
72.0
 40
72.0
 40
73.0
 40
73.0
 40
73.0
 40
74.0
 40
74.0
 40
74.0
 40
75.0
 40
75.0
 40
75.0
 40
76.0
 40
76.0
 40
76.0
 40
77.0
 40
77.0
 40
77.0
 40
78.0
 40
78.0
 40
78.0
 40
79.0
 40
79.0
 40
79.0
 40
79.0
 10
128.5940456492751
 20
-150.669528499659
 30
0.0
 10
128.5940456492751
 20
-150.669528499659
 30
0.0
 10
128.3401421120122
 20
-150.669528499659
 30
0.0
 10
128.3401421120122
 20
-150.669528499659
 30
0.0
 10
128.3401421120122
 20
-150.669528499659
 30
0.0
 10
128.0628119254496
 20
-150.669528499659
 30
0.0
 10
128.0628119254496
 20
-150.669528499659
 30
0.0
 10
128.0628119254496
 20
-150.669528499659
 30
0.0
 10
128.1899359488553
 20
-150.7119031741276
 30
0.0
 10
128.1899359488553
 20
-150.7119031741276
 30
0.0
 10
128.2006157448595
 20
-150.7160372887098
 30
0.0
 10
128.2130180886064
 20
-150.7225829701319
 30
0.0
 10
128.2130180886064
 20
-150.7353298234273
 30
0.0
 10
128.2130180886064
 20
-150.7563449058873
 30
0.0
 10
128.1813232101422
 20
-150.7625460777607
 30
0.0
 10
128.1603081276821
 20
-150.7670247018916
 30
0.0
 10
128.1496283316779
 20
-150.7901068416428
 30
0.0
 10
128.1200005105047
 20
-150.855908165411
 30
0.0
 10
128.1010524853358
 20
-150.9003498971707
 30
0.0
 10
128.1010524853358
 20
-150.9003498971707
 30
0.0
 10
128.3718369904764
 20
-150.9003498971707
 30
0.0
 10
128.3718369904764
 20
-150.9003498971707
 30
0.0
 10
128.4627875112871
 20
-150.9003498971707
 30
0.0
 10
128.6595024634948
 20
-150.8958712730399
 30
0.0
 10
128.8010958879386
 20
-150.8876030438753
 30
0.0
 10
128.8010958879386
 20
-150.8876030438753
 30
0.0
 10
128.8010958879386
 20
-151.0653699709142
 30
0.0
 10
128.8010958879386
 20
-151.0653699709142
 30
0.0
 10
128.7187581058411
 20
-151.0608913467834
 30
0.0
 10
128.6977430233811
 20
-151.0608913467834
 30
0.0
 10
128.5179090390511
 20
-151.0567572322011
 30
0.0
 10
128.4862141605868
 20
-151.2110975099403
 30
0.0
 10
128.441772428827
 20
-151.2917127442951
 30
0.0
 10
128.3973306970673
 20
-151.3613036730972
 30
0.0
 10
128.5179090390511
 20
-151.4205593154435
 30
0.0
 10
128.6236734704482
 20
-151.4884276965029
 30
0.0
 10
128.7273708445543
 20
-151.5707654786003
 30
0.0
 10
128.7273708445543
 20
-151.5707654786003
 30
0.0
 10
128.6088595598616
 20
-151.737852609635
 30
0.0
 10
128.6088595598616
 20
-151.737852609635
 30
0.0
 10
128.585432910562
 20
-151.7189045844661
 30
0.0
 10
128.5726860572665
 20
-151.7102918457529
 30
0.0
 10
128.4607204539959
 20
-151.6258870063643
 30
0.0
 10
128.4121446076539
 20
-151.5876464464781
 30
0.0
 10
128.3528889653076
 20
-151.5518174534315
 30
0.0
 10
128.2722737309528
 20
-151.5073757216717
 30
0.0
 10
128.0607448681584
 20
-151.6934108778752
 30
0.0
 10
127.855761686786
 20
-151.7168375271749
 30
0.0
 10
127.565684646928
 20
-151.7464653483481
 30
0.0
 10
127.565684646928
 20
-151.7464653483481
 30
0.0
 10
127.461987272822
 20
-151.566631364018
 30
0.0
 10
127.461987272822
 20
-151.566631364018
 30
0.0
 10
127.779625076562
 20
-151.5624972494357
 30
0.0
 10
127.9549804367612
 20
-151.5370035428449
 30
0.0
 10
128.1072536572093
 20
-151.4271049968654
 30
0.0
 10
127.9887423725167
 20
-151.3761175836837
 30
0.0
 10
127.9002034185458
 20
-151.3485568198017
 30
0.0
 10
127.8640299159506
 20
-151.3361544760548
 30
0.0
 10
127.8450818907818
 20
-151.3633707303883
 30
0.0
 10
127.8302679801952
 20
-151.3826632651057
 30
0.0
 10
127.8027072163132
 20
-151.4164252008612
 30
0.0
 10
127.8027072163132
 20
-151.4164252008612
 30
0.0
 10
127.6059922641054
 20
-151.3337429092151
 30
0.0
 10
127.6059922641054
 20
-151.3337429092151
 30
0.0
 10
127.6883300462029
 20
-151.2534721844088
 30
0.0
 10
127.7499972553889
 20
-151.158387549016
 30
0.0
 10
127.8068413308955
 20
-151.0567572322011
 30
0.0
 10
127.6166720601097
 20
-151.0608913467834
 30
0.0
 10
127.5953124681012
 20
-151.0608913467834
 30
0.0
 10
127.5129746860037
 20
-151.0653699709142
 30
0.0
 10
127.5129746860037
 20
-151.0653699709142
 30
0.0
 10
127.5129746860037
 20
-150.8876030438753
 30
0.0
 10
127.5129746860037
 20
-150.8876030438753
 30
0.0
 10
127.6525010531563
 20
-150.8938042157488
 30
0.0
 10
127.8619628586595
 20
-150.897938330331
 30
0.0
 10
127.8874565652503
 20
-150.897938330331
 30
0.0
 10
127.9043375331281
 20
-150.8641763945756
 30
0.0
 10
127.9591145513435
 20
-150.7435980525919
 30
0.0
 10
127.9784070860609
 20
-150.669528499659
 30
0.0
 10
127.9591145513435
 20
-150.669528499659
 30
0.0
 10
127.7816921338532
 20
-150.676074181081
 30
0.0
 10
127.5870442389366
 20
-150.6888210343764
 30
0.0
 10
127.5870442389366
 20
-150.6888210343764
 30
0.0
 10
127.5870442389366
 20
-150.821801720107
 30
0.0
 10
127.5870442389366
 20
-150.821801720107
 30
0.0
 10
127.5384683925945
 20
-150.8472954266979
 30
0.0
 10
127.4792127502482
 20
-150.8789903051622
 30
0.0
 10
127.3458875549691
 20
-150.9447916289305
 30
0.0
 10
127.3458875549691
 20
-150.9447916289305
 30
0.0
 10
127.3458875549691
 20
-151.0905191679565
 30
0.0
 10
127.3458875549691
 20
-151.0905191679565
 30
0.0
 10
127.3458875549691
 20
-151.0905191679565
 30
0.0
 10
127.3458875549691
 20
-151.5580186253049
 30
0.0
 10
127.3458875549691
 20
-151.5580186253049
 30
0.0
 10
127.3458875549691
 20
-151.6851426487106
 30
0.0
 10
127.3097140523739
 20
-151.7443982910569
 30
0.0
 10
127.0261826939379
 20
-151.7357855523438
 30
0.0
 10
127.0261826939379
 20
-151.7357855523438
 30
0.0
 10
126.9228298293804
 20
-151.5283908041318
 30
0.0
 10
126.9228298293804
 20
-151.5283908041318
 30
0.0
 10
126.986219586309
 20
-151.5411376574272
 30
0.0
 10
127.034795432651
 20
-151.545616281558
 30
0.0
 10
127.0751030498284
 20
-151.545616281558
 30
0.0
 10
127.1512396600524
 20
-151.545616281558
 30
0.0
 10
127.1615749465082
 20
-151.5221896322583
 30
0.0
 10
127.1615749465082
 20
-151.4567328180386
 30
0.0
 10
127.1615749465082
 20
-151.4567328180386
 30
0.0
 10
127.1615749465082
 20
-151.0271294110279
 30
0.0
 10
127.1615749465082
 20
-151.0271294110279
 30
0.0
 10
127.0644232538241
 20
-151.0674370282053
 30
0.0
 10
127.0475422859464
 20
-151.0736382000788
 30
0.0
 10
127.0010334968956
 20
-151.0925862252477
 30
0.0
 10
126.9968993823133
 20
-151.1139458172562
 30
0.0
 10
126.9924207581824
 20
-151.1435736384294
 30
0.0
 10
126.9734727330136
 20
-151.1435736384294
 30
0.0
 10
126.9648599943004
 20
-151.1435736384294
 30
0.0
 10
126.9545247078447
 20
-151.1390950142985
 30
0.0
 10
126.9479790264227
 20
-151.1160128745474
 30
0.0
 10
126.9479790264227
 20
-151.1160128745474
 30
0.0
 10
126.8952690654984
 20
-150.9234320369219
 30
0.0
 10
126.8952690654984
 20
-150.9234320369219
 30
0.0
 10
127.0409966045245
 20
-150.876923247871
 30
0.0
 10
127.1067979282927
 20
-150.8538411081199
 30
0.0
 10
127.1615749465082
 20
-150.8324815161113
 30
0.0
 10
127.1615749465082
 20
-150.8324815161113
 30
0.0
 10
127.1615749465082
 20
-150.4201035865269
 30
0.0
 10
127.1615749465082
 20
-150.4201035865269
 30
0.0
 10
127.1615749465082
 20
-150.4201035865269
 30
0.0
 10
127.1088649855839
 20
-150.4201035865269
 30
0.0
 10
127.1088649855839
 20
-150.4201035865269
 30
0.0
 10
127.1088649855839
 20
-150.4201035865269
 30
0.0
 10
127.0306613180687
 20
-150.4201035865269
 30
0.0
 10
127.0306613180687
 20
-150.4201035865269
 30
0.0
 10
126.9627929370093
 20
-150.4201035865269
 30
0.0
 10
126.9545247078447
 20
-150.4201035865269
 30
0.0
 10
126.9183512052496
 20
-150.4263047584004
 30
0.0
 10
126.9183512052496
 20
-150.4263047584004
 30
0.0
 10
126.9183512052496
 20
-150.2316568634837
 30
0.0
 10
126.9183512052496
 20
-150.2316568634837
 30
0.0
 10
126.9459119691316
 20
-150.2382025449057
 30
0.0
 10
126.9545247078447
 20
-150.2382025449057
 30
0.0
 10
127.0241156366467
 20
-150.2382025449057
 30
0.0
 10
127.0241156366467
 20
-150.2382025449057
 30
0.0
 10
127.1574408319259
 20
-150.2382025449057
 30
0.0
 10
127.1574408319259
 20
-150.2382025449057
 30
0.0
 10
127.1574408319259
 20
-150.1682671065552
 30
0.0
 10
127.1574408319259
 20
-150.0855848149091
 30
0.0
 10
127.1553737746347
 20
-150.0814507003268
 30
0.0
 10
127.1467610359216
 20
-149.9016167159968
 30
0.0
 10
127.1467610359216
 20
-149.8826686908279
 30
0.0
 10
127.1446939786305
 20
-149.836159901777
 30
0.0
 10
127.1446939786305
 20
-149.836159901777
 30
0.0
 10
127.3607014655556
 20
-149.8444281309416
 30
0.0
 10
127.3607014655556
 20
-149.8444281309416
 30
0.0
 10
127.3710367520114
 20
-149.8444281309416
 30
0.0
 10
127.3923963440199
 20
-149.8468396977813
 30
0.0
 10
127.3923963440199
 20
-149.8637206656591
 30
0.0
 10
127.3923963440199
 20
-149.8826686908279
 30
0.0
 10
127.3775824334334
 20
-149.8933484868322
 30
0.0
 10
127.3520887268425
 20
-149.9122965120011
 30
0.0
 10
127.3520887268425
 20
-149.9629394156342
 30
0.0
 10
127.3458875549691
 20
-150.1916937558548
 30
0.0
 10
127.3479546122602
 20
-150.2382025449057
 30
0.0
 10
127.4768011834086
 20
-150.2382025449057
 30
0.0
 10
127.489548036704
 20
-150.2382025449057
 30
0.0
 10
127.5870442389366
 20
-150.2295898061926
 30
0.0
 10
127.5870442389366
 20
-150.2295898061926
 30
0.0
 10
127.5870442389366
 20
-150.4242377011092
 30
0.0
 10
127.5870442389366
 20
-150.4242377011092
 30
0.0
 10
127.5488036790503
 20
-150.4221706438181
 30
0.0
 10
127.4812798075394
 20
-150.4180365292357
 30
0.0
 10
127.3458875549691
 20
-150.4201035865269
 30
0.0
 10
127.3458875549691
 20
-150.4201035865269
 30
0.0
 10
127.3458875549691
 20
-150.7584119631784
 30
0.0
 10
127.3458875549691
 20
-150.7584119631784
 30
0.0
 10
127.4006645731845
 20
-150.7353298234273
 30
0.0
 10
127.4664658969528
 20
-150.7077690595453
 30
0.0
 10
127.5150417432948
 20
-150.6843424102456
 30
0.0
 10
127.5150417432948
 20
-150.6843424102456
 30
0.0
 10
127.5150417432948
 20
-150.5065754832067
 30
0.0
 10
127.5150417432948
 20
-150.5065754832067
 30
0.0
 10
127.6294189134051
 20
-150.5193223365021
 30
0.0
 10
127.7475856885492
 20
-150.5193223365021
 30
0.0
 10
127.8640299159506
 20
-150.5193223365021
 30
0.0
 10
127.8409477761995
 20
-150.4242377011092
 30
0.0
 10
127.8133870123175
 20
-150.3415554094632
 30
0.0
 10
127.7499972553889
 20
-150.2085747237326
 30
0.0
 10
127.7055555236291
 20
-150.2106417810237
 30
0.0
 10
127.6228732319832
 20
-150.214775895606
 30
0.0
 10
127.5849771816454
 20
-150.2168429528972
 30
0.0
 10
127.5849771816454
 20
-150.2168429528972
 30
0.0
 10
127.5849771816454
 20
-150.0370089685671
 30
0.0
 10
127.5849771816454
 20
-150.0370089685671
 30
0.0
 10
127.7096896382114
 20
-150.0456217072803
 30
0.0
 10
127.8829779411195
 20
-150.0497558218626
 30
0.0
 10
127.9656602327655
 20
-150.0497558218626
 30
0.0
 10
127.9656602327655
 20
-150.0497558218626
 30
0.0
 10
128.047998014863
 20
-150.0497558218626
 30
0.0
 10
128.047998014863
 20
-150.0497558218626
 30
0.0
 10
128.047998014863
 20
-149.8868028054102
 30
0.0
 10
128.047998014863
 20
-149.8764675189545
 30
0.0
 10
128.0459309575718
 20
-149.8213459911905
 30
0.0
 10
128.0459309575718
 20
-149.8213459911905
 30
0.0
 10
128.2702066736616
 20
-149.8468396977813
 30
0.0
 10
128.2702066736616
 20
-149.8468396977813
 30
0.0
 10
128.2743407882439
 20
-149.8468396977813
 30
0.0
 10
128.2957003802524
 20
-149.8489067550725
 30
0.0
 10
128.2957003802524
 20
-149.8657877229502
 30
0.0
 10
128.2957003802524
 20
-149.8806016335368
 30
0.0
 10
128.2850205842482
 20
-149.8888698627014
 30
0.0
 10
128.2574598203662
 20
-149.9036837732879
 30
0.0
 10
128.2512586484927
 20
-149.9694850970562
 30
0.0
 10
128.2491915912016
 20
-149.9905001795162
 30
0.0
 10
128.2491915912016
 20
-150.0497558218626
 30
0.0
 10
128.2491915912016
 20
-150.0497558218626
 30
0.0
 10
128.3442762265945
 20
-150.0497558218626
 30
0.0
 10
128.3442762265945
 20
-150.0497558218626
 30
0.0
 10
128.4269585182405
 20
-150.0497558218626
 30
0.0
 10
128.6002468211485
 20
-150.0456217072803
 30
0.0
 10
128.7249592777146
 20
-150.0370089685671
 30
0.0
 10
128.7249592777146
 20
-150.0370089685671
 30
0.0
 10
128.7249592777146
 20
-150.2168429528972
 30
0.0
 10
128.7249592777146
 20
-150.2168429528972
 30
0.0
 10
128.6953314565414
 20
-150.214775895606
 30
0.0
 10
128.5771646813974
 20
-150.2106417810237
 30
0.0
 10
128.5368570642199
 20
-150.2085747237326
 30
0.0
 10
128.5220431536334
 20
-150.2592176273657
 30
0.0
 10
128.4882812178779
 20
-150.3711832306364
 30
0.0
 10
128.4224798941096
 20
-150.5110541073375
 30
0.0
 10
128.4648545685782
 20
-150.5110541073375
 30
0.0
 10
128.7421847551408
 20
-150.4917615726201
 30
0.0
 10
128.8035074547783
 20
-150.489694515329
 30
0.0
 10
128.8035074547783
 20
-150.489694515329
 30
0.0
 10
128.8035074547783
 20
-150.6740071237898
 30
0.0
 10
128.8035074547783
 20
-150.6740071237898
 30
0.0
 10
128.7738796336051
 20
-150.6740071237898
 30
0.0
 10
128.7569986657274
 20
-150.669528499659
 30
0.0
 10
128.5940456492751
 20
-150.669528499659
 30
0.0
  0
HATCH
  5
157
330
150
100
AcDbEntity
  8
レイヤー 1
 62
    18
420
        0
440
 33554687
100
AcDbHatch
 10
0.0
 20
0.0
 30
0.0
210
0.0
220
0.0
230
1.0
  2
SOLID
 70
     1
 71
     1
 91
        3
 92
        1
 93
        1
 72
     4
 94
        3
 73
     0
 74
     0
 95
       17
 96
       13
 40
0.0
 40
0.0
 40
0.0
 40
0.0
 40
1.0
 40
1.0
 40
1.0
 40
2.0
 40
2.0
 40
2.0
 40
3.0
 40
3.0
 40
3.0
 40
4.0
 40
4.0
 40
4.0
 40
4.0
 10
128.0290499896941
 20
-151.0546901749099
 10
128.0121690218164
 20
-151.0843179960831
 10
127.9615261181832
 20
-151.1773355741848
 10
127.9508463221789
 20
-151.1962835993537
 10
128.1413601025133
 20
-151.2555392417
 10
128.1623751849733
 20
-151.262084923122
 10
128.234377680615
 20
-151.2893011774554
 10
128.2891546988305
 20
-151.2028292807757
 10
128.3125813481301
 20
-151.1287597278428
 10
128.3273952587167
 20
-151.0546901749099
 10
128.3273952587167
 20
-151.0546901749099
 10
128.0290499896941
 20
-151.0546901749099
 10
128.0290499896941
 20
-151.0546901749099
 97
        0
 97
        1
330
154
 92
        1
 93
        1
 72
     4
 94
        3
 73
     0
 74
     0
 95
       20
 96
       16
 40
0.0
 40
0.0
 40
0.0
 40
0.0
 40
1.0
 40
1.0
 40
1.0
 40
2.0
 40
2.0
 40
2.0
 40
3.0
 40
3.0
 40
3.0
 40
4.0
 40
4.0
 40
4.0
 40
5.0
 40
5.0
 40
5.0
 40
5.0
 10
127.9656602327655
 20
-150.2040960996017
 10
127.9656602327655
 20
-150.2040960996017
 10
127.9339653543012
 20
-150.2040960996017
 10
127.9339653543012
 20
-150.2040960996017
 10
127.9804741433521
 20
-150.3036593591255
 10
128.0121690218164
 20
-150.3839300839318
 10
128.0459309575718
 20
-150.5110541073375
 10
128.0459309575718
 20
-150.5110541073375
 10
128.2533257057839
 20
-150.5110541073375
 10
128.2533257057839
 20
-150.5110541073375
 10
128.2850205842482
 20
-150.4180365292357
 10
128.3084472335479
 20
-150.3332871802986
 10
128.3315293732991
 20
-150.2040960996017
 10
128.3315293732991
 20
-150.2040960996017
 10
127.9656602327655
 20
-150.2040960996017
 10
127.9656602327655
 20
-150.2040960996017
 97
        0
 97
        1
330
155
 92
        1
 93
        1
 72
     4
 94
        3
 73
     0
 74
     0
 95
      242
 96
      238
 40
0.0
 40
0.0
 40
0.0
 40
0.0
 40
1.0
 40
1.0
 40
1.0
 40
2.0
 40
2.0
 40
2.0
 40
3.0
 40
3.0
 40
3.0
 40
4.0
 40
4.0
 40
4.0
 40
5.0
 40
5.0
 40
5.0
 40
6.0
 40
6.0
 40
6.0
 40
7.0
 40
7.0
 40
7.0
 40
8.0
 40
8.0
 40
8.0
 40
9.0
 40
9.0
 40
9.0
 40
10.0
 40
10.0
 40
10.0
 40
11.0
 40
11.0
 40
11.0
 40
12.0
 40
12.0
 40
12.0
 40
13.0
 40
13.0
 40
13.0
 40
14.0
 40
14.0
 40
14.0
 40
15.0
 40
15.0
 40
15.0
 40
16.0
 40
16.0
 40
16.0
 40
17.0
 40
17.0
 40
17.0
 40
18.0
 40
18.0
 40
18.0
 40
19.0
 40
19.0
 40
19.0
 40
20.0
 40
20.0
 40
20.0
 40
21.0
 40
21.0
 40
21.0
 40
22.0
 40
22.0
 40
22.0
 40
23.0
 40
23.0
 40
23.0
 40
24.0
 40
24.0
 40
24.0
 40
25.0
 40
25.0
 40
25.0
 40
26.0
 40
26.0
 40
26.0
 40
27.0
 40
27.0
 40
27.0
 40
28.0
 40
28.0
 40
28.0
 40
29.0
 40
29.0
 40
29.0
 40
30.0
 40
30.0
 40
30.0
 40
31.0
 40
31.0
 40
31.0
 40
32.0
 40
32.0
 40
32.0
 40
33.0
 40
33.0
 40
33.0
 40
34.0
 40
34.0
 40
34.0
 40
35.0
 40
35.0
 40
35.0
 40
36.0
 40
36.0
 40
36.0
 40
37.0
 40
37.0
 40
37.0
 40
38.0
 40
38.0
 40
38.0
 40
39.0
 40
39.0
 40
39.0
 40
40.0
 40
40.0
 40
40.0
 40
41.0
 40
41.0
 40
41.0
 40
42.0
 40
42.0
 40
42.0
 40
43.0
 40
43.0
 40
43.0
 40
44.0
 40
44.0
 40
44.0
 40
45.0
 40
45.0
 40
45.0
 40
46.0
 40
46.0
 40
46.0
 40
47.0
 40
47.0
 40
47.0
 40
48.0
 40
48.0
 40
48.0
 40
49.0
 40
49.0
 40
49.0
 40
50.0
 40
50.0
 40
50.0
 40
51.0
 40
51.0
 40
51.0
 40
52.0
 40
52.0
 40
52.0
 40
53.0
 40
53.0
 40
53.0
 40
54.0
 40
54.0
 40
54.0
 40
55.0
 40
55.0
 40
55.0
 40
56.0
 40
56.0
 40
56.0
 40
57.0
 40
57.0
 40
57.0
 40
58.0
 40
58.0
 40
58.0
 40
59.0
 40
59.0
 40
59.0
 40
60.0
 40
60.0
 40
60.0
 40
61.0
 40
61.0
 40
61.0
 40
62.0
 40
62.0
 40
62.0
 40
63.0
 40
63.0
 40
63.0
 40
64.0
 40
64.0
 40
64.0
 40
65.0
 40
65.0
 40
65.0
 40
66.0
 40
66.0
 40
66.0
 40
67.0
 40
67.0
 40
67.0
 40
68.0
 40
68.0
 40
68.0
 40
69.0
 40
69.0
 40
69.0
 40
70.0
 40
70.0
 40
70.0
 40
71.0
 40
71.0
 40
71.0
 40
72.0
 40
72.0
 40
72.0
 40
73.0
 40
73.0
 40
73.0
 40
74.0
 40
74.0
 40
74.0
 40
75.0
 40
75.0
 40
75.0
 40
76.0
 40
76.0
 40
76.0
 40
77.0
 40
77.0
 40
77.0
 40
78.0
 40
78.0
 40
78.0
 40
79.0
 40
79.0
 40
79.0
 40
79.0
 10
128.5940456492751
 20
-150.669528499659
 10
128.5940456492751
 20
-150.669528499659
 10
128.3401421120122
 20
-150.669528499659
 10
128.3401421120122
 20
-150.669528499659
 10
128.3401421120122
 20
-150.669528499659
 10
128.0628119254496
 20
-150.669528499659
 10
128.0628119254496
 20
-150.669528499659
 10
128.0628119254496
 20
-150.669528499659
 10
128.1899359488553
 20
-150.7119031741276
 10
128.1899359488553
 20
-150.7119031741276
 10
128.2006157448595
 20
-150.7160372887098
 10
128.2130180886064
 20
-150.7225829701319
 10
128.2130180886064
 20
-150.7353298234273
 10
128.2130180886064
 20
-150.7563449058873
 10
128.1813232101422
 20
-150.7625460777607
 10
128.1603081276821
 20
-150.7670247018916
 10
128.1496283316779
 20
-150.7901068416428
 10
128.1200005105047
 20
-150.855908165411
 10
128.1010524853358
 20
-150.9003498971707
 10
128.1010524853358
 20
-150.9003498971707
 10
128.3718369904764
 20
-150.9003498971707
 10
128.3718369904764
 20
-150.9003498971707
 10
128.4627875112871
 20
-150.9003498971707
 10
128.6595024634948
 20
-150.8958712730399
 10
128.8010958879386
 20
-150.8876030438753
 10
128.8010958879386
 20
-150.8876030438753
 10
128.8010958879386
 20
-151.0653699709142
 10
128.8010958879386
 20
-151.0653699709142
 10
128.7187581058411
 20
-151.0608913467834
 10
128.6977430233811
 20
-151.0608913467834
 10
128.5179090390511
 20
-151.0567572322011
 10
128.4862141605868
 20
-151.2110975099403
 10
128.441772428827
 20
-151.2917127442951
 10
128.3973306970673
 20
-151.3613036730972
 10
128.5179090390511
 20
-151.4205593154435
 10
128.6236734704482
 20
-151.4884276965029
 10
128.7273708445543
 20
-151.5707654786003
 10
128.7273708445543
 20
-151.5707654786003
 10
128.6088595598616
 20
-151.737852609635
 10
128.6088595598616
 20
-151.737852609635
 10
128.585432910562
 20
-151.7189045844661
 10
128.5726860572665
 20
-151.7102918457529
 10
128.4607204539959
 20
-151.6258870063643
 10
128.4121446076539
 20
-151.5876464464781
 10
128.3528889653076
 20
-151.5518174534315
 10
128.2722737309528
 20
-151.5073757216717
 10
128.0607448681584
 20
-151.6934108778752
 10
127.855761686786
 20
-151.7168375271749
 10
127.565684646928
 20
-151.7464653483481
 10
127.565684646928
 20
-151.7464653483481
 10
127.461987272822
 20
-151.566631364018
 10
127.461987272822
 20
-151.566631364018
 10
127.779625076562
 20
-151.5624972494357
 10
127.9549804367612
 20
-151.5370035428449
 10
128.1072536572093
 20
-151.4271049968654
 10
127.9887423725167
 20
-151.3761175836837
 10
127.9002034185458
 20
-151.3485568198017
 10
127.8640299159506
 20
-151.3361544760548
 10
127.8450818907818
 20
-151.3633707303883
 10
127.8302679801952
 20
-151.3826632651057
 10
127.8027072163132
 20
-151.4164252008612
 10
127.8027072163132
 20
-151.4164252008612
 10
127.6059922641054
 20
-151.3337429092151
 10
127.6059922641054
 20
-151.3337429092151
 10
127.6883300462029
 20
-151.2534721844088
 10
127.7499972553889
 20
-151.158387549016
 10
127.8068413308955
 20
-151.0567572322011
 10
127.6166720601097
 20
-151.0608913467834
 10
127.5953124681012
 20
-151.0608913467834
 10
127.5129746860037
 20
-151.0653699709142
 10
127.5129746860037
 20
-151.0653699709142
 10
127.5129746860037
 20
-150.8876030438753
 10
127.5129746860037
 20
-150.8876030438753
 10
127.6525010531563
 20
-150.8938042157488
 10
127.8619628586595
 20
-150.897938330331
 10
127.8874565652503
 20
-150.897938330331
 10
127.9043375331281
 20
-150.8641763945756
 10
127.9591145513435
 20
-150.7435980525919
 10
127.9784070860609
 20
-150.669528499659
 10
127.9591145513435
 20
-150.669528499659
 10
127.7816921338532
 20
-150.676074181081
 10
127.5870442389366
 20
-150.6888210343764
 10
127.5870442389366
 20
-150.6888210343764
 10
127.5870442389366
 20
-150.821801720107
 10
127.5870442389366
 20
-150.821801720107
 10
127.5384683925945
 20
-150.8472954266979
 10
127.4792127502482
 20
-150.8789903051622
 10
127.3458875549691
 20
-150.9447916289305
 10
127.3458875549691
 20
-150.9447916289305
 10
127.3458875549691
 20
-151.0905191679565
 10
127.3458875549691
 20
-151.0905191679565
 10
127.3458875549691
 20
-151.0905191679565
 10
127.3458875549691
 20
-151.5580186253049
 10
127.3458875549691
 20
-151.5580186253049
 10
127.3458875549691
 20
-151.6851426487106
 10
127.3097140523739
 20
-151.7443982910569
 10
127.0261826939379
 20
-151.7357855523438
 10
127.0261826939379
 20
-151.7357855523438
 10
126.9228298293804
 20
-151.5283908041318
 10
126.9228298293804
 20
-151.5283908041318
 10
126.986219586309
 20
-151.5411376574272
 10
127.034795432651
 20
-151.545616281558
 10
127.0751030498284
 20
-151.545616281558
 10
127.1512396600524
 20
-151.545616281558
 10
127.1615749465082
 20
-151.5221896322583
 10
127.1615749465082
 20
-151.4567328180386
 10
127.1615749465082
 20
-151.4567328180386
 10
127.1615749465082
 20
-151.0271294110279
 10
127.1615749465082
 20
-151.0271294110279
 10
127.0644232538241
 20
-151.0674370282053
 10
127.0475422859464
 20
-151.0736382000788
 10
127.0010334968956
 20
-151.0925862252477
 10
126.9968993823133
 20
-151.1139458172562
 10
126.9924207581824
 20
-151.1435736384294
 10
126.9734727330136
 20
-151.1435736384294
 10
126.9648599943004
 20
-151.1435736384294
 10
126.9545247078447
 20
-151.1390950142985
 10
126.9479790264227
 20
-151.1160128745474
 10
126.9479790264227
 20
-151.1160128745474
 10
126.8952690654984
 20
-150.9234320369219
 10
126.8952690654984
 20
-150.9234320369219
 10
127.0409966045245
 20
-150.876923247871
 10
127.1067979282927
 20
-150.8538411081199
 10
127.1615749465082
 20
-150.8324815161113
 10
127.1615749465082
 20
-150.8324815161113
 10
127.1615749465082
 20
-150.4201035865269
 10
127.1615749465082
 20
-150.4201035865269
 10
127.1615749465082
 20
-150.4201035865269
 10
127.1088649855839
 20
-150.4201035865269
 10
127.1088649855839
 20
-150.4201035865269
 10
127.1088649855839
 20
-150.4201035865269
 10
127.0306613180687
 20
-150.4201035865269
 10
127.0306613180687
 20
-150.4201035865269
 10
126.9627929370093
 20
-150.4201035865269
 10
126.9545247078447
 20
-150.4201035865269
 10
126.9183512052496
 20
-150.4263047584004
 10
126.9183512052496
 20
-150.4263047584004
 10
126.9183512052496
 20
-150.2316568634837
 10
126.9183512052496
 20
-150.2316568634837
 10
126.9459119691316
 20
-150.2382025449057
 10
126.9545247078447
 20
-150.2382025449057
 10
127.0241156366467
 20
-150.2382025449057
 10
127.0241156366467
 20
-150.2382025449057
 10
127.1574408319259
 20
-150.2382025449057
 10
127.1574408319259
 20
-150.2382025449057
 10
127.1574408319259
 20
-150.1682671065552
 10
127.1574408319259
 20
-150.0855848149091
 10
127.1553737746347
 20
-150.0814507003268
 10
127.1467610359216
 20
-149.9016167159968
 10
127.1467610359216
 20
-149.8826686908279
 10
127.1446939786305
 20
-149.836159901777
 10
127.1446939786305
 20
-149.836159901777
 10
127.3607014655556
 20
-149.8444281309416
 10
127.3607014655556
 20
-149.8444281309416
 10
127.3710367520114
 20
-149.8444281309416
 10
127.3923963440199
 20
-149.8468396977813
 10
127.3923963440199
 20
-149.8637206656591
 10
127.3923963440199
 20
-149.8826686908279
 10
127.3775824334334
 20
-149.8933484868322
 10
127.3520887268425
 20
-149.9122965120011
 10
127.3520887268425
 20
-149.9629394156342
 10
127.3458875549691
 20
-150.1916937558548
 10
127.3479546122602
 20
-150.2382025449057
 10
127.4768011834086
 20
-150.2382025449057
 10
127.489548036704
 20
-150.2382025449057
 10
127.5870442389366
 20
-150.2295898061926
 10
127.5870442389366
 20
-150.2295898061926
 10
127.5870442389366
 20
-150.4242377011092
 10
127.5870442389366
 20
-150.4242377011092
 10
127.5488036790503
 20
-150.4221706438181
 10
127.4812798075394
 20
-150.4180365292357
 10
127.3458875549691
 20
-150.4201035865269
 10
127.3458875549691
 20
-150.4201035865269
 10
127.3458875549691
 20
-150.7584119631784
 10
127.3458875549691
 20
-150.7584119631784
 10
127.4006645731845
 20
-150.7353298234273
 10
127.4664658969528
 20
-150.7077690595453
 10
127.5150417432948
 20
-150.6843424102456
 10
127.5150417432948
 20
-150.6843424102456
 10
127.5150417432948
 20
-150.5065754832067
 10
127.5150417432948
 20
-150.5065754832067
 10
127.6294189134051
 20
-150.5193223365021
 10
127.7475856885492
 20
-150.5193223365021
 10
127.8640299159506
 20
-150.5193223365021
 10
127.8409477761995
 20
-150.4242377011092
 10
127.8133870123175
 20
-150.3415554094632
 10
127.7499972553889
 20
-150.2085747237326
 10
127.7055555236291
 20
-150.2106417810237
 10
127.6228732319832
 20
-150.214775895606
 10
127.5849771816454
 20
-150.2168429528972
 10
127.5849771816454
 20
-150.2168429528972
 10
127.5849771816454
 20
-150.0370089685671
 10
127.5849771816454
 20
-150.0370089685671
 10
127.7096896382114
 20
-150.0456217072803
 10
127.8829779411195
 20
-150.0497558218626
 10
127.9656602327655
 20
-150.0497558218626
 10
127.9656602327655
 20
-150.0497558218626
 10
128.047998014863
 20
-150.0497558218626
 10
128.047998014863
 20
-150.0497558218626
 10
128.047998014863
 20
-149.8868028054102
 10
128.047998014863
 20
-149.8764675189545
 10
128.0459309575718
 20
-149.8213459911905
 10
128.0459309575718
 20
-149.8213459911905
 10
128.2702066736616
 20
-149.8468396977813
 10
128.2702066736616
 20
-149.8468396977813
 10
128.2743407882439
 20
-149.8468396977813
 10
128.2957003802524
 20
-149.8489067550725
 10
128.2957003802524
 20
-149.8657877229502
 10
128.2957003802524
 20
-149.8806016335368
 10
128.2850205842482
 20
-149.8888698627014
 10
128.2574598203662
 20
-149.9036837732879
 10
128.2512586484927
 20
-149.9694850970562
 10
128.2491915912016
 20
-149.9905001795162
 10
128.2491915912016
 20
-150.0497558218626
 10
128.2491915912016
 20
-150.0497558218626
 10
128.3442762265945
 20
-150.0497558218626
 10
128.3442762265945
 20
-150.0497558218626
 10
128.4269585182405
 20
-150.0497558218626
 10
128.6002468211485
 20
-150.0456217072803
 10
128.7249592777146
 20
-150.0370089685671
 10
128.7249592777146
 20
-150.0370089685671
 10
128.7249592777146
 20
-150.2168429528972
 10
128.7249592777146
 20
-150.2168429528972
 10
128.6953314565414
 20
-150.214775895606
 10
128.5771646813974
 20
-150.2106417810237
 10
128.5368570642199
 20
-150.2085747237326
 10
128.5220431536334
 20
-150.2592176273657
 10
128.4882812178779
 20
-150.3711832306364
 10
128.4224798941096
 20
-150.5110541073375
 10
128.4648545685782
 20
-150.5110541073375
 10
128.7421847551408
 20
-150.4917615726201
 10
128.8035074547783
 20
-150.489694515329
 10
128.8035074547783
 20
-150.489694515329
 10
128.8035074547783
 20
-150.6740071237898
 10
128.8035074547783
 20
-150.6740071237898
 10
128.7738796336051
 20
-150.6740071237898
 10
128.7569986657274
 20
-150.669528499659
 10
128.5940456492751
 20
-150.669528499659
 97
        0
 97
        1
330
156
 75
     2
 76
     1
 98
        1
 10
0.0
 20
0.0
450
        0
451
        0
460
0.0
461
0.0
452
        0
462
0.0
453
        0
470

  0
SPLINE
  5
158
330
150
100
AcDbEntity
  8
レイヤー 1
100
AcDbSpline
210
0.0
220
0.0
230
1.0
 70
    11
 71
     3
 72
    17
 73
    13
 74
     0
 42
0.0000000001
 43
0.0000000001
 40
0.0
 40
0.0
 40
0.0
 40
0.0
 40
1.0
 40
1.0
 40
1.0
 40
2.0
 40
2.0
 40
2.0
 40
3.0
 40
3.0
 40
3.0
 40
4.0
 40
4.0
 40
4.0
 40
4.0
 10
130.4502630967277
 20
-151.4691351617855
 30
0.0
 10
130.4502630967277
 20
-151.4691351617855
 30
0.0
 10
129.7436740127029
 20
-151.4691351617855
 30
0.0
 10
129.7436740127029
 20
-151.4691351617855
 30
0.0
 10
129.7436740127029
 20
-151.4691351617855
 30
0.0
 10
129.7436740127029
 20
-151.5835123318958
 30
0.0
 10
129.7436740127029
 20
-151.5835123318958
 30
0.0
 10
129.7436740127029
 20
-151.5835123318958
 30
0.0
 10
130.4502630967277
 20
-151.5835123318958
 30
0.0
 10
130.4502630967277
 20
-151.5835123318958
 30
0.0
 10
130.4502630967277
 20
-151.5835123318958
 30
0.0
 10
130.4502630967277
 20
-151.4691351617855
 30
0.0
 10
130.4502630967277
 20
-151.4691351617855
 30
0.0
  0
SPLINE
  5
159
330
150
100
AcDbEntity
  8
レイヤー 1
100
AcDbSpline
210
0.0
220
0.0
230
1.0
 70
    11
 71
     3
 72
    17
 73
    13
 74
     0
 42
0.0000000001
 43
0.0000000001
 40
0.0
 40
0.0
 40
0.0
 40
0.0
 40
1.0
 40
1.0
 40
1.0
 40
2.0
 40
2.0
 40
2.0
 40
3.0
 40
3.0
 40
3.0
 40
4.0
 40
4.0
 40
4.0
 40
4.0
 10
130.4502630967277
 20
-151.2259114205269
 30
0.0
 10
130.4502630967277
 20
-151.2259114205269
 30
0.0
 10
129.7436740127029
 20
-151.2259114205269
 30
0.0
 10
129.7436740127029
 20
-151.2259114205269
 30
0.0
 10
129.7436740127029
 20
-151.2259114205269
 30
0.0
 10
129.7436740127029
 20
-151.3402885906371
 30
0.0
 10
129.7436740127029
 20
-151.3402885906371
 30
0.0
 10
129.7436740127029
 20
-151.3402885906371
 30
0.0
 10
130.4502630967277
 20
-151.3402885906371
 30
0.0
 10
130.4502630967277
 20
-151.3402885906371
 30
0.0
 10
130.4502630967277
 20
-151.3402885906371
 30
0.0
 10
130.4502630967277
 20
-151.2259114205269
 30
0.0
 10
130.4502630967277
 20
-151.2259114205269
 30
0.0
  0
SPLINE
  5
15A
330
150
100
AcDbEntity
  8
レイヤー 1
100
AcDbSpline
210
0.0
220
0.0
230
1.0
 70
    11
 71
     3
 72
    17
 73
    13
 74
     0
 42
0.0000000001
 43
0.0000000001
 40
0.0
 40
0.0
 40
0.0
 40
0.0
 40
1.0
 40
1.0
 40
1.0
 40
2.0
 40
2.0
 40
2.0
 40
3.0
 40
3.0
 40
3.0
 40
4.0
 40
4.0
 40
4.0
 40
4.0
 10
130.4502630967277
 20
-150.9933674752725
 30
0.0
 10
130.4502630967277
 20
-150.9933674752725
 30
0.0
 10
129.7436740127029
 20
-150.9933674752725
 30
0.0
 10
129.7436740127029
 20
-150.9933674752725
 30
0.0
 10
129.7436740127029
 20
-150.9933674752725
 30
0.0
 10
129.7436740127029
 20
-151.1011989639608
 30
0.0
 10
129.7436740127029
 20
-151.1011989639608
 30
0.0
 10
129.7436740127029
 20
-151.1011989639608
 30
0.0
 10
130.4502630967277
 20
-151.1011989639608
 30
0.0
 10
130.4502630967277
 20
-151.1011989639608
 30
0.0
 10
130.4502630967277
 20
-151.1011989639608
 30
0.0
 10
130.4502630967277
 20
-150.9933674752725
 30
0.0
 10
130.4502630967277
 20
-150.9933674752725
 30
0.0
  0
SPLINE
  5
15B
330
150
100
AcDbEntity
  8
レイヤー 1
100
AcDbSpline
210
0.0
220
0.0
230
1.0
 70
     9
 71
     3
 72
   203
 73
   199
 74
     0
 42
0.0000000001
 43
0.0000000001
 40
0.0
 40
0.0
 40
0.0
 40
0.0
 40
1.0
 40
1.0
 40
1.0
 40
2.0
 40
2.0
 40
2.0
 40
3.0
 40
3.0
 40
3.0
 40
4.0
 40
4.0
 40
4.0
 40
5.0
 40
5.0
 40
5.0
 40
6.0
 40
6.0
 40
6.0
 40
7.0
 40
7.0
 40
7.0
 40
8.0
 40
8.0
 40
8.0
 40
9.0
 40
9.0
 40
9.0
 40
10.0
 40
10.0
 40
10.0
 40
11.0
 40
11.0
 40
11.0
 40
12.0
 40
12.0
 40
12.0
 40
13.0
 40
13.0
 40
13.0
 40
14.0
 40
14.0
 40
14.0
 40
15.0
 40
15.0
 40
15.0
 40
16.0
 40
16.0
 40
16.0
 40
17.0
 40
17.0
 40
17.0
 40
18.0
 40
18.0
 40
18.0
 40
19.0
 40
19.0
 40
19.0
 40
20.0
 40
20.0
 40
20.0
 40
21.0
 40
21.0
 40
21.0
 40
22.0
 40
22.0
 40
22.0
 40
23.0
 40
23.0
 40
23.0
 40
24.0
 40
24.0
 40
24.0
 40
25.0
 40
25.0
 40
25.0
 40
26.0
 40
26.0
 40
26.0
 40
27.0
 40
27.0
 40
27.0
 40
28.0
 40
28.0
 40
28.0
 40
29.0
 40
29.0
 40
29.0
 40
30.0
 40
30.0
 40
30.0
 40
31.0
 40
31.0
 40
31.0
 40
32.0
 40
32.0
 40
32.0
 40
33.0
 40
33.0
 40
33.0
 40
34.0
 40
34.0
 40
34.0
 40
35.0
 40
35.0
 40
35.0
 40
36.0
 40
36.0
 40
36.0
 40
37.0
 40
37.0
 40
37.0
 40
38.0
 40
38.0
 40
38.0
 40
39.0
 40
39.0
 40
39.0
 40
40.0
 40
40.0
 40
40.0
 40
41.0
 40
41.0
 40
41.0
 40
42.0
 40
42.0
 40
42.0
 40
43.0
 40
43.0
 40
43.0
 40
44.0
 40
44.0
 40
44.0
 40
45.0
 40
45.0
 40
45.0
 40
46.0
 40
46.0
 40
46.0
 40
47.0
 40
47.0
 40
47.0
 40
48.0
 40
48.0
 40
48.0
 40
49.0
 40
49.0
 40
49.0
 40
50.0
 40
50.0
 40
50.0
 40
51.0
 40
51.0
 40
51.0
 40
52.0
 40
52.0
 40
52.0
 40
53.0
 40
53.0
 40
53.0
 40
54.0
 40
54.0
 40
54.0
 40
55.0
 40
55.0
 40
55.0
 40
56.0
 40
56.0
 40
56.0
 40
57.0
 40
57.0
 40
57.0
 40
58.0
 40
58.0
 40
58.0
 40
59.0
 40
59.0
 40
59.0
 40
60.0
 40
60.0
 40
60.0
 40
61.0
 40
61.0
 40
61.0
 40
62.0
 40
62.0
 40
62.0
 40
63.0
 40
63.0
 40
63.0
 40
64.0
 40
64.0
 40
64.0
 40
65.0
 40
65.0
 40
65.0
 40
66.0
 40
66.0
 40
66.0
 40
66.0
 10
130.2852430229842
 20
-150.7373968807184
 30
0.0
 10
130.2852430229842
 20
-150.7373968807184
 30
0.0
 10
129.7267930448252
 20
-150.7373968807184
 30
0.0
 10
129.7267930448252
 20
-150.7373968807184
 30
0.0
 10
129.7164577583695
 20
-150.7818386124782
 30
0.0
 10
129.7078450196564
 20
-150.8135334909424
 30
0.0
 10
129.6950981663609
 20
-150.8514295412802
 30
0.0
 10
129.7205918729518
 20
-150.8514295412802
 30
0.0
 10
129.7354057835383
 20
-150.8538411081199
 30
0.0
 10
129.7416069554118
 20
-150.8538411081199
 30
0.0
 10
129.7416069554118
 20
-150.8538411081199
 30
0.0
 10
129.930053678455
 20
-150.8538411081199
 30
0.0
 10
129.930053678455
 20
-150.8538411081199
 30
0.0
 10
129.930053678455
 20
-150.8538411081199
 30
0.0
 10
130.3045355577016
 20
-150.8538411081199
 30
0.0
 10
130.3045355577016
 20
-150.8538411081199
 30
0.0
 10
130.3551784613348
 20
-150.8538411081199
 30
0.0
 10
130.6387098197709
 20
-150.8410942548245
 30
0.0
 10
130.6704046982352
 20
-150.8410942548245
 30
0.0
 10
130.668337640944
 20
-150.8683105091579
 30
0.0
 10
130.6662705836528
 20
-150.8876030438753
 30
0.0
 10
130.6662705836528
 20
-150.9172308650485
 30
0.0
 10
130.6642035263617
 20
-150.9489257435127
 30
0.0
 10
130.6642035263617
 20
-151.0843179960831
 30
0.0
 10
130.6642035263617
 20
-151.1118787599651
 30
0.0
 10
130.6642035263617
 20
-151.1118787599651
 30
0.0
 10
130.6642035263617
 20
-151.3571695585149
 30
0.0
 10
130.6642035263617
 20
-151.3571695585149
 30
0.0
 10
130.6642035263617
 20
-151.4016112902746
 30
0.0
 10
130.668337640944
 20
-151.5983262424823
 30
0.0
 10
130.6724717555263
 20
-151.7505994629304
 30
0.0
 10
130.6724717555263
 20
-151.7505994629304
 30
0.0
 10
130.4461289821454
 20
-151.7505994629304
 30
0.0
 10
130.4461289821454
 20
-151.7505994629304
 30
0.0
 10
130.4461289821454
 20
-151.7505994629304
 30
0.0
 10
130.4481960394365
 20
-151.7168375271749
 30
0.0
 10
130.4481960394365
 20
-151.7168375271749
 30
0.0
 10
130.4481960394365
 20
-151.7168375271749
 30
0.0
 10
129.7460855795426
 20
-151.7168375271749
 30
0.0
 10
129.7460855795426
 20
-151.7168375271749
 30
0.0
 10
129.7460855795426
 20
-151.7168375271749
 30
0.0
 10
129.7481526368338
 20
-151.7505994629304
 30
0.0
 10
129.7481526368338
 20
-151.7505994629304
 30
0.0
 10
129.7481526368338
 20
-151.7505994629304
 30
0.0
 10
129.5300780926175
 20
-151.7505994629304
 30
0.0
 10
129.5300780926175
 20
-151.7505994629304
 30
0.0
 10
129.5342122071998
 20
-151.6954779351664
 30
0.0
 10
129.5342122071998
 20
-151.6830755914195
 30
0.0
 10
129.5407578886217
 20
-151.5686984213092
 30
0.0
 10
129.5428249459129
 20
-151.5411376574272
 30
0.0
 10
129.544892003204
 20
-151.407812462148
 30
0.0
 10
129.544892003204
 20
-151.3888644369792
 30
0.0
 10
129.544892003204
 20
-151.3888644369792
 30
0.0
 10
129.544892003204
 20
-151.1859483128979
 30
0.0
 10
129.544892003204
 20
-151.1859483128979
 30
0.0
 10
129.4053656360514
 20
-151.43537322603
 30
0.0
 10
129.2362114477257
 20
-151.566631364018
 30
0.0
 10
129.1304470163285
 20
-151.6320881782378
 30
0.0
 10
129.1304470163285
 20
-151.6320881782378
 30
0.0
 10
128.9568142038719
 20
-151.4925618110852
 30
0.0
 10
128.9568142038719
 20
-151.4925618110852
 30
0.0
 10
129.0456976673913
 20
-151.441918907452
 30
0.0
 10
129.1897026586748
 20
-151.3551025012237
 30
0.0
 10
129.3271619685363
 20
-151.1604546063071
 30
0.0
 10
129.4181124893468
 20
-151.0333305829013
 30
0.0
 10
129.4835693035666
 20
-150.8896701011664
 30
0.0
 10
129.517331239322
 20
-150.7373968807184
 30
0.0
 10
129.28892140865
 20
-150.7394639380096
 30
0.0
 10
129.1090874243199
 20
-150.745665109883
 30
0.0
 10
129.014002788927
 20
-150.7477321671742
 30
0.0
 10
129.014002788927
 20
-150.7477321671742
 30
0.0
 10
129.014002788927
 20
-150.5703097496838
 30
0.0
 10
129.014002788927
 20
-150.5703097496838
 30
0.0
 10
129.2107177411348
 20
-150.5765109215572
 30
0.0
 10
129.4942490995709
 20
-150.5806450361395
 30
0.0
 10
129.6444552627278
 20
-150.5806450361395
 30
0.0
 10
129.6444552627278
 20
-150.5806450361395
 30
0.0
 10
129.8580511828133
 20
-150.5806450361395
 30
0.0
 10
129.8580511828133
 20
-150.5806450361395
 30
0.0
 10
129.8580511828133
 20
-150.5806450361395
 30
0.0
 10
129.8580511828133
 20
-150.4728135474512
 30
0.0
 10
129.8580511828133
 20
-150.4728135474512
 30
0.0
 10
129.8580511828133
 20
-150.4728135474512
 30
0.0
 10
129.7119791342387
 20
-150.4728135474512
 30
0.0
 10
129.7119791342387
 20
-150.4728135474512
 30
0.0
 10
129.5428249459129
 20
-150.4728135474512
 30
0.0
 10
129.3736707575871
 20
-150.4769476620335
 30
0.0
 10
129.2065836265525
 20
-150.4834933434555
 30
0.0
 10
129.2065836265525
 20
-150.4834933434555
 30
0.0
 10
129.2065836265525
 20
-150.3122720978386
 30
0.0
 10
129.2065836265525
 20
-150.3122720978386
 30
0.0
 10
129.3609239042917
 20
-150.3226073842943
 30
0.0
 10
129.5469590604952
 20
-150.3226073842943
 30
0.0
 10
129.7119791342387
 20
-150.3226073842943
 30
0.0
 10
129.7119791342387
 20
-150.3226073842943
 30
0.0
 10
129.8580511828133
 20
-150.3226073842943
 30
0.0
 10
129.8580511828133
 20
-150.3226073842943
 30
0.0
 10
129.8580511828133
 20
-150.3226073842943
 30
0.0
 10
129.8580511828133
 20
-150.2040960996017
 30
0.0
 10
129.8580511828133
 20
-150.2040960996017
 30
0.0
 10
129.8580511828133
 20
-150.2040960996017
 30
0.0
 10
129.7267930448252
 20
-150.2040960996017
 30
0.0
 10
129.7267930448252
 20
-150.2040960996017
 30
0.0
 10
129.6802842557744
 20
-150.2040960996017
 30
0.0
 10
129.4773681316931
 20
-150.2127088383149
 30
0.0
 10
129.4349934572245
 20
-150.2127088383149
 30
0.0
 10
129.2317328235948
 20
-150.2168429528972
 30
0.0
 10
129.1555962133708
 20
-150.2189100101883
 30
0.0
 10
129.0773925458556
 20
-150.2209770674794
 30
0.0
 10
129.0773925458556
 20
-150.2209770674794
 30
0.0
 10
129.0773925458556
 20
-150.0370089685671
 30
0.0
 10
129.0773925458556
 20
-150.0370089685671
 30
0.0
 10
129.1917697159659
 20
-150.0456217072803
 30
0.0
 10
129.2362114477257
 20
-150.0456217072803
 30
0.0
 10
129.6189615561369
 20
-150.0538899364449
 30
0.0
 10
129.5555717992083
 20
-149.9588053010519
 30
0.0
 10
129.5280110353263
 20
-149.9312445371699
 30
0.0
 10
129.4921820422797
 20
-149.8954155441234
 30
0.0
 10
129.4921820422797
 20
-149.8954155441234
 30
0.0
 10
129.6675374024789
 20
-149.8127332524774
 30
0.0
 10
129.6675374024789
 20
-149.8127332524774
 30
0.0
 10
129.7078450196564
 20
-149.8489067550725
 30
0.0
 10
129.7522867514161
 20
-149.891281429541
 30
0.0
 10
129.8263563043489
 20
-150.0011799755205
 30
0.0
 10
129.8263563043489
 20
-150.0011799755205
 30
0.0
 10
129.7119791342387
 20
-150.055956993736
 30
0.0
 10
129.7119791342387
 20
-150.055956993736
 30
0.0
 10
129.7119791342387
 20
-150.055956993736
 30
0.0
 10
129.7226589302429
 20
-150.055956993736
 30
0.0
 10
129.7226589302429
 20
-150.055956993736
 30
0.0
 10
129.7226589302429
 20
-150.055956993736
 30
0.0
 10
130.2452799153553
 20
-150.055956993736
 30
0.0
 10
130.2452799153553
 20
-150.055956993736
 30
0.0
 10
130.2452799153553
 20
-150.055956993736
 30
0.0
 10
130.1498507704139
 20
-150.0118597715248
 30
0.0
 10
130.1498507704139
 20
-150.0118597715248
 30
0.0
 10
130.1774115342959
 20
-149.9736192116385
 30
0.0
 10
130.2346001193511
 20
-149.8933484868322
 30
0.0
 10
130.2494140299376
 20
-149.8192789338993
 30
0.0
 10
130.2494140299376
 20
-149.8192789338993
 30
0.0
 10
130.4630099500231
 20
-149.8826686908279
 30
0.0
 10
130.4630099500231
 20
-149.8826686908279
 30
0.0
 10
130.4716226887362
 20
-149.8847357481191
 30
0.0
 10
130.4926377711963
 20
-149.8954155441234
 30
0.0
 10
130.4926377711963
 20
-149.9164306265834
 30
0.0
 10
130.4926377711963
 20
-149.9546711864697
 30
0.0
 10
130.4271809569765
 20
-149.9546711864697
 30
0.0
 10
130.4082329318076
 20
-149.9546711864697
 30
0.0
 10
130.3975531358034
 20
-149.9736192116385
 30
0.0
 10
130.3741264865037
 20
-150.013926828816
 30
0.0
 10
130.3444986653305
 20
-150.0538899364449
 30
0.0
 10
130.744474251168
 20
-150.0476887645714
 30
0.0
 10
130.7741020723412
 20
-150.0456217072803
 30
0.0
 10
130.8502386825652
 20
-150.0390760258583
 30
0.0
 10
130.8502386825652
 20
-150.0390760258583
 30
0.0
 10
130.8502386825652
 20
-150.2209770674794
 30
0.0
 10
130.8502386825652
 20
-150.2209770674794
 30
0.0
 10
130.8312906573963
 20
-150.2209770674794
 30
0.0
 10
130.8057969508055
 20
-150.2189100101883
 30
0.0
 10
130.585655349298
 20
-150.2106417810237
 30
0.0
 10
130.5350124456648
 20
-150.2085747237326
 30
0.0
 10
130.3148708441574
 20
-150.2040960996017
 30
0.0
 10
130.2704291123976
 20
-150.2040960996017
 30
0.0
 10
130.2704291123976
 20
-150.2040960996017
 30
0.0
 10
130.054766135021
 20
-150.2040960996017
 30
0.0
 10
130.054766135021
 20
-150.2040960996017
 30
0.0
 10
130.054766135021
 20
-150.2040960996017
 30
0.0
 10
130.054766135021
 20
-150.3226073842943
 30
0.0
 10
130.054766135021
 20
-150.3226073842943
 30
0.0
 10
130.054766135021
 20
-150.3226073842943
 30
0.0
 10
130.2283989474776
 20
-150.3226073842943
 30
0.0
 10
130.2283989474776
 20
-150.3226073842943
 30
0.0
 10
130.3910074543814
 20
-150.3226073842943
 30
0.0
 10
130.5815212347157
 20
-150.3226073842943
 30
0.0
 10
130.7382730792946
 20
-150.3122720978386
 30
0.0
 10
130.7382730792946
 20
-150.3122720978386
 30
0.0
 10
130.7382730792946
 20
-150.4834933434555
 30
0.0
 10
130.7382730792946
 20
-150.4834933434555
 30
0.0
 10
130.5288112737914
 20
-150.4748806047424
 30
0.0
 10
130.3320963215836
 20
-150.4728135474512
 30
0.0
 10
130.2283989474776
 20
-150.4728135474512
 30
0.0
 10
130.2283989474776
 20
-150.4728135474512
 30
0.0
 10
130.054766135021
 20
-150.4728135474512
 30
0.0
 10
130.054766135021
 20
-150.4728135474512
 30
0.0
 10
130.054766135021
 20
-150.4728135474512
 30
0.0
 10
130.054766135021
 20
-150.5806450361395
 30
0.0
 10
130.054766135021
 20
-150.5806450361395
 30
0.0
 10
130.054766135021
 20
-150.5806450361395
 30
0.0
 10
130.2852430229842
 20
-150.5806450361395
 30
0.0
 10
130.2852430229842
 20
-150.5806450361395
 30
0.0
 10
130.4185682182634
 20
-150.5806450361395
 30
0.0
 10
130.7062336912817
 20
-150.5765109215572
 30
0.0
 10
130.9156954967849
 20
-150.5703097496838
 30
0.0
 10
130.9156954967849
 20
-150.5703097496838
 30
0.0
 10
130.9156954967849
 20
-150.7477321671742
 30
0.0
 10
130.9156954967849
 20
-150.7477321671742
 30
0.0
 10
130.723459168708
 20
-150.7415309953007
 30
0.0
 10
130.4102999890988
 20
-150.7373968807184
 30
0.0
 10
130.2852430229842
 20
-150.7373968807184
 30
0.0
  0
HATCH
  5
15C
330
150
100
AcDbEntity
  8
レイヤー 1
 62
    18
420
        0
440
 33554687
100
AcDbHatch
 10
0.0
 20
0.0
 30
0.0
210
0.0
220
0.0
230
1.0
  2
SOLID
 70
     1
 71
     1
 91
        4
 92
        1
 93
        1
 72
     4
 94
        3
 73
     0
 74
     0
 95
       17
 96
       13
 40
0.0
 40
0.0
 40
0.0
 40
0.0
 40
1.0
 40
1.0
 40
1.0
 40
2.0
 40
2.0
 40
2.0
 40
3.0
 40
3.0
 40
3.0
 40
4.0
 40
4.0
 40
4.0
 40
4.0
 10
130.4502630967277
 20
-151.4691351617855
 10
130.4502630967277
 20
-151.4691351617855
 10
129.7436740127029
 20
-151.4691351617855
 10
129.7436740127029
 20
-151.4691351617855
 10
129.7436740127029
 20
-151.4691351617855
 10
129.7436740127029
 20
-151.5835123318958
 10
129.7436740127029
 20
-151.5835123318958
 10
129.7436740127029
 20
-151.5835123318958
 10
130.4502630967277
 20
-151.5835123318958
 10
130.4502630967277
 20
-151.5835123318958
 10
130.4502630967277
 20
-151.5835123318958
 10
130.4502630967277
 20
-151.4691351617855
 10
130.4502630967277
 20
-151.4691351617855
 97
        0
 97
        1
330
158
 92
        1
 93
        1
 72
     4
 94
        3
 73
     0
 74
     0
 95
       17
 96
       13
 40
0.0
 40
0.0
 40
0.0
 40
0.0
 40
1.0
 40
1.0
 40
1.0
 40
2.0
 40
2.0
 40
2.0
 40
3.0
 40
3.0
 40
3.0
 40
4.0
 40
4.0
 40
4.0
 40
4.0
 10
130.4502630967277
 20
-151.2259114205269
 10
130.4502630967277
 20
-151.2259114205269
 10
129.7436740127029
 20
-151.2259114205269
 10
129.7436740127029
 20
-151.2259114205269
 10
129.7436740127029
 20
-151.2259114205269
 10
129.7436740127029
 20
-151.3402885906371
 10
129.7436740127029
 20
-151.3402885906371
 10
129.7436740127029
 20
-151.3402885906371
 10
130.4502630967277
 20
-151.3402885906371
 10
130.4502630967277
 20
-151.3402885906371
 10
130.4502630967277
 20
-151.3402885906371
 10
130.4502630967277
 20
-151.2259114205269
 10
130.4502630967277
 20
-151.2259114205269
 97
        0
 97
        1
330
159
 92
        1
 93
        1
 72
     4
 94
        3
 73
     0
 74
     0
 95
       17
 96
       13
 40
0.0
 40
0.0
 40
0.0
 40
0.0
 40
1.0
 40
1.0
 40
1.0
 40
2.0
 40
2.0
 40
2.0
 40
3.0
 40
3.0
 40
3.0
 40
4.0
 40
4.0
 40
4.0
 40
4.0
 10
130.4502630967277
 20
-150.9933674752725
 10
130.4502630967277
 20
-150.9933674752725
 10
129.7436740127029
 20
-150.9933674752725
 10
129.7436740127029
 20
-150.9933674752725
 10
129.7436740127029
 20
-150.9933674752725
 10
129.7436740127029
 20
-151.1011989639608
 10
129.7436740127029
 20
-151.1011989639608
 10
129.7436740127029
 20
-151.1011989639608
 10
130.4502630967277
 20
-151.1011989639608
 10
130.4502630967277
 20
-151.1011989639608
 10
130.4502630967277
 20
-151.1011989639608
 10
130.4502630967277
 20
-150.9933674752725
 10
130.4502630967277
 20
-150.9933674752725
 97
        0
 97
        1
330
15A
 92
        1
 93
        1
 72
     4
 94
        3
 73
     0
 74
     0
 95
      203
 96
      199
 40
0.0
 40
0.0
 40
0.0
 40
0.0
 40
1.0
 40
1.0
 40
1.0
 40
2.0
 40
2.0
 40
2.0
 40
3.0
 40
3.0
 40
3.0
 40
4.0
 40
4.0
 40
4.0
 40
5.0
 40
5.0
 40
5.0
 40
6.0
 40
6.0
 40
6.0
 40
7.0
 40
7.0
 40
7.0
 40
8.0
 40
8.0
 40
8.0
 40
9.0
 40
9.0
 40
9.0
 40
10.0
 40
10.0
 40
10.0
 40
11.0
 40
11.0
 40
11.0
 40
12.0
 40
12.0
 40
12.0
 40
13.0
 40
13.0
 40
13.0
 40
14.0
 40
14.0
 40
14.0
 40
15.0
 40
15.0
 40
15.0
 40
16.0
 40
16.0
 40
16.0
 40
17.0
 40
17.0
 40
17.0
 40
18.0
 40
18.0
 40
18.0
 40
19.0
 40
19.0
 40
19.0
 40
20.0
 40
20.0
 40
20.0
 40
21.0
 40
21.0
 40
21.0
 40
22.0
 40
22.0
 40
22.0
 40
23.0
 40
23.0
 40
23.0
 40
24.0
 40
24.0
 40
24.0
 40
25.0
 40
25.0
 40
25.0
 40
26.0
 40
26.0
 40
26.0
 40
27.0
 40
27.0
 40
27.0
 40
28.0
 40
28.0
 40
28.0
 40
29.0
 40
29.0
 40
29.0
 40
30.0
 40
30.0
 40
30.0
 40
31.0
 40
31.0
 40
31.0
 40
32.0
 40
32.0
 40
32.0
 40
33.0
 40
33.0
 40
33.0
 40
34.0
 40
34.0
 40
34.0
 40
35.0
 40
35.0
 40
35.0
 40
36.0
 40
36.0
 40
36.0
 40
37.0
 40
37.0
 40
37.0
 40
38.0
 40
38.0
 40
38.0
 40
39.0
 40
39.0
 40
39.0
 40
40.0
 40
40.0
 40
40.0
 40
41.0
 40
41.0
 40
41.0
 40
42.0
 40
42.0
 40
42.0
 40
43.0
 40
43.0
 40
43.0
 40
44.0
 40
44.0
 40
44.0
 40
45.0
 40
45.0
 40
45.0
 40
46.0
 40
46.0
 40
46.0
 40
47.0
 40
47.0
 40
47.0
 40
48.0
 40
48.0
 40
48.0
 40
49.0
 40
49.0
 40
49.0
 40
50.0
 40
50.0
 40
50.0
 40
51.0
 40
51.0
 40
51.0
 40
52.0
 40
52.0
 40
52.0
 40
53.0
 40
53.0
 40
53.0
 40
54.0
 40
54.0
 40
54.0
 40
55.0
 40
55.0
 40
55.0
 40
56.0
 40
56.0
 40
56.0
 40
57.0
 40
57.0
 40
57.0
 40
58.0
 40
58.0
 40
58.0
 40
59.0
 40
59.0
 40
59.0
 40
60.0
 40
60.0
 40
60.0
 40
61.0
 40
61.0
 40
61.0
 40
62.0
 40
62.0
 40
62.0
 40
63.0
 40
63.0
 40
63.0
 40
64.0
 40
64.0
 40
64.0
 40
65.0
 40
65.0
 40
65.0
 40
66.0
 40
66.0
 40
66.0
 40
66.0
 10
130.2852430229842
 20
-150.7373968807184
 10
130.2852430229842
 20
-150.7373968807184
 10
129.7267930448252
 20
-150.7373968807184
 10
129.7267930448252
 20
-150.7373968807184
 10
129.7164577583695
 20
-150.7818386124782
 10
129.7078450196564
 20
-150.8135334909424
 10
129.6950981663609
 20
-150.8514295412802
 10
129.7205918729518
 20
-150.8514295412802
 10
129.7354057835383
 20
-150.8538411081199
 10
129.7416069554118
 20
-150.8538411081199
 10
129.7416069554118
 20
-150.8538411081199
 10
129.930053678455
 20
-150.8538411081199
 10
129.930053678455
 20
-150.8538411081199
 10
129.930053678455
 20
-150.8538411081199
 10
130.3045355577016
 20
-150.8538411081199
 10
130.3045355577016
 20
-150.8538411081199
 10
130.3551784613348
 20
-150.8538411081199
 10
130.6387098197709
 20
-150.8410942548245
 10
130.6704046982352
 20
-150.8410942548245
 10
130.668337640944
 20
-150.8683105091579
 10
130.6662705836528
 20
-150.8876030438753
 10
130.6662705836528
 20
-150.9172308650485
 10
130.6642035263617
 20
-150.9489257435127
 10
130.6642035263617
 20
-151.0843179960831
 10
130.6642035263617
 20
-151.1118787599651
 10
130.6642035263617
 20
-151.1118787599651
 10
130.6642035263617
 20
-151.3571695585149
 10
130.6642035263617
 20
-151.3571695585149
 10
130.6642035263617
 20
-151.4016112902746
 10
130.668337640944
 20
-151.5983262424823
 10
130.6724717555263
 20
-151.7505994629304
 10
130.6724717555263
 20
-151.7505994629304
 10
130.4461289821454
 20
-151.7505994629304
 10
130.4461289821454
 20
-151.7505994629304
 10
130.4461289821454
 20
-151.7505994629304
 10
130.4481960394365
 20
-151.7168375271749
 10
130.4481960394365
 20
-151.7168375271749
 10
130.4481960394365
 20
-151.7168375271749
 10
129.7460855795426
 20
-151.7168375271749
 10
129.7460855795426
 20
-151.7168375271749
 10
129.7460855795426
 20
-151.7168375271749
 10
129.7481526368338
 20
-151.7505994629304
 10
129.7481526368338
 20
-151.7505994629304
 10
129.7481526368338
 20
-151.7505994629304
 10
129.5300780926175
 20
-151.7505994629304
 10
129.5300780926175
 20
-151.7505994629304
 10
129.5342122071998
 20
-151.6954779351664
 10
129.5342122071998
 20
-151.6830755914195
 10
129.5407578886217
 20
-151.5686984213092
 10
129.5428249459129
 20
-151.5411376574272
 10
129.544892003204
 20
-151.407812462148
 10
129.544892003204
 20
-151.3888644369792
 10
129.544892003204
 20
-151.3888644369792
 10
129.544892003204
 20
-151.1859483128979
 10
129.544892003204
 20
-151.1859483128979
 10
129.4053656360514
 20
-151.43537322603
 10
129.2362114477257
 20
-151.566631364018
 10
129.1304470163285
 20
-151.6320881782378
 10
129.1304470163285
 20
-151.6320881782378
 10
128.9568142038719
 20
-151.4925618110852
 10
128.9568142038719
 20
-151.4925618110852
 10
129.0456976673913
 20
-151.441918907452
 10
129.1897026586748
 20
-151.3551025012237
 10
129.3271619685363
 20
-151.1604546063071
 10
129.4181124893468
 20
-151.0333305829013
 10
129.4835693035666
 20
-150.8896701011664
 10
129.517331239322
 20
-150.7373968807184
 10
129.28892140865
 20
-150.7394639380096
 10
129.1090874243199
 20
-150.745665109883
 10
129.014002788927
 20
-150.7477321671742
 10
129.014002788927
 20
-150.7477321671742
 10
129.014002788927
 20
-150.5703097496838
 10
129.014002788927
 20
-150.5703097496838
 10
129.2107177411348
 20
-150.5765109215572
 10
129.4942490995709
 20
-150.5806450361395
 10
129.6444552627278
 20
-150.5806450361395
 10
129.6444552627278
 20
-150.5806450361395
 10
129.8580511828133
 20
-150.5806450361395
 10
129.8580511828133
 20
-150.5806450361395
 10
129.8580511828133
 20
-150.5806450361395
 10
129.8580511828133
 20
-150.4728135474512
 10
129.8580511828133
 20
-150.4728135474512
 10
129.8580511828133
 20
-150.4728135474512
 10
129.7119791342387
 20
-150.4728135474512
 10
129.7119791342387
 20
-150.4728135474512
 10
129.5428249459129
 20
-150.4728135474512
 10
129.3736707575871
 20
-150.4769476620335
 10
129.2065836265525
 20
-150.4834933434555
 10
129.2065836265525
 20
-150.4834933434555
 10
129.2065836265525
 20
-150.3122720978386
 10
129.2065836265525
 20
-150.3122720978386
 10
129.3609239042917
 20
-150.3226073842943
 10
129.5469590604952
 20
-150.3226073842943
 10
129.7119791342387
 20
-150.3226073842943
 10
129.7119791342387
 20
-150.3226073842943
 10
129.8580511828133
 20
-150.3226073842943
 10
129.8580511828133
 20
-150.3226073842943
 10
129.8580511828133
 20
-150.3226073842943
 10
129.8580511828133
 20
-150.2040960996017
 10
129.8580511828133
 20
-150.2040960996017
 10
129.8580511828133
 20
-150.2040960996017
 10
129.7267930448252
 20
-150.2040960996017
 10
129.7267930448252
 20
-150.2040960996017
 10
129.6802842557744
 20
-150.2040960996017
 10
129.4773681316931
 20
-150.2127088383149
 10
129.4349934572245
 20
-150.2127088383149
 10
129.2317328235948
 20
-150.2168429528972
 10
129.1555962133708
 20
-150.2189100101883
 10
129.0773925458556
 20
-150.2209770674794
 10
129.0773925458556
 20
-150.2209770674794
 10
129.0773925458556
 20
-150.0370089685671
 10
129.0773925458556
 20
-150.0370089685671
 10
129.1917697159659
 20
-150.0456217072803
 10
129.2362114477257
 20
-150.0456217072803
 10
129.6189615561369
 20
-150.0538899364449
 10
129.5555717992083
 20
-149.9588053010519
 10
129.5280110353263
 20
-149.9312445371699
 10
129.4921820422797
 20
-149.8954155441234
 10
129.4921820422797
 20
-149.8954155441234
 10
129.6675374024789
 20
-149.8127332524774
 10
129.6675374024789
 20
-149.8127332524774
 10
129.7078450196564
 20
-149.8489067550725
 10
129.7522867514161
 20
-149.891281429541
 10
129.8263563043489
 20
-150.0011799755205
 10
129.8263563043489
 20
-150.0011799755205
 10
129.7119791342387
 20
-150.055956993736
 10
129.7119791342387
 20
-150.055956993736
 10
129.7119791342387
 20
-150.055956993736
 10
129.7226589302429
 20
-150.055956993736
 10
129.7226589302429
 20
-150.055956993736
 10
129.7226589302429
 20
-150.055956993736
 10
130.2452799153553
 20
-150.055956993736
 10
130.2452799153553
 20
-150.055956993736
 10
130.2452799153553
 20
-150.055956993736
 10
130.1498507704139
 20
-150.0118597715248
 10
130.1498507704139
 20
-150.0118597715248
 10
130.1774115342959
 20
-149.9736192116385
 10
130.2346001193511
 20
-149.8933484868322
 10
130.2494140299376
 20
-149.8192789338993
 10
130.2494140299376
 20
-149.8192789338993
 10
130.4630099500231
 20
-149.8826686908279
 10
130.4630099500231
 20
-149.8826686908279
 10
130.4716226887362
 20
-149.8847357481191
 10
130.4926377711963
 20
-149.8954155441234
 10
130.4926377711963
 20
-149.9164306265834
 10
130.4926377711963
 20
-149.9546711864697
 10
130.4271809569765
 20
-149.9546711864697
 10
130.4082329318076
 20
-149.9546711864697
 10
130.3975531358034
 20
-149.9736192116385
 10
130.3741264865037
 20
-150.013926828816
 10
130.3444986653305
 20
-150.0538899364449
 10
130.744474251168
 20
-150.0476887645714
 10
130.7741020723412
 20
-150.0456217072803
 10
130.8502386825652
 20
-150.0390760258583
 10
130.8502386825652
 20
-150.0390760258583
 10
130.8502386825652
 20
-150.2209770674794
 10
130.8502386825652
 20
-150.2209770674794
 10
130.8312906573963
 20
-150.2209770674794
 10
130.8057969508055
 20
-150.2189100101883
 10
130.585655349298
 20
-150.2106417810237
 10
130.5350124456648
 20
-150.2085747237326
 10
130.3148708441574
 20
-150.2040960996017
 10
130.2704291123976
 20
-150.2040960996017
 10
130.2704291123976
 20
-150.2040960996017
 10
130.054766135021
 20
-150.2040960996017
 10
130.054766135021
 20
-150.2040960996017
 10
130.054766135021
 20
-150.2040960996017
 10
130.054766135021
 20
-150.3226073842943
 10
130.054766135021
 20
-150.3226073842943
 10
130.054766135021
 20
-150.3226073842943
 10
130.2283989474776
 20
-150.3226073842943
 10
130.2283989474776
 20
-150.3226073842943
 10
130.3910074543814
 20
-150.3226073842943
 10
130.5815212347157
 20
-150.3226073842943
 10
130.7382730792946
 20
-150.3122720978386
 10
130.7382730792946
 20
-150.3122720978386
 10
130.7382730792946
 20
-150.4834933434555
 10
130.7382730792946
 20
-150.4834933434555
 10
130.5288112737914
 20
-150.4748806047424
 10
130.3320963215836
 20
-150.4728135474512
 10
130.2283989474776
 20
-150.4728135474512
 10
130.2283989474776
 20
-150.4728135474512
 10
130.054766135021
 20
-150.4728135474512
 10
130.054766135021
 20
-150.4728135474512
 10
130.054766135021
 20
-150.4728135474512
 10
130.054766135021
 20
-150.5806450361395
 10
130.054766135021
 20
-150.5806450361395
 10
130.054766135021
 20
-150.5806450361395
 10
130.2852430229842
 20
-150.5806450361395
 10
130.2852430229842
 20
-150.5806450361395
 10
130.4185682182634
 20
-150.5806450361395
 10
130.7062336912817
 20
-150.5765109215572
 10
130.9156954967849
 20
-150.5703097496838
 10
130.9156954967849
 20
-150.5703097496838
 10
130.9156954967849
 20
-150.7477321671742
 10
130.9156954967849
 20
-150.7477321671742
 10
130.723459168708
 20
-150.7415309953007
 10
130.4102999890988
 20
-150.7373968807184
 10
130.2852430229842
 20
-150.7373968807184
 97
        0
 97
        1
330
15B
 75
     2
 76
     1
 98
        1
 10
0.0
 20
0.0
450
        0
451
        0
460
0.0
461
0.0
452
        0
462
0.0
453
        0
470

  0
SPLINE
  5
15D
330
150
100
AcDbEntity
  8
レイヤー 1
100
AcDbSpline
210
0.0
220
0.0
230
1.0
 70
     9
 71
     3
 72
    29
 73
    25
 74
     0
 42
0.0000000001
 43
0.0000000001
 40
0.0
 40
0.0
 40
0.0
 40
0.0
 40
1.0
 40
1.0
 40
1.0
 40
2.0
 40
2.0
 40
2.0
 40
3.0
 40
3.0
 40
3.0
 40
4.0
 40
4.0
 40
4.0
 40
5.0
 40
5.0
 40
5.0
 40
6.0
 40
6.0
 40
6.0
 40
7.0
 40
7.0
 40
7.0
 40
8.0
 40
8.0
 40
8.0
 40
8.0
 10
132.1607530051542
 20
-150.1851480744329
 30
0.0
 10
132.1607530051542
 20
-150.1851480744329
 30
0.0
 10
131.8076307179161
 20
-150.1851480744329
 30
0.0
 10
131.8076307179161
 20
-150.1851480744329
 30
0.0
 10
131.695320605097
 20
-150.1851480744329
 30
0.0
 10
131.5557942379444
 20
-150.1916937558548
 30
0.0
 10
131.447962749256
 20
-150.2040960996017
 30
0.0
 10
131.447962749256
 20
-150.2040960996017
 30
0.0
 10
131.447962749256
 20
-149.9694850970562
 30
0.0
 10
131.447962749256
 20
-149.9694850970562
 30
0.0
 10
131.5664740339486
 20
-149.9842990076428
 30
0.0
 10
131.750442132861
 20
-149.9884331222251
 30
0.0
 10
131.8076307179161
 20
-149.9884331222251
 30
0.0
 10
131.8076307179161
 20
-149.9884331222251
 30
0.0
 10
132.1607530051542
 20
-149.9884331222251
 30
0.0
 10
132.1607530051542
 20
-149.9884331222251
 30
0.0
 10
132.1800455398716
 20
-149.9884331222251
 30
0.0
 10
132.3829616639528
 20
-149.9884331222251
 30
0.0
 10
132.5245550883966
 20
-149.9694850970562
 30
0.0
 10
132.5245550883966
 20
-149.9694850970562
 30
0.0
 10
132.5245550883966
 20
-150.2040960996017
 30
0.0
 10
132.5245550883966
 20
-150.2040960996017
 30
0.0
 10
132.3681477533663
 20
-150.1851480744329
 30
0.0
 10
132.177633973032
 20
-150.1851480744329
 30
0.0
 10
132.1607530051542
 20
-150.1851480744329
 30
0.0
  0
SPLINE
  5
15E
330
150
100
AcDbEntity
  8
レイヤー 1
100
AcDbSpline
210
0.0
220
0.0
230
1.0
 70
     9
 71
     3
 72
    47
 73
    43
 74
     0
 42
0.0000000001
 43
0.0000000001
 40
0.0
 40
0.0
 40
0.0
 40
0.0
 40
1.0
 40
1.0
 40
1.0
 40
2.0
 40
2.0
 40
2.0
 40
3.0
 40
3.0
 40
3.0
 40
4.0
 40
4.0
 40
4.0
 40
5.0
 40
5.0
 40
5.0
 40
6.0
 40
6.0
 40
6.0
 40
7.0
 40
7.0
 40
7.0
 40
8.0
 40
8.0
 40
8.0
 40
9.0
 40
9.0
 40
9.0
 40
10.0
 40
10.0
 40
10.0
 40
11.0
 40
11.0
 40
11.0
 40
12.0
 40
12.0
 40
12.0
 40
13.0
 40
13.0
 40
13.0
 40
14.0
 40
14.0
 40
14.0
 40
14.0
 10
132.2623833219691
 20
-150.7139702314187
 30
0.0
 10
132.2623833219691
 20
-150.7139702314187
 30
0.0
 10
132.1607530051542
 20
-150.7139702314187
 30
0.0
 10
132.1607530051542
 20
-150.7139702314187
 30
0.0
 10
132.1607530051542
 20
-150.800786637647
 30
0.0
 10
132.1397379226942
 20
-151.1900824274802
 30
0.0
 10
131.9430229704865
 20
-151.4098795194392
 30
0.0
 10
131.7907497500384
 20
-151.5793782173135
 30
0.0
 10
131.5833550018264
 20
-151.6489691461155
 30
0.0
 10
131.4986056528892
 20
-151.6765299099975
 30
0.0
 10
131.4986056528892
 20
-151.6765299099975
 30
0.0
 10
131.3039577579726
 20
-151.5094427789629
 30
0.0
 10
131.3039577579726
 20
-151.5094427789629
 30
0.0
 10
131.4014539602052
 20
-151.4966959256675
 30
0.0
 10
131.5768093204044
 20
-151.4736137859163
 30
0.0
 10
131.7652560434475
 20
-151.2851670628732
 30
0.0
 10
131.8393255963804
 20
-151.2131645672314
 30
0.0
 10
131.9430229704865
 20
-151.0736382000788
 30
0.0
 10
131.9430229704865
 20
-150.7139702314187
 30
0.0
 10
131.9430229704865
 20
-150.7139702314187
 30
0.0
 10
131.7122015729747
 20
-150.7139702314187
 30
0.0
 10
131.7122015729747
 20
-150.7139702314187
 30
0.0
 10
131.5261664167712
 20
-150.7139702314187
 30
0.0
 10
131.3401312605677
 20
-150.7184488555495
 30
0.0
 10
131.1537515948157
 20
-150.7332627661361
 30
0.0
 10
131.1537515948157
 20
-150.7332627661361
 30
0.0
 10
131.1537515948157
 20
-150.5131211646286
 30
0.0
 10
131.1537515948157
 20
-150.5131211646286
 30
0.0
 10
131.3421983178589
 20
-150.5279350752152
 30
0.0
 10
131.6277967335861
 20
-150.5320691897975
 30
0.0
 10
131.7122015729747
 20
-150.5320691897975
 30
0.0
 10
131.7122015729747
 20
-150.5320691897975
 30
0.0
 10
132.2623833219691
 20
-150.5320691897975
 30
0.0
 10
132.2623833219691
 20
-150.5320691897975
 30
0.0
 10
132.281331347138
 20
-150.5320691897975
 30
0.0
 10
132.5986246413295
 20
-150.5320691897975
 30
0.0
 10
132.8273789815501
 20
-150.5131211646286
 30
0.0
 10
132.8273789815501
 20
-150.5131211646286
 30
0.0
 10
132.8273789815501
 20
-150.7332627661361
 30
0.0
 10
132.8273789815501
 20
-150.7332627661361
 30
0.0
 10
132.6389322585069
 20
-150.7184488555495
 30
0.0
 10
132.4508300450123
 20
-150.7139702314187
 30
0.0
 10
132.2623833219691
 20
-150.7139702314187
 30
0.0
  0
HATCH
  5
15F
330
150
100
AcDbEntity
  8
レイヤー 1
 62
    18
420
        0
440
 33554687
100
AcDbHatch
 10
0.0
 20
0.0
 30
0.0
210
0.0
220
0.0
230
1.0
  2
SOLID
 70
     1
 71
     1
 91
        2
 92
        1
 93
        1
 72
     4
 94
        3
 73
     0
 74
     0
 95
       29
 96
       25
 40
0.0
 40
0.0
 40
0.0
 40
0.0
 40
1.0
 40
1.0
 40
1.0
 40
2.0
 40
2.0
 40
2.0
 40
3.0
 40
3.0
 40
3.0
 40
4.0
 40
4.0
 40
4.0
 40
5.0
 40
5.0
 40
5.0
 40
6.0
 40
6.0
 40
6.0
 40
7.0
 40
7.0
 40
7.0
 40
8.0
 40
8.0
 40
8.0
 40
8.0
 10
132.1607530051542
 20
-150.1851480744329
 10
132.1607530051542
 20
-150.1851480744329
 10
131.8076307179161
 20
-150.1851480744329
 10
131.8076307179161
 20
-150.1851480744329
 10
131.695320605097
 20
-150.1851480744329
 10
131.5557942379444
 20
-150.1916937558548
 10
131.447962749256
 20
-150.2040960996017
 10
131.447962749256
 20
-150.2040960996017
 10
131.447962749256
 20
-149.9694850970562
 10
131.447962749256
 20
-149.9694850970562
 10
131.5664740339486
 20
-149.9842990076428
 10
131.750442132861
 20
-149.9884331222251
 10
131.8076307179161
 20
-149.9884331222251
 10
131.8076307179161
 20
-149.9884331222251
 10
132.1607530051542
 20
-149.9884331222251
 10
132.1607530051542
 20
-149.9884331222251
 10
132.1800455398716
 20
-149.9884331222251
 10
132.3829616639528
 20
-149.9884331222251
 10
132.5245550883966
 20
-149.9694850970562
 10
132.5245550883966
 20
-149.9694850970562
 10
132.5245550883966
 20
-150.2040960996017
 10
132.5245550883966
 20
-150.2040960996017
 10
132.3681477533663
 20
-150.1851480744329
 10
132.177633973032
 20
-150.1851480744329
 10
132.1607530051542
 20
-150.1851480744329
 97
        0
 97
        1
330
15D
 92
        1
 93
        1
 72
     4
 94
        3
 73
     0
 74
     0
 95
       47
 96
       43
 40
0.0
 40
0.0
 40
0.0
 40
0.0
 40
1.0
 40
1.0
 40
1.0
 40
2.0
 40
2.0
 40
2.0
 40
3.0
 40
3.0
 40
3.0
 40
4.0
 40
4.0
 40
4.0
 40
5.0
 40
5.0
 40
5.0
 40
6.0
 40
6.0
 40
6.0
 40
7.0
 40
7.0
 40
7.0
 40
8.0
 40
8.0
 40
8.0
 40
9.0
 40
9.0
 40
9.0
 40
10.0
 40
10.0
 40
10.0
 40
11.0
 40
11.0
 40
11.0
 40
12.0
 40
12.0
 40
12.0
 40
13.0
 40
13.0
 40
13.0
 40
14.0
 40
14.0
 40
14.0
 40
14.0
 10
132.2623833219691
 20
-150.7139702314187
 10
132.2623833219691
 20
-150.7139702314187
 10
132.1607530051542
 20
-150.7139702314187
 10
132.1607530051542
 20
-150.7139702314187
 10
132.1607530051542
 20
-150.800786637647
 10
132.1397379226942
 20
-151.1900824274802
 10
131.9430229704865
 20
-151.4098795194392
 10
131.7907497500384
 20
-151.5793782173135
 10
131.5833550018264
 20
-151.6489691461155
 10
131.4986056528892
 20
-151.6765299099975
 10
131.4986056528892
 20
-151.6765299099975
 10
131.3039577579726
 20
-151.5094427789629
 10
131.3039577579726
 20
-151.5094427789629
 10
131.4014539602052
 20
-151.4966959256675
 10
131.5768093204044
 20
-151.4736137859163
 10
131.7652560434475
 20
-151.2851670628732
 10
131.8393255963804
 20
-151.2131645672314
 10
131.9430229704865
 20
-151.0736382000788
 10
131.9430229704865
 20
-150.7139702314187
 10
131.9430229704865
 20
-150.7139702314187
 10
131.7122015729747
 20
-150.7139702314187
 10
131.7122015729747
 20
-150.7139702314187
 10
131.5261664167712
 20
-150.7139702314187
 10
131.3401312605677
 20
-150.7184488555495
 10
131.1537515948157
 20
-150.7332627661361
 10
131.1537515948157
 20
-150.7332627661361
 10
131.1537515948157
 20
-150.5131211646286
 10
131.1537515948157
 20
-150.5131211646286
 10
131.3421983178589
 20
-150.5279350752152
 10
131.6277967335861
 20
-150.5320691897975
 10
131.7122015729747
 20
-150.5320691897975
 10
131.7122015729747
 20
-150.5320691897975
 10
132.2623833219691
 20
-150.5320691897975
 10
132.2623833219691
 20
-150.5320691897975
 10
132.281331347138
 20
-150.5320691897975
 10
132.5986246413295
 20
-150.5320691897975
 10
132.8273789815501
 20
-150.5131211646286
 10
132.8273789815501
 20
-150.5131211646286
 10
132.8273789815501
 20
-150.7332627661361
 10
132.8273789815501
 20
-150.7332627661361
 10
132.6389322585069
 20
-150.7184488555495
 10
132.4508300450123
 20
-150.7139702314187
 10
132.2623833219691
 20
-150.7139702314187
 97
        0
 97
        1
330
15E
 75
     2
 76
     1
 98
        1
 10
0.0
 20
0.0
450
        0
451
        0
460
0.0
461
0.0
452
        0
462
0.0
453
        0
470

  0
SPLINE
  5
160
330
150
100
AcDbEntity
  8
レイヤー 1
100
AcDbSpline
210
0.0
220
0.0
230
1.0
 70
     9
 71
     3
 72
    29
 73
    25
 74
     0
 42
0.0000000001
 43
0.0000000001
 40
0.0
 40
0.0
 40
0.0
 40
0.0
 40
1.0
 40
1.0
 40
1.0
 40
2.0
 40
2.0
 40
2.0
 40
3.0
 40
3.0
 40
3.0
 40
4.0
 40
4.0
 40
4.0
 40
5.0
 40
5.0
 40
5.0
 40
6.0
 40
6.0
 40
6.0
 40
7.0
 40
7.0
 40
7.0
 40
8.0
 40
8.0
 40
8.0
 40
8.0
 10
134.108265482966
 20
-150.876923247871
 30
0.0
 10
134.108265482966
 20
-150.876923247871
 30
0.0
 10
133.6238850577398
 20
-150.876923247871
 30
0.0
 10
133.6238850577398
 20
-150.876923247871
 30
0.0
 10
133.5963242938578
 20
-150.876923247871
 30
0.0
 10
133.2790309996663
 20
-150.876923247871
 30
0.0
 10
133.067502136872
 20
-150.9024169544619
 30
0.0
 10
133.067502136872
 20
-150.9024169544619
 30
0.0
 10
133.067502136872
 20
-150.6715955569501
 30
0.0
 10
133.067502136872
 20
-150.6715955569501
 30
0.0
 10
133.2259765291935
 20
-150.6950222062498
 30
0.0
 10
133.4164903095278
 20
-150.697089263541
 30
0.0
 10
133.6238850577398
 20
-150.697089263541
 30
0.0
 10
133.6238850577398
 20
-150.697089263541
 30
0.0
 10
134.108265482966
 20
-150.697089263541
 30
0.0
 10
134.108265482966
 20
-150.697089263541
 30
0.0
 10
134.2943006391694
 20
-150.697089263541
 30
0.0
 10
134.4803357953729
 20
-150.6950222062498
 30
0.0
 10
134.6646484038338
 20
-150.6715955569501
 30
0.0
 10
134.6646484038338
 20
-150.6715955569501
 30
0.0
 10
134.6646484038338
 20
-150.9024169544619
 30
0.0
 10
134.6646484038338
 20
-150.9024169544619
 30
0.0
 10
134.4803357953729
 20
-150.8789903051622
 30
0.0
 10
134.232977939532
 20
-150.876923247871
 30
0.0
 10
134.108265482966
 20
-150.876923247871
 30
0.0
  0
HATCH
  5
161
330
150
100
AcDbEntity
  8
レイヤー 1
 62
    18
420
        0
440
 33554687
100
AcDbHatch
 10
0.0
 20
0.0
 30
0.0
210
0.0
220
0.0
230
1.0
  2
SOLID
 70
     1
 71
     1
 91
        1
 92
        1
 93
        1
 72
     4
 94
        3
 73
     0
 74
     0
 95
       29
 96
       25
 40
0.0
 40
0.0
 40
0.0
 40
0.0
 40
1.0
 40
1.0
 40
1.0
 40
2.0
 40
2.0
 40
2.0
 40
3.0
 40
3.0
 40
3.0
 40
4.0
 40
4.0
 40
4.0
 40
5.0
 40
5.0
 40
5.0
 40
6.0
 40
6.0
 40
6.0
 40
7.0
 40
7.0
 40
7.0
 40
8.0
 40
8.0
 40
8.0
 40
8.0
 10
134.108265482966
 20
-150.876923247871
 10
134.108265482966
 20
-150.876923247871
 10
133.6238850577398
 20
-150.876923247871
 10
133.6238850577398
 20
-150.876923247871
 10
133.5963242938578
 20
-150.876923247871
 10
133.2790309996663
 20
-150.876923247871
 10
133.067502136872
 20
-150.9024169544619
 10
133.067502136872
 20
-150.9024169544619
 10
133.067502136872
 20
-150.6715955569501
 10
133.067502136872
 20
-150.6715955569501
 10
133.2259765291935
 20
-150.6950222062498
 10
133.4164903095278
 20
-150.697089263541
 10
133.6238850577398
 20
-150.697089263541
 10
133.6238850577398
 20
-150.697089263541
 10
134.108265482966
 20
-150.697089263541
 10
134.108265482966
 20
-150.697089263541
 10
134.2943006391694
 20
-150.697089263541
 10
134.4803357953729
 20
-150.6950222062498
 10
134.6646484038338
 20
-150.6715955569501
 10
134.6646484038338
 20
-150.6715955569501
 10
134.6646484038338
 20
-150.9024169544619
 10
134.6646484038338
 20
-150.9024169544619
 10
134.4803357953729
 20
-150.8789903051622
 10
134.232977939532
 20
-150.876923247871
 10
134.108265482966
 20
-150.876923247871
 97
        0
 97
        1
330
160
 75
     2
 76
     1
 98
        1
 10
0.0
 20
0.0
450
        0
451
        0
460
0.0
461
0.0
452
        0
462
0.0
453
        0
470

  0
SPLINE
  5
162
330
150
100
AcDbEntity
  8
レイヤー 1
100
AcDbSpline
210
0.0
220
0.0
230
1.0
 70
     9
 71
     3
 72
    47
 73
    43
 74
     0
 42
0.0000000001
 43
0.0000000001
 40
0.0
 40
0.0
 40
0.0
 40
0.0
 40
1.0
 40
1.0
 40
1.0
 40
2.0
 40
2.0
 40
2.0
 40
3.0
 40
3.0
 40
3.0
 40
4.0
 40
4.0
 40
4.0
 40
5.0
 40
5.0
 40
5.0
 40
6.0
 40
6.0
 40
6.0
 40
7.0
 40
7.0
 40
7.0
 40
8.0
 40
8.0
 40
8.0
 40
9.0
 40
9.0
 40
9.0
 40
10.0
 40
10.0
 40
10.0
 40
11.0
 40
11.0
 40
11.0
 40
12.0
 40
12.0
 40
12.0
 40
13.0
 40
13.0
 40
13.0
 40
14.0
 40
14.0
 40
14.0
 40
14.0
 10
136.328285013661
 20
-150.2826442766654
 30
0.0
 10
136.2583495753104
 20
-150.5616970109707
 30
0.0
 10
136.1822129650864
 20
-150.8662434518668
 30
0.0
 10
135.8693982950257
 20
-151.1983506566448
 30
0.0
 10
135.6323757256405
 20
-151.4481200793254
 30
0.0
 10
135.3870849270907
 20
-151.5476833388492
 30
0.0
 10
135.2813204956935
 20
-151.5897135037692
 30
0.0
 10
135.2813204956935
 20
-151.5897135037692
 30
0.0
 10
135.0866726007769
 20
-151.407812462148
 30
0.0
 10
135.0866726007769
 20
-151.407812462148
 30
0.0
 10
135.2727077569804
 20
-151.3613036730972
 30
0.0
 10
135.6344427829316
 20
-151.2682860949954
 30
0.0
 10
135.9307209946631
 20
-150.773225873765
 30
0.0
 10
136.0912624442758
 20
-150.5065754832067
 30
0.0
 10
136.1040092975712
 20
-150.3332871802986
 30
0.0
 10
136.1126220362843
 20
-150.242336659488
 30
0.0
 10
136.1126220362843
 20
-150.242336659488
 30
0.0
 10
135.6068820190496
 20
-150.242336659488
 30
0.0
 10
135.6068820190496
 20
-150.242336659488
 30
0.0
 10
135.4883707343571
 20
-150.242336659488
 30
0.0
 10
135.0673800660595
 20
-150.2612846846569
 30
0.0
 10
134.9151068456115
 20
-150.2719644806612
 30
0.0
 10
134.9151068456115
 20
-150.2719644806612
 30
0.0
 10
134.9151068456115
 20
-150.062502675158
 30
0.0
 10
134.9151068456115
 20
-150.062502675158
 30
0.0
 10
135.0570447796038
 20
-150.0752495284534
 30
0.0
 10
135.3340304566179
 20
-150.0793836430357
 30
0.0
 10
135.4504746840193
 20
-150.0793836430357
 30
0.0
 10
135.4504746840193
 20
-150.0793836430357
 30
0.0
 10
135.8056640285486
 20
-150.0793836430357
 30
0.0
 10
135.8056640285486
 20
-150.0793836430357
 30
0.0
 10
135.8332247924306
 20
-150.0793836430357
 30
0.0
 10
135.9941107515917
 20
-150.0773165857445
 30
0.0
 10
136.1040092975712
 20
-150.062502675158
 30
0.0
 10
136.1611978826263
 20
-150.055956993736
 30
0.0
 10
136.1780788505041
 20
-150.0370089685671
 30
0.0
 10
136.2015054998038
 20
-150.013926828816
 30
0.0
 10
136.2015054998038
 20
-150.013926828816
 30
0.0
 10
136.3896077132984
 20
-150.1641329919728
 30
0.0
 10
136.3896077132984
 20
-150.1641329919728
 30
0.0
 10
136.3747938027118
 20
-150.193760813146
 30
0.0
 10
136.3644585162561
 20
-150.2127088383149
 30
0.0
 10
136.328285013661
 20
-150.2826442766654
 30
0.0
  0
HATCH
  5
163
330
150
100
AcDbEntity
  8
レイヤー 1
 62
    18
420
        0
440
 33554687
100
AcDbHatch
 10
0.0
 20
0.0
 30
0.0
210
0.0
220
0.0
230
1.0
  2
SOLID
 70
     1
 71
     1
 91
        1
 92
        1
 93
        1
 72
     4
 94
        3
 73
     0
 74
     0
 95
       47
 96
       43
 40
0.0
 40
0.0
 40
0.0
 40
0.0
 40
1.0
 40
1.0
 40
1.0
 40
2.0
 40
2.0
 40
2.0
 40
3.0
 40
3.0
 40
3.0
 40
4.0
 40
4.0
 40
4.0
 40
5.0
 40
5.0
 40
5.0
 40
6.0
 40
6.0
 40
6.0
 40
7.0
 40
7.0
 40
7.0
 40
8.0
 40
8.0
 40
8.0
 40
9.0
 40
9.0
 40
9.0
 40
10.0
 40
10.0
 40
10.0
 40
11.0
 40
11.0
 40
11.0
 40
12.0
 40
12.0
 40
12.0
 40
13.0
 40
13.0
 40
13.0
 40
14.0
 40
14.0
 40
14.0
 40
14.0
 10
136.328285013661
 20
-150.2826442766654
 10
136.2583495753104
 20
-150.5616970109707
 10
136.1822129650864
 20
-150.8662434518668
 10
135.8693982950257
 20
-151.1983506566448
 10
135.6323757256405
 20
-151.4481200793254
 10
135.3870849270907
 20
-151.5476833388492
 10
135.2813204956935
 20
-151.5897135037692
 10
135.2813204956935
 20
-151.5897135037692
 10
135.0866726007769
 20
-151.407812462148
 10
135.0866726007769
 20
-151.407812462148
 10
135.2727077569804
 20
-151.3613036730972
 10
135.6344427829316
 20
-151.2682860949954
 10
135.9307209946631
 20
-150.773225873765
 10
136.0912624442758
 20
-150.5065754832067
 10
136.1040092975712
 20
-150.3332871802986
 10
136.1126220362843
 20
-150.242336659488
 10
136.1126220362843
 20
-150.242336659488
 10
135.6068820190496
 20
-150.242336659488
 10
135.6068820190496
 20
-150.242336659488
 10
135.4883707343571
 20
-150.242336659488
 10
135.0673800660595
 20
-150.2612846846569
 10
134.9151068456115
 20
-150.2719644806612
 10
134.9151068456115
 20
-150.2719644806612
 10
134.9151068456115
 20
-150.062502675158
 10
134.9151068456115
 20
-150.062502675158
 10
135.0570447796038
 20
-150.0752495284534
 10
135.3340304566179
 20
-150.0793836430357
 10
135.4504746840193
 20
-150.0793836430357
 10
135.4504746840193
 20
-150.0793836430357
 10
135.8056640285486
 20
-150.0793836430357
 10
135.8056640285486
 20
-150.0793836430357
 10
135.8332247924306
 20
-150.0793836430357
 10
135.9941107515917
 20
-150.0773165857445
 10
136.1040092975712
 20
-150.062502675158
 10
136.1611978826263
 20
-150.055956993736
 10
136.1780788505041
 20
-150.0370089685671
 10
136.2015054998038
 20
-150.013926828816
 10
136.2015054998038
 20
-150.013926828816
 10
136.3896077132984
 20
-150.1641329919728
 10
136.3896077132984
 20
-150.1641329919728
 10
136.3747938027118
 20
-150.193760813146
 10
136.3644585162561
 20
-150.2127088383149
 10
136.328285013661
 20
-150.2826442766654
 97
        0
 97
        1
330
162
 75
     2
 76
     1
 98
        1
 10
0.0
 20
0.0
450
        0
451
        0
460
0.0
461
0.0
452
        0
462
0.0
453
        0
470

  0
SPLINE
  5
164
330
150
100
AcDbEntity
  8
レイヤー 1
100
AcDbSpline
210
0.0
220
0.0
230
1.0
 70
    11
 71
     3
 72
    17
 73
    13
 74
     0
 42
0.0000000001
 43
0.0000000001
 40
0.0
 40
0.0
 40
0.0
 40
0.0
 40
1.0
 40
1.0
 40
1.0
 40
2.0
 40
2.0
 40
2.0
 40
3.0
 40
3.0
 40
3.0
 40
4.0
 40
4.0
 40
4.0
 40
4.0
 10
136.7186143321398
 20
-150.0645697324491
 30
0.0
 10
136.7186143321398
 20
-150.1238253747954
 30
0.0
 10
136.7651231211906
 20
-150.1703341638463
 30
0.0
 10
136.8243787635369
 20
-150.1703341638463
 30
0.0
 10
136.8836344058832
 20
-150.1703341638463
 30
0.0
 10
136.9322102522253
 20
-150.1238253747954
 30
0.0
 10
136.9322102522253
 20
-150.0645697324491
 30
0.0
 10
136.9322102522253
 20
-150.0053140901028
 30
0.0
 10
136.8836344058832
 20
-149.9567382437608
 30
0.0
 10
136.8243787635369
 20
-149.9567382437608
 30
0.0
 10
136.7651231211906
 20
-149.9567382437608
 30
0.0
 10
136.7186143321398
 20
-150.0053140901028
 30
0.0
 10
136.7186143321398
 20
-150.0645697324491
 30
0.0
  0
SPLINE
  5
165
330
150
100
AcDbEntity
  8
レイヤー 1
100
AcDbSpline
210
0.0
220
0.0
230
1.0
 70
     9
 71
     3
 72
    17
 73
    13
 74
     0
 42
0.0000000001
 43
0.0000000001
 40
0.0
 40
0.0
 40
0.0
 40
0.0
 40
1.0
 40
1.0
 40
1.0
 40
2.0
 40
2.0
 40
2.0
 40
3.0
 40
3.0
 40
3.0
 40
4.0
 40
4.0
 40
4.0
 40
4.0
 10
137.0338405690401
 20
-150.0645697324491
 30
0.0
 10
137.0338405690401
 20
-150.1789469025594
 30
0.0
 10
136.9408229909384
 20
-150.2740315379523
 30
0.0
 10
136.8243787635369
 20
-150.2740315379523
 30
0.0
 10
136.7100015934266
 20
-150.2740315379523
 30
0.0
 10
136.6149169580338
 20
-150.1789469025594
 30
0.0
 10
136.6149169580338
 20
-150.0645697324491
 30
0.0
 10
136.6149169580338
 20
-149.9481255050477
 30
0.0
 10
136.7100015934266
 20
-149.8551079269459
 30
0.0
 10
136.8243787635369
 20
-149.8551079269459
 30
0.0
 10
136.9387559336472
 20
-149.8551079269459
 30
0.0
 10
137.0338405690401
 20
-149.9481255050477
 30
0.0
 10
137.0338405690401
 20
-150.0645697324491
 30
0.0
  0
HATCH
  5
166
330
150
100
AcDbEntity
  8
レイヤー 1
 62
    18
420
        0
440
 33554687
100
AcDbHatch
 10
0.0
 20
0.0
 30
0.0
210
0.0
220
0.0
230
1.0
  2
SOLID
 70
     1
 71
     1
 91
        2
 92
        1
 93
        1
 72
     4
 94
        3
 73
     0
 74
     0
 95
       17
 96
       13
 40
0.0
 40
0.0
 40
0.0
 40
0.0
 40
1.0
 40
1.0
 40
1.0
 40
2.0
 40
2.0
 40
2.0
 40
3.0
 40
3.0
 40
3.0
 40
4.0
 40
4.0
 40
4.0
 40
4.0
 10
136.7186143321398
 20
-150.0645697324491
 10
136.7186143321398
 20
-150.1238253747954
 10
136.7651231211906
 20
-150.1703341638463
 10
136.8243787635369
 20
-150.1703341638463
 10
136.8836344058832
 20
-150.1703341638463
 10
136.9322102522253
 20
-150.1238253747954
 10
136.9322102522253
 20
-150.0645697324491
 10
136.9322102522253
 20
-150.0053140901028
 10
136.8836344058832
 20
-149.9567382437608
 10
136.8243787635369
 20
-149.9567382437608
 10
136.7651231211906
 20
-149.9567382437608
 10
136.7186143321398
 20
-150.0053140901028
 10
136.7186143321398
 20
-150.0645697324491
 97
        0
 97
        1
330
164
 92
        1
 93
        1
 72
     4
 94
        3
 73
     0
 74
     0
 95
       17
 96
       13
 40
0.0
 40
0.0
 40
0.0
 40
0.0
 40
1.0
 40
1.0
 40
1.0
 40
2.0
 40
2.0
 40
2.0
 40
3.0
 40
3.0
 40
3.0
 40
4.0
 40
4.0
 40
4.0
 40
4.0
 10
137.0338405690401
 20
-150.0645697324491
 10
137.0338405690401
 20
-150.1789469025594
 10
136.9408229909384
 20
-150.2740315379523
 10
136.8243787635369
 20
-150.2740315379523
 10
136.7100015934266
 20
-150.2740315379523
 10
136.6149169580338
 20
-150.1789469025594
 10
136.6149169580338
 20
-150.0645697324491
 10
136.6149169580338
 20
-149.9481255050477
 10
136.7100015934266
 20
-149.8551079269459
 10
136.8243787635369
 20
-149.8551079269459
 10
136.9387559336472
 20
-149.8551079269459
 10
137.0338405690401
 20
-149.9481255050477
 10
137.0338405690401
 20
-150.0645697324491
 97
        0
 97
        1
330
165
 75
     2
 76
     1
 98
        1
 10
0.0
 20
0.0
450
        0
451
        0
460
0.0
461
0.0
452
        0
462
0.0
453
        0
470

  0
ENDBLK
  5
153
330
150
100
AcDbEntity
  8
0
100
AcDbBlockEnd
  0
ENDSEC
  0
SECTION
  2
ENTITIES
  0
LINE
  5
79
330
70
100
AcDbEntity
  8
レイヤー 1
 62
   250
420
  2299925
370
    25
100
AcDbLine
 10
109.2938038350093
 20
-154.0058103674357
 30
0.0
 11
95.46586779890013
 21
-154.0058103674357
 31
0.0
  0
LINE
  5
7A
330
70
100
AcDbEntity
  8
レイヤー 1
 62
   250
420
  2299925
370
    25
100
AcDbLine
 10
75.46520275360404
 20
-145.8088775917073
 30
0.0
 11
75.46520275360404
 21
-146.309116480471
 31
0.0
  0
LINE
  5
7B
330
70
100
AcDbEntity
  8
レイヤー 1
 62
   250
420
  2299925
370
    25
100
AcDbLine
 10
95.46586779890013
 20
-146.309116480471
 30
0.0
 11
75.46520275360404
 21
-146.309116480471
 31
0.0
  0
LINE
  5
7C
330
70
100
AcDbEntity
  8
レイヤー 1
 62
   250
420
  2299925
370
    25
100
AcDbLine
 10
75.46520275360404
 20
-145.8088775917073
 30
0.0
 11
75.97919996271311
 21
-146.1909712027228
 31
0.0
  0
LINE
  5
7D
330
70
100
AcDbEntity
  8
レイヤー 1
 62
   250
420
  2299925
370
    25
100
AcDbLine
 10
75.97919996271311
 20
-146.1909712027228
 30
0.0
 11
76.46426939478208
 21
-145.7734234250497
 31
0.0
  0
LINE
  5
7E
330
70
100
AcDbEntity
  8
レイヤー 1
 62
   250
420
  2299925
370
    25
100
AcDbLine
 10
76.97826660389178
 20
-146.1554817582874
 30
0.0
 11
77.46404159149832
 21
-145.7375812028364
 31
0.0
  0
LINE
  5
7F
330
70
100
AcDbEntity
  8
レイヤー 1
 62
   250
420
  2299925
370
    25
100
AcDbLine
 10
76.46426939478208
 20
-145.7734234250497
 30
0.0
 11
76.97826660389178
 21
-146.1554817582874
 31
0.0
  0
LINE
  5
80
330
70
100
AcDbEntity
  8
レイヤー 1
 62
   250
420
  2299925
370
    25
100
AcDbLine
 10
77.46404159149832
 20
-145.7375812028364
 30
0.0
 11
77.97803880060738
 21
-146.1196395360741
 31
0.0
  0
LINE
  5
81
330
70
100
AcDbEntity
  8
レイヤー 1
 62
   250
420
  2299925
370
    25
100
AcDbLine
 10
77.97803880060738
 20
-146.1196395360741
 30
0.0
 11
78.46310823267666
 21
-145.7020917584006
 31
0.0
  0
LINE
  5
82
330
70
100
AcDbEntity
  8
レイヤー 1
 62
   250
420
  2299925
370
    25
100
AcDbLine
 10
78.46310823267666
 20
-145.7020917584006
 30
0.0
 11
78.9771407195626
 21
-146.0837973138608
 31
0.0
  0
LINE
  5
83
330
70
100
AcDbEntity
  8
レイヤー 1
 62
   250
420
  2299925
370
    25
100
AcDbLine
 10
78.9771407195626
 20
-146.0837973138608
 30
0.0
 11
79.46221015163189
 21
-145.6662848139652
 31
0.0
  0
LINE
  5
84
330
70
100
AcDbEntity
  8
レイヤー 1
 62
   250
420
  2299925
370
    25
100
AcDbLine
 10
79.46221015163189
 20
-145.6662848139652
 30
0.0
 11
79.97620736074063
 21
-146.0479903694257
 31
0.0
  0
LINE
  5
85
330
70
100
AcDbEntity
  8
レイヤー 1
 62
   250
420
  2299925
370
    25
100
AcDbLine
 10
79.97620736074063
 20
-146.0479903694257
 30
0.0
 11
80.46194707057093
 21
-145.630442591752
 31
0.0
  0
LINE
  5
86
330
70
100
AcDbEntity
  8
レイヤー 1
 62
   250
420
  2299925
370
    25
100
AcDbLine
 10
80.46194707057093
 20
-145.630442591752
 30
0.0
 11
80.97597955745687
 21
-146.0125009249896
 31
0.0
  0
LINE
  5
87
330
70
100
AcDbEntity
  8
レイヤー 1
 62
   250
420
  2299925
370
    25
100
AcDbLine
 10
80.97597955745687
 20
-146.0125009249896
 30
0.0
 11
81.46104898952616
 21
-145.5949531473168
 31
0.0
  0
LINE
  5
88
330
70
100
AcDbEntity
  8
レイヤー 1
 62
   250
420
  2299925
370
    25
100
AcDbLine
 10
81.46104898952616
 20
-145.5949531473168
 30
0.0
 11
81.97504619863522
 21
-145.9770114805541
 31
0.0
  0
LINE
  5
89
330
70
100
AcDbEntity
  8
レイヤー 1
 62
   250
420
  2299925
370
    25
100
AcDbLine
 10
81.97504619863522
 20
-145.9770114805541
 30
0.0
 11
82.46082118624206
 21
-145.5591109251035
 31
0.0
  0
LINE
  5
8A
330
70
100
AcDbEntity
  8
レイヤー 1
 62
   250
420
  2299925
370
    25
100
AcDbLine
 10
82.97481839535112
 20
-145.9411692583409
 30
0.0
 11
83.45988782742074
 21
-145.5236567584452
 31
0.0
  0
LINE
  5
8B
330
70
100
AcDbEntity
  8
レイヤー 1
 62
   250
420
  2299925
370
    25
100
AcDbLine
 10
82.46082118624206
 20
-145.5591109251035
 30
0.0
 11
82.97481839535112
 21
-145.9411692583409
 31
0.0
  0
LINE
  5
8C
330
70
100
AcDbEntity
  8
レイヤー 1
 62
   250
420
  2299925
370
    25
100
AcDbLine
 10
83.45988782742074
 20
-145.5236567584452
 30
0.0
 11
83.97406142541354
 21
-145.9053623139055
 31
0.0
  0
LINE
  5
8D
330
70
100
AcDbEntity
  8
レイヤー 1
 62
   250
420
  2299925
370
    25
100
AcDbLine
 10
83.97406142541354
 20
-145.9053623139055
 30
0.0
 11
84.45983641302104
 21
-145.487814536232
 31
0.0
  0
LINE
  5
8E
330
70
100
AcDbEntity
  8
レイヤー 1
 62
   250
420
  2299925
370
    25
100
AcDbLine
 10
84.97312806659222
 20
-145.8695200916919
 30
0.0
 11
85.45890305419908
 21
-145.4519723140188
 31
0.0
  0
LINE
  5
8F
330
70
100
AcDbEntity
  8
レイヤー 1
 62
   250
420
  2299925
370
    25
100
AcDbLine
 10
84.45983641302104
 20
-145.487814536232
 30
0.0
 11
84.97312806659222
 21
-145.8695200916919
 31
0.0
  0
LINE
  5
90
330
70
100
AcDbEntity
  8
レイヤー 1
 62
   250
420
  2299925
370
    25
100
AcDbLine
 10
85.97290026330814
 20
-145.8340306472564
 30
0.0
 11
86.45796969537743
 21
-145.4164828695833
 31
0.0
  0
LINE
  5
91
330
70
100
AcDbEntity
  8
レイヤー 1
 62
   250
420
  2299925
370
    25
100
AcDbLine
 10
85.45890305419908
 20
-145.4519723140188
 30
0.0
 11
85.97290026330814
 21
-145.8340306472564
 31
0.0
  0
LINE
  5
92
330
70
100
AcDbEntity
  8
レイヤー 1
 62
   250
420
  2299925
370
    25
100
AcDbLine
 10
86.45796969537743
 20
-145.4164828695833
 30
0.0
 11
86.97200218226337
 21
-145.7985764805988
 31
0.0
  0
LINE
  5
93
330
70
100
AcDbEntity
  8
レイヤー 1
 62
   250
420
  2299925
370
    25
100
AcDbLine
 10
86.97200218226337
 20
-145.7985764805988
 30
0.0
 11
87.45774189209333
 21
-145.3806759251478
 31
0.0
  0
LINE
  5
94
330
70
100
AcDbEntity
  8
レイヤー 1
 62
   250
420
  2299925
370
    25
100
AcDbLine
 10
87.45774189209333
 20
-145.3806759251478
 30
0.0
 11
87.97142160121049
 21
-145.7627342583855
 31
0.0
  0
LINE
  5
95
330
70
100
AcDbEntity
  8
レイヤー 1
 62
   250
420
  2299925
370
    25
100
AcDbLine
 10
87.97142160121049
 20
-145.7627342583855
 30
0.0
 11
88.45649103327978
 21
-145.3451864807121
 31
0.0
  0
LINE
  5
96
330
70
100
AcDbEntity
  8
レイヤー 1
 62
   250
420
  2299925
370
    25
100
AcDbLine
 10
88.45649103327978
 20
-145.3451864807121
 30
0.0
 11
88.97048824238853
 21
-145.7268920361723
 31
0.0
  0
LINE
  5
97
330
70
100
AcDbEntity
  8
レイヤー 1
 62
   250
420
  2299925
370
    25
100
AcDbLine
 10
88.97048824238853
 20
-145.7268920361723
 30
0.0
 11
89.45622795221881
 21
-145.3093442584988
 31
0.0
  0
LINE
  5
98
330
70
100
AcDbEntity
  8
レイヤー 1
 62
   250
420
  2299925
370
    25
100
AcDbLine
 10
89.45622795221881
 20
-145.3093442584988
 30
0.0
 11
89.97026043910475
 21
-145.6910850917369
 31
0.0
  0
LINE
  5
99
330
70
100
AcDbEntity
  8
レイヤー 1
 62
   250
420
  2299925
370
    25
100
AcDbLine
 10
89.97026043910475
 20
-145.6910850917369
 30
0.0
 11
90.45532987117404
 21
-145.2735373140634
 31
0.0
  0
LINE
  5
9A
330
70
100
AcDbEntity
  8
レイヤー 1
 62
   250
420
  2299925
370
    25
100
AcDbLine
 10
90.45532987117404
 20
-145.2735373140634
 30
0.0
 11
90.9693270802831
 21
-145.6555956473011
 31
0.0
  0
LINE
  5
9B
330
70
100
AcDbEntity
  8
レイヤー 1
 62
   250
420
  2299925
370
    25
100
AcDbLine
 10
90.9693270802831
 20
-145.6555956473011
 30
0.0
 11
91.45439651235241
 21
-145.2380478696282
 31
0.0
  0
LINE
  5
9C
330
70
100
AcDbEntity
  8
レイヤー 1
 62
   250
420
  2299925
370
    25
100
AcDbLine
 10
91.45439651235241
 20
-145.2380478696282
 30
0.0
 11
91.96839372146147
 21
-145.6201062028656
 31
0.0
  0
LINE
  5
9D
330
70
100
AcDbEntity
  8
レイヤー 1
 62
   250
420
  2299925
370
    25
100
AcDbLine
 10
91.96839372146147
 20
-145.6201062028656
 30
0.0
 11
92.45416870906831
 21
-145.2022056474147
 31
0.0
  0
LINE
  5
9E
330
70
100
AcDbEntity
  8
レイヤー 1
 62
   250
420
  2299925
370
    25
100
AcDbLine
 10
92.45416870906831
 20
-145.2022056474147
 30
0.0
 11
92.96816591817737
 21
-145.5842639806523
 31
0.0
  0
LINE
  5
9F
330
70
100
AcDbEntity
  8
レイヤー 1
 62
   250
420
  2299925
370
    25
100
AcDbLine
 10
92.96816591817737
 20
-145.5842639806523
 30
0.0
 11
93.45323535024666
 21
-145.1667162029789
 31
0.0
  0
LINE
  5
A0
330
70
100
AcDbEntity
  8
レイヤー 1
 62
   250
420
  2299925
370
    25
100
AcDbLine
 10
93.45323535024666
 20
-145.1667162029789
 30
0.0
 11
93.9672678371326
 21
-145.5484570362169
 31
0.0
  0
LINE
  5
A1
330
70
100
AcDbEntity
  8
レイヤー 1
 62
   250
420
  2299925
370
    25
100
AcDbLine
 10
93.9672678371326
 20
-145.5484570362169
 30
0.0
 11
94.45233726920189
 21
-145.1309092585434
 31
0.0
  0
LINE
  5
A2
330
70
100
AcDbEntity
  8
レイヤー 1
 62
   250
420
  2299925
370
    25
100
AcDbLine
 10
94.45233726920189
 20
-145.1309092585434
 30
0.0
 11
94.96633447831095
 21
-145.5126148140037
 31
0.0
  0
LINE
  5
A3
330
70
100
AcDbEntity
  8
レイヤー 1
 62
   250
420
  2299925
370
    25
100
AcDbLine
 10
94.96633447831095
 20
-145.5126148140037
 30
0.0
 11
95.45207418814092
 21
-145.0950670363302
 31
0.0
  0
LINE
  5
A4
330
70
100
AcDbEntity
  8
レイヤー 1
 62
   250
420
  2299925
370
    25
100
AcDbLine
 10
95.52610667513581
 20
-145.04684231412
 30
0.0
 11
96.46631027337672
 21
-145.04684231412
 31
0.0
  0
LINE
  5
A5
330
70
100
AcDbEntity
  8
レイヤー 1
 62
   250
420
  2299925
370
    25
100
AcDbLine
 10
96.46631027337672
 20
-145.04684231412
 30
0.0
 11
96.46631027337672
 21
-153.005685367686
 31
0.0
  0
LINE
  5
A6
330
70
100
AcDbEntity
  8
レイヤー 1
 62
   250
420
  2299925
370
    25
100
AcDbLine
 10
95.46586779890013
 20
-146.309116480471
 30
0.0
 11
95.46586779890013
 21
-154.0058103674357
 31
0.0
  0
LINE
  5
A7
330
70
100
AcDbEntity
  8
レイヤー 1
 62
   250
420
  2299925
370
    25
100
AcDbLine
 10
108.2940316382934
 20
-153.005685367686
 30
0.0
 11
96.46631027337672
 21
-153.005685367686
 31
0.0
  0
LINE
  5
A8
330
70
100
AcDbEntity
  8
レイヤー 1
 62
   250
420
  2299925
370
    25
100
AcDbLine
 10
119.3017916352398
 20
-145.4519723140188
 30
0.0
 11
118.7877944261307
 21
-145.8340306472564
 31
0.0
  0
LINE
  5
A9
330
70
100
AcDbEntity
  8
レイヤー 1
 62
   250
420
  2299925
370
    25
100
AcDbLine
 10
124.2985712299836
 20
-145.630442591752
 30
0.0
 11
123.7845387430976
 21
-146.0125009249896
 31
0.0
  0
LINE
  5
AA
330
70
100
AcDbEntity
  8
レイヤー 1
 62
   250
420
  2299925
370
    25
100
AcDbLine
 10
119.7868610673091
 20
-145.8695200916919
 30
0.0
 11
119.3017916352398
 21
-145.4519723140188
 31
0.0
  0
LINE
  5
AB
330
70
100
AcDbEntity
  8
レイヤー 1
 62
   250
420
  2299925
370
    25
100
AcDbLine
 10
120.786633264025
 20
-145.9053623139055
 30
0.0
 11
120.3008582764181
 21
-145.487814536232
 31
0.0
  0
LINE
  5
AC
330
70
100
AcDbEntity
  8
レイヤー 1
 62
   250
420
  2299925
370
    25
100
AcDbLine
 10
118.7877944261307
 20
-145.8340306472564
 30
0.0
 11
118.3020194385239
 21
-145.4164828695833
 31
0.0
  0
LINE
  5
AD
330
70
100
AcDbEntity
  8
レイヤー 1
 62
   250
420
  2299925
370
    25
100
AcDbLine
 10
120.3008582764181
 20
-145.487814536232
 30
0.0
 11
119.7868610673091
 21
-145.8695200916919
 31
0.0
  0
LINE
  5
AE
330
70
100
AcDbEntity
  8
レイヤー 1
 62
   250
420
  2299925
370
    25
100
AcDbLine
 10
128.2962489057721
 20
-145.7734234250497
 30
0.0
 11
127.782251696663
 21
-146.1554817582874
 31
0.0
  0
LINE
  5
AF
330
70
100
AcDbEntity
  8
レイヤー 1
 62
   250
420
  2299925
370
    25
100
AcDbLine
 10
121.3006304731341
 20
-145.5236567584452
 30
0.0
 11
120.786633264025
 21
-145.9053623139055
 31
0.0
  0
LINE
  5
B0
330
70
100
AcDbEntity
  8
レイヤー 1
 62
   250
420
  2299925
370
    25
100
AcDbLine
 10
122.2997323920893
 20
-145.5591109251035
 30
0.0
 11
121.7856999052034
 21
-145.9411692583409
 31
0.0
  0
LINE
  5
B1
330
70
100
AcDbEntity
  8
レイヤー 1
 62
   250
420
  2299925
370
    25
100
AcDbLine
 10
108.2940316382934
 20
-145.04684231412
 30
0.0
 11
108.2940316382934
 21
-153.005685367686
 31
0.0
  0
LINE
  5
B2
330
70
100
AcDbEntity
  8
レイヤー 1
 62
   250
420
  2299925
370
    25
100
AcDbLine
 10
121.7856999052034
 20
-145.9411692583409
 30
0.0
 11
121.3006304731341
 21
-145.5236567584452
 31
0.0
  0
LINE
  5
B3
330
70
100
AcDbEntity
  8
レイヤー 1
 62
   250
420
  2299925
370
    25
100
AcDbLine
 10
122.7854721019193
 20
-145.9770114805541
 30
0.0
 11
122.2997323920893
 21
-145.5591109251035
 31
0.0
  0
LINE
  5
B4
330
70
100
AcDbEntity
  8
レイヤー 1
 62
   250
420
  2299925
370
    25
100
AcDbLine
 10
127.782251696663
 20
-146.1554817582874
 30
0.0
 11
127.2964767090562
 21
-145.7375812028364
 31
0.0
  0
LINE
  5
B5
330
70
100
AcDbEntity
  8
レイヤー 1
 62
   250
420
  2299925
370
    25
100
AcDbLine
 10
123.2987990332677
 20
-145.5949531473168
 30
0.0
 11
122.7854721019193
 21
-145.9770114805541
 31
0.0
  0
LINE
  5
B6
330
70
100
AcDbEntity
  8
レイヤー 1
 62
   250
420
  2299925
370
    25
100
AcDbLine
 10
123.7845387430976
 20
-146.0125009249896
 30
0.0
 11
123.2987990332677
 21
-145.5949531473168
 31
0.0
  0
LINE
  5
B7
330
70
100
AcDbEntity
  8
レイヤー 1
 62
   250
420
  2299925
370
    25
100
AcDbLine
 10
128.7813183378414
 20
-146.1909712027228
 30
0.0
 11
128.2962489057721
 21
-145.7734234250497
 31
0.0
  0
LINE
  5
B8
330
70
100
AcDbEntity
  8
レイヤー 1
 62
   250
420
  2299925
370
    25
100
AcDbLine
 10
125.2976378711619
 20
-145.6662848139652
 30
0.0
 11
124.7836406620528
 21
-146.0479903694257
 31
0.0
  0
LINE
  5
B9
330
70
100
AcDbEntity
  8
レイヤー 1
 62
   250
420
  2299925
370
    25
100
AcDbLine
 10
126.2974100678778
 20
-145.7020917584006
 30
0.0
 11
125.7834128587687
 21
-146.0837973138608
 31
0.0
  0
LINE
  5
BA
330
70
100
AcDbEntity
  8
レイヤー 1
 62
   250
420
  2299925
370
    25
100
AcDbLine
 10
125.7834128587687
 20
-146.0837973138608
 30
0.0
 11
125.2976378711619
 21
-145.6662848139652
 31
0.0
  0
LINE
  5
BB
330
70
100
AcDbEntity
  8
レイヤー 1
 62
   250
420
  2299925
370
    25
100
AcDbLine
 10
129.2953155469504
 20
-145.8088775917073
 30
0.0
 11
128.7813183378414
 21
-146.1909712027228
 31
0.0
  0
LINE
  5
BC
330
70
100
AcDbEntity
  8
レイヤー 1
 62
   250
420
  2299925
370
    25
100
AcDbLine
 10
124.7836406620528
 20
-146.0479903694257
 30
0.0
 11
124.2985712299836
 21
-145.630442591752
 31
0.0
  0
LINE
  5
BD
330
70
100
AcDbEntity
  8
レイヤー 1
 62
   250
420
  2299925
370
    25
100
AcDbLine
 10
127.2964767090562
 20
-145.7375812028364
 30
0.0
 11
126.7824794999471
 21
-146.1196395360741
 31
0.0
  0
LINE
  5
BE
330
70
100
AcDbEntity
  8
レイヤー 1
 62
   250
420
  2299925
370
    25
100
AcDbLine
 10
126.7824794999471
 20
-146.1196395360741
 30
0.0
 11
126.2974100678778
 21
-145.7020917584006
 31
0.0
  0
LINE
  5
BF
330
70
100
AcDbEntity
  8
レイヤー 1
 62
   250
420
  2299925
370
    25
100
AcDbLine
 10
129.2953155469504
 20
-145.8088775917073
 30
0.0
 11
129.2953155469504
 21
-146.309116480471
 31
0.0
  0
LINE
  5
C0
330
70
100
AcDbEntity
  8
レイヤー 1
 62
   250
420
  2299925
370
    25
100
AcDbLine
 10
109.2938038350093
 20
-146.309116480471
 30
0.0
 11
129.2953155469504
 21
-146.309116480471
 31
0.0
  0
LINE
  5
C1
330
70
100
AcDbEntity
  8
レイヤー 1
 62
   250
420
  2299925
370
    25
100
AcDbLine
 10
118.3020194385239
 20
-145.4164828695833
 30
0.0
 11
117.7880222294148
 21
-145.7985764805988
 31
0.0
  0
LINE
  5
C2
330
70
100
AcDbEntity
  8
レイヤー 1
 62
   250
420
  2299925
370
    25
100
AcDbLine
 10
117.7880222294148
 20
-145.7985764805988
 30
0.0
 11
117.3029527973455
 21
-145.3806759251478
 31
0.0
  0
LINE
  5
C3
330
70
100
AcDbEntity
  8
レイヤー 1
 62
   250
420
  2299925
370
    25
100
AcDbLine
 10
117.3029527973455
 20
-145.3806759251478
 30
0.0
 11
116.7889555882365
 21
-145.7627342583855
 31
0.0
  0
LINE
  5
C4
330
70
100
AcDbEntity
  8
レイヤー 1
 62
   250
420
  2299925
370
    25
100
AcDbLine
 10
116.7889555882365
 20
-145.7627342583855
 30
0.0
 11
116.3038861561672
 21
-145.3451864807121
 31
0.0
  0
LINE
  5
C5
330
70
100
AcDbEntity
  8
レイヤー 1
 62
   250
420
  2299925
370
    25
100
AcDbLine
 10
116.3038861561672
 20
-145.3451864807121
 30
0.0
 11
115.7898536692812
 21
-145.7268920361723
 31
0.0
  0
LINE
  5
C6
330
70
100
AcDbEntity
  8
レイヤー 1
 62
   250
420
  2299925
370
    25
100
AcDbLine
 10
115.7898536692812
 20
-145.7268920361723
 30
0.0
 11
115.3041139594513
 21
-145.3093442584988
 31
0.0
  0
LINE
  5
C7
330
70
100
AcDbEntity
  8
レイヤー 1
 62
   250
420
  2299925
370
    25
100
AcDbLine
 10
115.3041139594513
 20
-145.3093442584988
 30
0.0
 11
114.7900814725653
 21
-145.6910850917369
 31
0.0
  0
LINE
  5
C8
330
70
100
AcDbEntity
  8
レイヤー 1
 62
   250
420
  2299925
370
    25
100
AcDbLine
 10
114.7900814725653
 20
-145.6910850917369
 30
0.0
 11
114.3050120404961
 21
-145.2735373140634
 31
0.0
  0
LINE
  5
C9
330
70
100
AcDbEntity
  8
レイヤー 1
 62
   250
420
  2299925
370
    25
100
AcDbLine
 10
114.3050120404961
 20
-145.2735373140634
 30
0.0
 11
113.791014831387
 21
-145.6555956473011
 31
0.0
  0
LINE
  5
CA
330
70
100
AcDbEntity
  8
レイヤー 1
 62
   250
420
  2299925
370
    25
100
AcDbLine
 10
113.791014831387
 20
-145.6555956473011
 30
0.0
 11
113.305275121557
 21
-145.2380478696282
 31
0.0
  0
LINE
  5
CB
330
70
100
AcDbEntity
  8
レイヤー 1
 62
   250
420
  2299925
370
    25
100
AcDbLine
 10
113.305275121557
 20
-145.2380478696282
 30
0.0
 11
112.7912426346711
 21
-145.6201062028656
 31
0.0
  0
LINE
  5
CC
330
70
100
AcDbEntity
  8
レイヤー 1
 62
   250
420
  2299925
370
    25
100
AcDbLine
 10
112.7912426346711
 20
-145.6201062028656
 30
0.0
 11
112.3061732026018
 21
-145.2022056474147
 31
0.0
  0
LINE
  5
CD
330
70
100
AcDbEntity
  8
レイヤー 1
 62
   250
420
  2299925
370
    25
100
AcDbLine
 10
112.3061732026018
 20
-145.2022056474147
 30
0.0
 11
111.7921759934927
 21
-145.5842639806523
 31
0.0
  0
LINE
  5
CE
330
70
100
AcDbEntity
  8
レイヤー 1
 62
   250
420
  2299925
370
    25
100
AcDbLine
 10
111.7921759934927
 20
-145.5842639806523
 30
0.0
 11
111.3071065614234
 21
-145.1667162029789
 31
0.0
  0
LINE
  5
CF
330
70
100
AcDbEntity
  8
レイヤー 1
 62
   250
420
  2299925
370
    25
100
AcDbLine
 10
111.3071065614234
 20
-145.1667162029789
 30
0.0
 11
110.7931093523144
 21
-145.5484570362169
 31
0.0
  0
LINE
  5
D0
330
70
100
AcDbEntity
  8
レイヤー 1
 62
   250
420
  2299925
370
    25
100
AcDbLine
 10
110.7931093523144
 20
-145.5484570362169
 30
0.0
 11
110.3073343647075
 21
-145.1309092585434
 31
0.0
  0
LINE
  5
D1
330
70
100
AcDbEntity
  8
レイヤー 1
 62
   250
420
  2299925
370
    25
100
AcDbLine
 10
110.3073343647075
 20
-145.1309092585434
 30
0.0
 11
109.7933371555985
 21
-145.5126148140037
 31
0.0
  0
LINE
  5
D2
330
70
100
AcDbEntity
  8
レイヤー 1
 62
   250
420
  2299925
370
    25
100
AcDbLine
 10
109.7933371555985
 20
-145.5126148140037
 30
0.0
 11
109.3082677235292
 21
-145.0950670363302
 31
0.0
  0
LINE
  5
D3
330
70
100
AcDbEntity
  8
レイヤー 1
 62
   250
420
  2299925
370
    25
100
AcDbLine
 10
109.2342352365343
 20
-145.04684231412
 30
0.0
 11
108.2940316382934
 21
-145.04684231412
 31
0.0
  0
LINE
  5
D4
330
70
100
AcDbEntity
  8
レイヤー 1
 62
   250
420
  2299925
370
    25
100
AcDbLine
 10
109.2938038350093
 20
-146.309116480471
 30
0.0
 11
109.2938038350093
 21
-154.0058103674357
 31
0.0
  0
SPLINE
  5
D5
330
70
100
AcDbEntity
  8
レイヤー 1
 62
   250
420
  2299925
370
     9
100
AcDbSpline
210
0.0
220
0.0
230
1.0
 70
     9
 71
     3
 72
    17
 73
    13
 74
     0
 42
0.0000000001
 43
0.0000000001
 40
0.0
 40
0.0
 40
0.0
 40
0.0
 40
1.0
 40
1.0
 40
1.0
 40
2.0
 40
2.0
 40
2.0
 40
3.0
 40
3.0
 40
3.0
 40
4.0
 40
4.0
 40
4.0
 40
4.0
 10
75.56510941772221
 20
-141.0470831484535
 30
0.0
 10
75.56510941772221
 20
-140.9916264818004
 30
0.0
 10
75.52030664108712
 20
-140.9468237040341
 30
0.0
 10
75.46520275360404
 20
-140.9468237040341
 30
0.0
 10
75.4100635883441
 20
-140.9468237040341
 30
0.0
 10
75.36529608948622
 20
-140.9916264818004
 30
0.0
 10
75.36529608948622
 20
-141.0470831484535
 30
0.0
 10
75.36529608948622
 20
-141.1022223151062
 30
0.0
 10
75.4100635883441
 20
-141.1469898150951
 30
0.0
 10
75.46520275360404
 20
-141.1469898150951
 30
0.0
 10
75.52030664108712
 20
-141.1469898150951
 30
0.0
 10
75.56510941772221
 20
-141.1022223151062
 30
0.0
 10
75.56510941772221
 20
-141.0470831484535
 30
0.0
  0
SPLINE
  5
D6
330
70
100
AcDbEntity
  8
レイヤー 1
 62
   250
420
  2299925
370
     9
100
AcDbSpline
210
0.0
220
0.0
230
1.0
 70
     9
 71
     3
 72
    17
 73
    13
 74
     0
 42
0.0000000001
 43
0.0000000001
 40
0.0
 40
0.0
 40
0.0
 40
0.0
 40
1.0
 40
1.0
 40
1.0
 40
2.0
 40
2.0
 40
2.0
 40
3.0
 40
3.0
 40
3.0
 40
4.0
 40
4.0
 40
4.0
 40
4.0
 10
73.33611836347706
 20
-145.8088775917073
 30
0.0
 10
73.33611836347706
 20
-145.7537737028321
 30
0.0
 10
73.29135319788374
 20
-145.7089709250657
 30
0.0
 10
73.23585892159046
 20
-145.7089709250657
 30
0.0
 10
73.18075503410739
 20
-145.7089709250657
 30
0.0
 10
73.13595225747295
 20
-145.7537737028321
 30
0.0
 10
73.13595225747295
 20
-145.8088775917073
 30
0.0
 10
73.13595225747295
 20
-145.8640167583601
 30
0.0
 10
73.18075503410739
 20
-145.9088195361268
 30
0.0
 10
73.23585892159046
 20
-145.9088195361268
 30
0.0
 10
73.29135319788374
 20
-145.9088195361268
 30
0.0
 10
73.33611836347706
 20
-145.8640167583601
 30
0.0
 10
73.33611836347706
 20
-145.8088775917073
 30
0.0
  0
SPLINE
  5
D7
330
70
100
AcDbEntity
  8
レイヤー 1
 62
   250
420
  2299925
370
     9
100
AcDbSpline
210
0.0
220
0.0
230
1.0
 70
     9
 71
     3
 72
    17
 73
    13
 74
     0
 42
0.0000000001
 43
0.0000000001
 40
0.0
 40
0.0
 40
0.0
 40
0.0
 40
1.0
 40
1.0
 40
1.0
 40
2.0
 40
2.0
 40
2.0
 40
3.0
 40
3.0
 40
3.0
 40
4.0
 40
4.0
 40
4.0
 40
4.0
 10
73.33611836347706
 20
-146.309116480471
 30
0.0
 10
73.33611836347706
 20
-146.2540125915961
 30
0.0
 10
73.29135319788374
 20
-146.2092098138294
 30
0.0
 10
73.23585892159046
 20
-146.2092098138294
 30
0.0
 10
73.18075503410739
 20
-146.2092098138294
 30
0.0
 10
73.13595225747295
 20
-146.2540125915961
 30
0.0
 10
73.13595225747295
 20
-146.309116480471
 30
0.0
 10
73.13595225747295
 20
-146.3642556471241
 30
0.0
 10
73.18075503410739
 20
-146.409023147113
 30
0.0
 10
73.23585892159046
 20
-146.409023147113
 30
0.0
 10
73.29135319788374
 20
-146.409023147113
 30
0.0
 10
73.33611836347706
 20
-146.3642556471241
 30
0.0
 10
73.33611836347706
 20
-146.309116480471
 30
0.0
  0
SPLINE
  5
D8
330
70
100
AcDbEntity
  8
レイヤー 1
 62
   250
420
  2299925
370
     9
100
AcDbSpline
210
0.0
220
0.0
230
1.0
 70
     9
 71
     3
 72
    17
 73
    13
 74
     0
 42
0.0000000001
 43
0.0000000001
 40
0.0
 40
0.0
 40
0.0
 40
0.0
 40
1.0
 40
1.0
 40
1.0
 40
2.0
 40
2.0
 40
2.0
 40
3.0
 40
3.0
 40
3.0
 40
4.0
 40
4.0
 40
4.0
 40
4.0
 10
73.33611836347706
 20
-154.0058103674357
 30
0.0
 10
73.33611836347706
 20
-153.9507064785608
 30
0.0
 10
73.29135319788374
 20
-153.9059037007941
 30
0.0
 10
73.23585892159046
 20
-153.9059037007941
 30
0.0
 10
73.18075503410739
 20
-153.9059037007941
 30
0.0
 10
73.13595225747295
 20
-153.9507064785608
 30
0.0
 10
73.13595225747295
 20
-154.0058103674357
 30
0.0
 10
73.13595225747295
 20
-154.0609495340888
 30
0.0
 10
73.18075503410739
 20
-154.105717034078
 30
0.0
 10
73.23585892159046
 20
-154.105717034078
 30
0.0
 10
73.29135319788374
 20
-154.105717034078
 30
0.0
 10
73.33611836347706
 20
-154.0609495340888
 30
0.0
 10
73.33611836347706
 20
-154.0058103674357
 30
0.0
  0
SPLINE
  5
D9
330
70
100
AcDbEntity
  8
レイヤー 1
 62
   250
420
  2299925
370
     9
100
AcDbSpline
210
0.0
220
0.0
230
1.0
 70
     9
 71
     3
 72
    17
 73
    13
 74
     0
 42
0.0000000001
 43
0.0000000001
 40
0.0
 40
0.0
 40
0.0
 40
0.0
 40
1.0
 40
1.0
 40
1.0
 40
2.0
 40
2.0
 40
2.0
 40
3.0
 40
3.0
 40
3.0
 40
4.0
 40
4.0
 40
4.0
 40
4.0
 10
96.56621985873188
 20
-141.0470831484535
 30
0.0
 10
96.56621985873188
 20
-140.9916264818004
 30
0.0
 10
96.52144943863667
 20
-140.9468237040341
 30
0.0
 10
96.46631027337672
 20
-140.9468237040341
 30
0.0
 10
96.41050083035608
 20
-140.9468237040341
 30
0.0
 10
96.3657333314982
 20
-140.9916264818004
 30
0.0
 10
96.3657333314982
 20
-141.0470831484535
 30
0.0
 10
96.3657333314982
 20
-141.1022223151062
 30
0.0
 10
96.41050083035608
 20
-141.1469898150951
 30
0.0
 10
96.46631027337672
 20
-141.1469898150951
 30
0.0
 10
96.52144943863667
 20
-141.1469898150951
 30
0.0
 10
96.56621985873188
 20
-141.1022223151062
 30
0.0
 10
96.56621985873188
 20
-141.0470831484535
 30
0.0
  0
SPLINE
  5
DA
330
70
100
AcDbEntity
  8
レイヤー 1
 62
   250
420
  2299925
370
     9
100
AcDbSpline
210
0.0
220
0.0
230
1.0
 70
     9
 71
     3
 72
    17
 73
    13
 74
     0
 42
0.0000000001
 43
0.0000000001
 40
0.0
 40
0.0
 40
0.0
 40
0.0
 40
1.0
 40
1.0
 40
1.0
 40
2.0
 40
2.0
 40
2.0
 40
3.0
 40
3.0
 40
3.0
 40
4.0
 40
4.0
 40
4.0
 40
4.0
 10
129.3952222110682
 20
-141.0470831484535
 30
0.0
 10
129.3952222110682
 20
-140.9916264818004
 30
0.0
 10
129.3504547122104
 20
-140.9468237040341
 30
0.0
 10
129.2953155469504
 20
-140.9468237040341
 30
0.0
 10
129.2402116594673
 20
-140.9468237040341
 30
0.0
 10
129.1954088828326
 20
-140.9916264818004
 30
0.0
 10
129.1954088828326
 20
-141.0470831484535
 30
0.0
 10
129.1954088828326
 20
-141.1022223151062
 30
0.0
 10
129.2402116594673
 20
-141.1469898150951
 30
0.0
 10
129.2953155469504
 20
-141.1469898150951
 30
0.0
 10
129.3504547122104
 20
-141.1469898150951
 30
0.0
 10
129.3952222110682
 20
-141.1022223151062
 30
0.0
 10
129.3952222110682
 20
-141.0470831484535
 30
0.0
  0
SPLINE
  5
DB
330
70
100
AcDbEntity
  8
レイヤー 1
 62
   250
420
  2299925
370
     9
100
AcDbSpline
210
0.0
220
0.0
230
1.0
 70
     9
 71
     3
 72
    17
 73
    13
 74
     0
 42
0.0000000001
 43
0.0000000001
 40
0.0
 40
0.0
 40
0.0
 40
0.0
 40
1.0
 40
1.0
 40
1.0
 40
2.0
 40
2.0
 40
2.0
 40
3.0
 40
3.0
 40
3.0
 40
4.0
 40
4.0
 40
4.0
 40
4.0
 10
108.3939383024112
 20
-141.0470831484535
 30
0.0
 10
108.3939383024112
 20
-140.9916264818004
 30
0.0
 10
108.3491355257764
 20
-140.9468237040341
 30
0.0
 10
108.2940316382934
 20
-140.9468237040341
 30
0.0
 10
108.2388924730334
 20
-140.9468237040341
 30
0.0
 10
108.1941281891583
 20
-140.9916264818004
 30
0.0
 10
108.1941281891583
 20
-141.0470831484535
 30
0.0
 10
108.1941281891583
 20
-141.1022223151062
 30
0.0
 10
108.2388924730334
 20
-141.1469898150951
 30
0.0
 10
108.2940316382934
 20
-141.1469898150951
 30
0.0
 10
108.3491355257764
 20
-141.1469898150951
 30
0.0
 10
108.3939383024112
 20
-141.1022223151062
 30
0.0
 10
108.3939383024112
 20
-141.0470831484535
 30
0.0
  0
LINE
  5
DC
330
70
100
AcDbEntity
  8
レイヤー 1
 62
   250
420
  2299925
370
     9
100
AcDbLine
 10
73.23585892159046
 20
-145.8088775917073
 30
0.0
 11
73.23585892159046
 21
-140.5513245374661
 31
0.0
  0
LINE
  5
DD
330
70
100
AcDbEntity
  8
レイヤー 1
 62
   250
420
  2299925
370
     9
100
AcDbLine
 10
73.23585892159046
 20
-145.8088775917073
 30
0.0
 11
73.23585892159046
 21
-146.309116480471
 31
0.0
  0
LINE
  5
DE
330
70
100
AcDbEntity
  8
レイヤー 1
 62
   250
420
  2299925
370
     9
100
AcDbLine
 10
74.69590027323059
 20
-145.8088775917073
 30
0.0
 11
72.23612200265143
 21
-145.8088775917073
 31
0.0
  0
LINE
  5
DF
330
70
100
AcDbEntity
  8
レイヤー 1
 62
   250
420
  2299925
370
     9
100
AcDbLine
 10
74.69590027323059
 20
-146.309116480471
 30
0.0
 11
72.23612200265143
 21
-146.309116480471
 31
0.0
  0
INSERT
  5
E1
330
70
100
AcDbEntity
  8
レイヤー 1
100
AcDbBlockReference
  2
Block_0
 10
0.0
 20
0.0
 30
0.0
  0
LINE
  5
EF
330
70
100
AcDbEntity
  8
レイヤー 1
 62
   250
420
  2299925
370
     9
100
AcDbLine
 10
75.46520275360404
 20
-141.0470831484535
 30
0.0
 11
96.46631027337672
 21
-141.0470831484535
 31
0.0
  0
LINE
  5
F0
330
70
100
AcDbEntity
  8
レイヤー 1
 62
   250
420
  2299925
370
     9
100
AcDbLine
 10
75.46520275360404
 20
-143.2691598145644
 30
0.0
 11
75.46520275360404
 21
-140.0469581487038
 31
0.0
  0
INSERT
  5
F2
330
70
100
AcDbEntity
  8
レイヤー 1
100
AcDbBlockReference
  2
Block_2
 10
0.0
 20
0.0
 30
0.0
  0
LINE
  5
FD
330
70
100
AcDbEntity
  8
レイヤー 1
 62
   250
420
  2299925
370
     9
100
AcDbLine
 10
73.23585892159046
 20
-146.309116480471
 30
0.0
 11
73.23585892159046
 21
-154.0058103674357
 31
0.0
  0
LINE
  5
FE
330
70
100
AcDbEntity
  8
レイヤー 1
 62
   250
420
  2299925
370
     9
100
AcDbLine
 10
92.92615008591594
 20
-154.0058103674357
 30
0.0
 11
72.23612200265143
 21
-154.0058103674357
 31
0.0
  0
INSERT
  5
100
330
70
100
AcDbEntity
  8
レイヤー 1
100
AcDbBlockReference
  2
Block_4
 10
0.0
 20
0.0
 30
0.0
  0
LINE
  5
107
330
70
100
AcDbEntity
  8
レイヤー 1
 62
   250
420
  2299925
370
     9
100
AcDbLine
 10
129.2953155469504
 20
-141.0470831484535
 30
0.0
 11
108.2940316382934
 21
-141.0470831484535
 31
0.0
  0
LINE
  5
108
330
70
100
AcDbEntity
  8
レイヤー 1
 62
   250
420
  2299925
370
     9
100
AcDbLine
 10
129.2953155469504
 20
-143.2691598145644
 30
0.0
 11
129.2953155469504
 21
-140.0469581487038
 31
0.0
  0
INSERT
  5
10A
330
70
100
AcDbEntity
  8
レイヤー 1
100
AcDbBlockReference
  2
Block_5
 10
0.0
 20
0.0
 30
0.0
  0
LINE
  5
115
330
70
100
AcDbEntity
  8
レイヤー 1
 62
   250
420
  2299925
370
     9
100
AcDbLine
 10
96.46631027337672
 20
-141.0470831484535
 30
0.0
 11
108.2940316382934
 21
-141.0470831484535
 31
0.0
  0
LINE
  5
116
330
70
100
AcDbEntity
  8
レイヤー 1
 62
   250
420
  2299925
370
     9
100
AcDbLine
 10
96.46631027337672
 20
-142.5071245369772
 30
0.0
 11
96.46631027337672
 21
-140.0469581487038
 31
0.0
  0
LINE
  5
117
330
70
100
AcDbEntity
  8
レイヤー 1
 62
   250
420
  2299925
370
     9
100
AcDbLine
 10
108.2940316382934
 20
-142.5071245369772
 30
0.0
 11
108.2940316382934
 21
-140.0469581487038
 31
0.0
  0
INSERT
  5
119
330
70
100
AcDbEntity
  8
レイヤー 1
100
AcDbBlockReference
  2
Block_7
 10
0.0
 20
0.0
 30
0.0
  0
SPLINE
  5
124
330
70
100
AcDbEntity
  8
レイヤー 1
 62
   250
420
  2299925
370
     9
100
AcDbSpline
210
0.0
220
0.0
230
1.0
 70
     9
 71
     3
 72
    17
 73
    13
 74
     0
 42
0.0000000001
 43
0.0000000001
 40
0.0
 40
0.0
 40
0.0
 40
0.0
 40
1.0
 40
1.0
 40
1.0
 40
2.0
 40
2.0
 40
2.0
 40
3.0
 40
3.0
 40
3.0
 40
4.0
 40
4.0
 40
4.0
 40
4.0
 10
95.69393862641488
 20
-158.1192698108519
 30
0.0
 10
95.69393862641488
 20
-158.0641306441988
 30
0.0
 10
95.64913584978013
 20
-158.0193631442102
 30
0.0
 10
95.59403196229705
 20
-158.0193631442102
 30
0.0
 10
95.5388927970371
 20
-158.0193631442102
 30
0.0
 10
95.49412819233301
 20
-158.0641306441988
 30
0.0
 10
95.49412819233301
 20
-158.1192698108519
 30
0.0
 10
95.49412819233301
 20
-158.1743736997268
 30
0.0
 10
95.5388927970371
 20
-158.2191764774935
 30
0.0
 10
95.59403196229705
 20
-158.2191764774935
 30
0.0
 10
95.64913584978013
 20
-158.2191764774935
 30
0.0
 10
95.69393862641488
 20
-158.1743736997268
 30
0.0
 10
95.69393862641488
 20
-158.1192698108519
 30
0.0
  0
SPLINE
  5
125
330
70
100
AcDbEntity
  8
レイヤー 1
 62
   250
420
  2299925
370
     9
100
AcDbSpline
210
0.0
220
0.0
230
1.0
 70
     9
 71
     3
 72
    17
 73
    13
 74
     0
 42
0.0000000001
 43
0.0000000001
 40
0.0
 40
0.0
 40
0.0
 40
0.0
 40
1.0
 40
1.0
 40
1.0
 40
2.0
 40
2.0
 40
2.0
 40
3.0
 40
3.0
 40
3.0
 40
4.0
 40
4.0
 40
4.0
 40
4.0
 10
109.5645607725461
 20
-158.1192698108519
 30
0.0
 10
109.5645607725461
 20
-158.0641306441988
 30
0.0
 10
109.5197932736883
 20
-158.0193631442102
 30
0.0
 10
109.4653596639659
 20
-158.0193631442102
 30
0.0
 10
109.4095502209452
 20
-158.0193631442102
 30
0.0
 10
109.3647474443105
 20
-158.0641306441988
 30
0.0
 10
109.3647474443105
 20
-158.1192698108519
 30
0.0
 10
109.3647474443105
 20
-158.1743736997268
 30
0.0
 10
109.4095502209452
 20
-158.2191764774935
 30
0.0
 10
109.4653596639659
 20
-158.2191764774935
 30
0.0
 10
109.5197932736883
 20
-158.2191764774935
 30
0.0
 10
109.5645607725461
 20
-158.1743736997268
 30
0.0
 10
109.5645607725461
 20
-158.1192698108519
 30
0.0
  0
LINE
  5
126
330
70
100
AcDbEntity
  8
レイヤー 1
 62
   250
420
  2299925
370
     9
100
AcDbLine
 10
109.4653596639659
 20
-158.1192698108519
 30
0.0
 11
95.59332640675917
 21
-158.1192698108519
 31
0.0
  0
LINE
  5
127
330
70
100
AcDbEntity
  8
レイヤー 1
 62
   250
420
  2299925
370
     9
100
AcDbLine
 10
109.4653596639659
 20
-156.6592284223282
 30
0.0
 11
109.4653596639659
 21
-159.119359532824
 31
0.0
  0
LINE
  5
128
330
70
100
AcDbEntity
  8
レイヤー 1
 62
   250
420
  2299925
370
     9
100
AcDbLine
 10
95.59332640675917
 20
-156.6592284223282
 30
0.0
 11
95.59332640675917
 21
-159.119359532824
 31
0.0
  0
INSERT
  5
12A
330
70
100
AcDbEntity
  8
レイヤー 1
100
AcDbBlockReference
  2
Block_9
 10
0.0
 20
0.0
 30
0.0
  0
LINE
  5
136
330
70
100
AcDbEntity
  8
レイヤー 1
 62
   250
420
  2299925
370
     9
100
AcDbLine
 10
106.270392523254
 20
-150.4542553683236
 30
0.0
 11
114.2705809302633
 21
-150.4542553683236
 31
0.0
  0
INSERT
  5
138
330
70
100
AcDbEntity
  8
レイヤー 1
100
AcDbBlockReference
  2
Block_11
 10
0.0
 20
0.0
 30
0.0
  0
LINE
  5
13D
330
70
100
AcDbEntity
  8
レイヤー 1
  6
AI-Linetype-0
 62
   154
420
    23468
370
    25
100
AcDbLine
 10
75.44452997635367
 20
-147.0332987025123
 30
0.0
 11
85.44443916567919
 21
-147.0332987025123
 31
0.0
  0
LINE
  5
13F
330
70
100
AcDbEntity
  8
レイヤー 1
  6
AI-Linetype-1
 62
   154
420
    23468
370
    25
100
AcDbLine
 10
119.3238402457884
 20
-146.9898717580788
 30
0.0
 11
129.3235730462295
 21
-146.9898717580788
 31
0.0
  0
INSERT
  5
142
330
70
100
AcDbEntity
  8
レイヤー 1
100
AcDbBlockReference
  2
Block_12
 10
0.0
 20
0.0
 30
0.0
  0
ENDSEC
  0
SECTION
  2
OBJECTS
  0
DICTIONARY
  5
C
330
0
100
AcDbDictionary
281
     1
  3
ACAD_COLOR
350
63
  3
ACAD_DETAILVIEWSTYLE
350
6A
  3
ACAD_GROUP
350
D
  3
ACAD_LAYOUT
350
62
  3
ACAD_MATERIAL
350
10
  3
ACAD_MLEADERSTYLE
350
66
  3
ACAD_MLINESTYLE
350
5F
  3
ACAD_PLOTSETTINGS
350
61
  3
ACAD_PLOTSTYLENAME
350
E
  3
ACAD_SCALELIST
350
42
  3
ACAD_SECTIONVIEWSTYLE
350
68
  3
ACAD_TABLESTYLE
350
64
  3
ACAD_VISUALSTYLE
350
29
  3
ACDB_RECOMPOSE_DATA
350
16F
  3
AcDbVariableDictionary
350
167
  0
DICTIONARY
  5
63
102
{ACAD_REACTORS
330
C
102
}
330
C
100
AcDbDictionary
281
     1
  0
DICTIONARY
  5
6A
102
{ACAD_REACTORS
330
C
102
}
330
C
100
AcDbDictionary
281
     1
  3
Imperial24
350
6B
  0
DICTIONARY
  5
D
102
{ACAD_REACTORS
330
C
102
}
330
C
100
AcDbDictionary
281
     1
  0
DICTIONARY
  5
62
102
{ACAD_REACTORS
330
C
102
}
330
C
100
AcDbDictionary
281
     1
  3
Layout1
350
6F
  3
Layout2
350
77
  3
Model
350
73
  0
DICTIONARY
  5
10
102
{ACAD_REACTORS
330
C
102
}
330
C
100
AcDbDictionary
281
     1
  3
ByBlock
350
19
  3
ByLayer
350
11
  3
Global
350
21
  0
DICTIONARY
  5
66
102
{ACAD_REACTORS
330
C
102
}
330
C
100
AcDbDictionary
281
     1
  3
Standard
350
67
  0
DICTIONARY
  5
5F
102
{ACAD_REACTORS
330
C
102
}
330
C
100
AcDbDictionary
281
     1
  3
Standard
350
60
  0
DICTIONARY
  5
61
102
{ACAD_REACTORS
330
C
102
}
330
C
100
AcDbDictionary
281
     1
  0
ACDBDICTIONARYWDFLT
  5
E
102
{ACAD_REACTORS
330
C
102
}
330
C
100
AcDbDictionary
281
     1
  3
Normal
350
F
100
AcDbDictionaryWithDefault
340
F
  0
DICTIONARY
  5
42
102
{ACAD_REACTORS
330
C
102
}
330
C
100
AcDbDictionary
281
     1
  3
A0
350
43
  3
A1
350
44
  3
A2
350
45
  3
A3
350
46
  3
A4
350
47
  3
A5
350
48
  3
A6
350
49
  3
A7
350
4A
  3
A8
350
4B
  3
A9
350
4C
  3
B0
350
4D
  3
B1
350
4E
  3
B2
350
4F
  3
B3
350
50
  3
B4
350
51
  3
B5
350
52
  3
B6
350
53
  0
DICTIONARY
  5
68
102
{ACAD_REACTORS
330
C
102
}
330
C
100
AcDbDictionary
281
     1
  3
Imperial24
350
69
  0
DICTIONARY
  5
64
102
{ACAD_REACTORS
330
C
102
}
330
C
100
AcDbDictionary
281
     1
  3
Standard
350
65
  0
DICTIONARY
  5
29
102
{ACAD_REACTORS
330
C
102
}
330
C
100
AcDbDictionary
281
     1
  3
2dWireframe
350
2F
  3
Basic
350
2E
  3
Brighten
350
35
  3
ColorChange
350
39
  3
Conceptual
350
32
  3
Dim
350
34
  3
EdgeColorOff
350
41
  3
Facepattern
350
38
  3
Flat
350
2A
  3
FlatWithEdges
350
2B
  3
Gouraud
350
2C
  3
GouraudWithEdges
350
2D
  3
Hidden
350
31
  3
JitterOff
350
3F
  3
Linepattern
350
37
  3
OverhangOff
350
40
  3
Realistic
350
33
  3
Shaded
350
3E
  3
Shaded with edges
350
3D
  3
Shades of Gray
350
3A
  3
Sketchy
350
3B
  3
Thicken
350
36
  3
Wireframe
350
30
  3
X-Ray
350
3C
  0
XRECORD
  5
16F
102
{ACAD_REACTORS
330
C
102
}
330
C
100
AcDbXrecord
280
     1
 90
        1
330
65
  0
DICTIONARY
  5
167
102
{ACAD_REACTORS
330
C
102
}
330
C
100
AcDbDictionary
281
     1
  3
CANNOSCALE
350
16C
  3
CMLEADERSTYLE
350
169
  3
CTABLESTYLE
350
168
  3
CVIEWDETAILSTYLE
350
16A
  3
CVIEWSECTIONSTYLE
350
16B
  0
ACDBDETAILVIEWSTYLE
  5
6B
102
{ACAD_XDICTIONARY
360
1A4
102
}
102
{ACAD_REACTORS
330
6A
102
}
330
6A
100
AcDbModelDocViewStyle
 70
     0
  3
Imperial24
290
     0
100
AcDbDetailViewStyle
 70
     0
 71
     0
 90
        3
 71
     1
340
55
 62
   256
 40
0.24
340
0
 62
   256
 40
0.24
300

 40
0.36
280
     3
 71
     2
340
5D
 90
       25
 62
   256
 71
     3
340
55
 62
   256
 40
0.24
 90
        1
 40
0.75
 90
        1
300
%<\AcVar ViewType \f "%tc1">% %<\AcVar ViewDetailId>%\PSCALE %<\AcVar ViewScale \f "%sn">%
 71
     4
340
5D
 90
       25
 62
   256
340
5D
 90
       25
 62
   256
280
     0
  0
LAYOUT
  5
6F
102
{ACAD_REACTORS
330
62
102
}
330
62
100
AcDbPlotSettings
  1

  2

  4

  6

 40
0.0
 41
0.0
 42
0.0
 43
0.0
 44
0.0
 45
0.0
 46
0.0
 47
0.0
 48
0.0
 49
0.0
140
0.0
141
0.0
142
1.0
143
1.0
 70
   688
 72
     0
 73
     0
 74
     5
  7

 75
    16
147
1.0
 76
     0
 77
     2
 78
   300
148
0.0
149
0.0
100
AcDbLayout
  1
Layout1
 70
     1
 71
     1
 10
0.0
 20
0.0
 11
12.0
 21
9.0
 12
0.0
 22
0.0
 32
0.0
 14
0.0
 24
0.0
 34
0.0
 15
0.0
 25
0.0
 35
0.0
146
0.0
 13
0.0
 23
0.0
 33
0.0
 16
1.0
 26
0.0
 36
0.0
 17
0.0
 27
1.0
 37
0.0
 76
     0
330
6C
  0
LAYOUT
  5
77
102
{ACAD_REACTORS
330
62
102
}
330
62
100
AcDbPlotSettings
  1

  2

  4

  6

 40
0.0
 41
0.0
 42
0.0
 43
0.0
 44
0.0
 45
0.0
 46
0.0
 47
0.0
 48
0.0
 49
0.0
140
0.0
141
0.0
142
1.0
143
1.0
 70
   688
 72
     0
 73
     0
 74
     5
  7

 75
    16
147
1.0
 76
     0
 77
     2
 78
   300
148
0.0
149
0.0
100
AcDbLayout
  1
Layout2
 70
     1
 71
     2
 10
0.0
 20
0.0
 11
12.0
 21
9.0
 12
0.0
 22
0.0
 32
0.0
 14
0.0
 24
0.0
 34
0.0
 15
0.0
 25
0.0
 35
0.0
146
0.0
 13
0.0
 23
0.0
 33
0.0
 16
1.0
 26
0.0
 36
0.0
 17
0.0
 27
1.0
 37
0.0
 76
     0
330
74
  0
LAYOUT
  5
73
102
{ACAD_REACTORS
330
62
102
}
330
62
100
AcDbPlotSettings
  1

  2

  4

  6

 40
0.0
 41
0.0
 42
0.0
 43
0.0
 44
0.0
 45
0.0
 46
0.0
 47
0.0
 48
0.0
 49
0.0
140
0.0
141
0.0
142
1.0
143
1.0
 70
  1712
 72
     0
 73
     0
 74
     0
  7

 75
     0
147
1.0
 76
     0
 77
     2
 78
   300
148
0.0
149
0.0
100
AcDbLayout
  1
Model
 70
     1
 71
     0
 10
0.0
 20
0.0
 11
12.0
 21
9.0
 12
0.0
 22
0.0
 32
0.0
 14
0.0
 24
0.0
 34
0.0
 15
0.0
 25
0.0
 35
0.0
146
0.0
 13
0.0
 23
0.0
 33
0.0
 16
1.0
 26
0.0
 36
0.0
 17
0.0
 27
1.0
 37
0.0
 76
     0
330
70
  0
MATERIAL
  5
19
102
{ACAD_XDICTIONARY
360
1A
102
}
102
{ACAD_REACTORS
330
10
102
}
330
10
100
AcDbMaterial
  1
ByBlock
 72
     0
 43
0.0208333333333333
 43
0.0
 43
0.0
 43
0.0
 43
0.0
 43
0.0208333333333333
 43
0.0
 43
0.0
 43
0.0
 43
0.0
 43
1.0
 43
0.0
 43
0.0
 43
0.0
 43
0.0
 43
1.0
 77
     0
 47
0.0208333333333333
 47
0.0
 47
0.0
 47
0.0
 47
0.0
 47
0.0208333333333333
 47
0.0
 47
0.0
 47
0.0
 47
0.0
 47
1.0
 47
0.0
 47
0.0
 47
0.0
 47
0.0
 47
1.0
171
     0
 49
0.0208333333333333
 49
0.0
 49
0.0
 49
0.0
 49
0.0
 49
0.0208333333333333
 49
0.0
 49
0.0
 49
0.0
 49
0.0
 49
1.0
 49
0.0
 49
0.0
 49
0.0
 49
0.0
 49
1.0
175
     0
142
0.0208333333333333
142
0.0
142
0.0
142
0.0
142
0.0
142
0.0208333333333333
142
0.0
142
0.0
142
0.0
142
0.0
142
1.0
142
0.0
142
0.0
142
0.0
142
0.0
142
1.0
179
     0
144
0.0208333333333333
144
0.0
144
0.0
144
0.0
144
0.0
144
0.0208333333333333
144
0.0
144
0.0
144
0.0
144
0.0
144
1.0
144
0.0
144
0.0
144
0.0
144
0.0
144
1.0
147
0.0208333333333333
147
0.0
147
0.0
147
0.0
147
0.0
147
0.0208333333333333
147
0.0
147
0.0
147
0.0
147
0.0
147
1.0
147
0.0
147
0.0
147
0.0
147
0.0
147
1.0
  0
MATERIAL
  5
11
102
{ACAD_XDICTIONARY
360
12
102
}
102
{ACAD_REACTORS
330
10
102
}
330
10
100
AcDbMaterial
  1
ByLayer
 72
     0
 43
0.0208333333333333
 43
0.0
 43
0.0
 43
0.0
 43
0.0
 43
0.0208333333333333
 43
0.0
 43
0.0
 43
0.0
 43
0.0
 43
1.0
 43
0.0
 43
0.0
 43
0.0
 43
0.0
 43
1.0
 77
     0
 47
0.0208333333333333
 47
0.0
 47
0.0
 47
0.0
 47
0.0
 47
0.0208333333333333
 47
0.0
 47
0.0
 47
0.0
 47
0.0
 47
1.0
 47
0.0
 47
0.0
 47
0.0
 47
0.0
 47
1.0
171
     0
 49
0.0208333333333333
 49
0.0
 49
0.0
 49
0.0
 49
0.0
 49
0.0208333333333333
 49
0.0
 49
0.0
 49
0.0
 49
0.0
 49
1.0
 49
0.0
 49
0.0
 49
0.0
 49
0.0
 49
1.0
175
     0
142
0.0208333333333333
142
0.0
142
0.0
142
0.0
142
0.0
142
0.0208333333333333
142
0.0
142
0.0
142
0.0
142
0.0
142
1.0
142
0.0
142
0.0
142
0.0
142
0.0
142
1.0
179
     0
144
0.0208333333333333
144
0.0
144
0.0
144
0.0
144
0.0
144
0.0208333333333333
144
0.0
144
0.0
144
0.0
144
0.0
144
1.0
144
0.0
144
0.0
144
0.0
144
0.0
144
1.0
147
0.0208333333333333
147
0.0
147
0.0
147
0.0
147
0.0
147
0.0208333333333333
147
0.0
147
0.0
147
0.0
147
0.0
147
1.0
147
0.0
147
0.0
147
0.0
147
0.0
147
1.0
  0
MATERIAL
  5
21
102
{ACAD_XDICTIONARY
360
22
102
}
102
{ACAD_REACTORS
330
10
102
}
330
10
100
AcDbMaterial
  1
Global
 72
     0
 43
0.0208333333333333
 43
0.0
 43
0.0
 43
0.0
 43
0.0
 43
0.0208333333333333
 43
0.0
 43
0.0
 43
0.0
 43
0.0
 43
1.0
 43
0.0
 43
0.0
 43
0.0
 43
0.0
 43
1.0
 77
     0
 47
0.0208333333333333
 47
0.0
 47
0.0
 47
0.0
 47
0.0
 47
0.0208333333333333
 47
0.0
 47
0.0
 47
0.0
 47
0.0
 47
1.0
 47
0.0
 47
0.0
 47
0.0
 47
0.0
 47
1.0
171
     0
 49
0.0208333333333333
 49
0.0
 49
0.0
 49
0.0
 49
0.0
 49
0.0208333333333333
 49
0.0
 49
0.0
 49
0.0
 49
0.0
 49
1.0
 49
0.0
 49
0.0
 49
0.0
 49
0.0
 49
1.0
175
     0
142
0.0208333333333333
142
0.0
142
0.0
142
0.0
142
0.0
142
0.0208333333333333
142
0.0
142
0.0
142
0.0
142
0.0
142
1.0
142
0.0
142
0.0
142
0.0
142
0.0
142
1.0
179
     0
144
0.0208333333333333
144
0.0
144
0.0
144
0.0
144
0.0
144
0.0208333333333333
144
0.0
144
0.0
144
0.0
144
0.0
144
1.0
144
0.0
144
0.0
144
0.0
144
0.0
144
1.0
147
0.0208333333333333
147
0.0
147
0.0
147
0.0
147
0.0
147
0.0208333333333333
147
0.0
147
0.0
147
0.0
147
0.0
147
1.0
147
0.0
147
0.0
147
0.0
147
0.0
147
1.0
  0
MLEADERSTYLE
  5
67
102
{ACAD_XDICTIONARY
360
1A0
102
}
102
{ACAD_REACTORS
330
66
102
}
330
66
100
AcDbMLeaderStyle
179
     2
170
     2
171
     1
172
     0
 90
        2
 40
0.0
 41
0.0
173
     1
 91
-1056964608
340
5B
 92
       -2
290
     1
 42
0.09
291
     1
 43
0.36
  3
Standard
 44
0.18
300

342
55
174
     1
178
     6
175
     1
176
     0
 93
-1056964608
 45
0.18
292
     0
297
     0
 46
0.18
 94
-1056964608
 47
1.0
 49
1.0
140
1.0
293
     1
141
0.0
294
     1
177
     0
142
1.0
295
     0
296
     0
143
0.125
271
     0
272
     9
273
     9
  0
MLINESTYLE
  5
60
102
{ACAD_REACTORS
330
5F
102
}
330
5F
100
AcDbMlineStyle
  2
STANDARD
 70
     0
  3

 62
   256
 51
90.0
 52
90.0
 71
     2
 49
0.5
 62
   256
  6
BYLAYER
 49
-0.5
 62
   256
  6
BYLAYER
  0
ACDBPLACEHOLDER
  5
F
102
{ACAD_REACTORS
330
E
102
}
330
E
  0
SCALE
  5
43
102
{ACAD_REACTORS
330
42
102
}
330
42
100
AcDbScale
 70
     0
300
1:1
140
1.0
141
1.0
290
     1
  0
SCALE
  5
44
102
{ACAD_REACTORS
330
42
102
}
330
42
100
AcDbScale
 70
     0
300
1/128" = 1'-0"
140
0.0078125
141
12.0
290
     0
  0
SCALE
  5
45
102
{ACAD_REACTORS
330
42
102
}
330
42
100
AcDbScale
 70
     0
300
1/64" = 1'-0"
140
0.015625
141
12.0
290
     0
  0
SCALE
  5
46
102
{ACAD_REACTORS
330
42
102
}
330
42
100
AcDbScale
 70
     0
300
1/32" = 1'-0"
140
0.03125
141
12.0
290
     0
  0
SCALE
  5
47
102
{ACAD_REACTORS
330
42
102
}
330
42
100
AcDbScale
 70
     0
300
1/16" = 1'-0"
140
0.0625
141
12.0
290
     0
  0
SCALE
  5
48
102
{ACAD_REACTORS
330
42
102
}
330
42
100
AcDbScale
 70
     0
300
3/32" = 1'-0"
140
0.09375
141
12.0
290
     0
  0
SCALE
  5
49
102
{ACAD_REACTORS
330
42
102
}
330
42
100
AcDbScale
 70
     0
300
1/8" = 1'-0"
140
0.125
141
12.0
290
     0
  0
SCALE
  5
4A
102
{ACAD_REACTORS
330
42
102
}
330
42
100
AcDbScale
 70
     0
300
3/16" = 1'-0"
140
0.1875
141
12.0
290
     0
  0
SCALE
  5
4B
102
{ACAD_REACTORS
330
42
102
}
330
42
100
AcDbScale
 70
     0
300
1/4" = 1'-0"
140
0.25
141
12.0
290
     0
  0
SCALE
  5
4C
102
{ACAD_REACTORS
330
42
102
}
330
42
100
AcDbScale
 70
     0
300
3/8" = 1'-0"
140
0.375
141
12.0
290
     0
  0
SCALE
  5
4D
102
{ACAD_REACTORS
330
42
102
}
330
42
100
AcDbScale
 70
     0
300
1/2" = 1'-0"
140
0.5
141
12.0
290
     0
  0
SCALE
  5
4E
102
{ACAD_REACTORS
330
42
102
}
330
42
100
AcDbScale
 70
     0
300
3/4" = 1'-0"
140
0.75
141
12.0
290
     0
  0
SCALE
  5
4F
102
{ACAD_REACTORS
330
42
102
}
330
42
100
AcDbScale
 70
     0
300
1" = 1'-0"
140
1.0
141
12.0
290
     0
  0
SCALE
  5
50
102
{ACAD_REACTORS
330
42
102
}
330
42
100
AcDbScale
 70
     0
300
1-1/2" = 1'-0"
140
1.5
141
12.0
290
     0
  0
SCALE
  5
51
102
{ACAD_REACTORS
330
42
102
}
330
42
100
AcDbScale
 70
     0
300
3" = 1'-0"
140
3.0
141
12.0
290
     0
  0
SCALE
  5
52
102
{ACAD_REACTORS
330
42
102
}
330
42
100
AcDbScale
 70
     0
300
6" = 1'-0"
140
6.0
141
12.0
290
     0
  0
SCALE
  5
53
102
{ACAD_REACTORS
330
42
102
}
330
42
100
AcDbScale
 70
     0
300
1'-0" = 1'-0"
140
12.0
141
12.0
290
     0
  0
ACDBSECTIONVIEWSTYLE
  5
69
102
{ACAD_XDICTIONARY
360
1A2
102
}
102
{ACAD_REACTORS
330
68
102
}
330
68
100
AcDbModelDocViewStyle
 70
     0
  3
Imperial24
290
     0
100
AcDbSectionViewStyle
 70
     0
 71
     0
 90
       78
 71
     1
340
55
 62
   256
 40
0.24
340
0
340
0
 62
   256
 40
0.24
300
I, O, Q, S, X, Z
 40
0.48
 90
        3
 40
0.18
 90
        1
 71
     2
340
5D
 90
       25
 62
   256
340
5D
 90
       50
 62
   256
 40
0.24
 40
0.0
 40
0.24
 71
     3
340
55
 62
   256
 40
0.24
 90
        1
 40
0.75
 90
        1
300
%<\AcVar ViewType \f "%tc1">% %<\AcVar ViewSectionStartId>%-%<\AcVar ViewSectionEndId>%\PSCALE %<\AcVar ViewScale \f "%sn">%
 71
     4
 62
   256
 62
   257
300
ANSI31
 40
1.0
 90
        0
290
     0
290
     0
 90
        6
 40
0.0
 40
1.570796326794896
 40
0.2617993877991494
 40
1.308996938995747
 40
-0.2617993877991494
 40
1.832595714594046
  0
TABLESTYLE
  5
65
102
{ACAD_XDICTIONARY
360
16D
102
}
102
{ACAD_REACTORS
330
64
102
}
330
64
100
AcDbTableStyle
280
     0
  3
Standard
 70
     0
 71
     0
 40
0.06
 41
0.06
280
     0
281
     0
  7
Standard
140
0.18
170
     2
 62
     0
 63
     7
283
     0
 90
      512
 91
        0
  1

274
    -2
284
     1
 64
     0
275
    -2
285
     1
 65
     0
276
    -2
286
     1
 66
     0
277
    -2
287
     1
 67
     0
278
    -2
288
     1
 68
     0
279
    -2
289
     1
 69
     0
  7
Standard
140
0.25
170
     5
 62
     0
 63
     7
283
     0
 90
      512
 91
        0
  1

274
    -2
284
     1
 64
     0
275
    -2
285
     1
 65
     0
276
    -2
286
     1
 66
     0
277
    -2
287
     1
 67
     0
278
    -2
288
     1
 68
     0
279
    -2
289
     1
 69
     0
  7
Standard
140
0.18
170
     5
 62
     0
 63
     7
283
     0
 90
      512
 91
        0
  1

274
    -2
284
     1
 64
     0
275
    -2
285
     1
 65
     0
276
    -2
286
     1
 66
     0
277
    -2
287
     1
 67
     0
278
    -2
288
     1
 68
     0
279
    -2
289
     1
 69
     0
  0
VISUALSTYLE
  5
2F
102
{ACAD_XDICTIONARY
360
17A
102
}
102
{ACAD_REACTORS
330
29
102
}
330
29
100
AcDbVisualStyle
  2
2dWireframe
 70
     4
177
     2
291
     0
 71
     0
176
     1
 72
     2
176
     1
 73
     0
176
     1
 90
        0
176
     1
 40
0.6
176
     1
 41
30.0
176
     1
 63
     7
421
 16777215
176
     1
 74
     1
176
     1
 91
        4
176
     1
 64
     7
176
     1
 65
   257
176
     1
 75
     1
176
     1
175
     1
176
     1
 42
1.0
176
     1
 92
        0
176
     1
 66
   257
176
     1
 43
1.0
176
     1
 76
     1
176
     1
 77
     6
176
     1
 78
     2
176
     1
 67
     7
176
     1
 79
     5
176
     1
170
     0
176
     1
171
     0
176
     1
290
     0
176
     1
 93
        1
176
     1
 44
0.0
176
     1
173
     0
176
     1
1001
ACAD
1000
AcDbSavedByObjectVersion
1070
     0
  0
VISUALSTYLE
  5
2E
102
{ACAD_XDICTIONARY
360
178
102
}
102
{ACAD_REACTORS
330
29
102
}
330
29
100
AcDbVisualStyle
  2
Basic
 70
     7
177
     2
291
     1
 71
     1
176
     1
 72
     0
176
     1
 73
     1
176
     1
 90
        0
176
     1
 40
0.6
176
     1
 41
30.0
176
     1
 63
     7
421
 16777215
176
     1
 74
     0
176
     1
 91
        4
176
     1
 64
     7
176
     1
 65
   257
176
     1
 75
     1
176
     1
175
     1
176
     1
 42
1.0
176
     1
 92
        8
176
     1
 66
     7
176
     1
 43
1.0
176
     1
 76
     1
176
     1
 77
     6
176
     1
 78
     2
176
     1
 67
     7
176
     1
 79
     5
176
     1
170
     0
176
     1
171
     0
176
     1
290
     0
176
     1
 93
        1
176
     1
 44
0.0
176
     1
173
     0
176
     1
1001
ACAD
1000
AcDbSavedByObjectVersion
1070
     0
  0
VISUALSTYLE
  5
35
102
{ACAD_XDICTIONARY
360
186
102
}
102
{ACAD_REACTORS
330
29
102
}
330
29
100
AcDbVisualStyle
  2
Brighten
 70
    12
177
     2
291
     1
 71
     2
176
     1
 72
     2
176
     1
 73
     0
176
     1
 90
        0
176
     1
 40
0.6
176
     1
 41
30.0
176
     1
 63
     7
421
 16777215
176
     1
 74
     1
176
     1
 91
        4
176
     1
 64
     7
176
     1
 65
   257
176
     1
 75
     1
176
     1
175
     1
176
     1
 42
1.0
176
     1
 92
        8
176
     1
 66
     7
176
     1
 43
1.0
176
     1
 76
     1
176
     1
 77
     6
176
     1
 78
     2
176
     1
 67
     7
176
     1
 79
     5
176
     1
170
     0
176
     1
171
     0
176
     1
290
     0
176
     1
 93
        1
176
     1
 44
50.0
176
     1
173
     0
176
     1
1001
ACAD
1000
AcDbSavedByObjectVersion
1070
     0
  0
VISUALSTYLE
  5
39
102
{ACAD_XDICTIONARY
360
18E
102
}
102
{ACAD_REACTORS
330
29
102
}
330
29
100
AcDbVisualStyle
  2
ColorChange
 70
    16
177
     2
291
     1
 71
     2
176
     1
 72
     2
176
     1
 73
     3
176
     1
 90
        0
176
     1
 40
0.6
176
     1
 41
30.0
176
     1
 63
     8
421
  8421504
176
     1
 74
     1
176
     1
 91
        4
176
     1
 64
     7
176
     1
 65
   257
176
     1
 75
     1
176
     1
175
     1
176
     1
 42
1.0
176
     1
 92
        8
176
     1
 66
     8
424
  8421504
176
     1
 43
1.0
176
     1
 76
     1
176
     1
 77
     6
176
     1
 78
     2
176
     1
 67
     7
176
     1
 79
     5
176
     1
170
     0
176
     1
171
     0
176
     1
290
     0
176
     1
 93
        1
176
     1
 44
0.0
176
     1
173
     0
176
     1
1001
ACAD
1000
AcDbSavedByObjectVersion
1070
     0
  0
VISUALSTYLE
  5
32
102
{ACAD_XDICTIONARY
360
180
102
}
102
{ACAD_REACTORS
330
29
102
}
330
29
100
AcDbVisualStyle
  2
Conceptual
 70
     9
177
     2
291
     0
 71
     3
176
     1
 72
     2
176
     1
 73
     0
176
     1
 90
        0
176
     1
 40
0.6
176
     1
 41
30.0
176
     1
 63
     7
421
 16777215
176
     1
 74
     2
176
     1
 91
        2
176
     1
 64
     7
176
     1
 65
   257
176
     1
 75
     1
176
     1
175
     1
176
     1
 42
179.0
176
     1
 92
        8
176
     1
 66
     7
176
     1
 43
1.0
176
     1
 76
     1
176
     1
 77
     6
176
     1
 78
     2
176
     1
 67
     7
176
     1
 79
     3
176
     1
170
     0
176
     1
171
     0
176
     1
290
     0
176
     1
 93
        1
176
     1
 44
0.0
176
     1
173
     0
176
     1
1001
ACAD
1000
AcDbSavedByObjectVersion
1070
     0
  0
VISUALSTYLE
  5
34
102
{ACAD_XDICTIONARY
360
184
102
}
102
{ACAD_REACTORS
330
29
102
}
330
29
100
AcDbVisualStyle
  2
Dim
 70
    11
177
     2
291
     1
 71
     2
176
     1
 72
     2
176
     1
 73
     0
176
     1
 90
        0
176
     1
 40
0.6
176
     1
 41
30.0
176
     1
 63
     7
421
 16777215
176
     1
 74
     1
176
     1
 91
        4
176
     1
 64
     7
176
     1
 65
   257
176
     1
 75
     1
176
     1
175
     1
176
     1
 42
1.0
176
     1
 92
        8
176
     1
 66
     7
176
     1
 43
1.0
176
     1
 76
     1
176
     1
 77
     6
176
     1
 78
     2
176
     1
 67
     7
176
     1
 79
     5
176
     1
170
     0
176
     1
171
     0
176
     1
290
     0
176
     1
 93
        1
176
     1
 44
-50.0
176
     1
173
     0
176
     1
1001
ACAD
1000
AcDbSavedByObjectVersion
1070
     0
  0
VISUALSTYLE
  5
41
102
{ACAD_XDICTIONARY
360
19E
102
}
102
{ACAD_REACTORS
330
29
102
}
330
29
100
AcDbVisualStyle
  2
EdgeColorOff
 70
    22
177
     2
291
     1
 71
     2
176
     0
 72
     2
176
     0
 73
     0
176
     0
 90
        0
176
     0
 40
0.6
176
     0
 41
30.0
176
     0
 63
     7
421
 16777215
176
     0
 74
     1
176
     0
 91
        4
176
     0
 64
     7
176
     0
 65
   257
176
     0
 75
     1
176
     0
175
     1
176
     0
 42
1.0
176
     0
 92
        8
176
     2
 66
     7
176
     0
 43
1.0
176
     0
 76
     1
176
     0
 77
     6
176
     0
 78
     2
176
     0
 67
     7
176
     0
 79
     5
176
     0
170
     0
176
     0
171
     0
176
     0
290
     0
176
     0
 93
        1
176
     0
 44
0.0
176
     0
173
     0
176
     0
1001
ACAD
1000
AcDbSavedByObjectVersion
1070
     0
  0
VISUALSTYLE
  5
38
102
{ACAD_XDICTIONARY
360
18C
102
}
102
{ACAD_REACTORS
330
29
102
}
330
29
100
AcDbVisualStyle
  2
Facepattern
 70
    15
177
     2
291
     1
 71
     2
176
     1
 72
     2
176
     1
 73
     0
176
     1
 90
        0
176
     1
 40
0.6
176
     1
 41
30.0
176
     1
 63
     7
421
 16777215
176
     1
 74
     1
176
     1
 91
        4
176
     1
 64
     7
176
     1
 65
   257
176
     1
 75
     1
176
     1
175
     1
176
     1
 42
1.0
176
     1
 92
        8
176
     1
 66
     7
176
     1
 43
1.0
176
     1
 76
     1
176
     1
 77
     6
176
     1
 78
     2
176
     1
 67
     7
176
     1
 79
     5
176
     1
170
     0
176
     1
171
     0
176
     1
290
     0
176
     1
 93
        1
176
     1
 44
0.0
176
     1
173
     0
176
     1
1001
ACAD
1000
AcDbSavedByObjectVersion
1070
     0
  0
VISUALSTYLE
  5
2A
102
{ACAD_XDICTIONARY
360
170
102
}
102
{ACAD_REACTORS
330
29
102
}
330
29
100
AcDbVisualStyle
  2
Flat
 70
     0
177
     2
291
     1
 71
     2
176
     1
 72
     1
176
     1
 73
     1
176
     1
 90
        2
176
     1
 40
0.6
176
     1
 41
30.0
176
     1
 63
     7
421
 16777215
176
     1
 74
     0
176
     1
 91
        0
176
     1
 64
     7
176
     1
 65
   257
176
     1
 75
     1
176
     1
175
     1
176
     1
 42
1.0
176
     1
 92
        8
176
     1
 66
     7
176
     1
 43
1.0
176
     1
 76
     1
176
     1
 77
     6
176
     1
 78
     2
176
     1
 67
     7
176
     1
 79
     5
176
     1
170
     0
176
     1
171
     0
176
     1
290
     0
176
     1
 93
       13
176
     1
 44
0.0
176
     1
173
     0
176
     1
1001
ACAD
1000
AcDbSavedByObjectVersion
1070
     0
  0
VISUALSTYLE
  5
2B
102
{ACAD_XDICTIONARY
360
172
102
}
102
{ACAD_REACTORS
330
29
102
}
330
29
100
AcDbVisualStyle
  2
FlatWithEdges
 70
     1
177
     2
291
     1
 71
     2
176
     1
 72
     1
176
     1
 73
     1
176
     1
 90
        2
176
     1
 40
0.6
176
     1
 41
30.0
176
     1
 63
     7
421
 16777215
176
     1
 74
     1
176
     1
 91
        0
176
     1
 64
     7
176
     1
 65
   257
176
     1
 75
     1
176
     1
175
     1
176
     1
 42
1.0
176
     1
 92
        0
176
     1
 66
   257
176
     1
 43
1.0
176
     1
 76
     1
176
     1
 77
     6
176
     1
 78
     2
176
     1
 67
     7
176
     1
 79
     5
176
     1
170
     0
176
     1
171
     0
176
     1
290
     0
176
     1
 93
       13
176
     1
 44
0.0
176
     1
173
     0
176
     1
1001
ACAD
1000
AcDbSavedByObjectVersion
1070
     0
  0
VISUALSTYLE
  5
2C
102
{ACAD_XDICTIONARY
360
174
102
}
102
{ACAD_REACTORS
330
29
102
}
330
29
100
AcDbVisualStyle
  2
Gouraud
 70
     2
177
     2
291
     1
 71
     2
176
     1
 72
     2
176
     1
 73
     1
176
     1
 90
        2
176
     1
 40
0.6
176
     1
 41
30.0
176
     1
 63
     7
421
 16777215
176
     1
 74
     0
176
     1
 91
        0
176
     1
 64
     7
176
     1
 65
   257
176
     1
 75
     1
176
     1
175
     1
176
     1
 42
1.0
176
     1
 92
        0
176
     1
 66
     7
176
     1
 43
1.0
176
     1
 76
     1
176
     1
 77
     6
176
     1
 78
     2
176
     1
 67
     7
176
     1
 79
     5
176
     1
170
     0
176
     1
171
     0
176
     1
290
     0
176
     1
 93
       13
176
     1
 44
0.0
176
     1
173
     0
176
     1
1001
ACAD
1000
AcDbSavedByObjectVersion
1070
     0
  0
VISUALSTYLE
  5
2D
102
{ACAD_XDICTIONARY
360
176
102
}
102
{ACAD_REACTORS
330
29
102
}
330
29
100
AcDbVisualStyle
  2
GouraudWithEdges
 70
     3
177
     2
291
     1
 71
     2
176
     1
 72
     2
176
     1
 73
     1
176
     1
 90
        2
176
     1
 40
0.6
176
     1
 41
30.0
176
     1
 63
     7
421
 16777215
176
     1
 74
     1
176
     1
 91
        0
176
     1
 64
     7
176
     1
 65
   257
176
     1
 75
     1
176
     1
175
     1
176
     1
 42
1.0
176
     1
 92
        0
176
     1
 66
   257
176
     1
 43
1.0
176
     1
 76
     1
176
     1
 77
     6
176
     1
 78
     2
176
     1
 67
     7
176
     1
 79
     5
176
     1
170
     0
176
     1
171
     0
176
     1
290
     0
176
     1
 93
       13
176
     1
 44
0.0
176
     1
173
     0
176
     1
1001
ACAD
1000
AcDbSavedByObjectVersion
1070
     0
  0
VISUALSTYLE
  5
31
102
{ACAD_XDICTIONARY
360
17E
102
}
102
{ACAD_REACTORS
330
29
102
}
330
29
100
AcDbVisualStyle
  2
Hidden
 70
     6
177
     2
291
     0
 71
     1
176
     1
 72
     2
176
     1
 73
     2
176
     1
 90
        0
176
     1
 40
0.6
176
     1
 41
30.0
176
     1
 63
     7
421
 16777215
176
     1
 74
     2
176
     1
 91
        2
176
     1
 64
     7
176
     1
 65
   257
176
     1
 75
     2
176
     1
175
     1
176
     1
 42
40.0
176
     1
 92
        0
176
     1
 66
   257
176
     1
 43
1.0
176
     1
 76
     1
176
     1
 77
     6
176
     1
 78
     2
176
     1
 67
     7
176
     1
 79
     3
176
     1
170
     0
176
     1
171
     0
176
     1
290
     0
176
     1
 93
        1
176
     1
 44
0.0
176
     1
173
     0
176
     1
1001
ACAD
1000
AcDbSavedByObjectVersion
1070
     0
  0
VISUALSTYLE
  5
3F
102
{ACAD_XDICTIONARY
360
19A
102
}
102
{ACAD_REACTORS
330
29
102
}
330
29
100
AcDbVisualStyle
  2
JitterOff
 70
    20
177
     2
291
     1
 71
     2
176
     0
 72
     2
176
     0
 73
     0
176
     0
 90
        0
176
     0
 40
0.6
176
     0
 41
30.0
176
     0
 63
     7
421
 16777215
176
     0
 74
     1
176
     0
 91
        4
176
     0
 64
     7
176
     0
 65
   257
176
     0
 75
     1
176
     0
175
     1
176
     0
 42
1.0
176
     0
 92
       10
176
     2
 66
     7
176
     0
 43
1.0
176
     0
 76
     1
176
     0
 77
     6
176
     0
 78
     2
176
     0
 67
     7
176
     0
 79
     5
176
     0
170
     0
176
     0
171
     0
176
     0
290
     0
176
     0
 93
        1
176
     0
 44
0.0
176
     0
173
     0
176
     0
1001
ACAD
1000
AcDbSavedByObjectVersion
1070
     0
  0
VISUALSTYLE
  5
37
102
{ACAD_XDICTIONARY
360
18A
102
}
102
{ACAD_REACTORS
330
29
102
}
330
29
100
AcDbVisualStyle
  2
Linepattern
 70
    14
177
     2
291
     1
 71
     2
176
     1
 72
     2
176
     1
 73
     0
176
     1
 90
        0
176
     1
 40
0.6
176
     1
 41
30.0
176
     1
 63
     7
421
 16777215
176
     1
 74
     1
176
     1
 91
        4
176
     1
 64
     7
176
     1
 65
   257
176
     1
 75
     7
176
     1
175
     7
176
     1
 42
1.0
176
     1
 92
        8
176
     1
 66
     7
176
     1
 43
1.0
176
     1
 76
     1
176
     1
 77
     6
176
     1
 78
     2
176
     1
 67
     7
176
     1
 79
     5
176
     1
170
     0
176
     1
171
     0
176
     1
290
     0
176
     1
 93
        1
176
     1
 44
0.0
176
     1
173
     0
176
     1
1001
ACAD
1000
AcDbSavedByObjectVersion
1070
     0
  0
VISUALSTYLE
  5
40
102
{ACAD_XDICTIONARY
360
19C
102
}
102
{ACAD_REACTORS
330
29
102
}
330
29
100
AcDbVisualStyle
  2
OverhangOff
 70
    21
177
     2
291
     1
 71
     2
176
     0
 72
     2
176
     0
 73
     0
176
     0
 90
        0
176
     0
 40
0.6
176
     0
 41
30.0
176
     0
 63
     7
421
 16777215
176
     0
 74
     1
176
     0
 91
        4
176
     0
 64
     7
176
     0
 65
   257
176
     0
 75
     1
176
     0
175
     1
176
     0
 42
1.0
176
     0
 92
        9
176
     2
 66
     7
176
     0
 43
1.0
176
     0
 76
     1
176
     0
 77
     6
176
     0
 78
     2
176
     0
 67
     7
176
     0
 79
     5
176
     0
170
     0
176
     0
171
     0
176
     0
290
     0
176
     0
 93
        1
176
     0
 44
0.0
176
     0
173
     0
176
     0
1001
ACAD
1000
AcDbSavedByObjectVersion
1070
     0
  0
VISUALSTYLE
  5
33
102
{ACAD_XDICTIONARY
360
182
102
}
102
{ACAD_REACTORS
330
29
102
}
330
29
100
AcDbVisualStyle
  2
Realistic
 70
     8
177
     2
291
     0
 71
     2
176
     1
 72
     3
176
     1
 73
     0
176
     1
 90
        2
176
     1
 40
0.6
176
     1
 41
30.0
176
     1
 63
     7
421
 16777215
176
     1
 74
     0
176
     1
 91
        0
176
     1
 64
     7
176
     1
 65
   257
176
     1
 75
     1
176
     1
175
     1
176
     1
 42
1.0
176
     1
 92
        8
176
     1
 66
   257
176
     1
 43
1.0
176
     1
 76
     1
176
     1
 77
     6
176
     1
 78
     2
176
     1
 67
     7
176
     1
 79
     3
176
     1
170
     0
176
     1
171
     0
176
     1
290
     0
176
     1
 93
       13
176
     1
 44
0.0
176
     1
173
     0
176
     1
1001
ACAD
1000
AcDbSavedByObjectVersion
1070
     0
  0
VISUALSTYLE
  5
3E
102
{ACAD_XDICTIONARY
360
198
102
}
102
{ACAD_REACTORS
330
29
102
}
330
29
100
AcDbVisualStyle
  2
Shaded
 70
    27
177
     2
291
     0
 71
     2
176
     1
 72
     2
176
     1
 73
     1
176
     1
 90
        2
176
     1
 40
0.6
176
     1
 41
30.0
176
     1
 63
     7
421
 16777215
176
     1
 74
     0
176
     1
 91
        4
176
     1
 64
     7
176
     1
 65
   257
176
     1
 75
     1
176
     1
175
     1
176
     1
 42
1.0
176
     1
 92
        8
176
     1
 66
   257
176
     1
 43
1.0
176
     1
 76
     1
176
     1
 77
     6
176
     1
 78
     2
176
     1
 67
     8
425
  7895160
176
     1
 79
     3
176
     1
170
     0
176
     1
171
     0
176
     1
290
     0
176
     1
 93
        5
176
     1
 44
0.0
176
     1
173
     0
176
     1
1001
ACAD
1000
AcDbSavedByObjectVersion
1070
     0
  0
VISUALSTYLE
  5
3D
102
{ACAD_XDICTIONARY
360
196
102
}
102
{ACAD_REACTORS
330
29
102
}
330
29
100
AcDbVisualStyle
  2
Shaded with edges
 70
    26
177
     2
291
     0
 71
     2
176
     1
 72
     2
176
     1
 73
     1
176
     1
 90
        2
176
     1
 40
0.6
176
     1
 41
30.0
176
     1
 63
     7
421
 16777215
176
     1
 74
     1
176
     1
 91
        2
176
     1
 64
     7
176
     1
 65
   257
176
     1
 75
     2
176
     1
175
     1
176
     1
 42
1.0
176
     1
 92
        8
176
     1
 66
   257
176
     1
 43
1.0
176
     1
 76
     1
176
     1
 77
     6
176
     1
 78
     2
176
     1
 67
     7
176
     1
 79
     3
176
     1
170
     0
176
     1
171
     0
176
     1
290
     0
176
     1
 93
        5
176
     1
 44
0.0
176
     1
173
     0
176
     1
1001
ACAD
1000
AcDbSavedByObjectVersion
1070
     0
  0
VISUALSTYLE
  5
3A
102
{ACAD_XDICTIONARY
360
190
102
}
102
{ACAD_REACTORS
330
29
102
}
330
29
100
AcDbVisualStyle
  2
Shades of Gray
 70
    23
177
     2
291
     0
 71
     2
176
     1
 72
     2
176
     1
 73
     3
176
     1
 90
        0
176
     1
 40
0.6
176
     1
 41
30.0
176
     1
 63
     7
421
 16777215
176
     1
 74
     2
176
     1
 91
        2
176
     1
 64
     7
176
     1
 65
     7
176
     1
 75
     1
176
     1
175
     1
176
     1
 42
40.0
176
     1
 92
        8
176
     1
 66
     7
176
     1
 43
1.0
176
     1
 76
     1
176
     1
 77
     6
176
     1
 78
     2
176
     1
 67
     7
176
     1
 79
     3
176
     1
170
     0
176
     1
171
     0
176
     1
290
     0
176
     1
 93
        1
176
     1
 44
0.0
176
     1
173
     0
176
     1
1001
ACAD
1000
AcDbSavedByObjectVersion
1070
     0
  0
VISUALSTYLE
  5
3B
102
{ACAD_XDICTIONARY
360
192
102
}
102
{ACAD_REACTORS
330
29
102
}
330
29
100
AcDbVisualStyle
  2
Sketchy
 70
    24
177
     2
291
     0
 71
     1
176
     1
 72
     2
176
     1
 73
     2
176
     1
 90
        0
176
     1
 40
0.6
176
     1
 41
30.0
176
     1
 63
     7
421
 16777215
176
     1
 74
     2
176
     1
 91
        2
176
     1
 64
     7
176
     1
 65
     7
176
     1
 75
     1
176
     1
175
     1
176
     1
 42
40.0
176
     1
 92
       11
176
     1
 66
     7
176
     1
 43
1.0
176
     1
 76
     1
176
     1
 77
     6
176
     1
 78
     2
176
     1
 67
     7
176
     1
 79
     6
176
     1
170
     0
176
     1
171
     0
176
     1
290
     0
176
     1
 93
        1
176
     1
 44
0.0
176
     1
173
     0
176
     1
1001
ACAD
1000
AcDbSavedByObjectVersion
1070
     0
  0
VISUALSTYLE
  5
36
102
{ACAD_XDICTIONARY
360
188
102
}
102
{ACAD_REACTORS
330
29
102
}
330
29
100
AcDbVisualStyle
  2
Thicken
 70
    13
177
     2
291
     1
 71
     2
176
     1
 72
     2
176
     1
 73
     0
176
     1
 90
        0
176
     1
 40
0.6
176
     1
 41
30.0
176
     1
 63
     7
421
 16777215
176
     1
 74
     1
176
     1
 91
        4
176
     1
 64
     7
176
     1
 65
   257
176
     1
 75
     1
176
     1
175
     1
176
     1
 42
1.0
176
     1
 92
       12
176
     1
 66
     7
176
     1
 43
1.0
176
     1
 76
     1
176
     1
 77
     6
176
     1
 78
     2
176
     1
 67
     7
176
     1
 79
     5
176
     1
170
     0
176
     1
171
     0
176
     1
290
     0
176
     1
 93
        1
176
     1
 44
0.0
176
     1
173
     0
176
     1
1001
ACAD
1000
AcDbSavedByObjectVersion
1070
     0
  0
VISUALSTYLE
  5
30
102
{ACAD_XDICTIONARY
360
17C
102
}
102
{ACAD_REACTORS
330
29
102
}
330
29
100
AcDbVisualStyle
  2
Wireframe
 70
     5
177
     2
291
     0
 71
     0
176
     1
 72
     2
176
     1
 73
     0
176
     1
 90
        0
176
     1
 40
0.6
176
     1
 41
30.0
176
     1
 63
     7
421
 16777215
176
     1
 74
     1
176
     1
 91
        4
176
     1
 64
     7
176
     1
 65
   257
176
     1
 75
     1
176
     1
175
     1
176
     1
 42
1.0
176
     1
 92
        0
176
     1
 66
   257
176
     1
 43
1.0
176
     1
 76
     1
176
     1
 77
     6
176
     1
 78
     2
176
     1
 67
     7
176
     1
 79
     3
176
     1
170
     0
176
     1
171
     0
176
     1
290
     0
176
     1
 93
        1
176
     1
 44
0.0
176
     1
173
     0
176
     1
1001
ACAD
1000
AcDbSavedByObjectVersion
1070
     0
  0
VISUALSTYLE
  5
3C
102
{ACAD_XDICTIONARY
360
194
102
}
102
{ACAD_REACTORS
330
29
102
}
330
29
100
AcDbVisualStyle
  2
X-Ray
 70
    25
177
     2
291
     0
 71
     2
176
     1
 72
     2
176
     1
 73
     1
176
     1
 90
        1
176
     1
 40
0.5
176
     1
 41
30.0
176
     1
 63
     7
421
 16777215
176
     1
 74
     1
176
     1
 91
        0
176
     1
 64
     7
176
     1
 65
   257
176
     1
 75
     1
176
     1
175
     1
176
     1
 42
1.0
176
     1
 92
        8
176
     1
 66
     7
176
     1
 43
1.0
176
     1
 76
     1
176
     1
 77
     6
176
     1
 78
     2
176
     1
 67
     7
176
     1
 79
     3
176
     1
170
     0
176
     1
171
     0
176
     1
290
     0
176
     1
 93
       13
176
     1
 44
0.0
176
     1
173
     0
176
     1
1001
ACAD
1000
AcDbSavedByObjectVersion
1070
     0
  0
DICTIONARYVAR
  5
16C
102
{ACAD_REACTORS
330
167
102
}
330
167
100
DictionaryVariables
280
     0
  1
1:1
  0
DICTIONARYVAR
  5
169
102
{ACAD_REACTORS
330
167
102
}
330
167
100
DictionaryVariables
280
     0
  1
STANDARD
  0
DICTIONARYVAR
  5
168
102
{ACAD_REACTORS
330
167
102
}
330
167
100
DictionaryVariables
280
     0
  1
STANDARD
  0
DICTIONARYVAR
  5
16A
102
{ACAD_REACTORS
330
167
102
}
330
167
100
DictionaryVariables
280
     0
  1
Imperial24
  0
DICTIONARYVAR
  5
16B
102
{ACAD_REACTORS
330
167
102
}
330
167
100
DictionaryVariables
280
     0
  1
Imperial24
  0
DICTIONARY
  5
1A4
330
6B
100
AcDbDictionary
280
     1
281
     1
  3
ACAD_XREC_ROUNDTRIP
360
1A5
  0
DICTIONARY
  5
1A
330
19
100
AcDbDictionary
280
     1
281
     1
  3
BUMPTILE
360
1C
  3
DIFFUSETILE
360
1B
  3
OPACITYTILE
360
1F
  3
REFLECTIONTILE
360
1E
  3
REFRACTIONTILE
360
20
  3
SPECULARTILE
360
1D
  0
DICTIONARY
  5
12
330
11
100
AcDbDictionary
280
     1
281
     1
  3
BUMPTILE
360
14
  3
DIFFUSETILE
360
13
  3
OPACITYTILE
360
17
  3
REFLECTIONTILE
360
16
  3
REFRACTIONTILE
360
18
  3
SPECULARTILE
360
15
  0
DICTIONARY
  5
22
330
21
100
AcDbDictionary
280
     1
281
     1
  3
BUMPTILE
360
24
  3
DIFFUSETILE
360
23
  3
OPACITYTILE
360
27
  3
REFLECTIONTILE
360
26
  3
REFRACTIONTILE
360
28
  3
SPECULARTILE
360
25
  0
DICTIONARY
  5
1A0
330
67
100
AcDbDictionary
280
     1
281
     1
  3
ACAD_XREC_ROUNDTRIP
360
1A1
  0
DICTIONARY
  5
1A2
330
69
100
AcDbDictionary
280
     1
281
     1
  3
ACAD_XREC_ROUNDTRIP
360
1A3
  0
DICTIONARY
  5
16D
330
65
100
AcDbDictionary
280
     1
281
     1
  3
ACAD_ROUNDTRIP_2008_TABLESTYLE_CELLSTYLEMAP
360
16E
  0
DICTIONARY
  5
17A
330
2F
100
AcDbDictionary
280
     1
281
     1
  3
ACAD_XREC_ROUNDTRIP
360
17B
  0
DICTIONARY
  5
178
330
2E
100
AcDbDictionary
280
     1
281
     1
  3
ACAD_XREC_ROUNDTRIP
360
179
  0
DICTIONARY
  5
186
330
35
100
AcDbDictionary
280
     1
281
     1
  3
ACAD_XREC_ROUNDTRIP
360
187
  0
DICTIONARY
  5
18E
330
39
100
AcDbDictionary
280
     1
281
     1
  3
ACAD_XREC_ROUNDTRIP
360
18F
  0
DICTIONARY
  5
180
330
32
100
AcDbDictionary
280
     1
281
     1
  3
ACAD_XREC_ROUNDTRIP
360
181
  0
DICTIONARY
  5
184
330
34
100
AcDbDictionary
280
     1
281
     1
  3
ACAD_XREC_ROUNDTRIP
360
185
  0
DICTIONARY
  5
19E
330
41
100
AcDbDictionary
280
     1
281
     1
  3
ACAD_XREC_ROUNDTRIP
360
19F
  0
DICTIONARY
  5
18C
330
38
100
AcDbDictionary
280
     1
281
     1
  3
ACAD_XREC_ROUNDTRIP
360
18D
  0
DICTIONARY
  5
170
330
2A
100
AcDbDictionary
280
     1
281
     1
  3
ACAD_XREC_ROUNDTRIP
360
171
  0
DICTIONARY
  5
172
330
2B
100
AcDbDictionary
280
     1
281
     1
  3
ACAD_XREC_ROUNDTRIP
360
173
  0
DICTIONARY
  5
174
330
2C
100
AcDbDictionary
280
     1
281
     1
  3
ACAD_XREC_ROUNDTRIP
360
175
  0
DICTIONARY
  5
176
330
2D
100
AcDbDictionary
280
     1
281
     1
  3
ACAD_XREC_ROUNDTRIP
360
177
  0
DICTIONARY
  5
17E
330
31
100
AcDbDictionary
280
     1
281
     1
  3
ACAD_XREC_ROUNDTRIP
360
17F
  0
DICTIONARY
  5
19A
330
3F
100
AcDbDictionary
280
     1
281
     1
  3
ACAD_XREC_ROUNDTRIP
360
19B
  0
DICTIONARY
  5
18A
330
37
100
AcDbDictionary
280
     1
281
     1
  3
ACAD_XREC_ROUNDTRIP
360
18B
  0
DICTIONARY
  5
19C
330
40
100
AcDbDictionary
280
     1
281
     1
  3
ACAD_XREC_ROUNDTRIP
360
19D
  0
DICTIONARY
  5
182
330
33
100
AcDbDictionary
280
     1
281
     1
  3
ACAD_XREC_ROUNDTRIP
360
183
  0
DICTIONARY
  5
198
330
3E
100
AcDbDictionary
280
     1
281
     1
  3
ACAD_XREC_ROUNDTRIP
360
199
  0
DICTIONARY
  5
196
330
3D
100
AcDbDictionary
280
     1
281
     1
  3
ACAD_XREC_ROUNDTRIP
360
197
  0
DICTIONARY
  5
190
330
3A
100
AcDbDictionary
280
     1
281
     1
  3
ACAD_XREC_ROUNDTRIP
360
191
  0
DICTIONARY
  5
192
330
3B
100
AcDbDictionary
280
     1
281
     1
  3
ACAD_XREC_ROUNDTRIP
360
193
  0
DICTIONARY
  5
188
330
36
100
AcDbDictionary
280
     1
281
     1
  3
ACAD_XREC_ROUNDTRIP
360
189
  0
DICTIONARY
  5
17C
330
30
100
AcDbDictionary
280
     1
281
     1
  3
ACAD_XREC_ROUNDTRIP
360
17D
  0
DICTIONARY
  5
194
330
3C
100
AcDbDictionary
280
     1
281
     1
  3
ACAD_XREC_ROUNDTRIP
360
195
  0
XRECORD
  5
1A5
102
{ACAD_REACTORS
330
1A4
102
}
330
1A4
100
AcDbXrecord
280
     1
102
DISPLAYNAME
  1
Imperial24
102
FLAGS
 90
        0
  0
XRECORD
  5
1C
102
{ACAD_REACTORS
330
1A
102
}
330
1A
100
AcDbXrecord
280
     1
270
     1
271
     1
  0
XRECORD
  5
1B
102
{ACAD_REACTORS
330
1A
102
}
330
1A
100
AcDbXrecord
280
     1
270
     1
271
     1
  0
XRECORD
  5
1F
102
{ACAD_REACTORS
330
1A
102
}
330
1A
100
AcDbXrecord
280
     1
270
     1
271
     1
  0
XRECORD
  5
1E
102
{ACAD_REACTORS
330
1A
102
}
330
1A
100
AcDbXrecord
280
     1
270
     1
271
     1
  0
XRECORD
  5
20
102
{ACAD_REACTORS
330
1A
102
}
330
1A
100
AcDbXrecord
280
     1
270
     1
271
     1
  0
XRECORD
  5
1D
102
{ACAD_REACTORS
330
1A
102
}
330
1A
100
AcDbXrecord
280
     1
270
     1
271
     1
  0
XRECORD
  5
14
102
{ACAD_REACTORS
330
12
102
}
330
12
100
AcDbXrecord
280
     1
270
     1
271
     1
  0
XRECORD
  5
13
102
{ACAD_REACTORS
330
12
102
}
330
12
100
AcDbXrecord
280
     1
270
     1
271
     1
  0
XRECORD
  5
17
102
{ACAD_REACTORS
330
12
102
}
330
12
100
AcDbXrecord
280
     1
270
     1
271
     1
  0
XRECORD
  5
16
102
{ACAD_REACTORS
330
12
102
}
330
12
100
AcDbXrecord
280
     1
270
     1
271
     1
  0
XRECORD
  5
18
102
{ACAD_REACTORS
330
12
102
}
330
12
100
AcDbXrecord
280
     1
270
     1
271
     1
  0
XRECORD
  5
15
102
{ACAD_REACTORS
330
12
102
}
330
12
100
AcDbXrecord
280
     1
270
     1
271
     1
  0
XRECORD
  5
24
102
{ACAD_REACTORS
330
22
102
}
330
22
100
AcDbXrecord
280
     1
270
     1
271
     1
  0
XRECORD
  5
23
102
{ACAD_REACTORS
330
22
102
}
330
22
100
AcDbXrecord
280
     1
270
     1
271
     1
  0
XRECORD
  5
27
102
{ACAD_REACTORS
330
22
102
}
330
22
100
AcDbXrecord
280
     1
270
     1
271
     1
  0
XRECORD
  5
26
102
{ACAD_REACTORS
330
22
102
}
330
22
100
AcDbXrecord
280
     1
270
     1
271
     1
  0
XRECORD
  5
28
102
{ACAD_REACTORS
330
22
102
}
330
22
100
AcDbXrecord
280
     1
270
     1
271
     1
  0
XRECORD
  5
25
102
{ACAD_REACTORS
330
22
102
}
330
22
100
AcDbXrecord
280
     1
270
     1
271
     1
  0
XRECORD
  5
1A1
102
{ACAD_REACTORS
330
1A0
102
}
330
1A0
100
AcDbXrecord
280
     1
102
ACAD_ROUNDTRIP_2012_MLEADER_STYLE
298
     1
  0
XRECORD
  5
1A3
102
{ACAD_REACTORS
330
1A2
102
}
330
1A2
100
AcDbXrecord
280
     1
102
DISPLAYNAME
  1
Imperial24
102
FLAGS
 90
        0
  0
CELLSTYLEMAP
  5
16E
102
{ACAD_REACTORS
330
16D
102
}
330
16D
100
AcDbCellStyleMap
 90
        3
300
CELLSTYLE
  1
TABLEFORMAT_BEGIN
 90
        5
170
     1
 91
        0
 92
    32768
 62
   257
 93
        1
300
CONTENTFORMAT
  1
CONTENTFORMAT_BEGIN
 90
        0
 91
        0
 92
      512
 93
        0
300

 40
0.0
140
1.0
 94
        5
 62
     0
340
55
144
0.25
309
CONTENTFORMAT_END
171
     0
 94
        0
309
TABLEFORMAT_END
  1
CELLSTYLE_BEGIN
 90
        1
 91
        1
300
_TITLE
309
CELLSTYLE_END
300
CELLSTYLE
  1
TABLEFORMAT_BEGIN
 90
        5
170
     1
 91
        0
 92
        0
 62
   257
 93
        1
300
CONTENTFORMAT
  1
CONTENTFORMAT_BEGIN
 90
        0
 91
        0
 92
      512
 93
        0
300

 40
0.0
140
1.0
 94
        5
 62
     0
340
55
144
0.18
309
CONTENTFORMAT_END
171
     0
 94
        0
309
TABLEFORMAT_END
  1
CELLSTYLE_BEGIN
 90
        2
 91
        1
300
_HEADER
309
CELLSTYLE_END
300
CELLSTYLE
  1
TABLEFORMAT_BEGIN
 90
        5
170
     1
 91
        0
 92
        0
 62
   257
 93
        1
300
CONTENTFORMAT
  1
CONTENTFORMAT_BEGIN
 90
        0
 91
        0
 92
      512
 93
        0
300

 40
0.0
140
1.0
 94
        2
 62
     0
340
55
144
0.18
309
CONTENTFORMAT_END
171
     0
 94
        0
309
TABLEFORMAT_END
  1
CELLSTYLE_BEGIN
 90
        3
 91
        2
300
_DATA
309
CELLSTYLE_END
  0
XRECORD
  5
17B
102
{ACAD_REACTORS
330
17A
102
}
330
17A
100
AcDbXrecord
280
     1
102
RTVSPost2010Prop28
280
     1
102
RTVSPost2010PropOp28
 70
     1
102
RTVSPost2010Prop29
280
     1
102
RTVSPost2010PropOp29
 70
     1
102
RTVSPost2010Prop30
280
     0
102
RTVSPost2010PropOp30
 70
     1
102
RTVSPost2010Prop31
280
     0
102
RTVSPost2010PropOp31
 70
     1
102
RTVSPost2010Prop32
280
     0
102
RTVSPost2010PropOp32
 70
     1
102
RTVSPost2010Prop33
280
     0
102
RTVSPost2010PropOp33
 70
     1
102
RTVSPost2010Prop34
280
     0
102
RTVSPost2010PropOp34
 70
     1
102
RTVSPost2010Prop35
280
     0
102
RTVSPost2010PropOp35
 70
     1
102
RTVSPost2010Prop36
280
     0
102
RTVSPost2010PropOp36
 70
     1
102
RTVSPost2010Prop37
 90
       50
102
RTVSPost2010PropOp37
 70
     1
102
RTVSPost2010Prop38
140
0.0
102
RTVSPost2010PropOp38
 70
     1
102
RTVSPost2010Prop39
140
1.0
102
RTVSPost2010PropOp39
 70
     1
102
RTVSPost2010Prop40
 90
        0
102
RTVSPost2010PropOp40
 70
     1
102
RTVSPost2010Prop41ColorIndex
 90
       18
102
RTVSPost2010Prop41ColorRGB
 90
        0
102
RTVSPost2010PropOp41
 70
     1
102
RTVSPost2010Prop42
 90
       50
102
RTVSPost2010PropOp42
 70
     1
102
RTVSPost2010Prop43
 90
        3
102
RTVSPost2010PropOp43
 70
     1
102
RTVSPost2010Prop44ColorIndex
 90
        5
102
RTVSPost2010Prop44ColorRGB
 90
      255
102
RTVSPost2010PropOp44
 70
     1
102
RTVSPost2010Prop45
280
     0
102
RTVSPost2010PropOp45
 70
     1
102
RTVSPost2010Prop46
 90
       50
102
RTVSPost2010PropOp46
 70
     1
102
RTVSPost2010Prop47
 90
       50
102
RTVSPost2010PropOp47
 70
     1
102
RTVSPost2010Prop48
 90
       50
102
RTVSPost2010PropOp48
 70
     1
102
RTVSPost2010Prop49
280
     0
102
RTVSPost2010PropOp49
 70
     1
102
RTVSPost2010Prop50
 90
       50
102
RTVSPost2010PropOp50
 70
     1
102
RTVSPost2010Prop51ColorIndex
 90
      256
102
RTVSPost2010Prop51ColorRGB
 90
-16777216
102
RTVSPost2010PropOp51
 70
     0
102
RTVSPost2010Prop52
140
1.0
102
RTVSPost2010PropOp52
 70
     0
102
RTVSPost2010Prop53
 90
        2
102
RTVSPost2010PropOp53
 70
     1
102
RTVSPost2010Prop54
  1
strokes_ogs.tif
102
RTVSPost2010PropOp54
 70
     1
102
RTVSPost2010Prop55
280
     0
102
RTVSPost2010PropOp55
 70
     1
102
RTVSPost2010Prop56
140
1.0
102
RTVSPost2010PropOp56
 70
     1
102
RTVSPost2010Prop57
140
1.0
102
RTVSPost2010PropOp57
 70
     1
  0
XRECORD
  5
179
102
{ACAD_REACTORS
330
178
102
}
330
178
100
AcDbXrecord
280
     1
102
RTVSPost2010Prop28
280
     0
102
RTVSPost2010PropOp28
 70
     1
102
RTVSPost2010Prop29
280
     1
102
RTVSPost2010PropOp29
 70
     1
102
RTVSPost2010Prop30
280
     1
102
RTVSPost2010PropOp30
 70
     1
102
RTVSPost2010Prop31
280
     0
102
RTVSPost2010PropOp31
 70
     1
102
RTVSPost2010Prop32
280
     0
102
RTVSPost2010PropOp32
 70
     1
102
RTVSPost2010Prop33
280
     0
102
RTVSPost2010PropOp33
 70
     1
102
RTVSPost2010Prop34
280
     0
102
RTVSPost2010PropOp34
 70
     1
102
RTVSPost2010Prop35
280
     0
102
RTVSPost2010PropOp35
 70
     1
102
RTVSPost2010Prop36
280
     0
102
RTVSPost2010PropOp36
 70
     1
102
RTVSPost2010Prop37
 90
       50
102
RTVSPost2010PropOp37
 70
     1
102
RTVSPost2010Prop38
140
0.0
102
RTVSPost2010PropOp38
 70
     1
102
RTVSPost2010Prop39
140
1.0
102
RTVSPost2010PropOp39
 70
     1
102
RTVSPost2010Prop40
 90
        0
102
RTVSPost2010PropOp40
 70
     1
102
RTVSPost2010Prop41ColorIndex
 90
       18
102
RTVSPost2010Prop41ColorRGB
 90
        0
102
RTVSPost2010PropOp41
 70
     1
102
RTVSPost2010Prop42
 90
       50
102
RTVSPost2010PropOp42
 70
     1
102
RTVSPost2010Prop43
 90
        3
102
RTVSPost2010PropOp43
 70
     1
102
RTVSPost2010Prop44ColorIndex
 90
        5
102
RTVSPost2010Prop44ColorRGB
 90
      255
102
RTVSPost2010PropOp44
 70
     1
102
RTVSPost2010Prop45
280
     0
102
RTVSPost2010PropOp45
 70
     1
102
RTVSPost2010Prop46
 90
       50
102
RTVSPost2010PropOp46
 70
     1
102
RTVSPost2010Prop47
 90
       50
102
RTVSPost2010PropOp47
 70
     1
102
RTVSPost2010Prop48
 90
       50
102
RTVSPost2010PropOp48
 70
     1
102
RTVSPost2010Prop49
280
     0
102
RTVSPost2010PropOp49
 70
     1
102
RTVSPost2010Prop50
 90
       50
102
RTVSPost2010PropOp50
 70
     1
102
RTVSPost2010Prop51ColorIndex
 90
      256
102
RTVSPost2010Prop51ColorRGB
 90
-16777216
102
RTVSPost2010PropOp51
 70
     0
102
RTVSPost2010Prop52
140
1.0
102
RTVSPost2010PropOp52
 70
     0
102
RTVSPost2010Prop53
 90
        2
102
RTVSPost2010PropOp53
 70
     1
102
RTVSPost2010Prop54
  1
strokes_ogs.tif
102
RTVSPost2010PropOp54
 70
     1
102
RTVSPost2010Prop55
280
     0
102
RTVSPost2010PropOp55
 70
     1
102
RTVSPost2010Prop56
140
1.0
102
RTVSPost2010PropOp56
 70
     1
102
RTVSPost2010Prop57
140
1.0
102
RTVSPost2010PropOp57
 70
     1
  0
XRECORD
  5
187
102
{ACAD_REACTORS
330
186
102
}
330
186
100
AcDbXrecord
280
     1
102
RTVSPost2010Prop28
280
     0
102
RTVSPost2010PropOp28
 70
     1
102
RTVSPost2010Prop29
280
     1
102
RTVSPost2010PropOp29
 70
     1
102
RTVSPost2010Prop30
280
     1
102
RTVSPost2010PropOp30
 70
     1
102
RTVSPost2010Prop31
280
     0
102
RTVSPost2010PropOp31
 70
     1
102
RTVSPost2010Prop32
280
     0
102
RTVSPost2010PropOp32
 70
     1
102
RTVSPost2010Prop33
280
     0
102
RTVSPost2010PropOp33
 70
     1
102
RTVSPost2010Prop34
280
     0
102
RTVSPost2010PropOp34
 70
     1
102
RTVSPost2010Prop35
280
     0
102
RTVSPost2010PropOp35
 70
     1
102
RTVSPost2010Prop36
280
     0
102
RTVSPost2010PropOp36
 70
     1
102
RTVSPost2010Prop37
 90
       50
102
RTVSPost2010PropOp37
 70
     1
102
RTVSPost2010Prop38
140
0.0
102
RTVSPost2010PropOp38
 70
     1
102
RTVSPost2010Prop39
140
1.0
102
RTVSPost2010PropOp39
 70
     1
102
RTVSPost2010Prop40
 90
        0
102
RTVSPost2010PropOp40
 70
     1
102
RTVSPost2010Prop41ColorIndex
 90
       18
102
RTVSPost2010Prop41ColorRGB
 90
        0
102
RTVSPost2010PropOp41
 70
     1
102
RTVSPost2010Prop42
 90
       50
102
RTVSPost2010PropOp42
 70
     1
102
RTVSPost2010Prop43
 90
        3
102
RTVSPost2010PropOp43
 70
     1
102
RTVSPost2010Prop44ColorIndex
 90
        5
102
RTVSPost2010Prop44ColorRGB
 90
      255
102
RTVSPost2010PropOp44
 70
     1
102
RTVSPost2010Prop45
280
     0
102
RTVSPost2010PropOp45
 70
     1
102
RTVSPost2010Prop46
 90
       50
102
RTVSPost2010PropOp46
 70
     1
102
RTVSPost2010Prop47
 90
       50
102
RTVSPost2010PropOp47
 70
     1
102
RTVSPost2010Prop48
 90
       50
102
RTVSPost2010PropOp48
 70
     1
102
RTVSPost2010Prop49
280
     0
102
RTVSPost2010PropOp49
 70
     1
102
RTVSPost2010Prop50
 90
       50
102
RTVSPost2010PropOp50
 70
     1
102
RTVSPost2010Prop51ColorIndex
 90
      256
102
RTVSPost2010Prop51ColorRGB
 90
-16777216
102
RTVSPost2010PropOp51
 70
     0
102
RTVSPost2010Prop52
140
1.0
102
RTVSPost2010PropOp52
 70
     0
102
RTVSPost2010Prop53
 90
        2
102
RTVSPost2010PropOp53
 70
     1
102
RTVSPost2010Prop54
  1
strokes_ogs.tif
102
RTVSPost2010PropOp54
 70
     1
102
RTVSPost2010Prop55
280
     0
102
RTVSPost2010PropOp55
 70
     1
102
RTVSPost2010Prop56
140
1.0
102
RTVSPost2010PropOp56
 70
     1
102
RTVSPost2010Prop57
140
1.0
102
RTVSPost2010PropOp57
 70
     1
  0
XRECORD
  5
18F
102
{ACAD_REACTORS
330
18E
102
}
330
18E
100
AcDbXrecord
280
     1
102
RTVSPost2010Prop28
280
     0
102
RTVSPost2010PropOp28
 70
     1
102
RTVSPost2010Prop29
280
     1
102
RTVSPost2010PropOp29
 70
     1
102
RTVSPost2010Prop30
280
     1
102
RTVSPost2010PropOp30
 70
     1
102
RTVSPost2010Prop31
280
     0
102
RTVSPost2010PropOp31
 70
     1
102
RTVSPost2010Prop32
280
     0
102
RTVSPost2010PropOp32
 70
     1
102
RTVSPost2010Prop33
280
     0
102
RTVSPost2010PropOp33
 70
     1
102
RTVSPost2010Prop34
280
     0
102
RTVSPost2010PropOp34
 70
     1
102
RTVSPost2010Prop35
280
     0
102
RTVSPost2010PropOp35
 70
     1
102
RTVSPost2010Prop36
280
     0
102
RTVSPost2010PropOp36
 70
     1
102
RTVSPost2010Prop37
 90
       50
102
RTVSPost2010PropOp37
 70
     1
102
RTVSPost2010Prop38
140
0.0
102
RTVSPost2010PropOp38
 70
     1
102
RTVSPost2010Prop39
140
1.0
102
RTVSPost2010PropOp39
 70
     1
102
RTVSPost2010Prop40
 90
        0
102
RTVSPost2010PropOp40
 70
     1
102
RTVSPost2010Prop41ColorIndex
 90
       18
102
RTVSPost2010Prop41ColorRGB
 90
        0
102
RTVSPost2010PropOp41
 70
     1
102
RTVSPost2010Prop42
 90
       50
102
RTVSPost2010PropOp42
 70
     1
102
RTVSPost2010Prop43
 90
        3
102
RTVSPost2010PropOp43
 70
     1
102
RTVSPost2010Prop44ColorIndex
 90
        5
102
RTVSPost2010Prop44ColorRGB
 90
      255
102
RTVSPost2010PropOp44
 70
     1
102
RTVSPost2010Prop45
280
     0
102
RTVSPost2010PropOp45
 70
     1
102
RTVSPost2010Prop46
 90
       50
102
RTVSPost2010PropOp46
 70
     1
102
RTVSPost2010Prop47
 90
       50
102
RTVSPost2010PropOp47
 70
     1
102
RTVSPost2010Prop48
 90
       50
102
RTVSPost2010PropOp48
 70
     1
102
RTVSPost2010Prop49
280
     0
102
RTVSPost2010PropOp49
 70
     1
102
RTVSPost2010Prop50
 90
       50
102
RTVSPost2010PropOp50
 70
     1
102
RTVSPost2010Prop51ColorIndex
 90
      256
102
RTVSPost2010Prop51ColorRGB
 90
-16777216
102
RTVSPost2010PropOp51
 70
     0
102
RTVSPost2010Prop52
140
1.0
102
RTVSPost2010PropOp52
 70
     0
102
RTVSPost2010Prop53
 90
        2
102
RTVSPost2010PropOp53
 70
     1
102
RTVSPost2010Prop54
  1
strokes_ogs.tif
102
RTVSPost2010PropOp54
 70
     1
102
RTVSPost2010Prop55
280
     0
102
RTVSPost2010PropOp55
 70
     1
102
RTVSPost2010Prop56
140
1.0
102
RTVSPost2010PropOp56
 70
     1
102
RTVSPost2010Prop57
140
1.0
102
RTVSPost2010PropOp57
 70
     1
  0
XRECORD
  5
181
102
{ACAD_REACTORS
330
180
102
}
330
180
100
AcDbXrecord
280
     1
102
RTVSPost2010Prop28
280
     0
102
RTVSPost2010PropOp28
 70
     1
102
RTVSPost2010Prop29
280
     1
102
RTVSPost2010PropOp29
 70
     1
102
RTVSPost2010Prop30
280
     1
102
RTVSPost2010PropOp30
 70
     1
102
RTVSPost2010Prop31
280
     0
102
RTVSPost2010PropOp31
 70
     1
102
RTVSPost2010Prop32
280
     0
102
RTVSPost2010PropOp32
 70
     1
102
RTVSPost2010Prop33
280
     0
102
RTVSPost2010PropOp33
 70
     1
102
RTVSPost2010Prop34
280
     0
102
RTVSPost2010PropOp34
 70
     1
102
RTVSPost2010Prop35
280
     0
102
RTVSPost2010PropOp35
 70
     1
102
RTVSPost2010Prop36
280
     0
102
RTVSPost2010PropOp36
 70
     1
102
RTVSPost2010Prop37
 90
       50
102
RTVSPost2010PropOp37
 70
     1
102
RTVSPost2010Prop38
140
0.0
102
RTVSPost2010PropOp38
 70
     1
102
RTVSPost2010Prop39
140
1.0
102
RTVSPost2010PropOp39
 70
     1
102
RTVSPost2010Prop40
 90
        0
102
RTVSPost2010PropOp40
 70
     1
102
RTVSPost2010Prop41ColorIndex
 90
       18
102
RTVSPost2010Prop41ColorRGB
 90
        0
102
RTVSPost2010PropOp41
 70
     1
102
RTVSPost2010Prop42
 90
       50
102
RTVSPost2010PropOp42
 70
     1
102
RTVSPost2010Prop43
 90
        3
102
RTVSPost2010PropOp43
 70
     1
102
RTVSPost2010Prop44ColorIndex
 90
        5
102
RTVSPost2010Prop44ColorRGB
 90
      255
102
RTVSPost2010PropOp44
 70
     1
102
RTVSPost2010Prop45
280
     0
102
RTVSPost2010PropOp45
 70
     1
102
RTVSPost2010Prop46
 90
       50
102
RTVSPost2010PropOp46
 70
     1
102
RTVSPost2010Prop47
 90
       50
102
RTVSPost2010PropOp47
 70
     1
102
RTVSPost2010Prop48
 90
       50
102
RTVSPost2010PropOp48
 70
     1
102
RTVSPost2010Prop49
280
     0
102
RTVSPost2010PropOp49
 70
     1
102
RTVSPost2010Prop50
 90
       50
102
RTVSPost2010PropOp50
 70
     1
102
RTVSPost2010Prop51ColorIndex
 90
      256
102
RTVSPost2010Prop51ColorRGB
 90
-16777216
102
RTVSPost2010PropOp51
 70
     0
102
RTVSPost2010Prop52
140
1.0
102
RTVSPost2010PropOp52
 70
     0
102
RTVSPost2010Prop53
 90
        2
102
RTVSPost2010PropOp53
 70
     1
102
RTVSPost2010Prop54
  1
strokes_ogs.tif
102
RTVSPost2010PropOp54
 70
     1
102
RTVSPost2010Prop55
280
     0
102
RTVSPost2010PropOp55
 70
     1
102
RTVSPost2010Prop56
140
1.0
102
RTVSPost2010PropOp56
 70
     1
102
RTVSPost2010Prop57
140
1.0
102
RTVSPost2010PropOp57
 70
     1
  0
XRECORD
  5
185
102
{ACAD_REACTORS
330
184
102
}
330
184
100
AcDbXrecord
280
     1
102
RTVSPost2010Prop28
280
     0
102
RTVSPost2010PropOp28
 70
     1
102
RTVSPost2010Prop29
280
     1
102
RTVSPost2010PropOp29
 70
     1
102
RTVSPost2010Prop30
280
     1
102
RTVSPost2010PropOp30
 70
     1
102
RTVSPost2010Prop31
280
     0
102
RTVSPost2010PropOp31
 70
     1
102
RTVSPost2010Prop32
280
     0
102
RTVSPost2010PropOp32
 70
     1
102
RTVSPost2010Prop33
280
     0
102
RTVSPost2010PropOp33
 70
     1
102
RTVSPost2010Prop34
280
     0
102
RTVSPost2010PropOp34
 70
     1
102
RTVSPost2010Prop35
280
     0
102
RTVSPost2010PropOp35
 70
     1
102
RTVSPost2010Prop36
280
     0
102
RTVSPost2010PropOp36
 70
     1
102
RTVSPost2010Prop37
 90
       50
102
RTVSPost2010PropOp37
 70
     1
102
RTVSPost2010Prop38
140
0.0
102
RTVSPost2010PropOp38
 70
     1
102
RTVSPost2010Prop39
140
1.0
102
RTVSPost2010PropOp39
 70
     1
102
RTVSPost2010Prop40
 90
        0
102
RTVSPost2010PropOp40
 70
     1
102
RTVSPost2010Prop41ColorIndex
 90
       18
102
RTVSPost2010Prop41ColorRGB
 90
        0
102
RTVSPost2010PropOp41
 70
     1
102
RTVSPost2010Prop42
 90
       50
102
RTVSPost2010PropOp42
 70
     1
102
RTVSPost2010Prop43
 90
        3
102
RTVSPost2010PropOp43
 70
     1
102
RTVSPost2010Prop44ColorIndex
 90
        5
102
RTVSPost2010Prop44ColorRGB
 90
      255
102
RTVSPost2010PropOp44
 70
     1
102
RTVSPost2010Prop45
280
     0
102
RTVSPost2010PropOp45
 70
     1
102
RTVSPost2010Prop46
 90
       50
102
RTVSPost2010PropOp46
 70
     1
102
RTVSPost2010Prop47
 90
       50
102
RTVSPost2010PropOp47
 70
     1
102
RTVSPost2010Prop48
 90
       50
102
RTVSPost2010PropOp48
 70
     1
102
RTVSPost2010Prop49
280
     0
102
RTVSPost2010PropOp49
 70
     1
102
RTVSPost2010Prop50
 90
       50
102
RTVSPost2010PropOp50
 70
     1
102
RTVSPost2010Prop51ColorIndex
 90
      256
102
RTVSPost2010Prop51ColorRGB
 90
-16777216
102
RTVSPost2010PropOp51
 70
     0
102
RTVSPost2010Prop52
140
1.0
102
RTVSPost2010PropOp52
 70
     0
102
RTVSPost2010Prop53
 90
        2
102
RTVSPost2010PropOp53
 70
     1
102
RTVSPost2010Prop54
  1
strokes_ogs.tif
102
RTVSPost2010PropOp54
 70
     1
102
RTVSPost2010Prop55
280
     0
102
RTVSPost2010PropOp55
 70
     1
102
RTVSPost2010Prop56
140
1.0
102
RTVSPost2010PropOp56
 70
     1
102
RTVSPost2010Prop57
140
1.0
102
RTVSPost2010PropOp57
 70
     1
  0
XRECORD
  5
19F
102
{ACAD_REACTORS
330
19E
102
}
330
19E
100
AcDbXrecord
280
     1
102
RTVSPost2010Prop28
280
     0
102
RTVSPost2010PropOp28
 70
     0
102
RTVSPost2010Prop29
280
     1
102
RTVSPost2010PropOp29
 70
     0
102
RTVSPost2010Prop30
280
     1
102
RTVSPost2010PropOp30
 70
     0
102
RTVSPost2010Prop31
280
     0
102
RTVSPost2010PropOp31
 70
     0
102
RTVSPost2010Prop32
280
     0
102
RTVSPost2010PropOp32
 70
     0
102
RTVSPost2010Prop33
280
     0
102
RTVSPost2010PropOp33
 70
     0
102
RTVSPost2010Prop34
280
     0
102
RTVSPost2010PropOp34
 70
     0
102
RTVSPost2010Prop35
280
     0
102
RTVSPost2010PropOp35
 70
     0
102
RTVSPost2010Prop36
280
     0
102
RTVSPost2010PropOp36
 70
     0
102
RTVSPost2010Prop37
 90
       50
102
RTVSPost2010PropOp37
 70
     0
102
RTVSPost2010Prop38
140
0.0
102
RTVSPost2010PropOp38
 70
     0
102
RTVSPost2010Prop39
140
1.0
102
RTVSPost2010PropOp39
 70
     0
102
RTVSPost2010Prop40
 90
        0
102
RTVSPost2010PropOp40
 70
     0
102
RTVSPost2010Prop41ColorIndex
 90
       18
102
RTVSPost2010Prop41ColorRGB
 90
        0
102
RTVSPost2010PropOp41
 70
     0
102
RTVSPost2010Prop42
 90
       50
102
RTVSPost2010PropOp42
 70
     0
102
RTVSPost2010Prop43
 90
        3
102
RTVSPost2010PropOp43
 70
     0
102
RTVSPost2010Prop44ColorIndex
 90
        5
102
RTVSPost2010Prop44ColorRGB
 90
      255
102
RTVSPost2010PropOp44
 70
     0
102
RTVSPost2010Prop45
280
     0
102
RTVSPost2010PropOp45
 70
     0
102
RTVSPost2010Prop46
 90
       50
102
RTVSPost2010PropOp46
 70
     0
102
RTVSPost2010Prop47
 90
       50
102
RTVSPost2010PropOp47
 70
     0
102
RTVSPost2010Prop48
 90
       50
102
RTVSPost2010PropOp48
 70
     0
102
RTVSPost2010Prop49
280
     0
102
RTVSPost2010PropOp49
 70
     0
102
RTVSPost2010Prop50
 90
       50
102
RTVSPost2010PropOp50
 70
     0
102
RTVSPost2010Prop51ColorIndex
 90
      256
102
RTVSPost2010Prop51ColorRGB
 90
-16777216
102
RTVSPost2010PropOp51
 70
     0
102
RTVSPost2010Prop52
140
1.0
102
RTVSPost2010PropOp52
 70
     0
102
RTVSPost2010Prop53
 90
        2
102
RTVSPost2010PropOp53
 70
     0
102
RTVSPost2010Prop54
  1
strokes_ogs.tif
102
RTVSPost2010PropOp54
 70
     0
102
RTVSPost2010Prop55
280
     0
102
RTVSPost2010PropOp55
 70
     0
102
RTVSPost2010Prop56
140
1.0
102
RTVSPost2010PropOp56
 70
     0
102
RTVSPost2010Prop57
140
1.0
102
RTVSPost2010PropOp57
 70
     0
  0
XRECORD
  5
18D
102
{ACAD_REACTORS
330
18C
102
}
330
18C
100
AcDbXrecord
280
     1
102
RTVSPost2010Prop28
280
     0
102
RTVSPost2010PropOp28
 70
     1
102
RTVSPost2010Prop29
280
     1
102
RTVSPost2010PropOp29
 70
     1
102
RTVSPost2010Prop30
280
     1
102
RTVSPost2010PropOp30
 70
     1
102
RTVSPost2010Prop31
280
     0
102
RTVSPost2010PropOp31
 70
     1
102
RTVSPost2010Prop32
280
     0
102
RTVSPost2010PropOp32
 70
     1
102
RTVSPost2010Prop33
280
     0
102
RTVSPost2010PropOp33
 70
     1
102
RTVSPost2010Prop34
280
     0
102
RTVSPost2010PropOp34
 70
     1
102
RTVSPost2010Prop35
280
     0
102
RTVSPost2010PropOp35
 70
     1
102
RTVSPost2010Prop36
280
     0
102
RTVSPost2010PropOp36
 70
     1
102
RTVSPost2010Prop37
 90
       50
102
RTVSPost2010PropOp37
 70
     1
102
RTVSPost2010Prop38
140
0.0
102
RTVSPost2010PropOp38
 70
     1
102
RTVSPost2010Prop39
140
1.0
102
RTVSPost2010PropOp39
 70
     1
102
RTVSPost2010Prop40
 90
        0
102
RTVSPost2010PropOp40
 70
     1
102
RTVSPost2010Prop41ColorIndex
 90
       18
102
RTVSPost2010Prop41ColorRGB
 90
        0
102
RTVSPost2010PropOp41
 70
     1
102
RTVSPost2010Prop42
 90
       50
102
RTVSPost2010PropOp42
 70
     1
102
RTVSPost2010Prop43
 90
        3
102
RTVSPost2010PropOp43
 70
     1
102
RTVSPost2010Prop44ColorIndex
 90
        5
102
RTVSPost2010Prop44ColorRGB
 90
      255
102
RTVSPost2010PropOp44
 70
     1
102
RTVSPost2010Prop45
280
     0
102
RTVSPost2010PropOp45
 70
     1
102
RTVSPost2010Prop46
 90
       50
102
RTVSPost2010PropOp46
 70
     1
102
RTVSPost2010Prop47
 90
       50
102
RTVSPost2010PropOp47
 70
     1
102
RTVSPost2010Prop48
 90
       50
102
RTVSPost2010PropOp48
 70
     1
102
RTVSPost2010Prop49
280
     0
102
RTVSPost2010PropOp49
 70
     1
102
RTVSPost2010Prop50
 90
       50
102
RTVSPost2010PropOp50
 70
     1
102
RTVSPost2010Prop51ColorIndex
 90
      256
102
RTVSPost2010Prop51ColorRGB
 90
-16777216
102
RTVSPost2010PropOp51
 70
     0
102
RTVSPost2010Prop52
140
1.0
102
RTVSPost2010PropOp52
 70
     0
102
RTVSPost2010Prop53
 90
        2
102
RTVSPost2010PropOp53
 70
     1
102
RTVSPost2010Prop54
  1
strokes_ogs.tif
102
RTVSPost2010PropOp54
 70
     1
102
RTVSPost2010Prop55
280
     0
102
RTVSPost2010PropOp55
 70
     1
102
RTVSPost2010Prop56
140
1.0
102
RTVSPost2010PropOp56
 70
     1
102
RTVSPost2010Prop57
140
1.0
102
RTVSPost2010PropOp57
 70
     1
  0
XRECORD
  5
171
102
{ACAD_REACTORS
330
170
102
}
330
170
100
AcDbXrecord
280
     1
102
RTVSPost2010Prop28
280
     0
102
RTVSPost2010PropOp28
 70
     1
102
RTVSPost2010Prop29
280
     1
102
RTVSPost2010PropOp29
 70
     1
102
RTVSPost2010Prop30
280
     1
102
RTVSPost2010PropOp30
 70
     1
102
RTVSPost2010Prop31
280
     0
102
RTVSPost2010PropOp31
 70
     1
102
RTVSPost2010Prop32
280
     0
102
RTVSPost2010PropOp32
 70
     1
102
RTVSPost2010Prop33
280
     0
102
RTVSPost2010PropOp33
 70
     1
102
RTVSPost2010Prop34
280
     0
102
RTVSPost2010PropOp34
 70
     1
102
RTVSPost2010Prop35
280
     0
102
RTVSPost2010PropOp35
 70
     1
102
RTVSPost2010Prop36
280
     0
102
RTVSPost2010PropOp36
 70
     1
102
RTVSPost2010Prop37
 90
       50
102
RTVSPost2010PropOp37
 70
     1
102
RTVSPost2010Prop38
140
0.0
102
RTVSPost2010PropOp38
 70
     1
102
RTVSPost2010Prop39
140
1.0
102
RTVSPost2010PropOp39
 70
     1
102
RTVSPost2010Prop40
 90
        0
102
RTVSPost2010PropOp40
 70
     1
102
RTVSPost2010Prop41ColorIndex
 90
       18
102
RTVSPost2010Prop41ColorRGB
 90
        0
102
RTVSPost2010PropOp41
 70
     1
102
RTVSPost2010Prop42
 90
       50
102
RTVSPost2010PropOp42
 70
     1
102
RTVSPost2010Prop43
 90
        3
102
RTVSPost2010PropOp43
 70
     1
102
RTVSPost2010Prop44ColorIndex
 90
        5
102
RTVSPost2010Prop44ColorRGB
 90
      255
102
RTVSPost2010PropOp44
 70
     1
102
RTVSPost2010Prop45
280
     0
102
RTVSPost2010PropOp45
 70
     1
102
RTVSPost2010Prop46
 90
       50
102
RTVSPost2010PropOp46
 70
     1
102
RTVSPost2010Prop47
 90
       50
102
RTVSPost2010PropOp47
 70
     1
102
RTVSPost2010Prop48
 90
       50
102
RTVSPost2010PropOp48
 70
     1
102
RTVSPost2010Prop49
280
     0
102
RTVSPost2010PropOp49
 70
     1
102
RTVSPost2010Prop50
 90
       50
102
RTVSPost2010PropOp50
 70
     1
102
RTVSPost2010Prop51ColorIndex
 90
      256
102
RTVSPost2010Prop51ColorRGB
 90
-16777216
102
RTVSPost2010PropOp51
 70
     0
102
RTVSPost2010Prop52
140
1.0
102
RTVSPost2010PropOp52
 70
     0
102
RTVSPost2010Prop53
 90
        2
102
RTVSPost2010PropOp53
 70
     1
102
RTVSPost2010Prop54
  1
strokes_ogs.tif
102
RTVSPost2010PropOp54
 70
     1
102
RTVSPost2010Prop55
280
     0
102
RTVSPost2010PropOp55
 70
     1
102
RTVSPost2010Prop56
140
1.0
102
RTVSPost2010PropOp56
 70
     1
102
RTVSPost2010Prop57
140
1.0
102
RTVSPost2010PropOp57
 70
     1
  0
XRECORD
  5
173
102
{ACAD_REACTORS
330
172
102
}
330
172
100
AcDbXrecord
280
     1
102
RTVSPost2010Prop28
280
     0
102
RTVSPost2010PropOp28
 70
     1
102
RTVSPost2010Prop29
280
     1
102
RTVSPost2010PropOp29
 70
     1
102
RTVSPost2010Prop30
280
     1
102
RTVSPost2010PropOp30
 70
     1
102
RTVSPost2010Prop31
280
     0
102
RTVSPost2010PropOp31
 70
     1
102
RTVSPost2010Prop32
280
     0
102
RTVSPost2010PropOp32
 70
     1
102
RTVSPost2010Prop33
280
     0
102
RTVSPost2010PropOp33
 70
     1
102
RTVSPost2010Prop34
280
     0
102
RTVSPost2010PropOp34
 70
     1
102
RTVSPost2010Prop35
280
     0
102
RTVSPost2010PropOp35
 70
     1
102
RTVSPost2010Prop36
280
     0
102
RTVSPost2010PropOp36
 70
     1
102
RTVSPost2010Prop37
 90
       50
102
RTVSPost2010PropOp37
 70
     1
102
RTVSPost2010Prop38
140
0.0
102
RTVSPost2010PropOp38
 70
     1
102
RTVSPost2010Prop39
140
1.0
102
RTVSPost2010PropOp39
 70
     1
102
RTVSPost2010Prop40
 90
        0
102
RTVSPost2010PropOp40
 70
     1
102
RTVSPost2010Prop41ColorIndex
 90
       18
102
RTVSPost2010Prop41ColorRGB
 90
        0
102
RTVSPost2010PropOp41
 70
     1
102
RTVSPost2010Prop42
 90
       50
102
RTVSPost2010PropOp42
 70
     1
102
RTVSPost2010Prop43
 90
        3
102
RTVSPost2010PropOp43
 70
     1
102
RTVSPost2010Prop44ColorIndex
 90
        5
102
RTVSPost2010Prop44ColorRGB
 90
      255
102
RTVSPost2010PropOp44
 70
     1
102
RTVSPost2010Prop45
280
     0
102
RTVSPost2010PropOp45
 70
     1
102
RTVSPost2010Prop46
 90
       50
102
RTVSPost2010PropOp46
 70
     1
102
RTVSPost2010Prop47
 90
       50
102
RTVSPost2010PropOp47
 70
     1
102
RTVSPost2010Prop48
 90
       50
102
RTVSPost2010PropOp48
 70
     1
102
RTVSPost2010Prop49
280
     0
102
RTVSPost2010PropOp49
 70
     1
102
RTVSPost2010Prop50
 90
       50
102
RTVSPost2010PropOp50
 70
     1
102
RTVSPost2010Prop51ColorIndex
 90
      256
102
RTVSPost2010Prop51ColorRGB
 90
-16777216
102
RTVSPost2010PropOp51
 70
     0
102
RTVSPost2010Prop52
140
1.0
102
RTVSPost2010PropOp52
 70
     0
102
RTVSPost2010Prop53
 90
        2
102
RTVSPost2010PropOp53
 70
     1
102
RTVSPost2010Prop54
  1
strokes_ogs.tif
102
RTVSPost2010PropOp54
 70
     1
102
RTVSPost2010Prop55
280
     0
102
RTVSPost2010PropOp55
 70
     1
102
RTVSPost2010Prop56
140
1.0
102
RTVSPost2010PropOp56
 70
     1
102
RTVSPost2010Prop57
140
1.0
102
RTVSPost2010PropOp57
 70
     1
  0
XRECORD
  5
175
102
{ACAD_REACTORS
330
174
102
}
330
174
100
AcDbXrecord
280
     1
102
RTVSPost2010Prop28
280
     0
102
RTVSPost2010PropOp28
 70
     1
102
RTVSPost2010Prop29
280
     1
102
RTVSPost2010PropOp29
 70
     1
102
RTVSPost2010Prop30
280
     1
102
RTVSPost2010PropOp30
 70
     1
102
RTVSPost2010Prop31
280
     0
102
RTVSPost2010PropOp31
 70
     1
102
RTVSPost2010Prop32
280
     0
102
RTVSPost2010PropOp32
 70
     1
102
RTVSPost2010Prop33
280
     0
102
RTVSPost2010PropOp33
 70
     1
102
RTVSPost2010Prop34
280
     0
102
RTVSPost2010PropOp34
 70
     1
102
RTVSPost2010Prop35
280
     0
102
RTVSPost2010PropOp35
 70
     1
102
RTVSPost2010Prop36
280
     0
102
RTVSPost2010PropOp36
 70
     1
102
RTVSPost2010Prop37
 90
       50
102
RTVSPost2010PropOp37
 70
     1
102
RTVSPost2010Prop38
140
0.0
102
RTVSPost2010PropOp38
 70
     1
102
RTVSPost2010Prop39
140
1.0
102
RTVSPost2010PropOp39
 70
     1
102
RTVSPost2010Prop40
 90
        0
102
RTVSPost2010PropOp40
 70
     1
102
RTVSPost2010Prop41ColorIndex
 90
       18
102
RTVSPost2010Prop41ColorRGB
 90
        0
102
RTVSPost2010PropOp41
 70
     1
102
RTVSPost2010Prop42
 90
       50
102
RTVSPost2010PropOp42
 70
     1
102
RTVSPost2010Prop43
 90
        3
102
RTVSPost2010PropOp43
 70
     1
102
RTVSPost2010Prop44ColorIndex
 90
        5
102
RTVSPost2010Prop44ColorRGB
 90
      255
102
RTVSPost2010PropOp44
 70
     1
102
RTVSPost2010Prop45
280
     0
102
RTVSPost2010PropOp45
 70
     1
102
RTVSPost2010Prop46
 90
       50
102
RTVSPost2010PropOp46
 70
     1
102
RTVSPost2010Prop47
 90
       50
102
RTVSPost2010PropOp47
 70
     1
102
RTVSPost2010Prop48
 90
       50
102
RTVSPost2010PropOp48
 70
     1
102
RTVSPost2010Prop49
280
     0
102
RTVSPost2010PropOp49
 70
     1
102
RTVSPost2010Prop50
 90
       50
102
RTVSPost2010PropOp50
 70
     1
102
RTVSPost2010Prop51ColorIndex
 90
      256
102
RTVSPost2010Prop51ColorRGB
 90
-16777216
102
RTVSPost2010PropOp51
 70
     0
102
RTVSPost2010Prop52
140
1.0
102
RTVSPost2010PropOp52
 70
     0
102
RTVSPost2010Prop53
 90
        2
102
RTVSPost2010PropOp53
 70
     1
102
RTVSPost2010Prop54
  1
strokes_ogs.tif
102
RTVSPost2010PropOp54
 70
     1
102
RTVSPost2010Prop55
280
     0
102
RTVSPost2010PropOp55
 70
     1
102
RTVSPost2010Prop56
140
1.0
102
RTVSPost2010PropOp56
 70
     1
102
RTVSPost2010Prop57
140
1.0
102
RTVSPost2010PropOp57
 70
     1
  0
XRECORD
  5
177
102
{ACAD_REACTORS
330
176
102
}
330
176
100
AcDbXrecord
280
     1
102
RTVSPost2010Prop28
280
     0
102
RTVSPost2010PropOp28
 70
     1
102
RTVSPost2010Prop29
280
     1
102
RTVSPost2010PropOp29
 70
     1
102
RTVSPost2010Prop30
280
     1
102
RTVSPost2010PropOp30
 70
     1
102
RTVSPost2010Prop31
280
     0
102
RTVSPost2010PropOp31
 70
     1
102
RTVSPost2010Prop32
280
     0
102
RTVSPost2010PropOp32
 70
     1
102
RTVSPost2010Prop33
280
     0
102
RTVSPost2010PropOp33
 70
     1
102
RTVSPost2010Prop34
280
     0
102
RTVSPost2010PropOp34
 70
     1
102
RTVSPost2010Prop35
280
     0
102
RTVSPost2010PropOp35
 70
     1
102
RTVSPost2010Prop36
280
     0
102
RTVSPost2010PropOp36
 70
     1
102
RTVSPost2010Prop37
 90
       50
102
RTVSPost2010PropOp37
 70
     1
102
RTVSPost2010Prop38
140
0.0
102
RTVSPost2010PropOp38
 70
     1
102
RTVSPost2010Prop39
140
1.0
102
RTVSPost2010PropOp39
 70
     1
102
RTVSPost2010Prop40
 90
        0
102
RTVSPost2010PropOp40
 70
     1
102
RTVSPost2010Prop41ColorIndex
 90
       18
102
RTVSPost2010Prop41ColorRGB
 90
        0
102
RTVSPost2010PropOp41
 70
     1
102
RTVSPost2010Prop42
 90
       50
102
RTVSPost2010PropOp42
 70
     1
102
RTVSPost2010Prop43
 90
        3
102
RTVSPost2010PropOp43
 70
     1
102
RTVSPost2010Prop44ColorIndex
 90
        5
102
RTVSPost2010Prop44ColorRGB
 90
      255
102
RTVSPost2010PropOp44
 70
     1
102
RTVSPost2010Prop45
280
     0
102
RTVSPost2010PropOp45
 70
     1
102
RTVSPost2010Prop46
 90
       50
102
RTVSPost2010PropOp46
 70
     1
102
RTVSPost2010Prop47
 90
       50
102
RTVSPost2010PropOp47
 70
     1
102
RTVSPost2010Prop48
 90
       50
102
RTVSPost2010PropOp48
 70
     1
102
RTVSPost2010Prop49
280
     0
102
RTVSPost2010PropOp49
 70
     1
102
RTVSPost2010Prop50
 90
       50
102
RTVSPost2010PropOp50
 70
     1
102
RTVSPost2010Prop51ColorIndex
 90
      256
102
RTVSPost2010Prop51ColorRGB
 90
-16777216
102
RTVSPost2010PropOp51
 70
     0
102
RTVSPost2010Prop52
140
1.0
102
RTVSPost2010PropOp52
 70
     0
102
RTVSPost2010Prop53
 90
        2
102
RTVSPost2010PropOp53
 70
     1
102
RTVSPost2010Prop54
  1
strokes_ogs.tif
102
RTVSPost2010PropOp54
 70
     1
102
RTVSPost2010Prop55
280
     0
102
RTVSPost2010PropOp55
 70
     1
102
RTVSPost2010Prop56
140
1.0
102
RTVSPost2010PropOp56
 70
     1
102
RTVSPost2010Prop57
140
1.0
102
RTVSPost2010PropOp57
 70
     1
  0
XRECORD
  5
17F
102
{ACAD_REACTORS
330
17E
102
}
330
17E
100
AcDbXrecord
280
     1
102
RTVSPost2010Prop28
280
     0
102
RTVSPost2010PropOp28
 70
     1
102
RTVSPost2010Prop29
280
     1
102
RTVSPost2010PropOp29
 70
     1
102
RTVSPost2010Prop30
280
     1
102
RTVSPost2010PropOp30
 70
     1
102
RTVSPost2010Prop31
280
     0
102
RTVSPost2010PropOp31
 70
     1
102
RTVSPost2010Prop32
280
     0
102
RTVSPost2010PropOp32
 70
     1
102
RTVSPost2010Prop33
280
     0
102
RTVSPost2010PropOp33
 70
     1
102
RTVSPost2010Prop34
280
     0
102
RTVSPost2010PropOp34
 70
     1
102
RTVSPost2010Prop35
280
     0
102
RTVSPost2010PropOp35
 70
     1
102
RTVSPost2010Prop36
280
     0
102
RTVSPost2010PropOp36
 70
     1
102
RTVSPost2010Prop37
 90
       50
102
RTVSPost2010PropOp37
 70
     1
102
RTVSPost2010Prop38
140
0.0
102
RTVSPost2010PropOp38
 70
     1
102
RTVSPost2010Prop39
140
1.0
102
RTVSPost2010PropOp39
 70
     1
102
RTVSPost2010Prop40
 90
        0
102
RTVSPost2010PropOp40
 70
     1
102
RTVSPost2010Prop41ColorIndex
 90
       18
102
RTVSPost2010Prop41ColorRGB
 90
        0
102
RTVSPost2010PropOp41
 70
     1
102
RTVSPost2010Prop42
 90
       50
102
RTVSPost2010PropOp42
 70
     1
102
RTVSPost2010Prop43
 90
        3
102
RTVSPost2010PropOp43
 70
     1
102
RTVSPost2010Prop44ColorIndex
 90
        5
102
RTVSPost2010Prop44ColorRGB
 90
      255
102
RTVSPost2010PropOp44
 70
     1
102
RTVSPost2010Prop45
280
     0
102
RTVSPost2010PropOp45
 70
     1
102
RTVSPost2010Prop46
 90
       50
102
RTVSPost2010PropOp46
 70
     1
102
RTVSPost2010Prop47
 90
       50
102
RTVSPost2010PropOp47
 70
     1
102
RTVSPost2010Prop48
 90
       50
102
RTVSPost2010PropOp48
 70
     1
102
RTVSPost2010Prop49
280
     0
102
RTVSPost2010PropOp49
 70
     1
102
RTVSPost2010Prop50
 90
       50
102
RTVSPost2010PropOp50
 70
     1
102
RTVSPost2010Prop51ColorIndex
 90
      256
102
RTVSPost2010Prop51ColorRGB
 90
-16777216
102
RTVSPost2010PropOp51
 70
     0
102
RTVSPost2010Prop52
140
1.0
102
RTVSPost2010PropOp52
 70
     0
102
RTVSPost2010Prop53
 90
        2
102
RTVSPost2010PropOp53
 70
     1
102
RTVSPost2010Prop54
  1
strokes_ogs.tif
102
RTVSPost2010PropOp54
 70
     1
102
RTVSPost2010Prop55
280
     0
102
RTVSPost2010PropOp55
 70
     1
102
RTVSPost2010Prop56
140
1.0
102
RTVSPost2010PropOp56
 70
     1
102
RTVSPost2010Prop57
140
1.0
102
RTVSPost2010PropOp57
 70
     1
  0
XRECORD
  5
19B
102
{ACAD_REACTORS
330
19A
102
}
330
19A
100
AcDbXrecord
280
     1
102
RTVSPost2010Prop28
280
     0
102
RTVSPost2010PropOp28
 70
     0
102
RTVSPost2010Prop29
280
     1
102
RTVSPost2010PropOp29
 70
     0
102
RTVSPost2010Prop30
280
     1
102
RTVSPost2010PropOp30
 70
     0
102
RTVSPost2010Prop31
280
     0
102
RTVSPost2010PropOp31
 70
     0
102
RTVSPost2010Prop32
280
     0
102
RTVSPost2010PropOp32
 70
     0
102
RTVSPost2010Prop33
280
     0
102
RTVSPost2010PropOp33
 70
     0
102
RTVSPost2010Prop34
280
     0
102
RTVSPost2010PropOp34
 70
     0
102
RTVSPost2010Prop35
280
     0
102
RTVSPost2010PropOp35
 70
     0
102
RTVSPost2010Prop36
280
     0
102
RTVSPost2010PropOp36
 70
     0
102
RTVSPost2010Prop37
 90
       50
102
RTVSPost2010PropOp37
 70
     0
102
RTVSPost2010Prop38
140
0.0
102
RTVSPost2010PropOp38
 70
     0
102
RTVSPost2010Prop39
140
1.0
102
RTVSPost2010PropOp39
 70
     0
102
RTVSPost2010Prop40
 90
        0
102
RTVSPost2010PropOp40
 70
     0
102
RTVSPost2010Prop41ColorIndex
 90
       18
102
RTVSPost2010Prop41ColorRGB
 90
        0
102
RTVSPost2010PropOp41
 70
     0
102
RTVSPost2010Prop42
 90
       50
102
RTVSPost2010PropOp42
 70
     0
102
RTVSPost2010Prop43
 90
        3
102
RTVSPost2010PropOp43
 70
     0
102
RTVSPost2010Prop44ColorIndex
 90
        5
102
RTVSPost2010Prop44ColorRGB
 90
      255
102
RTVSPost2010PropOp44
 70
     0
102
RTVSPost2010Prop45
280
     0
102
RTVSPost2010PropOp45
 70
     0
102
RTVSPost2010Prop46
 90
       50
102
RTVSPost2010PropOp46
 70
     0
102
RTVSPost2010Prop47
 90
       50
102
RTVSPost2010PropOp47
 70
     0
102
RTVSPost2010Prop48
 90
       50
102
RTVSPost2010PropOp48
 70
     0
102
RTVSPost2010Prop49
280
     0
102
RTVSPost2010PropOp49
 70
     0
102
RTVSPost2010Prop50
 90
       50
102
RTVSPost2010PropOp50
 70
     0
102
RTVSPost2010Prop51ColorIndex
 90
      256
102
RTVSPost2010Prop51ColorRGB
 90
-16777216
102
RTVSPost2010PropOp51
 70
     0
102
RTVSPost2010Prop52
140
1.0
102
RTVSPost2010PropOp52
 70
     0
102
RTVSPost2010Prop53
 90
        2
102
RTVSPost2010PropOp53
 70
     0
102
RTVSPost2010Prop54
  1
strokes_ogs.tif
102
RTVSPost2010PropOp54
 70
     0
102
RTVSPost2010Prop55
280
     0
102
RTVSPost2010PropOp55
 70
     0
102
RTVSPost2010Prop56
140
1.0
102
RTVSPost2010PropOp56
 70
     0
102
RTVSPost2010Prop57
140
1.0
102
RTVSPost2010PropOp57
 70
     0
  0
XRECORD
  5
18B
102
{ACAD_REACTORS
330
18A
102
}
330
18A
100
AcDbXrecord
280
     1
102
RTVSPost2010Prop28
280
     0
102
RTVSPost2010PropOp28
 70
     1
102
RTVSPost2010Prop29
280
     1
102
RTVSPost2010PropOp29
 70
     1
102
RTVSPost2010Prop30
280
     1
102
RTVSPost2010PropOp30
 70
     1
102
RTVSPost2010Prop31
280
     0
102
RTVSPost2010PropOp31
 70
     1
102
RTVSPost2010Prop32
280
     0
102
RTVSPost2010PropOp32
 70
     1
102
RTVSPost2010Prop33
280
     0
102
RTVSPost2010PropOp33
 70
     1
102
RTVSPost2010Prop34
280
     0
102
RTVSPost2010PropOp34
 70
     1
102
RTVSPost2010Prop35
280
     0
102
RTVSPost2010PropOp35
 70
     1
102
RTVSPost2010Prop36
280
     0
102
RTVSPost2010PropOp36
 70
     1
102
RTVSPost2010Prop37
 90
       50
102
RTVSPost2010PropOp37
 70
     1
102
RTVSPost2010Prop38
140
0.0
102
RTVSPost2010PropOp38
 70
     1
102
RTVSPost2010Prop39
140
1.0
102
RTVSPost2010PropOp39
 70
     1
102
RTVSPost2010Prop40
 90
        0
102
RTVSPost2010PropOp40
 70
     1
102
RTVSPost2010Prop41ColorIndex
 90
       18
102
RTVSPost2010Prop41ColorRGB
 90
        0
102
RTVSPost2010PropOp41
 70
     1
102
RTVSPost2010Prop42
 90
       50
102
RTVSPost2010PropOp42
 70
     1
102
RTVSPost2010Prop43
 90
        3
102
RTVSPost2010PropOp43
 70
     1
102
RTVSPost2010Prop44ColorIndex
 90
        5
102
RTVSPost2010Prop44ColorRGB
 90
      255
102
RTVSPost2010PropOp44
 70
     1
102
RTVSPost2010Prop45
280
     0
102
RTVSPost2010PropOp45
 70
     1
102
RTVSPost2010Prop46
 90
       50
102
RTVSPost2010PropOp46
 70
     1
102
RTVSPost2010Prop47
 90
       50
102
RTVSPost2010PropOp47
 70
     1
102
RTVSPost2010Prop48
 90
       50
102
RTVSPost2010PropOp48
 70
     1
102
RTVSPost2010Prop49
280
     0
102
RTVSPost2010PropOp49
 70
     1
102
RTVSPost2010Prop50
 90
       50
102
RTVSPost2010PropOp50
 70
     1
102
RTVSPost2010Prop51ColorIndex
 90
      256
102
RTVSPost2010Prop51ColorRGB
 90
-16777216
102
RTVSPost2010PropOp51
 70
     0
102
RTVSPost2010Prop52
140
1.0
102
RTVSPost2010PropOp52
 70
     0
102
RTVSPost2010Prop53
 90
        2
102
RTVSPost2010PropOp53
 70
     1
102
RTVSPost2010Prop54
  1
strokes_ogs.tif
102
RTVSPost2010PropOp54
 70
     1
102
RTVSPost2010Prop55
280
     0
102
RTVSPost2010PropOp55
 70
     1
102
RTVSPost2010Prop56
140
1.0
102
RTVSPost2010PropOp56
 70
     1
102
RTVSPost2010Prop57
140
1.0
102
RTVSPost2010PropOp57
 70
     1
  0
XRECORD
  5
19D
102
{ACAD_REACTORS
330
19C
102
}
330
19C
100
AcDbXrecord
280
     1
102
RTVSPost2010Prop28
280
     0
102
RTVSPost2010PropOp28
 70
     0
102
RTVSPost2010Prop29
280
     1
102
RTVSPost2010PropOp29
 70
     0
102
RTVSPost2010Prop30
280
     1
102
RTVSPost2010PropOp30
 70
     0
102
RTVSPost2010Prop31
280
     0
102
RTVSPost2010PropOp31
 70
     0
102
RTVSPost2010Prop32
280
     0
102
RTVSPost2010PropOp32
 70
     0
102
RTVSPost2010Prop33
280
     0
102
RTVSPost2010PropOp33
 70
     0
102
RTVSPost2010Prop34
280
     0
102
RTVSPost2010PropOp34
 70
     0
102
RTVSPost2010Prop35
280
     0
102
RTVSPost2010PropOp35
 70
     0
102
RTVSPost2010Prop36
280
     0
102
RTVSPost2010PropOp36
 70
     0
102
RTVSPost2010Prop37
 90
       50
102
RTVSPost2010PropOp37
 70
     0
102
RTVSPost2010Prop38
140
0.0
102
RTVSPost2010PropOp38
 70
     0
102
RTVSPost2010Prop39
140
1.0
102
RTVSPost2010PropOp39
 70
     0
102
RTVSPost2010Prop40
 90
        0
102
RTVSPost2010PropOp40
 70
     0
102
RTVSPost2010Prop41ColorIndex
 90
       18
102
RTVSPost2010Prop41ColorRGB
 90
        0
102
RTVSPost2010PropOp41
 70
     0
102
RTVSPost2010Prop42
 90
       50
102
RTVSPost2010PropOp42
 70
     0
102
RTVSPost2010Prop43
 90
        3
102
RTVSPost2010PropOp43
 70
     0
102
RTVSPost2010Prop44ColorIndex
 90
        5
102
RTVSPost2010Prop44ColorRGB
 90
      255
102
RTVSPost2010PropOp44
 70
     0
102
RTVSPost2010Prop45
280
     0
102
RTVSPost2010PropOp45
 70
     0
102
RTVSPost2010Prop46
 90
       50
102
RTVSPost2010PropOp46
 70
     0
102
RTVSPost2010Prop47
 90
       50
102
RTVSPost2010PropOp47
 70
     0
102
RTVSPost2010Prop48
 90
       50
102
RTVSPost2010PropOp48
 70
     0
102
RTVSPost2010Prop49
280
     0
102
RTVSPost2010PropOp49
 70
     0
102
RTVSPost2010Prop50
 90
       50
102
RTVSPost2010PropOp50
 70
     0
102
RTVSPost2010Prop51ColorIndex
 90
      256
102
RTVSPost2010Prop51ColorRGB
 90
-16777216
102
RTVSPost2010PropOp51
 70
     0
102
RTVSPost2010Prop52
140
1.0
102
RTVSPost2010PropOp52
 70
     0
102
RTVSPost2010Prop53
 90
        2
102
RTVSPost2010PropOp53
 70
     0
102
RTVSPost2010Prop54
  1
strokes_ogs.tif
102
RTVSPost2010PropOp54
 70
     0
102
RTVSPost2010Prop55
280
     0
102
RTVSPost2010PropOp55
 70
     0
102
RTVSPost2010Prop56
140
1.0
102
RTVSPost2010PropOp56
 70
     0
102
RTVSPost2010Prop57
140
1.0
102
RTVSPost2010PropOp57
 70
     0
  0
XRECORD
  5
183
102
{ACAD_REACTORS
330
182
102
}
330
182
100
AcDbXrecord
280
     1
102
RTVSPost2010Prop28
280
     0
102
RTVSPost2010PropOp28
 70
     1
102
RTVSPost2010Prop29
280
     1
102
RTVSPost2010PropOp29
 70
     1
102
RTVSPost2010Prop30
280
     1
102
RTVSPost2010PropOp30
 70
     1
102
RTVSPost2010Prop31
280
     0
102
RTVSPost2010PropOp31
 70
     1
102
RTVSPost2010Prop32
280
     0
102
RTVSPost2010PropOp32
 70
     1
102
RTVSPost2010Prop33
280
     0
102
RTVSPost2010PropOp33
 70
     1
102
RTVSPost2010Prop34
280
     0
102
RTVSPost2010PropOp34
 70
     1
102
RTVSPost2010Prop35
280
     0
102
RTVSPost2010PropOp35
 70
     1
102
RTVSPost2010Prop36
280
     0
102
RTVSPost2010PropOp36
 70
     1
102
RTVSPost2010Prop37
 90
       50
102
RTVSPost2010PropOp37
 70
     1
102
RTVSPost2010Prop38
140
0.0
102
RTVSPost2010PropOp38
 70
     1
102
RTVSPost2010Prop39
140
1.0
102
RTVSPost2010PropOp39
 70
     1
102
RTVSPost2010Prop40
 90
        0
102
RTVSPost2010PropOp40
 70
     1
102
RTVSPost2010Prop41ColorIndex
 90
       18
102
RTVSPost2010Prop41ColorRGB
 90
        0
102
RTVSPost2010PropOp41
 70
     1
102
RTVSPost2010Prop42
 90
       50
102
RTVSPost2010PropOp42
 70
     1
102
RTVSPost2010Prop43
 90
        3
102
RTVSPost2010PropOp43
 70
     1
102
RTVSPost2010Prop44ColorIndex
 90
        5
102
RTVSPost2010Prop44ColorRGB
 90
      255
102
RTVSPost2010PropOp44
 70
     1
102
RTVSPost2010Prop45
280
     0
102
RTVSPost2010PropOp45
 70
     1
102
RTVSPost2010Prop46
 90
       50
102
RTVSPost2010PropOp46
 70
     1
102
RTVSPost2010Prop47
 90
       50
102
RTVSPost2010PropOp47
 70
     1
102
RTVSPost2010Prop48
 90
       50
102
RTVSPost2010PropOp48
 70
     1
102
RTVSPost2010Prop49
280
     0
102
RTVSPost2010PropOp49
 70
     1
102
RTVSPost2010Prop50
 90
       50
102
RTVSPost2010PropOp50
 70
     1
102
RTVSPost2010Prop51ColorIndex
 90
      256
102
RTVSPost2010Prop51ColorRGB
 90
-16777216
102
RTVSPost2010PropOp51
 70
     0
102
RTVSPost2010Prop52
140
1.0
102
RTVSPost2010PropOp52
 70
     0
102
RTVSPost2010Prop53
 90
        2
102
RTVSPost2010PropOp53
 70
     1
102
RTVSPost2010Prop54
  1
strokes_ogs.tif
102
RTVSPost2010PropOp54
 70
     1
102
RTVSPost2010Prop55
280
     0
102
RTVSPost2010PropOp55
 70
     1
102
RTVSPost2010Prop56
140
1.0
102
RTVSPost2010PropOp56
 70
     1
102
RTVSPost2010Prop57
140
1.0
102
RTVSPost2010PropOp57
 70
     1
  0
XRECORD
  5
199
102
{ACAD_REACTORS
330
198
102
}
330
198
100
AcDbXrecord
280
     1
102
RTVSPost2010Prop28
280
     0
102
RTVSPost2010PropOp28
 70
     1
102
RTVSPost2010Prop29
280
     1
102
RTVSPost2010PropOp29
 70
     1
102
RTVSPost2010Prop30
280
     1
102
RTVSPost2010PropOp30
 70
     1
102
RTVSPost2010Prop31
280
     0
102
RTVSPost2010PropOp31
 70
     1
102
RTVSPost2010Prop32
280
     0
102
RTVSPost2010PropOp32
 70
     1
102
RTVSPost2010Prop33
280
     0
102
RTVSPost2010PropOp33
 70
     1
102
RTVSPost2010Prop34
280
     0
102
RTVSPost2010PropOp34
 70
     1
102
RTVSPost2010Prop35
280
     0
102
RTVSPost2010PropOp35
 70
     1
102
RTVSPost2010Prop36
280
     0
102
RTVSPost2010PropOp36
 70
     1
102
RTVSPost2010Prop37
 90
       50
102
RTVSPost2010PropOp37
 70
     1
102
RTVSPost2010Prop38
140
0.0
102
RTVSPost2010PropOp38
 70
     1
102
RTVSPost2010Prop39
140
1.0
102
RTVSPost2010PropOp39
 70
     1
102
RTVSPost2010Prop40
 90
        0
102
RTVSPost2010PropOp40
 70
     1
102
RTVSPost2010Prop41ColorIndex
 90
       18
102
RTVSPost2010Prop41ColorRGB
 90
        0
102
RTVSPost2010PropOp41
 70
     1
102
RTVSPost2010Prop42
 90
       50
102
RTVSPost2010PropOp42
 70
     1
102
RTVSPost2010Prop43
 90
        3
102
RTVSPost2010PropOp43
 70
     1
102
RTVSPost2010Prop44ColorIndex
 90
        5
102
RTVSPost2010Prop44ColorRGB
 90
      255
102
RTVSPost2010PropOp44
 70
     1
102
RTVSPost2010Prop45
280
     0
102
RTVSPost2010PropOp45
 70
     1
102
RTVSPost2010Prop46
 90
       50
102
RTVSPost2010PropOp46
 70
     1
102
RTVSPost2010Prop47
 90
       50
102
RTVSPost2010PropOp47
 70
     1
102
RTVSPost2010Prop48
 90
       50
102
RTVSPost2010PropOp48
 70
     1
102
RTVSPost2010Prop49
280
     0
102
RTVSPost2010PropOp49
 70
     1
102
RTVSPost2010Prop50
 90
       50
102
RTVSPost2010PropOp50
 70
     1
102
RTVSPost2010Prop51ColorIndex
 90
      256
102
RTVSPost2010Prop51ColorRGB
 90
-16777216
102
RTVSPost2010PropOp51
 70
     0
102
RTVSPost2010Prop52
140
1.0
102
RTVSPost2010PropOp52
 70
     0
102
RTVSPost2010Prop53
 90
        2
102
RTVSPost2010PropOp53
 70
     1
102
RTVSPost2010Prop54
  1
strokes_ogs.tif
102
RTVSPost2010PropOp54
 70
     1
102
RTVSPost2010Prop55
280
     0
102
RTVSPost2010PropOp55
 70
     1
102
RTVSPost2010Prop56
140
1.0
102
RTVSPost2010PropOp56
 70
     1
102
RTVSPost2010Prop57
140
1.0
102
RTVSPost2010PropOp57
 70
     1
  0
XRECORD
  5
197
102
{ACAD_REACTORS
330
196
102
}
330
196
100
AcDbXrecord
280
     1
102
RTVSPost2010Prop28
280
     0
102
RTVSPost2010PropOp28
 70
     1
102
RTVSPost2010Prop29
280
     1
102
RTVSPost2010PropOp29
 70
     1
102
RTVSPost2010Prop30
280
     1
102
RTVSPost2010PropOp30
 70
     1
102
RTVSPost2010Prop31
280
     0
102
RTVSPost2010PropOp31
 70
     1
102
RTVSPost2010Prop32
280
     0
102
RTVSPost2010PropOp32
 70
     1
102
RTVSPost2010Prop33
280
     0
102
RTVSPost2010PropOp33
 70
     1
102
RTVSPost2010Prop34
280
     0
102
RTVSPost2010PropOp34
 70
     1
102
RTVSPost2010Prop35
280
     0
102
RTVSPost2010PropOp35
 70
     1
102
RTVSPost2010Prop36
280
     0
102
RTVSPost2010PropOp36
 70
     1
102
RTVSPost2010Prop37
 90
       50
102
RTVSPost2010PropOp37
 70
     1
102
RTVSPost2010Prop38
140
0.0
102
RTVSPost2010PropOp38
 70
     1
102
RTVSPost2010Prop39
140
1.0
102
RTVSPost2010PropOp39
 70
     1
102
RTVSPost2010Prop40
 90
        0
102
RTVSPost2010PropOp40
 70
     1
102
RTVSPost2010Prop41ColorIndex
 90
       18
102
RTVSPost2010Prop41ColorRGB
 90
        0
102
RTVSPost2010PropOp41
 70
     1
102
RTVSPost2010Prop42
 90
       50
102
RTVSPost2010PropOp42
 70
     1
102
RTVSPost2010Prop43
 90
        3
102
RTVSPost2010PropOp43
 70
     1
102
RTVSPost2010Prop44ColorIndex
 90
        5
102
RTVSPost2010Prop44ColorRGB
 90
      255
102
RTVSPost2010PropOp44
 70
     1
102
RTVSPost2010Prop45
280
     0
102
RTVSPost2010PropOp45
 70
     1
102
RTVSPost2010Prop46
 90
       50
102
RTVSPost2010PropOp46
 70
     1
102
RTVSPost2010Prop47
 90
       50
102
RTVSPost2010PropOp47
 70
     1
102
RTVSPost2010Prop48
 90
       50
102
RTVSPost2010PropOp48
 70
     1
102
RTVSPost2010Prop49
280
     0
102
RTVSPost2010PropOp49
 70
     1
102
RTVSPost2010Prop50
 90
       50
102
RTVSPost2010PropOp50
 70
     1
102
RTVSPost2010Prop51ColorIndex
 90
      256
102
RTVSPost2010Prop51ColorRGB
 90
-16777216
102
RTVSPost2010PropOp51
 70
     0
102
RTVSPost2010Prop52
140
1.0
102
RTVSPost2010PropOp52
 70
     0
102
RTVSPost2010Prop53
 90
        2
102
RTVSPost2010PropOp53
 70
     1
102
RTVSPost2010Prop54
  1
strokes_ogs.tif
102
RTVSPost2010PropOp54
 70
     1
102
RTVSPost2010Prop55
280
     0
102
RTVSPost2010PropOp55
 70
     1
102
RTVSPost2010Prop56
140
1.0
102
RTVSPost2010PropOp56
 70
     1
102
RTVSPost2010Prop57
140
1.0
102
RTVSPost2010PropOp57
 70
     1
  0
XRECORD
  5
191
102
{ACAD_REACTORS
330
190
102
}
330
190
100
AcDbXrecord
280
     1
102
RTVSPost2010Prop28
280
     0
102
RTVSPost2010PropOp28
 70
     1
102
RTVSPost2010Prop29
280
     1
102
RTVSPost2010PropOp29
 70
     1
102
RTVSPost2010Prop30
280
     1
102
RTVSPost2010PropOp30
 70
     1
102
RTVSPost2010Prop31
280
     0
102
RTVSPost2010PropOp31
 70
     1
102
RTVSPost2010Prop32
280
     0
102
RTVSPost2010PropOp32
 70
     1
102
RTVSPost2010Prop33
280
     0
102
RTVSPost2010PropOp33
 70
     1
102
RTVSPost2010Prop34
280
     0
102
RTVSPost2010PropOp34
 70
     1
102
RTVSPost2010Prop35
280
     0
102
RTVSPost2010PropOp35
 70
     1
102
RTVSPost2010Prop36
280
     0
102
RTVSPost2010PropOp36
 70
     1
102
RTVSPost2010Prop37
 90
       50
102
RTVSPost2010PropOp37
 70
     1
102
RTVSPost2010Prop38
140
0.0
102
RTVSPost2010PropOp38
 70
     1
102
RTVSPost2010Prop39
140
1.0
102
RTVSPost2010PropOp39
 70
     1
102
RTVSPost2010Prop40
 90
        0
102
RTVSPost2010PropOp40
 70
     1
102
RTVSPost2010Prop41ColorIndex
 90
       18
102
RTVSPost2010Prop41ColorRGB
 90
        0
102
RTVSPost2010PropOp41
 70
     1
102
RTVSPost2010Prop42
 90
       50
102
RTVSPost2010PropOp42
 70
     1
102
RTVSPost2010Prop43
 90
        3
102
RTVSPost2010PropOp43
 70
     1
102
RTVSPost2010Prop44ColorIndex
 90
        5
102
RTVSPost2010Prop44ColorRGB
 90
      255
102
RTVSPost2010PropOp44
 70
     1
102
RTVSPost2010Prop45
280
     0
102
RTVSPost2010PropOp45
 70
     1
102
RTVSPost2010Prop46
 90
       50
102
RTVSPost2010PropOp46
 70
     1
102
RTVSPost2010Prop47
 90
       50
102
RTVSPost2010PropOp47
 70
     1
102
RTVSPost2010Prop48
 90
       50
102
RTVSPost2010PropOp48
 70
     1
102
RTVSPost2010Prop49
280
     0
102
RTVSPost2010PropOp49
 70
     1
102
RTVSPost2010Prop50
 90
       50
102
RTVSPost2010PropOp50
 70
     1
102
RTVSPost2010Prop51ColorIndex
 90
      256
102
RTVSPost2010Prop51ColorRGB
 90
-16777216
102
RTVSPost2010PropOp51
 70
     0
102
RTVSPost2010Prop52
140
1.0
102
RTVSPost2010PropOp52
 70
     0
102
RTVSPost2010Prop53
 90
        2
102
RTVSPost2010PropOp53
 70
     1
102
RTVSPost2010Prop54
  1
strokes_ogs.tif
102
RTVSPost2010PropOp54
 70
     1
102
RTVSPost2010Prop55
280
     0
102
RTVSPost2010PropOp55
 70
     1
102
RTVSPost2010Prop56
140
1.0
102
RTVSPost2010PropOp56
 70
     1
102
RTVSPost2010Prop57
140
1.0
102
RTVSPost2010PropOp57
 70
     1
  0
XRECORD
  5
193
102
{ACAD_REACTORS
330
192
102
}
330
192
100
AcDbXrecord
280
     1
102
RTVSPost2010Prop28
280
     0
102
RTVSPost2010PropOp28
 70
     1
102
RTVSPost2010Prop29
280
     1
102
RTVSPost2010PropOp29
 70
     1
102
RTVSPost2010Prop30
280
     1
102
RTVSPost2010PropOp30
 70
     1
102
RTVSPost2010Prop31
280
     0
102
RTVSPost2010PropOp31
 70
     1
102
RTVSPost2010Prop32
280
     0
102
RTVSPost2010PropOp32
 70
     1
102
RTVSPost2010Prop33
280
     0
102
RTVSPost2010PropOp33
 70
     1
102
RTVSPost2010Prop34
280
     0
102
RTVSPost2010PropOp34
 70
     1
102
RTVSPost2010Prop35
280
     0
102
RTVSPost2010PropOp35
 70
     1
102
RTVSPost2010Prop36
280
     0
102
RTVSPost2010PropOp36
 70
     1
102
RTVSPost2010Prop37
 90
       50
102
RTVSPost2010PropOp37
 70
     1
102
RTVSPost2010Prop38
140
0.0
102
RTVSPost2010PropOp38
 70
     1
102
RTVSPost2010Prop39
140
1.0
102
RTVSPost2010PropOp39
 70
     1
102
RTVSPost2010Prop40
 90
        0
102
RTVSPost2010PropOp40
 70
     1
102
RTVSPost2010Prop41ColorIndex
 90
       18
102
RTVSPost2010Prop41ColorRGB
 90
        0
102
RTVSPost2010PropOp41
 70
     1
102
RTVSPost2010Prop42
 90
       50
102
RTVSPost2010PropOp42
 70
     1
102
RTVSPost2010Prop43
 90
        3
102
RTVSPost2010PropOp43
 70
     1
102
RTVSPost2010Prop44ColorIndex
 90
        5
102
RTVSPost2010Prop44ColorRGB
 90
      255
102
RTVSPost2010PropOp44
 70
     1
102
RTVSPost2010Prop45
280
     0
102
RTVSPost2010PropOp45
 70
     1
102
RTVSPost2010Prop46
 90
       50
102
RTVSPost2010PropOp46
 70
     1
102
RTVSPost2010Prop47
 90
       50
102
RTVSPost2010PropOp47
 70
     1
102
RTVSPost2010Prop48
 90
       50
102
RTVSPost2010PropOp48
 70
     1
102
RTVSPost2010Prop49
280
     0
102
RTVSPost2010PropOp49
 70
     1
102
RTVSPost2010Prop50
 90
       50
102
RTVSPost2010PropOp50
 70
     1
102
RTVSPost2010Prop51ColorIndex
 90
      256
102
RTVSPost2010Prop51ColorRGB
 90
-16777216
102
RTVSPost2010PropOp51
 70
     0
102
RTVSPost2010Prop52
140
1.0
102
RTVSPost2010PropOp52
 70
     0
102
RTVSPost2010Prop53
 90
        2
102
RTVSPost2010PropOp53
 70
     1
102
RTVSPost2010Prop54
  1
strokes_ogs.tif
102
RTVSPost2010PropOp54
 70
     1
102
RTVSPost2010Prop55
280
     0
102
RTVSPost2010PropOp55
 70
     1
102
RTVSPost2010Prop56
140
1.0
102
RTVSPost2010PropOp56
 70
     1
102
RTVSPost2010Prop57
140
1.0
102
RTVSPost2010PropOp57
 70
     1
  0
XRECORD
  5
189
102
{ACAD_REACTORS
330
188
102
}
330
188
100
AcDbXrecord
280
     1
102
RTVSPost2010Prop28
280
     0
102
RTVSPost2010PropOp28
 70
     1
102
RTVSPost2010Prop29
280
     1
102
RTVSPost2010PropOp29
 70
     1
102
RTVSPost2010Prop30
280
     1
102
RTVSPost2010PropOp30
 70
     1
102
RTVSPost2010Prop31
280
     0
102
RTVSPost2010PropOp31
 70
     1
102
RTVSPost2010Prop32
280
     0
102
RTVSPost2010PropOp32
 70
     1
102
RTVSPost2010Prop33
280
     0
102
RTVSPost2010PropOp33
 70
     1
102
RTVSPost2010Prop34
280
     0
102
RTVSPost2010PropOp34
 70
     1
102
RTVSPost2010Prop35
280
     0
102
RTVSPost2010PropOp35
 70
     1
102
RTVSPost2010Prop36
280
     0
102
RTVSPost2010PropOp36
 70
     1
102
RTVSPost2010Prop37
 90
       50
102
RTVSPost2010PropOp37
 70
     1
102
RTVSPost2010Prop38
140
0.0
102
RTVSPost2010PropOp38
 70
     1
102
RTVSPost2010Prop39
140
1.0
102
RTVSPost2010PropOp39
 70
     1
102
RTVSPost2010Prop40
 90
        0
102
RTVSPost2010PropOp40
 70
     1
102
RTVSPost2010Prop41ColorIndex
 90
       18
102
RTVSPost2010Prop41ColorRGB
 90
        0
102
RTVSPost2010PropOp41
 70
     1
102
RTVSPost2010Prop42
 90
       50
102
RTVSPost2010PropOp42
 70
     1
102
RTVSPost2010Prop43
 90
        3
102
RTVSPost2010PropOp43
 70
     1
102
RTVSPost2010Prop44ColorIndex
 90
        5
102
RTVSPost2010Prop44ColorRGB
 90
      255
102
RTVSPost2010PropOp44
 70
     1
102
RTVSPost2010Prop45
280
     0
102
RTVSPost2010PropOp45
 70
     1
102
RTVSPost2010Prop46
 90
       50
102
RTVSPost2010PropOp46
 70
     1
102
RTVSPost2010Prop47
 90
       50
102
RTVSPost2010PropOp47
 70
     1
102
RTVSPost2010Prop48
 90
       50
102
RTVSPost2010PropOp48
 70
     1
102
RTVSPost2010Prop49
280
     0
102
RTVSPost2010PropOp49
 70
     1
102
RTVSPost2010Prop50
 90
       50
102
RTVSPost2010PropOp50
 70
     1
102
RTVSPost2010Prop51ColorIndex
 90
      256
102
RTVSPost2010Prop51ColorRGB
 90
-16777216
102
RTVSPost2010PropOp51
 70
     0
102
RTVSPost2010Prop52
140
1.0
102
RTVSPost2010PropOp52
 70
     0
102
RTVSPost2010Prop53
 90
        2
102
RTVSPost2010PropOp53
 70
     1
102
RTVSPost2010Prop54
  1
strokes_ogs.tif
102
RTVSPost2010PropOp54
 70
     1
102
RTVSPost2010Prop55
280
     0
102
RTVSPost2010PropOp55
 70
     1
102
RTVSPost2010Prop56
140
1.0
102
RTVSPost2010PropOp56
 70
     1
102
RTVSPost2010Prop57
140
1.0
102
RTVSPost2010PropOp57
 70
     1
  0
XRECORD
  5
17D
102
{ACAD_REACTORS
330
17C
102
}
330
17C
100
AcDbXrecord
280
     1
102
RTVSPost2010Prop28
280
     0
102
RTVSPost2010PropOp28
 70
     1
102
RTVSPost2010Prop29
280
     1
102
RTVSPost2010PropOp29
 70
     1
102
RTVSPost2010Prop30
280
     1
102
RTVSPost2010PropOp30
 70
     1
102
RTVSPost2010Prop31
280
     0
102
RTVSPost2010PropOp31
 70
     1
102
RTVSPost2010Prop32
280
     0
102
RTVSPost2010PropOp32
 70
     1
102
RTVSPost2010Prop33
280
     0
102
RTVSPost2010PropOp33
 70
     1
102
RTVSPost2010Prop34
280
     0
102
RTVSPost2010PropOp34
 70
     1
102
RTVSPost2010Prop35
280
     0
102
RTVSPost2010PropOp35
 70
     1
102
RTVSPost2010Prop36
280
     0
102
RTVSPost2010PropOp36
 70
     1
102
RTVSPost2010Prop37
 90
       50
102
RTVSPost2010PropOp37
 70
     1
102
RTVSPost2010Prop38
140
0.0
102
RTVSPost2010PropOp38
 70
     1
102
RTVSPost2010Prop39
140
1.0
102
RTVSPost2010PropOp39
 70
     1
102
RTVSPost2010Prop40
 90
        0
102
RTVSPost2010PropOp40
 70
     1
102
RTVSPost2010Prop41ColorIndex
 90
       18
102
RTVSPost2010Prop41ColorRGB
 90
        0
102
RTVSPost2010PropOp41
 70
     1
102
RTVSPost2010Prop42
 90
       50
102
RTVSPost2010PropOp42
 70
     1
102
RTVSPost2010Prop43
 90
        3
102
RTVSPost2010PropOp43
 70
     1
102
RTVSPost2010Prop44ColorIndex
 90
        5
102
RTVSPost2010Prop44ColorRGB
 90
      255
102
RTVSPost2010PropOp44
 70
     1
102
RTVSPost2010Prop45
280
     0
102
RTVSPost2010PropOp45
 70
     1
102
RTVSPost2010Prop46
 90
       50
102
RTVSPost2010PropOp46
 70
     1
102
RTVSPost2010Prop47
 90
       50
102
RTVSPost2010PropOp47
 70
     1
102
RTVSPost2010Prop48
 90
       50
102
RTVSPost2010PropOp48
 70
     1
102
RTVSPost2010Prop49
280
     0
102
RTVSPost2010PropOp49
 70
     1
102
RTVSPost2010Prop50
 90
       50
102
RTVSPost2010PropOp50
 70
     1
102
RTVSPost2010Prop51ColorIndex
 90
      256
102
RTVSPost2010Prop51ColorRGB
 90
-16777216
102
RTVSPost2010PropOp51
 70
     0
102
RTVSPost2010Prop52
140
1.0
102
RTVSPost2010PropOp52
 70
     0
102
RTVSPost2010Prop53
 90
        2
102
RTVSPost2010PropOp53
 70
     1
102
RTVSPost2010Prop54
  1
strokes_ogs.tif
102
RTVSPost2010PropOp54
 70
     1
102
RTVSPost2010Prop55
280
     0
102
RTVSPost2010PropOp55
 70
     1
102
RTVSPost2010Prop56
140
1.0
102
RTVSPost2010PropOp56
 70
     1
102
RTVSPost2010Prop57
140
1.0
102
RTVSPost2010PropOp57
 70
     1
  0
XRECORD
  5
195
102
{ACAD_REACTORS
330
194
102
}
330
194
100
AcDbXrecord
280
     1
102
RTVSPost2010Prop28
280
     0
102
RTVSPost2010PropOp28
 70
     1
102
RTVSPost2010Prop29
280
     1
102
RTVSPost2010PropOp29
 70
     1
102
RTVSPost2010Prop30
280
     1
102
RTVSPost2010PropOp30
 70
     1
102
RTVSPost2010Prop31
280
     0
102
RTVSPost2010PropOp31
 70
     1
102
RTVSPost2010Prop32
280
     0
102
RTVSPost2010PropOp32
 70
     1
102
RTVSPost2010Prop33
280
     0
102
RTVSPost2010PropOp33
 70
     1
102
RTVSPost2010Prop34
280
     0
102
RTVSPost2010PropOp34
 70
     1
102
RTVSPost2010Prop35
280
     0
102
RTVSPost2010PropOp35
 70
     1
102
RTVSPost2010Prop36
280
     0
102
RTVSPost2010PropOp36
 70
     1
102
RTVSPost2010Prop37
 90
       50
102
RTVSPost2010PropOp37
 70
     1
102
RTVSPost2010Prop38
140
0.0
102
RTVSPost2010PropOp38
 70
     1
102
RTVSPost2010Prop39
140
1.0
102
RTVSPost2010PropOp39
 70
     1
102
RTVSPost2010Prop40
 90
        0
102
RTVSPost2010PropOp40
 70
     1
102
RTVSPost2010Prop41ColorIndex
 90
       18
102
RTVSPost2010Prop41ColorRGB
 90
        0
102
RTVSPost2010PropOp41
 70
     1
102
RTVSPost2010Prop42
 90
       50
102
RTVSPost2010PropOp42
 70
     1
102
RTVSPost2010Prop43
 90
        3
102
RTVSPost2010PropOp43
 70
     1
102
RTVSPost2010Prop44ColorIndex
 90
        5
102
RTVSPost2010Prop44ColorRGB
 90
      255
102
RTVSPost2010PropOp44
 70
     1
102
RTVSPost2010Prop45
280
     0
102
RTVSPost2010PropOp45
 70
     1
102
RTVSPost2010Prop46
 90
       50
102
RTVSPost2010PropOp46
 70
     1
102
RTVSPost2010Prop47
 90
       50
102
RTVSPost2010PropOp47
 70
     1
102
RTVSPost2010Prop48
 90
       50
102
RTVSPost2010PropOp48
 70
     1
102
RTVSPost2010Prop49
280
     0
102
RTVSPost2010PropOp49
 70
     1
102
RTVSPost2010Prop50
 90
       50
102
RTVSPost2010PropOp50
 70
     1
102
RTVSPost2010Prop51ColorIndex
 90
      256
102
RTVSPost2010Prop51ColorRGB
 90
-16777216
102
RTVSPost2010PropOp51
 70
     0
102
RTVSPost2010Prop52
140
1.0
102
RTVSPost2010PropOp52
 70
     0
102
RTVSPost2010Prop53
 90
        2
102
RTVSPost2010PropOp53
 70
     1
102
RTVSPost2010Prop54
  1
strokes_ogs.tif
102
RTVSPost2010PropOp54
 70
     1
102
RTVSPost2010Prop55
280
     0
102
RTVSPost2010PropOp55
 70
     1
102
RTVSPost2010Prop56
140
1.0
102
RTVSPost2010PropOp56
 70
     1
102
RTVSPost2010Prop57
140
1.0
102
RTVSPost2010PropOp57
 70
     1
  0
ENDSEC
  0
EOF
