  0
SECTION
  2
HEADER
  9
$ACADVER
  1
AC1024
  9
$ACADMAINTVER
 70
     6
  9
$DWGCODEPAGE
  3
UNDEFINED
  9
$INSBASE
 10
0.0
 20
0.0
 30
0.0
  9
$EXTMIN
 10
1.000000000000000E+20
 20
1.000000000000000E+20
 30
1.000000000000000E+20
  9
$EXTMAX
 10
-1.000000000000000E+20
 20
-1.000000000000000E+20
 30
-1.000000000000000E+20
  9
$LIMMIN
 10
0.0
 20
0.0
  9
$LIMMAX
 10
12.0
 20
9.0
  9
$ORTHOMODE
 70
     0
  9
$REGENMODE
 70
     1
  9
$FILLMODE
 70
     1
  9
$QTEXTMODE
 70
     0
  9
$MIRRTEXT
 70
     1
  9
$LTSCALE
 40
1.0
  9
$ATTMODE
 70
     1
  9
$TEXTSIZE
 40
0.2
  9
$TRACEWID
 40
0.05
  9
$TEXTSTYLE
  7
Standard
  9
$CLAYER
  8
0
  9
$CELTYPE
  6
ByLayer
  9
$CECOLOR
 62
   256
  9
$CELTSCALE
 40
1.0
  9
$DISPSILH
 70
     0
  9
$DIMSCALE
 40
1.0
  9
$DIMASZ
 40
0.18
  9
$DIMEXO
 40
0.0625
  9
$DIMDLI
 40
0.38
  9
$DIMRND
 40
0.0
  9
$DIMDLE
 40
0.0
  9
$DIMEXE
 40
0.18
  9
$DIMTP
 40
0.0
  9
$DIMTM
 40
0.0
  9
$DIMTXT
 40
0.18
  9
$DIMCEN
 40
0.09
  9
$DIMTSZ
 40
0.0
  9
$DIMTOL
 70
     0
  9
$DIMLIM
 70
     0
  9
$DIMTIH
 70
     1
  9
$DIMTOH
 70
     1
  9
$DIMSE1
 70
     0
  9
$DIMSE2
 70
     0
  9
$DIMTAD
 70
     0
  9
$DIMZIN
 70
     0
  9
$DIMBLK
  1

  9
$DIMASO
 70
     1
  9
$DIMSHO
 70
     1
  9
$DIMPOST
  1

  9
$DIMAPOST
  1

  9
$DIMALT
 70
     0
  9
$DIMALTD
 70
     2
  9
$DIMALTF
 40
25.4
  9
$DIMLFAC
 40
1.0
  9
$DIMTOFL
 70
     0
  9
$DIMTVP
 40
0.0
  9
$DIMTIX
 70
     0
  9
$DIMSOXD
 70
     0
  9
$DIMSAH
 70
     0
  9
$DIMBLK1
  1

  9
$DIMBLK2
  1

  9
$DIMSTYLE
  2
Standard
  9
$DIMCLRD
 70
     0
  9
$DIMCLRE
 70
     0
  9
$DIMCLRT
 70
     0
  9
$DIMTFAC
 40
1.0
  9
$DIMGAP
 40
0.09
  9
$DIMJUST
 70
     0
  9
$DIMSD1
 70
     0
  9
$DIMSD2
 70
     0
  9
$DIMTOLJ
 70
     1
  9
$DIMTZIN
 70
     0
  9
$DIMALTZ
 70
     0
  9
$DIMALTTZ
 70
     0
  9
$DIMUPT
 70
     0
  9
$DIMDEC
 70
     4
  9
$DIMTDEC
 70
     4
  9
$DIMALTU
 70
     2
  9
$DIMALTTD
 70
     2
  9
$DIMTXSTY
  7
Standard
  9
$DIMAUNIT
 70
     0
  9
$DIMADEC
 70
     0
  9
$DIMALTRND
 40
0.0
  9
$DIMAZIN
 70
     0
  9
$DIMDSEP
 70
    46
  9
$DIMATFIT
 70
     3
  9
$DIMFRAC
 70
     0
  9
$DIMLDRBLK
  1

  9
$DIMLUNIT
 70
     2
  9
$DIMLWD
 70
    -2
  9
$DIMLWE
 70
    -2
  9
$DIMTMOVE
 70
     0
  9
$DIMFXL
 40
1.0
  9
$DIMFXLON
 70
     0
  9
$DIMJOGANG
 40
0.7853981633974483
  9
$DIMTFILL
 70
     0
  9
$DIMTFILLCLR
 70
     0
  9
$DIMARCSYM
 70
     0
  9
$DIMLTYPE
  6

  9
$DIMLTEX1
  6

  9
$DIMLTEX2
  6

  9
$DIMTXTDIRECTION
 70
     0
  9
$LUNITS
 70
     2
  9
$LUPREC
 70
     4
  9
$SKETCHINC
 40
0.1
  9
$FILLETRAD
 40
0.5
  9
$AUNITS
 70
     0
  9
$AUPREC
 70
     0
  9
$MENU
  1
.
  9
$ELEVATION
 40
0.0
  9
$PELEVATION
 40
0.0
  9
$THICKNESS
 40
0.0
  9
$LIMCHECK
 70
     0
  9
$CHAMFERA
 40
0.5
  9
$CHAMFERB
 40
0.5
  9
$CHAMFERC
 40
1.0
  9
$CHAMFERD
 40
0.0
  9
$SKPOLY
 70
     0
  9
$TDCREATE
 40
2457917.600520833
  9
$TDUCREATE
 40
2457917.225520833
  9
$TDUPDATE
 40
2457917.600520833
  9
$TDUUPDATE
 40
2457917.225520833
  9
$TDINDWG
 40
0.0000000116
  9
$TDUSRTIMER
 40
0.0000000116
  9
$USRTIMER
 70
     1
  9
$ANGBASE
 50
0.0
  9
$ANGDIR
 70
     0
  9
$PDMODE
 70
     0
  9
$PDSIZE
 40
0.0
  9
$PLINEWID
 40
0.0
  9
$SPLFRAME
 70
     0
  9
$SPLINETYPE
 70
     6
  9
$SPLINESEGS
 70
     8
  9
$HANDSEED
  5
10A
  9
$SURFTAB1
 70
     6
  9
$SURFTAB2
 70
     6
  9
$SURFTYPE
 70
     6
  9
$SURFU
 70
     6
  9
$SURFV
 70
     6
  9
$UCSBASE
  2

  9
$UCSNAME
  2

  9
$UCSORG
 10
0.0
 20
0.0
 30
0.0
  9
$UCSXDIR
 10
1.0
 20
0.0
 30
0.0
  9
$UCSYDIR
 10
0.0
 20
1.0
 30
0.0
  9
$UCSORTHOREF
  2

  9
$UCSORTHOVIEW
 70
     0
  9
$UCSORGTOP
 10
0.0
 20
0.0
 30
0.0
  9
$UCSORGBOTTOM
 10
0.0
 20
0.0
 30
0.0
  9
$UCSORGLEFT
 10
0.0
 20
0.0
 30
0.0
  9
$UCSORGRIGHT
 10
0.0
 20
0.0
 30
0.0
  9
$UCSORGFRONT
 10
0.0
 20
0.0
 30
0.0
  9
$UCSORGBACK
 10
0.0
 20
0.0
 30
0.0
  9
$PUCSBASE
  2

  9
$PUCSNAME
  2

  9
$PUCSORG
 10
0.0
 20
0.0
 30
0.0
  9
$PUCSXDIR
 10
1.0
 20
0.0
 30
0.0
  9
$PUCSYDIR
 10
0.0
 20
1.0
 30
0.0
  9
$PUCSORTHOREF
  2

  9
$PUCSORTHOVIEW
 70
     0
  9
$PUCSORGTOP
 10
0.0
 20
0.0
 30
0.0
  9
$PUCSORGBOTTOM
 10
0.0
 20
0.0
 30
0.0
  9
$PUCSORGLEFT
 10
0.0
 20
0.0
 30
0.0
  9
$PUCSORGRIGHT
 10
0.0
 20
0.0
 30
0.0
  9
$PUCSORGFRONT
 10
0.0
 20
0.0
 30
0.0
  9
$PUCSORGBACK
 10
0.0
 20
0.0
 30
0.0
  9
$USERI1
 70
     0
  9
$USERI2
 70
     0
  9
$USERI3
 70
     0
  9
$USERI4
 70
     0
  9
$USERI5
 70
     0
  9
$USERR1
 40
0.0
  9
$USERR2
 40
0.0
  9
$USERR3
 40
0.0
  9
$USERR4
 40
0.0
  9
$USERR5
 40
0.0
  9
$WORLDVIEW
 70
     1
  9
$SHADEDGE
 70
     3
  9
$SHADEDIF
 70
    70
  9
$TILEMODE
 70
     1
  9
$MAXACTVP
 70
    64
  9
$PINSBASE
 10
0.0
 20
0.0
 30
0.0
  9
$PLIMCHECK
 70
     0
  9
$PEXTMIN
 10
1.000000000000000E+20
 20
1.000000000000000E+20
 30
1.000000000000000E+20
  9
$PEXTMAX
 10
-1.000000000000000E+20
 20
-1.000000000000000E+20
 30
-1.000000000000000E+20
  9
$PLIMMIN
 10
0.0
 20
0.0
  9
$PLIMMAX
 10
12.0
 20
9.0
  9
$UNITMODE
 70
     0
  9
$VISRETAIN
 70
     1
  9
$PLINEGEN
 70
     0
  9
$PSLTSCALE
 70
     1
  9
$TREEDEPTH
 70
  3020
  9
$CMLSTYLE
  2
Standard
  9
$CMLJUST
 70
     0
  9
$CMLSCALE
 40
1.0
  9
$PROXYGRAPHICS
 70
     1
  9
$MEASUREMENT
 70
     0
  9
$CELWEIGHT
370
    -1
  9
$ENDCAPS
280
     0
  9
$JOINSTYLE
280
     0
  9
$LWDISPLAY
290
     1
  9
$INSUNITS
 70
     1
  9
$HYPERLINKBASE
  1

  9
$STYLESHEET
  1

  9
$XEDIT
290
     1
  9
$CEPSNTYPE
380
     0
  9
$PSTYLEMODE
290
     1
  9
$FINGERPRINTGUID
  2
{1B7EF836-6BC7-26FB-8B7E-79FBE3EE2669}
  9
$VERSIONGUID
  2
{FAEB1C32-E019-11D5-929B-00C0DF256EC4}
  9
$EXTNAMES
290
     1
  9
$PSVPSCALE
 40
0.0
  9
$OLESTARTUP
290
     0
  9
$SORTENTS
280
   127
  9
$INDEXCTL
280
     0
  9
$HIDETEXT
280
     1
  9
$XCLIPFRAME
280
     2
  9
$HALOGAP
280
     0
  9
$OBSCOLOR
 70
   257
  9
$OBSLTYPE
280
     0
  9
$INTERSECTIONDISPLAY
280
     0
  9
$INTERSECTIONCOLOR
 70
   257
  9
$DIMASSOC
280
     2
  9
$PROJECTNAME
  1

  9
$CAMERADISPLAY
290
     0
  9
$LENSLENGTH
 40
50.0
  9
$CAMERAHEIGHT
 40
0.0
  9
$STEPSPERSEC
 40
2.0
  9
$STEPSIZE
 40
6.0
  9
$3DDWFPREC
 40
2.0
  9
$PSOLWIDTH
 40
0.25
  9
$PSOLHEIGHT
 40
4.0
  9
$LOFTANG1
 40
1.570796326794897
  9
$LOFTANG2
 40
1.570796326794897
  9
$LOFTMAG1
 40
0.0
  9
$LOFTMAG2
 40
0.0
  9
$LOFTPARAM
 70
     7
  9
$LOFTNORMALS
280
     1
  9
$LATITUDE
 40
37.795
  9
$LONGITUDE
 40
-122.394
  9
$NORTHDIRECTION
 40
0.0
  9
$TIMEZONE
 70
 -8000
  9
$LIGHTGLYPHDISPLAY
280
     1
  9
$TILEMODELIGHTSYNCH
280
     1
  9
$CMATERIAL
347
3C
  9
$SOLIDHIST
280
     1
  9
$SHOWHIST
280
     1
  9
$DWFFRAME
280
     2
  9
$DGNFRAME
280
     2
  9
$REALWORLDSCALE
290
     1
  9
$INTERFERECOLOR
 62
   256
  9
$CSHADOW
280
     0
  9
$SHADOWPLANELOCATION
 40
0.0
  0
ENDSEC
  0
SECTION
  2
CLASSES
  0
CLASS
  1
ACDBDICTIONARYWDFLT
  2
AcDbDictionaryWithDefault
  3
ObjectDBX Classes
 90
        0
 91
        4
280
     0
281
     0
  0
CLASS
  1
VISUALSTYLE
  2
AcDbVisualStyle
  3
ObjectDBX Classes
 90
     4095
 91
        4
280
     0
281
     0
  0
CLASS
  1
MATERIAL
  2
AcDbMaterial
  3
ObjectDBX Classes
 90
     1153
 91
        4
280
     0
281
     0
  0
CLASS
  1
SUN
  2
AcDbSun
  3
SCENEOE
 90
     1024
 91
        4
280
     0
281
     0
  0
ENDSEC
  0
SECTION
  2
TABLES
  0
TABLE
  2
VPORT
  5
8
330
0
100
AcDbSymbolTable
 70
     1
  0
VPORT
  5
29
330
8
100
AcDbSymbolTableRecord
100
AcDbViewportTableRecord
  2
*Active
 70
     0
 10
0.0
 20
0.0
 11
1.0
 21
1.0
 12
0.0
 22
0.0
 13
0.0
 23
0.0
 14
0.5
 24
0.5
 15
0.5
 25
0.5
 16
0.0
 26
0.0
 36
1.0
 17
63.499999984125
 27
-89.00059456108309
 37
0.0
 40
178.0011891221662
 41
0.7134783795241226
 42
50.0
 43
0.0
 44
0.0
 50
0.0
 51
0.0
 71
     0
 72
   100
 73
     1
 74
     3
 75
     0
 76
     0
 77
     0
 78
     0
281
     0
 65
     1
110
0.0
120
0.0
130
0.0
111
1.0
121
0.0
131
0.0
112
0.0
122
1.0
132
0.0
 79
     0
146
0.0
 60
     3
 61
     5
292
     1
282
     1
141
0.0
142
0.0
 63
   250
361
3F
  0
ENDTAB
  0
TABLE
  2
LTYPE
  5
5
330
0
100
AcDbSymbolTable
 70
     2
  0
LTYPE
  5
14
330
5
100
AcDbSymbolTableRecord
100
AcDbLinetypeTableRecord
  2
ByBlock
 70
     0
  3

 72
    65
 73
     0
 40
0.0
  0
LTYPE
  5
15
330
5
100
AcDbSymbolTableRecord
100
AcDbLinetypeTableRecord
  2
ByLayer
 70
     0
  3

 72
    65
 73
     0
 40
0.0
  0
LTYPE
  5
16
330
5
100
AcDbSymbolTableRecord
100
AcDbLinetypeTableRecord
  2
Continuous
 70
     0
  3
Solid line
 72
    65
 73
     0
 40
0.0
  0
LTYPE
  5
106
330
5
100
AcDbSymbolTableRecord
100
AcDbLinetypeTableRecord
  2
AI-Linetype-1
 70
     0
  3
Adobe Illustrator Linetype No. 1
 72
    65
 73
     2
 40
1.411111110758333
 49
0.7055555553791667
 74
     0
 49
-0.7055555553791667
 74
     0
  0
ENDTAB
  0
TABLE
  2
LAYER
  5
2
330
0
100
AcDbSymbolTable
 70
     2
  0
LAYER
  5
10
330
2
100
AcDbSymbolTableRecord
100
AcDbLayerTableRecord
  2
0
 70
     0
 62
     7
  6
Continuous
370
    -3
390
F
347
3E
  0
LAYER
  5
40
330
2
100
AcDbSymbolTableRecord
100
AcDbLayerTableRecord
  2
_U+30EC_U+30A4_U+30E4_U+30FC 1
 70
     0
 62
     7
  6
Continuous
370
    -3
390
F
347
3E
  0
ENDTAB
  0
TABLE
  2
STYLE
  5
3
330
0
100
AcDbSymbolTable
 70
     1
  0
STYLE
  5
11
330
3
100
AcDbSymbolTableRecord
100
AcDbTextStyleTableRecord
  2
Standard
 70
     0
 40
0.0
 41
1.0
 50
0.0
 71
     0
 42
0.2
  3
txt
  4

  0
ENDTAB
  0
TABLE
  2
VIEW
  5
6
330
0
100
AcDbSymbolTable
 70
     0
  0
ENDTAB
  0
TABLE
  2
UCS
  5
7
330
0
100
AcDbSymbolTable
 70
     0
  0
ENDTAB
  0
TABLE
  2
APPID
  5
9
330
0
100
AcDbSymbolTable
 70
     1
  0
APPID
  5
12
330
9
100
AcDbSymbolTableRecord
100
AcDbRegAppTableRecord
  2
ACAD
 70
     0
  0
ENDTAB
  0
TABLE
  2
DIMSTYLE
  5
A
330
0
100
AcDbSymbolTable
 70
     1
100
AcDbDimStyleTable
  0
DIMSTYLE
105
27
330
A
100
AcDbSymbolTableRecord
100
AcDbDimStyleTableRecord
  2
Standard
 70
     0
178
     0
340
11
  0
ENDTAB
  0
TABLE
  2
BLOCK_RECORD
  5
1
330
0
100
AcDbSymbolTable
 70
     8
  0
BLOCK_RECORD
  5
1F
330
1
100
AcDbSymbolTableRecord
100
AcDbBlockTableRecord
  2
*Model_Space
340
22
 70
     0
280
     1
281
     0
  0
BLOCK_RECORD
  5
1B
330
1
100
AcDbSymbolTableRecord
100
AcDbBlockTableRecord
  2
*Paper_Space
340
1E
 70
     0
280
     1
281
     0
  0
BLOCK_RECORD
  5
23
330
1
100
AcDbSymbolTableRecord
100
AcDbBlockTableRecord
  2
*Paper_Space0
340
26
 70
     0
280
     1
281
     0
  0
BLOCK_RECORD
  5
54
330
1
100
AcDbSymbolTableRecord
100
AcDbBlockTableRecord
  2
block 2
340
0
102
{BLKREFS
331
55
102
}
 70
     0
280
     1
281
     0
  0
BLOCK_RECORD
  5
5A
330
1
100
AcDbSymbolTableRecord
100
AcDbBlockTableRecord
  2
block 3
340
0
102
{BLKREFS
331
5B
102
}
 70
     0
280
     1
281
     0
  0
BLOCK_RECORD
  5
61
330
1
100
AcDbSymbolTableRecord
100
AcDbBlockTableRecord
  2
block 4
340
0
102
{BLKREFS
331
62
102
}
 70
     0
280
     1
281
     0
  0
BLOCK_RECORD
  5
69
330
1
100
AcDbSymbolTableRecord
100
AcDbBlockTableRecord
  2
block 5
340
0
102
{BLKREFS
331
6A
102
}
 70
     0
280
     1
281
     0
  0
BLOCK_RECORD
  5
71
330
1
100
AcDbSymbolTableRecord
100
AcDbBlockTableRecord
  2
block 6
340
0
102
{BLKREFS
331
72
102
}
 70
     0
280
     1
281
     0
  0
BLOCK_RECORD
  5
A5
330
1
100
AcDbSymbolTableRecord
100
AcDbBlockTableRecord
  2
block 7
340
0
102
{BLKREFS
331
A6
102
}
 70
     0
280
     1
281
     0
  0
BLOCK_RECORD
  5
B8
330
1
100
AcDbSymbolTableRecord
100
AcDbBlockTableRecord
  2
block 8
340
0
102
{BLKREFS
331
B9
102
}
 70
     0
280
     1
281
     0
  0
ENDTAB
  0
ENDSEC
  0
SECTION
  2
BLOCKS
  0
BLOCK
  5
20
330
1F
100
AcDbEntity
  8
0
100
AcDbBlockBegin
  2
*Model_Space
 70
     0
 10
0.0
 20
0.0
 30
0.0
  3
*Model_Space
  1

  0
ENDBLK
  5
21
330
1F
100
AcDbEntity
  8
0
100
AcDbBlockEnd
  0
BLOCK
  5
1C
330
1B
100
AcDbEntity
 67
     1
  8
0
100
AcDbBlockBegin
  2
*Paper_Space
 70
     0
 10
0.0
 20
0.0
 30
0.0
  3
*Paper_Space
  1

  0
ENDBLK
  5
1D
330
1B
100
AcDbEntity
 67
     1
  8
0
100
AcDbBlockEnd
  0
BLOCK
  5
24
330
23
100
AcDbEntity
  8
0
100
AcDbBlockBegin
  2
*Paper_Space0
 70
     0
 10
0.0
 20
0.0
 30
0.0
  3
*Paper_Space0
  1

  0
ENDBLK
  5
25
330
23
100
AcDbEntity
  8
0
100
AcDbBlockEnd
  0
BLOCK
  5
56
330
54
100
AcDbEntity
  8
0
100
AcDbBlockBegin
  2
block 2
 70
     0
 10
0.0
 20
0.0
 30
0.0
  3
block 2
  1

  0
SPLINE
  5
58
330
54
100
AcDbEntity
  8
_U+30EC_U+30A4_U+30E4_U+30FC 1
370
     0
100
AcDbSpline
210
0.0
220
0.0
230
1.0
 70
    11
 71
     3
 72
    26
 73
    22
 74
     0
 42
0.0000000001
 43
0.0000000001
 12
1.0
 22
0.0
 32
0.0
 13
1.0
 23
0.0
 33
0.0
 40
0.0
 40
0.0
 40
0.0
 40
0.0
 40
1.0
 40
1.0
 40
1.0
 40
2.0
 40
2.0
 40
2.0
 40
3.0
 40
3.0
 40
3.0
 40
4.0
 40
4.0
 40
4.0
 40
5.0
 40
5.0
 40
5.0
 40
6.0
 40
6.0
 40
6.0
 40
7.0
 40
7.0
 40
7.0
 40
7.0
 10
80.59663083922585
 20
-79.91519095224344
 30
0.0
 10
80.59663083922585
 20
-79.91519095224344
 30
0.0
 10
79.49247773620327
 20
-79.91519095224344
 30
0.0
 10
79.49247773620327
 20
-79.91519095224344
 30
0.0
 10
79.49247773620327
 20
-79.91519095224344
 30
0.0
 10
79.49247773620327
 20
-80.24523109973036
 30
0.0
 10
79.49247773620327
 20
-80.24523109973036
 30
0.0
 10
79.49247773620327
 20
-80.24523109973036
 30
0.0
 10
79.34433863033753
 20
-80.24523109973036
 30
0.0
 10
79.34433863033753
 20
-80.24523109973036
 30
0.0
 10
79.32952471975095
 20
-79.91312389495228
 30
0.0
 10
79.16657170329864
 20
-79.8666151059014
 30
0.0
 10
79.05219453318834
 20
-79.83698728472825
 30
0.0
 10
79.05219453318834
 20
-79.83698728472825
 30
0.0
 10
79.05219453318834
 20
-79.69091523615366
 30
0.0
 10
79.05219453318834
 20
-79.69091523615366
 30
0.0
 10
79.05219453318834
 20
-79.69091523615366
 30
0.0
 10
80.59663083922585
 20
-79.69091523615366
 30
0.0
 10
80.59663083922585
 20
-79.69091523615366
 30
0.0
 10
80.59663083922585
 20
-79.69091523615366
 30
0.0
 10
80.59663083922585
 20
-79.91519095224344
 30
0.0
 10
80.59663083922585
 20
-79.91519095224344
 30
0.0
  0
HATCH
  5
59
330
54
100
AcDbEntity
  8
_U+30EC_U+30A4_U+30E4_U+30FC 1
 62
     7
420
 16777215
100
AcDbHatch
 10
0.0
 20
0.0
 30
0.0
210
0.0
220
0.0
230
1.0
  2
SOLID
 70
     1
 71
     0
 91
        1
 92
        1
 93
        1
 72
     4
 94
        3
 73
     0
 74
     1
 95
       26
 96
       22
 40
0.0
 40
0.0
 40
0.0
 40
0.0
 40
1.0
 40
1.0
 40
1.0
 40
2.0
 40
2.0
 40
2.0
 40
3.0
 40
3.0
 40
3.0
 40
4.0
 40
4.0
 40
4.0
 40
5.0
 40
5.0
 40
5.0
 40
6.0
 40
6.0
 40
6.0
 40
7.0
 40
7.0
 40
7.0
 40
7.0
 10
80.59663083922585
 20
-79.91519095224344
 10
80.59663083922585
 20
-79.91519095224344
 10
79.49247773620327
 20
-79.91519095224344
 10
79.49247773620327
 20
-79.91519095224344
 10
79.49247773620327
 20
-79.91519095224344
 10
79.49247773620327
 20
-80.24523109973036
 10
79.49247773620327
 20
-80.24523109973036
 10
79.49247773620327
 20
-80.24523109973036
 10
79.34433863033753
 20
-80.24523109973036
 10
79.34433863033753
 20
-80.24523109973036
 10
79.32952471975095
 20
-79.91312389495228
 10
79.16657170329864
 20
-79.8666151059014
 10
79.05219453318834
 20
-79.83698728472825
 10
79.05219453318834
 20
-79.83698728472825
 10
79.05219453318834
 20
-79.69091523615366
 10
79.05219453318834
 20
-79.69091523615366
 10
79.05219453318834
 20
-79.69091523615366
 10
80.59663083922585
 20
-79.69091523615366
 10
80.59663083922585
 20
-79.69091523615366
 10
80.59663083922585
 20
-79.69091523615366
 10
80.59663083922585
 20
-79.91519095224344
 10
80.59663083922585
 20
-79.91519095224344
 97
        0
 97
        0
 75
     2
 76
     1
 98
        0
  0
ENDBLK
  5
57
330
54
100
AcDbEntity
  8
0
100
AcDbBlockEnd
  0
BLOCK
  5
5C
330
5A
100
AcDbEntity
  8
0
100
AcDbBlockBegin
  2
block 3
 70
     0
 10
0.0
 20
0.0
 30
0.0
  3
block 3
  1

  0
SPLINE
  5
5E
330
5A
100
AcDbEntity
  8
_U+30EC_U+30A4_U+30E4_U+30FC 1
370
     0
100
AcDbSpline
210
0.0
220
0.0
230
1.0
 70
    11
 71
     3
 72
    32
 73
    28
 74
     0
 42
0.0000000001
 43
0.0000000001
 12
1.0
 22
0.0
 32
0.0
 13
1.0
 23
0.0
 33
0.0
 40
0.0
 40
0.0
 40
0.0
 40
0.0
 40
1.0
 40
1.0
 40
1.0
 40
2.0
 40
2.0
 40
2.0
 40
3.0
 40
3.0
 40
3.0
 40
4.0
 40
4.0
 40
4.0
 40
5.0
 40
5.0
 40
5.0
 40
6.0
 40
6.0
 40
6.0
 40
7.0
 40
7.0
 40
7.0
 40
8.0
 40
8.0
 40
8.0
 40
9.0
 40
9.0
 40
9.0
 40
9.0
 10
49.46933185612225
 20
-100.0820909037989
 30
0.0
 10
49.29604355321418
 20
-100.0820909037989
 30
0.0
 10
49.05040824511588
 20
-100.0124999749969
 30
0.0
 10
49.01251219477813
 20
-99.6803927702188
 30
0.0
 10
49.01251219477813
 20
-99.6803927702188
 30
0.0
 10
49.22610811486361
 20
-99.6803927702188
 30
0.0
 10
49.22610811486361
 20
-99.6803927702188
 30
0.0
 10
49.23678791086789
 20
-99.73964841256509
 30
0.0
 10
49.26848278933219
 20
-99.88744300888231
 30
0.0
 10
49.4713989134134
 20
-99.88744300888231
 30
0.0
 10
49.76354301056259
 20
-99.88744300888231
 30
0.0
 10
49.80143906090034
 20
-99.5577473709439
 30
0.0
 10
49.81418591419576
 20
-99.352419680023
 30
0.0
 10
49.72323539338517
 20
-99.43269040482933
 30
0.0
 10
49.65571152187427
 20
-99.48987898988447
 30
0.0
 10
49.47381048025308
 20
-99.48987898988447
 30
0.0
 10
49.29397649592303
 20
-99.48987898988447
 30
0.0
 10
48.99115260276957
 20
-99.38411455848731
 30
0.0
 10
48.99115260276957
 20
-98.97793780077636
 30
0.0
 10
48.99115260276957
 20
-98.65857744929369
 30
0.0
 10
49.19027912181701
 20
-98.43843584778622
 30
0.0
 10
49.50757241600853
 20
-98.43843584778622
 30
0.0
 10
50.0215806624078
 20
-98.43843584778622
 30
0.0
 10
50.03226045841208
 20
-98.99275171136293
 30
0.0
 10
50.03226045841208
 20
-99.20634763144842
 30
0.0
 10
50.03226045841208
 20
-99.43682451941163
 30
0.0
 10
50.01296792369467
 20
-100.0820909037989
 30
0.0
 10
49.46933185612225
 20
-100.0820909037989
 30
0.0
  0
SPLINE
  5
5F
330
5A
100
AcDbEntity
  8
_U+30EC_U+30A4_U+30E4_U+30FC 1
370
     0
100
AcDbSpline
210
0.0
220
0.0
230
1.0
 70
    11
 71
     3
 72
    17
 73
    13
 74
     0
 42
0.0000000001
 43
0.0000000001
 12
1.0
 22
0.0
 32
0.0
 13
1.0
 23
0.0
 33
0.0
 40
0.0
 40
0.0
 40
0.0
 40
0.0
 40
1.0
 40
1.0
 40
1.0
 40
2.0
 40
2.0
 40
2.0
 40
3.0
 40
3.0
 40
3.0
 40
4.0
 40
4.0
 40
4.0
 40
4.0
 10
49.50963947329968
 20
-98.6310166854117
 30
0.0
 10
49.39112818860708
 20
-98.6310166854117
 30
0.0
 10
49.21542831885934
 20
-98.68820527046684
 30
0.0
 10
49.21542831885934
 20
-98.97380368619406
 30
0.0
 10
49.21542831885934
 20
-99.20014645957497
 30
0.0
 10
49.35529919556048
 20
-99.29523109496786
 30
0.0
 10
49.4906914481308
 20
-99.29523109496786
 30
0.0
 10
49.75286321455832
 20
-99.29523109496786
 30
0.0
 10
49.79110377444459
 20
-99.08576928946468
 30
0.0
 10
49.79110377444459
 20
-98.96932506206323
 30
0.0
 10
49.79110377444459
 20
-98.79396970186401
 30
0.0
 10
49.69567462950317
 20
-98.6310166854117
 30
0.0
 10
49.50963947329968
 20
-98.6310166854117
 30
0.0
  0
HATCH
  5
60
330
5A
100
AcDbEntity
  8
_U+30EC_U+30A4_U+30E4_U+30FC 1
 62
     7
420
 16777215
100
AcDbHatch
 10
0.0
 20
0.0
 30
0.0
210
0.0
220
0.0
230
1.0
  2
SOLID
 70
     1
 71
     0
 91
        2
 92
        1
 93
        1
 72
     4
 94
        3
 73
     0
 74
     1
 95
       32
 96
       28
 40
0.0
 40
0.0
 40
0.0
 40
0.0
 40
1.0
 40
1.0
 40
1.0
 40
2.0
 40
2.0
 40
2.0
 40
3.0
 40
3.0
 40
3.0
 40
4.0
 40
4.0
 40
4.0
 40
5.0
 40
5.0
 40
5.0
 40
6.0
 40
6.0
 40
6.0
 40
7.0
 40
7.0
 40
7.0
 40
8.0
 40
8.0
 40
8.0
 40
9.0
 40
9.0
 40
9.0
 40
9.0
 10
49.46933185612225
 20
-100.0820909037989
 10
49.29604355321418
 20
-100.0820909037989
 10
49.05040824511588
 20
-100.0124999749969
 10
49.01251219477813
 20
-99.6803927702188
 10
49.01251219477813
 20
-99.6803927702188
 10
49.22610811486361
 20
-99.6803927702188
 10
49.22610811486361
 20
-99.6803927702188
 10
49.23678791086789
 20
-99.73964841256509
 10
49.26848278933219
 20
-99.88744300888231
 10
49.4713989134134
 20
-99.88744300888231
 10
49.76354301056259
 20
-99.88744300888231
 10
49.80143906090034
 20
-99.5577473709439
 10
49.81418591419576
 20
-99.352419680023
 10
49.72323539338517
 20
-99.43269040482933
 10
49.65571152187427
 20
-99.48987898988447
 10
49.47381048025308
 20
-99.48987898988447
 10
49.29397649592303
 20
-99.48987898988447
 10
48.99115260276957
 20
-99.38411455848731
 10
48.99115260276957
 20
-98.97793780077636
 10
48.99115260276957
 20
-98.65857744929369
 10
49.19027912181701
 20
-98.43843584778622
 10
49.50757241600853
 20
-98.43843584778622
 10
50.0215806624078
 20
-98.43843584778622
 10
50.03226045841208
 20
-98.99275171136293
 10
50.03226045841208
 20
-99.20634763144842
 10
50.03226045841208
 20
-99.43682451941163
 10
50.01296792369467
 20
-100.0820909037989
 10
49.46933185612225
 20
-100.0820909037989
 97
        0
 97
        0
 92
        1
 93
        1
 72
     4
 94
        3
 73
     0
 74
     1
 95
       17
 96
       13
 40
0.0
 40
0.0
 40
0.0
 40
0.0
 40
1.0
 40
1.0
 40
1.0
 40
2.0
 40
2.0
 40
2.0
 40
3.0
 40
3.0
 40
3.0
 40
4.0
 40
4.0
 40
4.0
 40
4.0
 10
49.50963947329968
 20
-98.6310166854117
 10
49.39112818860708
 20
-98.6310166854117
 10
49.21542831885934
 20
-98.68820527046684
 10
49.21542831885934
 20
-98.97380368619406
 10
49.21542831885934
 20
-99.20014645957497
 10
49.35529919556048
 20
-99.29523109496786
 10
49.4906914481308
 20
-99.29523109496786
 10
49.75286321455832
 20
-99.29523109496786
 10
49.79110377444459
 20
-99.08576928946468
 10
49.79110377444459
 20
-98.96932506206323
 10
49.79110377444459
 20
-98.79396970186401
 10
49.69567462950317
 20
-98.6310166854117
 10
49.50963947329968
 20
-98.6310166854117
 97
        0
 97
        0
 75
     2
 76
     1
 98
        0
  0
ENDBLK
  5
5D
330
5A
100
AcDbEntity
  8
0
100
AcDbBlockEnd
  0
BLOCK
  5
63
330
61
100
AcDbEntity
  8
0
100
AcDbBlockBegin
  2
block 4
 70
     0
 10
0.0
 20
0.0
 30
0.0
  3
block 4
  1

  0
SPLINE
  5
65
330
61
100
AcDbEntity
  8
_U+30EC_U+30A4_U+30E4_U+30FC 1
370
     0
100
AcDbSpline
210
0.0
220
0.0
230
1.0
 70
    11
 71
     3
 72
    26
 73
    22
 74
     0
 42
0.0000000001
 43
0.0000000001
 12
1.0
 22
0.0
 32
0.0
 13
1.0
 23
0.0
 33
0.0
 40
0.0
 40
0.0
 40
0.0
 40
0.0
 40
1.0
 40
1.0
 40
1.0
 40
2.0
 40
2.0
 40
2.0
 40
3.0
 40
3.0
 40
3.0
 40
4.0
 40
4.0
 40
4.0
 40
5.0
 40
5.0
 40
5.0
 40
6.0
 40
6.0
 40
6.0
 40
7.0
 40
7.0
 40
7.0
 40
7.0
 10
63.86862520104673
 20
-100.0314480001658
 30
0.0
 10
63.86862520104673
 20
-100.0314480001658
 30
0.0
 10
63.86862520104673
 20
-98.92729489714318
 30
0.0
 10
63.86862520104673
 20
-98.92729489714318
 30
0.0
 10
63.86862520104673
 20
-98.92729489714318
 30
0.0
 10
63.5385850535598
 20
-98.92729489714318
 30
0.0
 10
63.5385850535598
 20
-98.92729489714318
 30
0.0
 10
63.5385850535598
 20
-98.92729489714318
 30
0.0
 10
63.5385850535598
 20
-98.77915579127743
 30
0.0
 10
63.5385850535598
 20
-98.77915579127743
 30
0.0
 10
63.87069225833788
 20
-98.76434188069086
 30
0.0
 10
63.91720104738876
 20
-98.60138886423854
 30
0.0
 10
63.94682886856191
 20
-98.48701169412826
 30
0.0
 10
63.94682886856191
 20
-98.48701169412826
 30
0.0
 10
64.0929009171365
 20
-98.48701169412826
 30
0.0
 10
64.0929009171365
 20
-98.48701169412826
 30
0.0
 10
64.0929009171365
 20
-98.48701169412826
 30
0.0
 10
64.0929009171365
 20
-100.0314480001658
 30
0.0
 10
64.0929009171365
 20
-100.0314480001658
 30
0.0
 10
64.0929009171365
 20
-100.0314480001658
 30
0.0
 10
63.86862520104673
 20
-100.0314480001658
 30
0.0
 10
63.86862520104673
 20
-100.0314480001658
 30
0.0
  0
HATCH
  5
66
330
61
100
AcDbEntity
  8
_U+30EC_U+30A4_U+30E4_U+30FC 1
 62
     7
420
 16777215
100
AcDbHatch
 10
0.0
 20
0.0
 30
0.0
210
0.0
220
0.0
230
1.0
  2
SOLID
 70
     1
 71
     0
 91
        1
 92
        1
 93
        1
 72
     4
 94
        3
 73
     0
 74
     1
 95
       26
 96
       22
 40
0.0
 40
0.0
 40
0.0
 40
0.0
 40
1.0
 40
1.0
 40
1.0
 40
2.0
 40
2.0
 40
2.0
 40
3.0
 40
3.0
 40
3.0
 40
4.0
 40
4.0
 40
4.0
 40
5.0
 40
5.0
 40
5.0
 40
6.0
 40
6.0
 40
6.0
 40
7.0
 40
7.0
 40
7.0
 40
7.0
 10
63.86862520104673
 20
-100.0314480001658
 10
63.86862520104673
 20
-100.0314480001658
 10
63.86862520104673
 20
-98.92729489714318
 10
63.86862520104673
 20
-98.92729489714318
 10
63.86862520104673
 20
-98.92729489714318
 10
63.5385850535598
 20
-98.92729489714318
 10
63.5385850535598
 20
-98.92729489714318
 10
63.5385850535598
 20
-98.92729489714318
 10
63.5385850535598
 20
-98.77915579127743
 10
63.5385850535598
 20
-98.77915579127743
 10
63.87069225833788
 20
-98.76434188069086
 10
63.91720104738876
 20
-98.60138886423854
 10
63.94682886856191
 20
-98.48701169412826
 10
63.94682886856191
 20
-98.48701169412826
 10
64.0929009171365
 20
-98.48701169412826
 10
64.0929009171365
 20
-98.48701169412826
 10
64.0929009171365
 20
-98.48701169412826
 10
64.0929009171365
 20
-100.0314480001658
 10
64.0929009171365
 20
-100.0314480001658
 10
64.0929009171365
 20
-100.0314480001658
 10
63.86862520104673
 20
-100.0314480001658
 10
63.86862520104673
 20
-100.0314480001658
 97
        0
 97
        0
 75
     2
 76
     1
 98
        0
  0
SPLINE
  5
67
330
61
100
AcDbEntity
  8
_U+30EC_U+30A4_U+30E4_U+30FC 1
370
     0
100
AcDbSpline
210
0.0
220
0.0
230
1.0
 70
    11
 71
     3
 72
    53
 73
    49
 74
     0
 42
0.0000000001
 43
0.0000000001
 12
1.0
 22
0.0
 32
0.0
 13
1.0
 23
0.0
 33
0.0
 40
0.0
 40
0.0
 40
0.0
 40
0.0
 40
1.0
 40
1.0
 40
1.0
 40
2.0
 40
2.0
 40
2.0
 40
3.0
 40
3.0
 40
3.0
 40
4.0
 40
4.0
 40
4.0
 40
5.0
 40
5.0
 40
5.0
 40
6.0
 40
6.0
 40
6.0
 40
7.0
 40
7.0
 40
7.0
 40
8.0
 40
8.0
 40
8.0
 40
9.0
 40
9.0
 40
9.0
 40
10.0
 40
10.0
 40
10.0
 40
11.0
 40
11.0
 40
11.0
 40
12.0
 40
12.0
 40
12.0
 40
13.0
 40
13.0
 40
13.0
 40
14.0
 40
14.0
 40
14.0
 40
15.0
 40
15.0
 40
15.0
 40
16.0
 40
16.0
 40
16.0
 40
16.0
 10
65.07509763998122
 20
-100.0820909037989
 30
0.0
 10
64.99689397246605
 20
-100.0820909037989
 30
0.0
 10
64.89526365565119
 20
-100.0652099359212
 30
0.0
 10
64.79363333883632
 20
-100.0018201789926
 30
0.0
 10
64.62034503592825
 20
-99.89192163301314
 30
0.0
 10
64.5989854439197
 20
-99.76066349502511
 30
0.0
 10
64.58003741875083
 20
-99.6528320063368
 30
0.0
 10
64.58003741875083
 20
-99.6528320063368
 30
0.0
 10
64.80224607754944
 20
-99.6528320063368
 30
0.0
 10
64.80224607754944
 20
-99.6528320063368
 30
0.0
 10
64.85702309576492
 20
-99.85161401583571
 30
0.0
 10
64.98414711917063
 20
-99.88124183700886
 30
0.0
 10
65.07716469727238
 20
-99.88124183700886
 30
0.0
 10
65.21669106442499
 20
-99.88124183700886
 30
0.0
 10
65.36896428487304
 20
-99.78167857748514
 30
0.0
 10
65.36896428487304
 20
-99.54913463223077
 30
0.0
 10
65.36896428487304
 20
-99.29316403767672
 30
0.0
 10
65.189130300543
 20
-99.22322859932615
 30
0.0
 10
65.06855195855925
 20
-99.22322859932615
 30
0.0
 10
65.03685708009496
 20
-99.22322859932615
 30
0.0
 10
64.89526365565119
 20
-99.22322859932615
 30
0.0
 10
64.80638019213174
 20
-99.352419680023
 30
0.0
 10
64.80638019213174
 20
-99.352419680023
 30
0.0
 10
64.630680322384
 20
-99.33347165485414
 30
0.0
 10
64.630680322384
 20
-99.33347165485414
 30
0.0
 10
64.630680322384
 20
-99.33347165485414
 30
0.0
 10
64.75125866436774
 20
-98.48701169412826
 30
0.0
 10
64.75125866436774
 20
-98.48701169412826
 30
0.0
 10
64.75125866436774
 20
-98.48701169412826
 30
0.0
 10
65.52985024403421
 20
-98.48701169412826
 30
0.0
 10
65.52985024403421
 20
-98.48701169412826
 30
0.0
 10
65.52985024403421
 20
-98.48701169412826
 30
0.0
 10
65.52985024403421
 20
-98.68165958904487
 30
0.0
 10
65.52985024403421
 20
-98.68165958904487
 30
0.0
 10
65.52985024403421
 20
-98.68165958904487
 30
0.0
 10
64.91421168082006
 20
-98.68165958904487
 30
0.0
 10
64.91421168082006
 20
-98.68165958904487
 30
0.0
 10
64.91421168082006
 20
-98.68165958904487
 30
0.0
 10
64.84875486660032
 20
-99.10471731463355
 30
0.0
 10
64.84875486660032
 20
-99.10471731463355
 30
0.0
 10
64.91007756623776
 20
-99.0709553788781
 30
0.0
 10
64.99241534833523
 20
-99.03064776170068
 30
0.0
 10
65.11092663302783
 20
-99.03064776170068
 30
0.0
 10
65.36483017029074
 20
-99.03064776170068
 30
0.0
 10
65.60185273967593
 20
-99.21702742745269
 30
0.0
 10
65.60185273967593
 20
-99.5301866070619
 30
0.0
 10
65.60185273967593
 20
-99.84747990125341
 30
0.0
 10
65.37757702358617
 20
-100.0820909037989
 30
0.0
 10
65.07509763998122
 20
-100.0820909037989
 30
0.0
  0
HATCH
  5
68
330
61
100
AcDbEntity
  8
_U+30EC_U+30A4_U+30E4_U+30FC 1
 62
     7
420
 16777215
100
AcDbHatch
 10
0.0
 20
0.0
 30
0.0
210
0.0
220
0.0
230
1.0
  2
SOLID
 70
     1
 71
     0
 91
        1
 92
        1
 93
        1
 72
     4
 94
        3
 73
     0
 74
     1
 95
       53
 96
       49
 40
0.0
 40
0.0
 40
0.0
 40
0.0
 40
1.0
 40
1.0
 40
1.0
 40
2.0
 40
2.0
 40
2.0
 40
3.0
 40
3.0
 40
3.0
 40
4.0
 40
4.0
 40
4.0
 40
5.0
 40
5.0
 40
5.0
 40
6.0
 40
6.0
 40
6.0
 40
7.0
 40
7.0
 40
7.0
 40
8.0
 40
8.0
 40
8.0
 40
9.0
 40
9.0
 40
9.0
 40
10.0
 40
10.0
 40
10.0
 40
11.0
 40
11.0
 40
11.0
 40
12.0
 40
12.0
 40
12.0
 40
13.0
 40
13.0
 40
13.0
 40
14.0
 40
14.0
 40
14.0
 40
15.0
 40
15.0
 40
15.0
 40
16.0
 40
16.0
 40
16.0
 40
16.0
 10
65.07509763998122
 20
-100.0820909037989
 10
64.99689397246605
 20
-100.0820909037989
 10
64.89526365565119
 20
-100.0652099359212
 10
64.79363333883632
 20
-100.0018201789926
 10
64.62034503592825
 20
-99.89192163301314
 10
64.5989854439197
 20
-99.76066349502511
 10
64.58003741875083
 20
-99.6528320063368
 10
64.58003741875083
 20
-99.6528320063368
 10
64.80224607754944
 20
-99.6528320063368
 10
64.80224607754944
 20
-99.6528320063368
 10
64.85702309576492
 20
-99.85161401583571
 10
64.98414711917063
 20
-99.88124183700886
 10
65.07716469727238
 20
-99.88124183700886
 10
65.21669106442499
 20
-99.88124183700886
 10
65.36896428487304
 20
-99.78167857748514
 10
65.36896428487304
 20
-99.54913463223077
 10
65.36896428487304
 20
-99.29316403767672
 10
65.189130300543
 20
-99.22322859932615
 10
65.06855195855925
 20
-99.22322859932615
 10
65.03685708009496
 20
-99.22322859932615
 10
64.89526365565119
 20
-99.22322859932615
 10
64.80638019213174
 20
-99.352419680023
 10
64.80638019213174
 20
-99.352419680023
 10
64.630680322384
 20
-99.33347165485414
 10
64.630680322384
 20
-99.33347165485414
 10
64.630680322384
 20
-99.33347165485414
 10
64.75125866436774
 20
-98.48701169412826
 10
64.75125866436774
 20
-98.48701169412826
 10
64.75125866436774
 20
-98.48701169412826
 10
65.52985024403421
 20
-98.48701169412826
 10
65.52985024403421
 20
-98.48701169412826
 10
65.52985024403421
 20
-98.48701169412826
 10
65.52985024403421
 20
-98.68165958904487
 10
65.52985024403421
 20
-98.68165958904487
 10
65.52985024403421
 20
-98.68165958904487
 10
64.91421168082006
 20
-98.68165958904487
 10
64.91421168082006
 20
-98.68165958904487
 10
64.91421168082006
 20
-98.68165958904487
 10
64.84875486660032
 20
-99.10471731463355
 10
64.84875486660032
 20
-99.10471731463355
 10
64.91007756623776
 20
-99.0709553788781
 10
64.99241534833523
 20
-99.03064776170068
 10
65.11092663302783
 20
-99.03064776170068
 10
65.36483017029074
 20
-99.03064776170068
 10
65.60185273967593
 20
-99.21702742745269
 10
65.60185273967593
 20
-99.5301866070619
 10
65.60185273967593
 20
-99.84747990125341
 10
65.37757702358617
 20
-100.0820909037989
 10
65.07509763998122
 20
-100.0820909037989
 97
        0
 97
        0
 75
     2
 76
     1
 98
        0
  0
ENDBLK
  5
64
330
61
100
AcDbEntity
  8
0
100
AcDbBlockEnd
  0
BLOCK
  5
6B
330
69
100
AcDbEntity
  8
0
100
AcDbBlockBegin
  2
block 5
 70
     0
 10
0.0
 20
0.0
 30
0.0
  3
block 5
  1

  0
SPLINE
  5
6D
330
69
100
AcDbEntity
  8
_U+30EC_U+30A4_U+30E4_U+30FC 1
370
     0
100
AcDbSpline
210
0.0
220
0.0
230
1.0
 70
    11
 71
     3
 72
    44
 73
    40
 74
     0
 42
0.0000000001
 43
0.0000000001
 12
1.0
 22
0.0
 32
0.0
 13
1.0
 23
0.0
 33
0.0
 40
0.0
 40
0.0
 40
0.0
 40
0.0
 40
1.0
 40
1.0
 40
1.0
 40
2.0
 40
2.0
 40
2.0
 40
3.0
 40
3.0
 40
3.0
 40
4.0
 40
4.0
 40
4.0
 40
5.0
 40
5.0
 40
5.0
 40
6.0
 40
6.0
 40
6.0
 40
7.0
 40
7.0
 40
7.0
 40
8.0
 40
8.0
 40
8.0
 40
9.0
 40
9.0
 40
9.0
 40
10.0
 40
10.0
 40
10.0
 40
11.0
 40
11.0
 40
11.0
 40
12.0
 40
12.0
 40
12.0
 40
13.0
 40
13.0
 40
13.0
 40
13.0
 10
57.96924369210491
 20
-77.75925019757408
 30
0.0
 10
57.75151365743712
 20
-77.9180690994441
 30
0.0
 10
57.65849607933538
 20
-77.99213865237697
 30
0.0
 10
57.60957572344483
 20
-78.13579913411189
 30
0.0
 10
57.60957572344483
 20
-78.13579913411189
 30
0.0
 10
58.3881673031113
 20
-78.13579913411189
 30
0.0
 10
58.3881673031113
 20
-78.13579913411189
 30
0.0
 10
58.3881673031113
 20
-78.13579913411189
 30
0.0
 10
58.3881673031113
 20
-78.34112682503277
 30
0.0
 10
58.3881673031113
 20
-78.34112682503277
 30
0.0
 10
58.3881673031113
 20
-78.34112682503277
 30
0.0
 10
57.36015081031275
 20
-78.34112682503277
 30
0.0
 10
57.36015081031275
 20
-78.34112682503277
 30
0.0
 10
57.39184568877704
 20
-77.98352591366384
 30
0.0
 10
57.45730250299679
 20
-77.90532224614867
 30
0.0
 10
57.84246417824772
 20
-77.60697697712604
 30
0.0
 10
58.09843477280178
 20
-77.40819496762713
 30
0.0
 10
58.16389158702153
 20
-77.3403265865677
 30
0.0
 10
58.16389158702153
 20
-77.20286727670623
 30
0.0
 10
58.16389158702153
 20
-77.08435599201364
 30
0.0
 10
58.09188909137981
 20
-76.95344236357414
 30
0.0
 10
57.89517413917204
 20
-76.95344236357414
 30
0.0
 10
57.63506943003568
 20
-76.95344236357414
 30
0.0
 10
57.62645669132255
 20
-77.18391925153736
 30
0.0
 10
57.62232257674025
 20
-77.3003634789388
 30
0.0
 10
57.62232257674025
 20
-77.3003634789388
 30
0.0
 10
57.39804686065049
 20
-77.3003634789388
 30
0.0
 10
57.39804686065049
 20
-77.3003634789388
 30
0.0
 10
57.40665959936361
 20
-77.17323945553308
 30
0.0
 10
57.41733939536789
 20
-77.06127385226246
 30
0.0
 10
57.49761012017421
 20
-76.94276256756987
 30
0.0
 10
57.60750866615368
 20
-76.7818766084087
 30
0.0
 10
57.7938883319057
 20
-76.74811467265326
 30
0.0
 10
57.90998804975862
 20
-76.74811467265326
 30
0.0
 10
58.18731823632123
 20
-76.74811467265326
 30
0.0
 10
58.39471298453327
 20
-76.93208277156559
 30
0.0
 10
58.39471298453327
 20
-77.20493433399739
 30
0.0
 10
58.39471298453327
 20
-77.43368867421798
 30
0.0
 10
58.27826875713183
 20
-77.53290742419317
 30
0.0
 10
57.96924369210491
 20
-77.75925019757408
 30
0.0
  0
HATCH
  5
6E
330
69
100
AcDbEntity
  8
_U+30EC_U+30A4_U+30E4_U+30FC 1
 62
     7
420
 16777215
100
AcDbHatch
 10
0.0
 20
0.0
 30
0.0
210
0.0
220
0.0
230
1.0
  2
SOLID
 70
     1
 71
     0
 91
        1
 92
        1
 93
        1
 72
     4
 94
        3
 73
     0
 74
     1
 95
       44
 96
       40
 40
0.0
 40
0.0
 40
0.0
 40
0.0
 40
1.0
 40
1.0
 40
1.0
 40
2.0
 40
2.0
 40
2.0
 40
3.0
 40
3.0
 40
3.0
 40
4.0
 40
4.0
 40
4.0
 40
5.0
 40
5.0
 40
5.0
 40
6.0
 40
6.0
 40
6.0
 40
7.0
 40
7.0
 40
7.0
 40
8.0
 40
8.0
 40
8.0
 40
9.0
 40
9.0
 40
9.0
 40
10.0
 40
10.0
 40
10.0
 40
11.0
 40
11.0
 40
11.0
 40
12.0
 40
12.0
 40
12.0
 40
13.0
 40
13.0
 40
13.0
 40
13.0
 10
57.96924369210491
 20
-77.75925019757408
 10
57.75151365743712
 20
-77.9180690994441
 10
57.65849607933538
 20
-77.99213865237697
 10
57.60957572344483
 20
-78.13579913411189
 10
57.60957572344483
 20
-78.13579913411189
 10
58.3881673031113
 20
-78.13579913411189
 10
58.3881673031113
 20
-78.13579913411189
 10
58.3881673031113
 20
-78.13579913411189
 10
58.3881673031113
 20
-78.34112682503277
 10
58.3881673031113
 20
-78.34112682503277
 10
58.3881673031113
 20
-78.34112682503277
 10
57.36015081031275
 20
-78.34112682503277
 10
57.36015081031275
 20
-78.34112682503277
 10
57.39184568877704
 20
-77.98352591366384
 10
57.45730250299679
 20
-77.90532224614867
 10
57.84246417824772
 20
-77.60697697712604
 10
58.09843477280178
 20
-77.40819496762713
 10
58.16389158702153
 20
-77.3403265865677
 10
58.16389158702153
 20
-77.20286727670623
 10
58.16389158702153
 20
-77.08435599201364
 10
58.09188909137981
 20
-76.95344236357414
 10
57.89517413917204
 20
-76.95344236357414
 10
57.63506943003568
 20
-76.95344236357414
 10
57.62645669132255
 20
-77.18391925153736
 10
57.62232257674025
 20
-77.3003634789388
 10
57.62232257674025
 20
-77.3003634789388
 10
57.39804686065049
 20
-77.3003634789388
 10
57.39804686065049
 20
-77.3003634789388
 10
57.40665959936361
 20
-77.17323945553308
 10
57.41733939536789
 20
-77.06127385226246
 10
57.49761012017421
 20
-76.94276256756987
 10
57.60750866615368
 20
-76.7818766084087
 10
57.7938883319057
 20
-76.74811467265326
 10
57.90998804975862
 20
-76.74811467265326
 10
58.18731823632123
 20
-76.74811467265326
 10
58.39471298453327
 20
-76.93208277156559
 10
58.39471298453327
 20
-77.20493433399739
 10
58.39471298453327
 20
-77.43368867421798
 10
58.27826875713183
 20
-77.53290742419317
 10
57.96924369210491
 20
-77.75925019757408
 97
        0
 97
        0
 75
     2
 76
     1
 98
        0
  0
SPLINE
  5
6F
330
69
100
AcDbEntity
  8
_U+30EC_U+30A4_U+30E4_U+30FC 1
370
     0
100
AcDbSpline
210
0.0
220
0.0
230
1.0
 70
    11
 71
     3
 72
    26
 73
    22
 74
     0
 42
0.0000000001
 43
0.0000000001
 12
1.0
 22
0.0
 32
0.0
 13
1.0
 23
0.0
 33
0.0
 40
0.0
 40
0.0
 40
0.0
 40
0.0
 40
1.0
 40
1.0
 40
1.0
 40
2.0
 40
2.0
 40
2.0
 40
3.0
 40
3.0
 40
3.0
 40
4.0
 40
4.0
 40
4.0
 40
5.0
 40
5.0
 40
5.0
 40
6.0
 40
6.0
 40
6.0
 40
7.0
 40
7.0
 40
7.0
 40
7.0
 10
58.96418726824507
 20
-78.34112682503277
 30
0.0
 10
58.96418726824507
 20
-78.34112682503277
 30
0.0
 10
58.72716469885988
 20
-78.34112682503277
 30
0.0
 10
58.72716469885988
 20
-78.34112682503277
 30
0.0
 10
58.75265840545072
 20
-78.03210176000587
 30
0.0
 10
58.94523924307619
 20
-77.51395939902429
 30
0.0
 10
59.35141600078715
 20
-77.00821938178962
 30
0.0
 10
59.35141600078715
 20
-77.00821938178962
 30
0.0
 10
58.51356877877438
 20
-77.00821938178962
 30
0.0
 10
58.51356877877438
 20
-77.00821938178962
 30
0.0
 10
58.51356877877438
 20
-77.00821938178962
 30
0.0
 10
58.51356877877438
 20
-76.79669051899528
 30
0.0
 10
58.51356877877438
 20
-76.79669051899528
 30
0.0
 10
58.51356877877438
 20
-76.79669051899528
 30
0.0
 10
59.58843857017234
 20
-76.79669051899528
 30
0.0
 10
59.58843857017234
 20
-76.79669051899528
 30
0.0
 10
59.58843857017234
 20
-76.79669051899528
 30
0.0
 10
59.58843857017234
 20
-77.00821938178962
 30
0.0
 10
59.58843857017234
 20
-77.00821938178962
 30
0.0
 10
59.26459959455885
 20
-77.29829642164765
 30
0.0
 10
58.99794920400051
 20
-77.8905083355621
 30
0.0
 10
58.96418726824507
 20
-78.34112682503277
 30
0.0
  0
HATCH
  5
70
330
69
100
AcDbEntity
  8
_U+30EC_U+30A4_U+30E4_U+30FC 1
 62
     7
420
 16777215
100
AcDbHatch
 10
0.0
 20
0.0
 30
0.0
210
0.0
220
0.0
230
1.0
  2
SOLID
 70
     1
 71
     0
 91
        1
 92
        1
 93
        1
 72
     4
 94
        3
 73
     0
 74
     1
 95
       26
 96
       22
 40
0.0
 40
0.0
 40
0.0
 40
0.0
 40
1.0
 40
1.0
 40
1.0
 40
2.0
 40
2.0
 40
2.0
 40
3.0
 40
3.0
 40
3.0
 40
4.0
 40
4.0
 40
4.0
 40
5.0
 40
5.0
 40
5.0
 40
6.0
 40
6.0
 40
6.0
 40
7.0
 40
7.0
 40
7.0
 40
7.0
 10
58.96418726824507
 20
-78.34112682503277
 10
58.96418726824507
 20
-78.34112682503277
 10
58.72716469885988
 20
-78.34112682503277
 10
58.72716469885988
 20
-78.34112682503277
 10
58.75265840545072
 20
-78.03210176000587
 10
58.94523924307619
 20
-77.51395939902429
 10
59.35141600078715
 20
-77.00821938178962
 10
59.35141600078715
 20
-77.00821938178962
 10
58.51356877877438
 20
-77.00821938178962
 10
58.51356877877438
 20
-77.00821938178962
 10
58.51356877877438
 20
-77.00821938178962
 10
58.51356877877438
 20
-76.79669051899528
 10
58.51356877877438
 20
-76.79669051899528
 10
58.51356877877438
 20
-76.79669051899528
 10
59.58843857017234
 20
-76.79669051899528
 10
59.58843857017234
 20
-76.79669051899528
 10
59.58843857017234
 20
-76.79669051899528
 10
59.58843857017234
 20
-77.00821938178962
 10
59.58843857017234
 20
-77.00821938178962
 10
59.26459959455885
 20
-77.29829642164765
 10
58.99794920400051
 20
-77.8905083355621
 10
58.96418726824507
 20
-78.34112682503277
 97
        0
 97
        0
 75
     2
 76
     1
 98
        0
  0
ENDBLK
  5
6C
330
69
100
AcDbEntity
  8
0
100
AcDbBlockEnd
  0
BLOCK
  5
73
330
71
100
AcDbEntity
  8
0
100
AcDbBlockBegin
  2
block 6
 70
     0
 10
0.0
 20
0.0
 30
0.0
  3
block 6
  1

  0
SPLINE
  5
75
330
71
100
AcDbEntity
  8
_U+30EC_U+30A4_U+30E4_U+30FC 1
370
     0
100
AcDbSpline
210
0.0
220
0.0
230
1.0
 70
    11
 71
     3
 72
    62
 73
    58
 74
     0
 42
0.0000000001
 43
0.0000000001
 12
1.0
 22
0.0
 32
0.0
 13
1.0
 23
0.0
 33
0.0
 40
0.0
 40
0.0
 40
0.0
 40
0.0
 40
1.0
 40
1.0
 40
1.0
 40
2.0
 40
2.0
 40
2.0
 40
3.0
 40
3.0
 40
3.0
 40
4.0
 40
4.0
 40
4.0
 40
5.0
 40
5.0
 40
5.0
 40
6.0
 40
6.0
 40
6.0
 40
7.0
 40
7.0
 40
7.0
 40
8.0
 40
8.0
 40
8.0
 40
9.0
 40
9.0
 40
9.0
 40
10.0
 40
10.0
 40
10.0
 40
11.0
 40
11.0
 40
11.0
 40
12.0
 40
12.0
 40
12.0
 40
13.0
 40
13.0
 40
13.0
 40
14.0
 40
14.0
 40
14.0
 40
15.0
 40
15.0
 40
15.0
 40
16.0
 40
16.0
 40
16.0
 40
17.0
 40
17.0
 40
17.0
 40
18.0
 40
18.0
 40
18.0
 40
19.0
 40
19.0
 40
19.0
 40
19.0
 10
55.49738768143816
 20
-100.0820909037989
 30
0.0
 10
55.40195853649674
 20
-100.0820909037989
 30
0.0
 10
55.18422850182895
 20
-100.0610758213389
 30
0.0
 10
55.05917153571438
 20
-99.87504066513542
 30
0.0
 10
54.98510198278151
 20
-99.76273055231627
 30
0.0
 10
54.98096786819921
 20
-99.66351180234108
 30
0.0
 10
54.97683375361691
 20
-99.57876245340393
 30
0.0
 10
54.97683375361691
 20
-99.57876245340393
 30
0.0
 10
55.19697535512437
 20
-99.57876245340393
 30
0.0
 10
55.19697535512437
 20
-99.57876245340393
 30
0.0
 10
55.19904241241552
 20
-99.6528320063368
 30
0.0
 10
55.20937769887127
 20
-99.88744300888231
 30
0.0
 10
55.49290905730733
 20
-99.88744300888231
 30
0.0
 10
55.6303683671688
 20
-99.88744300888231
 30
0.0
 10
55.78298609716537
 20
-99.81785208008026
 30
0.0
 10
55.78298609716537
 20
-99.5894422494082
 30
0.0
 10
55.78298609716537
 20
-99.47299802200675
 30
0.0
 10
55.74474553727909
 20
-99.42442217566473
 30
0.0
 10
55.71305065881479
 20
-99.39272729720044
 30
0.0
 10
55.63898110588192
 20
-99.31865774426757
 30
0.0
 10
55.52253687848048
 20
-99.30591089097214
 30
0.0
 10
55.46775986026501
 20
-99.30591089097214
 30
0.0
 10
55.44846732554761
 20
-99.30591089097214
 30
0.0
 10
55.41263833250101
 20
-99.30797794826329
 30
0.0
 10
55.38507756861901
 20
-99.31211206284559
 30
0.0
 10
55.38507756861901
 20
-99.31211206284559
 30
0.0
 10
55.38507756861901
 20
-99.11746416792897
 30
0.0
 10
55.38507756861901
 20
-99.11746416792897
 30
0.0
 10
55.42331812850529
 20
-99.12400984935094
 30
0.0
 10
55.46534829342533
 20
-99.1260769066421
 30
0.0
 10
55.4718939748473
 20
-99.1260769066421
 30
0.0
 10
55.53735078906706
 20
-99.1260769066421
 30
0.0
 10
55.73613279856597
 20
-99.10471731463355
 30
0.0
 10
55.73613279856597
 20
-98.86803925479688
 30
0.0
 10
55.73613279856597
 20
-98.690272327758
 30
0.0
 10
55.60521917012647
 20
-98.635150799994
 30
0.0
 10
55.49497611459848
 20
-98.635150799994
 30
0.0
 10
55.23073729087982
 20
-98.635150799994
 30
0.0
 10
55.22212455216669
 20
-98.86803925479688
 30
0.0
 10
55.21799043758439
 20
-98.93969724089008
 30
0.0
 10
55.21799043758439
 20
-98.93969724089008
 30
0.0
 10
55.01472980395465
 20
-98.93969724089008
 30
0.0
 10
55.01472980395465
 20
-98.93969724089008
 30
0.0
 10
55.02334254266778
 20
-98.81498478432404
 30
0.0
 10
55.05090330654978
 20
-98.43843584778622
 30
0.0
 10
55.5077229678939
 20
-98.43843584778622
 30
0.0
 10
55.73199868398367
 20
-98.43843584778622
 30
0.0
 10
55.97315536795116
 20
-98.56555987119195
 30
0.0
 10
55.97315536795116
 20
-98.86149357337491
 30
0.0
 10
55.97315536795116
 20
-99.04787323912693
 30
0.0
 10
55.87807073255826
 20
-99.1302110212244
 30
0.0
 10
55.77850747303454
 20
-99.19153372086184
 30
0.0
 10
55.83983017267199
 20
-99.21909448474385
 30
0.0
 10
56.02173121429318
 20
-99.29936520955016
 30
0.0
 10
56.02173121429318
 20
-99.57669539611277
 30
0.0
 10
56.02173121429318
 20
-99.91500377276431
 30
0.0
 10
55.77437335845224
 20
-100.0820909037989
 30
0.0
 10
55.49738768143816
 20
-100.0820909037989
 30
0.0
  0
HATCH
  5
76
330
71
100
AcDbEntity
  8
_U+30EC_U+30A4_U+30E4_U+30FC 1
 62
     7
420
 16777215
100
AcDbHatch
 10
0.0
 20
0.0
 30
0.0
210
0.0
220
0.0
230
1.0
  2
SOLID
 70
     1
 71
     0
 91
        1
 92
        1
 93
        1
 72
     4
 94
        3
 73
     0
 74
     1
 95
       62
 96
       58
 40
0.0
 40
0.0
 40
0.0
 40
0.0
 40
1.0
 40
1.0
 40
1.0
 40
2.0
 40
2.0
 40
2.0
 40
3.0
 40
3.0
 40
3.0
 40
4.0
 40
4.0
 40
4.0
 40
5.0
 40
5.0
 40
5.0
 40
6.0
 40
6.0
 40
6.0
 40
7.0
 40
7.0
 40
7.0
 40
8.0
 40
8.0
 40
8.0
 40
9.0
 40
9.0
 40
9.0
 40
10.0
 40
10.0
 40
10.0
 40
11.0
 40
11.0
 40
11.0
 40
12.0
 40
12.0
 40
12.0
 40
13.0
 40
13.0
 40
13.0
 40
14.0
 40
14.0
 40
14.0
 40
15.0
 40
15.0
 40
15.0
 40
16.0
 40
16.0
 40
16.0
 40
17.0
 40
17.0
 40
17.0
 40
18.0
 40
18.0
 40
18.0
 40
19.0
 40
19.0
 40
19.0
 40
19.0
 10
55.49738768143816
 20
-100.0820909037989
 10
55.40195853649674
 20
-100.0820909037989
 10
55.18422850182895
 20
-100.0610758213389
 10
55.05917153571438
 20
-99.87504066513542
 10
54.98510198278151
 20
-99.76273055231627
 10
54.98096786819921
 20
-99.66351180234108
 10
54.97683375361691
 20
-99.57876245340393
 10
54.97683375361691
 20
-99.57876245340393
 10
55.19697535512437
 20
-99.57876245340393
 10
55.19697535512437
 20
-99.57876245340393
 10
55.19904241241552
 20
-99.6528320063368
 10
55.20937769887127
 20
-99.88744300888231
 10
55.49290905730733
 20
-99.88744300888231
 10
55.6303683671688
 20
-99.88744300888231
 10
55.78298609716537
 20
-99.81785208008026
 10
55.78298609716537
 20
-99.5894422494082
 10
55.78298609716537
 20
-99.47299802200675
 10
55.74474553727909
 20
-99.42442217566473
 10
55.71305065881479
 20
-99.39272729720044
 10
55.63898110588192
 20
-99.31865774426757
 10
55.52253687848048
 20
-99.30591089097214
 10
55.46775986026501
 20
-99.30591089097214
 10
55.44846732554761
 20
-99.30591089097214
 10
55.41263833250101
 20
-99.30797794826329
 10
55.38507756861901
 20
-99.31211206284559
 10
55.38507756861901
 20
-99.31211206284559
 10
55.38507756861901
 20
-99.11746416792897
 10
55.38507756861901
 20
-99.11746416792897
 10
55.42331812850529
 20
-99.12400984935094
 10
55.46534829342533
 20
-99.1260769066421
 10
55.4718939748473
 20
-99.1260769066421
 10
55.53735078906706
 20
-99.1260769066421
 10
55.73613279856597
 20
-99.10471731463355
 10
55.73613279856597
 20
-98.86803925479688
 10
55.73613279856597
 20
-98.690272327758
 10
55.60521917012647
 20
-98.635150799994
 10
55.49497611459848
 20
-98.635150799994
 10
55.23073729087982
 20
-98.635150799994
 10
55.22212455216669
 20
-98.86803925479688
 10
55.21799043758439
 20
-98.93969724089008
 10
55.21799043758439
 20
-98.93969724089008
 10
55.01472980395465
 20
-98.93969724089008
 10
55.01472980395465
 20
-98.93969724089008
 10
55.02334254266778
 20
-98.81498478432404
 10
55.05090330654978
 20
-98.43843584778622
 10
55.5077229678939
 20
-98.43843584778622
 10
55.73199868398367
 20
-98.43843584778622
 10
55.97315536795116
 20
-98.56555987119195
 10
55.97315536795116
 20
-98.86149357337491
 10
55.97315536795116
 20
-99.04787323912693
 10
55.87807073255826
 20
-99.1302110212244
 10
55.77850747303454
 20
-99.19153372086184
 10
55.83983017267199
 20
-99.21909448474385
 10
56.02173121429318
 20
-99.29936520955016
 10
56.02173121429318
 20
-99.57669539611277
 10
56.02173121429318
 20
-99.91500377276431
 10
55.77437335845224
 20
-100.0820909037989
 10
55.49738768143816
 20
-100.0820909037989
 97
        0
 97
        0
 75
     2
 76
     1
 98
        0
  0
ENDBLK
  5
74
330
71
100
AcDbEntity
  8
0
100
AcDbBlockEnd
  0
BLOCK
  5
A7
330
A5
100
AcDbEntity
  8
0
100
AcDbBlockBegin
  2
block 7
 70
     0
 10
0.0
 20
0.0
 30
0.0
  3
block 7
  1

  0
SPLINE
  5
A9
330
A5
100
AcDbEntity
  8
_U+30EC_U+30A4_U+30E4_U+30FC 1
370
     0
100
AcDbSpline
210
0.0
220
0.0
230
1.0
 70
    11
 71
     3
 72
    26
 73
    22
 74
     0
 42
0.0000000001
 43
0.0000000001
 12
1.0
 22
0.0
 32
0.0
 13
1.0
 23
0.0
 33
0.0
 40
0.0
 40
0.0
 40
0.0
 40
0.0
 40
1.0
 40
1.0
 40
1.0
 40
2.0
 40
2.0
 40
2.0
 40
3.0
 40
3.0
 40
3.0
 40
4.0
 40
4.0
 40
4.0
 40
5.0
 40
5.0
 40
5.0
 40
6.0
 40
6.0
 40
6.0
 40
7.0
 40
7.0
 40
7.0
 40
7.0
 10
80.59800887741994
 20
-89.9976073993756
 30
0.0
 10
80.59800887741994
 20
-89.9976073993756
 30
0.0
 10
79.49351126484885
 20
-89.9976073993756
 30
0.0
 10
79.49351126484885
 20
-89.9976073993756
 30
0.0
 10
79.49351126484885
 20
-89.9976073993756
 30
0.0
 10
79.49351126484885
 20
-90.32764754686254
 30
0.0
 10
79.49351126484885
 20
-90.32764754686254
 30
0.0
 10
79.49351126484885
 20
-90.32764754686254
 30
0.0
 10
79.34537215898311
 20
-90.32764754686254
 30
0.0
 10
79.34537215898311
 20
-90.32764754686254
 30
0.0
 10
79.33090275794505
 20
-89.99554034208445
 30
0.0
 10
79.16760523194421
 20
-89.94903155303358
 30
0.0
 10
79.05322806183392
 20
-89.91940373186043
 30
0.0
 10
79.05322806183392
 20
-89.91940373186043
 30
0.0
 10
79.05322806183392
 20
-89.77333168328583
 30
0.0
 10
79.05322806183392
 20
-89.77333168328583
 30
0.0
 10
79.05322806183392
 20
-89.77333168328583
 30
0.0
 10
80.59800887741994
 20
-89.77333168328583
 30
0.0
 10
80.59800887741994
 20
-89.77333168328583
 30
0.0
 10
80.59800887741994
 20
-89.77333168328583
 30
0.0
 10
80.59800887741994
 20
-89.9976073993756
 30
0.0
 10
80.59800887741994
 20
-89.9976073993756
 30
0.0
  0
HATCH
  5
AA
330
A5
100
AcDbEntity
  8
_U+30EC_U+30A4_U+30E4_U+30FC 1
 62
     7
420
 16777215
100
AcDbHatch
 10
0.0
 20
0.0
 30
0.0
210
0.0
220
0.0
230
1.0
  2
SOLID
 70
     1
 71
     0
 91
        1
 92
        1
 93
        1
 72
     4
 94
        3
 73
     0
 74
     1
 95
       26
 96
       22
 40
0.0
 40
0.0
 40
0.0
 40
0.0
 40
1.0
 40
1.0
 40
1.0
 40
2.0
 40
2.0
 40
2.0
 40
3.0
 40
3.0
 40
3.0
 40
4.0
 40
4.0
 40
4.0
 40
5.0
 40
5.0
 40
5.0
 40
6.0
 40
6.0
 40
6.0
 40
7.0
 40
7.0
 40
7.0
 40
7.0
 10
80.59800887741994
 20
-89.9976073993756
 10
80.59800887741994
 20
-89.9976073993756
 10
79.49351126484885
 20
-89.9976073993756
 10
79.49351126484885
 20
-89.9976073993756
 10
79.49351126484885
 20
-89.9976073993756
 10
79.49351126484885
 20
-90.32764754686254
 10
79.49351126484885
 20
-90.32764754686254
 10
79.49351126484885
 20
-90.32764754686254
 10
79.34537215898311
 20
-90.32764754686254
 10
79.34537215898311
 20
-90.32764754686254
 10
79.33090275794505
 20
-89.99554034208445
 10
79.16760523194421
 20
-89.94903155303358
 10
79.05322806183392
 20
-89.91940373186043
 10
79.05322806183392
 20
-89.91940373186043
 10
79.05322806183392
 20
-89.77333168328583
 10
79.05322806183392
 20
-89.77333168328583
 10
79.05322806183392
 20
-89.77333168328583
 10
80.59800887741994
 20
-89.77333168328583
 10
80.59800887741994
 20
-89.77333168328583
 10
80.59800887741994
 20
-89.77333168328583
 10
80.59800887741994
 20
-89.9976073993756
 10
80.59800887741994
 20
-89.9976073993756
 97
        0
 97
        0
 75
     2
 76
     1
 98
        0
  0
SPLINE
  5
AB
330
A5
100
AcDbEntity
  8
_U+30EC_U+30A4_U+30E4_U+30FC 1
370
     0
100
AcDbSpline
210
0.0
220
0.0
230
1.0
 70
    11
 71
     3
 72
    62
 73
    58
 74
     0
 42
0.0000000001
 43
0.0000000001
 12
1.0
 22
0.0
 32
0.0
 13
1.0
 23
0.0
 33
0.0
 40
0.0
 40
0.0
 40
0.0
 40
0.0
 40
1.0
 40
1.0
 40
1.0
 40
2.0
 40
2.0
 40
2.0
 40
3.0
 40
3.0
 40
3.0
 40
4.0
 40
4.0
 40
4.0
 40
5.0
 40
5.0
 40
5.0
 40
6.0
 40
6.0
 40
6.0
 40
7.0
 40
7.0
 40
7.0
 40
8.0
 40
8.0
 40
8.0
 40
9.0
 40
9.0
 40
9.0
 40
10.0
 40
10.0
 40
10.0
 40
11.0
 40
11.0
 40
11.0
 40
12.0
 40
12.0
 40
12.0
 40
13.0
 40
13.0
 40
13.0
 40
14.0
 40
14.0
 40
14.0
 40
15.0
 40
15.0
 40
15.0
 40
16.0
 40
16.0
 40
16.0
 40
17.0
 40
17.0
 40
17.0
 40
18.0
 40
18.0
 40
18.0
 40
19.0
 40
19.0
 40
19.0
 40
19.0
 10
80.64830727150459
 20
-88.78045516443683
 30
0.0
 10
80.64830727150459
 20
-88.87588430937825
 30
0.0
 10
80.6276366985931
 20
-89.09361434404605
 30
0.0
 10
80.4416015423896
 20
-89.21867131016062
 30
0.0
 10
80.32929142957046
 20
-89.29274086309348
 30
0.0
 10
80.23007267959527
 20
-89.29687497767578
 30
0.0
 10
80.14532333065812
 20
-89.30100909225808
 30
0.0
 10
80.14532333065812
 20
-89.30100909225808
 30
0.0
 10
80.14532333065812
 20
-89.08086749075062
 30
0.0
 10
80.14532333065812
 20
-89.08086749075062
 30
0.0
 10
80.21904837404246
 20
-89.07880043345948
 30
0.0
 10
80.4540038861365
 20
-89.06846514700372
 30
0.0
 10
80.4540038861365
 20
-88.78493378856766
 30
0.0
 10
80.4540038861365
 20
-88.64747447870619
 30
0.0
 10
80.38441295733446
 20
-88.49485674870962
 30
0.0
 10
80.15565861711387
 20
-88.49485674870962
 30
0.0
 10
80.03921438971243
 20
-88.49485674870962
 30
0.0
 10
79.99098305291892
 20
-88.5330973085959
 30
0.0
 10
79.95928817445463
 20
-88.56479218706019
 30
0.0
 10
79.88487411197323
 20
-88.63886173999306
 30
0.0
 10
79.87247176822633
 20
-88.7553059673945
 30
0.0
 10
79.87247176822633
 20
-88.81008298560998
 30
0.0
 10
79.87247176822633
 20
-88.82937552032739
 30
0.0
 10
79.87453882551748
 20
-88.86520451337398
 30
0.0
 10
79.87867294009978
 20
-88.89276527725598
 30
0.0
 10
79.87867294009978
 20
-88.89276527725598
 30
0.0
 10
79.68368053563464
 20
-88.89276527725598
 30
0.0
 10
79.68368053563464
 20
-88.89276527725598
 30
0.0
 10
79.69057072660515
 20
-88.8545247173697
 30
0.0
 10
79.69263778389629
 20
-88.81249455244966
 30
0.0
 10
79.69263778389629
 20
-88.80594887102768
 30
0.0
 10
79.69263778389629
 20
-88.74049205680794
 30
0.0
 10
79.67127819188774
 20
-88.54171004730902
 30
0.0
 10
79.43425562250255
 20
-88.54171004730902
 30
0.0
 10
79.25648869546366
 20
-88.54171004730902
 30
0.0
 10
79.20136716769966
 20
-88.67262367574851
 30
0.0
 10
79.20136716769966
 20
-88.78286673127651
 30
0.0
 10
79.20136716769966
 20
-89.04710555499517
 30
0.0
 10
79.43425562250255
 20
-89.0557182937083
 30
0.0
 10
79.50591360859575
 20
-89.0598524082906
 30
0.0
 10
79.50591360859575
 20
-89.0598524082906
 30
0.0
 10
79.50591360859575
 20
-89.26311304192033
 30
0.0
 10
79.50591360859575
 20
-89.26311304192033
 30
0.0
 10
79.3812011520297
 20
-89.25450030320721
 30
0.0
 10
79.00499672504043
 20
-89.22693953932522
 30
0.0
 10
79.00499672504043
 20
-88.77011987798109
 30
0.0
 10
79.00499672504043
 20
-88.54584416189132
 30
0.0
 10
79.13177623889761
 20
-88.30468747792384
 30
0.0
 10
79.4280544506291
 20
-88.30468747792384
 30
0.0
 10
79.6140896068326
 20
-88.30468747792384
 30
0.0
 10
79.69677189847859
 20
-88.39977211331673
 30
0.0
 10
79.75809459811603
 20
-88.49933537284045
 30
0.0
 10
79.78565536199804
 20
-88.438012673203
 30
0.0
 10
79.86558157725582
 20
-88.2561116315818
 30
0.0
 10
80.14325627336697
 20
-88.2561116315818
 30
0.0
 10
80.4815646500185
 20
-88.2561116315818
 30
0.0
 10
80.64830727150459
 20
-88.50346948742275
 30
0.0
 10
80.64830727150459
 20
-88.78045516443683
 30
0.0
  0
HATCH
  5
AC
330
A5
100
AcDbEntity
  8
_U+30EC_U+30A4_U+30E4_U+30FC 1
 62
     7
420
 16777215
100
AcDbHatch
 10
0.0
 20
0.0
 30
0.0
210
0.0
220
0.0
230
1.0
  2
SOLID
 70
     1
 71
     0
 91
        1
 92
        1
 93
        1
 72
     4
 94
        3
 73
     0
 74
     1
 95
       62
 96
       58
 40
0.0
 40
0.0
 40
0.0
 40
0.0
 40
1.0
 40
1.0
 40
1.0
 40
2.0
 40
2.0
 40
2.0
 40
3.0
 40
3.0
 40
3.0
 40
4.0
 40
4.0
 40
4.0
 40
5.0
 40
5.0
 40
5.0
 40
6.0
 40
6.0
 40
6.0
 40
7.0
 40
7.0
 40
7.0
 40
8.0
 40
8.0
 40
8.0
 40
9.0
 40
9.0
 40
9.0
 40
10.0
 40
10.0
 40
10.0
 40
11.0
 40
11.0
 40
11.0
 40
12.0
 40
12.0
 40
12.0
 40
13.0
 40
13.0
 40
13.0
 40
14.0
 40
14.0
 40
14.0
 40
15.0
 40
15.0
 40
15.0
 40
16.0
 40
16.0
 40
16.0
 40
17.0
 40
17.0
 40
17.0
 40
18.0
 40
18.0
 40
18.0
 40
19.0
 40
19.0
 40
19.0
 40
19.0
 10
80.64830727150459
 20
-88.78045516443683
 10
80.64830727150459
 20
-88.87588430937825
 10
80.6276366985931
 20
-89.09361434404605
 10
80.4416015423896
 20
-89.21867131016062
 10
80.32929142957046
 20
-89.29274086309348
 10
80.23007267959527
 20
-89.29687497767578
 10
80.14532333065812
 20
-89.30100909225808
 10
80.14532333065812
 20
-89.30100909225808
 10
80.14532333065812
 20
-89.08086749075062
 10
80.14532333065812
 20
-89.08086749075062
 10
80.21904837404246
 20
-89.07880043345948
 10
80.4540038861365
 20
-89.06846514700372
 10
80.4540038861365
 20
-88.78493378856766
 10
80.4540038861365
 20
-88.64747447870619
 10
80.38441295733446
 20
-88.49485674870962
 10
80.15565861711387
 20
-88.49485674870962
 10
80.03921438971243
 20
-88.49485674870962
 10
79.99098305291892
 20
-88.5330973085959
 10
79.95928817445463
 20
-88.56479218706019
 10
79.88487411197323
 20
-88.63886173999306
 10
79.87247176822633
 20
-88.7553059673945
 10
79.87247176822633
 20
-88.81008298560998
 10
79.87247176822633
 20
-88.82937552032739
 10
79.87453882551748
 20
-88.86520451337398
 10
79.87867294009978
 20
-88.89276527725598
 10
79.87867294009978
 20
-88.89276527725598
 10
79.68368053563464
 20
-88.89276527725598
 10
79.68368053563464
 20
-88.89276527725598
 10
79.69057072660515
 20
-88.8545247173697
 10
79.69263778389629
 20
-88.81249455244966
 10
79.69263778389629
 20
-88.80594887102768
 10
79.69263778389629
 20
-88.74049205680794
 10
79.67127819188774
 20
-88.54171004730902
 10
79.43425562250255
 20
-88.54171004730902
 10
79.25648869546366
 20
-88.54171004730902
 10
79.20136716769966
 20
-88.67262367574851
 10
79.20136716769966
 20
-88.78286673127651
 10
79.20136716769966
 20
-89.04710555499517
 10
79.43425562250255
 20
-89.0557182937083
 10
79.50591360859575
 20
-89.0598524082906
 10
79.50591360859575
 20
-89.0598524082906
 10
79.50591360859575
 20
-89.26311304192033
 10
79.50591360859575
 20
-89.26311304192033
 10
79.3812011520297
 20
-89.25450030320721
 10
79.00499672504043
 20
-89.22693953932522
 10
79.00499672504043
 20
-88.77011987798109
 10
79.00499672504043
 20
-88.54584416189132
 10
79.13177623889761
 20
-88.30468747792384
 10
79.4280544506291
 20
-88.30468747792384
 10
79.6140896068326
 20
-88.30468747792384
 10
79.69677189847859
 20
-88.39977211331673
 10
79.75809459811603
 20
-88.49933537284045
 10
79.78565536199804
 20
-88.438012673203
 10
79.86558157725582
 20
-88.2561116315818
 10
80.14325627336697
 20
-88.2561116315818
 10
80.4815646500185
 20
-88.2561116315818
 10
80.64830727150459
 20
-88.50346948742275
 10
80.64830727150459
 20
-88.78045516443683
 97
        0
 97
        0
 75
     2
 76
     1
 98
        0
  0
ENDBLK
  5
A8
330
A5
100
AcDbEntity
  8
0
100
AcDbBlockEnd
  0
BLOCK
  5
BA
330
B8
100
AcDbEntity
  8
0
100
AcDbBlockBegin
  2
block 8
 70
     0
 10
0.0
 20
0.0
 30
0.0
  3
block 8
  1

  0
SPLINE
  5
BC
330
B8
100
AcDbEntity
  8
_U+30EC_U+30A4_U+30E4_U+30FC 1
370
     0
100
AcDbSpline
210
0.0
220
0.0
230
1.0
 70
    11
 71
     3
 72
    17
 73
    13
 74
     0
 42
0.0000000001
 43
0.0000000001
 12
1.0
 22
0.0
 32
0.0
 13
1.0
 23
0.0
 33
0.0
 40
0.0
 40
0.0
 40
0.0
 40
0.0
 40
1.0
 40
1.0
 40
1.0
 40
2.0
 40
2.0
 40
2.0
 40
3.0
 40
3.0
 40
3.0
 40
4.0
 40
4.0
 40
4.0
 40
4.0
 10
66.30844182370068
 20
-87.3004421439735
 30
0.0
 10
66.2026773923035
 20
-87.19467771257634
 30
0.0
 10
66.12206215794865
 20
-87.15660940746433
 30
0.0
 10
66.02904457984691
 20
-87.12491452900002
 30
0.0
 10
66.02904457984691
 20
-87.12491452900002
 30
0.0
 10
66.1392876353749
 20
-86.95989445525656
 30
0.0
 10
66.1392876353749
 20
-86.95989445525656
 30
0.0
 10
66.23643932805895
 20
-87.00226912972514
 30
0.0
 10
66.3570176700427
 20
-87.0804727972403
 30
0.0
 10
66.41007214051554
 20
-87.13542207023004
 30
0.0
 10
66.41007214051554
 20
-87.13542207023004
 30
0.0
 10
66.30844182370068
 20
-87.3004421439735
 30
0.0
 10
66.30844182370068
 20
-87.3004421439735
 30
0.0
  0
SPLINE
  5
BD
330
B8
100
AcDbEntity
  8
_U+30EC_U+30A4_U+30E4_U+30FC 1
370
     0
100
AcDbSpline
210
0.0
220
0.0
230
1.0
 70
    11
 71
     3
 72
   182
 73
   178
 74
     0
 42
0.0000000001
 43
0.0000000001
 12
1.0
 22
0.0
 32
0.0
 13
1.0
 23
0.0
 33
0.0
 40
0.0
 40
0.0
 40
0.0
 40
0.0
 40
1.0
 40
1.0
 40
1.0
 40
2.0
 40
2.0
 40
2.0
 40
3.0
 40
3.0
 40
3.0
 40
4.0
 40
4.0
 40
4.0
 40
5.0
 40
5.0
 40
5.0
 40
6.0
 40
6.0
 40
6.0
 40
7.0
 40
7.0
 40
7.0
 40
8.0
 40
8.0
 40
8.0
 40
9.0
 40
9.0
 40
9.0
 40
10.0
 40
10.0
 40
10.0
 40
11.0
 40
11.0
 40
11.0
 40
12.0
 40
12.0
 40
12.0
 40
13.0
 40
13.0
 40
13.0
 40
14.0
 40
14.0
 40
14.0
 40
15.0
 40
15.0
 40
15.0
 40
16.0
 40
16.0
 40
16.0
 40
17.0
 40
17.0
 40
17.0
 40
18.0
 40
18.0
 40
18.0
 40
19.0
 40
19.0
 40
19.0
 40
20.0
 40
20.0
 40
20.0
 40
21.0
 40
21.0
 40
21.0
 40
22.0
 40
22.0
 40
22.0
 40
23.0
 40
23.0
 40
23.0
 40
24.0
 40
24.0
 40
24.0
 40
25.0
 40
25.0
 40
25.0
 40
26.0
 40
26.0
 40
26.0
 40
27.0
 40
27.0
 40
27.0
 40
28.0
 40
28.0
 40
28.0
 40
29.0
 40
29.0
 40
29.0
 40
30.0
 40
30.0
 40
30.0
 40
31.0
 40
31.0
 40
31.0
 40
32.0
 40
32.0
 40
32.0
 40
33.0
 40
33.0
 40
33.0
 40
34.0
 40
34.0
 40
34.0
 40
35.0
 40
35.0
 40
35.0
 40
36.0
 40
36.0
 40
36.0
 40
37.0
 40
37.0
 40
37.0
 40
38.0
 40
38.0
 40
38.0
 40
39.0
 40
39.0
 40
39.0
 40
40.0
 40
40.0
 40
40.0
 40
41.0
 40
41.0
 40
41.0
 40
42.0
 40
42.0
 40
42.0
 40
43.0
 40
43.0
 40
43.0
 40
44.0
 40
44.0
 40
44.0
 40
45.0
 40
45.0
 40
45.0
 40
46.0
 40
46.0
 40
46.0
 40
47.0
 40
47.0
 40
47.0
 40
48.0
 40
48.0
 40
48.0
 40
49.0
 40
49.0
 40
49.0
 40
50.0
 40
50.0
 40
50.0
 40
51.0
 40
51.0
 40
51.0
 40
52.0
 40
52.0
 40
52.0
 40
53.0
 40
53.0
 40
53.0
 40
54.0
 40
54.0
 40
54.0
 40
55.0
 40
55.0
 40
55.0
 40
56.0
 40
56.0
 40
56.0
 40
57.0
 40
57.0
 40
57.0
 40
58.0
 40
58.0
 40
58.0
 40
59.0
 40
59.0
 40
59.0
 40
59.0
 10
67.35333928437694
 20
-88.4788370547032
 30
0.0
 10
67.35333928437694
 20
-88.4788370547032
 30
0.0
 10
66.71668563870277
 20
-88.4788370547032
 30
0.0
 10
66.71668563870277
 20
-88.4788370547032
 30
0.0
 10
66.50308971861729
 20
-88.4788370547032
 30
0.0
 10
66.28708223169212
 20
-88.48314342405978
 30
0.0
 10
66.07348631160663
 20
-88.49571802258093
 30
0.0
 10
66.07348631160663
 20
-88.49571802258093
 30
0.0
 10
66.07348631160663
 20
-88.28849552914316
 30
0.0
 10
66.07348631160663
 20
-88.28849552914316
 30
0.0
 10
66.29569497040525
 20
-88.30107012766432
 30
0.0
 10
66.61918943647021
 20
-88.30537649702089
 30
0.0
 10
66.71668563870277
 20
-88.30537649702089
 30
0.0
 10
66.71668563870277
 20
-88.30537649702089
 30
0.0
 10
66.93682724021023
 20
-88.30537649702089
 30
0.0
 10
66.93682724021023
 20
-88.30537649702089
 30
0.0
 10
66.93682724021023
 20
-88.30537649702089
 30
0.0
 10
66.93682724021023
 20
-88.16361081780285
 30
0.0
 10
66.93682724021023
 20
-88.16361081780285
 30
0.0
 10
66.93682724021023
 20
-88.16361081780285
 30
0.0
 10
66.77594128104907
 20
-88.16361081780285
 30
0.0
 10
66.77594128104907
 20
-88.16361081780285
 30
0.0
 10
66.61092120730561
 20
-88.16361081780285
 30
0.0
 10
66.44590113356215
 20
-88.16791718715942
 30
0.0
 10
66.28088105981867
 20
-88.18273109774599
 30
0.0
 10
66.28088105981867
 20
-88.18273109774599
 30
0.0
 10
66.28088105981867
 20
-87.9732692922428
 30
0.0
 10
66.28088105981867
 20
-87.9732692922428
 30
0.0
 10
66.45210230543559
 20
-87.98808320282937
 30
0.0
 10
66.69980467082505
 20
-87.99221731741167
 30
0.0
 10
66.77594128104907
 20
-87.99221731741167
 30
0.0
 10
66.77594128104907
 20
-87.99221731741167
 30
0.0
 10
66.93682724021023
 20
-87.99221731741167
 30
0.0
 10
66.93682724021023
 20
-87.99221731741167
 30
0.0
 10
66.93234861607941
 20
-87.92038707654422
 30
0.0
 10
66.93234861607941
 20
-87.9140136498965
 30
0.0
 10
66.92614744420597
 20
-87.86113143419792
 30
0.0
 10
66.92614744420597
 20
-87.86113143419792
 30
0.0
 10
67.06567381135858
 20
-87.87594534478448
 30
0.0
 10
67.06567381135858
 20
-87.87594534478448
 30
0.0
 10
67.06567381135858
 20
-87.87594534478448
 30
0.0
 10
66.96645506138339
 20
-87.70455184439331
 30
0.0
 10
66.96645506138339
 20
-87.70455184439331
 30
0.0
 10
67.01296385043426
 20
-87.71092527104102
 30
0.0
 10
67.08703340336713
 20
-87.71936575497989
 30
0.0
 10
67.10391437124485
 20
-87.71936575497989
 30
0.0
 10
67.15455727487803
 20
-87.71936575497989
 30
0.0
 10
67.17143824275576
 20
-87.6981784177456
 30
0.0
 10
67.17143824275576
 20
-87.6411620874647
 30
0.0
 10
67.17143824275576
 20
-87.6411620874647
 30
0.0
 10
67.17143824275576
 20
-87.50353052282898
 30
0.0
 10
67.17143824275576
 20
-87.50353052282898
 30
0.0
 10
67.17143824275576
 20
-87.50353052282898
 30
0.0
 10
67.06567381135858
 20
-87.50353052282898
 30
0.0
 10
67.06567381135858
 20
-87.50353052282898
 30
0.0
 10
66.93234861607941
 20
-87.50353052282898
 30
0.0
 10
66.77594128104907
 20
-87.50353052282898
 30
0.0
 10
66.65329588177418
 20
-87.5162773761244
 30
0.0
 10
66.65329588177418
 20
-87.5162773761244
 30
0.0
 10
66.65329588177418
 20
-87.32593585056435
 30
0.0
 10
66.65329588177418
 20
-87.32593585056435
 30
0.0
 10
66.82038301280879
 20
-87.34281681844207
 30
0.0
 10
67.05085990077201
 20
-87.34488387573323
 30
0.0
 10
67.06567381135858
 20
-87.34488387573323
 30
0.0
 10
67.06567381135858
 20
-87.34488387573323
 30
0.0
 10
67.17143824275576
 20
-87.34488387573323
 30
0.0
 10
67.17143824275576
 20
-87.34488387573323
 30
0.0
 10
67.17143824275576
 20
-87.34488387573323
 30
0.0
 10
67.17143824275576
 20
-87.21379799251947
 30
0.0
 10
67.17143824275576
 20
-87.21379799251947
 30
0.0
 10
67.17143824275576
 20
-87.21379799251947
 30
0.0
 10
67.133542192418
 20
-87.21379799251947
 30
0.0
 10
67.133542192418
 20
-87.21379799251947
 30
0.0
 10
67.08910046065829
 20
-87.21379799251947
 30
0.0
 10
66.96404349454372
 20
-87.21793210710177
 30
0.0
 10
66.87516003102427
 20
-87.22637259104063
 30
0.0
 10
66.87516003102427
 20
-87.22637259104063
 30
0.0
 10
66.87516003102427
 20
-87.14610186623432
 30
0.0
 10
66.87516003102427
 20
-87.14610186623432
 30
0.0
 10
66.82245007009995
 20
-87.18417017134632
 30
0.0
 10
66.7969563635091
 20
-87.19898408193289
 30
0.0
 10
66.75458168904052
 20
-87.22223847645833
 30
0.0
 10
66.75458168904052
 20
-87.22223847645833
 30
0.0
 10
66.56647947554589
 20
-87.09321965053573
 30
0.0
 10
66.56647947554589
 20
-87.09321965053573
 30
0.0
 10
66.64468314306106
 20
-87.05928546000601
 30
0.0
 10
66.80143498763992
 20
-86.99589570307742
 30
0.0
 10
66.95784232267026
 20
-86.85206296656824
 30
0.0
 10
67.04018010476774
 20
-86.7736870442788
 30
0.0
 10
67.11872828183144
 20
-86.68910995011592
 30
0.0
 10
67.17143824275576
 20
-86.58765188807531
 30
0.0
 10
67.17143824275576
 20
-86.58765188807531
 30
0.0
 10
67.3829671055501
 20
-86.64897458771276
 30
0.0
 10
67.3829671055501
 20
-86.64897458771276
 30
0.0
 10
67.40191513071896
 20
-86.65517575958621
 30
0.0
 10
67.41259492672324
 20
-86.66378849829934
 30
0.0
 10
67.41259492672324
 20
-86.6763630968205
 30
0.0
 10
67.41259492672324
 20
-86.69341631947249
 30
0.0
 10
67.39984807342782
 20
-86.69961749134593
 30
0.0
 10
67.3746988763855
 20
-86.71236434464136
 30
0.0
 10
67.45496960119182
 20
-86.80968829209966
 30
0.0
 10
67.61792261764414
 20
-86.90701223955797
 30
0.0
 10
67.65168455339958
 20
-86.92596026472685
 30
0.0
 10
67.80189071655647
 20
-87.01484372824629
 30
0.0
 10
67.91626788666677
 20
-87.0424044921283
 30
0.0
 10
67.99447155418194
 20
-87.06135251729717
 30
0.0
 10
67.99447155418194
 20
-87.06135251729717
 30
0.0
 10
67.87596026948934
 20
-87.2306789603972
 30
0.0
 10
67.87596026948934
 20
-87.2306789603972
 30
0.0
 10
67.7912109205522
 20
-87.20105113922405
 30
0.0
 10
67.74056801691903
 20
-87.18210311405517
 30
0.0
 10
67.62205673222644
 20
-87.11647404506117
 30
0.0
 10
67.62205673222644
 20
-87.11647404506117
 30
0.0
 10
67.62205673222644
 20
-87.22637259104063
 30
0.0
 10
67.62205673222644
 20
-87.22637259104063
 30
0.0
 10
67.53971895012896
 20
-87.21793210710177
 30
0.0
 10
67.41259492672324
 20
-87.21379799251947
 30
0.0
 10
67.35988496579893
 20
-87.21379799251947
 30
0.0
 10
67.35988496579893
 20
-87.21379799251947
 30
0.0
 10
67.35988496579893
 20
-87.34488387573323
 30
0.0
 10
67.35988496579893
 20
-87.34488387573323
 30
0.0
 10
67.35988496579893
 20
-87.34488387573323
 30
0.0
 10
67.48046330778267
 20
-87.34488387573323
 30
0.0
 10
67.48046330778267
 20
-87.34488387573323
 30
0.0
 10
67.48253036507381
 20
-87.34488387573323
 30
0.0
 10
67.71507431032818
 20
-87.34281681844207
 30
0.0
 10
67.89284123736707
 20
-87.32593585056435
 30
0.0
 10
67.89284123736707
 20
-87.32593585056435
 30
0.0
 10
67.89284123736707
 20
-87.5162773761244
 30
0.0
 10
67.89284123736707
 20
-87.5162773761244
 30
0.0
 10
67.76399466621872
 20
-87.50353052282898
 30
0.0
 10
67.60724282163986
 20
-87.50353052282898
 30
0.0
 10
67.48046330778267
 20
-87.50353052282898
 30
0.0
 10
67.48046330778267
 20
-87.50353052282898
 30
0.0
 10
67.35988496579893
 20
-87.50353052282898
 30
0.0
 10
67.35988496579893
 20
-87.50353052282898
 30
0.0
 10
67.35988496579893
 20
-87.50353052282898
 30
0.0
 10
67.35988496579893
 20
-87.7298732962099
 30
0.0
 10
67.35988496579893
 20
-87.7298732962099
 30
0.0
 10
67.35988496579893
 20
-87.84838458090249
 30
0.0
 10
67.33439125920808
 20
-87.88438582872335
 30
0.0
 10
67.1735053000469
 20
-87.89919973930992
 30
0.0
 10
67.17798392417772
 20
-87.9181477644788
 30
0.0
 10
67.17143824275576
 20
-87.92882756048307
 30
0.0
 10
67.133542192418
 20
-87.95208195500851
 30
0.0
 10
67.13113062557834
 20
-87.97102998017739
 30
0.0
 10
67.13113062557834
 20
-87.9774034068251
 30
0.0
 10
67.12906356828718
 20
-87.99221731741167
 30
0.0
 10
67.12906356828718
 20
-87.99221731741167
 30
0.0
 10
67.26686738769718
 20
-87.99221731741167
 30
0.0
 10
67.26686738769718
 20
-87.99221731741167
 30
0.0
 10
67.43154295189211
 20
-87.99221731741167
 30
0.0
 10
67.59897459247526
 20
-87.98808320282937
 30
0.0
 10
67.76606172350988
 20
-87.9732692922428
 30
0.0
 10
67.76606172350988
 20
-87.9732692922428
 30
0.0
 10
67.76606172350988
 20
-88.18049178568057
 30
0.0
 10
67.76606172350988
 20
-88.18049178568057
 30
0.0
 10
67.55005423658471
 20
-88.16361081780285
 30
0.0
 10
67.28581541286604
 20
-88.16361081780285
 30
0.0
 10
67.26686738769718
 20
-88.16361081780285
 30
0.0
 10
67.26686738769718
 20
-88.16361081780285
 30
0.0
 10
67.12699651099604
 20
-88.16361081780285
 30
0.0
 10
67.12699651099604
 20
-88.16361081780285
 30
0.0
 10
67.12699651099604
 20
-88.16361081780285
 30
0.0
 10
67.12699651099604
 20
-88.30537649702089
 30
0.0
 10
67.12699651099604
 20
-88.30537649702089
 30
0.0
 10
67.12699651099604
 20
-88.30537649702089
 30
0.0
 10
67.35333928437694
 20
-88.30537649702089
 30
0.0
 10
67.35333928437694
 20
-88.30537649702089
 30
0.0
 10
67.56934677130211
 20
-88.30537649702089
 30
0.0
 10
67.7870768059699
 20
-88.30107012766432
 30
0.0
 10
68.00273978334654
 20
-88.28849552914316
 30
0.0
 10
68.00273978334654
 20
-88.28849552914316
 30
0.0
 10
68.00273978334654
 20
-88.49571802258093
 30
0.0
 10
68.00273978334654
 20
-88.49571802258093
 30
0.0
 10
67.72161999175016
 20
-88.4788370547032
 30
0.0
 10
67.37676593367665
 20
-88.4788370547032
 30
0.0
 10
67.35333928437694
 20
-88.4788370547032
 30
0.0
  0
SPLINE
  5
BE
330
B8
100
AcDbEntity
  8
_U+30EC_U+30A4_U+30E4_U+30FC 1
370
     0
100
AcDbSpline
210
0.0
220
0.0
230
1.0
 70
    11
 71
     3
 72
    23
 73
    19
 74
     0
 42
0.0000000001
 43
0.0000000001
 12
1.0
 22
0.0
 32
0.0
 13
1.0
 23
0.0
 33
0.0
 40
0.0
 40
0.0
 40
0.0
 40
0.0
 40
1.0
 40
1.0
 40
1.0
 40
2.0
 40
2.0
 40
2.0
 40
3.0
 40
3.0
 40
3.0
 40
4.0
 40
4.0
 40
4.0
 40
5.0
 40
5.0
 40
5.0
 40
6.0
 40
6.0
 40
6.0
 40
6.0
 10
66.23437227076779
 20
-87.85045163819365
 30
0.0
 10
66.23437227076779
 20
-87.87163897542793
 30
0.0
 10
66.23643932805895
 20
-87.90970728053993
 30
0.0
 10
66.2109456214681
 20
-87.90970728053993
 30
0.0
 10
66.20061033501236
 20
-87.90970728053993
 30
0.0
 10
66.19199759629923
 20
-87.90333385389222
 30
0.0
 10
66.18131780029495
 20
-87.8864528860145
 30
0.0
 10
66.18131780029495
 20
-87.8864528860145
 30
0.0
 10
66.07762042618893
 20
-87.70455184439331
 30
0.0
 10
66.07762042618893
 20
-87.70455184439331
 30
0.0
 10
66.2936279131141
 20
-87.57553301847071
 30
0.0
 10
66.49034286532186
 20
-87.29837508668236
 30
0.0
 10
66.53685165437274
 20
-87.22637259104063
 30
0.0
 10
66.53685165437274
 20
-87.22637259104063
 30
0.0
 10
66.60885415001445
 20
-87.40620657537067
 30
0.0
 10
66.60885415001445
 20
-87.40620657537067
 30
0.0
 10
66.47552895473528
 20
-87.60292152757845
 30
0.0
 10
66.29982908498755
 20
-87.78706188126505
 30
0.0
 10
66.23437227076779
 20
-87.85045163819365
 30
0.0
  0
SPLINE
  5
BF
330
B8
100
AcDbEntity
  8
_U+30EC_U+30A4_U+30E4_U+30FC 1
370
     0
100
AcDbSpline
210
0.0
220
0.0
230
1.0
 70
    11
 71
     3
 72
    17
 73
    13
 74
     0
 42
0.0000000001
 43
0.0000000001
 12
1.0
 22
0.0
 32
0.0
 13
1.0
 23
0.0
 33
0.0
 40
0.0
 40
0.0
 40
0.0
 40
0.0
 40
1.0
 40
1.0
 40
1.0
 40
2.0
 40
2.0
 40
2.0
 40
3.0
 40
3.0
 40
3.0
 40
4.0
 40
4.0
 40
4.0
 40
4.0
 10
66.4882758080307
 20
-86.95558808589999
 30
0.0
 10
66.42695310839326
 20
-86.87945147567598
 30
0.0
 10
66.2977620276964
 20
-86.80331486545195
 30
0.0
 10
66.19406465359037
 20
-86.7736870442788
 30
0.0
 10
66.19406465359037
 20
-86.7736870442788
 30
0.0
 10
66.2894937985318
 20
-86.60866697053534
 30
0.0
 10
66.2894937985318
 20
-86.60866697053534
 30
0.0
 10
66.39077960579814
 20
-86.6446682183562
 30
0.0
 10
66.4965440371953
 20
-86.70185680341135
 30
0.0
 10
66.58542750071476
 20
-86.78212752821767
 30
0.0
 10
66.58542750071476
 20
-86.78212752821767
 30
0.0
 10
66.4882758080307
 20
-86.95558808589999
 30
0.0
 10
66.4882758080307
 20
-86.95558808589999
 30
0.0
  0
SPLINE
  5
C0
330
B8
100
AcDbEntity
  8
_U+30EC_U+30A4_U+30E4_U+30FC 1
370
     0
100
AcDbSpline
210
0.0
220
0.0
230
1.0
 70
    11
 71
     3
 72
    23
 73
    19
 74
     0
 42
0.0000000001
 43
0.0000000001
 12
1.0
 22
0.0
 32
0.0
 13
1.0
 23
0.0
 33
0.0
 40
0.0
 40
0.0
 40
0.0
 40
0.0
 40
1.0
 40
1.0
 40
1.0
 40
2.0
 40
2.0
 40
2.0
 40
3.0
 40
3.0
 40
3.0
 40
4.0
 40
4.0
 40
4.0
 40
5.0
 40
5.0
 40
5.0
 40
6.0
 40
6.0
 40
6.0
 40
6.0
 10
66.94096135479253
 20
-87.66011011263359
 30
0.0
 10
66.919601762784
 20
-87.68336450715903
 30
0.0
 10
66.82245007009995
 20
-87.7955023652039
 30
0.0
 10
66.68292370294733
 20
-87.87594534478448
 30
0.0
 10
66.68292370294733
 20
-87.87594534478448
 30
0.0
 10
66.51583657191271
 20
-87.75536700280074
 30
0.0
 10
66.51583657191271
 20
-87.75536700280074
 30
0.0
 10
66.66604273506961
 20
-87.67923039257673
 30
0.0
 10
66.7652614850448
 20
-87.58397350240956
 30
0.0
 10
66.81383733138682
 20
-87.53109128671097
 30
0.0
 10
66.81383733138682
 20
-87.53109128671097
 30
0.0
 10
66.98747014384341
 20
-87.61360132358271
 30
0.0
 10
66.98747014384341
 20
-87.61360132358271
 30
0.0
 10
66.99608288255654
 20
-87.61773543816501
 30
0.0
 10
67.00435111172114
 20
-87.62410886481273
 30
0.0
 10
67.00435111172114
 20
-87.634788660817
 30
0.0
 10
67.00435111172114
 20
-87.66011011263359
 30
0.0
 10
66.96852211867454
 20
-87.66011011263359
 30
0.0
 10
66.94096135479253
 20
-87.66011011263359
 30
0.0
  0
SPLINE
  5
C1
330
B8
100
AcDbEntity
  8
_U+30EC_U+30A4_U+30E4_U+30FC 1
370
     0
100
AcDbSpline
210
0.0
220
0.0
230
1.0
 70
    11
 71
     3
 72
    20
 73
    16
 74
     0
 42
0.0000000001
 43
0.0000000001
 12
1.0
 22
0.0
 32
0.0
 13
1.0
 23
0.0
 33
0.0
 40
0.0
 40
0.0
 40
0.0
 40
0.0
 40
1.0
 40
1.0
 40
1.0
 40
2.0
 40
2.0
 40
2.0
 40
3.0
 40
3.0
 40
3.0
 40
4.0
 40
4.0
 40
4.0
 40
5.0
 40
5.0
 40
5.0
 40
5.0
 10
67.23930662381518
 20
-86.81812877603852
 30
0.0
 10
67.2010660639289
 20
-86.86687687715481
 30
0.0
 10
67.13974336429146
 20
-86.94508054466998
 30
0.0
 10
67.00021699713884
 20
-87.05515134542371
 30
0.0
 10
67.08048772194516
 20
-87.05928546000601
 30
0.0
 10
67.11011554311831
 20
-87.05928546000601
 30
0.0
 10
67.133542192418
 20
-87.05928546000601
 30
0.0
 10
67.133542192418
 20
-87.05928546000601
 30
0.0
 10
67.36195202309007
 20
-87.05928546000601
 30
0.0
 10
67.36195202309007
 20
-87.05928546000601
 30
0.0
 10
67.39364690155436
 20
-87.05928546000601
 30
0.0
 10
67.4422227478964
 20
-87.05721840271487
 30
0.0
 10
67.51629230082926
 20
-87.05515134542371
 30
0.0
 10
67.40432669755864
 20
-86.98108179249084
 30
0.0
 10
67.3554063416681
 20
-86.93457300343997
 30
0.0
 10
67.23930662381518
 20
-86.81812877603852
 30
0.0
  0
SPLINE
  5
C2
330
B8
100
AcDbEntity
  8
_U+30EC_U+30A4_U+30E4_U+30FC 1
370
     0
100
AcDbSpline
210
0.0
220
0.0
230
1.0
 70
    11
 71
     3
 72
    17
 73
    13
 74
     0
 42
0.0000000001
 43
0.0000000001
 12
1.0
 22
0.0
 32
0.0
 13
1.0
 23
0.0
 33
0.0
 40
0.0
 40
0.0
 40
0.0
 40
0.0
 40
1.0
 40
1.0
 40
1.0
 40
2.0
 40
2.0
 40
2.0
 40
3.0
 40
3.0
 40
3.0
 40
4.0
 40
4.0
 40
4.0
 40
4.0
 10
67.79982365926533
 20
-87.87370603271907
 30
0.0
 10
67.664431406695
 20
-87.76174042944845
 30
0.0
 10
67.55866697529784
 20
-87.6981784177456
 30
0.0
 10
67.44015569060524
 20
-87.634788660817
 30
0.0
 10
67.44015569060524
 20
-87.634788660817
 30
0.0
 10
67.56693520446244
 20
-87.52265080277212
 30
0.0
 10
67.56693520446244
 20
-87.52265080277212
 30
0.0
 10
67.69819334245045
 20
-87.569159591823
 30
0.0
 10
67.80843639797845
 20
-87.62634817687814
 30
0.0
 10
67.9331488545445
 20
-87.72780623891875
 30
0.0
 10
67.9331488545445
 20
-87.72780623891875
 30
0.0
 10
67.79982365926533
 20
-87.87370603271907
 30
0.0
 10
67.79982365926533
 20
-87.87370603271907
 30
0.0
  0
HATCH
  5
C3
330
B8
100
AcDbEntity
  8
_U+30EC_U+30A4_U+30E4_U+30FC 1
 62
   179
420
  2234388
100
AcDbHatch
 10
0.0
 20
0.0
 30
0.0
210
0.0
220
0.0
230
1.0
  2
SOLID
 70
     1
 71
     0
 91
        7
 92
        1
 93
        1
 72
     4
 94
        3
 73
     0
 74
     1
 95
       17
 96
       13
 40
0.0
 40
0.0
 40
0.0
 40
0.0
 40
1.0
 40
1.0
 40
1.0
 40
2.0
 40
2.0
 40
2.0
 40
3.0
 40
3.0
 40
3.0
 40
4.0
 40
4.0
 40
4.0
 40
4.0
 10
66.30844182370068
 20
-87.3004421439735
 10
66.2026773923035
 20
-87.19467771257634
 10
66.12206215794865
 20
-87.15660940746433
 10
66.02904457984691
 20
-87.12491452900002
 10
66.02904457984691
 20
-87.12491452900002
 10
66.1392876353749
 20
-86.95989445525656
 10
66.1392876353749
 20
-86.95989445525656
 10
66.23643932805895
 20
-87.00226912972514
 10
66.3570176700427
 20
-87.0804727972403
 10
66.41007214051554
 20
-87.13542207023004
 10
66.41007214051554
 20
-87.13542207023004
 10
66.30844182370068
 20
-87.3004421439735
 10
66.30844182370068
 20
-87.3004421439735
 97
        0
 97
        0
 92
        1
 93
        1
 72
     4
 94
        3
 73
     0
 74
     1
 95
      182
 96
      178
 40
0.0
 40
0.0
 40
0.0
 40
0.0
 40
1.0
 40
1.0
 40
1.0
 40
2.0
 40
2.0
 40
2.0
 40
3.0
 40
3.0
 40
3.0
 40
4.0
 40
4.0
 40
4.0
 40
5.0
 40
5.0
 40
5.0
 40
6.0
 40
6.0
 40
6.0
 40
7.0
 40
7.0
 40
7.0
 40
8.0
 40
8.0
 40
8.0
 40
9.0
 40
9.0
 40
9.0
 40
10.0
 40
10.0
 40
10.0
 40
11.0
 40
11.0
 40
11.0
 40
12.0
 40
12.0
 40
12.0
 40
13.0
 40
13.0
 40
13.0
 40
14.0
 40
14.0
 40
14.0
 40
15.0
 40
15.0
 40
15.0
 40
16.0
 40
16.0
 40
16.0
 40
17.0
 40
17.0
 40
17.0
 40
18.0
 40
18.0
 40
18.0
 40
19.0
 40
19.0
 40
19.0
 40
20.0
 40
20.0
 40
20.0
 40
21.0
 40
21.0
 40
21.0
 40
22.0
 40
22.0
 40
22.0
 40
23.0
 40
23.0
 40
23.0
 40
24.0
 40
24.0
 40
24.0
 40
25.0
 40
25.0
 40
25.0
 40
26.0
 40
26.0
 40
26.0
 40
27.0
 40
27.0
 40
27.0
 40
28.0
 40
28.0
 40
28.0
 40
29.0
 40
29.0
 40
29.0
 40
30.0
 40
30.0
 40
30.0
 40
31.0
 40
31.0
 40
31.0
 40
32.0
 40
32.0
 40
32.0
 40
33.0
 40
33.0
 40
33.0
 40
34.0
 40
34.0
 40
34.0
 40
35.0
 40
35.0
 40
35.0
 40
36.0
 40
36.0
 40
36.0
 40
37.0
 40
37.0
 40
37.0
 40
38.0
 40
38.0
 40
38.0
 40
39.0
 40
39.0
 40
39.0
 40
40.0
 40
40.0
 40
40.0
 40
41.0
 40
41.0
 40
41.0
 40
42.0
 40
42.0
 40
42.0
 40
43.0
 40
43.0
 40
43.0
 40
44.0
 40
44.0
 40
44.0
 40
45.0
 40
45.0
 40
45.0
 40
46.0
 40
46.0
 40
46.0
 40
47.0
 40
47.0
 40
47.0
 40
48.0
 40
48.0
 40
48.0
 40
49.0
 40
49.0
 40
49.0
 40
50.0
 40
50.0
 40
50.0
 40
51.0
 40
51.0
 40
51.0
 40
52.0
 40
52.0
 40
52.0
 40
53.0
 40
53.0
 40
53.0
 40
54.0
 40
54.0
 40
54.0
 40
55.0
 40
55.0
 40
55.0
 40
56.0
 40
56.0
 40
56.0
 40
57.0
 40
57.0
 40
57.0
 40
58.0
 40
58.0
 40
58.0
 40
59.0
 40
59.0
 40
59.0
 40
59.0
 10
67.35333928437694
 20
-88.4788370547032
 10
67.35333928437694
 20
-88.4788370547032
 10
66.71668563870277
 20
-88.4788370547032
 10
66.71668563870277
 20
-88.4788370547032
 10
66.50308971861729
 20
-88.4788370547032
 10
66.28708223169212
 20
-88.48314342405978
 10
66.07348631160663
 20
-88.49571802258093
 10
66.07348631160663
 20
-88.49571802258093
 10
66.07348631160663
 20
-88.28849552914316
 10
66.07348631160663
 20
-88.28849552914316
 10
66.29569497040525
 20
-88.30107012766432
 10
66.61918943647021
 20
-88.30537649702089
 10
66.71668563870277
 20
-88.30537649702089
 10
66.71668563870277
 20
-88.30537649702089
 10
66.93682724021023
 20
-88.30537649702089
 10
66.93682724021023
 20
-88.30537649702089
 10
66.93682724021023
 20
-88.30537649702089
 10
66.93682724021023
 20
-88.16361081780285
 10
66.93682724021023
 20
-88.16361081780285
 10
66.93682724021023
 20
-88.16361081780285
 10
66.77594128104907
 20
-88.16361081780285
 10
66.77594128104907
 20
-88.16361081780285
 10
66.61092120730561
 20
-88.16361081780285
 10
66.44590113356215
 20
-88.16791718715942
 10
66.28088105981867
 20
-88.18273109774599
 10
66.28088105981867
 20
-88.18273109774599
 10
66.28088105981867
 20
-87.9732692922428
 10
66.28088105981867
 20
-87.9732692922428
 10
66.45210230543559
 20
-87.98808320282937
 10
66.69980467082505
 20
-87.99221731741167
 10
66.77594128104907
 20
-87.99221731741167
 10
66.77594128104907
 20
-87.99221731741167
 10
66.93682724021023
 20
-87.99221731741167
 10
66.93682724021023
 20
-87.99221731741167
 10
66.93234861607941
 20
-87.92038707654422
 10
66.93234861607941
 20
-87.9140136498965
 10
66.92614744420597
 20
-87.86113143419792
 10
66.92614744420597
 20
-87.86113143419792
 10
67.06567381135858
 20
-87.87594534478448
 10
67.06567381135858
 20
-87.87594534478448
 10
67.06567381135858
 20
-87.87594534478448
 10
66.96645506138339
 20
-87.70455184439331
 10
66.96645506138339
 20
-87.70455184439331
 10
67.01296385043426
 20
-87.71092527104102
 10
67.08703340336713
 20
-87.71936575497989
 10
67.10391437124485
 20
-87.71936575497989
 10
67.15455727487803
 20
-87.71936575497989
 10
67.17143824275576
 20
-87.6981784177456
 10
67.17143824275576
 20
-87.6411620874647
 10
67.17143824275576
 20
-87.6411620874647
 10
67.17143824275576
 20
-87.50353052282898
 10
67.17143824275576
 20
-87.50353052282898
 10
67.17143824275576
 20
-87.50353052282898
 10
67.06567381135858
 20
-87.50353052282898
 10
67.06567381135858
 20
-87.50353052282898
 10
66.93234861607941
 20
-87.50353052282898
 10
66.77594128104907
 20
-87.50353052282898
 10
66.65329588177418
 20
-87.5162773761244
 10
66.65329588177418
 20
-87.5162773761244
 10
66.65329588177418
 20
-87.32593585056435
 10
66.65329588177418
 20
-87.32593585056435
 10
66.82038301280879
 20
-87.34281681844207
 10
67.05085990077201
 20
-87.34488387573323
 10
67.06567381135858
 20
-87.34488387573323
 10
67.06567381135858
 20
-87.34488387573323
 10
67.17143824275576
 20
-87.34488387573323
 10
67.17143824275576
 20
-87.34488387573323
 10
67.17143824275576
 20
-87.34488387573323
 10
67.17143824275576
 20
-87.21379799251947
 10
67.17143824275576
 20
-87.21379799251947
 10
67.17143824275576
 20
-87.21379799251947
 10
67.133542192418
 20
-87.21379799251947
 10
67.133542192418
 20
-87.21379799251947
 10
67.08910046065829
 20
-87.21379799251947
 10
66.96404349454372
 20
-87.21793210710177
 10
66.87516003102427
 20
-87.22637259104063
 10
66.87516003102427
 20
-87.22637259104063
 10
66.87516003102427
 20
-87.14610186623432
 10
66.87516003102427
 20
-87.14610186623432
 10
66.82245007009995
 20
-87.18417017134632
 10
66.7969563635091
 20
-87.19898408193289
 10
66.75458168904052
 20
-87.22223847645833
 10
66.75458168904052
 20
-87.22223847645833
 10
66.56647947554589
 20
-87.09321965053573
 10
66.56647947554589
 20
-87.09321965053573
 10
66.64468314306106
 20
-87.05928546000601
 10
66.80143498763992
 20
-86.99589570307742
 10
66.95784232267026
 20
-86.85206296656824
 10
67.04018010476774
 20
-86.7736870442788
 10
67.11872828183144
 20
-86.68910995011592
 10
67.17143824275576
 20
-86.58765188807531
 10
67.17143824275576
 20
-86.58765188807531
 10
67.3829671055501
 20
-86.64897458771276
 10
67.3829671055501
 20
-86.64897458771276
 10
67.40191513071896
 20
-86.65517575958621
 10
67.41259492672324
 20
-86.66378849829934
 10
67.41259492672324
 20
-86.6763630968205
 10
67.41259492672324
 20
-86.69341631947249
 10
67.39984807342782
 20
-86.69961749134593
 10
67.3746988763855
 20
-86.71236434464136
 10
67.45496960119182
 20
-86.80968829209966
 10
67.61792261764414
 20
-86.90701223955797
 10
67.65168455339958
 20
-86.92596026472685
 10
67.80189071655647
 20
-87.01484372824629
 10
67.91626788666677
 20
-87.0424044921283
 10
67.99447155418194
 20
-87.06135251729717
 10
67.99447155418194
 20
-87.06135251729717
 10
67.87596026948934
 20
-87.2306789603972
 10
67.87596026948934
 20
-87.2306789603972
 10
67.7912109205522
 20
-87.20105113922405
 10
67.74056801691903
 20
-87.18210311405517
 10
67.62205673222644
 20
-87.11647404506117
 10
67.62205673222644
 20
-87.11647404506117
 10
67.62205673222644
 20
-87.22637259104063
 10
67.62205673222644
 20
-87.22637259104063
 10
67.53971895012896
 20
-87.21793210710177
 10
67.41259492672324
 20
-87.21379799251947
 10
67.35988496579893
 20
-87.21379799251947
 10
67.35988496579893
 20
-87.21379799251947
 10
67.35988496579893
 20
-87.34488387573323
 10
67.35988496579893
 20
-87.34488387573323
 10
67.35988496579893
 20
-87.34488387573323
 10
67.48046330778267
 20
-87.34488387573323
 10
67.48046330778267
 20
-87.34488387573323
 10
67.48253036507381
 20
-87.34488387573323
 10
67.71507431032818
 20
-87.34281681844207
 10
67.89284123736707
 20
-87.32593585056435
 10
67.89284123736707
 20
-87.32593585056435
 10
67.89284123736707
 20
-87.5162773761244
 10
67.89284123736707
 20
-87.5162773761244
 10
67.76399466621872
 20
-87.50353052282898
 10
67.60724282163986
 20
-87.50353052282898
 10
67.48046330778267
 20
-87.50353052282898
 10
67.48046330778267
 20
-87.50353052282898
 10
67.35988496579893
 20
-87.50353052282898
 10
67.35988496579893
 20
-87.50353052282898
 10
67.35988496579893
 20
-87.50353052282898
 10
67.35988496579893
 20
-87.7298732962099
 10
67.35988496579893
 20
-87.7298732962099
 10
67.35988496579893
 20
-87.84838458090249
 10
67.33439125920808
 20
-87.88438582872335
 10
67.1735053000469
 20
-87.89919973930992
 10
67.17798392417772
 20
-87.9181477644788
 10
67.17143824275576
 20
-87.92882756048307
 10
67.133542192418
 20
-87.95208195500851
 10
67.13113062557834
 20
-87.97102998017739
 10
67.13113062557834
 20
-87.9774034068251
 10
67.12906356828718
 20
-87.99221731741167
 10
67.12906356828718
 20
-87.99221731741167
 10
67.26686738769718
 20
-87.99221731741167
 10
67.26686738769718
 20
-87.99221731741167
 10
67.43154295189211
 20
-87.99221731741167
 10
67.59897459247526
 20
-87.98808320282937
 10
67.76606172350988
 20
-87.9732692922428
 10
67.76606172350988
 20
-87.9732692922428
 10
67.76606172350988
 20
-88.18049178568057
 10
67.76606172350988
 20
-88.18049178568057
 10
67.55005423658471
 20
-88.16361081780285
 10
67.28581541286604
 20
-88.16361081780285
 10
67.26686738769718
 20
-88.16361081780285
 10
67.26686738769718
 20
-88.16361081780285
 10
67.12699651099604
 20
-88.16361081780285
 10
67.12699651099604
 20
-88.16361081780285
 10
67.12699651099604
 20
-88.16361081780285
 10
67.12699651099604
 20
-88.30537649702089
 10
67.12699651099604
 20
-88.30537649702089
 10
67.12699651099604
 20
-88.30537649702089
 10
67.35333928437694
 20
-88.30537649702089
 10
67.35333928437694
 20
-88.30537649702089
 10
67.56934677130211
 20
-88.30537649702089
 10
67.7870768059699
 20
-88.30107012766432
 10
68.00273978334654
 20
-88.28849552914316
 10
68.00273978334654
 20
-88.28849552914316
 10
68.00273978334654
 20
-88.49571802258093
 10
68.00273978334654
 20
-88.49571802258093
 10
67.72161999175016
 20
-88.4788370547032
 10
67.37676593367665
 20
-88.4788370547032
 10
67.35333928437694
 20
-88.4788370547032
 97
        0
 97
        0
 92
        1
 93
        1
 72
     4
 94
        3
 73
     0
 74
     1
 95
       23
 96
       19
 40
0.0
 40
0.0
 40
0.0
 40
0.0
 40
1.0
 40
1.0
 40
1.0
 40
2.0
 40
2.0
 40
2.0
 40
3.0
 40
3.0
 40
3.0
 40
4.0
 40
4.0
 40
4.0
 40
5.0
 40
5.0
 40
5.0
 40
6.0
 40
6.0
 40
6.0
 40
6.0
 10
66.23437227076779
 20
-87.85045163819365
 10
66.23437227076779
 20
-87.87163897542793
 10
66.23643932805895
 20
-87.90970728053993
 10
66.2109456214681
 20
-87.90970728053993
 10
66.20061033501236
 20
-87.90970728053993
 10
66.19199759629923
 20
-87.90333385389222
 10
66.18131780029495
 20
-87.8864528860145
 10
66.18131780029495
 20
-87.8864528860145
 10
66.07762042618893
 20
-87.70455184439331
 10
66.07762042618893
 20
-87.70455184439331
 10
66.2936279131141
 20
-87.57553301847071
 10
66.49034286532186
 20
-87.29837508668236
 10
66.53685165437274
 20
-87.22637259104063
 10
66.53685165437274
 20
-87.22637259104063
 10
66.60885415001445
 20
-87.40620657537067
 10
66.60885415001445
 20
-87.40620657537067
 10
66.47552895473528
 20
-87.60292152757845
 10
66.29982908498755
 20
-87.78706188126505
 10
66.23437227076779
 20
-87.85045163819365
 97
        0
 97
        0
 92
        1
 93
        1
 72
     4
 94
        3
 73
     0
 74
     1
 95
       17
 96
       13
 40
0.0
 40
0.0
 40
0.0
 40
0.0
 40
1.0
 40
1.0
 40
1.0
 40
2.0
 40
2.0
 40
2.0
 40
3.0
 40
3.0
 40
3.0
 40
4.0
 40
4.0
 40
4.0
 40
4.0
 10
66.4882758080307
 20
-86.95558808589999
 10
66.42695310839326
 20
-86.87945147567598
 10
66.2977620276964
 20
-86.80331486545195
 10
66.19406465359037
 20
-86.7736870442788
 10
66.19406465359037
 20
-86.7736870442788
 10
66.2894937985318
 20
-86.60866697053534
 10
66.2894937985318
 20
-86.60866697053534
 10
66.39077960579814
 20
-86.6446682183562
 10
66.4965440371953
 20
-86.70185680341135
 10
66.58542750071476
 20
-86.78212752821767
 10
66.58542750071476
 20
-86.78212752821767
 10
66.4882758080307
 20
-86.95558808589999
 10
66.4882758080307
 20
-86.95558808589999
 97
        0
 97
        0
 92
        1
 93
        1
 72
     4
 94
        3
 73
     0
 74
     1
 95
       23
 96
       19
 40
0.0
 40
0.0
 40
0.0
 40
0.0
 40
1.0
 40
1.0
 40
1.0
 40
2.0
 40
2.0
 40
2.0
 40
3.0
 40
3.0
 40
3.0
 40
4.0
 40
4.0
 40
4.0
 40
5.0
 40
5.0
 40
5.0
 40
6.0
 40
6.0
 40
6.0
 40
6.0
 10
66.94096135479253
 20
-87.66011011263359
 10
66.919601762784
 20
-87.68336450715903
 10
66.82245007009995
 20
-87.7955023652039
 10
66.68292370294733
 20
-87.87594534478448
 10
66.68292370294733
 20
-87.87594534478448
 10
66.51583657191271
 20
-87.75536700280074
 10
66.51583657191271
 20
-87.75536700280074
 10
66.66604273506961
 20
-87.67923039257673
 10
66.7652614850448
 20
-87.58397350240956
 10
66.81383733138682
 20
-87.53109128671097
 10
66.81383733138682
 20
-87.53109128671097
 10
66.98747014384341
 20
-87.61360132358271
 10
66.98747014384341
 20
-87.61360132358271
 10
66.99608288255654
 20
-87.61773543816501
 10
67.00435111172114
 20
-87.62410886481273
 10
67.00435111172114
 20
-87.634788660817
 10
67.00435111172114
 20
-87.66011011263359
 10
66.96852211867454
 20
-87.66011011263359
 10
66.94096135479253
 20
-87.66011011263359
 97
        0
 97
        0
 92
        1
 93
        1
 72
     4
 94
        3
 73
     0
 74
     1
 95
       20
 96
       16
 40
0.0
 40
0.0
 40
0.0
 40
0.0
 40
1.0
 40
1.0
 40
1.0
 40
2.0
 40
2.0
 40
2.0
 40
3.0
 40
3.0
 40
3.0
 40
4.0
 40
4.0
 40
4.0
 40
5.0
 40
5.0
 40
5.0
 40
5.0
 10
67.23930662381518
 20
-86.81812877603852
 10
67.2010660639289
 20
-86.86687687715481
 10
67.13974336429146
 20
-86.94508054466998
 10
67.00021699713884
 20
-87.05515134542371
 10
67.08048772194516
 20
-87.05928546000601
 10
67.11011554311831
 20
-87.05928546000601
 10
67.133542192418
 20
-87.05928546000601
 10
67.133542192418
 20
-87.05928546000601
 10
67.36195202309007
 20
-87.05928546000601
 10
67.36195202309007
 20
-87.05928546000601
 10
67.39364690155436
 20
-87.05928546000601
 10
67.4422227478964
 20
-87.05721840271487
 10
67.51629230082926
 20
-87.05515134542371
 10
67.40432669755864
 20
-86.98108179249084
 10
67.3554063416681
 20
-86.93457300343997
 10
67.23930662381518
 20
-86.81812877603852
 97
        0
 97
        0
 92
        1
 93
        1
 72
     4
 94
        3
 73
     0
 74
     1
 95
       17
 96
       13
 40
0.0
 40
0.0
 40
0.0
 40
0.0
 40
1.0
 40
1.0
 40
1.0
 40
2.0
 40
2.0
 40
2.0
 40
3.0
 40
3.0
 40
3.0
 40
4.0
 40
4.0
 40
4.0
 40
4.0
 10
67.79982365926533
 20
-87.87370603271907
 10
67.664431406695
 20
-87.76174042944845
 10
67.55866697529784
 20
-87.6981784177456
 10
67.44015569060524
 20
-87.634788660817
 10
67.44015569060524
 20
-87.634788660817
 10
67.56693520446244
 20
-87.52265080277212
 10
67.56693520446244
 20
-87.52265080277212
 10
67.69819334245045
 20
-87.569159591823
 10
67.80843639797845
 20
-87.62634817687814
 10
67.9331488545445
 20
-87.72780623891875
 10
67.9331488545445
 20
-87.72780623891875
 10
67.79982365926533
 20
-87.87370603271907
 10
67.79982365926533
 20
-87.87370603271907
 97
        0
 97
        0
 75
     2
 76
     1
 98
        0
  0
SPLINE
  5
C4
330
B8
100
AcDbEntity
  8
_U+30EC_U+30A4_U+30E4_U+30FC 1
370
     0
100
AcDbSpline
210
0.0
220
0.0
230
1.0
 70
    11
 71
     3
 72
   113
 73
   109
 74
     0
 42
0.0000000001
 43
0.0000000001
 12
1.0
 22
0.0
 32
0.0
 13
1.0
 23
0.0
 33
0.0
 40
0.0
 40
0.0
 40
0.0
 40
0.0
 40
1.0
 40
1.0
 40
1.0
 40
2.0
 40
2.0
 40
2.0
 40
3.0
 40
3.0
 40
3.0
 40
4.0
 40
4.0
 40
4.0
 40
5.0
 40
5.0
 40
5.0
 40
6.0
 40
6.0
 40
6.0
 40
7.0
 40
7.0
 40
7.0
 40
8.0
 40
8.0
 40
8.0
 40
9.0
 40
9.0
 40
9.0
 40
10.0
 40
10.0
 40
10.0
 40
11.0
 40
11.0
 40
11.0
 40
12.0
 40
12.0
 40
12.0
 40
13.0
 40
13.0
 40
13.0
 40
14.0
 40
14.0
 40
14.0
 40
15.0
 40
15.0
 40
15.0
 40
16.0
 40
16.0
 40
16.0
 40
17.0
 40
17.0
 40
17.0
 40
18.0
 40
18.0
 40
18.0
 40
19.0
 40
19.0
 40
19.0
 40
20.0
 40
20.0
 40
20.0
 40
21.0
 40
21.0
 40
21.0
 40
22.0
 40
22.0
 40
22.0
 40
23.0
 40
23.0
 40
23.0
 40
24.0
 40
24.0
 40
24.0
 40
25.0
 40
25.0
 40
25.0
 40
26.0
 40
26.0
 40
26.0
 40
27.0
 40
27.0
 40
27.0
 40
28.0
 40
28.0
 40
28.0
 40
29.0
 40
29.0
 40
29.0
 40
30.0
 40
30.0
 40
30.0
 40
31.0
 40
31.0
 40
31.0
 40
32.0
 40
32.0
 40
32.0
 40
33.0
 40
33.0
 40
33.0
 40
34.0
 40
34.0
 40
34.0
 40
35.0
 40
35.0
 40
35.0
 40
36.0
 40
36.0
 40
36.0
 40
36.0
 10
69.67946775601763
 20
-87.85045163819365
 30
0.0
 10
69.67946775601763
 20
-87.85045163819365
 30
0.0
 10
69.77903101554136
 20
-87.95001489771737
 30
0.0
 10
69.77903101554136
 20
-87.95001489771737
 30
0.0
 10
69.7893663019971
 20
-87.96052243894738
 30
0.0
 10
69.80004609800137
 20
-87.9732692922428
 30
0.0
 10
69.80004609800137
 20
-87.98808320282937
 30
0.0
 10
69.80004609800137
 20
-87.99015026012052
 30
0.0
 10
69.80004609800137
 20
-88.01977808129367
 30
0.0
 10
69.76215004766364
 20
-88.01977808129367
 30
0.0
 10
69.75353730895051
 20
-88.01977808129367
 30
0.0
 10
69.71322969177308
 20
-88.01547171193711
 30
0.0
 10
69.70702851989964
 20
-88.01547171193711
 30
0.0
 10
69.66672090272222
 20
-88.04733884517567
 30
0.0
 10
69.62021211367134
 20
-88.08110078093112
 30
0.0
 10
69.52099336369615
 20
-88.13828936598627
 30
0.0
 10
69.66672090272222
 20
-88.24612085467459
 30
0.0
 10
69.82553980459222
 20
-88.30330943972973
 30
0.0
 10
70.09839136702402
 20
-88.34137774484174
 30
0.0
 10
70.09839136702402
 20
-88.34137774484174
 30
0.0
 10
69.94818520386713
 20
-88.51690535981523
 30
0.0
 10
69.94818520386713
 20
-88.51690535981523
 30
0.0
 10
69.68601343743961
 20
-88.4449028641735
 30
0.0
 10
69.52926159286075
 20
-88.35619165542832
 30
0.0
 10
69.45312498263672
 20
-88.30330943972973
 30
0.0
 10
69.30291881947983
 20
-88.20167912291487
 30
0.0
 10
69.15925833774492
 20
-88.03872610646255
 30
0.0
 10
69.08312172752089
 20
-87.87370603271907
 30
0.0
 10
69.01525334646146
 20
-87.93933510171308
 30
0.0
 10
68.9411837935286
 20
-87.99221731741167
 30
0.0
 10
68.86298012601343
 20
-88.04096541852796
 30
0.0
 10
68.86298012601343
 20
-88.04096541852796
 30
0.0
 10
68.86298012601343
 20
-88.29262964372546
 30
0.0
 10
68.86298012601343
 20
-88.29262964372546
 30
0.0
 10
69.02593314246575
 20
-88.26730819190887
 30
0.0
 10
69.21196829866923
 20
-88.22286646014915
 30
0.0
 10
69.27535805559783
 20
-88.20805254956258
 30
0.0
 10
69.27535805559783
 20
-88.20805254956258
 30
0.0
 10
69.24573023442468
 20
-88.37720673788834
 30
0.0
 10
69.24573023442468
 20
-88.37720673788834
 30
0.0
 10
69.24366317713353
 20
-88.37720673788834
 30
0.0
 10
69.22471515196466
 20
-88.38358016453606
 30
0.0
 10
69.2226480946735
 20
-88.38358016453606
 30
0.0
 10
69.02386608517459
 20
-88.42164846964806
 30
0.0
 10
68.70622828143456
 20
-88.48727753864208
 30
0.0
 10
68.50951332922679
 20
-88.52327878646294
 30
0.0
 10
68.49917804277104
 20
-88.54015975434066
 30
0.0
 10
68.47575139347134
 20
-88.57185463280496
 30
0.0
 10
68.45266925372017
 20
-88.57185463280496
 30
0.0
 10
68.42510848983817
 20
-88.57185463280496
 30
0.0
 10
68.42097437525587
 20
-88.55290660763609
 30
0.0
 10
68.4185628084162
 20
-88.53378632769295
 30
0.0
 10
68.4185628084162
 20
-88.53378632769295
 30
0.0
 10
68.39341361137387
 20
-88.36032577001062
 30
0.0
 10
68.39341361137387
 20
-88.36032577001062
 30
0.0
 10
68.46748316430674
 20
-88.35188528607175
 30
0.0
 10
68.57531465299506
 20
-88.33913843277634
 30
0.0
 10
68.68314614168338
 20
-88.31812335031631
 30
0.0
 10
68.68314614168338
 20
-88.31812335031631
 30
0.0
 10
68.68314614168338
 20
-88.14035642327741
 30
0.0
 10
68.68314614168338
 20
-88.14035642327741
 30
0.0
 10
68.53914115039994
 20
-88.21235891891914
 30
0.0
 10
68.44405651500705
 20
-88.24181448531802
 30
0.0
 10
68.27903644126357
 20
-88.27144230649117
 30
0.0
 10
68.27903644126357
 20
-88.27144230649117
 30
0.0
 10
68.15845809927983
 20
-88.1022881181654
 30
0.0
 10
68.15845809927983
 20
-88.1022881181654
 30
0.0
 10
68.47575139347134
 20
-88.07472735428341
 30
0.0
 10
68.66833223109681
 20
-87.98170977618166
 30
0.0
 10
68.8460991581357
 20
-87.84838458090249
 30
0.0
 10
68.7000271095611
 20
-87.84838458090249
 30
0.0
 10
68.39961478324732
 20
-87.85269095025906
 30
0.0
 10
68.20289983103956
 20
-87.85906437690677
 30
0.0
 10
68.20289983103956
 20
-87.85906437690677
 30
0.0
 10
68.20289983103956
 20
-87.68129744986787
 30
0.0
 10
68.20289983103956
 20
-87.68129744986787
 30
0.0
 10
68.35724010877875
 20
-87.68767087651558
 30
0.0
 10
68.65351832051023
 20
-87.6940443031633
 30
0.0
 10
68.83748641942258
 20
-87.6940443031633
 30
0.0
 10
68.83748641942258
 20
-87.6940443031633
 30
0.0
 10
69.04901528221691
 20
-87.6940443031633
 30
0.0
 10
69.04901528221691
 20
-87.6940443031633
 30
0.0
 10
69.04901528221691
 20
-87.59878741299615
 30
0.0
 10
69.04694822492577
 20
-87.5479722545887
 30
0.0
 10
69.04074705305231
 20
-87.50146346553784
 30
0.0
 10
69.04074705305231
 20
-87.50146346553784
 30
0.0
 10
69.25641003042895
 20
-87.51834443341556
 30
0.0
 10
69.25641003042895
 20
-87.51834443341556
 30
0.0
 10
69.30498587677098
 20
-87.52265080277212
 30
0.0
 10
69.31359861548411
 20
-87.53746471335869
 30
0.0
 10
69.31359861548411
 20
-87.55227862394527
 30
0.0
 10
69.31359861548411
 20
-87.57760007576185
 30
0.0
 10
69.29671764760639
 20
-87.58604055970072
 30
0.0
 10
69.24573023442468
 20
-87.61153426629157
 30
0.0
 10
69.24366317713353
 20
-87.63685571810815
 30
0.0
 10
69.24366317713353
 20
-87.64322914475586
 30
0.0
 10
69.24159611984238
 20
-87.6940443031633
 30
0.0
 10
69.24159611984238
 20
-87.6940443031633
 30
0.0
 10
69.47207300780559
 20
-87.6940443031633
 30
0.0
 10
69.47207300780559
 20
-87.6940443031633
 30
0.0
 10
69.63709308154907
 20
-87.6940443031633
 30
0.0
 10
69.92923717869824
 20
-87.68767087651558
 30
0.0
 10
70.10907116302829
 20
-87.68129744986787
 30
0.0
 10
70.10907116302829
 20
-87.68129744986787
 30
0.0
 10
70.10907116302829
 20
-87.85906437690677
 30
0.0
 10
70.10907116302829
 20
-87.85906437690677
 30
0.0
 10
69.97988008233142
 20
-87.8547580075502
 30
0.0
 10
69.95679794258025
 20
-87.8547580075502
 30
0.0
 10
69.67946775601763
 20
-87.85045163819365
 30
0.0
  0
SPLINE
  5
C5
330
B8
100
AcDbEntity
  8
_U+30EC_U+30A4_U+30E4_U+30FC 1
370
     0
100
AcDbSpline
210
0.0
220
0.0
230
1.0
 70
    11
 71
     3
 72
    23
 73
    19
 74
     0
 42
0.0000000001
 43
0.0000000001
 12
1.0
 22
0.0
 32
0.0
 13
1.0
 23
0.0
 33
0.0
 40
0.0
 40
0.0
 40
0.0
 40
0.0
 40
1.0
 40
1.0
 40
1.0
 40
2.0
 40
2.0
 40
2.0
 40
3.0
 40
3.0
 40
3.0
 40
4.0
 40
4.0
 40
4.0
 40
5.0
 40
5.0
 40
5.0
 40
6.0
 40
6.0
 40
6.0
 40
6.0
 10
68.39548066866502
 20
-87.49939640824668
 30
0.0
 10
68.37859970078729
 20
-87.53953177064984
 30
0.0
 10
68.37205401936532
 20
-87.55641273852757
 30
0.0
 10
68.3510389369053
 20
-87.55641273852757
 30
0.0
 10
68.33622502631873
 20
-87.55641273852757
 30
0.0
 10
68.32554523031445
 20
-87.53953177064984
 30
0.0
 10
68.319344058441
 20
-87.52678491735442
 30
0.0
 10
68.319344058441
 20
-87.52678491735442
 30
0.0
 10
68.21978079891728
 20
-87.36176484361096
 30
0.0
 10
68.21978079891728
 20
-87.36176484361096
 30
0.0
 10
68.32141111573215
 20
-87.33006996514665
 30
0.0
 10
68.47161727888904
 20
-87.27512069215692
 30
0.0
 10
68.67039928838796
 20
-87.1121676757046
 30
0.0
 10
68.67039928838796
 20
-87.1121676757046
 30
0.0
 10
68.72758787344311
 20
-87.28562823338693
 30
0.0
 10
68.72758787344311
 20
-87.28562823338693
 30
0.0
 10
68.63457029534136
 20
-87.36813827025867
 30
0.0
 10
68.54568683182191
 20
-87.42532685531381
 30
0.0
 10
68.39548066866502
 20
-87.49939640824668
 30
0.0
  0
SPLINE
  5
C6
330
B8
100
AcDbEntity
  8
_U+30EC_U+30A4_U+30E4_U+30FC 1
370
     0
100
AcDbSpline
210
0.0
220
0.0
230
1.0
 70
    11
 71
     3
 72
    17
 73
    13
 74
     0
 42
0.0000000001
 43
0.0000000001
 12
1.0
 22
0.0
 32
0.0
 13
1.0
 23
0.0
 33
0.0
 40
0.0
 40
0.0
 40
0.0
 40
0.0
 40
1.0
 40
1.0
 40
1.0
 40
2.0
 40
2.0
 40
2.0
 40
3.0
 40
3.0
 40
3.0
 40
4.0
 40
4.0
 40
4.0
 40
4.0
 10
68.54775388911307
 20
-87.03396400818943
 30
0.0
 10
68.51812606793992
 20
-86.99382864578627
 30
0.0
 10
68.45025768688049
 20
-86.89650469832796
 30
0.0
 10
68.2683566452593
 20
-86.78643389757423
 30
0.0
 10
68.2683566452593
 20
-86.78643389757423
 30
0.0
 10
68.39548066866502
 20
-86.65310870229506
 30
0.0
 10
68.39548066866502
 20
-86.65310870229506
 30
0.0
 10
68.58151582486852
 20
-86.75473901910993
 30
0.0
 10
68.63870440992366
 20
-86.84362248262937
 30
0.0
 10
68.66626517380566
 20
-86.88582490232369
 30
0.0
 10
68.66626517380566
 20
-86.88582490232369
 30
0.0
 10
68.54775388911307
 20
-87.03396400818943
 30
0.0
 10
68.54775388911307
 20
-87.03396400818943
 30
0.0
  0
SPLINE
  5
C7
330
B8
100
AcDbEntity
  8
_U+30EC_U+30A4_U+30E4_U+30FC 1
370
     0
100
AcDbSpline
210
0.0
220
0.0
230
1.0
 70
    11
 71
     3
 72
    38
 73
    34
 74
     0
 42
0.0000000001
 43
0.0000000001
 12
1.0
 22
0.0
 32
0.0
 13
1.0
 23
0.0
 33
0.0
 40
0.0
 40
0.0
 40
0.0
 40
0.0
 40
1.0
 40
1.0
 40
1.0
 40
2.0
 40
2.0
 40
2.0
 40
3.0
 40
3.0
 40
3.0
 40
4.0
 40
4.0
 40
4.0
 40
5.0
 40
5.0
 40
5.0
 40
6.0
 40
6.0
 40
6.0
 40
7.0
 40
7.0
 40
7.0
 40
8.0
 40
8.0
 40
8.0
 40
9.0
 40
9.0
 40
9.0
 40
10.0
 40
10.0
 40
10.0
 40
11.0
 40
11.0
 40
11.0
 40
11.0
 10
68.91569008693774
 20
-86.72924531251908
 30
0.0
 10
68.9136230296466
 20
-86.77592635634421
 30
0.0
 10
68.91155597235544
 20
-86.8921983289714
 30
0.0
 10
68.91155597235544
 20
-86.93664006073112
 30
0.0
 10
68.91155597235544
 20
-86.93664006073112
 30
0.0
 10
68.91155597235544
 20
-87.28356117609579
 30
0.0
 10
68.91155597235544
 20
-87.28356117609579
 30
0.0
 10
68.91155597235544
 20
-87.37037758232408
 30
0.0
 10
68.9136230296466
 20
-87.51197100676785
 30
0.0
 10
68.92430282565087
 20
-87.6325493487516
 30
0.0
 10
68.92430282565087
 20
-87.6325493487516
 30
0.0
 10
68.73378904531656
 20
-87.6325493487516
 30
0.0
 10
68.73378904531656
 20
-87.6325493487516
 30
0.0
 10
68.73826766944738
 20
-87.569159591823
 30
0.0
 10
68.74240178402968
 20
-87.5162773761244
 30
0.0
 10
68.74446884132082
 20
-87.46132810313468
 30
0.0
 10
68.74653589861198
 20
-87.33851044908552
 30
0.0
 10
68.74860295590312
 20
-87.32369653849894
 30
0.0
 10
68.74860295590312
 20
-87.27925480673922
 30
0.0
 10
68.74860295590312
 20
-87.27925480673922
 30
0.0
 10
68.74860295590312
 20
-86.9578273979654
 30
0.0
 10
68.74860295590312
 20
-86.9578273979654
 30
0.0
 10
68.74860295590312
 20
-86.90270587020142
 30
0.0
 10
68.73585610260771
 20
-86.66378849829934
 30
0.0
 10
68.73378904531656
 20
-86.6129733398919
 30
0.0
 10
68.73378904531656
 20
-86.6129733398919
 30
0.0
 10
68.93498262165515
 20
-86.6405341037739
 30
0.0
 10
68.93498262165515
 20
-86.6405341037739
 30
0.0
 10
68.95599770411518
 20
-86.64260116106504
 30
0.0
 10
68.98769258257947
 20
-86.64673527564734
 30
0.0
 10
68.98769258257947
 20
-86.6722289822382
 30
0.0
 10
68.98769258257947
 20
-86.69961749134593
 30
0.0
 10
68.9370496789463
 20
-86.72080482858021
 30
0.0
 10
68.91569008693774
 20
-86.72924531251908
 30
0.0
  0
SPLINE
  5
C8
330
B8
100
AcDbEntity
  8
_U+30EC_U+30A4_U+30E4_U+30FC 1
370
     0
100
AcDbSpline
210
0.0
220
0.0
230
1.0
 70
    11
 71
     3
 72
    83
 73
    79
 74
     0
 42
0.0000000001
 43
0.0000000001
 12
1.0
 22
0.0
 32
0.0
 13
1.0
 23
0.0
 33
0.0
 40
0.0
 40
0.0
 40
0.0
 40
0.0
 40
1.0
 40
1.0
 40
1.0
 40
2.0
 40
2.0
 40
2.0
 40
3.0
 40
3.0
 40
3.0
 40
4.0
 40
4.0
 40
4.0
 40
5.0
 40
5.0
 40
5.0
 40
6.0
 40
6.0
 40
6.0
 40
7.0
 40
7.0
 40
7.0
 40
8.0
 40
8.0
 40
8.0
 40
9.0
 40
9.0
 40
9.0
 40
10.0
 40
10.0
 40
10.0
 40
11.0
 40
11.0
 40
11.0
 40
12.0
 40
12.0
 40
12.0
 40
13.0
 40
13.0
 40
13.0
 40
14.0
 40
14.0
 40
14.0
 40
15.0
 40
15.0
 40
15.0
 40
16.0
 40
16.0
 40
16.0
 40
17.0
 40
17.0
 40
17.0
 40
18.0
 40
18.0
 40
18.0
 40
19.0
 40
19.0
 40
19.0
 40
20.0
 40
20.0
 40
20.0
 40
21.0
 40
21.0
 40
21.0
 40
22.0
 40
22.0
 40
22.0
 40
23.0
 40
23.0
 40
23.0
 40
24.0
 40
24.0
 40
24.0
 40
25.0
 40
25.0
 40
25.0
 40
26.0
 40
26.0
 40
26.0
 40
26.0
 10
69.7177083159039
 20
-87.05084497606715
 30
0.0
 10
69.7177083159039
 20
-87.05084497606715
 30
0.0
 10
69.62021211367134
 20
-87.05084497606715
 30
0.0
 10
69.62021211367134
 20
-87.05084497606715
 30
0.0
 10
69.62021211367134
 20
-87.05084497606715
 30
0.0
 10
69.62021211367134
 20
-87.29837508668236
 30
0.0
 10
69.62021211367134
 20
-87.29837508668236
 30
0.0
 10
69.62021211367134
 20
-87.29837508668236
 30
0.0
 10
69.70289440531734
 20
-87.29837508668236
 30
0.0
 10
69.70289440531734
 20
-87.29837508668236
 30
0.0
 10
69.76835121953708
 20
-87.29837508668236
 30
0.0
 10
69.90787758668971
 20
-87.29406871732579
 30
0.0
 10
70.00744084621343
 20
-87.28562823338693
 30
0.0
 10
70.00744084621343
 20
-87.28562823338693
 30
0.0
 10
70.00744084621343
 20
-87.46546221771698
 30
0.0
 10
70.00744084621343
 20
-87.46546221771698
 30
0.0
 10
69.91442326811168
 20
-87.4570217337781
 30
0.0
 10
69.76421710495478
 20
-87.4528876191958
 30
0.0
 10
69.70289440531734
 20
-87.4528876191958
 30
0.0
 10
69.70289440531734
 20
-87.4528876191958
 30
0.0
 10
69.39800345487272
 20
-87.4528876191958
 30
0.0
 10
69.39800345487272
 20
-87.4528876191958
 30
0.0
 10
69.3452934939484
 20
-87.4528876191958
 30
0.0
 10
69.19922144537381
 20
-87.4570217337781
 30
0.0
 10
69.09345701397663
 20
-87.46546221771698
 30
0.0
 10
69.09345701397663
 20
-87.46546221771698
 30
0.0
 10
69.09345701397663
 20
-87.28562823338693
 30
0.0
 10
69.09345701397663
 20
-87.28562823338693
 30
0.0
 10
69.19302027350037
 20
-87.29406871732579
 30
0.0
 10
69.33254664065298
 20
-87.29837508668236
 30
0.0
 10
69.39800345487272
 20
-87.29837508668236
 30
0.0
 10
69.39800345487272
 20
-87.29837508668236
 30
0.0
 10
69.44244518663244
 20
-87.29837508668236
 30
0.0
 10
69.44244518663244
 20
-87.29837508668236
 30
0.0
 10
69.44244518663244
 20
-87.29837508668236
 30
0.0
 10
69.44244518663244
 20
-87.05084497606715
 30
0.0
 10
69.44244518663244
 20
-87.05084497606715
 30
0.0
 10
69.44244518663244
 20
-87.05084497606715
 30
0.0
 10
69.3687201432481
 20
-87.05084497606715
 30
0.0
 10
69.3687201432481
 20
-87.05084497606715
 30
0.0
 10
69.30705293406213
 20
-87.05084497606715
 30
0.0
 10
69.13996580302751
 20
-87.05515134542371
 30
0.0
 10
69.01938746104376
 20
-87.06359182936258
 30
0.0
 10
69.01938746104376
 20
-87.06359182936258
 30
0.0
 10
69.01938746104376
 20
-86.88582490232369
 30
0.0
 10
69.01938746104376
 20
-86.88582490232369
 30
0.0
 10
69.13376463115407
 20
-86.8921983289714
 30
0.0
 10
69.29223902347556
 20
-86.89650469832796
 30
0.0
 10
69.3687201432481
 20
-86.89650469832796
 30
0.0
 10
69.3687201432481
 20
-86.89650469832796
 30
0.0
 10
69.4403781293413
 20
-86.89650469832796
 30
0.0
 10
69.4403781293413
 20
-86.89650469832796
 30
0.0
 10
69.436244014759
 20
-86.74405922310565
 30
0.0
 10
69.43417695746784
 20
-86.7102972873502
 30
0.0
 10
69.42763127604587
 20
-86.6171074544742
 30
0.0
 10
69.42763127604587
 20
-86.6171074544742
 30
0.0
 10
69.63950464838874
 20
-86.6405341037739
 30
0.0
 10
69.63950464838874
 20
-86.6405341037739
 30
0.0
 10
69.66465384543106
 20
-86.64260116106504
 30
0.0
 10
69.68808049473076
 20
-86.64673527564734
 30
0.0
 10
69.68808049473076
 20
-86.66998967017278
 30
0.0
 10
69.68808049473076
 20
-86.70185680341135
 30
0.0
 10
69.64363876297104
 20
-86.71873777128907
 30
0.0
 10
69.62021211367134
 20
-86.72717825522793
 30
0.0
 10
69.62021211367134
 20
-86.72717825522793
 30
0.0
 10
69.62021211367134
 20
-86.89650469832796
 30
0.0
 10
69.62021211367134
 20
-86.89650469832796
 30
0.0
 10
69.62021211367134
 20
-86.89650469832796
 30
0.0
 10
69.7177083159039
 20
-86.89650469832796
 30
0.0
 10
69.7177083159039
 20
-86.89650469832796
 30
0.0
 10
69.79384492612793
 20
-86.89650469832796
 30
0.0
 10
69.95231931844943
 20
-86.8921983289714
 30
0.0
 10
70.06876354585087
 20
-86.88582490232369
 30
0.0
 10
70.06876354585087
 20
-86.88582490232369
 30
0.0
 10
70.06876354585087
 20
-87.06359182936258
 30
0.0
 10
70.06876354585087
 20
-87.06359182936258
 30
0.0
 10
69.96093205716255
 20
-87.05721840271487
 30
0.0
 10
69.78729924470596
 20
-87.05084497606715
 30
0.0
 10
69.7177083159039
 20
-87.05084497606715
 30
0.0
  0
SPLINE
  5
C9
330
B8
100
AcDbEntity
  8
_U+30EC_U+30A4_U+30E4_U+30FC 1
370
     0
100
AcDbSpline
210
0.0
220
0.0
230
1.0
 70
    11
 71
     3
 72
    17
 73
    13
 74
     0
 42
0.0000000001
 43
0.0000000001
 12
1.0
 22
0.0
 32
0.0
 13
1.0
 23
0.0
 33
0.0
 40
0.0
 40
0.0
 40
0.0
 40
0.0
 40
1.0
 40
1.0
 40
1.0
 40
2.0
 40
2.0
 40
2.0
 40
3.0
 40
3.0
 40
3.0
 40
4.0
 40
4.0
 40
4.0
 40
4.0
 10
69.47207300780559
 20
-87.84838458090249
 30
0.0
 10
69.47207300780559
 20
-87.84838458090249
 30
0.0
 10
69.26915688372438
 20
-87.84838458090249
 30
0.0
 10
69.26915688372438
 20
-87.84838458090249
 30
0.0
 10
69.29671764760639
 20
-87.90764022324879
 30
0.0
 10
69.35149466582185
 20
-87.97964271889052
 30
0.0
 10
69.37905542970385
 20
-88.0090982852894
 30
0.0
 10
69.40661619358585
 20
-87.99445662947709
 30
0.0
 10
69.52099336369615
 20
-87.93089461777423
 30
0.0
 10
69.61194388450674
 20
-87.84838458090249
 30
0.0
 10
69.61194388450674
 20
-87.84838458090249
 30
0.0
 10
69.47207300780559
 20
-87.84838458090249
 30
0.0
 10
69.47207300780559
 20
-87.84838458090249
 30
0.0
  0
HATCH
  5
CA
330
B8
100
AcDbEntity
  8
_U+30EC_U+30A4_U+30E4_U+30FC 1
 62
   179
420
  2234388
100
AcDbHatch
 10
0.0
 20
0.0
 30
0.0
210
0.0
220
0.0
230
1.0
  2
SOLID
 70
     1
 71
     0
 91
        6
 92
        1
 93
        1
 72
     4
 94
        3
 73
     0
 74
     1
 95
      113
 96
      109
 40
0.0
 40
0.0
 40
0.0
 40
0.0
 40
1.0
 40
1.0
 40
1.0
 40
2.0
 40
2.0
 40
2.0
 40
3.0
 40
3.0
 40
3.0
 40
4.0
 40
4.0
 40
4.0
 40
5.0
 40
5.0
 40
5.0
 40
6.0
 40
6.0
 40
6.0
 40
7.0
 40
7.0
 40
7.0
 40
8.0
 40
8.0
 40
8.0
 40
9.0
 40
9.0
 40
9.0
 40
10.0
 40
10.0
 40
10.0
 40
11.0
 40
11.0
 40
11.0
 40
12.0
 40
12.0
 40
12.0
 40
13.0
 40
13.0
 40
13.0
 40
14.0
 40
14.0
 40
14.0
 40
15.0
 40
15.0
 40
15.0
 40
16.0
 40
16.0
 40
16.0
 40
17.0
 40
17.0
 40
17.0
 40
18.0
 40
18.0
 40
18.0
 40
19.0
 40
19.0
 40
19.0
 40
20.0
 40
20.0
 40
20.0
 40
21.0
 40
21.0
 40
21.0
 40
22.0
 40
22.0
 40
22.0
 40
23.0
 40
23.0
 40
23.0
 40
24.0
 40
24.0
 40
24.0
 40
25.0
 40
25.0
 40
25.0
 40
26.0
 40
26.0
 40
26.0
 40
27.0
 40
27.0
 40
27.0
 40
28.0
 40
28.0
 40
28.0
 40
29.0
 40
29.0
 40
29.0
 40
30.0
 40
30.0
 40
30.0
 40
31.0
 40
31.0
 40
31.0
 40
32.0
 40
32.0
 40
32.0
 40
33.0
 40
33.0
 40
33.0
 40
34.0
 40
34.0
 40
34.0
 40
35.0
 40
35.0
 40
35.0
 40
36.0
 40
36.0
 40
36.0
 40
36.0
 10
69.67946775601763
 20
-87.85045163819365
 10
69.67946775601763
 20
-87.85045163819365
 10
69.77903101554136
 20
-87.95001489771737
 10
69.77903101554136
 20
-87.95001489771737
 10
69.7893663019971
 20
-87.96052243894738
 10
69.80004609800137
 20
-87.9732692922428
 10
69.80004609800137
 20
-87.98808320282937
 10
69.80004609800137
 20
-87.99015026012052
 10
69.80004609800137
 20
-88.01977808129367
 10
69.76215004766364
 20
-88.01977808129367
 10
69.75353730895051
 20
-88.01977808129367
 10
69.71322969177308
 20
-88.01547171193711
 10
69.70702851989964
 20
-88.01547171193711
 10
69.66672090272222
 20
-88.04733884517567
 10
69.62021211367134
 20
-88.08110078093112
 10
69.52099336369615
 20
-88.13828936598627
 10
69.66672090272222
 20
-88.24612085467459
 10
69.82553980459222
 20
-88.30330943972973
 10
70.09839136702402
 20
-88.34137774484174
 10
70.09839136702402
 20
-88.34137774484174
 10
69.94818520386713
 20
-88.51690535981523
 10
69.94818520386713
 20
-88.51690535981523
 10
69.68601343743961
 20
-88.4449028641735
 10
69.52926159286075
 20
-88.35619165542832
 10
69.45312498263672
 20
-88.30330943972973
 10
69.30291881947983
 20
-88.20167912291487
 10
69.15925833774492
 20
-88.03872610646255
 10
69.08312172752089
 20
-87.87370603271907
 10
69.01525334646146
 20
-87.93933510171308
 10
68.9411837935286
 20
-87.99221731741167
 10
68.86298012601343
 20
-88.04096541852796
 10
68.86298012601343
 20
-88.04096541852796
 10
68.86298012601343
 20
-88.29262964372546
 10
68.86298012601343
 20
-88.29262964372546
 10
69.02593314246575
 20
-88.26730819190887
 10
69.21196829866923
 20
-88.22286646014915
 10
69.27535805559783
 20
-88.20805254956258
 10
69.27535805559783
 20
-88.20805254956258
 10
69.24573023442468
 20
-88.37720673788834
 10
69.24573023442468
 20
-88.37720673788834
 10
69.24366317713353
 20
-88.37720673788834
 10
69.22471515196466
 20
-88.38358016453606
 10
69.2226480946735
 20
-88.38358016453606
 10
69.02386608517459
 20
-88.42164846964806
 10
68.70622828143456
 20
-88.48727753864208
 10
68.50951332922679
 20
-88.52327878646294
 10
68.49917804277104
 20
-88.54015975434066
 10
68.47575139347134
 20
-88.57185463280496
 10
68.45266925372017
 20
-88.57185463280496
 10
68.42510848983817
 20
-88.57185463280496
 10
68.42097437525587
 20
-88.55290660763609
 10
68.4185628084162
 20
-88.53378632769295
 10
68.4185628084162
 20
-88.53378632769295
 10
68.39341361137387
 20
-88.36032577001062
 10
68.39341361137387
 20
-88.36032577001062
 10
68.46748316430674
 20
-88.35188528607175
 10
68.57531465299506
 20
-88.33913843277634
 10
68.68314614168338
 20
-88.31812335031631
 10
68.68314614168338
 20
-88.31812335031631
 10
68.68314614168338
 20
-88.14035642327741
 10
68.68314614168338
 20
-88.14035642327741
 10
68.53914115039994
 20
-88.21235891891914
 10
68.44405651500705
 20
-88.24181448531802
 10
68.27903644126357
 20
-88.27144230649117
 10
68.27903644126357
 20
-88.27144230649117
 10
68.15845809927983
 20
-88.1022881181654
 10
68.15845809927983
 20
-88.1022881181654
 10
68.47575139347134
 20
-88.07472735428341
 10
68.66833223109681
 20
-87.98170977618166
 10
68.8460991581357
 20
-87.84838458090249
 10
68.7000271095611
 20
-87.84838458090249
 10
68.39961478324732
 20
-87.85269095025906
 10
68.20289983103956
 20
-87.85906437690677
 10
68.20289983103956
 20
-87.85906437690677
 10
68.20289983103956
 20
-87.68129744986787
 10
68.20289983103956
 20
-87.68129744986787
 10
68.35724010877875
 20
-87.68767087651558
 10
68.65351832051023
 20
-87.6940443031633
 10
68.83748641942258
 20
-87.6940443031633
 10
68.83748641942258
 20
-87.6940443031633
 10
69.04901528221691
 20
-87.6940443031633
 10
69.04901528221691
 20
-87.6940443031633
 10
69.04901528221691
 20
-87.59878741299615
 10
69.04694822492577
 20
-87.5479722545887
 10
69.04074705305231
 20
-87.50146346553784
 10
69.04074705305231
 20
-87.50146346553784
 10
69.25641003042895
 20
-87.51834443341556
 10
69.25641003042895
 20
-87.51834443341556
 10
69.30498587677098
 20
-87.52265080277212
 10
69.31359861548411
 20
-87.53746471335869
 10
69.31359861548411
 20
-87.55227862394527
 10
69.31359861548411
 20
-87.57760007576185
 10
69.29671764760639
 20
-87.58604055970072
 10
69.24573023442468
 20
-87.61153426629157
 10
69.24366317713353
 20
-87.63685571810815
 10
69.24366317713353
 20
-87.64322914475586
 10
69.24159611984238
 20
-87.6940443031633
 10
69.24159611984238
 20
-87.6940443031633
 10
69.47207300780559
 20
-87.6940443031633
 10
69.47207300780559
 20
-87.6940443031633
 10
69.63709308154907
 20
-87.6940443031633
 10
69.92923717869824
 20
-87.68767087651558
 10
70.10907116302829
 20
-87.68129744986787
 10
70.10907116302829
 20
-87.68129744986787
 10
70.10907116302829
 20
-87.85906437690677
 10
70.10907116302829
 20
-87.85906437690677
 10
69.97988008233142
 20
-87.8547580075502
 10
69.95679794258025
 20
-87.8547580075502
 10
69.67946775601763
 20
-87.85045163819365
 97
        0
 97
        0
 92
        1
 93
        1
 72
     4
 94
        3
 73
     0
 74
     1
 95
       23
 96
       19
 40
0.0
 40
0.0
 40
0.0
 40
0.0
 40
1.0
 40
1.0
 40
1.0
 40
2.0
 40
2.0
 40
2.0
 40
3.0
 40
3.0
 40
3.0
 40
4.0
 40
4.0
 40
4.0
 40
5.0
 40
5.0
 40
5.0
 40
6.0
 40
6.0
 40
6.0
 40
6.0
 10
68.39548066866502
 20
-87.49939640824668
 10
68.37859970078729
 20
-87.53953177064984
 10
68.37205401936532
 20
-87.55641273852757
 10
68.3510389369053
 20
-87.55641273852757
 10
68.33622502631873
 20
-87.55641273852757
 10
68.32554523031445
 20
-87.53953177064984
 10
68.319344058441
 20
-87.52678491735442
 10
68.319344058441
 20
-87.52678491735442
 10
68.21978079891728
 20
-87.36176484361096
 10
68.21978079891728
 20
-87.36176484361096
 10
68.32141111573215
 20
-87.33006996514665
 10
68.47161727888904
 20
-87.27512069215692
 10
68.67039928838796
 20
-87.1121676757046
 10
68.67039928838796
 20
-87.1121676757046
 10
68.72758787344311
 20
-87.28562823338693
 10
68.72758787344311
 20
-87.28562823338693
 10
68.63457029534136
 20
-87.36813827025867
 10
68.54568683182191
 20
-87.42532685531381
 10
68.39548066866502
 20
-87.49939640824668
 97
        0
 97
        0
 92
        1
 93
        1
 72
     4
 94
        3
 73
     0
 74
     1
 95
       17
 96
       13
 40
0.0
 40
0.0
 40
0.0
 40
0.0
 40
1.0
 40
1.0
 40
1.0
 40
2.0
 40
2.0
 40
2.0
 40
3.0
 40
3.0
 40
3.0
 40
4.0
 40
4.0
 40
4.0
 40
4.0
 10
68.54775388911307
 20
-87.03396400818943
 10
68.51812606793992
 20
-86.99382864578627
 10
68.45025768688049
 20
-86.89650469832796
 10
68.2683566452593
 20
-86.78643389757423
 10
68.2683566452593
 20
-86.78643389757423
 10
68.39548066866502
 20
-86.65310870229506
 10
68.39548066866502
 20
-86.65310870229506
 10
68.58151582486852
 20
-86.75473901910993
 10
68.63870440992366
 20
-86.84362248262937
 10
68.66626517380566
 20
-86.88582490232369
 10
68.66626517380566
 20
-86.88582490232369
 10
68.54775388911307
 20
-87.03396400818943
 10
68.54775388911307
 20
-87.03396400818943
 97
        0
 97
        0
 92
        1
 93
        1
 72
     4
 94
        3
 73
     0
 74
     1
 95
       38
 96
       34
 40
0.0
 40
0.0
 40
0.0
 40
0.0
 40
1.0
 40
1.0
 40
1.0
 40
2.0
 40
2.0
 40
2.0
 40
3.0
 40
3.0
 40
3.0
 40
4.0
 40
4.0
 40
4.0
 40
5.0
 40
5.0
 40
5.0
 40
6.0
 40
6.0
 40
6.0
 40
7.0
 40
7.0
 40
7.0
 40
8.0
 40
8.0
 40
8.0
 40
9.0
 40
9.0
 40
9.0
 40
10.0
 40
10.0
 40
10.0
 40
11.0
 40
11.0
 40
11.0
 40
11.0
 10
68.91569008693774
 20
-86.72924531251908
 10
68.9136230296466
 20
-86.77592635634421
 10
68.91155597235544
 20
-86.8921983289714
 10
68.91155597235544
 20
-86.93664006073112
 10
68.91155597235544
 20
-86.93664006073112
 10
68.91155597235544
 20
-87.28356117609579
 10
68.91155597235544
 20
-87.28356117609579
 10
68.91155597235544
 20
-87.37037758232408
 10
68.9136230296466
 20
-87.51197100676785
 10
68.92430282565087
 20
-87.6325493487516
 10
68.92430282565087
 20
-87.6325493487516
 10
68.73378904531656
 20
-87.6325493487516
 10
68.73378904531656
 20
-87.6325493487516
 10
68.73826766944738
 20
-87.569159591823
 10
68.74240178402968
 20
-87.5162773761244
 10
68.74446884132082
 20
-87.46132810313468
 10
68.74653589861198
 20
-87.33851044908552
 10
68.74860295590312
 20
-87.32369653849894
 10
68.74860295590312
 20
-87.27925480673922
 10
68.74860295590312
 20
-87.27925480673922
 10
68.74860295590312
 20
-86.9578273979654
 10
68.74860295590312
 20
-86.9578273979654
 10
68.74860295590312
 20
-86.90270587020142
 10
68.73585610260771
 20
-86.66378849829934
 10
68.73378904531656
 20
-86.6129733398919
 10
68.73378904531656
 20
-86.6129733398919
 10
68.93498262165515
 20
-86.6405341037739
 10
68.93498262165515
 20
-86.6405341037739
 10
68.95599770411518
 20
-86.64260116106504
 10
68.98769258257947
 20
-86.64673527564734
 10
68.98769258257947
 20
-86.6722289822382
 10
68.98769258257947
 20
-86.69961749134593
 10
68.9370496789463
 20
-86.72080482858021
 10
68.91569008693774
 20
-86.72924531251908
 97
        0
 97
        0
 92
        1
 93
        1
 72
     4
 94
        3
 73
     0
 74
     1
 95
       83
 96
       79
 40
0.0
 40
0.0
 40
0.0
 40
0.0
 40
1.0
 40
1.0
 40
1.0
 40
2.0
 40
2.0
 40
2.0
 40
3.0
 40
3.0
 40
3.0
 40
4.0
 40
4.0
 40
4.0
 40
5.0
 40
5.0
 40
5.0
 40
6.0
 40
6.0
 40
6.0
 40
7.0
 40
7.0
 40
7.0
 40
8.0
 40
8.0
 40
8.0
 40
9.0
 40
9.0
 40
9.0
 40
10.0
 40
10.0
 40
10.0
 40
11.0
 40
11.0
 40
11.0
 40
12.0
 40
12.0
 40
12.0
 40
13.0
 40
13.0
 40
13.0
 40
14.0
 40
14.0
 40
14.0
 40
15.0
 40
15.0
 40
15.0
 40
16.0
 40
16.0
 40
16.0
 40
17.0
 40
17.0
 40
17.0
 40
18.0
 40
18.0
 40
18.0
 40
19.0
 40
19.0
 40
19.0
 40
20.0
 40
20.0
 40
20.0
 40
21.0
 40
21.0
 40
21.0
 40
22.0
 40
22.0
 40
22.0
 40
23.0
 40
23.0
 40
23.0
 40
24.0
 40
24.0
 40
24.0
 40
25.0
 40
25.0
 40
25.0
 40
26.0
 40
26.0
 40
26.0
 40
26.0
 10
69.7177083159039
 20
-87.05084497606715
 10
69.7177083159039
 20
-87.05084497606715
 10
69.62021211367134
 20
-87.05084497606715
 10
69.62021211367134
 20
-87.05084497606715
 10
69.62021211367134
 20
-87.05084497606715
 10
69.62021211367134
 20
-87.29837508668236
 10
69.62021211367134
 20
-87.29837508668236
 10
69.62021211367134
 20
-87.29837508668236
 10
69.70289440531734
 20
-87.29837508668236
 10
69.70289440531734
 20
-87.29837508668236
 10
69.76835121953708
 20
-87.29837508668236
 10
69.90787758668971
 20
-87.29406871732579
 10
70.00744084621343
 20
-87.28562823338693
 10
70.00744084621343
 20
-87.28562823338693
 10
70.00744084621343
 20
-87.46546221771698
 10
70.00744084621343
 20
-87.46546221771698
 10
69.91442326811168
 20
-87.4570217337781
 10
69.76421710495478
 20
-87.4528876191958
 10
69.70289440531734
 20
-87.4528876191958
 10
69.70289440531734
 20
-87.4528876191958
 10
69.39800345487272
 20
-87.4528876191958
 10
69.39800345487272
 20
-87.4528876191958
 10
69.3452934939484
 20
-87.4528876191958
 10
69.19922144537381
 20
-87.4570217337781
 10
69.09345701397663
 20
-87.46546221771698
 10
69.09345701397663
 20
-87.46546221771698
 10
69.09345701397663
 20
-87.28562823338693
 10
69.09345701397663
 20
-87.28562823338693
 10
69.19302027350037
 20
-87.29406871732579
 10
69.33254664065298
 20
-87.29837508668236
 10
69.39800345487272
 20
-87.29837508668236
 10
69.39800345487272
 20
-87.29837508668236
 10
69.44244518663244
 20
-87.29837508668236
 10
69.44244518663244
 20
-87.29837508668236
 10
69.44244518663244
 20
-87.29837508668236
 10
69.44244518663244
 20
-87.05084497606715
 10
69.44244518663244
 20
-87.05084497606715
 10
69.44244518663244
 20
-87.05084497606715
 10
69.3687201432481
 20
-87.05084497606715
 10
69.3687201432481
 20
-87.05084497606715
 10
69.30705293406213
 20
-87.05084497606715
 10
69.13996580302751
 20
-87.05515134542371
 10
69.01938746104376
 20
-87.06359182936258
 10
69.01938746104376
 20
-87.06359182936258
 10
69.01938746104376
 20
-86.88582490232369
 10
69.01938746104376
 20
-86.88582490232369
 10
69.13376463115407
 20
-86.8921983289714
 10
69.29223902347556
 20
-86.89650469832796
 10
69.3687201432481
 20
-86.89650469832796
 10
69.3687201432481
 20
-86.89650469832796
 10
69.4403781293413
 20
-86.89650469832796
 10
69.4403781293413
 20
-86.89650469832796
 10
69.436244014759
 20
-86.74405922310565
 10
69.43417695746784
 20
-86.7102972873502
 10
69.42763127604587
 20
-86.6171074544742
 10
69.42763127604587
 20
-86.6171074544742
 10
69.63950464838874
 20
-86.6405341037739
 10
69.63950464838874
 20
-86.6405341037739
 10
69.66465384543106
 20
-86.64260116106504
 10
69.68808049473076
 20
-86.64673527564734
 10
69.68808049473076
 20
-86.66998967017278
 10
69.68808049473076
 20
-86.70185680341135
 10
69.64363876297104
 20
-86.71873777128907
 10
69.62021211367134
 20
-86.72717825522793
 10
69.62021211367134
 20
-86.72717825522793
 10
69.62021211367134
 20
-86.89650469832796
 10
69.62021211367134
 20
-86.89650469832796
 10
69.62021211367134
 20
-86.89650469832796
 10
69.7177083159039
 20
-86.89650469832796
 10
69.7177083159039
 20
-86.89650469832796
 10
69.79384492612793
 20
-86.89650469832796
 10
69.95231931844943
 20
-86.8921983289714
 10
70.06876354585087
 20
-86.88582490232369
 10
70.06876354585087
 20
-86.88582490232369
 10
70.06876354585087
 20
-87.06359182936258
 10
70.06876354585087
 20
-87.06359182936258
 10
69.96093205716255
 20
-87.05721840271487
 10
69.78729924470596
 20
-87.05084497606715
 10
69.7177083159039
 20
-87.05084497606715
 97
        0
 97
        0
 92
        1
 93
        1
 72
     4
 94
        3
 73
     0
 74
     1
 95
       17
 96
       13
 40
0.0
 40
0.0
 40
0.0
 40
0.0
 40
1.0
 40
1.0
 40
1.0
 40
2.0
 40
2.0
 40
2.0
 40
3.0
 40
3.0
 40
3.0
 40
4.0
 40
4.0
 40
4.0
 40
4.0
 10
69.47207300780559
 20
-87.84838458090249
 10
69.47207300780559
 20
-87.84838458090249
 10
69.26915688372438
 20
-87.84838458090249
 10
69.26915688372438
 20
-87.84838458090249
 10
69.29671764760639
 20
-87.90764022324879
 10
69.35149466582185
 20
-87.97964271889052
 10
69.37905542970385
 20
-88.0090982852894
 10
69.40661619358585
 20
-87.99445662947709
 10
69.52099336369615
 20
-87.93089461777423
 10
69.61194388450674
 20
-87.84838458090249
 10
69.61194388450674
 20
-87.84838458090249
 10
69.47207300780559
 20
-87.84838458090249
 10
69.47207300780559
 20
-87.84838458090249
 97
        0
 97
        0
 75
     2
 76
     1
 98
        0
  0
SPLINE
  5
CB
330
B8
100
AcDbEntity
  8
_U+30EC_U+30A4_U+30E4_U+30FC 1
370
     0
100
AcDbSpline
210
0.0
220
0.0
230
1.0
 70
    11
 71
     3
 72
    77
 73
    73
 74
     0
 42
0.0000000001
 43
0.0000000001
 12
1.0
 22
0.0
 32
0.0
 13
1.0
 23
0.0
 33
0.0
 40
0.0
 40
0.0
 40
0.0
 40
0.0
 40
1.0
 40
1.0
 40
1.0
 40
2.0
 40
2.0
 40
2.0
 40
3.0
 40
3.0
 40
3.0
 40
4.0
 40
4.0
 40
4.0
 40
5.0
 40
5.0
 40
5.0
 40
6.0
 40
6.0
 40
6.0
 40
7.0
 40
7.0
 40
7.0
 40
8.0
 40
8.0
 40
8.0
 40
9.0
 40
9.0
 40
9.0
 40
10.0
 40
10.0
 40
10.0
 40
11.0
 40
11.0
 40
11.0
 40
12.0
 40
12.0
 40
12.0
 40
13.0
 40
13.0
 40
13.0
 40
14.0
 40
14.0
 40
14.0
 40
15.0
 40
15.0
 40
15.0
 40
16.0
 40
16.0
 40
16.0
 40
17.0
 40
17.0
 40
17.0
 40
18.0
 40
18.0
 40
18.0
 40
19.0
 40
19.0
 40
19.0
 40
20.0
 40
20.0
 40
20.0
 40
21.0
 40
21.0
 40
21.0
 40
22.0
 40
22.0
 40
22.0
 40
23.0
 40
23.0
 40
23.0
 40
24.0
 40
24.0
 40
24.0
 40
24.0
 10
71.96322155318975
 20
-88.4788370547032
 30
0.0
 10
71.91671276413888
 20
-88.5041585065198
 30
0.0
 10
71.79200030757283
 20
-88.51690535981523
 30
0.0
 10
71.71345213050914
 20
-88.51690535981523
 30
0.0
 10
71.70104978676224
 20
-88.51690535981523
 30
0.0
 10
71.67555608017139
 20
-88.51690535981523
 30
0.0
 10
71.64179414441594
 20
-88.51259899045866
 30
0.0
 10
71.64179414441594
 20
-88.51259899045866
 30
0.0
 10
71.54429794218338
 20
-88.28625621707775
 30
0.0
 10
71.54429794218338
 20
-88.28625621707775
 30
0.0
 10
71.57392576335653
 20
-88.29262964372546
 30
0.0
 10
71.63111434841167
 20
-88.30107012766432
 30
0.0
 10
71.74755857581312
 20
-88.30107012766432
 30
0.0
 10
71.82576224332828
 20
-88.30107012766432
 30
0.0
 10
71.82782930061944
 20
-88.25886770797001
 30
0.0
 10
71.82782930061944
 20
-88.20167912291487
 30
0.0
 10
71.82782930061944
 20
-88.20167912291487
 30
0.0
 10
71.82782930061944
 20
-87.85269095025906
 30
0.0
 10
71.82782930061944
 20
-87.85269095025906
 30
0.0
 10
71.82782930061944
 20
-87.85269095025906
 30
0.0
 10
71.36859807243563
 20
-87.85269095025906
 30
0.0
 10
71.36859807243563
 20
-87.85269095025906
 30
0.0
 10
71.3710096392753
 20
-87.99015026012052
 30
0.0
 10
71.37307669656646
 20
-88.18893226961944
 30
0.0
 10
71.3792778684399
 20
-88.32225746489861
 30
0.0
 10
71.38134492573106
 20
-88.3498182287806
 30
0.0
 10
71.38134492573106
 20
-88.39425996054032
 30
0.0
 10
71.39409177902648
 20
-88.45558266017777
 30
0.0
 10
71.39409177902648
 20
-88.45558266017777
 30
0.0
 10
71.152935095059
 20
-88.45558266017777
 30
0.0
 10
71.152935095059
 20
-88.45558266017777
 30
0.0
 10
71.17842880164984
 20
-88.33069794883747
 30
0.0
 10
71.17842880164984
 20
-87.99015026012052
 30
0.0
 10
71.17842880164984
 20
-87.85269095025906
 30
0.0
 10
71.17842880164984
 20
-87.85269095025906
 30
0.0
 10
70.73607854134376
 20
-87.85269095025906
 30
0.0
 10
70.73607854134376
 20
-87.85269095025906
 30
0.0
 10
70.71299640159259
 20
-88.05991344369683
 30
0.0
 10
70.64753958737285
 20
-88.32863089154633
 30
0.0
 10
70.45048012561655
 20
-88.51259899045866
 30
0.0
 10
70.45048012561655
 20
-88.51259899045866
 30
0.0
 10
70.2623779121219
 20
-88.38995359118377
 30
0.0
 10
70.2623779121219
 20
-88.38995359118377
 30
0.0
 10
70.51628144938482
 20
-88.16998424445056
 30
0.0
 10
70.54797632784911
 20
-87.83787703967248
 30
0.0
 10
70.54797632784911
 20
-87.5057698348944
 30
0.0
 10
70.54797632784911
 20
-87.5057698348944
 30
0.0
 10
70.54797632784911
 20
-87.06996525601029
 30
0.0
 10
70.54797632784911
 20
-87.06996525601029
 30
0.0
 10
70.54797632784911
 20
-87.03396400818943
 30
0.0
 10
70.54590927055797
 20
-86.80124780816081
 30
0.0
 10
70.53729653184485
 20
-86.69961749134593
 30
0.0
 10
70.67682289899746
 20
-86.7102972873502
 30
0.0
 10
70.91832409251347
 20
-86.7102972873502
 30
0.0
 10
71.0619845742484
 20
-86.7102972873502
 30
0.0
 10
71.0619845742484
 20
-86.7102972873502
 30
0.0
 10
71.5212158024322
 20
-86.7102972873502
 30
0.0
 10
71.5212158024322
 20
-86.7102972873502
 30
0.0
 10
71.53602971301878
 20
-86.7102972873502
 30
0.0
 10
71.88501788567459
 20
-86.7102972873502
 30
0.0
 10
72.04349227799608
 20
-86.69961749134593
 30
0.0
 10
72.04142522070492
 20
-86.75249970704452
 30
0.0
 10
72.03522404883148
 20
-86.91338566620568
 30
0.0
 10
72.03522404883148
 20
-86.96420082461312
 30
0.0
 10
72.03522404883148
 20
-86.96420082461312
 30
0.0
 10
72.03522404883148
 20
-87.57122664911414
 30
0.0
 10
72.03522404883148
 20
-87.57122664911414
 30
0.0
 10
72.03522404883148
 20
-87.59034692905728
 30
0.0
 10
72.04555933528722
 20
-88.1615437605117
 30
0.0
 10
72.04555933528722
 20
-88.27368161855658
 30
0.0
 10
72.04555933528722
 20
-88.33069794883747
 30
0.0
 10
72.04555933528722
 20
-88.43232826565234
 30
0.0
 10
71.96322155318975
 20
-88.4788370547032
 30
0.0
  0
POLYLINE
  5
CC
330
B8
100
AcDbEntity
  8
_U+30EC_U+30A4_U+30E4_U+30FC 1
370
     0
100
AcDb2dPolyline
 66
     1
 10
0.0
 20
0.0
 30
0.0
  0
VERTEX
  5
CD
330
CC
100
AcDbEntity
  8
_U+30EC_U+30A4_U+30E4_U+30FC 1
370
     0
100
AcDbVertex
100
AcDb2dVertex
 10
71.17842880164984
 20
-86.8921983289714
 30
0.0
  0
VERTEX
  5
CE
330
CC
100
AcDbEntity
  8
_U+30EC_U+30A4_U+30E4_U+30FC 1
370
     0
100
AcDbVertex
100
AcDb2dVertex
 10
70.74055716547458
 20
-86.8921983289714
 30
0.0
  0
VERTEX
  5
CF
330
CC
100
AcDbEntity
  8
_U+30EC_U+30A4_U+30E4_U+30FC 1
370
     0
100
AcDbVertex
100
AcDb2dVertex
 10
70.74055716547458
 20
-87.19674476986748
 30
0.0
  0
VERTEX
  5
D0
330
CC
100
AcDbEntity
  8
_U+30EC_U+30A4_U+30E4_U+30FC 1
370
     0
100
AcDbVertex
100
AcDb2dVertex
 10
71.17842880164984
 20
-87.19674476986748
 30
0.0
  0
VERTEX
  5
D1
330
CC
100
AcDbEntity
  8
_U+30EC_U+30A4_U+30E4_U+30FC 1
370
     0
100
AcDbVertex
100
AcDb2dVertex
 10
71.17842880164984
 20
-86.8921983289714
 30
0.0
  0
SEQEND
  5
D2
330
CC
100
AcDbEntity
  8
_U+30EC_U+30A4_U+30E4_U+30FC 1
370
     0
  0
POLYLINE
  5
D3
330
B8
100
AcDbEntity
  8
_U+30EC_U+30A4_U+30E4_U+30FC 1
370
     0
100
AcDb2dPolyline
 66
     1
 10
0.0
 20
0.0
 30
0.0
  0
VERTEX
  5
D4
330
D3
100
AcDbEntity
  8
_U+30EC_U+30A4_U+30E4_U+30FC 1
370
     0
100
AcDbVertex
100
AcDb2dVertex
 10
71.17842880164984
 20
-87.36400415567637
 30
0.0
  0
VERTEX
  5
D5
330
D3
100
AcDbEntity
  8
_U+30EC_U+30A4_U+30E4_U+30FC 1
370
     0
100
AcDbVertex
100
AcDb2dVertex
 10
70.74055716547458
 20
-87.36400415567637
 30
0.0
  0
VERTEX
  5
D6
330
D3
100
AcDbEntity
  8
_U+30EC_U+30A4_U+30E4_U+30FC 1
370
     0
100
AcDbVertex
100
AcDb2dVertex
 10
70.74055716547458
 20
-87.67285696592901
 30
0.0
  0
VERTEX
  5
D7
330
D3
100
AcDbEntity
  8
_U+30EC_U+30A4_U+30E4_U+30FC 1
370
     0
100
AcDbVertex
100
AcDb2dVertex
 10
71.17842880164984
 20
-87.67285696592901
 30
0.0
  0
VERTEX
  5
D8
330
D3
100
AcDbEntity
  8
_U+30EC_U+30A4_U+30E4_U+30FC 1
370
     0
100
AcDbVertex
100
AcDb2dVertex
 10
71.17842880164984
 20
-87.36400415567637
 30
0.0
  0
SEQEND
  5
D9
330
D3
100
AcDbEntity
  8
_U+30EC_U+30A4_U+30E4_U+30FC 1
370
     0
  0
POLYLINE
  5
DA
330
B8
100
AcDbEntity
  8
_U+30EC_U+30A4_U+30E4_U+30FC 1
370
     0
100
AcDb2dPolyline
 66
     1
 10
0.0
 20
0.0
 30
0.0
  0
VERTEX
  5
DB
330
DA
100
AcDbEntity
  8
_U+30EC_U+30A4_U+30E4_U+30FC 1
370
     0
100
AcDbVertex
100
AcDb2dVertex
 10
71.82782930061944
 20
-86.8921983289714
 30
0.0
  0
VERTEX
  5
DC
330
DA
100
AcDbEntity
  8
_U+30EC_U+30A4_U+30E4_U+30FC 1
370
     0
100
AcDbVertex
100
AcDb2dVertex
 10
71.36859807243563
 20
-86.8921983289714
 30
0.0
  0
VERTEX
  5
DD
330
DA
100
AcDbEntity
  8
_U+30EC_U+30A4_U+30E4_U+30FC 1
370
     0
100
AcDbVertex
100
AcDb2dVertex
 10
71.36859807243563
 20
-87.19674476986748
 30
0.0
  0
VERTEX
  5
DE
330
DA
100
AcDbEntity
  8
_U+30EC_U+30A4_U+30E4_U+30FC 1
370
     0
100
AcDbVertex
100
AcDb2dVertex
 10
71.82782930061944
 20
-87.19674476986748
 30
0.0
  0
VERTEX
  5
DF
330
DA
100
AcDbEntity
  8
_U+30EC_U+30A4_U+30E4_U+30FC 1
370
     0
100
AcDbVertex
100
AcDb2dVertex
 10
71.82782930061944
 20
-86.8921983289714
 30
0.0
  0
SEQEND
  5
E0
330
DA
100
AcDbEntity
  8
_U+30EC_U+30A4_U+30E4_U+30FC 1
370
     0
  0
POLYLINE
  5
E1
330
B8
100
AcDbEntity
  8
_U+30EC_U+30A4_U+30E4_U+30FC 1
370
     0
100
AcDb2dPolyline
 66
     1
 10
0.0
 20
0.0
 30
0.0
  0
VERTEX
  5
E2
330
E1
100
AcDbEntity
  8
_U+30EC_U+30A4_U+30E4_U+30FC 1
370
     0
100
AcDbVertex
100
AcDb2dVertex
 10
71.82782930061944
 20
-87.36400415567637
 30
0.0
  0
VERTEX
  5
E3
330
E1
100
AcDbEntity
  8
_U+30EC_U+30A4_U+30E4_U+30FC 1
370
     0
100
AcDbVertex
100
AcDb2dVertex
 10
71.36859807243563
 20
-87.36400415567637
 30
0.0
  0
VERTEX
  5
E4
330
E1
100
AcDbEntity
  8
_U+30EC_U+30A4_U+30E4_U+30FC 1
370
     0
100
AcDbVertex
100
AcDb2dVertex
 10
71.36859807243563
 20
-87.67285696592901
 30
0.0
  0
VERTEX
  5
E5
330
E1
100
AcDbEntity
  8
_U+30EC_U+30A4_U+30E4_U+30FC 1
370
     0
100
AcDbVertex
100
AcDb2dVertex
 10
71.82782930061944
 20
-87.67285696592901
 30
0.0
  0
VERTEX
  5
E6
330
E1
100
AcDbEntity
  8
_U+30EC_U+30A4_U+30E4_U+30FC 1
370
     0
100
AcDbVertex
100
AcDb2dVertex
 10
71.82782930061944
 20
-87.36400415567637
 30
0.0
  0
SEQEND
  5
E7
330
E1
100
AcDbEntity
  8
_U+30EC_U+30A4_U+30E4_U+30FC 1
370
     0
  0
HATCH
  5
E8
330
B8
100
AcDbEntity
  8
_U+30EC_U+30A4_U+30E4_U+30FC 1
 62
   179
420
  2234388
100
AcDbHatch
 10
0.0
 20
0.0
 30
0.0
210
0.0
220
0.0
230
1.0
  2
SOLID
 70
     1
 71
     0
 91
        5
 92
        1
 93
        1
 72
     4
 94
        3
 73
     0
 74
     1
 95
       77
 96
       73
 40
0.0
 40
0.0
 40
0.0
 40
0.0
 40
1.0
 40
1.0
 40
1.0
 40
2.0
 40
2.0
 40
2.0
 40
3.0
 40
3.0
 40
3.0
 40
4.0
 40
4.0
 40
4.0
 40
5.0
 40
5.0
 40
5.0
 40
6.0
 40
6.0
 40
6.0
 40
7.0
 40
7.0
 40
7.0
 40
8.0
 40
8.0
 40
8.0
 40
9.0
 40
9.0
 40
9.0
 40
10.0
 40
10.0
 40
10.0
 40
11.0
 40
11.0
 40
11.0
 40
12.0
 40
12.0
 40
12.0
 40
13.0
 40
13.0
 40
13.0
 40
14.0
 40
14.0
 40
14.0
 40
15.0
 40
15.0
 40
15.0
 40
16.0
 40
16.0
 40
16.0
 40
17.0
 40
17.0
 40
17.0
 40
18.0
 40
18.0
 40
18.0
 40
19.0
 40
19.0
 40
19.0
 40
20.0
 40
20.0
 40
20.0
 40
21.0
 40
21.0
 40
21.0
 40
22.0
 40
22.0
 40
22.0
 40
23.0
 40
23.0
 40
23.0
 40
24.0
 40
24.0
 40
24.0
 40
24.0
 10
71.96322155318975
 20
-88.4788370547032
 10
71.91671276413888
 20
-88.5041585065198
 10
71.79200030757283
 20
-88.51690535981523
 10
71.71345213050914
 20
-88.51690535981523
 10
71.70104978676224
 20
-88.51690535981523
 10
71.67555608017139
 20
-88.51690535981523
 10
71.64179414441594
 20
-88.51259899045866
 10
71.64179414441594
 20
-88.51259899045866
 10
71.54429794218338
 20
-88.28625621707775
 10
71.54429794218338
 20
-88.28625621707775
 10
71.57392576335653
 20
-88.29262964372546
 10
71.63111434841167
 20
-88.30107012766432
 10
71.74755857581312
 20
-88.30107012766432
 10
71.82576224332828
 20
-88.30107012766432
 10
71.82782930061944
 20
-88.25886770797001
 10
71.82782930061944
 20
-88.20167912291487
 10
71.82782930061944
 20
-88.20167912291487
 10
71.82782930061944
 20
-87.85269095025906
 10
71.82782930061944
 20
-87.85269095025906
 10
71.82782930061944
 20
-87.85269095025906
 10
71.36859807243563
 20
-87.85269095025906
 10
71.36859807243563
 20
-87.85269095025906
 10
71.3710096392753
 20
-87.99015026012052
 10
71.37307669656646
 20
-88.18893226961944
 10
71.3792778684399
 20
-88.32225746489861
 10
71.38134492573106
 20
-88.3498182287806
 10
71.38134492573106
 20
-88.39425996054032
 10
71.39409177902648
 20
-88.45558266017777
 10
71.39409177902648
 20
-88.45558266017777
 10
71.152935095059
 20
-88.45558266017777
 10
71.152935095059
 20
-88.45558266017777
 10
71.17842880164984
 20
-88.33069794883747
 10
71.17842880164984
 20
-87.99015026012052
 10
71.17842880164984
 20
-87.85269095025906
 10
71.17842880164984
 20
-87.85269095025906
 10
70.73607854134376
 20
-87.85269095025906
 10
70.73607854134376
 20
-87.85269095025906
 10
70.71299640159259
 20
-88.05991344369683
 10
70.64753958737285
 20
-88.32863089154633
 10
70.45048012561655
 20
-88.51259899045866
 10
70.45048012561655
 20
-88.51259899045866
 10
70.2623779121219
 20
-88.38995359118377
 10
70.2623779121219
 20
-88.38995359118377
 10
70.51628144938482
 20
-88.16998424445056
 10
70.54797632784911
 20
-87.83787703967248
 10
70.54797632784911
 20
-87.5057698348944
 10
70.54797632784911
 20
-87.5057698348944
 10
70.54797632784911
 20
-87.06996525601029
 10
70.54797632784911
 20
-87.06996525601029
 10
70.54797632784911
 20
-87.03396400818943
 10
70.54590927055797
 20
-86.80124780816081
 10
70.53729653184485
 20
-86.69961749134593
 10
70.67682289899746
 20
-86.7102972873502
 10
70.91832409251347
 20
-86.7102972873502
 10
71.0619845742484
 20
-86.7102972873502
 10
71.0619845742484
 20
-86.7102972873502
 10
71.5212158024322
 20
-86.7102972873502
 10
71.5212158024322
 20
-86.7102972873502
 10
71.53602971301878
 20
-86.7102972873502
 10
71.88501788567459
 20
-86.7102972873502
 10
72.04349227799608
 20
-86.69961749134593
 10
72.04142522070492
 20
-86.75249970704452
 10
72.03522404883148
 20
-86.91338566620568
 10
72.03522404883148
 20
-86.96420082461312
 10
72.03522404883148
 20
-86.96420082461312
 10
72.03522404883148
 20
-87.57122664911414
 10
72.03522404883148
 20
-87.57122664911414
 10
72.03522404883148
 20
-87.59034692905728
 10
72.04555933528722
 20
-88.1615437605117
 10
72.04555933528722
 20
-88.27368161855658
 10
72.04555933528722
 20
-88.33069794883747
 10
72.04555933528722
 20
-88.43232826565234
 10
71.96322155318975
 20
-88.4788370547032
 97
        0
 97
        0
 92
        1
 93
        4
 72
     1
 10
71.17842880164984
 20
-86.8921983289714
 11
70.74055716547458
 21
-86.8921983289714
 72
     1
 10
70.74055716547458
 20
-86.8921983289714
 11
70.74055716547458
 21
-87.19674476986748
 72
     1
 10
70.74055716547458
 20
-87.19674476986748
 11
71.17842880164984
 21
-87.19674476986748
 72
     1
 10
71.17842880164984
 20
-87.19674476986748
 11
71.17842880164984
 21
-86.8921983289714
 97
        0
 92
        1
 93
        4
 72
     1
 10
71.17842880164984
 20
-87.36400415567637
 11
70.74055716547458
 21
-87.36400415567637
 72
     1
 10
70.74055716547458
 20
-87.36400415567637
 11
70.74055716547458
 21
-87.67285696592901
 72
     1
 10
70.74055716547458
 20
-87.67285696592901
 11
71.17842880164984
 21
-87.67285696592901
 72
     1
 10
71.17842880164984
 20
-87.67285696592901
 11
71.17842880164984
 21
-87.36400415567637
 97
        0
 92
        1
 93
        4
 72
     1
 10
71.82782930061944
 20
-86.8921983289714
 11
71.36859807243563
 21
-86.8921983289714
 72
     1
 10
71.36859807243563
 20
-86.8921983289714
 11
71.36859807243563
 21
-87.19674476986748
 72
     1
 10
71.36859807243563
 20
-87.19674476986748
 11
71.82782930061944
 21
-87.19674476986748
 72
     1
 10
71.82782930061944
 20
-87.19674476986748
 11
71.82782930061944
 21
-86.8921983289714
 97
        0
 92
        1
 93
        4
 72
     1
 10
71.82782930061944
 20
-87.36400415567637
 11
71.36859807243563
 21
-87.36400415567637
 72
     1
 10
71.36859807243563
 20
-87.36400415567637
 11
71.36859807243563
 21
-87.67285696592901
 72
     1
 10
71.36859807243563
 20
-87.67285696592901
 11
71.82782930061944
 21
-87.67285696592901
 72
     1
 10
71.82782930061944
 20
-87.67285696592901
 11
71.82782930061944
 21
-87.36400415567637
 97
        0
 75
     2
 76
     1
 98
        0
  0
SPLINE
  5
E9
330
B8
100
AcDbEntity
  8
_U+30EC_U+30A4_U+30E4_U+30FC 1
370
     0
100
AcDbSpline
210
0.0
220
0.0
230
1.0
 70
    11
 71
     3
 72
    44
 73
    40
 74
     0
 42
0.0000000001
 43
0.0000000001
 12
1.0
 22
0.0
 32
0.0
 13
1.0
 23
0.0
 33
0.0
 40
0.0
 40
0.0
 40
0.0
 40
0.0
 40
1.0
 40
1.0
 40
1.0
 40
2.0
 40
2.0
 40
2.0
 40
3.0
 40
3.0
 40
3.0
 40
4.0
 40
4.0
 40
4.0
 40
5.0
 40
5.0
 40
5.0
 40
6.0
 40
6.0
 40
6.0
 40
7.0
 40
7.0
 40
7.0
 40
8.0
 40
8.0
 40
8.0
 40
9.0
 40
9.0
 40
9.0
 40
10.0
 40
10.0
 40
10.0
 40
11.0
 40
11.0
 40
11.0
 40
12.0
 40
12.0
 40
12.0
 40
13.0
 40
13.0
 40
13.0
 40
13.0
 10
67.51181367669844
 20
-89.768853059155
 30
0.0
 10
67.39984807342782
 20
-90.1367892569797
 30
0.0
 10
67.34920516979464
 20
-90.29560815884972
 30
0.0
 10
67.15249021758689
 20
-90.5450330719818
 30
0.0
 10
66.96817760912602
 20
-90.77585446949354
 30
0.0
 10
66.73149954928935
 20
-90.96188962569703
 30
0.0
 10
66.45210230543559
 20
-91.05490720379878
 30
0.0
 10
66.45210230543559
 20
-91.05490720379878
 30
0.0
 10
66.25952146781012
 20
-90.87507321946873
 30
0.0
 10
66.25952146781012
 20
-90.87507321946873
 30
0.0
 10
66.90065373761512
 20
-90.7227999990207
 30
0.0
 10
67.23069388510206
 20
-90.16641707815285
 30
0.0
 10
67.29408364203064
 20
-89.72647838468644
 30
0.0
 10
67.29408364203064
 20
-89.72647838468644
 30
0.0
 10
66.52823891565961
 20
-89.72647838468644
 30
0.0
 10
66.52823891565961
 20
-89.72647838468644
 30
0.0
 10
66.43522133755786
 20
-89.72647838468644
 30
0.0
 10
66.25125323864552
 20
-89.73061249926874
 30
0.0
 10
66.09450139406665
 20
-89.74956052443761
 30
0.0
 10
66.09450139406665
 20
-89.74956052443761
 30
0.0
 10
66.09450139406665
 20
-89.52976343247867
 30
0.0
 10
66.09450139406665
 20
-89.52976343247867
 30
0.0
 10
66.18131780029495
 20
-89.5507785149387
 30
0.0
 10
66.43315428026672
 20
-89.5507785149387
 30
0.0
 10
66.53237303024191
 20
-89.5507785149387
 30
0.0
 10
66.53237303024191
 20
-89.5507785149387
 30
0.0
 10
66.96404349454372
 20
-89.5507785149387
 30
0.0
 10
66.96404349454372
 20
-89.5507785149387
 30
0.0
 10
67.00641816901229
 20
-89.5507785149387
 30
0.0
 10
67.2410291715578
 20
-89.54871145764754
 30
0.0
 10
67.27926973144407
 20
-89.5425102857741
 30
0.0
 10
67.32164440591265
 20
-89.53596460435213
 30
0.0
 10
67.3237114632038
 20
-89.53389754706097
 30
0.0
 10
67.38503416284125
 20
-89.49358992988356
 30
0.0
 10
67.38503416284125
 20
-89.49358992988356
 30
0.0
 10
67.57348088588441
 20
-89.64827471717126
 30
0.0
 10
67.57348088588441
 20
-89.64827471717126
 30
0.0
 10
67.54385306471126
 20
-89.67790253834441
 30
0.0
 10
67.52903915412469
 20
-89.70959741680872
 30
0.0
 10
67.51181367669844
 20
-89.768853059155
 30
0.0
  0
SPLINE
  5
EA
330
B8
100
AcDbEntity
  8
_U+30EC_U+30A4_U+30E4_U+30FC 1
370
     0
100
AcDbSpline
210
0.0
220
0.0
230
1.0
 70
    11
 71
     3
 72
    17
 73
    13
 74
     0
 42
0.0000000001
 43
0.0000000001
 12
1.0
 22
0.0
 32
0.0
 13
1.0
 23
0.0
 33
0.0
 40
0.0
 40
0.0
 40
0.0
 40
0.0
 40
1.0
 40
1.0
 40
1.0
 40
2.0
 40
2.0
 40
2.0
 40
3.0
 40
3.0
 40
3.0
 40
4.0
 40
4.0
 40
4.0
 40
4.0
 10
67.72127548220163
 20
-89.56972654010757
 30
0.0
 10
67.59449596834443
 20
-89.56972654010757
 30
0.0
 10
67.49286565152957
 20
-89.46844073284123
 30
0.0
 10
67.49286565152957
 20
-89.3413167094355
 30
0.0
 10
67.49286565152957
 20
-89.21436494080405
 30
0.0
 10
67.59449596834443
 20
-89.11066756669803
 30
0.0
 10
67.72127548220163
 20
-89.11066756669803
 30
0.0
 10
67.84839950560735
 20
-89.11066756669803
 30
0.0
 10
67.95209687971337
 20
-89.21436494080405
 30
0.0
 10
67.95209687971337
 20
-89.3413167094355
 30
0.0
 10
67.95209687971337
 20
-89.46844073284123
 30
0.0
 10
67.84839950560735
 20
-89.56972654010757
 30
0.0
 10
67.72127548220163
 20
-89.56972654010757
 30
0.0
  0
SPLINE
  5
EB
330
B8
100
AcDbEntity
  8
_U+30EC_U+30A4_U+30E4_U+30FC 1
370
     0
100
AcDbSpline
210
0.0
220
0.0
230
1.0
 70
    11
 71
     3
 72
    17
 73
    13
 74
     0
 42
0.0000000001
 43
0.0000000001
 12
1.0
 22
0.0
 32
0.0
 13
1.0
 23
0.0
 33
0.0
 40
0.0
 40
0.0
 40
0.0
 40
0.0
 40
1.0
 40
1.0
 40
1.0
 40
2.0
 40
2.0
 40
2.0
 40
3.0
 40
3.0
 40
3.0
 40
4.0
 40
4.0
 40
4.0
 40
4.0
 10
67.71920842491048
 20
-89.23968639262064
 30
0.0
 10
67.664431406695
 20
-89.23968639262064
 30
0.0
 10
67.61998967493528
 20
-89.28412812438036
 30
0.0
 10
67.61998967493528
 20
-89.33924965214436
 30
0.0
 10
67.61998967493528
 20
-89.3964382371995
 30
0.0
 10
67.664431406695
 20
-89.44501408354152
 30
0.0
 10
67.72334253949278
 20
-89.44501408354152
 30
0.0
 10
67.78259818183908
 20
-89.44501408354152
 30
0.0
 10
67.8229057990165
 20
-89.39437117990836
 30
0.0
 10
67.8229057990165
 20
-89.3413167094355
 30
0.0
 10
67.8229057990165
 20
-89.28412812438036
 30
0.0
 10
67.77639700996562
 20
-89.23968639262064
 30
0.0
 10
67.71920842491048
 20
-89.23968639262064
 30
0.0
  0
HATCH
  5
EC
330
B8
100
AcDbEntity
  8
_U+30EC_U+30A4_U+30E4_U+30FC 1
 62
   179
420
  2234388
100
AcDbHatch
 10
0.0
 20
0.0
 30
0.0
210
0.0
220
0.0
230
1.0
  2
SOLID
 70
     1
 71
     0
 91
        3
 92
        1
 93
        1
 72
     4
 94
        3
 73
     0
 74
     1
 95
       44
 96
       40
 40
0.0
 40
0.0
 40
0.0
 40
0.0
 40
1.0
 40
1.0
 40
1.0
 40
2.0
 40
2.0
 40
2.0
 40
3.0
 40
3.0
 40
3.0
 40
4.0
 40
4.0
 40
4.0
 40
5.0
 40
5.0
 40
5.0
 40
6.0
 40
6.0
 40
6.0
 40
7.0
 40
7.0
 40
7.0
 40
8.0
 40
8.0
 40
8.0
 40
9.0
 40
9.0
 40
9.0
 40
10.0
 40
10.0
 40
10.0
 40
11.0
 40
11.0
 40
11.0
 40
12.0
 40
12.0
 40
12.0
 40
13.0
 40
13.0
 40
13.0
 40
13.0
 10
67.51181367669844
 20
-89.768853059155
 10
67.39984807342782
 20
-90.1367892569797
 10
67.34920516979464
 20
-90.29560815884972
 10
67.15249021758689
 20
-90.5450330719818
 10
66.96817760912602
 20
-90.77585446949354
 10
66.73149954928935
 20
-90.96188962569703
 10
66.45210230543559
 20
-91.05490720379878
 10
66.45210230543559
 20
-91.05490720379878
 10
66.25952146781012
 20
-90.87507321946873
 10
66.25952146781012
 20
-90.87507321946873
 10
66.90065373761512
 20
-90.7227999990207
 10
67.23069388510206
 20
-90.16641707815285
 10
67.29408364203064
 20
-89.72647838468644
 10
67.29408364203064
 20
-89.72647838468644
 10
66.52823891565961
 20
-89.72647838468644
 10
66.52823891565961
 20
-89.72647838468644
 10
66.43522133755786
 20
-89.72647838468644
 10
66.25125323864552
 20
-89.73061249926874
 10
66.09450139406665
 20
-89.74956052443761
 10
66.09450139406665
 20
-89.74956052443761
 10
66.09450139406665
 20
-89.52976343247867
 10
66.09450139406665
 20
-89.52976343247867
 10
66.18131780029495
 20
-89.5507785149387
 10
66.43315428026672
 20
-89.5507785149387
 10
66.53237303024191
 20
-89.5507785149387
 10
66.53237303024191
 20
-89.5507785149387
 10
66.96404349454372
 20
-89.5507785149387
 10
66.96404349454372
 20
-89.5507785149387
 10
67.00641816901229
 20
-89.5507785149387
 10
67.2410291715578
 20
-89.54871145764754
 10
67.27926973144407
 20
-89.5425102857741
 10
67.32164440591265
 20
-89.53596460435213
 10
67.3237114632038
 20
-89.53389754706097
 10
67.38503416284125
 20
-89.49358992988356
 10
67.38503416284125
 20
-89.49358992988356
 10
67.57348088588441
 20
-89.64827471717126
 10
67.57348088588441
 20
-89.64827471717126
 10
67.54385306471126
 20
-89.67790253834441
 10
67.52903915412469
 20
-89.70959741680872
 10
67.51181367669844
 20
-89.768853059155
 97
        0
 97
        0
 92
        1
 93
        1
 72
     4
 94
        3
 73
     0
 74
     1
 95
       17
 96
       13
 40
0.0
 40
0.0
 40
0.0
 40
0.0
 40
1.0
 40
1.0
 40
1.0
 40
2.0
 40
2.0
 40
2.0
 40
3.0
 40
3.0
 40
3.0
 40
4.0
 40
4.0
 40
4.0
 40
4.0
 10
67.72127548220163
 20
-89.56972654010757
 10
67.59449596834443
 20
-89.56972654010757
 10
67.49286565152957
 20
-89.46844073284123
 10
67.49286565152957
 20
-89.3413167094355
 10
67.49286565152957
 20
-89.21436494080405
 10
67.59449596834443
 20
-89.11066756669803
 10
67.72127548220163
 20
-89.11066756669803
 10
67.84839950560735
 20
-89.11066756669803
 10
67.95209687971337
 20
-89.21436494080405
 10
67.95209687971337
 20
-89.3413167094355
 10
67.95209687971337
 20
-89.46844073284123
 10
67.84839950560735
 20
-89.56972654010757
 10
67.72127548220163
 20
-89.56972654010757
 97
        0
 97
        0
 92
        1
 93
        1
 72
     4
 94
        3
 73
     0
 74
     1
 95
       17
 96
       13
 40
0.0
 40
0.0
 40
0.0
 40
0.0
 40
1.0
 40
1.0
 40
1.0
 40
2.0
 40
2.0
 40
2.0
 40
3.0
 40
3.0
 40
3.0
 40
4.0
 40
4.0
 40
4.0
 40
4.0
 10
67.71920842491048
 20
-89.23968639262064
 10
67.664431406695
 20
-89.23968639262064
 10
67.61998967493528
 20
-89.28412812438036
 10
67.61998967493528
 20
-89.33924965214436
 10
67.61998967493528
 20
-89.3964382371995
 10
67.664431406695
 20
-89.44501408354152
 10
67.72334253949278
 20
-89.44501408354152
 10
67.78259818183908
 20
-89.44501408354152
 10
67.8229057990165
 20
-89.39437117990836
 10
67.8229057990165
 20
-89.3413167094355
 10
67.8229057990165
 20
-89.28412812438036
 10
67.77639700996562
 20
-89.23968639262064
 10
67.71920842491048
 20
-89.23968639262064
 97
        0
 97
        0
 75
     2
 76
     1
 98
        0
  0
SPLINE
  5
ED
330
B8
100
AcDbEntity
  8
_U+30EC_U+30A4_U+30E4_U+30FC 1
370
     0
100
AcDbSpline
210
0.0
220
0.0
230
1.0
 70
    11
 71
     3
 72
    50
 73
    46
 74
     0
 42
0.0000000001
 43
0.0000000001
 12
1.0
 22
0.0
 32
0.0
 13
1.0
 23
0.0
 33
0.0
 40
0.0
 40
0.0
 40
0.0
 40
0.0
 40
1.0
 40
1.0
 40
1.0
 40
2.0
 40
2.0
 40
2.0
 40
3.0
 40
3.0
 40
3.0
 40
4.0
 40
4.0
 40
4.0
 40
5.0
 40
5.0
 40
5.0
 40
6.0
 40
6.0
 40
6.0
 40
7.0
 40
7.0
 40
7.0
 40
8.0
 40
8.0
 40
8.0
 40
9.0
 40
9.0
 40
9.0
 40
10.0
 40
10.0
 40
10.0
 40
11.0
 40
11.0
 40
11.0
 40
12.0
 40
12.0
 40
12.0
 40
13.0
 40
13.0
 40
13.0
 40
14.0
 40
14.0
 40
14.0
 40
15.0
 40
15.0
 40
15.0
 40
15.0
 10
69.51651473956532
 20
-90.0775336146334
 30
0.0
 10
69.43796656250163
 20
-90.25530054167228
 30
0.0
 10
69.3025743099313
 20
-90.46269528988434
 30
0.0
 10
69.16511500006983
 20
-90.60222165703695
 30
0.0
 10
68.99596081174407
 20
-90.77344290265387
 30
0.0
 10
68.83300779529175
 20
-90.8623263661733
 30
0.0
 10
68.51364744380909
 20
-91.0042643001656
 30
0.0
 10
68.51364744380909
 20
-91.0042643001656
 30
0.0
 10
68.34449325548333
 20
-90.81581757712244
 30
0.0
 10
68.34449325548333
 20
-90.81581757712244
 30
0.0
 10
68.53052841168682
 20
-90.79273543737126
 30
0.0
 10
68.70174965730374
 20
-90.70591903114297
 30
0.0
 10
68.8543673873003
 20
-90.60015459974579
 30
0.0
 10
69.11653915372781
 20
-90.4182535581246
 30
0.0
 10
69.30705293406213
 20
-90.1050943785154
 30
0.0
 10
69.35562878040415
 20
-89.9231933368942
 30
0.0
 10
69.35562878040415
 20
-89.9231933368942
 30
0.0
 10
68.68486868942601
 20
-89.9231933368942
 30
0.0
 10
68.68486868942601
 20
-89.9231933368942
 30
0.0
 10
68.52639429710452
 20
-89.9231933368942
 30
0.0
 10
68.23425019995533
 20
-89.9314615660588
 30
0.0
 10
68.08197697950729
 20
-89.94868704348505
 30
0.0
 10
68.08197697950729
 20
-89.94868704348505
 30
0.0
 10
68.08197697950729
 20
-89.71993270326446
 30
0.0
 10
68.08197697950729
 20
-89.71993270326446
 30
0.0
 10
68.11608342481126
 20
-89.72647838468644
 30
0.0
 10
68.14123262185359
 20
-89.73267955655989
 30
0.0
 10
68.19428709232643
 20
-89.73681367114219
 30
0.0
 10
68.29557289959277
 20
-89.74335935256417
 30
0.0
 10
68.49263236134907
 20
-89.74542640985531
 30
0.0
 10
68.57703720073769
 20
-89.74542640985531
 30
0.0
 10
68.57703720073769
 20
-89.74542640985531
 30
0.0
 10
69.08277721797236
 20
-89.74542640985531
 30
0.0
 10
69.08277721797236
 20
-89.74542640985531
 30
0.0
 10
69.15030108948326
 20
-89.74542640985531
 30
0.0
 10
69.29637313805786
 20
-89.74129229527301
 30
0.0
 10
69.3576958376953
 20
-89.73474661385104
 30
0.0
 10
69.42969833333703
 20
-89.72647838468644
 30
0.0
 10
69.45725909721902
 20
-89.71166447409986
 30
0.0
 10
69.49102103297447
 20
-89.68823782480017
 30
0.0
 10
69.49102103297447
 20
-89.68823782480017
 30
0.0
 10
69.65604110671794
 20
-89.85532495583479
 30
0.0
 10
69.65604110671794
 20
-89.85532495583479
 30
0.0
 10
69.58610566836737
 20
-89.9231933368942
 30
0.0
 10
69.53959687931649
 20
-90.02689071100022
 30
0.0
 10
69.51651473956532
 20
-90.0775336146334
 30
0.0
  0
SPLINE
  5
EE
330
B8
100
AcDbEntity
  8
_U+30EC_U+30A4_U+30E4_U+30FC 1
370
     0
100
AcDbSpline
210
0.0
220
0.0
230
1.0
 70
    11
 71
     3
 72
    29
 73
    25
 74
     0
 42
0.0000000001
 43
0.0000000001
 12
1.0
 22
0.0
 32
0.0
 13
1.0
 23
0.0
 33
0.0
 40
0.0
 40
0.0
 40
0.0
 40
0.0
 40
1.0
 40
1.0
 40
1.0
 40
2.0
 40
2.0
 40
2.0
 40
3.0
 40
3.0
 40
3.0
 40
4.0
 40
4.0
 40
4.0
 40
5.0
 40
5.0
 40
5.0
 40
6.0
 40
6.0
 40
6.0
 40
7.0
 40
7.0
 40
7.0
 40
8.0
 40
8.0
 40
8.0
 40
8.0
 10
69.02352157562606
 20
-89.4515597649635
 30
0.0
 10
69.02352157562606
 20
-89.4515597649635
 30
0.0
 10
68.68280163213485
 20
-89.4515597649635
 30
0.0
 10
68.68280163213485
 20
-89.4515597649635
 30
0.0
 10
68.56876897157309
 20
-89.4515597649635
 30
0.0
 10
68.45232474417165
 20
-89.4556938795458
 30
0.0
 10
68.33794757406135
 20
-89.47050779013237
 30
0.0
 10
68.33794757406135
 20
-89.47050779013237
 30
0.0
 10
68.33794757406135
 20
-89.26104598462919
 30
0.0
 10
68.33794757406135
 20
-89.26104598462919
 30
0.0
 10
68.45645885875395
 20
-89.27585989521576
 30
0.0
 10
68.63009167121054
 20
-89.27999400979806
 30
0.0
 10
68.68280163213485
 20
-89.27999400979806
 30
0.0
 10
68.68280163213485
 20
-89.27999400979806
 30
0.0
 10
69.02352157562606
 20
-89.27999400979806
 30
0.0
 10
69.02352157562606
 20
-89.27999400979806
 30
0.0
 10
69.13996580302751
 20
-89.27999400979806
 30
0.0
 10
69.25606552088043
 20
-89.27585989521576
 30
0.0
 10
69.37250974828187
 20
-89.26104598462919
 30
0.0
 10
69.37250974828187
 20
-89.26104598462919
 30
0.0
 10
69.37250974828187
 20
-89.47050779013237
 30
0.0
 10
69.37250974828187
 20
-89.47050779013237
 30
0.0
 10
69.22230358512498
 20
-89.4515597649635
 30
0.0
 10
69.03833548621265
 20
-89.4515597649635
 30
0.0
 10
69.02352157562606
 20
-89.4515597649635
 30
0.0
  0
HATCH
  5
EF
330
B8
100
AcDbEntity
  8
_U+30EC_U+30A4_U+30E4_U+30FC 1
 62
   179
420
  2234388
100
AcDbHatch
 10
0.0
 20
0.0
 30
0.0
210
0.0
220
0.0
230
1.0
  2
SOLID
 70
     1
 71
     0
 91
        2
 92
        1
 93
        1
 72
     4
 94
        3
 73
     0
 74
     1
 95
       50
 96
       46
 40
0.0
 40
0.0
 40
0.0
 40
0.0
 40
1.0
 40
1.0
 40
1.0
 40
2.0
 40
2.0
 40
2.0
 40
3.0
 40
3.0
 40
3.0
 40
4.0
 40
4.0
 40
4.0
 40
5.0
 40
5.0
 40
5.0
 40
6.0
 40
6.0
 40
6.0
 40
7.0
 40
7.0
 40
7.0
 40
8.0
 40
8.0
 40
8.0
 40
9.0
 40
9.0
 40
9.0
 40
10.0
 40
10.0
 40
10.0
 40
11.0
 40
11.0
 40
11.0
 40
12.0
 40
12.0
 40
12.0
 40
13.0
 40
13.0
 40
13.0
 40
14.0
 40
14.0
 40
14.0
 40
15.0
 40
15.0
 40
15.0
 40
15.0
 10
69.51651473956532
 20
-90.0775336146334
 10
69.43796656250163
 20
-90.25530054167228
 10
69.3025743099313
 20
-90.46269528988434
 10
69.16511500006983
 20
-90.60222165703695
 10
68.99596081174407
 20
-90.77344290265387
 10
68.83300779529175
 20
-90.8623263661733
 10
68.51364744380909
 20
-91.0042643001656
 10
68.51364744380909
 20
-91.0042643001656
 10
68.34449325548333
 20
-90.81581757712244
 10
68.34449325548333
 20
-90.81581757712244
 10
68.53052841168682
 20
-90.79273543737126
 10
68.70174965730374
 20
-90.70591903114297
 10
68.8543673873003
 20
-90.60015459974579
 10
69.11653915372781
 20
-90.4182535581246
 10
69.30705293406213
 20
-90.1050943785154
 10
69.35562878040415
 20
-89.9231933368942
 10
69.35562878040415
 20
-89.9231933368942
 10
68.68486868942601
 20
-89.9231933368942
 10
68.68486868942601
 20
-89.9231933368942
 10
68.52639429710452
 20
-89.9231933368942
 10
68.23425019995533
 20
-89.9314615660588
 10
68.08197697950729
 20
-89.94868704348505
 10
68.08197697950729
 20
-89.94868704348505
 10
68.08197697950729
 20
-89.71993270326446
 10
68.08197697950729
 20
-89.71993270326446
 10
68.11608342481126
 20
-89.72647838468644
 10
68.14123262185359
 20
-89.73267955655989
 10
68.19428709232643
 20
-89.73681367114219
 10
68.29557289959277
 20
-89.74335935256417
 10
68.49263236134907
 20
-89.74542640985531
 10
68.57703720073769
 20
-89.74542640985531
 10
68.57703720073769
 20
-89.74542640985531
 10
69.08277721797236
 20
-89.74542640985531
 10
69.08277721797236
 20
-89.74542640985531
 10
69.15030108948326
 20
-89.74542640985531
 10
69.29637313805786
 20
-89.74129229527301
 10
69.3576958376953
 20
-89.73474661385104
 10
69.42969833333703
 20
-89.72647838468644
 10
69.45725909721902
 20
-89.71166447409986
 10
69.49102103297447
 20
-89.68823782480017
 10
69.49102103297447
 20
-89.68823782480017
 10
69.65604110671794
 20
-89.85532495583479
 10
69.65604110671794
 20
-89.85532495583479
 10
69.58610566836737
 20
-89.9231933368942
 10
69.53959687931649
 20
-90.02689071100022
 10
69.51651473956532
 20
-90.0775336146334
 97
        0
 97
        0
 92
        1
 93
        1
 72
     4
 94
        3
 73
     0
 74
     1
 95
       29
 96
       25
 40
0.0
 40
0.0
 40
0.0
 40
0.0
 40
1.0
 40
1.0
 40
1.0
 40
2.0
 40
2.0
 40
2.0
 40
3.0
 40
3.0
 40
3.0
 40
4.0
 40
4.0
 40
4.0
 40
5.0
 40
5.0
 40
5.0
 40
6.0
 40
6.0
 40
6.0
 40
7.0
 40
7.0
 40
7.0
 40
8.0
 40
8.0
 40
8.0
 40
8.0
 10
69.02352157562606
 20
-89.4515597649635
 10
69.02352157562606
 20
-89.4515597649635
 10
68.68280163213485
 20
-89.4515597649635
 10
68.68280163213485
 20
-89.4515597649635
 10
68.56876897157309
 20
-89.4515597649635
 10
68.45232474417165
 20
-89.4556938795458
 10
68.33794757406135
 20
-89.47050779013237
 10
68.33794757406135
 20
-89.47050779013237
 10
68.33794757406135
 20
-89.26104598462919
 10
68.33794757406135
 20
-89.26104598462919
 10
68.45645885875395
 20
-89.27585989521576
 10
68.63009167121054
 20
-89.27999400979806
 10
68.68280163213485
 20
-89.27999400979806
 10
68.68280163213485
 20
-89.27999400979806
 10
69.02352157562606
 20
-89.27999400979806
 10
69.02352157562606
 20
-89.27999400979806
 10
69.13996580302751
 20
-89.27999400979806
 10
69.25606552088043
 20
-89.27585989521576
 10
69.37250974828187
 20
-89.26104598462919
 10
69.37250974828187
 20
-89.26104598462919
 10
69.37250974828187
 20
-89.47050779013237
 10
69.37250974828187
 20
-89.47050779013237
 10
69.22230358512498
 20
-89.4515597649635
 10
69.03833548621265
 20
-89.4515597649635
 10
69.02352157562606
 20
-89.4515597649635
 97
        0
 97
        0
 75
     2
 76
     1
 98
        0
  0
SPLINE
  5
F0
330
B8
100
AcDbEntity
  8
_U+30EC_U+30A4_U+30E4_U+30FC 1
370
     0
100
AcDbSpline
210
0.0
220
0.0
230
1.0
 70
    11
 71
     3
 72
    50
 73
    46
 74
     0
 42
0.0000000001
 43
0.0000000001
 12
1.0
 22
0.0
 32
0.0
 13
1.0
 23
0.0
 33
0.0
 40
0.0
 40
0.0
 40
0.0
 40
0.0
 40
1.0
 40
1.0
 40
1.0
 40
2.0
 40
2.0
 40
2.0
 40
3.0
 40
3.0
 40
3.0
 40
4.0
 40
4.0
 40
4.0
 40
5.0
 40
5.0
 40
5.0
 40
6.0
 40
6.0
 40
6.0
 40
7.0
 40
7.0
 40
7.0
 40
8.0
 40
8.0
 40
8.0
 40
9.0
 40
9.0
 40
9.0
 40
10.0
 40
10.0
 40
10.0
 40
11.0
 40
11.0
 40
11.0
 40
12.0
 40
12.0
 40
12.0
 40
13.0
 40
13.0
 40
13.0
 40
14.0
 40
14.0
 40
14.0
 40
15.0
 40
15.0
 40
15.0
 40
15.0
 10
71.22666013844334
 20
-89.43674585437692
 30
0.0
 10
71.01719833294015
 20
-89.65034177446242
 30
0.0
 10
70.94554034684695
 20
-89.72234427010414
 30
0.0
 10
70.80360241285466
 20
-89.8405110452482
 30
0.0
 10
70.80360241285466
 20
-89.8405110452482
 30
0.0
 10
70.80360241285466
 20
-90.40757376212034
 30
0.0
 10
70.80360241285466
 20
-90.40757376212034
 30
0.0
 10
70.80360241285466
 20
-90.55777992527723
 30
0.0
 10
70.81014809427663
 20
-90.5767279504461
 30
0.0
 10
70.81428220885893
 20
-90.75449487748499
 30
0.0
 10
70.81634926615008
 20
-90.88575301547301
 30
0.0
 10
70.82255043802353
 20
-90.93432886181503
 30
0.0
 10
70.82909611944551
 20
-90.99358450416133
 30
0.0
 10
70.82909611944551
 20
-90.99358450416133
 30
0.0
 10
70.60275334606459
 20
-90.99358450416133
 30
0.0
 10
70.60275334606459
 20
-90.99358450416133
 30
0.0
 10
70.60688746064689
 20
-90.9491427724016
 30
0.0
 10
70.61102157522919
 20
-90.90263398335074
 30
0.0
 10
70.61102157522919
 20
-90.89402124463761
 30
0.0
 10
70.61102157522919
 20
-90.81375051983129
 30
0.0
 10
70.61550019936001
 20
-90.46269528988434
 30
0.0
 10
70.61550019936001
 20
-90.39069279424261
 30
0.0
 10
70.61550019936001
 20
-90.39069279424261
 30
0.0
 10
70.61550019936001
 20
-89.98451603653166
 30
0.0
 10
70.61550019936001
 20
-89.98451603653166
 30
0.0
 10
70.43359915773883
 20
-90.1092284930977
 30
0.0
 10
70.23895126282221
 20
-90.21947154862569
 30
0.0
 10
70.03569062919247
 20
-90.30594344530546
 30
0.0
 10
70.03569062919247
 20
-90.30594344530546
 30
0.0
 10
69.83277450511126
 20
-90.14299042885314
 30
0.0
 10
69.83277450511126
 20
-90.14299042885314
 30
0.0
 10
69.95541990438615
 20
-90.10716143580655
 30
0.0
 10
70.2113904989402
 20
-90.03309188287368
 30
0.0
 10
70.55624455701371
 20
-89.7771212883196
 30
0.0
 10
70.77190753439037
 20
-89.61864689599813
 30
0.0
 10
70.96448837201582
 20
-89.43020017295495
 30
0.0
 10
71.11676159246387
 20
-89.21005857144749
 30
0.0
 10
71.11676159246387
 20
-89.21005857144749
 30
0.0
 10
71.30934243008933
 20
-89.35406356273093
 30
0.0
 10
71.30934243008933
 20
-89.35406356273093
 30
0.0
 10
71.32208928338476
 20
-89.36474335873521
 30
0.0
 10
71.33035751254936
 20
-89.37955726932178
 30
0.0
 10
71.33035751254936
 20
-89.3923041226172
 30
0.0
 10
71.33035751254936
 20
-89.4322672302461
 30
0.0
 10
71.2924614622116
 20
-89.4322672302461
 30
0.0
 10
71.22666013844334
 20
-89.43674585437692
 30
0.0
  0
HATCH
  5
F1
330
B8
100
AcDbEntity
  8
_U+30EC_U+30A4_U+30E4_U+30FC 1
 62
   179
420
  2234388
100
AcDbHatch
 10
0.0
 20
0.0
 30
0.0
210
0.0
220
0.0
230
1.0
  2
SOLID
 70
     1
 71
     0
 91
        1
 92
        1
 93
        1
 72
     4
 94
        3
 73
     0
 74
     1
 95
       50
 96
       46
 40
0.0
 40
0.0
 40
0.0
 40
0.0
 40
1.0
 40
1.0
 40
1.0
 40
2.0
 40
2.0
 40
2.0
 40
3.0
 40
3.0
 40
3.0
 40
4.0
 40
4.0
 40
4.0
 40
5.0
 40
5.0
 40
5.0
 40
6.0
 40
6.0
 40
6.0
 40
7.0
 40
7.0
 40
7.0
 40
8.0
 40
8.0
 40
8.0
 40
9.0
 40
9.0
 40
9.0
 40
10.0
 40
10.0
 40
10.0
 40
11.0
 40
11.0
 40
11.0
 40
12.0
 40
12.0
 40
12.0
 40
13.0
 40
13.0
 40
13.0
 40
14.0
 40
14.0
 40
14.0
 40
15.0
 40
15.0
 40
15.0
 40
15.0
 10
71.22666013844334
 20
-89.43674585437692
 10
71.01719833294015
 20
-89.65034177446242
 10
70.94554034684695
 20
-89.72234427010414
 10
70.80360241285466
 20
-89.8405110452482
 10
70.80360241285466
 20
-89.8405110452482
 10
70.80360241285466
 20
-90.40757376212034
 10
70.80360241285466
 20
-90.40757376212034
 10
70.80360241285466
 20
-90.55777992527723
 10
70.81014809427663
 20
-90.5767279504461
 10
70.81428220885893
 20
-90.75449487748499
 10
70.81634926615008
 20
-90.88575301547301
 10
70.82255043802353
 20
-90.93432886181503
 10
70.82909611944551
 20
-90.99358450416133
 10
70.82909611944551
 20
-90.99358450416133
 10
70.60275334606459
 20
-90.99358450416133
 10
70.60275334606459
 20
-90.99358450416133
 10
70.60688746064689
 20
-90.9491427724016
 10
70.61102157522919
 20
-90.90263398335074
 10
70.61102157522919
 20
-90.89402124463761
 10
70.61102157522919
 20
-90.81375051983129
 10
70.61550019936001
 20
-90.46269528988434
 10
70.61550019936001
 20
-90.39069279424261
 10
70.61550019936001
 20
-90.39069279424261
 10
70.61550019936001
 20
-89.98451603653166
 10
70.61550019936001
 20
-89.98451603653166
 10
70.43359915773883
 20
-90.1092284930977
 10
70.23895126282221
 20
-90.21947154862569
 10
70.03569062919247
 20
-90.30594344530546
 10
70.03569062919247
 20
-90.30594344530546
 10
69.83277450511126
 20
-90.14299042885314
 10
69.83277450511126
 20
-90.14299042885314
 10
69.95541990438615
 20
-90.10716143580655
 10
70.2113904989402
 20
-90.03309188287368
 10
70.55624455701371
 20
-89.7771212883196
 10
70.77190753439037
 20
-89.61864689599813
 10
70.96448837201582
 20
-89.43020017295495
 10
71.11676159246387
 20
-89.21005857144749
 10
71.11676159246387
 20
-89.21005857144749
 10
71.30934243008933
 20
-89.35406356273093
 10
71.30934243008933
 20
-89.35406356273093
 10
71.32208928338476
 20
-89.36474335873521
 10
71.33035751254936
 20
-89.37955726932178
 10
71.33035751254936
 20
-89.3923041226172
 10
71.33035751254936
 20
-89.4322672302461
 10
71.2924614622116
 20
-89.4322672302461
 10
71.22666013844334
 20
-89.43674585437692
 97
        0
 97
        0
 75
     2
 76
     1
 98
        0
  0
SPLINE
  5
F2
330
B8
100
AcDbEntity
  8
_U+30EC_U+30A4_U+30E4_U+30FC 1
370
     0
100
AcDbSpline
210
0.0
220
0.0
230
1.0
 70
    11
 71
     3
 72
    50
 73
    46
 74
     0
 42
0.0000000001
 43
0.0000000001
 12
1.0
 22
0.0
 32
0.0
 13
1.0
 23
0.0
 33
0.0
 40
0.0
 40
0.0
 40
0.0
 40
0.0
 40
1.0
 40
1.0
 40
1.0
 40
2.0
 40
2.0
 40
2.0
 40
3.0
 40
3.0
 40
3.0
 40
4.0
 40
4.0
 40
4.0
 40
5.0
 40
5.0
 40
5.0
 40
6.0
 40
6.0
 40
6.0
 40
7.0
 40
7.0
 40
7.0
 40
8.0
 40
8.0
 40
8.0
 40
9.0
 40
9.0
 40
9.0
 40
10.0
 40
10.0
 40
10.0
 40
11.0
 40
11.0
 40
11.0
 40
12.0
 40
12.0
 40
12.0
 40
13.0
 40
13.0
 40
13.0
 40
14.0
 40
14.0
 40
14.0
 40
15.0
 40
15.0
 40
15.0
 40
15.0
 10
72.93508298957873
 20
-89.96350095407163
 30
0.0
 10
72.87376028994129
 20
-90.03515894016482
 30
0.0
 10
72.6133110712564
 20
-90.35245223435633
 30
0.0
 10
72.55646699574977
 20
-90.41618650083346
 30
0.0
 10
72.6408718351384
 20
-90.5133381935175
 30
0.0
 10
72.6918592483201
 20
-90.5767279504461
 30
0.0
 10
72.75731606253984
 20
-90.66767847125669
 30
0.0
 10
72.75731606253984
 20
-90.66767847125669
 30
0.0
 10
72.5733479636275
 20
-90.80548229066669
 30
0.0
 10
72.5733479636275
 20
-90.80548229066669
 30
0.0
 10
72.43795571105719
 20
-90.59360891832382
 30
0.0
 10
72.26638995589174
 20
-90.36967771178259
 30
0.0
 10
71.97252331099993
 20
-90.17055119273515
 30
0.0
 10
71.97252331099993
 20
-90.17055119273515
 30
0.0
 10
72.12066241686567
 20
-90.01621091499595
 30
0.0
 10
72.12066241686567
 20
-90.01621091499595
 30
0.0
 10
72.23056096284515
 20
-90.09648163980228
 30
0.0
 10
72.33425833695117
 20
-90.18536510332171
 30
0.0
 10
72.4314100296352
 20
-90.28079424826313
 30
0.0
 10
72.49927841069463
 20
-90.20465763803912
 30
0.0
 10
72.70219453477584
 20
-89.96108938723195
 30
0.0
 10
72.83551973005501
 20
-89.73267955655989
 30
0.0
 10
72.83551973005501
 20
-89.73267955655989
 30
0.0
 10
72.16269258178572
 20
-89.73267955655989
 30
0.0
 10
72.16269258178572
 20
-89.73267955655989
 30
0.0
 10
72.03798012521968
 20
-89.73267955655989
 30
0.0
 10
71.78614364524792
 20
-89.74129229527301
 30
0.0
 10
71.57668183974472
 20
-89.75162758172877
 30
0.0
 10
71.57668183974472
 20
-89.75162758172877
 30
0.0
 10
71.57668183974472
 20
-89.53183048976983
 30
0.0
 10
71.57668183974472
 20
-89.53183048976983
 30
0.0
 10
71.7609944482056
 20
-89.5507785149387
 30
0.0
 10
71.96597762957795
 20
-89.554912629521
 30
0.0
 10
72.15442435262112
 20
-89.554912629521
 30
0.0
 10
72.15442435262112
 20
-89.554912629521
 30
0.0
 10
72.65775280301612
 20
-89.554912629521
 30
0.0
 10
72.65775280301612
 20
-89.554912629521
 30
0.0
 10
72.99640568921618
 20
-89.554912629521
 30
0.0
 10
73.04084742097591
 20
-89.54009871893443
 30
0.0
 10
73.12318520307338
 20
-89.50013561130552
 30
0.0
 10
73.12318520307338
 20
-89.50013561130552
 30
0.0
 10
73.290272334108
 20
-89.65861000362702
 30
0.0
 10
73.290272334108
 20
-89.65861000362702
 30
0.0
 10
73.13799911365994
 20
-89.73061249926874
 30
0.0
 10
72.99433863192503
 20
-89.89356551572105
 30
0.0
 10
72.93508298957873
 20
-89.96350095407163
 30
0.0
  0
HATCH
  5
F3
330
B8
100
AcDbEntity
  8
_U+30EC_U+30A4_U+30E4_U+30FC 1
 62
   179
420
  2234388
100
AcDbHatch
 10
0.0
 20
0.0
 30
0.0
210
0.0
220
0.0
230
1.0
  2
SOLID
 70
     1
 71
     0
 91
        1
 92
        1
 93
        1
 72
     4
 94
        3
 73
     0
 74
     1
 95
       50
 96
       46
 40
0.0
 40
0.0
 40
0.0
 40
0.0
 40
1.0
 40
1.0
 40
1.0
 40
2.0
 40
2.0
 40
2.0
 40
3.0
 40
3.0
 40
3.0
 40
4.0
 40
4.0
 40
4.0
 40
5.0
 40
5.0
 40
5.0
 40
6.0
 40
6.0
 40
6.0
 40
7.0
 40
7.0
 40
7.0
 40
8.0
 40
8.0
 40
8.0
 40
9.0
 40
9.0
 40
9.0
 40
10.0
 40
10.0
 40
10.0
 40
11.0
 40
11.0
 40
11.0
 40
12.0
 40
12.0
 40
12.0
 40
13.0
 40
13.0
 40
13.0
 40
14.0
 40
14.0
 40
14.0
 40
15.0
 40
15.0
 40
15.0
 40
15.0
 10
72.93508298957873
 20
-89.96350095407163
 10
72.87376028994129
 20
-90.03515894016482
 10
72.6133110712564
 20
-90.35245223435633
 10
72.55646699574977
 20
-90.41618650083346
 10
72.6408718351384
 20
-90.5133381935175
 10
72.6918592483201
 20
-90.5767279504461
 10
72.75731606253984
 20
-90.66767847125669
 10
72.75731606253984
 20
-90.66767847125669
 10
72.5733479636275
 20
-90.80548229066669
 10
72.5733479636275
 20
-90.80548229066669
 10
72.43795571105719
 20
-90.59360891832382
 10
72.26638995589174
 20
-90.36967771178259
 10
71.97252331099993
 20
-90.17055119273515
 10
71.97252331099993
 20
-90.17055119273515
 10
72.12066241686567
 20
-90.01621091499595
 10
72.12066241686567
 20
-90.01621091499595
 10
72.23056096284515
 20
-90.09648163980228
 10
72.33425833695117
 20
-90.18536510332171
 10
72.4314100296352
 20
-90.28079424826313
 10
72.49927841069463
 20
-90.20465763803912
 10
72.70219453477584
 20
-89.96108938723195
 10
72.83551973005501
 20
-89.73267955655989
 10
72.83551973005501
 20
-89.73267955655989
 10
72.16269258178572
 20
-89.73267955655989
 10
72.16269258178572
 20
-89.73267955655989
 10
72.03798012521968
 20
-89.73267955655989
 10
71.78614364524792
 20
-89.74129229527301
 10
71.57668183974472
 20
-89.75162758172877
 10
71.57668183974472
 20
-89.75162758172877
 10
71.57668183974472
 20
-89.53183048976983
 10
71.57668183974472
 20
-89.53183048976983
 10
71.7609944482056
 20
-89.5507785149387
 10
71.96597762957795
 20
-89.554912629521
 10
72.15442435262112
 20
-89.554912629521
 10
72.15442435262112
 20
-89.554912629521
 10
72.65775280301612
 20
-89.554912629521
 10
72.65775280301612
 20
-89.554912629521
 10
72.99640568921618
 20
-89.554912629521
 10
73.04084742097591
 20
-89.54009871893443
 10
73.12318520307338
 20
-89.50013561130552
 10
73.12318520307338
 20
-89.50013561130552
 10
73.290272334108
 20
-89.65861000362702
 10
73.290272334108
 20
-89.65861000362702
 10
73.13799911365994
 20
-89.73061249926874
 10
72.99433863192503
 20
-89.89356551572105
 10
72.93508298957873
 20
-89.96350095407163
 97
        0
 97
        0
 75
     2
 76
     1
 98
        0
  0
SPLINE
  5
F4
330
B8
100
AcDbEntity
  8
_U+30EC_U+30A4_U+30E4_U+30FC 1
370
     0
100
AcDbSpline
210
0.0
220
0.0
230
1.0
 70
    11
 71
     3
 72
    29
 73
    25
 74
     0
 42
0.0000000001
 43
0.0000000001
 12
1.0
 22
0.0
 32
0.0
 13
1.0
 23
0.0
 33
0.0
 40
0.0
 40
0.0
 40
0.0
 40
0.0
 40
1.0
 40
1.0
 40
1.0
 40
2.0
 40
2.0
 40
2.0
 40
3.0
 40
3.0
 40
3.0
 40
4.0
 40
4.0
 40
4.0
 40
5.0
 40
5.0
 40
5.0
 40
6.0
 40
6.0
 40
6.0
 40
7.0
 40
7.0
 40
7.0
 40
8.0
 40
8.0
 40
8.0
 40
8.0
 10
74.55875649177698
 20
-90.20672469533027
 30
0.0
 10
74.55875649177698
 20
-90.20672469533027
 30
0.0
 10
74.07437606655085
 20
-90.20672469533027
 30
0.0
 10
74.07437606655085
 20
-90.20672469533027
 30
0.0
 10
74.04681530266886
 20
-90.20672469533027
 30
0.0
 10
73.72952200847735
 20
-90.20672469533027
 30
0.0
 10
73.51799314568301
 20
-90.23187389237259
 30
0.0
 10
73.51799314568301
 20
-90.23187389237259
 30
0.0
 10
73.51799314568301
 20
-90.00139700440938
 30
0.0
 10
73.51799314568301
 20
-90.00139700440938
 30
0.0
 10
73.6764675380045
 20
-90.02482365370908
 30
0.0
 10
73.86698131833882
 20
-90.02689071100022
 30
0.0
 10
74.07437606655085
 20
-90.02689071100022
 30
0.0
 10
74.07437606655085
 20
-90.02689071100022
 30
0.0
 10
74.55875649177698
 20
-90.02689071100022
 30
0.0
 10
74.55875649177698
 20
-90.02689071100022
 30
0.0
 10
74.74479164798048
 20
-90.02689071100022
 30
0.0
 10
74.93117131373249
 20
-90.02482365370908
 30
0.0
 10
75.11513941264484
 20
-90.00139700440938
 30
0.0
 10
75.11513941264484
 20
-90.00139700440938
 30
0.0
 10
75.11513941264484
 20
-90.23187389237259
 30
0.0
 10
75.11513941264484
 20
-90.23187389237259
 30
0.0
 10
74.93117131373249
 20
-90.20879175262142
 30
0.0
 10
74.68346894834302
 20
-90.20672469533027
 30
0.0
 10
74.55875649177698
 20
-90.20672469533027
 30
0.0
  0
HATCH
  5
F5
330
B8
100
AcDbEntity
  8
_U+30EC_U+30A4_U+30E4_U+30FC 1
 62
   179
420
  2234388
100
AcDbHatch
 10
0.0
 20
0.0
 30
0.0
210
0.0
220
0.0
230
1.0
  2
SOLID
 70
     1
 71
     0
 91
        1
 92
        1
 93
        1
 72
     4
 94
        3
 73
     0
 74
     1
 95
       29
 96
       25
 40
0.0
 40
0.0
 40
0.0
 40
0.0
 40
1.0
 40
1.0
 40
1.0
 40
2.0
 40
2.0
 40
2.0
 40
3.0
 40
3.0
 40
3.0
 40
4.0
 40
4.0
 40
4.0
 40
5.0
 40
5.0
 40
5.0
 40
6.0
 40
6.0
 40
6.0
 40
7.0
 40
7.0
 40
7.0
 40
8.0
 40
8.0
 40
8.0
 40
8.0
 10
74.55875649177698
 20
-90.20672469533027
 10
74.55875649177698
 20
-90.20672469533027
 10
74.07437606655085
 20
-90.20672469533027
 10
74.07437606655085
 20
-90.20672469533027
 10
74.04681530266886
 20
-90.20672469533027
 10
73.72952200847735
 20
-90.20672469533027
 10
73.51799314568301
 20
-90.23187389237259
 10
73.51799314568301
 20
-90.23187389237259
 10
73.51799314568301
 20
-90.00139700440938
 10
73.51799314568301
 20
-90.00139700440938
 10
73.6764675380045
 20
-90.02482365370908
 10
73.86698131833882
 20
-90.02689071100022
 10
74.07437606655085
 20
-90.02689071100022
 10
74.07437606655085
 20
-90.02689071100022
 10
74.55875649177698
 20
-90.02689071100022
 10
74.55875649177698
 20
-90.02689071100022
 10
74.74479164798048
 20
-90.02689071100022
 10
74.93117131373249
 20
-90.02482365370908
 10
75.11513941264484
 20
-90.00139700440938
 10
75.11513941264484
 20
-90.00139700440938
 10
75.11513941264484
 20
-90.23187389237259
 10
75.11513941264484
 20
-90.23187389237259
 10
74.93117131373249
 20
-90.20879175262142
 10
74.68346894834302
 20
-90.20672469533027
 10
74.55875649177698
 20
-90.20672469533027
 97
        0
 97
        0
 75
     2
 76
     1
 98
        0
  0
SPLINE
  5
F6
330
B8
100
AcDbEntity
  8
_U+30EC_U+30A4_U+30E4_U+30FC 1
370
     0
100
AcDbSpline
210
0.0
220
0.0
230
1.0
 70
    11
 71
     3
 72
    53
 73
    49
 74
     0
 42
0.0000000001
 43
0.0000000001
 12
1.0
 22
0.0
 32
0.0
 13
1.0
 23
0.0
 33
0.0
 40
0.0
 40
0.0
 40
0.0
 40
0.0
 40
1.0
 40
1.0
 40
1.0
 40
2.0
 40
2.0
 40
2.0
 40
3.0
 40
3.0
 40
3.0
 40
4.0
 40
4.0
 40
4.0
 40
5.0
 40
5.0
 40
5.0
 40
6.0
 40
6.0
 40
6.0
 40
7.0
 40
7.0
 40
7.0
 40
8.0
 40
8.0
 40
8.0
 40
9.0
 40
9.0
 40
9.0
 40
10.0
 40
10.0
 40
10.0
 40
11.0
 40
11.0
 40
11.0
 40
12.0
 40
12.0
 40
12.0
 40
13.0
 40
13.0
 40
13.0
 40
14.0
 40
14.0
 40
14.0
 40
15.0
 40
15.0
 40
15.0
 40
16.0
 40
16.0
 40
16.0
 40
16.0
 10
75.97710230305434
 20
-89.3330484802709
 30
0.0
 10
75.90957843154344
 20
-89.48532170071896
 30
0.0
 10
75.86720375707488
 20
-89.56352536823412
 30
0.0
 10
75.8289631971886
 20
-89.63104923974502
 30
0.0
 10
75.87133787165718
 20
-89.65240883175356
 30
0.0
 10
75.87547198623948
 20
-89.65447588904472
 30
0.0
 10
75.87547198623948
 20
-89.66928979963129
 30
0.0
 10
75.87547198623948
 20
-89.68203665292671
 30
0.0
 10
75.84171005048402
 20
-89.71579858868216
 30
0.0
 10
75.83103025447974
 20
-89.72441132739529
 30
0.0
 10
75.8289631971886
 20
-89.92112627960306
 30
0.0
 10
75.8289631971886
 20
-89.94214136206308
 30
0.0
 10
75.8289631971886
 20
-90.07546655734225
 30
0.0
 10
75.82689613989744
 20
-90.08821341063768
 30
0.0
 10
75.82689613989744
 20
-90.10302732122425
 30
0.0
 10
75.82689613989744
 20
-90.11784123181083
 30
0.0
 10
75.82689613989744
 20
-90.11784123181083
 30
0.0
 10
75.82689613989744
 20
-90.65286456067012
 30
0.0
 10
75.82689613989744
 20
-90.65286456067012
 30
0.0
 10
75.82689613989744
 20
-90.72486705631184
 30
0.0
 10
75.83103025447974
 20
-90.95982256840588
 30
0.0
 10
75.83964299319287
 20
-91.06972111438535
 30
0.0
 10
75.83964299319287
 20
-91.06972111438535
 30
0.0
 10
75.59641925193424
 20
-91.06972111438535
 30
0.0
 10
75.59641925193424
 20
-91.06972111438535
 30
0.0
 10
75.6195013916854
 20
-90.91124672206386
 30
0.0
 10
75.62604707310739
 20
-90.67009003809638
 30
0.0
 10
75.62604707310739
 20
-90.64873044608782
 30
0.0
 10
75.62604707310739
 20
-90.64873044608782
 30
0.0
 10
75.62604707310739
 20
-89.9314615660588
 30
0.0
 10
75.62604707310739
 20
-89.9314615660588
 30
0.0
 10
75.53509655229678
 20
-90.0458387361691
 30
0.0
 10
75.47377385265933
 20
-90.1050943785154
 30
0.0
 10
75.43139917819076
 20
-90.14746905298396
 30
0.0
 10
75.43139917819076
 20
-90.14746905298396
 30
0.0
 10
75.24088539785645
 20
-90.0100097431225
 30
0.0
 10
75.24088539785645
 20
-90.0100097431225
 30
0.0
 10
75.52234969900137
 20
-89.79400225619733
 30
0.0
 10
75.71493053662682
 20
-89.48532170071896
 30
0.0
 10
75.82689613989744
 20
-89.14873587181005
 30
0.0
 10
75.82689613989744
 20
-89.14873587181005
 30
0.0
 10
76.0470377414049
 20
-89.26311304192033
 30
0.0
 10
76.0470377414049
 20
-89.26311304192033
 30
0.0
 10
76.05978459470033
 20
-89.26931421379379
 30
0.0
 10
76.06805282386493
 20
-89.27379283792462
 30
0.0
 10
76.06805282386493
 20
-89.28860674851119
 30
0.0
 10
76.06805282386493
 20
-89.31375594555351
 30
0.0
 10
76.0511718559872
 20
-89.31823456968434
 30
0.0
 10
75.97710230305434
 20
-89.3330484802709
 30
0.0
  0
SPLINE
  5
F7
330
B8
100
AcDbEntity
  8
_U+30EC_U+30A4_U+30E4_U+30FC 1
370
     0
100
AcDbSpline
210
0.0
220
0.0
230
1.0
 70
    11
 71
     3
 72
    77
 73
    73
 74
     0
 42
0.0000000001
 43
0.0000000001
 12
1.0
 22
0.0
 32
0.0
 13
1.0
 23
0.0
 33
0.0
 40
0.0
 40
0.0
 40
0.0
 40
0.0
 40
1.0
 40
1.0
 40
1.0
 40
2.0
 40
2.0
 40
2.0
 40
3.0
 40
3.0
 40
3.0
 40
4.0
 40
4.0
 40
4.0
 40
5.0
 40
5.0
 40
5.0
 40
6.0
 40
6.0
 40
6.0
 40
7.0
 40
7.0
 40
7.0
 40
8.0
 40
8.0
 40
8.0
 40
9.0
 40
9.0
 40
9.0
 40
10.0
 40
10.0
 40
10.0
 40
11.0
 40
11.0
 40
11.0
 40
12.0
 40
12.0
 40
12.0
 40
13.0
 40
13.0
 40
13.0
 40
14.0
 40
14.0
 40
14.0
 40
15.0
 40
15.0
 40
15.0
 40
16.0
 40
16.0
 40
16.0
 40
17.0
 40
17.0
 40
17.0
 40
18.0
 40
18.0
 40
18.0
 40
19.0
 40
19.0
 40
19.0
 40
20.0
 40
20.0
 40
20.0
 40
21.0
 40
21.0
 40
21.0
 40
22.0
 40
22.0
 40
22.0
 40
23.0
 40
23.0
 40
23.0
 40
24.0
 40
24.0
 40
24.0
 40
24.0
 10
77.12810870467631
 20
-89.8322428160836
 30
0.0
 10
77.05817326632574
 20
-89.82810870150131
 30
0.0
 10
76.99030488526631
 20
-89.82810870150131
 30
0.0
 10
76.92278101375543
 20
-89.82810870150131
 30
0.0
 10
76.92278101375543
 20
-89.82810870150131
 30
0.0
 10
76.92278101375543
 20
-90.60222165703695
 30
0.0
 10
76.92278101375543
 20
-90.60222165703695
 30
0.0
 10
76.92278101375543
 20
-90.86680499030413
 30
0.0
 10
76.92071395646427
 20
-90.89643281147728
 30
0.0
 10
76.9141682750423
 20
-90.92606063265043
 30
0.0
 10
76.88040633928685
 20
-91.05904131838108
 30
0.0
 10
76.77877602247197
 20
-91.0676540570942
 30
0.0
 10
76.60342066227275
 20
-91.0676540570942
 30
0.0
 10
76.56311304509533
 20
-91.0676540570942
 30
0.0
 10
76.54623207721761
 20
-91.0676540570942
 30
0.0
 10
76.50592446004019
 20
-91.0635199425119
 30
0.0
 10
76.50592446004019
 20
-91.0635199425119
 30
0.0
 10
76.38121200347415
 20
-90.82236325854441
 30
0.0
 10
76.38121200347415
 20
-90.82236325854441
 30
0.0
 10
76.49765623087559
 20
-90.8540581370087
 30
0.0
 10
76.57999401297306
 20
-90.8540581370087
 30
0.0
 10
76.60342066227275
 20
-90.8540581370087
 30
0.0
 10
76.67301159107481
 20
-90.8540581370087
 30
0.0
 10
76.70711803637877
 20
-90.83717716913098
 30
0.0
 10
76.71125215096107
 20
-90.77998858407584
 30
0.0
 10
76.71125215096107
 20
-90.76724173078041
 30
0.0
 10
76.71331920825223
 20
-90.67009003809638
 30
0.0
 10
76.71331920825223
 20
-90.61290145304122
 30
0.0
 10
76.71331920825223
 20
-90.61290145304122
 30
0.0
 10
76.71331920825223
 20
-89.82569713466164
 30
0.0
 10
76.71331920825223
 20
-89.82569713466164
 30
0.0
 10
76.71331920825223
 20
-89.82569713466164
 30
0.0
 10
76.4191080538119
 20
-89.82569713466164
 30
0.0
 10
76.4191080538119
 20
-89.82569713466164
 30
0.0
 10
76.27338051478583
 20
-89.82569713466164
 30
0.0
 10
76.12730846621123
 20
-89.8322428160836
 30
0.0
 10
75.98364798447632
 20
-89.84498966937903
 30
0.0
 10
75.98364798447632
 20
-89.84498966937903
 30
0.0
 10
75.98364798447632
 20
-89.637594921167
 30
0.0
 10
75.98364798447632
 20
-89.637594921167
 30
0.0
 10
76.13350963808467
 20
-89.65034177446242
 30
0.0
 10
76.351584182301
 20
-89.65447588904472
 30
0.0
 10
76.4191080538119
 20
-89.65447588904472
 30
0.0
 10
76.4191080538119
 20
-89.65447588904472
 30
0.0
 10
76.71331920825223
 20
-89.65447588904472
 30
0.0
 10
76.71331920825223
 20
-89.65447588904472
 30
0.0
 10
76.71125215096107
 20
-89.38575844119524
 30
0.0
 10
76.71125215096107
 20
-89.30962183097121
 30
0.0
 10
76.70263941224796
 20
-89.16148272510547
 30
0.0
 10
76.70263941224796
 20
-89.16148272510547
 30
0.0
 10
76.96067706409316
 20
-89.19955103021748
 30
0.0
 10
76.96067706409316
 20
-89.19955103021748
 30
0.0
 10
76.97549097467974
 20
-89.20161808750862
 30
0.0
 10
76.99030488526631
 20
-89.20799151415633
 30
0.0
 10
76.99030488526631
 20
-89.22917885139063
 30
0.0
 10
76.99030488526631
 20
-89.24829913133377
 30
0.0
 10
76.98410371339287
 20
-89.25036618862491
 30
0.0
 10
76.92691512833773
 20
-89.28412812438036
 30
0.0
 10
76.92278101375543
 20
-89.36267630144405
 30
0.0
 10
76.92278101375543
 20
-89.37749021203064
 30
0.0
 10
76.92278101375543
 20
-89.65447588904472
 30
0.0
 10
77.10054794079431
 20
-89.65034177446242
 30
0.0
 10
77.11949596596318
 20
-89.65034177446242
 30
0.0
 10
77.15325790171863
 20
-89.64586315033159
 30
0.0
 10
77.20424531490033
 20
-89.6417290357493
 30
0.0
 10
77.20837942948263
 20
-89.63966197845815
 30
0.0
 10
77.25282116124235
 20
-89.637594921167
 30
0.0
 10
77.25282116124235
 20
-89.637594921167
 30
0.0
 10
77.25282116124235
 20
-89.84498966937903
 30
0.0
 10
77.25282116124235
 20
-89.84498966937903
 30
0.0
 10
77.2231933400692
 20
-89.84292261208789
 30
0.0
 10
77.16807181230521
 20
-89.83430987337476
 30
0.0
 10
77.12810870467631
 20
-89.8322428160836
 30
0.0
  0
SPLINE
  5
F8
330
B8
100
AcDbEntity
  8
_U+30EC_U+30A4_U+30E4_U+30FC 1
370
     0
100
AcDbSpline
210
0.0
220
0.0
230
1.0
 70
    11
 71
     3
 72
    20
 73
    16
 74
     0
 42
0.0000000001
 43
0.0000000001
 12
1.0
 22
0.0
 32
0.0
 13
1.0
 23
0.0
 33
0.0
 40
0.0
 40
0.0
 40
0.0
 40
0.0
 40
1.0
 40
1.0
 40
1.0
 40
2.0
 40
2.0
 40
2.0
 40
3.0
 40
3.0
 40
3.0
 40
4.0
 40
4.0
 40
4.0
 40
5.0
 40
5.0
 40
5.0
 40
5.0
 10
76.35778535417445
 20
-90.55777992527723
 30
0.0
 10
76.31127656512358
 20
-90.38001299823833
 30
0.0
 10
76.21412487243953
 20
-90.23841957379456
 30
0.0
 10
76.07459850528691
 20
-90.1285210278151
 30
0.0
 10
76.07459850528691
 20
-90.1285210278151
 30
0.0
 10
76.23513995489955
 20
-90.0141438577048
 30
0.0
 10
76.23513995489955
 20
-90.0141438577048
 30
0.0
 10
76.296462654537
 20
-90.05651853217337
 30
0.0
 10
76.33677027171443
 20
-90.09028046792882
 30
0.0
 10
76.41290688193844
 20
-90.19811195661714
 30
0.0
 10
76.49317760674477
 20
-90.31455618401858
 30
0.0
 10
76.51453719875332
 20
-90.3672661449429
 30
0.0
 10
76.53968639579564
 20
-90.43306746871119
 30
0.0
 10
76.53968639579564
 20
-90.43306746871119
 30
0.0
 10
76.35778535417445
 20
-90.55777992527723
 30
0.0
 10
76.35778535417445
 20
-90.55777992527723
 30
0.0
  0
HATCH
  5
F9
330
B8
100
AcDbEntity
  8
_U+30EC_U+30A4_U+30E4_U+30FC 1
 62
   179
420
  2234388
100
AcDbHatch
 10
0.0
 20
0.0
 30
0.0
210
0.0
220
0.0
230
1.0
  2
SOLID
 70
     1
 71
     0
 91
        3
 92
        1
 93
        1
 72
     4
 94
        3
 73
     0
 74
     1
 95
       53
 96
       49
 40
0.0
 40
0.0
 40
0.0
 40
0.0
 40
1.0
 40
1.0
 40
1.0
 40
2.0
 40
2.0
 40
2.0
 40
3.0
 40
3.0
 40
3.0
 40
4.0
 40
4.0
 40
4.0
 40
5.0
 40
5.0
 40
5.0
 40
6.0
 40
6.0
 40
6.0
 40
7.0
 40
7.0
 40
7.0
 40
8.0
 40
8.0
 40
8.0
 40
9.0
 40
9.0
 40
9.0
 40
10.0
 40
10.0
 40
10.0
 40
11.0
 40
11.0
 40
11.0
 40
12.0
 40
12.0
 40
12.0
 40
13.0
 40
13.0
 40
13.0
 40
14.0
 40
14.0
 40
14.0
 40
15.0
 40
15.0
 40
15.0
 40
16.0
 40
16.0
 40
16.0
 40
16.0
 10
75.97710230305434
 20
-89.3330484802709
 10
75.90957843154344
 20
-89.48532170071896
 10
75.86720375707488
 20
-89.56352536823412
 10
75.8289631971886
 20
-89.63104923974502
 10
75.87133787165718
 20
-89.65240883175356
 10
75.87547198623948
 20
-89.65447588904472
 10
75.87547198623948
 20
-89.66928979963129
 10
75.87547198623948
 20
-89.68203665292671
 10
75.84171005048402
 20
-89.71579858868216
 10
75.83103025447974
 20
-89.72441132739529
 10
75.8289631971886
 20
-89.92112627960306
 10
75.8289631971886
 20
-89.94214136206308
 10
75.8289631971886
 20
-90.07546655734225
 10
75.82689613989744
 20
-90.08821341063768
 10
75.82689613989744
 20
-90.10302732122425
 10
75.82689613989744
 20
-90.11784123181083
 10
75.82689613989744
 20
-90.11784123181083
 10
75.82689613989744
 20
-90.65286456067012
 10
75.82689613989744
 20
-90.65286456067012
 10
75.82689613989744
 20
-90.72486705631184
 10
75.83103025447974
 20
-90.95982256840588
 10
75.83964299319287
 20
-91.06972111438535
 10
75.83964299319287
 20
-91.06972111438535
 10
75.59641925193424
 20
-91.06972111438535
 10
75.59641925193424
 20
-91.06972111438535
 10
75.6195013916854
 20
-90.91124672206386
 10
75.62604707310739
 20
-90.67009003809638
 10
75.62604707310739
 20
-90.64873044608782
 10
75.62604707310739
 20
-90.64873044608782
 10
75.62604707310739
 20
-89.9314615660588
 10
75.62604707310739
 20
-89.9314615660588
 10
75.53509655229678
 20
-90.0458387361691
 10
75.47377385265933
 20
-90.1050943785154
 10
75.43139917819076
 20
-90.14746905298396
 10
75.43139917819076
 20
-90.14746905298396
 10
75.24088539785645
 20
-90.0100097431225
 10
75.24088539785645
 20
-90.0100097431225
 10
75.52234969900137
 20
-89.79400225619733
 10
75.71493053662682
 20
-89.48532170071896
 10
75.82689613989744
 20
-89.14873587181005
 10
75.82689613989744
 20
-89.14873587181005
 10
76.0470377414049
 20
-89.26311304192033
 10
76.0470377414049
 20
-89.26311304192033
 10
76.05978459470033
 20
-89.26931421379379
 10
76.06805282386493
 20
-89.27379283792462
 10
76.06805282386493
 20
-89.28860674851119
 10
76.06805282386493
 20
-89.31375594555351
 10
76.0511718559872
 20
-89.31823456968434
 10
75.97710230305434
 20
-89.3330484802709
 97
        0
 97
        0
 92
        1
 93
        1
 72
     4
 94
        3
 73
     0
 74
     1
 95
       77
 96
       73
 40
0.0
 40
0.0
 40
0.0
 40
0.0
 40
1.0
 40
1.0
 40
1.0
 40
2.0
 40
2.0
 40
2.0
 40
3.0
 40
3.0
 40
3.0
 40
4.0
 40
4.0
 40
4.0
 40
5.0
 40
5.0
 40
5.0
 40
6.0
 40
6.0
 40
6.0
 40
7.0
 40
7.0
 40
7.0
 40
8.0
 40
8.0
 40
8.0
 40
9.0
 40
9.0
 40
9.0
 40
10.0
 40
10.0
 40
10.0
 40
11.0
 40
11.0
 40
11.0
 40
12.0
 40
12.0
 40
12.0
 40
13.0
 40
13.0
 40
13.0
 40
14.0
 40
14.0
 40
14.0
 40
15.0
 40
15.0
 40
15.0
 40
16.0
 40
16.0
 40
16.0
 40
17.0
 40
17.0
 40
17.0
 40
18.0
 40
18.0
 40
18.0
 40
19.0
 40
19.0
 40
19.0
 40
20.0
 40
20.0
 40
20.0
 40
21.0
 40
21.0
 40
21.0
 40
22.0
 40
22.0
 40
22.0
 40
23.0
 40
23.0
 40
23.0
 40
24.0
 40
24.0
 40
24.0
 40
24.0
 10
77.12810870467631
 20
-89.8322428160836
 10
77.05817326632574
 20
-89.82810870150131
 10
76.99030488526631
 20
-89.82810870150131
 10
76.92278101375543
 20
-89.82810870150131
 10
76.92278101375543
 20
-89.82810870150131
 10
76.92278101375543
 20
-90.60222165703695
 10
76.92278101375543
 20
-90.60222165703695
 10
76.92278101375543
 20
-90.86680499030413
 10
76.92071395646427
 20
-90.89643281147728
 10
76.9141682750423
 20
-90.92606063265043
 10
76.88040633928685
 20
-91.05904131838108
 10
76.77877602247197
 20
-91.0676540570942
 10
76.60342066227275
 20
-91.0676540570942
 10
76.56311304509533
 20
-91.0676540570942
 10
76.54623207721761
 20
-91.0676540570942
 10
76.50592446004019
 20
-91.0635199425119
 10
76.50592446004019
 20
-91.0635199425119
 10
76.38121200347415
 20
-90.82236325854441
 10
76.38121200347415
 20
-90.82236325854441
 10
76.49765623087559
 20
-90.8540581370087
 10
76.57999401297306
 20
-90.8540581370087
 10
76.60342066227275
 20
-90.8540581370087
 10
76.67301159107481
 20
-90.8540581370087
 10
76.70711803637877
 20
-90.83717716913098
 10
76.71125215096107
 20
-90.77998858407584
 10
76.71125215096107
 20
-90.76724173078041
 10
76.71331920825223
 20
-90.67009003809638
 10
76.71331920825223
 20
-90.61290145304122
 10
76.71331920825223
 20
-90.61290145304122
 10
76.71331920825223
 20
-89.82569713466164
 10
76.71331920825223
 20
-89.82569713466164
 10
76.71331920825223
 20
-89.82569713466164
 10
76.4191080538119
 20
-89.82569713466164
 10
76.4191080538119
 20
-89.82569713466164
 10
76.27338051478583
 20
-89.82569713466164
 10
76.12730846621123
 20
-89.8322428160836
 10
75.98364798447632
 20
-89.84498966937903
 10
75.98364798447632
 20
-89.84498966937903
 10
75.98364798447632
 20
-89.637594921167
 10
75.98364798447632
 20
-89.637594921167
 10
76.13350963808467
 20
-89.65034177446242
 10
76.351584182301
 20
-89.65447588904472
 10
76.4191080538119
 20
-89.65447588904472
 10
76.4191080538119
 20
-89.65447588904472
 10
76.71331920825223
 20
-89.65447588904472
 10
76.71331920825223
 20
-89.65447588904472
 10
76.71125215096107
 20
-89.38575844119524
 10
76.71125215096107
 20
-89.30962183097121
 10
76.70263941224796
 20
-89.16148272510547
 10
76.70263941224796
 20
-89.16148272510547
 10
76.96067706409316
 20
-89.19955103021748
 10
76.96067706409316
 20
-89.19955103021748
 10
76.97549097467974
 20
-89.20161808750862
 10
76.99030488526631
 20
-89.20799151415633
 10
76.99030488526631
 20
-89.22917885139063
 10
76.99030488526631
 20
-89.24829913133377
 10
76.98410371339287
 20
-89.25036618862491
 10
76.92691512833773
 20
-89.28412812438036
 10
76.92278101375543
 20
-89.36267630144405
 10
76.92278101375543
 20
-89.37749021203064
 10
76.92278101375543
 20
-89.65447588904472
 10
77.10054794079431
 20
-89.65034177446242
 10
77.11949596596318
 20
-89.65034177446242
 10
77.15325790171863
 20
-89.64586315033159
 10
77.20424531490033
 20
-89.6417290357493
 10
77.20837942948263
 20
-89.63966197845815
 10
77.25282116124235
 20
-89.637594921167
 10
77.25282116124235
 20
-89.637594921167
 10
77.25282116124235
 20
-89.84498966937903
 10
77.25282116124235
 20
-89.84498966937903
 10
77.2231933400692
 20
-89.84292261208789
 10
77.16807181230521
 20
-89.83430987337476
 10
77.12810870467631
 20
-89.8322428160836
 97
        0
 97
        0
 92
        1
 93
        1
 72
     4
 94
        3
 73
     0
 74
     1
 95
       20
 96
       16
 40
0.0
 40
0.0
 40
0.0
 40
0.0
 40
1.0
 40
1.0
 40
1.0
 40
2.0
 40
2.0
 40
2.0
 40
3.0
 40
3.0
 40
3.0
 40
4.0
 40
4.0
 40
4.0
 40
5.0
 40
5.0
 40
5.0
 40
5.0
 10
76.35778535417445
 20
-90.55777992527723
 10
76.31127656512358
 20
-90.38001299823833
 10
76.21412487243953
 20
-90.23841957379456
 10
76.07459850528691
 20
-90.1285210278151
 10
76.07459850528691
 20
-90.1285210278151
 10
76.23513995489955
 20
-90.0141438577048
 10
76.23513995489955
 20
-90.0141438577048
 10
76.296462654537
 20
-90.05651853217337
 10
76.33677027171443
 20
-90.09028046792882
 10
76.41290688193844
 20
-90.19811195661714
 10
76.49317760674477
 20
-90.31455618401858
 10
76.51453719875332
 20
-90.3672661449429
 10
76.53968639579564
 20
-90.43306746871119
 10
76.53968639579564
 20
-90.43306746871119
 10
76.35778535417445
 20
-90.55777992527723
 10
76.35778535417445
 20
-90.55777992527723
 97
        0
 97
        0
 75
     2
 76
     1
 98
        0
  0
ENDBLK
  5
BB
330
B8
100
AcDbEntity
  8
0
100
AcDbBlockEnd
  0
ENDSEC
  0
SECTION
  2
ENTITIES
  0
SPLINE
  5
41
330
1F
100
AcDbEntity
  8
_U+30EC_U+30A4_U+30E4_U+30FC 1
 62
     7
420
 16777215
370
     9
100
AcDbSpline
210
0.0
220
0.0
230
1.0
 70
    11
 71
     3
 72
    17
 73
    13
 74
     0
 42
0.0000000001
 43
0.0000000001
 12
1.0
 22
0.0
 32
0.0
 13
1.0
 23
0.0
 33
0.0
 40
0.0
 40
0.0
 40
0.0
 40
0.0
 40
1.0
 40
1.0
 40
1.0
 40
2.0
 40
2.0
 40
2.0
 40
3.0
 40
3.0
 40
3.0
 40
4.0
 40
4.0
 40
4.0
 40
4.0
 10
81.10583154192896
 20
-81.86063692397931
 30
0.0
 10
81.10583154192896
 20
-81.80518025732664
 30
0.0
 10
81.0610287652942
 20
-81.76037747955992
 30
0.0
 10
81.00589164641505
 20
-81.76037747955992
 30
0.0
 10
80.95078571255118
 20
-81.76037747955992
 30
0.0
 10
80.90598293591641
 20
-81.80518025732664
 30
0.0
 10
80.90598293591641
 20
-81.86063692397931
 30
0.0
 10
80.90598293591641
 20
-81.91574081285455
 30
0.0
 10
80.95078571255118
 20
-81.96054359062096
 30
0.0
 10
81.00589164641505
 20
-81.96054359062096
 30
0.0
 10
81.0610287652942
 20
-81.96054359062096
 30
0.0
 10
81.10583154192896
 20
-81.91574081285455
 30
0.0
 10
81.10583154192896
 20
-81.86063692397931
 30
0.0
  0
SPLINE
  5
42
330
1F
100
AcDbEntity
  8
_U+30EC_U+30A4_U+30E4_U+30FC 1
 62
     7
420
 16777215
370
     9
100
AcDbSpline
210
0.0
220
0.0
230
1.0
 70
    11
 71
     3
 72
    17
 73
    13
 74
     0
 42
0.0000000001
 43
0.0000000001
 12
1.0
 22
0.0
 32
0.0
 13
1.0
 23
0.0
 33
0.0
 40
0.0
 40
0.0
 40
0.0
 40
0.0
 40
1.0
 40
1.0
 40
1.0
 40
2.0
 40
2.0
 40
2.0
 40
3.0
 40
3.0
 40
3.0
 40
4.0
 40
4.0
 40
4.0
 40
4.0
 10
81.10583154192896
 20
-82.86040914595154
 30
0.0
 10
81.10583154192896
 20
-82.80526997929879
 30
0.0
 10
81.0610287652942
 20
-82.76050247930989
 30
0.0
 10
81.00589164641505
 20
-82.76050247930989
 30
0.0
 10
80.95078571255118
 20
-82.76050247930989
 30
0.0
 10
80.90598293591641
 20
-82.80526997929879
 30
0.0
 10
80.90598293591641
 20
-82.86040914595154
 30
0.0
 10
80.90598293591641
 20
-82.91551303482677
 30
0.0
 10
80.95078571255118
 20
-82.96031581259318
 30
0.0
 10
81.00589164641505
 20
-82.96031581259318
 30
0.0
 10
81.0610287652942
 20
-82.96031581259318
 30
0.0
 10
81.10583154192896
 20
-82.91551303482677
 30
0.0
 10
81.10583154192896
 20
-82.86040914595154
 30
0.0
  0
SPLINE
  5
43
330
1F
100
AcDbEntity
  8
_U+30EC_U+30A4_U+30E4_U+30FC 1
 62
     7
420
 16777215
370
     9
100
AcDbSpline
210
0.0
220
0.0
230
1.0
 70
    11
 71
     3
 72
    17
 73
    13
 74
     0
 42
0.0000000001
 43
0.0000000001
 12
1.0
 22
0.0
 32
0.0
 13
1.0
 23
0.0
 33
0.0
 40
0.0
 40
0.0
 40
0.0
 40
0.0
 40
1.0
 40
1.0
 40
1.0
 40
2.0
 40
2.0
 40
2.0
 40
3.0
 40
3.0
 40
3.0
 40
4.0
 40
4.0
 40
4.0
 40
4.0
 10
81.10583154192896
 20
-95.83222442048655
 30
0.0
 10
81.10583154192896
 20
-95.77708525383348
 30
0.0
 10
81.0610287652942
 20
-95.73231775384491
 30
0.0
 10
81.00589164641505
 20
-95.73231775384491
 30
0.0
 10
80.95078571255118
 20
-95.73231775384491
 30
0.0
 10
80.90598293591641
 20
-95.77708525383348
 30
0.0
 10
80.90598293591641
 20
-95.83222442048655
 30
0.0
 10
80.90598293591641
 20
-95.88732830936146
 30
0.0
 10
80.95078571255118
 20
-95.93213108712818
 30
0.0
 10
81.00589164641505
 20
-95.93213108712818
 30
0.0
 10
81.0610287652942
 20
-95.93213108712818
 30
0.0
 10
81.10583154192896
 20
-95.88732830936146
 30
0.0
 10
81.10583154192896
 20
-95.83222442048655
 30
0.0
  0
POLYLINE
  5
44
330
1F
100
AcDbEntity
  8
_U+30EC_U+30A4_U+30E4_U+30FC 1
 62
     7
420
 16777215
370
     9
100
AcDb2dPolyline
 66
     1
 10
0.0
 20
0.0
 30
0.0
  0
VERTEX
  5
45
330
44
100
AcDbEntity
  8
_U+30EC_U+30A4_U+30E4_U+30FC 1
 62
     7
420
 16777215
370
     9
100
AcDbVertex
100
AcDb2dVertex
 10
81.00589164641505
 20
-82.06009747948482
 30
0.0
  0
VERTEX
  5
46
330
44
100
AcDbEntity
  8
_U+30EC_U+30A4_U+30E4_U+30FC 1
 62
     7
420
 16777215
370
     9
100
AcDbVertex
100
AcDb2dVertex
 10
81.00589164641505
 20
-78.28978498042741
 30
0.0
  0
SEQEND
  5
47
330
44
100
AcDbEntity
  8
_U+30EC_U+30A4_U+30E4_U+30FC 1
 62
     7
420
 16777215
370
     9
  0
POLYLINE
  5
48
330
1F
100
AcDbEntity
  8
_U+30EC_U+30A4_U+30E4_U+30FC 1
 62
     7
420
 16777215
370
     9
100
AcDb2dPolyline
 66
     1
 10
0.0
 20
0.0
 30
0.0
  0
VERTEX
  5
49
330
48
100
AcDbEntity
  8
_U+30EC_U+30A4_U+30E4_U+30FC 1
 62
     7
420
 16777215
370
     9
100
AcDbVertex
100
AcDb2dVertex
 10
81.00589164641505
 20
-81.86063692397931
 30
0.0
  0
VERTEX
  5
4A
330
48
100
AcDbEntity
  8
_U+30EC_U+30A4_U+30E4_U+30FC 1
 62
     7
420
 16777215
370
     9
100
AcDbVertex
100
AcDb2dVertex
 10
81.00589164641505
 20
-82.86040914595154
 30
0.0
  0
SEQEND
  5
4B
330
48
100
AcDbEntity
  8
_U+30EC_U+30A4_U+30E4_U+30FC 1
 62
     7
420
 16777215
370
     9
  0
POLYLINE
  5
4C
330
1F
100
AcDbEntity
  8
_U+30EC_U+30A4_U+30E4_U+30FC 1
 62
     7
420
 16777215
370
     9
100
AcDb2dPolyline
 66
     1
 10
0.0
 20
0.0
 30
0.0
  0
VERTEX
  5
4D
330
4C
100
AcDbEntity
  8
_U+30EC_U+30A4_U+30E4_U+30FC 1
 62
     7
420
 16777215
370
     9
100
AcDbVertex
100
AcDb2dVertex
 10
79.545883526171
 20
-81.86063692397931
 30
0.0
  0
VERTEX
  5
4E
330
4C
100
AcDbEntity
  8
_U+30EC_U+30A4_U+30E4_U+30FC 1
 62
     7
420
 16777215
370
     9
100
AcDbVertex
100
AcDb2dVertex
 10
82.0056638683876
 20
-81.86063692397931
 30
0.0
  0
SEQEND
  5
4F
330
4C
100
AcDbEntity
  8
_U+30EC_U+30A4_U+30E4_U+30FC 1
 62
     7
420
 16777215
370
     9
  0
POLYLINE
  5
50
330
1F
100
AcDbEntity
  8
_U+30EC_U+30A4_U+30E4_U+30FC 1
 62
     7
420
 16777215
370
     9
100
AcDb2dPolyline
 66
     1
 10
0.0
 20
0.0
 30
0.0
  0
VERTEX
  5
51
330
50
100
AcDbEntity
  8
_U+30EC_U+30A4_U+30E4_U+30FC 1
 62
     7
420
 16777215
370
     9
100
AcDbVertex
100
AcDb2dVertex
 10
79.545883526171
 20
-82.86040914595154
 30
0.0
  0
VERTEX
  5
52
330
50
100
AcDbEntity
  8
_U+30EC_U+30A4_U+30E4_U+30FC 1
 62
     7
420
 16777215
370
     9
100
AcDbVertex
100
AcDb2dVertex
 10
82.0056638683876
 20
-82.86040914595154
 30
0.0
  0
SEQEND
  5
53
330
50
100
AcDbEntity
  8
_U+30EC_U+30A4_U+30E4_U+30FC 1
 62
     7
420
 16777215
370
     9
  0
INSERT
  5
55
330
1F
100
AcDbEntity
  8
_U+30EC_U+30A4_U+30E4_U+30FC 1
100
AcDbBlockReference
  2
block 2
 10
0.0
 20
0.0
 30
0.0
  0
INSERT
  5
5B
330
1F
100
AcDbEntity
  8
_U+30EC_U+30A4_U+30E4_U+30FC 1
100
AcDbBlockReference
  2
block 3
 10
0.0
 20
0.0
 30
0.0
  0
INSERT
  5
62
330
1F
100
AcDbEntity
  8
_U+30EC_U+30A4_U+30E4_U+30FC 1
100
AcDbBlockReference
  2
block 4
 10
0.0
 20
0.0
 30
0.0
  0
INSERT
  5
6A
330
1F
100
AcDbEntity
  8
_U+30EC_U+30A4_U+30E4_U+30FC 1
100
AcDbBlockReference
  2
block 5
 10
0.0
 20
0.0
 30
0.0
  0
INSERT
  5
72
330
1F
100
AcDbEntity
  8
_U+30EC_U+30A4_U+30E4_U+30FC 1
100
AcDbBlockReference
  2
block 6
 10
0.0
 20
0.0
 30
0.0
  0
SPLINE
  5
77
330
1F
100
AcDbEntity
  8
_U+30EC_U+30A4_U+30E4_U+30FC 1
 62
     7
420
 16777215
370
     9
100
AcDbSpline
210
0.0
220
0.0
230
1.0
 70
    11
 71
     3
 72
    17
 73
    13
 74
     0
 42
0.0000000001
 43
0.0000000001
 12
1.0
 22
0.0
 32
0.0
 13
1.0
 23
0.0
 33
0.0
 40
0.0
 40
0.0
 40
0.0
 40
0.0
 40
1.0
 40
1.0
 40
1.0
 40
2.0
 40
2.0
 40
2.0
 40
3.0
 40
3.0
 40
3.0
 40
4.0
 40
4.0
 40
4.0
 40
4.0
 10
45.11784246005905
 20
-100.6560371970579
 30
0.0
 10
45.11784246005905
 20
-100.6002277526275
 30
0.0
 10
45.07303968342429
 20
-100.5554602526389
 30
0.0
 10
45.01793579594122
 20
-100.5554602526389
 30
0.0
 10
44.96279663068127
 20
-100.5554602526389
 30
0.0
 10
44.91802913182338
 20
-100.6002277526275
 30
0.0
 10
44.91802913182338
 20
-100.6560371970579
 30
0.0
 10
44.91802913182338
 20
-100.711176363711
 30
0.0
 10
44.96279663068127
 20
-100.7559438637002
 30
0.0
 10
45.01793579594122
 20
-100.7559438637002
 30
0.0
 10
45.07303968342429
 20
-100.7559438637002
 30
0.0
 10
45.11784246005905
 20
-100.711176363711
 30
0.0
 10
45.11784246005905
 20
-100.6560371970579
 30
0.0
  0
SPLINE
  5
78
330
1F
100
AcDbEntity
  8
_U+30EC_U+30A4_U+30E4_U+30FC 1
 62
     7
420
 16777215
370
     9
100
AcDbSpline
210
0.0
220
0.0
230
1.0
 70
    11
 71
     3
 72
    17
 73
    13
 74
     0
 42
0.0000000001
 43
0.0000000001
 12
1.0
 22
0.0
 32
0.0
 13
1.0
 23
0.0
 33
0.0
 40
0.0
 40
0.0
 40
0.0
 40
0.0
 40
1.0
 40
1.0
 40
1.0
 40
2.0
 40
2.0
 40
2.0
 40
3.0
 40
3.0
 40
3.0
 40
4.0
 40
4.0
 40
4.0
 40
4.0
 10
54.10506778633139
 20
-100.6560371970579
 30
0.0
 10
54.10506778633139
 20
-100.6002277526275
 30
0.0
 10
54.06026500969663
 20
-100.5554602526389
 30
0.0
 10
54.00512584443668
 20
-100.5554602526389
 30
0.0
 10
53.95002195695361
 20
-100.5554602526389
 30
0.0
 10
53.90521918031884
 20
-100.6002277526275
 30
0.0
 10
53.90521918031884
 20
-100.6560371970579
 30
0.0
 10
53.90521918031884
 20
-100.711176363711
 30
0.0
 10
53.95002195695361
 20
-100.7559438637002
 30
0.0
 10
54.00512584443668
 20
-100.7559438637002
 30
0.0
 10
54.06026500969663
 20
-100.7559438637002
 30
0.0
 10
54.10506778633139
 20
-100.711176363711
 30
0.0
 10
54.10506778633139
 20
-100.6560371970579
 30
0.0
  0
POLYLINE
  5
79
330
1F
100
AcDbEntity
  8
_U+30EC_U+30A4_U+30E4_U+30FC 1
 62
     7
420
 16777215
370
     9
100
AcDb2dPolyline
 66
     1
 10
0.0
 20
0.0
 30
0.0
  0
VERTEX
  5
7A
330
79
100
AcDbEntity
  8
_U+30EC_U+30A4_U+30E4_U+30FC 1
 62
     7
420
 16777215
370
     9
100
AcDbVertex
100
AcDb2dVertex
 10
45.01793579594122
 20
-100.6560371970579
 30
0.0
  0
VERTEX
  5
7B
330
79
100
AcDbEntity
  8
_U+30EC_U+30A4_U+30E4_U+30FC 1
 62
     7
420
 16777215
370
     9
100
AcDbVertex
100
AcDb2dVertex
 10
71.91085538762346
 20
-100.6560371970579
 30
0.0
  0
SEQEND
  5
7C
330
79
100
AcDbEntity
  8
_U+30EC_U+30A4_U+30E4_U+30FC 1
 62
     7
420
 16777215
370
     9
  0
POLYLINE
  5
7D
330
1F
100
AcDbEntity
  8
_U+30EC_U+30A4_U+30E4_U+30FC 1
 62
     7
420
 16777215
370
     9
100
AcDb2dPolyline
 66
     1
 10
0.0
 20
0.0
 30
0.0
  0
VERTEX
  5
7E
330
7D
100
AcDbEntity
  8
_U+30EC_U+30A4_U+30E4_U+30FC 1
 62
     7
420
 16777215
370
     9
100
AcDbVertex
100
AcDb2dVertex
 10
45.01793579594122
 20
-99.19599580853419
 30
0.0
  0
VERTEX
  5
7F
330
7D
100
AcDbEntity
  8
_U+30EC_U+30A4_U+30E4_U+30FC 1
 62
     7
420
 16777215
370
     9
100
AcDbVertex
100
AcDb2dVertex
 10
45.01793579594122
 20
-101.6558094190304
 30
0.0
  0
SEQEND
  5
80
330
7D
100
AcDbEntity
  8
_U+30EC_U+30A4_U+30E4_U+30FC 1
 62
     7
420
 16777215
370
     9
  0
POLYLINE
  5
81
330
1F
100
AcDbEntity
  8
_U+30EC_U+30A4_U+30E4_U+30FC 1
 62
     7
420
 16777215
370
     9
100
AcDb2dPolyline
 66
     1
 10
0.0
 20
0.0
 30
0.0
  0
VERTEX
  5
82
330
81
100
AcDbEntity
  8
_U+30EC_U+30A4_U+30E4_U+30FC 1
 62
     7
420
 16777215
370
     9
100
AcDbVertex
100
AcDb2dVertex
 10
54.00512584443668
 20
-99.19599580853419
 30
0.0
  0
VERTEX
  5
83
330
81
100
AcDbEntity
  8
_U+30EC_U+30A4_U+30E4_U+30FC 1
 62
     7
420
 16777215
370
     9
100
AcDbVertex
100
AcDb2dVertex
 10
54.00512584443668
 20
-101.6558094190304
 30
0.0
  0
SEQEND
  5
84
330
81
100
AcDbEntity
  8
_U+30EC_U+30A4_U+30E4_U+30FC 1
 62
     7
420
 16777215
370
     9
  0
SPLINE
  5
85
330
1F
100
AcDbEntity
  8
_U+30EC_U+30A4_U+30E4_U+30FC 1
 62
     7
420
 16777215
370
     9
100
AcDbSpline
210
0.0
220
0.0
230
1.0
 70
    11
 71
     3
 72
    17
 73
    13
 74
     0
 42
0.0000000001
 43
0.0000000001
 12
1.0
 22
0.0
 32
0.0
 13
1.0
 23
0.0
 33
0.0
 40
0.0
 40
0.0
 40
0.0
 40
0.0
 40
1.0
 40
1.0
 40
1.0
 40
2.0
 40
2.0
 40
2.0
 40
3.0
 40
3.0
 40
3.0
 40
4.0
 40
4.0
 40
4.0
 40
4.0
 10
57.10505465423979
 20
-100.6560371970579
 30
0.0
 10
57.10505465423979
 20
-100.6002277526275
 30
0.0
 10
57.06025187760503
 20
-100.5554602526389
 30
0.0
 10
57.00514799012196
 20
-100.5554602526389
 30
0.0
 10
56.95000882486201
 20
-100.5554602526389
 30
0.0
 10
56.90524132600412
 20
-100.6002277526275
 30
0.0
 10
56.90524132600412
 20
-100.6560371970579
 30
0.0
 10
56.90524132600412
 20
-100.711176363711
 30
0.0
 10
56.95000882486201
 20
-100.7559438637002
 30
0.0
 10
57.00514799012196
 20
-100.7559438637002
 30
0.0
 10
57.06025187760503
 20
-100.7559438637002
 30
0.0
 10
57.10505465423979
 20
-100.711176363711
 30
0.0
 10
57.10505465423979
 20
-100.6560371970579
 30
0.0
  0
POLYLINE
  5
86
330
1F
100
AcDbEntity
  8
_U+30EC_U+30A4_U+30E4_U+30FC 1
 62
     7
420
 16777215
370
     9
100
AcDb2dPolyline
 66
     1
 10
0.0
 20
0.0
 30
0.0
  0
VERTEX
  5
87
330
86
100
AcDbEntity
  8
_U+30EC_U+30A4_U+30E4_U+30FC 1
 62
     7
420
 16777215
370
     9
100
AcDbVertex
100
AcDb2dVertex
 10
57.00514799012196
 20
-99.19599580853419
 30
0.0
  0
VERTEX
  5
88
330
86
100
AcDbEntity
  8
_U+30EC_U+30A4_U+30E4_U+30FC 1
 62
     7
420
 16777215
370
     9
100
AcDbVertex
100
AcDb2dVertex
 10
57.00514799012196
 20
-101.6558094190304
 30
0.0
  0
SEQEND
  5
89
330
86
100
AcDbEntity
  8
_U+30EC_U+30A4_U+30E4_U+30FC 1
 62
     7
420
 16777215
370
     9
  0
SPLINE
  5
8A
330
1F
100
AcDbEntity
  8
_U+30EC_U+30A4_U+30E4_U+30FC 1
 62
     7
420
 16777215
370
     9
100
AcDbSpline
210
0.0
220
0.0
230
1.0
 70
    11
 71
     3
 72
    17
 73
    13
 74
     0
 42
0.0000000001
 43
0.0000000001
 12
1.0
 22
0.0
 32
0.0
 13
1.0
 23
0.0
 33
0.0
 40
0.0
 40
0.0
 40
0.0
 40
0.0
 40
1.0
 40
1.0
 40
1.0
 40
2.0
 40
2.0
 40
2.0
 40
3.0
 40
3.0
 40
3.0
 40
4.0
 40
4.0
 40
4.0
 40
4.0
 10
72.1051653826662
 20
-100.6560371970579
 30
0.0
 10
72.1051653826662
 20
-100.6002277526275
 30
0.0
 10
72.06036260603143
 20
-100.5554602526389
 30
0.0
 10
72.00525871854836
 20
-100.5554602526389
 30
0.0
 10
71.95011955328842
 20
-100.5554602526389
 30
0.0
 10
71.90535205443052
 20
-100.6002277526275
 30
0.0
 10
71.90535205443052
 20
-100.6560371970579
 30
0.0
 10
71.90535205443052
 20
-100.711176363711
 30
0.0
 10
71.95011955328842
 20
-100.7559438637002
 30
0.0
 10
72.00525871854836
 20
-100.7559438637002
 30
0.0
 10
72.06036260603143
 20
-100.7559438637002
 30
0.0
 10
72.1051653826662
 20
-100.711176363711
 30
0.0
 10
72.1051653826662
 20
-100.6560371970579
 30
0.0
  0
POLYLINE
  5
8B
330
1F
100
AcDbEntity
  8
_U+30EC_U+30A4_U+30E4_U+30FC 1
 62
     7
420
 16777215
370
     9
100
AcDb2dPolyline
 66
     1
 10
0.0
 20
0.0
 30
0.0
  0
VERTEX
  5
8C
330
8B
100
AcDbEntity
  8
_U+30EC_U+30A4_U+30E4_U+30FC 1
 62
     7
420
 16777215
370
     9
100
AcDbVertex
100
AcDb2dVertex
 10
72.00525871854836
 20
-99.19599580853419
 30
0.0
  0
VERTEX
  5
8D
330
8B
100
AcDbEntity
  8
_U+30EC_U+30A4_U+30E4_U+30FC 1
 62
     7
420
 16777215
370
     9
100
AcDbVertex
100
AcDb2dVertex
 10
72.00525871854836
 20
-101.6558094190304
 30
0.0
  0
SEQEND
  5
8E
330
8B
100
AcDbEntity
  8
_U+30EC_U+30A4_U+30E4_U+30FC 1
 62
     7
420
 16777215
370
     9
  0
SPLINE
  5
8F
330
1F
100
AcDbEntity
  8
_U+30EC_U+30A4_U+30E4_U+30FC 1
 62
     7
420
 16777215
370
     9
100
AcDbSpline
210
0.0
220
0.0
230
1.0
 70
    11
 71
     3
 72
    17
 73
    13
 74
     0
 42
0.0000000001
 43
0.0000000001
 12
1.0
 22
0.0
 32
0.0
 13
1.0
 23
0.0
 33
0.0
 40
0.0
 40
0.0
 40
0.0
 40
0.0
 40
1.0
 40
1.0
 40
1.0
 40
2.0
 40
2.0
 40
2.0
 40
3.0
 40
3.0
 40
3.0
 40
4.0
 40
4.0
 40
4.0
 40
4.0
 10
45.11784246005905
 20
-79.16001720243213
 30
0.0
 10
45.11784246005905
 20
-79.1049133135572
 30
0.0
 10
45.07303968342429
 20
-79.06011053579049
 30
0.0
 10
45.01793579594122
 20
-79.06011053579049
 30
0.0
 10
44.96279663068127
 20
-79.06011053579049
 30
0.0
 10
44.91802913182338
 20
-79.1049133135572
 30
0.0
 10
44.91802913182338
 20
-79.16001720243213
 30
0.0
 10
44.91802913182338
 20
-79.21515636908521
 30
0.0
 10
44.96279663068127
 20
-79.25992386907376
 30
0.0
 10
45.01793579594122
 20
-79.25992386907376
 30
0.0
 10
45.07303968342429
 20
-79.25992386907376
 30
0.0
 10
45.11784246005905
 20
-79.21515636908521
 30
0.0
 10
45.11784246005905
 20
-79.16001720243213
 30
0.0
  0
POLYLINE
  5
90
330
1F
100
AcDbEntity
  8
_U+30EC_U+30A4_U+30E4_U+30FC 1
 62
     7
420
 16777215
370
     9
100
AcDb2dPolyline
 66
     1
 10
0.0
 20
0.0
 30
0.0
  0
VERTEX
  5
91
330
90
100
AcDbEntity
  8
_U+30EC_U+30A4_U+30E4_U+30FC 1
 62
     7
420
 16777215
370
     9
100
AcDbVertex
100
AcDb2dVertex
 10
45.01793579594122
 20
-79.16001720243213
 30
0.0
  0
VERTEX
  5
92
330
90
100
AcDbEntity
  8
_U+30EC_U+30A4_U+30E4_U+30FC 1
 62
     7
420
 16777215
370
     9
100
AcDbVertex
100
AcDb2dVertex
 10
71.91085538762346
 20
-79.16001720243213
 30
0.0
  0
SEQEND
  5
93
330
90
100
AcDbEntity
  8
_U+30EC_U+30A4_U+30E4_U+30FC 1
 62
     7
420
 16777215
370
     9
  0
POLYLINE
  5
94
330
1F
100
AcDbEntity
  8
_U+30EC_U+30A4_U+30E4_U+30FC 1
 62
     7
420
 16777215
370
     9
100
AcDb2dPolyline
 66
     1
 10
0.0
 20
0.0
 30
0.0
  0
VERTEX
  5
95
330
94
100
AcDbEntity
  8
_U+30EC_U+30A4_U+30E4_U+30FC 1
 62
     7
420
 16777215
370
     9
100
AcDbVertex
100
AcDb2dVertex
 10
45.01793579594122
 20
-77.70001109168625
 30
0.0
  0
VERTEX
  5
96
330
94
100
AcDbEntity
  8
_U+30EC_U+30A4_U+30E4_U+30FC 1
 62
     7
420
 16777215
370
     9
100
AcDbVertex
100
AcDb2dVertex
 10
45.01793579594122
 20
-80.15978942440434
 30
0.0
  0
SEQEND
  5
97
330
94
100
AcDbEntity
  8
_U+30EC_U+30A4_U+30E4_U+30FC 1
 62
     7
420
 16777215
370
     9
  0
SPLINE
  5
98
330
1F
100
AcDbEntity
  8
_U+30EC_U+30A4_U+30E4_U+30FC 1
 62
     7
420
 16777215
370
     9
100
AcDbSpline
210
0.0
220
0.0
230
1.0
 70
    11
 71
     3
 72
    17
 73
    13
 74
     0
 42
0.0000000001
 43
0.0000000001
 12
1.0
 22
0.0
 32
0.0
 13
1.0
 23
0.0
 33
0.0
 40
0.0
 40
0.0
 40
0.0
 40
0.0
 40
1.0
 40
1.0
 40
1.0
 40
2.0
 40
2.0
 40
2.0
 40
3.0
 40
3.0
 40
3.0
 40
4.0
 40
4.0
 40
4.0
 40
4.0
 10
72.1051653826662
 20
-79.16001720243213
 30
0.0
 10
72.1051653826662
 20
-79.1049133135572
 30
0.0
 10
72.06036260603143
 20
-79.06011053579049
 30
0.0
 10
72.00525871854836
 20
-79.06011053579049
 30
0.0
 10
71.95011955328842
 20
-79.06011053579049
 30
0.0
 10
71.90535205443052
 20
-79.1049133135572
 30
0.0
 10
71.90535205443052
 20
-79.16001720243213
 30
0.0
 10
71.90535205443052
 20
-79.21515636908521
 30
0.0
 10
71.95011955328842
 20
-79.25992386907376
 30
0.0
 10
72.00525871854836
 20
-79.25992386907376
 30
0.0
 10
72.06036260603143
 20
-79.25992386907376
 30
0.0
 10
72.1051653826662
 20
-79.21515636908521
 30
0.0
 10
72.1051653826662
 20
-79.16001720243213
 30
0.0
  0
POLYLINE
  5
99
330
1F
100
AcDbEntity
  8
_U+30EC_U+30A4_U+30E4_U+30FC 1
 62
     7
420
 16777215
370
     9
100
AcDb2dPolyline
 66
     1
 10
0.0
 20
0.0
 30
0.0
  0
VERTEX
  5
9A
330
99
100
AcDbEntity
  8
_U+30EC_U+30A4_U+30E4_U+30FC 1
 62
     7
420
 16777215
370
     9
100
AcDbVertex
100
AcDb2dVertex
 10
72.00525871854836
 20
-77.70001109168625
 30
0.0
  0
VERTEX
  5
9B
330
99
100
AcDbEntity
  8
_U+30EC_U+30A4_U+30E4_U+30FC 1
 62
     7
420
 16777215
370
     9
100
AcDbVertex
100
AcDb2dVertex
 10
72.00525871854836
 20
-80.15978942440434
 30
0.0
  0
SEQEND
  5
9C
330
99
100
AcDbEntity
  8
_U+30EC_U+30A4_U+30E4_U+30FC 1
 62
     7
420
 16777215
370
     9
  0
POLYLINE
  5
9D
330
1F
100
AcDbEntity
  8
_U+30EC_U+30A4_U+30E4_U+30FC 1
 62
     7
420
 16777215
370
     9
100
AcDb2dPolyline
 66
     1
 10
0.0
 20
0.0
 30
0.0
  0
VERTEX
  5
9E
330
9D
100
AcDbEntity
  8
_U+30EC_U+30A4_U+30E4_U+30FC 1
 62
     7
420
 16777215
370
     9
100
AcDbVertex
100
AcDb2dVertex
 10
81.00589164641505
 20
-82.86005636817377
 30
0.0
  0
VERTEX
  5
9F
330
9D
100
AcDbEntity
  8
_U+30EC_U+30A4_U+30E4_U+30FC 1
 62
     7
420
 16777215
370
     9
100
AcDbVertex
100
AcDb2dVertex
 10
81.00589164641505
 20
-95.86115219825722
 30
0.0
  0
SEQEND
  5
A0
330
9D
100
AcDbEntity
  8
_U+30EC_U+30A4_U+30E4_U+30FC 1
 62
     7
420
 16777215
370
     9
  0
POLYLINE
  5
A1
330
1F
100
AcDbEntity
  8
_U+30EC_U+30A4_U+30E4_U+30FC 1
 62
     7
420
 16777215
370
     9
100
AcDb2dPolyline
 66
     1
 10
0.0
 20
0.0
 30
0.0
  0
VERTEX
  5
A2
330
A1
100
AcDbEntity
  8
_U+30EC_U+30A4_U+30E4_U+30FC 1
 62
     7
420
 16777215
370
     9
100
AcDbVertex
100
AcDb2dVertex
 10
63.54667087878936
 20
-95.86048192047922
 30
0.0
  0
VERTEX
  5
A3
330
A1
100
AcDbEntity
  8
_U+30EC_U+30A4_U+30E4_U+30FC 1
 62
     7
420
 16777215
370
     9
100
AcDbVertex
100
AcDb2dVertex
 10
82.00636942394311
 20
-95.86048192047922
 30
0.0
  0
SEQEND
  5
A4
330
A1
100
AcDbEntity
  8
_U+30EC_U+30A4_U+30E4_U+30FC 1
 62
     7
420
 16777215
370
     9
  0
INSERT
  5
A6
330
1F
100
AcDbEntity
  8
_U+30EC_U+30A4_U+30E4_U+30FC 1
100
AcDbBlockReference
  2
block 7
 10
0.0
 20
0.0
 30
0.0
  0
POLYLINE
  5
AD
330
1F
100
AcDbEntity
  8
_U+30EC_U+30A4_U+30E4_U+30FC 1
 62
     7
420
 16777215
370
    25
100
AcDb2dPolyline
 66
     1
 10
0.0
 20
0.0
 30
0.0
  0
VERTEX
  5
AE
330
AD
100
AcDbEntity
  8
_U+30EC_U+30A4_U+30E4_U+30FC 1
 62
     7
420
 16777215
370
    25
100
AcDbVertex
100
AcDb2dVertex
 10
72.02039288482892
 20
-82.91381970149365
 30
0.0
  0
VERTEX
  5
AF
330
AD
100
AcDbEntity
  8
_U+30EC_U+30A4_U+30E4_U+30FC 1
 62
     7
420
 16777215
370
    25
100
AcDbVertex
100
AcDb2dVertex
 10
57.02373937853654
 20
-82.91381970149365
 30
0.0
  0
VERTEX
  5
B0
330
AD
100
AcDbEntity
  8
_U+30EC_U+30A4_U+30E4_U+30FC 1
 62
     7
420
 16777215
370
    25
100
AcDbVertex
100
AcDb2dVertex
 10
57.02373937853654
 20
-95.90870664268971
 30
0.0
  0
VERTEX
  5
B1
330
AD
100
AcDbEntity
  8
_U+30EC_U+30A4_U+30E4_U+30FC 1
 62
     7
420
 16777215
370
    25
100
AcDbVertex
100
AcDb2dVertex
 10
54.02477556615759
 20
-95.90870664268971
 30
0.0
  0
VERTEX
  5
B2
330
AD
100
AcDbEntity
  8
_U+30EC_U+30A4_U+30E4_U+30FC 1
 62
     7
420
 16777215
370
    25
100
AcDbVertex
100
AcDb2dVertex
 10
54.02477556615759
 20
-82.91381970149365
 30
0.0
  0
VERTEX
  5
B3
330
AD
100
AcDbEntity
  8
_U+30EC_U+30A4_U+30E4_U+30FC 1
 62
     7
420
 16777215
370
    25
100
AcDbVertex
100
AcDb2dVertex
 10
45.02068746253769
 20
-82.91381970149365
 30
0.0
  0
VERTEX
  5
B4
330
AD
100
AcDbEntity
  8
_U+30EC_U+30A4_U+30E4_U+30FC 1
 62
     7
420
 16777215
370
    25
100
AcDbVertex
100
AcDb2dVertex
 10
45.02068746253769
 20
-81.9088616461895
 30
0.0
  0
VERTEX
  5
B5
330
AD
100
AcDbEntity
  8
_U+30EC_U+30A4_U+30E4_U+30FC 1
 62
     7
420
 16777215
370
    25
100
AcDbVertex
100
AcDb2dVertex
 10
72.02039288482892
 20
-81.9088616461895
 30
0.0
  0
VERTEX
  5
B6
330
AD
100
AcDbEntity
  8
_U+30EC_U+30A4_U+30E4_U+30FC 1
 62
     7
420
 16777215
370
    25
100
AcDbVertex
100
AcDb2dVertex
 10
72.02039288482892
 20
-82.91381970149365
 30
0.0
  0
SEQEND
  5
B7
330
AD
100
AcDbEntity
  8
_U+30EC_U+30A4_U+30E4_U+30FC 1
 62
     7
420
 16777215
370
    25
  0
INSERT
  5
B9
330
1F
100
AcDbEntity
  8
_U+30EC_U+30A4_U+30E4_U+30FC 1
100
AcDbBlockReference
  2
block 8
 10
0.0
 20
0.0
 30
0.0
  0
POLYLINE
  5
FA
330
1F
100
AcDbEntity
  8
_U+30EC_U+30A4_U+30E4_U+30FC 1
 62
   179
420
  2234388
370
     9
100
AcDb2dPolyline
 66
     1
 10
0.0
 20
0.0
 30
0.0
  0
VERTEX
  5
FB
330
FA
100
AcDbEntity
  8
_U+30EC_U+30A4_U+30E4_U+30FC 1
 62
   179
420
  2234388
370
     9
100
AcDbVertex
100
AcDb2dVertex
 10
59.79978291882488
 20
-83.43194442358646
 30
0.0
  0
VERTEX
  5
FC
330
FA
100
AcDbEntity
  8
_U+30EC_U+30A4_U+30E4_U+30FC 1
 62
   179
420
  2234388
370
     9
100
AcDbVertex
100
AcDb2dVertex
 10
65.97357026131844
 20
-91.54583331044688
 30
0.0
  0
VERTEX
  5
FD
330
FA
100
AcDbEntity
  8
_U+30EC_U+30A4_U+30E4_U+30FC 1
 62
   179
420
  2234388
370
     9
100
AcDbVertex
100
AcDb2dVertex
 10
77.615942186519
 20
-91.54583331044688
 30
0.0
  0
SEQEND
  5
FE
330
FA
100
AcDbEntity
  8
_U+30EC_U+30A4_U+30E4_U+30FC 1
 62
   179
420
  2234388
370
     9
  0
POLYLINE
  5
FF
330
1F
100
AcDbEntity
  8
_U+30EC_U+30A4_U+30E4_U+30FC 1
  6
AI-Linetype-1
 62
   154
420
    23468
370
    25
100
AcDb2dPolyline
 66
     1
 10
0.0
 20
0.0
 30
0.0
  0
VERTEX
  5
100
330
FF
100
AcDbEntity
  8
_U+30EC_U+30A4_U+30E4_U+30FC 1
  6
AI-Linetype-1
 62
   154
420
    23468
370
    25
100
AcDbVertex
100
AcDb2dVertex
 10
44.99726301869085
 20
-83.44228081247282
 30
0.0
  0
VERTEX
  5
101
330
FF
100
AcDbEntity
  8
_U+30EC_U+30A4_U+30E4_U+30FC 1
  6
AI-Linetype-1
 62
   154
420
    23468
370
    25
100
AcDbVertex
100
AcDb2dVertex
 10
53.49183419086517
 20
-83.44228081247282
 30
0.0
  0
VERTEX
  5
102
330
FF
100
AcDbEntity
  8
_U+30EC_U+30A4_U+30E4_U+30FC 1
  6
AI-Linetype-1
 62
   154
420
    23468
370
    25
100
AcDbVertex
100
AcDb2dVertex
 10
53.49183419086517
 20
-96.44200080922273
 30
0.0
  0
VERTEX
  5
103
330
FF
100
AcDbEntity
  8
_U+30EC_U+30A4_U+30E4_U+30FC 1
  6
AI-Linetype-1
 62
   154
420
    23468
370
    25
100
AcDbVertex
100
AcDb2dVertex
 10
57.54221686530908
 20
-96.44200080922273
 30
0.0
  0
VERTEX
  5
104
330
FF
100
AcDbEntity
  8
_U+30EC_U+30A4_U+30E4_U+30FC 1
  6
AI-Linetype-1
 62
   154
420
    23468
370
    25
100
AcDbVertex
100
AcDb2dVertex
 10
57.54221686530908
 20
-83.44228081247282
 30
0.0
  0
VERTEX
  5
105
330
FF
100
AcDbEntity
  8
_U+30EC_U+30A4_U+30E4_U+30FC 1
  6
AI-Linetype-1
 62
   154
420
    23468
370
    25
100
AcDbVertex
100
AcDb2dVertex
 10
72.00525871854836
 20
-83.44228081247282
 30
0.0
  0
SEQEND
  5
107
330
FF
100
AcDbEntity
  8
_U+30EC_U+30A4_U+30E4_U+30FC 1
  6
AI-Linetype-1
 62
   154
420
    23468
370
    25
  0
ENDSEC
  0
SECTION
  2
OBJECTS
  0
DICTIONARY
  5
C
330
0
100
AcDbDictionary
281
     1
  3
ACAD_GROUP
350
D
  3
ACAD_LAYOUT
350
1A
  3
ACAD_MATERIAL
350
3B
  3
ACAD_MLEADERSTYLE
350
109
  3
ACAD_MLINESTYLE
350
17
  3
ACAD_PLOTSETTINGS
350
19
  3
ACAD_PLOTSTYLENAME
350
E
  3
ACAD_TABLESTYLE
350
108
  3
ACAD_VISUALSTYLE
350
2A
  0
SUN
  5
3F
330
29
100
AcDbSun
 90
        1
290
     0
 63
     7
421
 16777215
 40
1.0
291
     1
 91
  2455826
 92
 54000000
292
     0
 70
     2
 71
   256
280
     1
  0
DICTIONARY
  5
D
102
{ACAD_REACTORS
330
C
102
}
330
C
100
AcDbDictionary
281
     1
  0
DICTIONARY
  5
1A
102
{ACAD_REACTORS
330
C
102
}
330
C
100
AcDbDictionary
281
     1
  3
Layout1
350
1E
  3
Layout2
350
26
  3
Model
350
22
  0
DICTIONARY
  5
3B
102
{ACAD_REACTORS
330
C
102
}
330
C
100
AcDbDictionary
281
     1
  3
ByBlock
350
3D
  3
ByLayer
350
3C
  3
Global
350
3E
  0
DICTIONARY
  5
109
102
{ACAD_REACTORS
330
C
102
}
330
C
100
AcDbDictionary
281
     1
  0
DICTIONARY
  5
17
102
{ACAD_REACTORS
330
C
102
}
330
C
100
AcDbDictionary
281
     1
  3
Standard
350
18
  0
DICTIONARY
  5
19
102
{ACAD_REACTORS
330
C
102
}
330
C
100
AcDbDictionary
281
     1
  0
ACDBDICTIONARYWDFLT
  5
E
102
{ACAD_REACTORS
330
C
102
}
330
C
100
AcDbDictionary
281
     1
  3
Normal
350
F
100
AcDbDictionaryWithDefault
340
F
  0
DICTIONARY
  5
108
102
{ACAD_REACTORS
330
C
102
}
330
C
100
AcDbDictionary
281
     1
  0
DICTIONARY
  5
2A
102
{ACAD_REACTORS
330
C
102
}
330
C
100
AcDbDictionary
281
     1
  3
2dWireframe
350
2F
  3
3D Hidden
350
31
  3
3dWireframe
350
30
  3
Basic
350
32
  3
Brighten
350
36
  3
ColorChange
350
3A
  3
Conceptual
350
34
  3
Dim
350
35
  3
Facepattern
350
39
  3
Flat
350
2B
  3
FlatWithEdges
350
2C
  3
Gouraud
350
2D
  3
GouraudWithEdges
350
2E
  3
Linepattern
350
38
  3
Realistic
350
33
  3
Thicken
350
37
  0
LAYOUT
  5
1E
102
{ACAD_REACTORS
330
1A
102
}
330
1A
100
AcDbPlotSettings
  1

  2
none_device
  4

  6

 40
0.0
 41
0.0
 42
0.0
 43
0.0
 44
0.0
 45
0.0
 46
0.0
 47
0.0
 48
0.0
 49
0.0
140
0.0
141
0.0
142
1.0
143
1.0
 70
   688
 72
     0
 73
     0
 74
     5
  7

 75
    16
 76
     0
 77
     2
 78
   300
147
1.0
148
0.0
149
0.0
100
AcDbLayout
  1
Layout1
 70
     1
 71
     1
 10
0.0
 20
0.0
 11
12.0
 21
9.0
 12
0.0
 22
0.0
 32
0.0
 14
1.000000000000000E+20
 24
1.000000000000000E+20
 34
1.000000000000000E+20
 15
-1.000000000000000E+20
 25
-1.000000000000000E+20
 35
-1.000000000000000E+20
146
0.0
 13
0.0
 23
0.0
 33
0.0
 16
1.0
 26
0.0
 36
0.0
 17
0.0
 27
1.0
 37
0.0
 76
     0
330
1B
  0
LAYOUT
  5
26
102
{ACAD_REACTORS
330
1A
102
}
330
1A
100
AcDbPlotSettings
  1

  2
none_device
  4

  6

 40
0.0
 41
0.0
 42
0.0
 43
0.0
 44
0.0
 45
0.0
 46
0.0
 47
0.0
 48
0.0
 49
0.0
140
0.0
141
0.0
142
1.0
143
1.0
 70
   688
 72
     0
 73
     0
 74
     5
  7

 75
    16
 76
     0
 77
     2
 78
   300
147
1.0
148
0.0
149
0.0
100
AcDbLayout
  1
Layout2
 70
     1
 71
     2
 10
0.0
 20
0.0
 11
0.0
 21
0.0
 12
0.0
 22
0.0
 32
0.0
 14
0.0
 24
0.0
 34
0.0
 15
0.0
 25
0.0
 35
0.0
146
0.0
 13
0.0
 23
0.0
 33
0.0
 16
1.0
 26
0.0
 36
0.0
 17
0.0
 27
1.0
 37
0.0
 76
     0
330
23
  0
LAYOUT
  5
22
102
{ACAD_REACTORS
330
1A
102
}
330
1A
100
AcDbPlotSettings
  1

  2
none_device
  4

  6

 40
0.0
 41
0.0
 42
0.0
 43
0.0
 44
0.0
 45
0.0
 46
0.0
 47
0.0
 48
0.0
 49
0.0
140
0.0
141
0.0
142
1.0
143
1.0
 70
  1712
 72
     0
 73
     0
 74
     0
  7

 75
     0
 76
     0
 77
     2
 78
   300
147
1.0
148
0.0
149
0.0
100
AcDbLayout
  1
Model
 70
     1
 71
     0
 10
0.0
 20
0.0
 11
12.0
 21
9.0
 12
0.0
 22
0.0
 32
0.0
 14
1.000000000000000E+20
 24
1.000000000000000E+20
 34
1.000000000000000E+20
 15
-1.000000000000000E+20
 25
-1.000000000000000E+20
 35
-1.000000000000000E+20
146
0.0
 13
0.0
 23
0.0
 33
0.0
 16
1.0
 26
0.0
 36
0.0
 17
0.0
 27
1.0
 37
0.0
 76
     0
330
1F
331
29
  0
MATERIAL
  5
3D
102
{ACAD_REACTORS
330
3B
102
}
330
3B
100
AcDbMaterial
  1
ByBlock
 72
     1
 94
      127
  0
MATERIAL
  5
3C
102
{ACAD_REACTORS
330
3B
102
}
330
3B
100
AcDbMaterial
  1
ByLayer
 72
     1
 94
      127
  0
MATERIAL
  5
3E
102
{ACAD_REACTORS
330
3B
102
}
330
3B
100
AcDbMaterial
  1
Global
 72
     1
 94
      127
  0
MLINESTYLE
  5
18
102
{ACAD_REACTORS
330
17
102
}
330
17
100
AcDbMlineStyle
  2
Standard
 70
     0
  3

 62
   256
 51
90.0
 52
90.0
 71
     2
 49
0.5
 62
   256
  6
BYLAYER
 49
-0.5
 62
   256
  6
BYLAYER
  0
ACDBPLACEHOLDER
  5
F
102
{ACAD_REACTORS
330
E
102
}
330
E
  0
VISUALSTYLE
  5
2F
102
{ACAD_REACTORS
330
2A
102
}
330
2A
100
AcDbVisualStyle
  2
2dWireframe
 70
     4
177
     2
291
     0
 71
     0
176
     1
 72
     2
176
     1
 73
     0
176
     1
 90
        0
176
     1
 40
-0.6
176
     1
 41
-30.0
176
     1
 62
     5
 63
     7
421
 16777215
176
     1
 74
     1
176
     1
 91
        4
176
     1
 64
     7
176
     1
 65
   257
176
     1
 75
     1
176
     1
175
     1
176
     1
 42
1.0
176
     1
 92
        0
176
     1
 66
   257
176
     1
 43
1.0
176
     1
 76
     1
176
     1
 77
     6
176
     1
 78
     2
176
     1
 67
     7
176
     1
 79
     5
176
     1
170
     0
176
     1
171
     0
176
     1
290
     0
176
     1
 93
        1
176
     1
 44
0.0
176
     1
173
     0
176
     1
  0
VISUALSTYLE
  5
31
102
{ACAD_REACTORS
330
2A
102
}
330
2A
100
AcDbVisualStyle
  2
3D Hidden
 70
     6
177
     2
291
     0
 71
     1
176
     1
 72
     2
176
     1
 73
     2
176
     1
 90
        0
176
     1
 40
-0.6
176
     1
 41
-30.0
176
     1
 62
     5
 63
     7
421
 16777215
176
     1
 74
     2
176
     1
 91
        2
176
     1
 64
     7
176
     1
 65
   257
176
     1
 75
     2
176
     1
175
     1
176
     1
 42
40.0
176
     1
 92
        0
176
     1
 66
   257
176
     1
 43
1.0
176
     1
 76
     1
176
     1
 77
     6
176
     1
 78
     2
176
     1
 67
     7
176
     1
 79
     3
176
     1
170
     0
176
     1
171
     0
176
     1
290
     0
176
     1
 93
        1
176
     1
 44
0.0
176
     1
173
     0
176
     1
  0
VISUALSTYLE
  5
30
102
{ACAD_REACTORS
330
2A
102
}
330
2A
100
AcDbVisualStyle
  2
3dWireframe
 70
     5
177
     2
291
     0
 71
     0
176
     1
 72
     2
176
     1
 73
     0
176
     1
 90
        0
176
     1
 40
-0.6
176
     1
 41
-30.0
176
     1
 62
     5
 63
     7
421
 16777215
176
     1
 74
     1
176
     1
 91
        4
176
     1
 64
     7
176
     1
 65
   257
176
     1
 75
     1
176
     1
175
     1
176
     1
 42
1.0
176
     1
 92
        0
176
     1
 66
   257
176
     1
 43
1.0
176
     1
 76
     1
176
     1
 77
     6
176
     1
 78
     2
176
     1
 67
     7
176
     1
 79
     5
176
     1
170
     0
176
     1
171
     0
176
     1
290
     0
176
     1
 93
        1
176
     1
 44
0.0
176
     1
173
     0
176
     1
  0
VISUALSTYLE
  5
32
102
{ACAD_REACTORS
330
2A
102
}
330
2A
100
AcDbVisualStyle
  2
Basic
 70
     7
177
     2
291
     1
 71
     1
176
     1
 72
     0
176
     1
 73
     1
176
     1
 90
        0
176
     1
 40
-0.6
176
     1
 41
-30.0
176
     1
 62
     5
 63
     7
421
 16777215
176
     1
 74
     0
176
     1
 91
        4
176
     1
 64
     7
176
     1
 65
   257
176
     1
 75
     1
176
     1
175
     1
176
     1
 42
1.0
176
     1
 92
        8
176
     1
 66
     7
176
     1
 43
1.0
176
     1
 76
     1
176
     1
 77
     6
176
     1
 78
     2
176
     1
 67
     7
176
     1
 79
     5
176
     1
170
     0
176
     1
171
     0
176
     1
290
     0
176
     1
 93
        1
176
     1
 44
0.0
176
     1
173
     0
176
     1
  0
VISUALSTYLE
  5
36
102
{ACAD_REACTORS
330
2A
102
}
330
2A
100
AcDbVisualStyle
  2
Brighten
 70
    12
177
     2
291
     1
 71
     2
176
     1
 72
     2
176
     1
 73
     0
176
     1
 90
        0
176
     1
 40
-0.6
176
     1
 41
-30.0
176
     1
 62
     5
 63
     7
421
 16777215
176
     1
 74
     1
176
     1
 91
        4
176
     1
 64
     7
176
     1
 65
   257
176
     1
 75
     1
176
     1
175
     1
176
     1
 42
1.0
176
     1
 92
        8
176
     1
 66
     7
176
     1
 43
1.0
176
     1
 76
     1
176
     1
 77
     6
176
     1
 78
     2
176
     1
 67
     7
176
     1
 79
     5
176
     1
170
     0
176
     1
171
     0
176
     1
290
     0
176
     1
 93
        1
176
     1
 44
50.0
176
     1
173
     0
176
     1
  0
VISUALSTYLE
  5
3A
102
{ACAD_REACTORS
330
2A
102
}
330
2A
100
AcDbVisualStyle
  2
ColorChange
 70
    16
177
     2
291
     1
 71
     2
176
     1
 72
     2
176
     1
 73
     3
176
     1
 90
        0
176
     1
 40
-0.6
176
     1
 41
-30.0
176
     1
 62
     5
 63
     8
421
  8421504
176
     1
 74
     1
176
     1
 91
        4
176
     1
 64
     7
176
     1
 65
   257
176
     1
 75
     1
176
     1
175
     1
176
     1
 42
1.0
176
     1
 92
        8
176
     1
 66
     8
424
  8421504
176
     1
 43
1.0
176
     1
 76
     1
176
     1
 77
     6
176
     1
 78
     2
176
     1
 67
     7
176
     1
 79
     5
176
     1
170
     0
176
     1
171
     0
176
     1
290
     0
176
     1
 93
        1
176
     1
 44
0.0
176
     1
173
     0
176
     1
  0
VISUALSTYLE
  5
34
102
{ACAD_REACTORS
330
2A
102
}
330
2A
100
AcDbVisualStyle
  2
Conceptual
 70
     9
177
     2
291
     0
 71
     3
176
     1
 72
     2
176
     1
 73
     0
176
     1
 90
        0
176
     1
 40
-0.6
176
     1
 41
-30.0
176
     1
 62
     5
 63
     7
421
 16777215
176
     1
 74
     2
176
     1
 91
        2
176
     1
 64
     7
176
     1
 65
   257
176
     1
 75
     1
176
     1
175
     1
176
     1
 42
40.0
176
     1
 92
        8
176
     1
 66
     7
176
     1
 43
1.0
176
     1
 76
     1
176
     1
 77
     6
176
     1
 78
     2
176
     1
 67
     7
176
     1
 79
     3
176
     1
170
     0
176
     1
171
     0
176
     1
290
     0
176
     1
 93
        1
176
     1
 44
0.0
176
     1
173
     0
176
     1
  0
VISUALSTYLE
  5
35
102
{ACAD_REACTORS
330
2A
102
}
330
2A
100
AcDbVisualStyle
  2
Dim
 70
    11
177
     2
291
     1
 71
     2
176
     1
 72
     2
176
     1
 73
     0
176
     1
 90
        0
176
     1
 40
-0.6
176
     1
 41
-30.0
176
     1
 62
     5
 63
     7
421
 16777215
176
     1
 74
     1
176
     1
 91
        4
176
     1
 64
     7
176
     1
 65
   257
176
     1
 75
     1
176
     1
175
     1
176
     1
 42
1.0
176
     1
 92
        8
176
     1
 66
     7
176
     1
 43
1.0
176
     1
 76
     1
176
     1
 77
     6
176
     1
 78
     2
176
     1
 67
     7
176
     1
 79
     5
176
     1
170
     0
176
     1
171
     0
176
     1
290
     0
176
     1
 93
        1
176
     1
 44
-50.0
176
     1
173
     0
176
     1
  0
VISUALSTYLE
  5
39
102
{ACAD_REACTORS
330
2A
102
}
330
2A
100
AcDbVisualStyle
  2
Facepattern
 70
    15
177
     2
291
     1
 71
     2
176
     1
 72
     2
176
     1
 73
     0
176
     1
 90
        0
176
     1
 40
-0.6
176
     1
 41
-30.0
176
     1
 62
     5
 63
     7
421
 16777215
176
     1
 74
     1
176
     1
 91
        4
176
     1
 64
     7
176
     1
 65
   257
176
     1
 75
     1
176
     1
175
     1
176
     1
 42
1.0
176
     1
 92
        8
176
     1
 66
     7
176
     1
 43
1.0
176
     1
 76
     1
176
     1
 77
     6
176
     1
 78
     2
176
     1
 67
     7
176
     1
 79
     5
176
     1
170
     0
176
     1
171
     0
176
     1
290
     0
176
     1
 93
        1
176
     1
 44
0.0
176
     1
173
     0
176
     1
  0
VISUALSTYLE
  5
2B
102
{ACAD_REACTORS
330
2A
102
}
330
2A
100
AcDbVisualStyle
  2
Flat
 70
     0
177
     2
291
     1
 71
     2
176
     1
 72
     1
176
     1
 73
     1
176
     1
 90
        2
176
     1
 40
-0.6
176
     1
 41
30.0
176
     1
 62
     5
 63
     7
421
 16777215
176
     1
 74
     0
176
     1
 91
        4
176
     1
 64
     7
176
     1
 65
   257
176
     1
 75
     1
176
     1
175
     1
176
     1
 42
1.0
176
     1
 92
        8
176
     1
 66
     7
176
     1
 43
1.0
176
     1
 76
     1
176
     1
 77
     6
176
     1
 78
     2
176
     1
 67
     7
176
     1
 79
     5
176
     1
170
     0
176
     1
171
     0
176
     1
290
     0
176
     1
 93
       13
176
     1
 44
0.0
176
     1
173
     0
176
     1
  0
VISUALSTYLE
  5
2C
102
{ACAD_REACTORS
330
2A
102
}
330
2A
100
AcDbVisualStyle
  2
FlatWithEdges
 70
     1
177
     2
291
     1
 71
     2
176
     1
 72
     1
176
     1
 73
     1
176
     1
 90
        2
176
     1
 40
-0.6
176
     1
 41
30.0
176
     1
 62
     5
 63
     7
421
 16777215
176
     1
 74
     1
176
     1
 91
        4
176
     1
 64
     7
176
     1
 65
   257
176
     1
 75
     1
176
     1
175
     1
176
     1
 42
1.0
176
     1
 92
        0
176
     1
 66
   257
176
     1
 43
1.0
176
     1
 76
     1
176
     1
 77
     6
176
     1
 78
     2
176
     1
 67
     7
176
     1
 79
     5
176
     1
170
     0
176
     1
171
     0
176
     1
290
     0
176
     1
 93
       13
176
     1
 44
0.0
176
     1
173
     0
176
     1
  0
VISUALSTYLE
  5
2D
102
{ACAD_REACTORS
330
2A
102
}
330
2A
100
AcDbVisualStyle
  2
Gouraud
 70
     2
177
     2
291
     1
 71
     2
176
     1
 72
     2
176
     1
 73
     1
176
     1
 90
        2
176
     1
 40
-0.6
176
     1
 41
30.0
176
     1
 62
     5
 63
     7
421
 16777215
176
     1
 74
     0
176
     1
 91
        4
176
     1
 64
     7
176
     1
 65
   257
176
     1
 75
     1
176
     1
175
     1
176
     1
 42
1.0
176
     1
 92
        0
176
     1
 66
     7
176
     1
 43
1.0
176
     1
 76
     1
176
     1
 77
     6
176
     1
 78
     2
176
     1
 67
     7
176
     1
 79
     5
176
     1
170
     0
176
     1
171
     0
176
     1
290
     0
176
     1
 93
       13
176
     1
 44
0.0
176
     1
173
     0
176
     1
  0
VISUALSTYLE
  5
2E
102
{ACAD_REACTORS
330
2A
102
}
330
2A
100
AcDbVisualStyle
  2
GouraudWithEdges
 70
     3
177
     2
291
     1
 71
     2
176
     1
 72
     2
176
     1
 73
     1
176
     1
 90
        2
176
     1
 40
-0.6
176
     1
 41
30.0
176
     1
 62
     5
 63
     7
421
 16777215
176
     1
 74
     1
176
     1
 91
        4
176
     1
 64
     7
176
     1
 65
   257
176
     1
 75
     1
176
     1
175
     1
176
     1
 42
1.0
176
     1
 92
        0
176
     1
 66
   257
176
     1
 43
1.0
176
     1
 76
     1
176
     1
 77
     6
176
     1
 78
     2
176
     1
 67
     7
176
     1
 79
     5
176
     1
170
     0
176
     1
171
     0
176
     1
290
     0
176
     1
 93
       13
176
     1
 44
0.0
176
     1
173
     0
176
     1
  0
VISUALSTYLE
  5
38
102
{ACAD_REACTORS
330
2A
102
}
330
2A
100
AcDbVisualStyle
  2
Linepattern
 70
    14
177
     2
291
     1
 71
     2
176
     1
 72
     2
176
     1
 73
     0
176
     1
 90
        0
176
     1
 40
-0.6
176
     1
 41
-30.0
176
     1
 62
     5
 63
     7
421
 16777215
176
     1
 74
     1
176
     1
 91
        4
176
     1
 64
     7
176
     1
 65
   257
176
     1
 75
     7
176
     1
175
     7
176
     1
 42
1.0
176
     1
 92
        8
176
     1
 66
     7
176
     1
 43
1.0
176
     1
 76
     1
176
     1
 77
     6
176
     1
 78
     2
176
     1
 67
     7
176
     1
 79
     5
176
     1
170
     0
176
     1
171
     0
176
     1
290
     0
176
     1
 93
        1
176
     1
 44
0.0
176
     1
173
     0
176
     1
  0
VISUALSTYLE
  5
33
102
{ACAD_REACTORS
330
2A
102
}
330
2A
100
AcDbVisualStyle
  2
Realistic
 70
     8
177
     2
291
     0
 71
     2
176
     1
 72
     2
176
     1
 73
     0
176
     1
 90
        0
176
     1
 40
-0.6
176
     1
 41
-30.0
176
     1
 62
     5
 63
     7
421
 16777215
176
     1
 74
     1
176
     1
 91
        0
176
     1
 64
     7
176
     1
 65
   257
176
     1
 75
     1
176
     1
175
     1
176
     1
 42
1.0
176
     1
 92
        8
176
     1
 66
     8
424
  7895160
176
     1
 43
1.0
176
     1
 76
     1
176
     1
 77
     6
176
     1
 78
     2
176
     1
 67
     7
176
     1
 79
     5
176
     1
170
     0
176
     1
171
     0
176
     1
290
     0
176
     1
 93
       13
176
     1
 44
0.0
176
     1
173
     0
176
     1
  0
VISUALSTYLE
  5
37
102
{ACAD_REACTORS
330
2A
102
}
330
2A
100
AcDbVisualStyle
  2
Thicken
 70
    13
177
     2
291
     1
 71
     2
176
     1
 72
     2
176
     1
 73
     0
176
     1
 90
        0
176
     1
 40
-0.6
176
     1
 41
-30.0
176
     1
 62
     5
 63
     7
421
 16777215
176
     1
 74
     1
176
     1
 91
        4
176
     1
 64
     7
176
     1
 65
   257
176
     1
 75
     1
176
     1
175
     1
176
     1
 42
1.0
176
     1
 92
       12
176
     1
 66
     7
176
     1
 43
1.0
176
     1
 76
     1
176
     1
 77
     6
176
     1
 78
     2
176
     1
 67
     7
176
     1
 79
     5
176
     1
170
     0
176
     1
171
     0
176
     1
290
     0
176
     1
 93
        1
176
     1
 44
0.0
176
     1
173
     0
176
     1
  0
ENDSEC
  0
EOF
