  0
SECTION
  2
HEADER
  9
$ACADVER
  1
AC1024
  9
$ACADMAINTVER
 70
     6
  9
$DWGCODEPAGE
  3
UNDEFINED
  9
$INSBASE
 10
0.0
 20
0.0
 30
0.0
  9
$EXTMIN
 10
1.000000000000000E+20
 20
1.000000000000000E+20
 30
1.000000000000000E+20
  9
$EXTMAX
 10
-1.000000000000000E+20
 20
-1.000000000000000E+20
 30
-1.000000000000000E+20
  9
$LIMMIN
 10
0.0
 20
0.0
  9
$LIMMAX
 10
12.0
 20
9.0
  9
$ORTHOMODE
 70
     0
  9
$REGENMODE
 70
     1
  9
$FILLMODE
 70
     1
  9
$QTEXTMODE
 70
     0
  9
$MIRRTEXT
 70
     1
  9
$LTSCALE
 40
1.0
  9
$ATTMODE
 70
     1
  9
$TEXTSIZE
 40
0.2
  9
$TRACEWID
 40
0.05
  9
$TEXTSTYLE
  7
Standard
  9
$CLAYER
  8
0
  9
$CELTYPE
  6
ByLayer
  9
$CECOLOR
 62
   256
  9
$CELTSCALE
 40
1.0
  9
$DISPSILH
 70
     0
  9
$DIMSCALE
 40
1.0
  9
$DIMASZ
 40
0.18
  9
$DIMEXO
 40
0.0625
  9
$DIMDLI
 40
0.38
  9
$DIMRND
 40
0.0
  9
$DIMDLE
 40
0.0
  9
$DIMEXE
 40
0.18
  9
$DIMTP
 40
0.0
  9
$DIMTM
 40
0.0
  9
$DIMTXT
 40
0.18
  9
$DIMCEN
 40
0.09
  9
$DIMTSZ
 40
0.0
  9
$DIMTOL
 70
     0
  9
$DIMLIM
 70
     0
  9
$DIMTIH
 70
     1
  9
$DIMTOH
 70
     1
  9
$DIMSE1
 70
     0
  9
$DIMSE2
 70
     0
  9
$DIMTAD
 70
     0
  9
$DIMZIN
 70
     0
  9
$DIMBLK
  1

  9
$DIMASO
 70
     1
  9
$DIMSHO
 70
     1
  9
$DIMPOST
  1

  9
$DIMAPOST
  1

  9
$DIMALT
 70
     0
  9
$DIMALTD
 70
     2
  9
$DIMALTF
 40
25.4
  9
$DIMLFAC
 40
1.0
  9
$DIMTOFL
 70
     0
  9
$DIMTVP
 40
0.0
  9
$DIMTIX
 70
     0
  9
$DIMSOXD
 70
     0
  9
$DIMSAH
 70
     0
  9
$DIMBLK1
  1

  9
$DIMBLK2
  1

  9
$DIMSTYLE
  2
Standard
  9
$DIMCLRD
 70
     0
  9
$DIMCLRE
 70
     0
  9
$DIMCLRT
 70
     0
  9
$DIMTFAC
 40
1.0
  9
$DIMGAP
 40
0.09
  9
$DIMJUST
 70
     0
  9
$DIMSD1
 70
     0
  9
$DIMSD2
 70
     0
  9
$DIMTOLJ
 70
     1
  9
$DIMTZIN
 70
     0
  9
$DIMALTZ
 70
     0
  9
$DIMALTTZ
 70
     0
  9
$DIMUPT
 70
     0
  9
$DIMDEC
 70
     4
  9
$DIMTDEC
 70
     4
  9
$DIMALTU
 70
     2
  9
$DIMALTTD
 70
     2
  9
$DIMTXSTY
  7
Standard
  9
$DIMAUNIT
 70
     0
  9
$DIMADEC
 70
     0
  9
$DIMALTRND
 40
0.0
  9
$DIMAZIN
 70
     0
  9
$DIMDSEP
 70
    46
  9
$DIMATFIT
 70
     3
  9
$DIMFRAC
 70
     0
  9
$DIMLDRBLK
  1

  9
$DIMLUNIT
 70
     2
  9
$DIMLWD
 70
    -2
  9
$DIMLWE
 70
    -2
  9
$DIMTMOVE
 70
     0
  9
$DIMFXL
 40
1.0
  9
$DIMFXLON
 70
     0
  9
$DIMJOGANG
 40
0.7853981633974483
  9
$DIMTFILL
 70
     0
  9
$DIMTFILLCLR
 70
     0
  9
$DIMARCSYM
 70
     0
  9
$DIMLTYPE
  6

  9
$DIMLTEX1
  6

  9
$DIMLTEX2
  6

  9
$DIMTXTDIRECTION
 70
     0
  9
$LUNITS
 70
     2
  9
$LUPREC
 70
     4
  9
$SKETCHINC
 40
0.1
  9
$FILLETRAD
 40
0.5
  9
$AUNITS
 70
     0
  9
$AUPREC
 70
     0
  9
$MENU
  1
.
  9
$ELEVATION
 40
0.0
  9
$PELEVATION
 40
0.0
  9
$THICKNESS
 40
0.0
  9
$LIMCHECK
 70
     0
  9
$CHAMFERA
 40
0.5
  9
$CHAMFERB
 40
0.5
  9
$CHAMFERC
 40
1.0
  9
$CHAMFERD
 40
0.0
  9
$SKPOLY
 70
     0
  9
$TDCREATE
 40
2457917.600405093
  9
$TDUCREATE
 40
2457917.225405093
  9
$TDUPDATE
 40
2457917.600405093
  9
$TDUUPDATE
 40
2457917.225405093
  9
$TDINDWG
 40
0.0000000116
  9
$TDUSRTIMER
 40
0.0000000116
  9
$USRTIMER
 70
     1
  9
$ANGBASE
 50
0.0
  9
$ANGDIR
 70
     0
  9
$PDMODE
 70
     0
  9
$PDSIZE
 40
0.0
  9
$PLINEWID
 40
0.0
  9
$SPLFRAME
 70
     0
  9
$SPLINETYPE
 70
     6
  9
$SPLINESEGS
 70
     8
  9
$HANDSEED
  5
10B
  9
$SURFTAB1
 70
     6
  9
$SURFTAB2
 70
     6
  9
$SURFTYPE
 70
     6
  9
$SURFU
 70
     6
  9
$SURFV
 70
     6
  9
$UCSBASE
  2

  9
$UCSNAME
  2

  9
$UCSORG
 10
0.0
 20
0.0
 30
0.0
  9
$UCSXDIR
 10
1.0
 20
0.0
 30
0.0
  9
$UCSYDIR
 10
0.0
 20
1.0
 30
0.0
  9
$UCSORTHOREF
  2

  9
$UCSORTHOVIEW
 70
     0
  9
$UCSORGTOP
 10
0.0
 20
0.0
 30
0.0
  9
$UCSORGBOTTOM
 10
0.0
 20
0.0
 30
0.0
  9
$UCSORGLEFT
 10
0.0
 20
0.0
 30
0.0
  9
$UCSORGRIGHT
 10
0.0
 20
0.0
 30
0.0
  9
$UCSORGFRONT
 10
0.0
 20
0.0
 30
0.0
  9
$UCSORGBACK
 10
0.0
 20
0.0
 30
0.0
  9
$PUCSBASE
  2

  9
$PUCSNAME
  2

  9
$PUCSORG
 10
0.0
 20
0.0
 30
0.0
  9
$PUCSXDIR
 10
1.0
 20
0.0
 30
0.0
  9
$PUCSYDIR
 10
0.0
 20
1.0
 30
0.0
  9
$PUCSORTHOREF
  2

  9
$PUCSORTHOVIEW
 70
     0
  9
$PUCSORGTOP
 10
0.0
 20
0.0
 30
0.0
  9
$PUCSORGBOTTOM
 10
0.0
 20
0.0
 30
0.0
  9
$PUCSORGLEFT
 10
0.0
 20
0.0
 30
0.0
  9
$PUCSORGRIGHT
 10
0.0
 20
0.0
 30
0.0
  9
$PUCSORGFRONT
 10
0.0
 20
0.0
 30
0.0
  9
$PUCSORGBACK
 10
0.0
 20
0.0
 30
0.0
  9
$USERI1
 70
     0
  9
$USERI2
 70
     0
  9
$USERI3
 70
     0
  9
$USERI4
 70
     0
  9
$USERI5
 70
     0
  9
$USERR1
 40
0.0
  9
$USERR2
 40
0.0
  9
$USERR3
 40
0.0
  9
$USERR4
 40
0.0
  9
$USERR5
 40
0.0
  9
$WORLDVIEW
 70
     1
  9
$SHADEDGE
 70
     3
  9
$SHADEDIF
 70
    70
  9
$TILEMODE
 70
     1
  9
$MAXACTVP
 70
    64
  9
$PINSBASE
 10
0.0
 20
0.0
 30
0.0
  9
$PLIMCHECK
 70
     0
  9
$PEXTMIN
 10
1.000000000000000E+20
 20
1.000000000000000E+20
 30
1.000000000000000E+20
  9
$PEXTMAX
 10
-1.000000000000000E+20
 20
-1.000000000000000E+20
 30
-1.000000000000000E+20
  9
$PLIMMIN
 10
0.0
 20
0.0
  9
$PLIMMAX
 10
12.0
 20
9.0
  9
$UNITMODE
 70
     0
  9
$VISRETAIN
 70
     1
  9
$PLINEGEN
 70
     0
  9
$PSLTSCALE
 70
     1
  9
$TREEDEPTH
 70
  3020
  9
$CMLSTYLE
  2
Standard
  9
$CMLJUST
 70
     0
  9
$CMLSCALE
 40
1.0
  9
$PROXYGRAPHICS
 70
     1
  9
$MEASUREMENT
 70
     0
  9
$CELWEIGHT
370
    -1
  9
$ENDCAPS
280
     0
  9
$JOINSTYLE
280
     0
  9
$LWDISPLAY
290
     1
  9
$INSUNITS
 70
     1
  9
$HYPERLINKBASE
  1

  9
$STYLESHEET
  1

  9
$XEDIT
290
     1
  9
$CEPSNTYPE
380
     0
  9
$PSTYLEMODE
290
     1
  9
$FINGERPRINTGUID
  2
{C456AE04-9C50-CF76-5931-BE756E9BC023}
  9
$VERSIONGUID
  2
{FAEB1C32-E019-11D5-929B-00C0DF256EC4}
  9
$EXTNAMES
290
     1
  9
$PSVPSCALE
 40
0.0
  9
$OLESTARTUP
290
     0
  9
$SORTENTS
280
   127
  9
$INDEXCTL
280
     0
  9
$HIDETEXT
280
     1
  9
$XCLIPFRAME
280
     2
  9
$HALOGAP
280
     0
  9
$OBSCOLOR
 70
   257
  9
$OBSLTYPE
280
     0
  9
$INTERSECTIONDISPLAY
280
     0
  9
$INTERSECTIONCOLOR
 70
   257
  9
$DIMASSOC
280
     2
  9
$PROJECTNAME
  1

  9
$CAMERADISPLAY
290
     0
  9
$LENSLENGTH
 40
50.0
  9
$CAMERAHEIGHT
 40
0.0
  9
$STEPSPERSEC
 40
2.0
  9
$STEPSIZE
 40
6.0
  9
$3DDWFPREC
 40
2.0
  9
$PSOLWIDTH
 40
0.25
  9
$PSOLHEIGHT
 40
4.0
  9
$LOFTANG1
 40
1.570796326794897
  9
$LOFTANG2
 40
1.570796326794897
  9
$LOFTMAG1
 40
0.0
  9
$LOFTMAG2
 40
0.0
  9
$LOFTPARAM
 70
     7
  9
$LOFTNORMALS
280
     1
  9
$LATITUDE
 40
37.795
  9
$LONGITUDE
 40
-122.394
  9
$NORTHDIRECTION
 40
0.0
  9
$TIMEZONE
 70
 -8000
  9
$LIGHTGLYPHDISPLAY
280
     1
  9
$TILEMODELIGHTSYNCH
280
     1
  9
$CMATERIAL
347
3C
  9
$SOLIDHIST
280
     1
  9
$SHOWHIST
280
     1
  9
$DWFFRAME
280
     2
  9
$DGNFRAME
280
     2
  9
$REALWORLDSCALE
290
     1
  9
$INTERFERECOLOR
 62
   256
  9
$CSHADOW
280
     0
  9
$SHADOWPLANELOCATION
 40
0.0
  0
ENDSEC
  0
SECTION
  2
CLASSES
  0
CLASS
  1
ACDBDICTIONARYWDFLT
  2
AcDbDictionaryWithDefault
  3
ObjectDBX Classes
 90
        0
 91
        4
280
     0
281
     0
  0
CLASS
  1
VISUALSTYLE
  2
AcDbVisualStyle
  3
ObjectDBX Classes
 90
     4095
 91
        4
280
     0
281
     0
  0
CLASS
  1
MATERIAL
  2
AcDbMaterial
  3
ObjectDBX Classes
 90
     1153
 91
        4
280
     0
281
     0
  0
CLASS
  1
SUN
  2
AcDbSun
  3
SCENEOE
 90
     1024
 91
        4
280
     0
281
     0
  0
ENDSEC
  0
SECTION
  2
TABLES
  0
TABLE
  2
VPORT
  5
8
330
0
100
AcDbSymbolTable
 70
     1
  0
VPORT
  5
29
330
8
100
AcDbSymbolTableRecord
100
AcDbViewportTableRecord
  2
*Active
 70
     0
 10
0.0
 20
0.0
 11
1.0
 21
1.0
 12
0.0
 22
0.0
 13
0.0
 23
0.0
 14
0.5
 24
0.5
 15
0.5
 25
0.5
 16
0.0
 26
0.0
 36
1.0
 17
63.499999984125
 27
-89.00059456108309
 37
0.0
 40
178.0011891221662
 41
0.7134783795241226
 42
50.0
 43
0.0
 44
0.0
 50
0.0
 51
0.0
 71
     0
 72
   100
 73
     1
 74
     3
 75
     0
 76
     0
 77
     0
 78
     0
281
     0
 65
     1
110
0.0
120
0.0
130
0.0
111
1.0
121
0.0
131
0.0
112
0.0
122
1.0
132
0.0
 79
     0
146
0.0
 60
     3
 61
     5
292
     1
282
     1
141
0.0
142
0.0
 63
   250
361
3F
  0
ENDTAB
  0
TABLE
  2
LTYPE
  5
5
330
0
100
AcDbSymbolTable
 70
     2
  0
LTYPE
  5
14
330
5
100
AcDbSymbolTableRecord
100
AcDbLinetypeTableRecord
  2
ByBlock
 70
     0
  3

 72
    65
 73
     0
 40
0.0
  0
LTYPE
  5
15
330
5
100
AcDbSymbolTableRecord
100
AcDbLinetypeTableRecord
  2
ByLayer
 70
     0
  3

 72
    65
 73
     0
 40
0.0
  0
LTYPE
  5
16
330
5
100
AcDbSymbolTableRecord
100
AcDbLinetypeTableRecord
  2
Continuous
 70
     0
  3
Solid line
 72
    65
 73
     0
 40
0.0
  0
LTYPE
  5
107
330
5
100
AcDbSymbolTableRecord
100
AcDbLinetypeTableRecord
  2
AI-Linetype-1
 70
     0
  3
Adobe Illustrator Linetype No. 1
 72
    65
 73
     2
 40
1.411111110758333
 49
0.7055555553791667
 74
     0
 49
-0.7055555553791667
 74
     0
  0
ENDTAB
  0
TABLE
  2
LAYER
  5
2
330
0
100
AcDbSymbolTable
 70
     2
  0
LAYER
  5
10
330
2
100
AcDbSymbolTableRecord
100
AcDbLayerTableRecord
  2
0
 70
     0
 62
     7
  6
Continuous
370
    -3
390
F
347
3E
  0
LAYER
  5
40
330
2
100
AcDbSymbolTableRecord
100
AcDbLayerTableRecord
  2
_U+30EC_U+30A4_U+30E4_U+30FC 1
 70
     0
 62
     7
  6
Continuous
370
    -3
390
F
347
3E
  0
ENDTAB
  0
TABLE
  2
STYLE
  5
3
330
0
100
AcDbSymbolTable
 70
     1
  0
STYLE
  5
11
330
3
100
AcDbSymbolTableRecord
100
AcDbTextStyleTableRecord
  2
Standard
 70
     0
 40
0.0
 41
1.0
 50
0.0
 71
     0
 42
0.2
  3
txt
  4

  0
ENDTAB
  0
TABLE
  2
VIEW
  5
6
330
0
100
AcDbSymbolTable
 70
     0
  0
ENDTAB
  0
TABLE
  2
UCS
  5
7
330
0
100
AcDbSymbolTable
 70
     0
  0
ENDTAB
  0
TABLE
  2
APPID
  5
9
330
0
100
AcDbSymbolTable
 70
     1
  0
APPID
  5
12
330
9
100
AcDbSymbolTableRecord
100
AcDbRegAppTableRecord
  2
ACAD
 70
     0
  0
ENDTAB
  0
TABLE
  2
DIMSTYLE
  5
A
330
0
100
AcDbSymbolTable
 70
     1
100
AcDbDimStyleTable
  0
DIMSTYLE
105
27
330
A
100
AcDbSymbolTableRecord
100
AcDbDimStyleTableRecord
  2
Standard
 70
     0
178
     0
340
11
  0
ENDTAB
  0
TABLE
  2
BLOCK_RECORD
  5
1
330
0
100
AcDbSymbolTable
 70
     8
  0
BLOCK_RECORD
  5
1F
330
1
100
AcDbSymbolTableRecord
100
AcDbBlockTableRecord
  2
*Model_Space
340
22
 70
     0
280
     1
281
     0
  0
BLOCK_RECORD
  5
1B
330
1
100
AcDbSymbolTableRecord
100
AcDbBlockTableRecord
  2
*Paper_Space
340
1E
 70
     0
280
     1
281
     0
  0
BLOCK_RECORD
  5
23
330
1
100
AcDbSymbolTableRecord
100
AcDbBlockTableRecord
  2
*Paper_Space0
340
26
 70
     0
280
     1
281
     0
  0
BLOCK_RECORD
  5
54
330
1
100
AcDbSymbolTableRecord
100
AcDbBlockTableRecord
  2
block 2
340
0
102
{BLKREFS
331
55
102
}
 70
     0
280
     1
281
     0
  0
BLOCK_RECORD
  5
5A
330
1
100
AcDbSymbolTableRecord
100
AcDbBlockTableRecord
  2
block 3
340
0
102
{BLKREFS
331
5B
102
}
 70
     0
280
     1
281
     0
  0
BLOCK_RECORD
  5
61
330
1
100
AcDbSymbolTableRecord
100
AcDbBlockTableRecord
  2
block 4
340
0
102
{BLKREFS
331
62
102
}
 70
     0
280
     1
281
     0
  0
BLOCK_RECORD
  5
69
330
1
100
AcDbSymbolTableRecord
100
AcDbBlockTableRecord
  2
block 5
340
0
102
{BLKREFS
331
6A
102
}
 70
     0
280
     1
281
     0
  0
BLOCK_RECORD
  5
71
330
1
100
AcDbSymbolTableRecord
100
AcDbBlockTableRecord
  2
block 6
340
0
102
{BLKREFS
331
72
102
}
 70
     0
280
     1
281
     0
  0
BLOCK_RECORD
  5
A5
330
1
100
AcDbSymbolTableRecord
100
AcDbBlockTableRecord
  2
block 7
340
0
102
{BLKREFS
331
A6
102
}
 70
     0
280
     1
281
     0
  0
BLOCK_RECORD
  5
B9
330
1
100
AcDbSymbolTableRecord
100
AcDbBlockTableRecord
  2
block 8
340
0
102
{BLKREFS
331
BA
102
}
 70
     0
280
     1
281
     0
  0
ENDTAB
  0
ENDSEC
  0
SECTION
  2
BLOCKS
  0
BLOCK
  5
20
330
1F
100
AcDbEntity
  8
0
100
AcDbBlockBegin
  2
*Model_Space
 70
     0
 10
0.0
 20
0.0
 30
0.0
  3
*Model_Space
  1

  0
ENDBLK
  5
21
330
1F
100
AcDbEntity
  8
0
100
AcDbBlockEnd
  0
BLOCK
  5
1C
330
1B
100
AcDbEntity
 67
     1
  8
0
100
AcDbBlockBegin
  2
*Paper_Space
 70
     0
 10
0.0
 20
0.0
 30
0.0
  3
*Paper_Space
  1

  0
ENDBLK
  5
1D
330
1B
100
AcDbEntity
 67
     1
  8
0
100
AcDbBlockEnd
  0
BLOCK
  5
24
330
23
100
AcDbEntity
  8
0
100
AcDbBlockBegin
  2
*Paper_Space0
 70
     0
 10
0.0
 20
0.0
 30
0.0
  3
*Paper_Space0
  1

  0
ENDBLK
  5
25
330
23
100
AcDbEntity
  8
0
100
AcDbBlockEnd
  0
BLOCK
  5
56
330
54
100
AcDbEntity
  8
0
100
AcDbBlockBegin
  2
block 2
 70
     0
 10
0.0
 20
0.0
 30
0.0
  3
block 2
  1

  0
SPLINE
  5
58
330
54
100
AcDbEntity
  8
_U+30EC_U+30A4_U+30E4_U+30FC 1
370
     0
100
AcDbSpline
210
0.0
220
0.0
230
1.0
 70
    11
 71
     3
 72
    26
 73
    22
 74
     0
 42
0.0000000001
 43
0.0000000001
 12
1.0
 22
0.0
 32
0.0
 13
1.0
 23
0.0
 33
0.0
 40
0.0
 40
0.0
 40
0.0
 40
0.0
 40
1.0
 40
1.0
 40
1.0
 40
2.0
 40
2.0
 40
2.0
 40
3.0
 40
3.0
 40
3.0
 40
4.0
 40
4.0
 40
4.0
 40
5.0
 40
5.0
 40
5.0
 40
6.0
 40
6.0
 40
6.0
 40
7.0
 40
7.0
 40
7.0
 40
7.0
 10
80.65554197202361
 20
-81.50406899004065
 30
0.0
 10
80.65554197202361
 20
-81.50406899004065
 30
0.0
 10
79.55138886900104
 20
-81.50406899004065
 30
0.0
 10
79.55138886900104
 20
-81.50406899004065
 30
0.0
 10
79.55138886900104
 20
-81.50406899004065
 30
0.0
 10
79.55138886900104
 20
-81.83410913752759
 30
0.0
 10
79.55138886900104
 20
-81.83410913752759
 30
0.0
 10
79.55138886900104
 20
-81.83410913752759
 30
0.0
 10
79.4032497631353
 20
-81.83410913752759
 30
0.0
 10
79.4032497631353
 20
-81.83410913752759
 30
0.0
 10
79.38843585254872
 20
-81.50200193274951
 30
0.0
 10
79.2254828360964
 20
-81.45549314369863
 30
0.0
 10
79.11110566598612
 20
-81.42586532252548
 30
0.0
 10
79.11110566598612
 20
-81.42586532252548
 30
0.0
 10
79.11110566598612
 20
-81.27979327395089
 30
0.0
 10
79.11110566598612
 20
-81.27979327395089
 30
0.0
 10
79.11110566598612
 20
-81.27979327395089
 30
0.0
 10
80.65554197202361
 20
-81.27979327395089
 30
0.0
 10
80.65554197202361
 20
-81.27979327395089
 30
0.0
 10
80.65554197202361
 20
-81.27979327395089
 30
0.0
 10
80.65554197202361
 20
-81.50406899004065
 30
0.0
 10
80.65554197202361
 20
-81.50406899004065
 30
0.0
  0
HATCH
  5
59
330
54
100
AcDbEntity
  8
_U+30EC_U+30A4_U+30E4_U+30FC 1
 62
     7
420
 16777215
100
AcDbHatch
 10
0.0
 20
0.0
 30
0.0
210
0.0
220
0.0
230
1.0
  2
SOLID
 70
     1
 71
     0
 91
        1
 92
        1
 93
        1
 72
     4
 94
        3
 73
     0
 74
     1
 95
       26
 96
       22
 40
0.0
 40
0.0
 40
0.0
 40
0.0
 40
1.0
 40
1.0
 40
1.0
 40
2.0
 40
2.0
 40
2.0
 40
3.0
 40
3.0
 40
3.0
 40
4.0
 40
4.0
 40
4.0
 40
5.0
 40
5.0
 40
5.0
 40
6.0
 40
6.0
 40
6.0
 40
7.0
 40
7.0
 40
7.0
 40
7.0
 10
80.65554197202361
 20
-81.50406899004065
 10
80.65554197202361
 20
-81.50406899004065
 10
79.55138886900104
 20
-81.50406899004065
 10
79.55138886900104
 20
-81.50406899004065
 10
79.55138886900104
 20
-81.50406899004065
 10
79.55138886900104
 20
-81.83410913752759
 10
79.55138886900104
 20
-81.83410913752759
 10
79.55138886900104
 20
-81.83410913752759
 10
79.4032497631353
 20
-81.83410913752759
 10
79.4032497631353
 20
-81.83410913752759
 10
79.38843585254872
 20
-81.50200193274951
 10
79.2254828360964
 20
-81.45549314369863
 10
79.11110566598612
 20
-81.42586532252548
 10
79.11110566598612
 20
-81.42586532252548
 10
79.11110566598612
 20
-81.27979327395089
 10
79.11110566598612
 20
-81.27979327395089
 10
79.11110566598612
 20
-81.27979327395089
 10
80.65554197202361
 20
-81.27979327395089
 10
80.65554197202361
 20
-81.27979327395089
 10
80.65554197202361
 20
-81.27979327395089
 10
80.65554197202361
 20
-81.50406899004065
 10
80.65554197202361
 20
-81.50406899004065
 97
        0
 97
        0
 75
     2
 76
     1
 98
        0
  0
ENDBLK
  5
57
330
54
100
AcDbEntity
  8
0
100
AcDbBlockEnd
  0
BLOCK
  5
5C
330
5A
100
AcDbEntity
  8
0
100
AcDbBlockBegin
  2
block 3
 70
     0
 10
0.0
 20
0.0
 30
0.0
  3
block 3
  1

  0
SPLINE
  5
5E
330
5A
100
AcDbEntity
  8
_U+30EC_U+30A4_U+30E4_U+30FC 1
370
     0
100
AcDbSpline
210
0.0
220
0.0
230
1.0
 70
    11
 71
     3
 72
    32
 73
    28
 74
     0
 42
0.0000000001
 43
0.0000000001
 12
1.0
 22
0.0
 32
0.0
 13
1.0
 23
0.0
 33
0.0
 40
0.0
 40
0.0
 40
0.0
 40
0.0
 40
1.0
 40
1.0
 40
1.0
 40
2.0
 40
2.0
 40
2.0
 40
3.0
 40
3.0
 40
3.0
 40
4.0
 40
4.0
 40
4.0
 40
5.0
 40
5.0
 40
5.0
 40
6.0
 40
6.0
 40
6.0
 40
7.0
 40
7.0
 40
7.0
 40
8.0
 40
8.0
 40
8.0
 40
9.0
 40
9.0
 40
9.0
 40
9.0
 10
49.52772622459724
 20
-98.67097979304059
 30
0.0
 10
49.35443792168917
 20
-98.67097979304059
 30
0.0
 10
49.10880261359086
 20
-98.60138886423854
 30
0.0
 10
49.07090656325311
 20
-98.26928165946046
 30
0.0
 10
49.07090656325311
 20
-98.26928165946046
 30
0.0
 10
49.2845024833386
 20
-98.26928165946046
 30
0.0
 10
49.2845024833386
 20
-98.26928165946046
 30
0.0
 10
49.29518227934287
 20
-98.32853730180676
 30
0.0
 10
49.32687715780717
 20
-98.47633189812397
 30
0.0
 10
49.52979328188839
 20
-98.47633189812397
 30
0.0
 10
49.82193737903757
 20
-98.47633189812397
 30
0.0
 10
49.85983342937532
 20
-98.14663626018557
 30
0.0
 10
49.87258028267075
 20
-97.94130856926468
 30
0.0
 10
49.78162976186015
 20
-98.021579294071
 30
0.0
 10
49.71410589034925
 20
-98.07876787912615
 30
0.0
 10
49.53220484872806
 20
-98.07876787912615
 30
0.0
 10
49.35237086439802
 20
-98.07876787912615
 30
0.0
 10
49.04954697124456
 20
-97.97300344772897
 30
0.0
 10
49.04954697124456
 20
-97.56682669001802
 30
0.0
 10
49.04954697124456
 20
-97.24746633853536
 30
0.0
 10
49.248673490292
 20
-97.0273247370279
 30
0.0
 10
49.56596678448351
 20
-97.0273247370279
 30
0.0
 10
50.07997503088279
 20
-97.0273247370279
 30
0.0
 10
50.09065482688706
 20
-97.5816406006046
 30
0.0
 10
50.09065482688706
 20
-97.79523652069008
 30
0.0
 10
50.09065482688706
 20
-98.0257134086533
 30
0.0
 10
50.07136229216966
 20
-98.67097979304059
 30
0.0
 10
49.52772622459724
 20
-98.67097979304059
 30
0.0
  0
SPLINE
  5
5F
330
5A
100
AcDbEntity
  8
_U+30EC_U+30A4_U+30E4_U+30FC 1
370
     0
100
AcDbSpline
210
0.0
220
0.0
230
1.0
 70
    11
 71
     3
 72
    17
 73
    13
 74
     0
 42
0.0000000001
 43
0.0000000001
 12
1.0
 22
0.0
 32
0.0
 13
1.0
 23
0.0
 33
0.0
 40
0.0
 40
0.0
 40
0.0
 40
0.0
 40
1.0
 40
1.0
 40
1.0
 40
2.0
 40
2.0
 40
2.0
 40
3.0
 40
3.0
 40
3.0
 40
4.0
 40
4.0
 40
4.0
 40
4.0
 10
49.56803384177466
 20
-97.21990557465337
 30
0.0
 10
49.44952255708207
 20
-97.21990557465337
 30
0.0
 10
49.27382268733432
 20
-97.27709415970851
 30
0.0
 10
49.27382268733432
 20
-97.56269257543572
 30
0.0
 10
49.27382268733432
 20
-97.78903534881664
 30
0.0
 10
49.41369356403547
 20
-97.88411998420953
 30
0.0
 10
49.54908581660579
 20
-97.88411998420953
 30
0.0
 10
49.8112575830333
 20
-97.88411998420953
 30
0.0
 10
49.84949814291957
 20
-97.67465817870634
 30
0.0
 10
49.84949814291957
 20
-97.5582139513049
 30
0.0
 10
49.84949814291957
 20
-97.38285859110567
 30
0.0
 10
49.75406899797815
 20
-97.21990557465337
 30
0.0
 10
49.56803384177466
 20
-97.21990557465337
 30
0.0
  0
HATCH
  5
60
330
5A
100
AcDbEntity
  8
_U+30EC_U+30A4_U+30E4_U+30FC 1
 62
     7
420
 16777215
100
AcDbHatch
 10
0.0
 20
0.0
 30
0.0
210
0.0
220
0.0
230
1.0
  2
SOLID
 70
     1
 71
     0
 91
        2
 92
        1
 93
        1
 72
     4
 94
        3
 73
     0
 74
     1
 95
       32
 96
       28
 40
0.0
 40
0.0
 40
0.0
 40
0.0
 40
1.0
 40
1.0
 40
1.0
 40
2.0
 40
2.0
 40
2.0
 40
3.0
 40
3.0
 40
3.0
 40
4.0
 40
4.0
 40
4.0
 40
5.0
 40
5.0
 40
5.0
 40
6.0
 40
6.0
 40
6.0
 40
7.0
 40
7.0
 40
7.0
 40
8.0
 40
8.0
 40
8.0
 40
9.0
 40
9.0
 40
9.0
 40
9.0
 10
49.52772622459724
 20
-98.67097979304059
 10
49.35443792168917
 20
-98.67097979304059
 10
49.10880261359086
 20
-98.60138886423854
 10
49.07090656325311
 20
-98.26928165946046
 10
49.07090656325311
 20
-98.26928165946046
 10
49.2845024833386
 20
-98.26928165946046
 10
49.2845024833386
 20
-98.26928165946046
 10
49.29518227934287
 20
-98.32853730180676
 10
49.32687715780717
 20
-98.47633189812397
 10
49.52979328188839
 20
-98.47633189812397
 10
49.82193737903757
 20
-98.47633189812397
 10
49.85983342937532
 20
-98.14663626018557
 10
49.87258028267075
 20
-97.94130856926468
 10
49.78162976186015
 20
-98.021579294071
 10
49.71410589034925
 20
-98.07876787912615
 10
49.53220484872806
 20
-98.07876787912615
 10
49.35237086439802
 20
-98.07876787912615
 10
49.04954697124456
 20
-97.97300344772897
 10
49.04954697124456
 20
-97.56682669001802
 10
49.04954697124456
 20
-97.24746633853536
 10
49.248673490292
 20
-97.0273247370279
 10
49.56596678448351
 20
-97.0273247370279
 10
50.07997503088279
 20
-97.0273247370279
 10
50.09065482688706
 20
-97.5816406006046
 10
50.09065482688706
 20
-97.79523652069008
 10
50.09065482688706
 20
-98.0257134086533
 10
50.07136229216966
 20
-98.67097979304059
 10
49.52772622459724
 20
-98.67097979304059
 97
        0
 97
        0
 92
        1
 93
        1
 72
     4
 94
        3
 73
     0
 74
     1
 95
       17
 96
       13
 40
0.0
 40
0.0
 40
0.0
 40
0.0
 40
1.0
 40
1.0
 40
1.0
 40
2.0
 40
2.0
 40
2.0
 40
3.0
 40
3.0
 40
3.0
 40
4.0
 40
4.0
 40
4.0
 40
4.0
 10
49.56803384177466
 20
-97.21990557465337
 10
49.44952255708207
 20
-97.21990557465337
 10
49.27382268733432
 20
-97.27709415970851
 10
49.27382268733432
 20
-97.56269257543572
 10
49.27382268733432
 20
-97.78903534881664
 10
49.41369356403547
 20
-97.88411998420953
 10
49.54908581660579
 20
-97.88411998420953
 10
49.8112575830333
 20
-97.88411998420953
 10
49.84949814291957
 20
-97.67465817870634
 10
49.84949814291957
 20
-97.5582139513049
 10
49.84949814291957
 20
-97.38285859110567
 10
49.75406899797815
 20
-97.21990557465337
 10
49.56803384177466
 20
-97.21990557465337
 97
        0
 97
        0
 75
     2
 76
     1
 98
        0
  0
ENDBLK
  5
5D
330
5A
100
AcDbEntity
  8
0
100
AcDbBlockEnd
  0
BLOCK
  5
63
330
61
100
AcDbEntity
  8
0
100
AcDbBlockBegin
  2
block 4
 70
     0
 10
0.0
 20
0.0
 30
0.0
  3
block 4
  1

  0
SPLINE
  5
65
330
61
100
AcDbEntity
  8
_U+30EC_U+30A4_U+30E4_U+30FC 1
370
     0
100
AcDbSpline
210
0.0
220
0.0
230
1.0
 70
    11
 71
     3
 72
    26
 73
    22
 74
     0
 42
0.0000000001
 43
0.0000000001
 12
1.0
 22
0.0
 32
0.0
 13
1.0
 23
0.0
 33
0.0
 40
0.0
 40
0.0
 40
0.0
 40
0.0
 40
1.0
 40
1.0
 40
1.0
 40
2.0
 40
2.0
 40
2.0
 40
3.0
 40
3.0
 40
3.0
 40
4.0
 40
4.0
 40
4.0
 40
5.0
 40
5.0
 40
5.0
 40
6.0
 40
6.0
 40
6.0
 40
7.0
 40
7.0
 40
7.0
 40
7.0
 10
63.92684731474746
 20
-98.62033688940743
 30
0.0
 10
63.92684731474746
 20
-98.62033688940743
 30
0.0
 10
63.92684731474746
 20
-97.51618378638484
 30
0.0
 10
63.92684731474746
 20
-97.51618378638484
 30
0.0
 10
63.92684731474746
 20
-97.51618378638484
 30
0.0
 10
63.59697942203479
 20
-97.51618378638484
 30
0.0
 10
63.59697942203479
 20
-97.51618378638484
 30
0.0
 10
63.59697942203479
 20
-97.51618378638484
 30
0.0
 10
63.59697942203479
 20
-97.3680446805191
 30
0.0
 10
63.59697942203479
 20
-97.3680446805191
 30
0.0
 10
63.92891437203861
 20
-97.35323076993252
 30
0.0
 10
63.97542316108948
 20
-97.19027775348022
 30
0.0
 10
64.00505098226263
 20
-97.07590058336991
 30
0.0
 10
64.00505098226263
 20
-97.07590058336991
 30
0.0
 10
64.15112303083723
 20
-97.07590058336991
 30
0.0
 10
64.15112303083723
 20
-97.07590058336991
 30
0.0
 10
64.15112303083723
 20
-97.07590058336991
 30
0.0
 10
64.15112303083723
 20
-98.62033688940743
 30
0.0
 10
64.15112303083723
 20
-98.62033688940743
 30
0.0
 10
64.15112303083723
 20
-98.62033688940743
 30
0.0
 10
63.92684731474746
 20
-98.62033688940743
 30
0.0
 10
63.92684731474746
 20
-98.62033688940743
 30
0.0
  0
HATCH
  5
66
330
61
100
AcDbEntity
  8
_U+30EC_U+30A4_U+30E4_U+30FC 1
 62
     7
420
 16777215
100
AcDbHatch
 10
0.0
 20
0.0
 30
0.0
210
0.0
220
0.0
230
1.0
  2
SOLID
 70
     1
 71
     0
 91
        1
 92
        1
 93
        1
 72
     4
 94
        3
 73
     0
 74
     1
 95
       26
 96
       22
 40
0.0
 40
0.0
 40
0.0
 40
0.0
 40
1.0
 40
1.0
 40
1.0
 40
2.0
 40
2.0
 40
2.0
 40
3.0
 40
3.0
 40
3.0
 40
4.0
 40
4.0
 40
4.0
 40
5.0
 40
5.0
 40
5.0
 40
6.0
 40
6.0
 40
6.0
 40
7.0
 40
7.0
 40
7.0
 40
7.0
 10
63.92684731474746
 20
-98.62033688940743
 10
63.92684731474746
 20
-98.62033688940743
 10
63.92684731474746
 20
-97.51618378638484
 10
63.92684731474746
 20
-97.51618378638484
 10
63.92684731474746
 20
-97.51618378638484
 10
63.59697942203479
 20
-97.51618378638484
 10
63.59697942203479
 20
-97.51618378638484
 10
63.59697942203479
 20
-97.51618378638484
 10
63.59697942203479
 20
-97.3680446805191
 10
63.59697942203479
 20
-97.3680446805191
 10
63.92891437203861
 20
-97.35323076993252
 10
63.97542316108948
 20
-97.19027775348022
 10
64.00505098226263
 20
-97.07590058336991
 10
64.00505098226263
 20
-97.07590058336991
 10
64.15112303083723
 20
-97.07590058336991
 10
64.15112303083723
 20
-97.07590058336991
 10
64.15112303083723
 20
-97.07590058336991
 10
64.15112303083723
 20
-98.62033688940743
 10
64.15112303083723
 20
-98.62033688940743
 10
64.15112303083723
 20
-98.62033688940743
 10
63.92684731474746
 20
-98.62033688940743
 10
63.92684731474746
 20
-98.62033688940743
 97
        0
 97
        0
 75
     2
 76
     1
 98
        0
  0
SPLINE
  5
67
330
61
100
AcDbEntity
  8
_U+30EC_U+30A4_U+30E4_U+30FC 1
370
     0
100
AcDbSpline
210
0.0
220
0.0
230
1.0
 70
    11
 71
     3
 72
    53
 73
    49
 74
     0
 42
0.0000000001
 43
0.0000000001
 12
1.0
 22
0.0
 32
0.0
 13
1.0
 23
0.0
 33
0.0
 40
0.0
 40
0.0
 40
0.0
 40
0.0
 40
1.0
 40
1.0
 40
1.0
 40
2.0
 40
2.0
 40
2.0
 40
3.0
 40
3.0
 40
3.0
 40
4.0
 40
4.0
 40
4.0
 40
5.0
 40
5.0
 40
5.0
 40
6.0
 40
6.0
 40
6.0
 40
7.0
 40
7.0
 40
7.0
 40
8.0
 40
8.0
 40
8.0
 40
9.0
 40
9.0
 40
9.0
 40
10.0
 40
10.0
 40
10.0
 40
11.0
 40
11.0
 40
11.0
 40
12.0
 40
12.0
 40
12.0
 40
13.0
 40
13.0
 40
13.0
 40
14.0
 40
14.0
 40
14.0
 40
15.0
 40
15.0
 40
15.0
 40
16.0
 40
16.0
 40
16.0
 40
16.0
 10
65.13331975368195
 20
-98.67097979304059
 30
0.0
 10
65.05511608616678
 20
-98.67097979304059
 30
0.0
 10
64.95348576935191
 20
-98.65409882516286
 30
0.0
 10
64.85185545253704
 20
-98.59070906823428
 30
0.0
 10
64.67856714962898
 20
-98.4808105222548
 30
0.0
 10
64.65720755762042
 20
-98.34955238426679
 30
0.0
 10
64.63825953245154
 20
-98.24172089557847
 30
0.0
 10
64.63825953245154
 20
-98.24172089557847
 30
0.0
 10
64.86046819125016
 20
-98.24172089557847
 30
0.0
 10
64.86046819125016
 20
-98.24172089557847
 30
0.0
 10
64.91524520946564
 20
-98.44050290507738
 30
0.0
 10
65.04236923287135
 20
-98.47013072625053
 30
0.0
 10
65.1353868109731
 20
-98.47013072625053
 30
0.0
 10
65.27491317812571
 20
-98.47013072625053
 30
0.0
 10
65.42718639857377
 20
-98.37056746672681
 30
0.0
 10
65.42718639857377
 20
-98.13802352147245
 30
0.0
 10
65.42718639857377
 20
-97.88205292691838
 30
0.0
 10
65.24735241424372
 20
-97.81211748856781
 30
0.0
 10
65.12677407225998
 20
-97.81211748856781
 30
0.0
 10
65.09507919379568
 20
-97.81211748856781
 30
0.0
 10
64.95348576935191
 20
-97.81211748856781
 30
0.0
 10
64.86460230583246
 20
-97.94130856926468
 30
0.0
 10
64.86460230583246
 20
-97.94130856926468
 30
0.0
 10
64.68890243608472
 20
-97.92236054409581
 30
0.0
 10
64.68890243608472
 20
-97.92236054409581
 30
0.0
 10
64.68890243608472
 20
-97.92236054409581
 30
0.0
 10
64.80948077806846
 20
-97.07590058336991
 30
0.0
 10
64.80948077806846
 20
-97.07590058336991
 30
0.0
 10
64.80948077806846
 20
-97.07590058336991
 30
0.0
 10
65.58807235773493
 20
-97.07590058336991
 30
0.0
 10
65.58807235773493
 20
-97.07590058336991
 30
0.0
 10
65.58807235773493
 20
-97.07590058336991
 30
0.0
 10
65.58807235773493
 20
-97.27054847828653
 30
0.0
 10
65.58807235773493
 20
-97.27054847828653
 30
0.0
 10
65.58807235773493
 20
-97.27054847828653
 30
0.0
 10
64.97243379452078
 20
-97.27054847828653
 30
0.0
 10
64.97243379452078
 20
-97.27054847828653
 30
0.0
 10
64.97243379452078
 20
-97.27054847828653
 30
0.0
 10
64.90697698030104
 20
-97.69360620387522
 30
0.0
 10
64.90697698030104
 20
-97.69360620387522
 30
0.0
 10
64.96829967993848
 20
-97.65984426811977
 30
0.0
 10
65.05063746203595
 20
-97.61953665094234
 30
0.0
 10
65.16914874672855
 20
-97.61953665094234
 30
0.0
 10
65.42305228399147
 20
-97.61953665094234
 30
0.0
 10
65.66007485337666
 20
-97.80591631669436
 30
0.0
 10
65.66007485337666
 20
-98.11907549630357
 30
0.0
 10
65.66007485337666
 20
-98.43636879049508
 30
0.0
 10
65.43579913728689
 20
-98.67097979304059
 30
0.0
 10
65.13331975368195
 20
-98.67097979304059
 30
0.0
  0
HATCH
  5
68
330
61
100
AcDbEntity
  8
_U+30EC_U+30A4_U+30E4_U+30FC 1
 62
     7
420
 16777215
100
AcDbHatch
 10
0.0
 20
0.0
 30
0.0
210
0.0
220
0.0
230
1.0
  2
SOLID
 70
     1
 71
     0
 91
        1
 92
        1
 93
        1
 72
     4
 94
        3
 73
     0
 74
     1
 95
       53
 96
       49
 40
0.0
 40
0.0
 40
0.0
 40
0.0
 40
1.0
 40
1.0
 40
1.0
 40
2.0
 40
2.0
 40
2.0
 40
3.0
 40
3.0
 40
3.0
 40
4.0
 40
4.0
 40
4.0
 40
5.0
 40
5.0
 40
5.0
 40
6.0
 40
6.0
 40
6.0
 40
7.0
 40
7.0
 40
7.0
 40
8.0
 40
8.0
 40
8.0
 40
9.0
 40
9.0
 40
9.0
 40
10.0
 40
10.0
 40
10.0
 40
11.0
 40
11.0
 40
11.0
 40
12.0
 40
12.0
 40
12.0
 40
13.0
 40
13.0
 40
13.0
 40
14.0
 40
14.0
 40
14.0
 40
15.0
 40
15.0
 40
15.0
 40
16.0
 40
16.0
 40
16.0
 40
16.0
 10
65.13331975368195
 20
-98.67097979304059
 10
65.05511608616678
 20
-98.67097979304059
 10
64.95348576935191
 20
-98.65409882516286
 10
64.85185545253704
 20
-98.59070906823428
 10
64.67856714962898
 20
-98.4808105222548
 10
64.65720755762042
 20
-98.34955238426679
 10
64.63825953245154
 20
-98.24172089557847
 10
64.63825953245154
 20
-98.24172089557847
 10
64.86046819125016
 20
-98.24172089557847
 10
64.86046819125016
 20
-98.24172089557847
 10
64.91524520946564
 20
-98.44050290507738
 10
65.04236923287135
 20
-98.47013072625053
 10
65.1353868109731
 20
-98.47013072625053
 10
65.27491317812571
 20
-98.47013072625053
 10
65.42718639857377
 20
-98.37056746672681
 10
65.42718639857377
 20
-98.13802352147245
 10
65.42718639857377
 20
-97.88205292691838
 10
65.24735241424372
 20
-97.81211748856781
 10
65.12677407225998
 20
-97.81211748856781
 10
65.09507919379568
 20
-97.81211748856781
 10
64.95348576935191
 20
-97.81211748856781
 10
64.86460230583246
 20
-97.94130856926468
 10
64.86460230583246
 20
-97.94130856926468
 10
64.68890243608472
 20
-97.92236054409581
 10
64.68890243608472
 20
-97.92236054409581
 10
64.68890243608472
 20
-97.92236054409581
 10
64.80948077806846
 20
-97.07590058336991
 10
64.80948077806846
 20
-97.07590058336991
 10
64.80948077806846
 20
-97.07590058336991
 10
65.58807235773493
 20
-97.07590058336991
 10
65.58807235773493
 20
-97.07590058336991
 10
65.58807235773493
 20
-97.07590058336991
 10
65.58807235773493
 20
-97.27054847828653
 10
65.58807235773493
 20
-97.27054847828653
 10
65.58807235773493
 20
-97.27054847828653
 10
64.97243379452078
 20
-97.27054847828653
 10
64.97243379452078
 20
-97.27054847828653
 10
64.97243379452078
 20
-97.27054847828653
 10
64.90697698030104
 20
-97.69360620387522
 10
64.90697698030104
 20
-97.69360620387522
 10
64.96829967993848
 20
-97.65984426811977
 10
65.05063746203595
 20
-97.61953665094234
 10
65.16914874672855
 20
-97.61953665094234
 10
65.42305228399147
 20
-97.61953665094234
 10
65.66007485337666
 20
-97.80591631669436
 10
65.66007485337666
 20
-98.11907549630357
 10
65.66007485337666
 20
-98.43636879049508
 10
65.43579913728689
 20
-98.67097979304059
 10
65.13331975368195
 20
-98.67097979304059
 97
        0
 97
        0
 75
     2
 76
     1
 98
        0
  0
ENDBLK
  5
64
330
61
100
AcDbEntity
  8
0
100
AcDbBlockEnd
  0
BLOCK
  5
6B
330
69
100
AcDbEntity
  8
0
100
AcDbBlockBegin
  2
block 5
 70
     0
 10
0.0
 20
0.0
 30
0.0
  3
block 5
  1

  0
SPLINE
  5
6D
330
69
100
AcDbEntity
  8
_U+30EC_U+30A4_U+30E4_U+30FC 1
370
     0
100
AcDbSpline
210
0.0
220
0.0
230
1.0
 70
    11
 71
     3
 72
    44
 73
    40
 74
     0
 42
0.0000000001
 43
0.0000000001
 12
1.0
 22
0.0
 32
0.0
 13
1.0
 23
0.0
 33
0.0
 40
0.0
 40
0.0
 40
0.0
 40
0.0
 40
1.0
 40
1.0
 40
1.0
 40
2.0
 40
2.0
 40
2.0
 40
3.0
 40
3.0
 40
3.0
 40
4.0
 40
4.0
 40
4.0
 40
5.0
 40
5.0
 40
5.0
 40
6.0
 40
6.0
 40
6.0
 40
7.0
 40
7.0
 40
7.0
 40
8.0
 40
8.0
 40
8.0
 40
9.0
 40
9.0
 40
9.0
 40
10.0
 40
10.0
 40
10.0
 40
11.0
 40
11.0
 40
11.0
 40
12.0
 40
12.0
 40
12.0
 40
13.0
 40
13.0
 40
13.0
 40
13.0
 10
58.02781031535416
 20
-79.34847274491983
 30
0.0
 10
57.81008028068637
 20
-79.50729164678985
 30
0.0
 10
57.71706270258463
 20
-79.58136119972272
 30
0.0
 10
57.66814234669408
 20
-79.72502168145763
 30
0.0
 10
57.66814234669408
 20
-79.72502168145763
 30
0.0
 10
58.44673392636054
 20
-79.72502168145763
 30
0.0
 10
58.44673392636054
 20
-79.72502168145763
 30
0.0
 10
58.44673392636054
 20
-79.72502168145763
 30
0.0
 10
58.44673392636054
 20
-79.93034937237853
 30
0.0
 10
58.44673392636054
 20
-79.93034937237853
 30
0.0
 10
58.44673392636054
 20
-79.93034937237853
 30
0.0
 10
57.41871743356199
 20
-79.93034937237853
 30
0.0
 10
57.41871743356199
 20
-79.93034937237853
 30
0.0
 10
57.45041231202629
 20
-79.5727484610096
 30
0.0
 10
57.51586912624604
 20
-79.49454479349443
 30
0.0
 10
57.90103080149697
 20
-79.1961995244718
 30
0.0
 10
58.15700139605103
 20
-78.99741751497287
 30
0.0
 10
58.22245821027078
 20
-78.92954913391345
 30
0.0
 10
58.22245821027078
 20
-78.79208982405198
 30
0.0
 10
58.22245821027078
 20
-78.67357853935938
 30
0.0
 10
58.15045571462905
 20
-78.5426649109199
 30
0.0
 10
57.95374076242129
 20
-78.5426649109199
 30
0.0
 10
57.69363605328493
 20
-78.5426649109199
 30
0.0
 10
57.6850233145718
 20
-78.7731417988831
 30
0.0
 10
57.6808891999895
 20
-78.88958602628455
 30
0.0
 10
57.6808891999895
 20
-78.88958602628455
 30
0.0
 10
57.45661348389974
 20
-78.88958602628455
 30
0.0
 10
57.45661348389974
 20
-78.88958602628455
 30
0.0
 10
57.46522622261286
 20
-78.76246200287883
 30
0.0
 10
57.47590601861714
 20
-78.65049639960822
 30
0.0
 10
57.55617674342346
 20
-78.53198511491561
 30
0.0
 10
57.66607528940293
 20
-78.37109915575445
 30
0.0
 10
57.85245495515495
 20
-78.337337219999
 30
0.0
 10
57.96855467300787
 20
-78.337337219999
 30
0.0
 10
58.24588485957047
 20
-78.337337219999
 30
0.0
 10
58.45327960778252
 20
-78.52130531891135
 30
0.0
 10
58.45327960778252
 20
-78.79415688134313
 30
0.0
 10
58.45327960778252
 20
-79.02291122156372
 30
0.0
 10
58.33683538038107
 20
-79.12212997153891
 30
0.0
 10
58.02781031535416
 20
-79.34847274491983
 30
0.0
  0
HATCH
  5
6E
330
69
100
AcDbEntity
  8
_U+30EC_U+30A4_U+30E4_U+30FC 1
 62
     7
420
 16777215
100
AcDbHatch
 10
0.0
 20
0.0
 30
0.0
210
0.0
220
0.0
230
1.0
  2
SOLID
 70
     1
 71
     0
 91
        1
 92
        1
 93
        1
 72
     4
 94
        3
 73
     0
 74
     1
 95
       44
 96
       40
 40
0.0
 40
0.0
 40
0.0
 40
0.0
 40
1.0
 40
1.0
 40
1.0
 40
2.0
 40
2.0
 40
2.0
 40
3.0
 40
3.0
 40
3.0
 40
4.0
 40
4.0
 40
4.0
 40
5.0
 40
5.0
 40
5.0
 40
6.0
 40
6.0
 40
6.0
 40
7.0
 40
7.0
 40
7.0
 40
8.0
 40
8.0
 40
8.0
 40
9.0
 40
9.0
 40
9.0
 40
10.0
 40
10.0
 40
10.0
 40
11.0
 40
11.0
 40
11.0
 40
12.0
 40
12.0
 40
12.0
 40
13.0
 40
13.0
 40
13.0
 40
13.0
 10
58.02781031535416
 20
-79.34847274491983
 10
57.81008028068637
 20
-79.50729164678985
 10
57.71706270258463
 20
-79.58136119972272
 10
57.66814234669408
 20
-79.72502168145763
 10
57.66814234669408
 20
-79.72502168145763
 10
58.44673392636054
 20
-79.72502168145763
 10
58.44673392636054
 20
-79.72502168145763
 10
58.44673392636054
 20
-79.72502168145763
 10
58.44673392636054
 20
-79.93034937237853
 10
58.44673392636054
 20
-79.93034937237853
 10
58.44673392636054
 20
-79.93034937237853
 10
57.41871743356199
 20
-79.93034937237853
 10
57.41871743356199
 20
-79.93034937237853
 10
57.45041231202629
 20
-79.5727484610096
 10
57.51586912624604
 20
-79.49454479349443
 10
57.90103080149697
 20
-79.1961995244718
 10
58.15700139605103
 20
-78.99741751497287
 10
58.22245821027078
 20
-78.92954913391345
 10
58.22245821027078
 20
-78.79208982405198
 10
58.22245821027078
 20
-78.67357853935938
 10
58.15045571462905
 20
-78.5426649109199
 10
57.95374076242129
 20
-78.5426649109199
 10
57.69363605328493
 20
-78.5426649109199
 10
57.6850233145718
 20
-78.7731417988831
 10
57.6808891999895
 20
-78.88958602628455
 10
57.6808891999895
 20
-78.88958602628455
 10
57.45661348389974
 20
-78.88958602628455
 10
57.45661348389974
 20
-78.88958602628455
 10
57.46522622261286
 20
-78.76246200287883
 10
57.47590601861714
 20
-78.65049639960822
 10
57.55617674342346
 20
-78.53198511491561
 10
57.66607528940293
 20
-78.37109915575445
 10
57.85245495515495
 20
-78.337337219999
 10
57.96855467300787
 20
-78.337337219999
 10
58.24588485957047
 20
-78.337337219999
 10
58.45327960778252
 20
-78.52130531891135
 10
58.45327960778252
 20
-78.79415688134313
 10
58.45327960778252
 20
-79.02291122156372
 10
58.33683538038107
 20
-79.12212997153891
 10
58.02781031535416
 20
-79.34847274491983
 97
        0
 97
        0
 75
     2
 76
     1
 98
        0
  0
SPLINE
  5
6F
330
69
100
AcDbEntity
  8
_U+30EC_U+30A4_U+30E4_U+30FC 1
370
     0
100
AcDbSpline
210
0.0
220
0.0
230
1.0
 70
    11
 71
     3
 72
    26
 73
    22
 74
     0
 42
0.0000000001
 43
0.0000000001
 12
1.0
 22
0.0
 32
0.0
 13
1.0
 23
0.0
 33
0.0
 40
0.0
 40
0.0
 40
0.0
 40
0.0
 40
1.0
 40
1.0
 40
1.0
 40
2.0
 40
2.0
 40
2.0
 40
3.0
 40
3.0
 40
3.0
 40
4.0
 40
4.0
 40
4.0
 40
5.0
 40
5.0
 40
5.0
 40
6.0
 40
6.0
 40
6.0
 40
7.0
 40
7.0
 40
7.0
 40
7.0
 10
59.02275389149431
 20
-79.93034937237853
 30
0.0
 10
59.02275389149431
 20
-79.93034937237853
 30
0.0
 10
58.78573132210913
 20
-79.93034937237853
 30
0.0
 10
58.78573132210913
 20
-79.93034937237853
 30
0.0
 10
58.81122502869997
 20
-79.62132430735161
 30
0.0
 10
59.00380586632544
 20
-79.10318194637004
 30
0.0
 10
59.4099826240364
 20
-78.59744192913537
 30
0.0
 10
59.4099826240364
 20
-78.59744192913537
 30
0.0
 10
58.57213540202363
 20
-78.59744192913537
 30
0.0
 10
58.57213540202363
 20
-78.59744192913537
 30
0.0
 10
58.57213540202363
 20
-78.59744192913537
 30
0.0
 10
58.57213540202363
 20
-78.38591306634102
 30
0.0
 10
58.57213540202363
 20
-78.38591306634102
 30
0.0
 10
58.57213540202363
 20
-78.38591306634102
 30
0.0
 10
59.64700519342158
 20
-78.38591306634102
 30
0.0
 10
59.64700519342158
 20
-78.38591306634102
 30
0.0
 10
59.64700519342158
 20
-78.38591306634102
 30
0.0
 10
59.64700519342158
 20
-78.59744192913537
 30
0.0
 10
59.64700519342158
 20
-78.59744192913537
 30
0.0
 10
59.3231662178081
 20
-78.8875189689934
 30
0.0
 10
59.05651582724976
 20
-79.47973088290784
 30
0.0
 10
59.02275389149431
 20
-79.93034937237853
 30
0.0
  0
HATCH
  5
70
330
69
100
AcDbEntity
  8
_U+30EC_U+30A4_U+30E4_U+30FC 1
 62
     7
420
 16777215
100
AcDbHatch
 10
0.0
 20
0.0
 30
0.0
210
0.0
220
0.0
230
1.0
  2
SOLID
 70
     1
 71
     0
 91
        1
 92
        1
 93
        1
 72
     4
 94
        3
 73
     0
 74
     1
 95
       26
 96
       22
 40
0.0
 40
0.0
 40
0.0
 40
0.0
 40
1.0
 40
1.0
 40
1.0
 40
2.0
 40
2.0
 40
2.0
 40
3.0
 40
3.0
 40
3.0
 40
4.0
 40
4.0
 40
4.0
 40
5.0
 40
5.0
 40
5.0
 40
6.0
 40
6.0
 40
6.0
 40
7.0
 40
7.0
 40
7.0
 40
7.0
 10
59.02275389149431
 20
-79.93034937237853
 10
59.02275389149431
 20
-79.93034937237853
 10
58.78573132210913
 20
-79.93034937237853
 10
58.78573132210913
 20
-79.93034937237853
 10
58.81122502869997
 20
-79.62132430735161
 10
59.00380586632544
 20
-79.10318194637004
 10
59.4099826240364
 20
-78.59744192913537
 10
59.4099826240364
 20
-78.59744192913537
 10
58.57213540202363
 20
-78.59744192913537
 10
58.57213540202363
 20
-78.59744192913537
 10
58.57213540202363
 20
-78.59744192913537
 10
58.57213540202363
 20
-78.38591306634102
 10
58.57213540202363
 20
-78.38591306634102
 10
58.57213540202363
 20
-78.38591306634102
 10
59.64700519342158
 20
-78.38591306634102
 10
59.64700519342158
 20
-78.38591306634102
 10
59.64700519342158
 20
-78.38591306634102
 10
59.64700519342158
 20
-78.59744192913537
 10
59.64700519342158
 20
-78.59744192913537
 10
59.3231662178081
 20
-78.8875189689934
 10
59.05651582724976
 20
-79.47973088290784
 10
59.02275389149431
 20
-79.93034937237853
 97
        0
 97
        0
 75
     2
 76
     1
 98
        0
  0
ENDBLK
  5
6C
330
69
100
AcDbEntity
  8
0
100
AcDbBlockEnd
  0
BLOCK
  5
73
330
71
100
AcDbEntity
  8
0
100
AcDbBlockBegin
  2
block 6
 70
     0
 10
0.0
 20
0.0
 30
0.0
  3
block 6
  1

  0
SPLINE
  5
75
330
71
100
AcDbEntity
  8
_U+30EC_U+30A4_U+30E4_U+30FC 1
370
     0
100
AcDbSpline
210
0.0
220
0.0
230
1.0
 70
    11
 71
     3
 72
    62
 73
    58
 74
     0
 42
0.0000000001
 43
0.0000000001
 12
1.0
 22
0.0
 32
0.0
 13
1.0
 23
0.0
 33
0.0
 40
0.0
 40
0.0
 40
0.0
 40
0.0
 40
1.0
 40
1.0
 40
1.0
 40
2.0
 40
2.0
 40
2.0
 40
3.0
 40
3.0
 40
3.0
 40
4.0
 40
4.0
 40
4.0
 40
5.0
 40
5.0
 40
5.0
 40
6.0
 40
6.0
 40
6.0
 40
7.0
 40
7.0
 40
7.0
 40
8.0
 40
8.0
 40
8.0
 40
9.0
 40
9.0
 40
9.0
 40
10.0
 40
10.0
 40
10.0
 40
11.0
 40
11.0
 40
11.0
 40
12.0
 40
12.0
 40
12.0
 40
13.0
 40
13.0
 40
13.0
 40
14.0
 40
14.0
 40
14.0
 40
15.0
 40
15.0
 40
15.0
 40
16.0
 40
16.0
 40
16.0
 40
17.0
 40
17.0
 40
17.0
 40
18.0
 40
18.0
 40
18.0
 40
19.0
 40
19.0
 40
19.0
 40
19.0
 10
55.55578204991314
 20
-98.67097979304059
 30
0.0
 10
55.46035290497172
 20
-98.67097979304059
 30
0.0
 10
55.24262287030393
 20
-98.64996471058056
 30
0.0
 10
55.11756590418936
 20
-98.46392955437707
 30
0.0
 10
55.04349635125649
 20
-98.35161944155793
 30
0.0
 10
55.03936223667419
 20
-98.25240069158274
 30
0.0
 10
55.03522812209189
 20
-98.1676513426456
 30
0.0
 10
55.03522812209189
 20
-98.1676513426456
 30
0.0
 10
55.25536972359935
 20
-98.1676513426456
 30
0.0
 10
55.25536972359935
 20
-98.1676513426456
 30
0.0
 10
55.2574367808905
 20
-98.24172089557847
 30
0.0
 10
55.26777206734626
 20
-98.47633189812397
 30
0.0
 10
55.55130342578232
 20
-98.47633189812397
 30
0.0
 10
55.68876273564378
 20
-98.47633189812397
 30
0.0
 10
55.84138046564035
 20
-98.40674096932193
 30
0.0
 10
55.84138046564035
 20
-98.17833113864987
 30
0.0
 10
55.84138046564035
 20
-98.06188691124842
 30
0.0
 10
55.80313990575408
 20
-98.0133110649064
 30
0.0
 10
55.77144502728978
 20
-97.9816161864421
 30
0.0
 10
55.69737547435691
 20
-97.90754663350923
 30
0.0
 10
55.58093124695547
 20
-97.8947997802138
 30
0.0
 10
55.52615422873999
 20
-97.8947997802138
 30
0.0
 10
55.50686169402259
 20
-97.8947997802138
 30
0.0
 10
55.471032700976
 20
-97.89686683750496
 30
0.0
 10
55.443471937094
 20
-97.90100095208726
 30
0.0
 10
55.443471937094
 20
-97.90100095208726
 30
0.0
 10
55.443471937094
 20
-97.70635305717065
 30
0.0
 10
55.443471937094
 20
-97.70635305717065
 30
0.0
 10
55.48171249698027
 20
-97.71289873859261
 30
0.0
 10
55.52374266190031
 20
-97.71496579588376
 30
0.0
 10
55.53028834332229
 20
-97.71496579588376
 30
0.0
 10
55.59574515754204
 20
-97.71496579588376
 30
0.0
 10
55.79452716704095
 20
-97.69360620387522
 30
0.0
 10
55.79452716704095
 20
-97.45692814403856
 30
0.0
 10
55.79452716704095
 20
-97.27916121699965
 30
0.0
 10
55.66361353860146
 20
-97.22403968923567
 30
0.0
 10
55.55337048307346
 20
-97.22403968923567
 30
0.0
 10
55.2891316593548
 20
-97.22403968923567
 30
0.0
 10
55.28051892064168
 20
-97.45692814403856
 30
0.0
 10
55.27638480605938
 20
-97.52858613013174
 30
0.0
 10
55.27638480605938
 20
-97.52858613013174
 30
0.0
 10
55.07312417242964
 20
-97.52858613013174
 30
0.0
 10
55.07312417242964
 20
-97.52858613013174
 30
0.0
 10
55.08173691114276
 20
-97.4038736735657
 30
0.0
 10
55.10929767502476
 20
-97.0273247370279
 30
0.0
 10
55.56611733636889
 20
-97.0273247370279
 30
0.0
 10
55.79039305245865
 20
-97.0273247370279
 30
0.0
 10
56.03154973642614
 20
-97.15444876043361
 30
0.0
 10
56.03154973642614
 20
-97.45038246261657
 30
0.0
 10
56.03154973642614
 20
-97.63676212836859
 30
0.0
 10
55.93646510103325
 20
-97.71909991046606
 30
0.0
 10
55.83690184150953
 20
-97.78042261010351
 30
0.0
 10
55.89822454114697
 20
-97.80798337398551
 30
0.0
 10
56.08012558276817
 20
-97.88825409879183
 30
0.0
 10
56.08012558276817
 20
-98.16558428535444
 30
0.0
 10
56.08012558276817
 20
-98.50389266200598
 30
0.0
 10
55.83276772692723
 20
-98.67097979304059
 30
0.0
 10
55.55578204991314
 20
-98.67097979304059
 30
0.0
  0
HATCH
  5
76
330
71
100
AcDbEntity
  8
_U+30EC_U+30A4_U+30E4_U+30FC 1
 62
     7
420
 16777215
100
AcDbHatch
 10
0.0
 20
0.0
 30
0.0
210
0.0
220
0.0
230
1.0
  2
SOLID
 70
     1
 71
     0
 91
        1
 92
        1
 93
        1
 72
     4
 94
        3
 73
     0
 74
     1
 95
       62
 96
       58
 40
0.0
 40
0.0
 40
0.0
 40
0.0
 40
1.0
 40
1.0
 40
1.0
 40
2.0
 40
2.0
 40
2.0
 40
3.0
 40
3.0
 40
3.0
 40
4.0
 40
4.0
 40
4.0
 40
5.0
 40
5.0
 40
5.0
 40
6.0
 40
6.0
 40
6.0
 40
7.0
 40
7.0
 40
7.0
 40
8.0
 40
8.0
 40
8.0
 40
9.0
 40
9.0
 40
9.0
 40
10.0
 40
10.0
 40
10.0
 40
11.0
 40
11.0
 40
11.0
 40
12.0
 40
12.0
 40
12.0
 40
13.0
 40
13.0
 40
13.0
 40
14.0
 40
14.0
 40
14.0
 40
15.0
 40
15.0
 40
15.0
 40
16.0
 40
16.0
 40
16.0
 40
17.0
 40
17.0
 40
17.0
 40
18.0
 40
18.0
 40
18.0
 40
19.0
 40
19.0
 40
19.0
 40
19.0
 10
55.55578204991314
 20
-98.67097979304059
 10
55.46035290497172
 20
-98.67097979304059
 10
55.24262287030393
 20
-98.64996471058056
 10
55.11756590418936
 20
-98.46392955437707
 10
55.04349635125649
 20
-98.35161944155793
 10
55.03936223667419
 20
-98.25240069158274
 10
55.03522812209189
 20
-98.1676513426456
 10
55.03522812209189
 20
-98.1676513426456
 10
55.25536972359935
 20
-98.1676513426456
 10
55.25536972359935
 20
-98.1676513426456
 10
55.2574367808905
 20
-98.24172089557847
 10
55.26777206734626
 20
-98.47633189812397
 10
55.55130342578232
 20
-98.47633189812397
 10
55.68876273564378
 20
-98.47633189812397
 10
55.84138046564035
 20
-98.40674096932193
 10
55.84138046564035
 20
-98.17833113864987
 10
55.84138046564035
 20
-98.06188691124842
 10
55.80313990575408
 20
-98.0133110649064
 10
55.77144502728978
 20
-97.9816161864421
 10
55.69737547435691
 20
-97.90754663350923
 10
55.58093124695547
 20
-97.8947997802138
 10
55.52615422873999
 20
-97.8947997802138
 10
55.50686169402259
 20
-97.8947997802138
 10
55.471032700976
 20
-97.89686683750496
 10
55.443471937094
 20
-97.90100095208726
 10
55.443471937094
 20
-97.90100095208726
 10
55.443471937094
 20
-97.70635305717065
 10
55.443471937094
 20
-97.70635305717065
 10
55.48171249698027
 20
-97.71289873859261
 10
55.52374266190031
 20
-97.71496579588376
 10
55.53028834332229
 20
-97.71496579588376
 10
55.59574515754204
 20
-97.71496579588376
 10
55.79452716704095
 20
-97.69360620387522
 10
55.79452716704095
 20
-97.45692814403856
 10
55.79452716704095
 20
-97.27916121699965
 10
55.66361353860146
 20
-97.22403968923567
 10
55.55337048307346
 20
-97.22403968923567
 10
55.2891316593548
 20
-97.22403968923567
 10
55.28051892064168
 20
-97.45692814403856
 10
55.27638480605938
 20
-97.52858613013174
 10
55.27638480605938
 20
-97.52858613013174
 10
55.07312417242964
 20
-97.52858613013174
 10
55.07312417242964
 20
-97.52858613013174
 10
55.08173691114276
 20
-97.4038736735657
 10
55.10929767502476
 20
-97.0273247370279
 10
55.56611733636889
 20
-97.0273247370279
 10
55.79039305245865
 20
-97.0273247370279
 10
56.03154973642614
 20
-97.15444876043361
 10
56.03154973642614
 20
-97.45038246261657
 10
56.03154973642614
 20
-97.63676212836859
 10
55.93646510103325
 20
-97.71909991046606
 10
55.83690184150953
 20
-97.78042261010351
 10
55.89822454114697
 20
-97.80798337398551
 10
56.08012558276817
 20
-97.88825409879183
 10
56.08012558276817
 20
-98.16558428535444
 10
56.08012558276817
 20
-98.50389266200598
 10
55.83276772692723
 20
-98.67097979304059
 10
55.55578204991314
 20
-98.67097979304059
 97
        0
 97
        0
 75
     2
 76
     1
 98
        0
  0
ENDBLK
  5
74
330
71
100
AcDbEntity
  8
0
100
AcDbBlockEnd
  0
BLOCK
  5
A7
330
A5
100
AcDbEntity
  8
0
100
AcDbBlockBegin
  2
block 7
 70
     0
 10
0.0
 20
0.0
 30
0.0
  3
block 7
  1

  0
SPLINE
  5
A9
330
A5
100
AcDbEntity
  8
_U+30EC_U+30A4_U+30E4_U+30FC 1
370
     0
100
AcDbSpline
210
0.0
220
0.0
230
1.0
 70
    11
 71
     3
 72
    26
 73
    22
 74
     0
 42
0.0000000001
 43
0.0000000001
 12
1.0
 22
0.0
 32
0.0
 13
1.0
 23
0.0
 33
0.0
 40
0.0
 40
0.0
 40
0.0
 40
0.0
 40
1.0
 40
1.0
 40
1.0
 40
2.0
 40
2.0
 40
2.0
 40
3.0
 40
3.0
 40
3.0
 40
4.0
 40
4.0
 40
4.0
 40
5.0
 40
5.0
 40
5.0
 40
6.0
 40
6.0
 40
6.0
 40
7.0
 40
7.0
 40
7.0
 40
7.0
 10
80.65623099112067
 20
-90.08649086289505
 30
0.0
 10
80.65623099112067
 20
-90.08649086289505
 30
0.0
 10
79.5520778880981
 20
-90.08649086289505
 30
0.0
 10
79.5520778880981
 20
-90.08649086289505
 30
0.0
 10
79.5520778880981
 20
-90.08649086289505
 30
0.0
 10
79.5520778880981
 20
-90.41653101038199
 30
0.0
 10
79.5520778880981
 20
-90.41653101038199
 30
0.0
 10
79.5520778880981
 20
-90.41653101038199
 30
0.0
 10
79.40393878223236
 20
-90.41653101038199
 30
0.0
 10
79.40393878223236
 20
-90.41653101038199
 30
0.0
 10
79.38912487164578
 20
-90.0844238056039
 30
0.0
 10
79.22617185519346
 20
-90.03791501655303
 30
0.0
 10
79.11179468508317
 20
-90.00828719537988
 30
0.0
 10
79.11179468508317
 20
-90.00828719537988
 30
0.0
 10
79.11179468508317
 20
-89.86221514680528
 30
0.0
 10
79.11179468508317
 20
-89.86221514680528
 30
0.0
 10
79.11179468508317
 20
-89.86221514680528
 30
0.0
 10
80.65623099112067
 20
-89.86221514680528
 30
0.0
 10
80.65623099112067
 20
-89.86221514680528
 30
0.0
 10
80.65623099112067
 20
-89.86221514680528
 30
0.0
 10
80.65623099112067
 20
-90.08649086289505
 30
0.0
 10
80.65623099112067
 20
-90.08649086289505
 30
0.0
  0
HATCH
  5
AA
330
A5
100
AcDbEntity
  8
_U+30EC_U+30A4_U+30E4_U+30FC 1
 62
     7
420
 16777215
100
AcDbHatch
 10
0.0
 20
0.0
 30
0.0
210
0.0
220
0.0
230
1.0
  2
SOLID
 70
     1
 71
     0
 91
        1
 92
        1
 93
        1
 72
     4
 94
        3
 73
     0
 74
     1
 95
       26
 96
       22
 40
0.0
 40
0.0
 40
0.0
 40
0.0
 40
1.0
 40
1.0
 40
1.0
 40
2.0
 40
2.0
 40
2.0
 40
3.0
 40
3.0
 40
3.0
 40
4.0
 40
4.0
 40
4.0
 40
5.0
 40
5.0
 40
5.0
 40
6.0
 40
6.0
 40
6.0
 40
7.0
 40
7.0
 40
7.0
 40
7.0
 10
80.65623099112067
 20
-90.08649086289505
 10
80.65623099112067
 20
-90.08649086289505
 10
79.5520778880981
 20
-90.08649086289505
 10
79.5520778880981
 20
-90.08649086289505
 10
79.5520778880981
 20
-90.08649086289505
 10
79.5520778880981
 20
-90.41653101038199
 10
79.5520778880981
 20
-90.41653101038199
 10
79.5520778880981
 20
-90.41653101038199
 10
79.40393878223236
 20
-90.41653101038199
 10
79.40393878223236
 20
-90.41653101038199
 10
79.38912487164578
 20
-90.0844238056039
 10
79.22617185519346
 20
-90.03791501655303
 10
79.11179468508317
 20
-90.00828719537988
 10
79.11179468508317
 20
-90.00828719537988
 10
79.11179468508317
 20
-89.86221514680528
 10
79.11179468508317
 20
-89.86221514680528
 10
79.11179468508317
 20
-89.86221514680528
 10
80.65623099112067
 20
-89.86221514680528
 10
80.65623099112067
 20
-89.86221514680528
 10
80.65623099112067
 20
-89.86221514680528
 10
80.65623099112067
 20
-90.08649086289505
 10
80.65623099112067
 20
-90.08649086289505
 97
        0
 97
        0
 75
     2
 76
     1
 98
        0
  0
SPLINE
  5
AB
330
A5
100
AcDbEntity
  8
_U+30EC_U+30A4_U+30E4_U+30FC 1
370
     0
100
AcDbSpline
210
0.0
220
0.0
230
1.0
 70
    11
 71
     3
 72
    29
 73
    25
 74
     0
 42
0.0000000001
 43
0.0000000001
 12
1.0
 22
0.0
 32
0.0
 13
1.0
 23
0.0
 33
0.0
 40
0.0
 40
0.0
 40
0.0
 40
0.0
 40
1.0
 40
1.0
 40
1.0
 40
2.0
 40
2.0
 40
2.0
 40
3.0
 40
3.0
 40
3.0
 40
4.0
 40
4.0
 40
4.0
 40
5.0
 40
5.0
 40
5.0
 40
6.0
 40
6.0
 40
6.0
 40
7.0
 40
7.0
 40
7.0
 40
8.0
 40
8.0
 40
8.0
 40
8.0
 10
80.47846406408178
 20
-88.46316187024533
 30
0.0
 10
80.68792586958497
 20
-88.57133786848217
 30
0.0
 10
80.70687389475384
 20
-88.74462617139024
 30
0.0
 10
80.70687389475384
 20
-88.86107039879168
 30
0.0
 10
80.70687389475384
 20
-89.02195635795285
 30
0.0
 10
80.66036510570297
 20
-89.16354978239661
 30
0.0
 10
80.47846406408178
 20
-89.25863441778951
 30
0.0
 10
80.28381616916516
 20
-89.36233179189553
 30
0.0
 10
80.04679359977997
 20
-89.38162432661294
 30
0.0
 10
79.88418509287618
 20
-89.38162432661294
 30
0.0
 10
79.74018010159274
 20
-89.38162432661294
 30
0.0
 10
79.48834362162097
 20
-89.36439884918668
 30
0.0
 10
79.28956161212206
 20
-89.25863441778951
 30
0.0
 10
79.08664548804084
 20
-89.15080292910119
 30
0.0
 10
79.06321883874115
 20
-88.98991696994003
 30
0.0
 10
79.06321883874115
 20
-88.86107039879168
 30
0.0
 10
79.06321883874115
 20
-88.70225149692166
 30
0.0
 10
79.10766057050087
 20
-88.55859101518675
 30
0.0
 10
79.28956161212206
 20
-88.46316187024533
 30
0.0
 10
79.48214244974753
 20
-88.36394312027014
 30
0.0
 10
79.71055228041959
 20
-88.34051647097043
 30
0.0
 10
79.88418509287618
 20
-88.34051647097043
 30
0.0
 10
80.0554063384931
 20
-88.34051647097043
 30
0.0
 10
80.2858832264563
 20
-88.36187606297898
 30
0.0
 10
80.47846406408178
 20
-88.46316187024533
 30
0.0
  0
SPLINE
  5
AC
330
A5
100
AcDbEntity
  8
_U+30EC_U+30A4_U+30E4_U+30FC 1
370
     0
100
AcDbSpline
210
0.0
220
0.0
230
1.0
 70
    11
 71
     3
 72
    17
 73
    13
 74
     0
 42
0.0000000001
 43
0.0000000001
 12
1.0
 22
0.0
 32
0.0
 13
1.0
 23
0.0
 33
0.0
 40
0.0
 40
0.0
 40
0.0
 40
0.0
 40
1.0
 40
1.0
 40
1.0
 40
2.0
 40
2.0
 40
2.0
 40
3.0
 40
3.0
 40
3.0
 40
4.0
 40
4.0
 40
4.0
 40
4.0
 10
79.2557996763666
 20
-88.86107039879168
 30
0.0
 10
79.2557996763666
 20
-89.1108398214723
 30
0.0
 10
79.53933103480267
 20
-89.15734861052317
 30
0.0
 10
79.88418509287618
 20
-89.15734861052317
 30
0.0
 10
80.20354544435884
 20
-89.15734861052317
 30
0.0
 10
80.51222599983723
 20
-89.12117510792804
 30
0.0
 10
80.51222599983723
 20
-88.86107039879168
 30
0.0
 10
80.51222599983723
 20
-88.61336803340222
 30
0.0
 10
80.23110620824083
 20
-88.56479218706019
 30
0.0
 10
79.88418509287618
 20
-88.56479218706019
 30
0.0
 10
79.564480231845
 20
-88.56479218706019
 30
0.0
 10
79.2557996763666
 20
-88.60303274694647
 30
0.0
 10
79.2557996763666
 20
-88.86107039879168
 30
0.0
  0
HATCH
  5
AD
330
A5
100
AcDbEntity
  8
_U+30EC_U+30A4_U+30E4_U+30FC 1
 62
     7
420
 16777215
100
AcDbHatch
 10
0.0
 20
0.0
 30
0.0
210
0.0
220
0.0
230
1.0
  2
SOLID
 70
     1
 71
     0
 91
        2
 92
        1
 93
        1
 72
     4
 94
        3
 73
     0
 74
     1
 95
       29
 96
       25
 40
0.0
 40
0.0
 40
0.0
 40
0.0
 40
1.0
 40
1.0
 40
1.0
 40
2.0
 40
2.0
 40
2.0
 40
3.0
 40
3.0
 40
3.0
 40
4.0
 40
4.0
 40
4.0
 40
5.0
 40
5.0
 40
5.0
 40
6.0
 40
6.0
 40
6.0
 40
7.0
 40
7.0
 40
7.0
 40
8.0
 40
8.0
 40
8.0
 40
8.0
 10
80.47846406408178
 20
-88.46316187024533
 10
80.68792586958497
 20
-88.57133786848217
 10
80.70687389475384
 20
-88.74462617139024
 10
80.70687389475384
 20
-88.86107039879168
 10
80.70687389475384
 20
-89.02195635795285
 10
80.66036510570297
 20
-89.16354978239661
 10
80.47846406408178
 20
-89.25863441778951
 10
80.28381616916516
 20
-89.36233179189553
 10
80.04679359977997
 20
-89.38162432661294
 10
79.88418509287618
 20
-89.38162432661294
 10
79.74018010159274
 20
-89.38162432661294
 10
79.48834362162097
 20
-89.36439884918668
 10
79.28956161212206
 20
-89.25863441778951
 10
79.08664548804084
 20
-89.15080292910119
 10
79.06321883874115
 20
-88.98991696994003
 10
79.06321883874115
 20
-88.86107039879168
 10
79.06321883874115
 20
-88.70225149692166
 10
79.10766057050087
 20
-88.55859101518675
 10
79.28956161212206
 20
-88.46316187024533
 10
79.48214244974753
 20
-88.36394312027014
 10
79.71055228041959
 20
-88.34051647097043
 10
79.88418509287618
 20
-88.34051647097043
 10
80.0554063384931
 20
-88.34051647097043
 10
80.2858832264563
 20
-88.36187606297898
 10
80.47846406408178
 20
-88.46316187024533
 97
        0
 97
        0
 92
        1
 93
        1
 72
     4
 94
        3
 73
     0
 74
     1
 95
       17
 96
       13
 40
0.0
 40
0.0
 40
0.0
 40
0.0
 40
1.0
 40
1.0
 40
1.0
 40
2.0
 40
2.0
 40
2.0
 40
3.0
 40
3.0
 40
3.0
 40
4.0
 40
4.0
 40
4.0
 40
4.0
 10
79.2557996763666
 20
-88.86107039879168
 10
79.2557996763666
 20
-89.1108398214723
 10
79.53933103480267
 20
-89.15734861052317
 10
79.88418509287618
 20
-89.15734861052317
 10
80.20354544435884
 20
-89.15734861052317
 10
80.51222599983723
 20
-89.12117510792804
 10
80.51222599983723
 20
-88.86107039879168
 10
80.51222599983723
 20
-88.61336803340222
 10
80.23110620824083
 20
-88.56479218706019
 10
79.88418509287618
 20
-88.56479218706019
 10
79.564480231845
 20
-88.56479218706019
 10
79.2557996763666
 20
-88.60303274694647
 10
79.2557996763666
 20
-88.86107039879168
 97
        0
 97
        0
 75
     2
 76
     1
 98
        0
  0
ENDBLK
  5
A8
330
A5
100
AcDbEntity
  8
0
100
AcDbBlockEnd
  0
BLOCK
  5
BB
330
B9
100
AcDbEntity
  8
0
100
AcDbBlockBegin
  2
block 8
 70
     0
 10
0.0
 20
0.0
 30
0.0
  3
block 8
  1

  0
SPLINE
  5
BD
330
B9
100
AcDbEntity
  8
_U+30EC_U+30A4_U+30E4_U+30FC 1
370
     0
100
AcDbSpline
210
0.0
220
0.0
230
1.0
 70
    11
 71
     3
 72
    17
 73
    13
 74
     0
 42
0.0000000001
 43
0.0000000001
 12
1.0
 22
0.0
 32
0.0
 13
1.0
 23
0.0
 33
0.0
 40
0.0
 40
0.0
 40
0.0
 40
0.0
 40
1.0
 40
1.0
 40
1.0
 40
2.0
 40
2.0
 40
2.0
 40
3.0
 40
3.0
 40
3.0
 40
4.0
 40
4.0
 40
4.0
 40
4.0
 10
66.84415417165702
 20
-88.8812242073804
 30
0.0
 10
66.73838974025985
 20
-88.77545977598322
 30
0.0
 10
66.65777450590501
 20
-88.73739147087122
 30
0.0
 10
66.56475692780326
 20
-88.70569659240691
 30
0.0
 10
66.56475692780326
 20
-88.70569659240691
 30
0.0
 10
66.67499998333125
 20
-88.54067651866345
 30
0.0
 10
66.67499998333125
 20
-88.54067651866345
 30
0.0
 10
66.7721516760153
 20
-88.58305119313202
 30
0.0
 10
66.89273001799904
 20
-88.66125486064719
 30
0.0
 10
66.94578448847189
 20
-88.71620413363692
 30
0.0
 10
66.94578448847189
 20
-88.71620413363692
 30
0.0
 10
66.84415417165702
 20
-88.8812242073804
 30
0.0
 10
66.84415417165702
 20
-88.8812242073804
 30
0.0
  0
SPLINE
  5
BE
330
B9
100
AcDbEntity
  8
_U+30EC_U+30A4_U+30E4_U+30FC 1
370
     0
100
AcDbSpline
210
0.0
220
0.0
230
1.0
 70
    11
 71
     3
 72
   182
 73
   178
 74
     0
 42
0.0000000001
 43
0.0000000001
 12
1.0
 22
0.0
 32
0.0
 13
1.0
 23
0.0
 33
0.0
 40
0.0
 40
0.0
 40
0.0
 40
0.0
 40
1.0
 40
1.0
 40
1.0
 40
2.0
 40
2.0
 40
2.0
 40
3.0
 40
3.0
 40
3.0
 40
4.0
 40
4.0
 40
4.0
 40
5.0
 40
5.0
 40
5.0
 40
6.0
 40
6.0
 40
6.0
 40
7.0
 40
7.0
 40
7.0
 40
8.0
 40
8.0
 40
8.0
 40
9.0
 40
9.0
 40
9.0
 40
10.0
 40
10.0
 40
10.0
 40
11.0
 40
11.0
 40
11.0
 40
12.0
 40
12.0
 40
12.0
 40
13.0
 40
13.0
 40
13.0
 40
14.0
 40
14.0
 40
14.0
 40
15.0
 40
15.0
 40
15.0
 40
16.0
 40
16.0
 40
16.0
 40
17.0
 40
17.0
 40
17.0
 40
18.0
 40
18.0
 40
18.0
 40
19.0
 40
19.0
 40
19.0
 40
20.0
 40
20.0
 40
20.0
 40
21.0
 40
21.0
 40
21.0
 40
22.0
 40
22.0
 40
22.0
 40
23.0
 40
23.0
 40
23.0
 40
24.0
 40
24.0
 40
24.0
 40
25.0
 40
25.0
 40
25.0
 40
26.0
 40
26.0
 40
26.0
 40
27.0
 40
27.0
 40
27.0
 40
28.0
 40
28.0
 40
28.0
 40
29.0
 40
29.0
 40
29.0
 40
30.0
 40
30.0
 40
30.0
 40
31.0
 40
31.0
 40
31.0
 40
32.0
 40
32.0
 40
32.0
 40
33.0
 40
33.0
 40
33.0
 40
34.0
 40
34.0
 40
34.0
 40
35.0
 40
35.0
 40
35.0
 40
36.0
 40
36.0
 40
36.0
 40
37.0
 40
37.0
 40
37.0
 40
38.0
 40
38.0
 40
38.0
 40
39.0
 40
39.0
 40
39.0
 40
40.0
 40
40.0
 40
40.0
 40
41.0
 40
41.0
 40
41.0
 40
42.0
 40
42.0
 40
42.0
 40
43.0
 40
43.0
 40
43.0
 40
44.0
 40
44.0
 40
44.0
 40
45.0
 40
45.0
 40
45.0
 40
46.0
 40
46.0
 40
46.0
 40
47.0
 40
47.0
 40
47.0
 40
48.0
 40
48.0
 40
48.0
 40
49.0
 40
49.0
 40
49.0
 40
50.0
 40
50.0
 40
50.0
 40
51.0
 40
51.0
 40
51.0
 40
52.0
 40
52.0
 40
52.0
 40
53.0
 40
53.0
 40
53.0
 40
54.0
 40
54.0
 40
54.0
 40
55.0
 40
55.0
 40
55.0
 40
56.0
 40
56.0
 40
56.0
 40
57.0
 40
57.0
 40
57.0
 40
58.0
 40
58.0
 40
58.0
 40
59.0
 40
59.0
 40
59.0
 40
59.0
 10
67.88905163233329
 20
-90.0596191181101
 30
0.0
 10
67.88905163233329
 20
-90.0596191181101
 30
0.0
 10
67.25239798665912
 20
-90.0596191181101
 30
0.0
 10
67.25239798665912
 20
-90.0596191181101
 30
0.0
 10
67.03880206657364
 20
-90.0596191181101
 30
0.0
 10
66.82279457964847
 20
-90.0637532326924
 30
0.0
 10
66.60919865956298
 20
-90.07650008598782
 30
0.0
 10
66.60919865956298
 20
-90.07650008598782
 30
0.0
 10
66.60919865956298
 20
-89.86910533777578
 30
0.0
 10
66.60919865956298
 20
-89.86910533777578
 30
0.0
 10
66.8314073183616
 20
-89.8818521910712
 30
0.0
 10
67.15490178442656
 20
-89.8859863056535
 30
0.0
 10
67.25239798665912
 20
-89.8859863056535
 30
0.0
 10
67.25239798665912
 20
-89.8859863056535
 30
0.0
 10
67.4725395881666
 20
-89.8859863056535
 30
0.0
 10
67.4725395881666
 20
-89.8859863056535
 30
0.0
 10
67.4725395881666
 20
-89.8859863056535
 30
0.0
 10
67.4725395881666
 20
-89.74439288120973
 30
0.0
 10
67.4725395881666
 20
-89.74439288120973
 30
0.0
 10
67.4725395881666
 20
-89.74439288120973
 30
0.0
 10
67.31165362900542
 20
-89.74439288120973
 30
0.0
 10
67.31165362900542
 20
-89.74439288120973
 30
0.0
 10
67.14663355526196
 20
-89.74439288120973
 30
0.0
 10
66.9816134815185
 20
-89.74852699579203
 30
0.0
 10
66.81659340777502
 20
-89.76334090637862
 30
0.0
 10
66.81659340777502
 20
-89.76334090637862
 30
0.0
 10
66.81659340777502
 20
-89.55387910087542
 30
0.0
 10
66.81659340777502
 20
-89.55387910087542
 30
0.0
 10
66.98781465339194
 20
-89.568693011462
 30
0.0
 10
67.23551701878141
 20
-89.5728271260443
 30
0.0
 10
67.31165362900542
 20
-89.5728271260443
 30
0.0
 10
67.31165362900542
 20
-89.5728271260443
 30
0.0
 10
67.4725395881666
 20
-89.5728271260443
 30
0.0
 10
67.4725395881666
 20
-89.5728271260443
 30
0.0
 10
67.46806096403577
 20
-89.5011691399511
 30
0.0
 10
67.46806096403577
 20
-89.49462345852912
 30
0.0
 10
67.46185979216231
 20
-89.4419134976048
 30
0.0
 10
67.46185979216231
 20
-89.4419134976048
 30
0.0
 10
67.60138615931493
 20
-89.45672740819138
 30
0.0
 10
67.60138615931493
 20
-89.45672740819138
 30
0.0
 10
67.60138615931493
 20
-89.45672740819138
 30
0.0
 10
67.50216740933973
 20
-89.28516165302594
 30
0.0
 10
67.50216740933973
 20
-89.28516165302594
 30
0.0
 10
67.54867619839061
 20
-89.2917073344479
 30
0.0
 10
67.62274575132348
 20
-89.2999755636125
 30
0.0
 10
67.6396267192012
 20
-89.2999755636125
 30
0.0
 10
67.69026962283438
 20
-89.2999755636125
 30
0.0
 10
67.7071505907121
 20
-89.27896048115248
 30
0.0
 10
67.7071505907121
 20
-89.22194415087161
 30
0.0
 10
67.7071505907121
 20
-89.22194415087161
 30
0.0
 10
67.7071505907121
 20
-89.08431258623587
 30
0.0
 10
67.7071505907121
 20
-89.08431258623587
 30
0.0
 10
67.7071505907121
 20
-89.08431258623587
 30
0.0
 10
67.60138615931493
 20
-89.08431258623587
 30
0.0
 10
67.60138615931493
 20
-89.08431258623587
 30
0.0
 10
67.46806096403577
 20
-89.08431258623587
 30
0.0
 10
67.31165362900542
 20
-89.08431258623587
 30
0.0
 10
67.18900822973053
 20
-89.0970594395313
 30
0.0
 10
67.18900822973053
 20
-89.0970594395313
 30
0.0
 10
67.18900822973053
 20
-88.90671791397124
 30
0.0
 10
67.18900822973053
 20
-88.90671791397124
 30
0.0
 10
67.35609536076515
 20
-88.92359888184896
 30
0.0
 10
67.58657224872836
 20
-88.92566593914012
 30
0.0
 10
67.60138615931493
 20
-88.92566593914012
 30
0.0
 10
67.60138615931493
 20
-88.92566593914012
 30
0.0
 10
67.7071505907121
 20
-88.92566593914012
 30
0.0
 10
67.7071505907121
 20
-88.92566593914012
 30
0.0
 10
67.7071505907121
 20
-88.92566593914012
 30
0.0
 10
67.7071505907121
 20
-88.79458005592636
 30
0.0
 10
67.7071505907121
 20
-88.79458005592636
 30
0.0
 10
67.7071505907121
 20
-88.79458005592636
 30
0.0
 10
67.66925454037435
 20
-88.79458005592636
 30
0.0
 10
67.66925454037435
 20
-88.79458005592636
 30
0.0
 10
67.62481280861464
 20
-88.79458005592636
 30
0.0
 10
67.49975584250006
 20
-88.79871417050866
 30
0.0
 10
67.41087237898061
 20
-88.80715465444752
 30
0.0
 10
67.41087237898061
 20
-88.80715465444752
 30
0.0
 10
67.41087237898061
 20
-88.7268839296412
 30
0.0
 10
67.41087237898061
 20
-88.7268839296412
 30
0.0
 10
67.3581624180563
 20
-88.76495223475321
 30
0.0
 10
67.33266871146544
 20
-88.77976614533978
 30
0.0
 10
67.29029403699687
 20
-88.80302053986522
 30
0.0
 10
67.29029403699687
 20
-88.80302053986522
 30
0.0
 10
67.10219182350224
 20
-88.67400171394262
 30
0.0
 10
67.10219182350224
 20
-88.67400171394262
 30
0.0
 10
67.1803954910174
 20
-88.64006752341291
 30
0.0
 10
67.33714733559627
 20
-88.57667776648431
 30
0.0
 10
67.49355467062661
 20
-88.43284502997513
 30
0.0
 10
67.57589245272409
 20
-88.35446910768569
 30
0.0
 10
67.65444062978779
 20
-88.2698920135228
 30
0.0
 10
67.7071505907121
 20
-88.1684339514822
 30
0.0
 10
67.7071505907121
 20
-88.1684339514822
 30
0.0
 10
67.91867945350644
 20
-88.22975665111964
 30
0.0
 10
67.91867945350644
 20
-88.22975665111964
 30
0.0
 10
67.93762747867532
 20
-88.2359578229931
 30
0.0
 10
67.94830727467959
 20
-88.24457056170623
 30
0.0
 10
67.94830727467959
 20
-88.25714516022738
 30
0.0
 10
67.94830727467959
 20
-88.27419838287938
 30
0.0
 10
67.93556042138417
 20
-88.28039955475282
 30
0.0
 10
67.91041122434184
 20
-88.29314640804824
 30
0.0
 10
67.99068194914817
 20
-88.39047035550655
 30
0.0
 10
68.15363496560049
 20
-88.48779430296486
 30
0.0
 10
68.18739690135592
 20
-88.50674232813374
 30
0.0
 10
68.33760306451282
 20
-88.59562579165318
 30
0.0
 10
68.45198023462312
 20
-88.62318655553518
 30
0.0
 10
68.53018390213829
 20
-88.64213458070405
 30
0.0
 10
68.53018390213829
 20
-88.64213458070405
 30
0.0
 10
68.4116726174457
 20
-88.81146102380409
 30
0.0
 10
68.4116726174457
 20
-88.81146102380409
 30
0.0
 10
68.32692326850855
 20
-88.78183320263093
 30
0.0
 10
68.27628036487538
 20
-88.76288517746207
 30
0.0
 10
68.15776908018279
 20
-88.69725610846805
 30
0.0
 10
68.15776908018279
 20
-88.69725610846805
 30
0.0
 10
68.15776908018279
 20
-88.80715465444752
 30
0.0
 10
68.15776908018279
 20
-88.80715465444752
 30
0.0
 10
68.0754312980853
 20
-88.79871417050866
 30
0.0
 10
67.94830727467959
 20
-88.79458005592636
 30
0.0
 10
67.89559731375527
 20
-88.79458005592636
 30
0.0
 10
67.89559731375527
 20
-88.79458005592636
 30
0.0
 10
67.89559731375527
 20
-88.92566593914012
 30
0.0
 10
67.89559731375527
 20
-88.92566593914012
 30
0.0
 10
67.89559731375527
 20
-88.92566593914012
 30
0.0
 10
68.01617565573902
 20
-88.92566593914012
 30
0.0
 10
68.01617565573902
 20
-88.92566593914012
 30
0.0
 10
68.01824271303016
 20
-88.92566593914012
 30
0.0
 10
68.25078665828453
 20
-88.92359888184896
 30
0.0
 10
68.42855358532341
 20
-88.90671791397124
 30
0.0
 10
68.42855358532341
 20
-88.90671791397124
 30
0.0
 10
68.42855358532341
 20
-89.0970594395313
 30
0.0
 10
68.42855358532341
 20
-89.0970594395313
 30
0.0
 10
68.29970701417507
 20
-89.08431258623587
 30
0.0
 10
68.1429551695962
 20
-89.08431258623587
 30
0.0
 10
68.01617565573902
 20
-89.08431258623587
 30
0.0
 10
68.01617565573902
 20
-89.08431258623587
 30
0.0
 10
67.89559731375527
 20
-89.08431258623587
 30
0.0
 10
67.89559731375527
 20
-89.08431258623587
 30
0.0
 10
67.89559731375527
 20
-89.08431258623587
 30
0.0
 10
67.89559731375527
 20
-89.31065535961679
 30
0.0
 10
67.89559731375527
 20
-89.31065535961679
 30
0.0
 10
67.89559731375527
 20
-89.42916664430938
 30
0.0
 10
67.87010360716442
 20
-89.46499563735598
 30
0.0
 10
67.70921764800326
 20
-89.47980954794255
 30
0.0
 10
67.71369627213407
 20
-89.49875757311142
 30
0.0
 10
67.7071505907121
 20
-89.5094373691157
 30
0.0
 10
67.66925454037435
 20
-89.5328640184154
 30
0.0
 10
67.66684297353468
 20
-89.55181204358428
 30
0.0
 10
67.66684297353468
 20
-89.55801321545772
 30
0.0
 10
67.66477591624353
 20
-89.5728271260443
 30
0.0
 10
67.66477591624353
 20
-89.5728271260443
 30
0.0
 10
67.80257973565352
 20
-89.5728271260443
 30
0.0
 10
67.80257973565352
 20
-89.5728271260443
 30
0.0
 10
67.96725529984846
 20
-89.5728271260443
 30
0.0
 10
68.1346869404316
 20
-89.568693011462
 30
0.0
 10
68.30177407146623
 20
-89.55387910087542
 30
0.0
 10
68.30177407146623
 20
-89.55387910087542
 30
0.0
 10
68.30177407146623
 20
-89.76127384908746
 30
0.0
 10
68.30177407146623
 20
-89.76127384908746
 30
0.0
 10
68.08576658454106
 20
-89.74439288120973
 30
0.0
 10
67.8215277608224
 20
-89.74439288120973
 30
0.0
 10
67.80257973565352
 20
-89.74439288120973
 30
0.0
 10
67.80257973565352
 20
-89.74439288120973
 30
0.0
 10
67.66270885895239
 20
-89.74439288120973
 30
0.0
 10
67.66270885895239
 20
-89.74439288120973
 30
0.0
 10
67.66270885895239
 20
-89.74439288120973
 30
0.0
 10
67.66270885895239
 20
-89.8859863056535
 30
0.0
 10
67.66270885895239
 20
-89.8859863056535
 30
0.0
 10
67.66270885895239
 20
-89.8859863056535
 30
0.0
 10
67.88905163233329
 20
-89.8859863056535
 30
0.0
 10
67.88905163233329
 20
-89.8859863056535
 30
0.0
 10
68.10505911925846
 20
-89.8859863056535
 30
0.0
 10
68.32278915392625
 20
-89.8818521910712
 30
0.0
 10
68.53845213130289
 20
-89.86910533777578
 30
0.0
 10
68.53845213130289
 20
-89.86910533777578
 30
0.0
 10
68.53845213130289
 20
-90.07650008598782
 30
0.0
 10
68.53845213130289
 20
-90.07650008598782
 30
0.0
 10
68.25733233970651
 20
-90.0596191181101
 30
0.0
 10
67.912478281633
 20
-90.0596191181101
 30
0.0
 10
67.88905163233329
 20
-90.0596191181101
 30
0.0
  0
SPLINE
  5
BF
330
B9
100
AcDbEntity
  8
_U+30EC_U+30A4_U+30E4_U+30FC 1
370
     0
100
AcDbSpline
210
0.0
220
0.0
230
1.0
 70
    11
 71
     3
 72
    23
 73
    19
 74
     0
 42
0.0000000001
 43
0.0000000001
 12
1.0
 22
0.0
 32
0.0
 13
1.0
 23
0.0
 33
0.0
 40
0.0
 40
0.0
 40
0.0
 40
0.0
 40
1.0
 40
1.0
 40
1.0
 40
2.0
 40
2.0
 40
2.0
 40
3.0
 40
3.0
 40
3.0
 40
4.0
 40
4.0
 40
4.0
 40
5.0
 40
5.0
 40
5.0
 40
6.0
 40
6.0
 40
6.0
 40
6.0
 10
66.77008461872416
 20
-89.43123370160053
 30
0.0
 10
66.77008461872416
 20
-89.45224878406056
 30
0.0
 10
66.7721516760153
 20
-89.49048934394682
 30
0.0
 10
66.74665796942445
 20
-89.49048934394682
 30
0.0
 10
66.7363226829687
 20
-89.49048934394682
 30
0.0
 10
66.72770994425558
 20
-89.48394366252485
 30
0.0
 10
66.7170301482513
 20
-89.46706269464713
 30
0.0
 10
66.7170301482513
 20
-89.46706269464713
 30
0.0
 10
66.61333277414528
 20
-89.28516165302594
 30
0.0
 10
66.61333277414528
 20
-89.28516165302594
 30
0.0
 10
66.82934026107044
 20
-89.1563150818776
 30
0.0
 10
67.02605521327821
 20
-88.87915715008924
 30
0.0
 10
67.07256400232909
 20
-88.80715465444752
 30
0.0
 10
67.07256400232909
 20
-88.80715465444752
 30
0.0
 10
67.1445664979708
 20
-88.98698863877756
 30
0.0
 10
67.1445664979708
 20
-88.98698863877756
 30
0.0
 10
67.01124130269164
 20
-89.18370359098533
 30
0.0
 10
66.8355414329439
 20
-89.36784394467193
 30
0.0
 10
66.77008461872416
 20
-89.43123370160053
 30
0.0
  0
SPLINE
  5
C0
330
B9
100
AcDbEntity
  8
_U+30EC_U+30A4_U+30E4_U+30FC 1
370
     0
100
AcDbSpline
210
0.0
220
0.0
230
1.0
 70
    11
 71
     3
 72
    17
 73
    13
 74
     0
 42
0.0000000001
 43
0.0000000001
 12
1.0
 22
0.0
 32
0.0
 13
1.0
 23
0.0
 33
0.0
 40
0.0
 40
0.0
 40
0.0
 40
0.0
 40
1.0
 40
1.0
 40
1.0
 40
2.0
 40
2.0
 40
2.0
 40
3.0
 40
3.0
 40
3.0
 40
4.0
 40
4.0
 40
4.0
 40
4.0
 10
67.02398815598706
 20
-88.53637014930689
 30
0.0
 10
66.96266545634961
 20
-88.46023353908286
 30
0.0
 10
66.83347437565274
 20
-88.38409692885884
 30
0.0
 10
66.72977700154672
 20
-88.35446910768569
 30
0.0
 10
66.72977700154672
 20
-88.35446910768569
 30
0.0
 10
66.82520614648814
 20
-88.18944903394222
 30
0.0
 10
66.82520614648814
 20
-88.18944903394222
 30
0.0
 10
66.92649195375449
 20
-88.22545028176309
 30
0.0
 10
67.03225638515165
 20
-88.28263886681823
 30
0.0
 10
67.1211398486711
 20
-88.36290959162456
 30
0.0
 10
67.1211398486711
 20
-88.36290959162456
 30
0.0
 10
67.02398815598706
 20
-88.53637014930689
 30
0.0
 10
67.02398815598706
 20
-88.53637014930689
 30
0.0
  0
SPLINE
  5
C1
330
B9
100
AcDbEntity
  8
_U+30EC_U+30A4_U+30E4_U+30FC 1
370
     0
100
AcDbSpline
210
0.0
220
0.0
230
1.0
 70
    11
 71
     3
 72
    23
 73
    19
 74
     0
 42
0.0000000001
 43
0.0000000001
 12
1.0
 22
0.0
 32
0.0
 13
1.0
 23
0.0
 33
0.0
 40
0.0
 40
0.0
 40
0.0
 40
0.0
 40
1.0
 40
1.0
 40
1.0
 40
2.0
 40
2.0
 40
2.0
 40
3.0
 40
3.0
 40
3.0
 40
4.0
 40
4.0
 40
4.0
 40
5.0
 40
5.0
 40
5.0
 40
6.0
 40
6.0
 40
6.0
 40
6.0
 10
67.4766737027489
 20
-89.24089217604048
 30
0.0
 10
67.45531411074035
 20
-89.26414657056591
 30
0.0
 10
67.3581624180563
 20
-89.37611217383653
 30
0.0
 10
67.21863605090368
 20
-89.45672740819138
 30
0.0
 10
67.21863605090368
 20
-89.45672740819138
 30
0.0
 10
67.05154891986906
 20
-89.33614906620764
 30
0.0
 10
67.05154891986906
 20
-89.33614906620764
 30
0.0
 10
67.20175508302596
 20
-89.26001245598361
 30
0.0
 10
67.30097383300115
 20
-89.16475556581645
 30
0.0
 10
67.34954967934317
 20
-89.11187335011788
 30
0.0
 10
67.34954967934317
 20
-89.11187335011788
 30
0.0
 10
67.52318249179976
 20
-89.1943833869896
 30
0.0
 10
67.52318249179976
 20
-89.1943833869896
 30
0.0
 10
67.53179523051288
 20
-89.1985175015719
 30
0.0
 10
67.54006345967748
 20
-89.20489092821961
 30
0.0
 10
67.54006345967748
 20
-89.2155707242239
 30
0.0
 10
67.54006345967748
 20
-89.24089217604048
 30
0.0
 10
67.50423446663089
 20
-89.24089217604048
 30
0.0
 10
67.4766737027489
 20
-89.24089217604048
 30
0.0
  0
SPLINE
  5
C2
330
B9
100
AcDbEntity
  8
_U+30EC_U+30A4_U+30E4_U+30FC 1
370
     0
100
AcDbSpline
210
0.0
220
0.0
230
1.0
 70
    11
 71
     3
 72
    20
 73
    16
 74
     0
 42
0.0000000001
 43
0.0000000001
 12
1.0
 22
0.0
 32
0.0
 13
1.0
 23
0.0
 33
0.0
 40
0.0
 40
0.0
 40
0.0
 40
0.0
 40
1.0
 40
1.0
 40
1.0
 40
2.0
 40
2.0
 40
2.0
 40
3.0
 40
3.0
 40
3.0
 40
4.0
 40
4.0
 40
4.0
 40
5.0
 40
5.0
 40
5.0
 40
5.0
 10
67.77501897177153
 20
-88.39891083944542
 30
0.0
 10
67.73677841188525
 20
-88.4476589405617
 30
0.0
 10
67.67545571224781
 20
-88.52586260807688
 30
0.0
 10
67.53592934509518
 20
-88.63593340883061
 30
0.0
 10
67.61620006990151
 20
-88.64006752341291
 30
0.0
 10
67.64582789107466
 20
-88.64006752341291
 30
0.0
 10
67.66925454037435
 20
-88.64006752341291
 30
0.0
 10
67.66925454037435
 20
-88.64006752341291
 30
0.0
 10
67.89766437104642
 20
-88.64006752341291
 30
0.0
 10
67.89766437104642
 20
-88.64006752341291
 30
0.0
 10
67.92935924951072
 20
-88.64006752341291
 30
0.0
 10
67.97793509585274
 20
-88.63800046612175
 30
0.0
 10
68.05200464878561
 20
-88.63593340883061
 30
0.0
 10
67.940039045515
 20
-88.56186385589773
 30
0.0
 10
67.89111868962445
 20
-88.51535506684687
 30
0.0
 10
67.77501897177153
 20
-88.39891083944542
 30
0.0
  0
SPLINE
  5
C3
330
B9
100
AcDbEntity
  8
_U+30EC_U+30A4_U+30E4_U+30FC 1
370
     0
100
AcDbSpline
210
0.0
220
0.0
230
1.0
 70
    11
 71
     3
 72
    17
 73
    13
 74
     0
 42
0.0000000001
 43
0.0000000001
 12
1.0
 22
0.0
 32
0.0
 13
1.0
 23
0.0
 33
0.0
 40
0.0
 40
0.0
 40
0.0
 40
0.0
 40
1.0
 40
1.0
 40
1.0
 40
2.0
 40
2.0
 40
2.0
 40
3.0
 40
3.0
 40
3.0
 40
4.0
 40
4.0
 40
4.0
 40
4.0
 10
68.33553600722168
 20
-89.4543158413517
 30
0.0
 10
68.20014375465135
 20
-89.34235023808108
 30
0.0
 10
68.09437932325419
 20
-89.27896048115248
 30
0.0
 10
67.97586803856159
 20
-89.2155707242239
 30
0.0
 10
67.97586803856159
 20
-89.2155707242239
 30
0.0
 10
68.10264755241879
 20
-89.103432866179
 30
0.0
 10
68.10264755241879
 20
-89.103432866179
 30
0.0
 10
68.2339056904068
 20
-89.14994165522988
 30
0.0
 10
68.3441487459348
 20
-89.20713024028503
 30
0.0
 10
68.46886120250085
 20
-89.30858830232563
 30
0.0
 10
68.46886120250085
 20
-89.30858830232563
 30
0.0
 10
68.33553600722168
 20
-89.4543158413517
 30
0.0
 10
68.33553600722168
 20
-89.4543158413517
 30
0.0
  0
HATCH
  5
C4
330
B9
100
AcDbEntity
  8
_U+30EC_U+30A4_U+30E4_U+30FC 1
 62
   179
420
  2234388
100
AcDbHatch
 10
0.0
 20
0.0
 30
0.0
210
0.0
220
0.0
230
1.0
  2
SOLID
 70
     1
 71
     0
 91
        7
 92
        1
 93
        1
 72
     4
 94
        3
 73
     0
 74
     1
 95
       17
 96
       13
 40
0.0
 40
0.0
 40
0.0
 40
0.0
 40
1.0
 40
1.0
 40
1.0
 40
2.0
 40
2.0
 40
2.0
 40
3.0
 40
3.0
 40
3.0
 40
4.0
 40
4.0
 40
4.0
 40
4.0
 10
66.84415417165702
 20
-88.8812242073804
 10
66.73838974025985
 20
-88.77545977598322
 10
66.65777450590501
 20
-88.73739147087122
 10
66.56475692780326
 20
-88.70569659240691
 10
66.56475692780326
 20
-88.70569659240691
 10
66.67499998333125
 20
-88.54067651866345
 10
66.67499998333125
 20
-88.54067651866345
 10
66.7721516760153
 20
-88.58305119313202
 10
66.89273001799904
 20
-88.66125486064719
 10
66.94578448847189
 20
-88.71620413363692
 10
66.94578448847189
 20
-88.71620413363692
 10
66.84415417165702
 20
-88.8812242073804
 10
66.84415417165702
 20
-88.8812242073804
 97
        0
 97
        0
 92
        1
 93
        1
 72
     4
 94
        3
 73
     0
 74
     1
 95
      182
 96
      178
 40
0.0
 40
0.0
 40
0.0
 40
0.0
 40
1.0
 40
1.0
 40
1.0
 40
2.0
 40
2.0
 40
2.0
 40
3.0
 40
3.0
 40
3.0
 40
4.0
 40
4.0
 40
4.0
 40
5.0
 40
5.0
 40
5.0
 40
6.0
 40
6.0
 40
6.0
 40
7.0
 40
7.0
 40
7.0
 40
8.0
 40
8.0
 40
8.0
 40
9.0
 40
9.0
 40
9.0
 40
10.0
 40
10.0
 40
10.0
 40
11.0
 40
11.0
 40
11.0
 40
12.0
 40
12.0
 40
12.0
 40
13.0
 40
13.0
 40
13.0
 40
14.0
 40
14.0
 40
14.0
 40
15.0
 40
15.0
 40
15.0
 40
16.0
 40
16.0
 40
16.0
 40
17.0
 40
17.0
 40
17.0
 40
18.0
 40
18.0
 40
18.0
 40
19.0
 40
19.0
 40
19.0
 40
20.0
 40
20.0
 40
20.0
 40
21.0
 40
21.0
 40
21.0
 40
22.0
 40
22.0
 40
22.0
 40
23.0
 40
23.0
 40
23.0
 40
24.0
 40
24.0
 40
24.0
 40
25.0
 40
25.0
 40
25.0
 40
26.0
 40
26.0
 40
26.0
 40
27.0
 40
27.0
 40
27.0
 40
28.0
 40
28.0
 40
28.0
 40
29.0
 40
29.0
 40
29.0
 40
30.0
 40
30.0
 40
30.0
 40
31.0
 40
31.0
 40
31.0
 40
32.0
 40
32.0
 40
32.0
 40
33.0
 40
33.0
 40
33.0
 40
34.0
 40
34.0
 40
34.0
 40
35.0
 40
35.0
 40
35.0
 40
36.0
 40
36.0
 40
36.0
 40
37.0
 40
37.0
 40
37.0
 40
38.0
 40
38.0
 40
38.0
 40
39.0
 40
39.0
 40
39.0
 40
40.0
 40
40.0
 40
40.0
 40
41.0
 40
41.0
 40
41.0
 40
42.0
 40
42.0
 40
42.0
 40
43.0
 40
43.0
 40
43.0
 40
44.0
 40
44.0
 40
44.0
 40
45.0
 40
45.0
 40
45.0
 40
46.0
 40
46.0
 40
46.0
 40
47.0
 40
47.0
 40
47.0
 40
48.0
 40
48.0
 40
48.0
 40
49.0
 40
49.0
 40
49.0
 40
50.0
 40
50.0
 40
50.0
 40
51.0
 40
51.0
 40
51.0
 40
52.0
 40
52.0
 40
52.0
 40
53.0
 40
53.0
 40
53.0
 40
54.0
 40
54.0
 40
54.0
 40
55.0
 40
55.0
 40
55.0
 40
56.0
 40
56.0
 40
56.0
 40
57.0
 40
57.0
 40
57.0
 40
58.0
 40
58.0
 40
58.0
 40
59.0
 40
59.0
 40
59.0
 40
59.0
 10
67.88905163233329
 20
-90.0596191181101
 10
67.88905163233329
 20
-90.0596191181101
 10
67.25239798665912
 20
-90.0596191181101
 10
67.25239798665912
 20
-90.0596191181101
 10
67.03880206657364
 20
-90.0596191181101
 10
66.82279457964847
 20
-90.0637532326924
 10
66.60919865956298
 20
-90.07650008598782
 10
66.60919865956298
 20
-90.07650008598782
 10
66.60919865956298
 20
-89.86910533777578
 10
66.60919865956298
 20
-89.86910533777578
 10
66.8314073183616
 20
-89.8818521910712
 10
67.15490178442656
 20
-89.8859863056535
 10
67.25239798665912
 20
-89.8859863056535
 10
67.25239798665912
 20
-89.8859863056535
 10
67.4725395881666
 20
-89.8859863056535
 10
67.4725395881666
 20
-89.8859863056535
 10
67.4725395881666
 20
-89.8859863056535
 10
67.4725395881666
 20
-89.74439288120973
 10
67.4725395881666
 20
-89.74439288120973
 10
67.4725395881666
 20
-89.74439288120973
 10
67.31165362900542
 20
-89.74439288120973
 10
67.31165362900542
 20
-89.74439288120973
 10
67.14663355526196
 20
-89.74439288120973
 10
66.9816134815185
 20
-89.74852699579203
 10
66.81659340777502
 20
-89.76334090637862
 10
66.81659340777502
 20
-89.76334090637862
 10
66.81659340777502
 20
-89.55387910087542
 10
66.81659340777502
 20
-89.55387910087542
 10
66.98781465339194
 20
-89.568693011462
 10
67.23551701878141
 20
-89.5728271260443
 10
67.31165362900542
 20
-89.5728271260443
 10
67.31165362900542
 20
-89.5728271260443
 10
67.4725395881666
 20
-89.5728271260443
 10
67.4725395881666
 20
-89.5728271260443
 10
67.46806096403577
 20
-89.5011691399511
 10
67.46806096403577
 20
-89.49462345852912
 10
67.46185979216231
 20
-89.4419134976048
 10
67.46185979216231
 20
-89.4419134976048
 10
67.60138615931493
 20
-89.45672740819138
 10
67.60138615931493
 20
-89.45672740819138
 10
67.60138615931493
 20
-89.45672740819138
 10
67.50216740933973
 20
-89.28516165302594
 10
67.50216740933973
 20
-89.28516165302594
 10
67.54867619839061
 20
-89.2917073344479
 10
67.62274575132348
 20
-89.2999755636125
 10
67.6396267192012
 20
-89.2999755636125
 10
67.69026962283438
 20
-89.2999755636125
 10
67.7071505907121
 20
-89.27896048115248
 10
67.7071505907121
 20
-89.22194415087161
 10
67.7071505907121
 20
-89.22194415087161
 10
67.7071505907121
 20
-89.08431258623587
 10
67.7071505907121
 20
-89.08431258623587
 10
67.7071505907121
 20
-89.08431258623587
 10
67.60138615931493
 20
-89.08431258623587
 10
67.60138615931493
 20
-89.08431258623587
 10
67.46806096403577
 20
-89.08431258623587
 10
67.31165362900542
 20
-89.08431258623587
 10
67.18900822973053
 20
-89.0970594395313
 10
67.18900822973053
 20
-89.0970594395313
 10
67.18900822973053
 20
-88.90671791397124
 10
67.18900822973053
 20
-88.90671791397124
 10
67.35609536076515
 20
-88.92359888184896
 10
67.58657224872836
 20
-88.92566593914012
 10
67.60138615931493
 20
-88.92566593914012
 10
67.60138615931493
 20
-88.92566593914012
 10
67.7071505907121
 20
-88.92566593914012
 10
67.7071505907121
 20
-88.92566593914012
 10
67.7071505907121
 20
-88.92566593914012
 10
67.7071505907121
 20
-88.79458005592636
 10
67.7071505907121
 20
-88.79458005592636
 10
67.7071505907121
 20
-88.79458005592636
 10
67.66925454037435
 20
-88.79458005592636
 10
67.66925454037435
 20
-88.79458005592636
 10
67.62481280861464
 20
-88.79458005592636
 10
67.49975584250006
 20
-88.79871417050866
 10
67.41087237898061
 20
-88.80715465444752
 10
67.41087237898061
 20
-88.80715465444752
 10
67.41087237898061
 20
-88.7268839296412
 10
67.41087237898061
 20
-88.7268839296412
 10
67.3581624180563
 20
-88.76495223475321
 10
67.33266871146544
 20
-88.77976614533978
 10
67.29029403699687
 20
-88.80302053986522
 10
67.29029403699687
 20
-88.80302053986522
 10
67.10219182350224
 20
-88.67400171394262
 10
67.10219182350224
 20
-88.67400171394262
 10
67.1803954910174
 20
-88.64006752341291
 10
67.33714733559627
 20
-88.57667776648431
 10
67.49355467062661
 20
-88.43284502997513
 10
67.57589245272409
 20
-88.35446910768569
 10
67.65444062978779
 20
-88.2698920135228
 10
67.7071505907121
 20
-88.1684339514822
 10
67.7071505907121
 20
-88.1684339514822
 10
67.91867945350644
 20
-88.22975665111964
 10
67.91867945350644
 20
-88.22975665111964
 10
67.93762747867532
 20
-88.2359578229931
 10
67.94830727467959
 20
-88.24457056170623
 10
67.94830727467959
 20
-88.25714516022738
 10
67.94830727467959
 20
-88.27419838287938
 10
67.93556042138417
 20
-88.28039955475282
 10
67.91041122434184
 20
-88.29314640804824
 10
67.99068194914817
 20
-88.39047035550655
 10
68.15363496560049
 20
-88.48779430296486
 10
68.18739690135592
 20
-88.50674232813374
 10
68.33760306451282
 20
-88.59562579165318
 10
68.45198023462312
 20
-88.62318655553518
 10
68.53018390213829
 20
-88.64213458070405
 10
68.53018390213829
 20
-88.64213458070405
 10
68.4116726174457
 20
-88.81146102380409
 10
68.4116726174457
 20
-88.81146102380409
 10
68.32692326850855
 20
-88.78183320263093
 10
68.27628036487538
 20
-88.76288517746207
 10
68.15776908018279
 20
-88.69725610846805
 10
68.15776908018279
 20
-88.69725610846805
 10
68.15776908018279
 20
-88.80715465444752
 10
68.15776908018279
 20
-88.80715465444752
 10
68.0754312980853
 20
-88.79871417050866
 10
67.94830727467959
 20
-88.79458005592636
 10
67.89559731375527
 20
-88.79458005592636
 10
67.89559731375527
 20
-88.79458005592636
 10
67.89559731375527
 20
-88.92566593914012
 10
67.89559731375527
 20
-88.92566593914012
 10
67.89559731375527
 20
-88.92566593914012
 10
68.01617565573902
 20
-88.92566593914012
 10
68.01617565573902
 20
-88.92566593914012
 10
68.01824271303016
 20
-88.92566593914012
 10
68.25078665828453
 20
-88.92359888184896
 10
68.42855358532341
 20
-88.90671791397124
 10
68.42855358532341
 20
-88.90671791397124
 10
68.42855358532341
 20
-89.0970594395313
 10
68.42855358532341
 20
-89.0970594395313
 10
68.29970701417507
 20
-89.08431258623587
 10
68.1429551695962
 20
-89.08431258623587
 10
68.01617565573902
 20
-89.08431258623587
 10
68.01617565573902
 20
-89.08431258623587
 10
67.89559731375527
 20
-89.08431258623587
 10
67.89559731375527
 20
-89.08431258623587
 10
67.89559731375527
 20
-89.08431258623587
 10
67.89559731375527
 20
-89.31065535961679
 10
67.89559731375527
 20
-89.31065535961679
 10
67.89559731375527
 20
-89.42916664430938
 10
67.87010360716442
 20
-89.46499563735598
 10
67.70921764800326
 20
-89.47980954794255
 10
67.71369627213407
 20
-89.49875757311142
 10
67.7071505907121
 20
-89.5094373691157
 10
67.66925454037435
 20
-89.5328640184154
 10
67.66684297353468
 20
-89.55181204358428
 10
67.66684297353468
 20
-89.55801321545772
 10
67.66477591624353
 20
-89.5728271260443
 10
67.66477591624353
 20
-89.5728271260443
 10
67.80257973565352
 20
-89.5728271260443
 10
67.80257973565352
 20
-89.5728271260443
 10
67.96725529984846
 20
-89.5728271260443
 10
68.1346869404316
 20
-89.568693011462
 10
68.30177407146623
 20
-89.55387910087542
 10
68.30177407146623
 20
-89.55387910087542
 10
68.30177407146623
 20
-89.76127384908746
 10
68.30177407146623
 20
-89.76127384908746
 10
68.08576658454106
 20
-89.74439288120973
 10
67.8215277608224
 20
-89.74439288120973
 10
67.80257973565352
 20
-89.74439288120973
 10
67.80257973565352
 20
-89.74439288120973
 10
67.66270885895239
 20
-89.74439288120973
 10
67.66270885895239
 20
-89.74439288120973
 10
67.66270885895239
 20
-89.74439288120973
 10
67.66270885895239
 20
-89.8859863056535
 10
67.66270885895239
 20
-89.8859863056535
 10
67.66270885895239
 20
-89.8859863056535
 10
67.88905163233329
 20
-89.8859863056535
 10
67.88905163233329
 20
-89.8859863056535
 10
68.10505911925846
 20
-89.8859863056535
 10
68.32278915392625
 20
-89.8818521910712
 10
68.53845213130289
 20
-89.86910533777578
 10
68.53845213130289
 20
-89.86910533777578
 10
68.53845213130289
 20
-90.07650008598782
 10
68.53845213130289
 20
-90.07650008598782
 10
68.25733233970651
 20
-90.0596191181101
 10
67.912478281633
 20
-90.0596191181101
 10
67.88905163233329
 20
-90.0596191181101
 97
        0
 97
        0
 92
        1
 93
        1
 72
     4
 94
        3
 73
     0
 74
     1
 95
       23
 96
       19
 40
0.0
 40
0.0
 40
0.0
 40
0.0
 40
1.0
 40
1.0
 40
1.0
 40
2.0
 40
2.0
 40
2.0
 40
3.0
 40
3.0
 40
3.0
 40
4.0
 40
4.0
 40
4.0
 40
5.0
 40
5.0
 40
5.0
 40
6.0
 40
6.0
 40
6.0
 40
6.0
 10
66.77008461872416
 20
-89.43123370160053
 10
66.77008461872416
 20
-89.45224878406056
 10
66.7721516760153
 20
-89.49048934394682
 10
66.74665796942445
 20
-89.49048934394682
 10
66.7363226829687
 20
-89.49048934394682
 10
66.72770994425558
 20
-89.48394366252485
 10
66.7170301482513
 20
-89.46706269464713
 10
66.7170301482513
 20
-89.46706269464713
 10
66.61333277414528
 20
-89.28516165302594
 10
66.61333277414528
 20
-89.28516165302594
 10
66.82934026107044
 20
-89.1563150818776
 10
67.02605521327821
 20
-88.87915715008924
 10
67.07256400232909
 20
-88.80715465444752
 10
67.07256400232909
 20
-88.80715465444752
 10
67.1445664979708
 20
-88.98698863877756
 10
67.1445664979708
 20
-88.98698863877756
 10
67.01124130269164
 20
-89.18370359098533
 10
66.8355414329439
 20
-89.36784394467193
 10
66.77008461872416
 20
-89.43123370160053
 97
        0
 97
        0
 92
        1
 93
        1
 72
     4
 94
        3
 73
     0
 74
     1
 95
       17
 96
       13
 40
0.0
 40
0.0
 40
0.0
 40
0.0
 40
1.0
 40
1.0
 40
1.0
 40
2.0
 40
2.0
 40
2.0
 40
3.0
 40
3.0
 40
3.0
 40
4.0
 40
4.0
 40
4.0
 40
4.0
 10
67.02398815598706
 20
-88.53637014930689
 10
66.96266545634961
 20
-88.46023353908286
 10
66.83347437565274
 20
-88.38409692885884
 10
66.72977700154672
 20
-88.35446910768569
 10
66.72977700154672
 20
-88.35446910768569
 10
66.82520614648814
 20
-88.18944903394222
 10
66.82520614648814
 20
-88.18944903394222
 10
66.92649195375449
 20
-88.22545028176309
 10
67.03225638515165
 20
-88.28263886681823
 10
67.1211398486711
 20
-88.36290959162456
 10
67.1211398486711
 20
-88.36290959162456
 10
67.02398815598706
 20
-88.53637014930689
 10
67.02398815598706
 20
-88.53637014930689
 97
        0
 97
        0
 92
        1
 93
        1
 72
     4
 94
        3
 73
     0
 74
     1
 95
       23
 96
       19
 40
0.0
 40
0.0
 40
0.0
 40
0.0
 40
1.0
 40
1.0
 40
1.0
 40
2.0
 40
2.0
 40
2.0
 40
3.0
 40
3.0
 40
3.0
 40
4.0
 40
4.0
 40
4.0
 40
5.0
 40
5.0
 40
5.0
 40
6.0
 40
6.0
 40
6.0
 40
6.0
 10
67.4766737027489
 20
-89.24089217604048
 10
67.45531411074035
 20
-89.26414657056591
 10
67.3581624180563
 20
-89.37611217383653
 10
67.21863605090368
 20
-89.45672740819138
 10
67.21863605090368
 20
-89.45672740819138
 10
67.05154891986906
 20
-89.33614906620764
 10
67.05154891986906
 20
-89.33614906620764
 10
67.20175508302596
 20
-89.26001245598361
 10
67.30097383300115
 20
-89.16475556581645
 10
67.34954967934317
 20
-89.11187335011788
 10
67.34954967934317
 20
-89.11187335011788
 10
67.52318249179976
 20
-89.1943833869896
 10
67.52318249179976
 20
-89.1943833869896
 10
67.53179523051288
 20
-89.1985175015719
 10
67.54006345967748
 20
-89.20489092821961
 10
67.54006345967748
 20
-89.2155707242239
 10
67.54006345967748
 20
-89.24089217604048
 10
67.50423446663089
 20
-89.24089217604048
 10
67.4766737027489
 20
-89.24089217604048
 97
        0
 97
        0
 92
        1
 93
        1
 72
     4
 94
        3
 73
     0
 74
     1
 95
       20
 96
       16
 40
0.0
 40
0.0
 40
0.0
 40
0.0
 40
1.0
 40
1.0
 40
1.0
 40
2.0
 40
2.0
 40
2.0
 40
3.0
 40
3.0
 40
3.0
 40
4.0
 40
4.0
 40
4.0
 40
5.0
 40
5.0
 40
5.0
 40
5.0
 10
67.77501897177153
 20
-88.39891083944542
 10
67.73677841188525
 20
-88.4476589405617
 10
67.67545571224781
 20
-88.52586260807688
 10
67.53592934509518
 20
-88.63593340883061
 10
67.61620006990151
 20
-88.64006752341291
 10
67.64582789107466
 20
-88.64006752341291
 10
67.66925454037435
 20
-88.64006752341291
 10
67.66925454037435
 20
-88.64006752341291
 10
67.89766437104642
 20
-88.64006752341291
 10
67.89766437104642
 20
-88.64006752341291
 10
67.92935924951072
 20
-88.64006752341291
 10
67.97793509585274
 20
-88.63800046612175
 10
68.05200464878561
 20
-88.63593340883061
 10
67.940039045515
 20
-88.56186385589773
 10
67.89111868962445
 20
-88.51535506684687
 10
67.77501897177153
 20
-88.39891083944542
 97
        0
 97
        0
 92
        1
 93
        1
 72
     4
 94
        3
 73
     0
 74
     1
 95
       17
 96
       13
 40
0.0
 40
0.0
 40
0.0
 40
0.0
 40
1.0
 40
1.0
 40
1.0
 40
2.0
 40
2.0
 40
2.0
 40
3.0
 40
3.0
 40
3.0
 40
4.0
 40
4.0
 40
4.0
 40
4.0
 10
68.33553600722168
 20
-89.4543158413517
 10
68.20014375465135
 20
-89.34235023808108
 10
68.09437932325419
 20
-89.27896048115248
 10
67.97586803856159
 20
-89.2155707242239
 10
67.97586803856159
 20
-89.2155707242239
 10
68.10264755241879
 20
-89.103432866179
 10
68.10264755241879
 20
-89.103432866179
 10
68.2339056904068
 20
-89.14994165522988
 10
68.3441487459348
 20
-89.20713024028503
 10
68.46886120250085
 20
-89.30858830232563
 10
68.46886120250085
 20
-89.30858830232563
 10
68.33553600722168
 20
-89.4543158413517
 10
68.33553600722168
 20
-89.4543158413517
 97
        0
 97
        0
 75
     2
 76
     1
 98
        0
  0
SPLINE
  5
C5
330
B9
100
AcDbEntity
  8
_U+30EC_U+30A4_U+30E4_U+30FC 1
370
     0
100
AcDbSpline
210
0.0
220
0.0
230
1.0
 70
    11
 71
     3
 72
   113
 73
   109
 74
     0
 42
0.0000000001
 43
0.0000000001
 12
1.0
 22
0.0
 32
0.0
 13
1.0
 23
0.0
 33
0.0
 40
0.0
 40
0.0
 40
0.0
 40
0.0
 40
1.0
 40
1.0
 40
1.0
 40
2.0
 40
2.0
 40
2.0
 40
3.0
 40
3.0
 40
3.0
 40
4.0
 40
4.0
 40
4.0
 40
5.0
 40
5.0
 40
5.0
 40
6.0
 40
6.0
 40
6.0
 40
7.0
 40
7.0
 40
7.0
 40
8.0
 40
8.0
 40
8.0
 40
9.0
 40
9.0
 40
9.0
 40
10.0
 40
10.0
 40
10.0
 40
11.0
 40
11.0
 40
11.0
 40
12.0
 40
12.0
 40
12.0
 40
13.0
 40
13.0
 40
13.0
 40
14.0
 40
14.0
 40
14.0
 40
15.0
 40
15.0
 40
15.0
 40
16.0
 40
16.0
 40
16.0
 40
17.0
 40
17.0
 40
17.0
 40
18.0
 40
18.0
 40
18.0
 40
19.0
 40
19.0
 40
19.0
 40
20.0
 40
20.0
 40
20.0
 40
21.0
 40
21.0
 40
21.0
 40
22.0
 40
22.0
 40
22.0
 40
23.0
 40
23.0
 40
23.0
 40
24.0
 40
24.0
 40
24.0
 40
25.0
 40
25.0
 40
25.0
 40
26.0
 40
26.0
 40
26.0
 40
27.0
 40
27.0
 40
27.0
 40
28.0
 40
28.0
 40
28.0
 40
29.0
 40
29.0
 40
29.0
 40
30.0
 40
30.0
 40
30.0
 40
31.0
 40
31.0
 40
31.0
 40
32.0
 40
32.0
 40
32.0
 40
33.0
 40
33.0
 40
33.0
 40
34.0
 40
34.0
 40
34.0
 40
35.0
 40
35.0
 40
35.0
 40
36.0
 40
36.0
 40
36.0
 40
36.0
 10
70.21518010397399
 20
-89.43123370160053
 30
0.0
 10
70.21518010397399
 20
-89.43123370160053
 30
0.0
 10
70.31474336349771
 20
-89.53079696112425
 30
0.0
 10
70.31474336349771
 20
-89.53079696112425
 30
0.0
 10
70.32507864995345
 20
-89.54113224758
 30
0.0
 10
70.33575844595774
 20
-89.55387910087542
 30
0.0
 10
70.33575844595774
 20
-89.568693011462
 30
0.0
 10
70.33575844595774
 20
-89.57076006875315
 30
0.0
 10
70.33575844595774
 20
-89.6003878899263
 30
0.0
 10
70.29786239561999
 20
-89.6003878899263
 30
0.0
 10
70.28924965690686
 20
-89.6003878899263
 30
0.0
 10
70.24894203972943
 20
-89.596253775344
 30
0.0
 10
70.24274086785599
 20
-89.596253775344
 30
0.0
 10
70.20243325067857
 20
-89.62794865380829
 30
0.0
 10
70.15592446162769
 20
-89.66171058956374
 30
0.0
 10
70.0567057116525
 20
-89.7188991746189
 30
0.0
 10
70.20243325067857
 20
-89.82673066330722
 30
0.0
 10
70.36125215254857
 20
-89.88391924836236
 30
0.0
 10
70.63410371498037
 20
-89.92215980824864
 30
0.0
 10
70.63410371498037
 20
-89.92215980824864
 30
0.0
 10
70.48389755182347
 20
-90.09751516844784
 30
0.0
 10
70.48389755182347
 20
-90.09751516844784
 30
0.0
 10
70.22172578539596
 20
-90.02551267280613
 30
0.0
 10
70.0649739408171
 20
-89.9369737188352
 30
0.0
 10
69.98883733059307
 20
-89.88391924836236
 30
0.0
 10
69.83863116743618
 20
-89.78228893154748
 30
0.0
 10
69.69497068570126
 20
-89.61933591509516
 30
0.0
 10
69.61883407547724
 20
-89.4543158413517
 30
0.0
 10
69.55096569441781
 20
-89.52011716511997
 30
0.0
 10
69.47689614148494
 20
-89.5728271260443
 30
0.0
 10
69.39869247396977
 20
-89.62174748193485
 30
0.0
 10
69.39869247396977
 20
-89.62174748193485
 30
0.0
 10
69.39869247396977
 20
-89.87323945235808
 30
0.0
 10
69.39869247396977
 20
-89.87323945235808
 30
0.0
 10
69.5616454904221
 20
-89.84809025531575
 30
0.0
 10
69.74768064662558
 20
-89.80364852355603
 30
0.0
 10
69.81107040355418
 20
-89.78883461296947
 30
0.0
 10
69.81107040355418
 20
-89.78883461296947
 30
0.0
 10
69.78144258238103
 20
-89.95798880129523
 30
0.0
 10
69.78144258238103
 20
-89.95798880129523
 30
0.0
 10
69.77937552508988
 20
-89.95798880129523
 30
0.0
 10
69.76042749992101
 20
-89.96418997316867
 30
0.0
 10
69.75836044262985
 20
-89.96418997316867
 30
0.0
 10
69.55957843313094
 20
-90.00243053305495
 30
0.0
 10
69.24194062939091
 20
-90.0678873472747
 30
0.0
 10
69.04522567718314
 20
-90.10406084986982
 30
0.0
 10
69.0348903907274
 20
-90.12094181774755
 30
0.0
 10
69.01146374142769
 20
-90.15263669621184
 30
0.0
 10
68.98838160167652
 20
-90.15263669621184
 30
0.0
 10
68.96082083779451
 20
-90.15263669621184
 30
0.0
 10
68.95668672321221
 20
-90.13368867104298
 30
0.0
 10
68.95427515637255
 20
-90.11439613632557
 30
0.0
 10
68.95427515637255
 20
-90.11439613632557
 30
0.0
 10
68.92912595933022
 20
-89.9411078334175
 30
0.0
 10
68.92912595933022
 20
-89.9411078334175
 30
0.0
 10
69.00319551226309
 20
-89.93249509470438
 30
0.0
 10
69.11102700095141
 20
-89.91974824140895
 30
0.0
 10
69.21885848963973
 20
-89.89873315894893
 30
0.0
 10
69.21885848963973
 20
-89.89873315894893
 30
0.0
 10
69.21885848963973
 20
-89.72096623191004
 30
0.0
 10
69.21885848963973
 20
-89.72096623191004
 30
0.0
 10
69.07485349835629
 20
-89.79296872755177
 30
0.0
 10
68.9797688629634
 20
-89.82259654872492
 30
0.0
 10
68.81474878921993
 20
-89.85222436989805
 30
0.0
 10
68.81474878921993
 20
-89.85222436989805
 30
0.0
 10
68.69417044723619
 20
-89.68307018157229
 30
0.0
 10
68.69417044723619
 20
-89.68307018157229
 30
0.0
 10
69.01146374142769
 20
-89.6555094176903
 30
0.0
 10
69.20404457905316
 20
-89.56249183958855
 30
0.0
 10
69.38181150609205
 20
-89.42916664430938
 30
0.0
 10
69.23573945751745
 20
-89.42916664430938
 30
0.0
 10
68.93532713120368
 20
-89.43330075889168
 30
0.0
 10
68.73861217899591
 20
-89.43984644031366
 30
0.0
 10
68.73861217899591
 20
-89.43984644031366
 30
0.0
 10
68.73861217899591
 20
-89.26207951327476
 30
0.0
 10
68.73861217899591
 20
-89.26207951327476
 30
0.0
 10
68.8929524567351
 20
-89.26828068514821
 30
0.0
 10
69.18923066846658
 20
-89.27482636657018
 30
0.0
 10
69.37319876737892
 20
-89.27482636657018
 30
0.0
 10
69.37319876737892
 20
-89.27482636657018
 30
0.0
 10
69.58472763017326
 20
-89.27482636657018
 30
0.0
 10
69.58472763017326
 20
-89.27482636657018
 30
0.0
 10
69.58472763017326
 20
-89.17956947640303
 30
0.0
 10
69.58266057288212
 20
-89.1287543179956
 30
0.0
 10
69.57645940100866
 20
-89.08224552894472
 30
0.0
 10
69.57645940100866
 20
-89.08224552894472
 30
0.0
 10
69.7921223783853
 20
-89.09912649682245
 30
0.0
 10
69.7921223783853
 20
-89.09912649682245
 30
0.0
 10
69.84069822472733
 20
-89.103432866179
 30
0.0
 10
69.84931096344046
 20
-89.11824677676559
 30
0.0
 10
69.84931096344046
 20
-89.13306068735216
 30
0.0
 10
69.84931096344046
 20
-89.15838213916874
 30
0.0
 10
69.83242999556273
 20
-89.1668226231076
 30
0.0
 10
69.78144258238103
 20
-89.19231632969846
 30
0.0
 10
69.77937552508988
 20
-89.21763778151504
 30
0.0
 10
69.77937552508988
 20
-89.22401120816275
 30
0.0
 10
69.77730846779873
 20
-89.27482636657018
 30
0.0
 10
69.77730846779873
 20
-89.27482636657018
 30
0.0
 10
70.00778535576194
 20
-89.27482636657018
 30
0.0
 10
70.00778535576194
 20
-89.27482636657018
 30
0.0
 10
70.17280542950542
 20
-89.27482636657018
 30
0.0
 10
70.46494952665459
 20
-89.26828068514821
 30
0.0
 10
70.64478351098464
 20
-89.26207951327476
 30
0.0
 10
70.64478351098464
 20
-89.26207951327476
 30
0.0
 10
70.64478351098464
 20
-89.43984644031366
 30
0.0
 10
70.64478351098464
 20
-89.43984644031366
 30
0.0
 10
70.51559243028777
 20
-89.43536781618283
 30
0.0
 10
70.4925102905366
 20
-89.43536781618283
 30
0.0
 10
70.21518010397399
 20
-89.43123370160053
 30
0.0
  0
SPLINE
  5
C6
330
B9
100
AcDbEntity
  8
_U+30EC_U+30A4_U+30E4_U+30FC 1
370
     0
100
AcDbSpline
210
0.0
220
0.0
230
1.0
 70
    11
 71
     3
 72
    23
 73
    19
 74
     0
 42
0.0000000001
 43
0.0000000001
 12
1.0
 22
0.0
 32
0.0
 13
1.0
 23
0.0
 33
0.0
 40
0.0
 40
0.0
 40
0.0
 40
0.0
 40
1.0
 40
1.0
 40
1.0
 40
2.0
 40
2.0
 40
2.0
 40
3.0
 40
3.0
 40
3.0
 40
4.0
 40
4.0
 40
4.0
 40
5.0
 40
5.0
 40
5.0
 40
6.0
 40
6.0
 40
6.0
 40
6.0
 10
68.93119301662138
 20
-89.08017847165357
 30
0.0
 10
68.91431204874365
 20
-89.12031383405673
 30
0.0
 10
68.90776636732167
 20
-89.13719480193446
 30
0.0
 10
68.88675128486165
 20
-89.13719480193446
 30
0.0
 10
68.87193737427508
 20
-89.13719480193446
 30
0.0
 10
68.8612575782708
 20
-89.12031383405673
 30
0.0
 10
68.85505640639735
 20
-89.1075669807613
 30
0.0
 10
68.85505640639735
 20
-89.1075669807613
 30
0.0
 10
68.75549314687363
 20
-88.94254690701784
 30
0.0
 10
68.75549314687363
 20
-88.94254690701784
 30
0.0
 10
68.8571234636885
 20
-88.91085202855353
 30
0.0
 10
69.00732962684539
 20
-88.8559027555638
 30
0.0
 10
69.2061116363443
 20
-88.69294973911148
 30
0.0
 10
69.2061116363443
 20
-88.69294973911148
 30
0.0
 10
69.26330022139946
 20
-88.86641029679382
 30
0.0
 10
69.26330022139946
 20
-88.86641029679382
 30
0.0
 10
69.17028264329771
 20
-88.94892033366555
 30
0.0
 10
69.08139917977826
 20
-89.0061089187207
 30
0.0
 10
68.93119301662138
 20
-89.08017847165357
 30
0.0
  0
SPLINE
  5
C7
330
B9
100
AcDbEntity
  8
_U+30EC_U+30A4_U+30E4_U+30FC 1
370
     0
100
AcDbSpline
210
0.0
220
0.0
230
1.0
 70
    11
 71
     3
 72
    17
 73
    13
 74
     0
 42
0.0000000001
 43
0.0000000001
 12
1.0
 22
0.0
 32
0.0
 13
1.0
 23
0.0
 33
0.0
 40
0.0
 40
0.0
 40
0.0
 40
0.0
 40
1.0
 40
1.0
 40
1.0
 40
2.0
 40
2.0
 40
2.0
 40
3.0
 40
3.0
 40
3.0
 40
4.0
 40
4.0
 40
4.0
 40
4.0
 10
69.08346623706942
 20
-88.61474607159631
 30
0.0
 10
69.05383841589627
 20
-88.57461070919315
 30
0.0
 10
68.98597003483684
 20
-88.47728676173485
 30
0.0
 10
68.80406899321565
 20
-88.36721596098111
 30
0.0
 10
68.80406899321565
 20
-88.36721596098111
 30
0.0
 10
68.93119301662138
 20
-88.23389076570194
 30
0.0
 10
68.93119301662138
 20
-88.23389076570194
 30
0.0
 10
69.11722817282487
 20
-88.33552108251682
 30
0.0
 10
69.17441675788001
 20
-88.42440454603626
 30
0.0
 10
69.201977521762
 20
-88.46660696573058
 30
0.0
 10
69.201977521762
 20
-88.46660696573058
 30
0.0
 10
69.08346623706942
 20
-88.61474607159631
 30
0.0
 10
69.08346623706942
 20
-88.61474607159631
 30
0.0
  0
SPLINE
  5
C8
330
B9
100
AcDbEntity
  8
_U+30EC_U+30A4_U+30E4_U+30FC 1
370
     0
100
AcDbSpline
210
0.0
220
0.0
230
1.0
 70
    11
 71
     3
 72
    38
 73
    34
 74
     0
 42
0.0000000001
 43
0.0000000001
 12
1.0
 22
0.0
 32
0.0
 13
1.0
 23
0.0
 33
0.0
 40
0.0
 40
0.0
 40
0.0
 40
0.0
 40
1.0
 40
1.0
 40
1.0
 40
2.0
 40
2.0
 40
2.0
 40
3.0
 40
3.0
 40
3.0
 40
4.0
 40
4.0
 40
4.0
 40
5.0
 40
5.0
 40
5.0
 40
6.0
 40
6.0
 40
6.0
 40
7.0
 40
7.0
 40
7.0
 40
8.0
 40
8.0
 40
8.0
 40
9.0
 40
9.0
 40
9.0
 40
10.0
 40
10.0
 40
10.0
 40
11.0
 40
11.0
 40
11.0
 40
11.0
 10
69.45140243489409
 20
-88.31002737592597
 30
0.0
 10
69.44933537760295
 20
-88.3567084197511
 30
0.0
 10
69.44726832031179
 20
-88.47298039237829
 30
0.0
 10
69.44726832031179
 20
-88.51742212413801
 30
0.0
 10
69.44726832031179
 20
-88.51742212413801
 30
0.0
 10
69.44726832031179
 20
-88.86434323950267
 30
0.0
 10
69.44726832031179
 20
-88.86434323950267
 30
0.0
 10
69.44726832031179
 20
-88.95115964573097
 30
0.0
 10
69.44933537760295
 20
-89.09275307017474
 30
0.0
 10
69.46001517360722
 20
-89.21333141215848
 30
0.0
 10
69.46001517360722
 20
-89.21333141215848
 30
0.0
 10
69.2695013932729
 20
-89.21333141215848
 30
0.0
 10
69.2695013932729
 20
-89.21333141215848
 30
0.0
 10
69.27398001740373
 20
-89.14994165522988
 30
0.0
 10
69.27811413198603
 20
-89.0970594395313
 30
0.0
 10
69.28018118927719
 20
-89.04211016654156
 30
0.0
 10
69.28224824656833
 20
-88.9192925124924
 30
0.0
 10
69.28431530385949
 20
-88.90447860190582
 30
0.0
 10
69.28431530385949
 20
-88.8600368701461
 30
0.0
 10
69.28431530385949
 20
-88.8600368701461
 30
0.0
 10
69.28431530385949
 20
-88.5386094613723
 30
0.0
 10
69.28431530385949
 20
-88.5386094613723
 30
0.0
 10
69.28431530385949
 20
-88.4834879336083
 30
0.0
 10
69.27156845056406
 20
-88.24457056170623
 30
0.0
 10
69.2695013932729
 20
-88.19375540329878
 30
0.0
 10
69.2695013932729
 20
-88.19375540329878
 30
0.0
 10
69.4706949696115
 20
-88.22131616718079
 30
0.0
 10
69.4706949696115
 20
-88.22131616718079
 30
0.0
 10
69.49171005207153
 20
-88.22338322447193
 30
0.0
 10
69.52340493053582
 20
-88.22751733905423
 30
0.0
 10
69.52340493053582
 20
-88.25301104564508
 30
0.0
 10
69.52340493053582
 20
-88.28039955475282
 30
0.0
 10
69.47276202690264
 20
-88.30158689198711
 30
0.0
 10
69.45140243489409
 20
-88.31002737592597
 30
0.0
  0
SPLINE
  5
C9
330
B9
100
AcDbEntity
  8
_U+30EC_U+30A4_U+30E4_U+30FC 1
370
     0
100
AcDbSpline
210
0.0
220
0.0
230
1.0
 70
    11
 71
     3
 72
    83
 73
    79
 74
     0
 42
0.0000000001
 43
0.0000000001
 12
1.0
 22
0.0
 32
0.0
 13
1.0
 23
0.0
 33
0.0
 40
0.0
 40
0.0
 40
0.0
 40
0.0
 40
1.0
 40
1.0
 40
1.0
 40
2.0
 40
2.0
 40
2.0
 40
3.0
 40
3.0
 40
3.0
 40
4.0
 40
4.0
 40
4.0
 40
5.0
 40
5.0
 40
5.0
 40
6.0
 40
6.0
 40
6.0
 40
7.0
 40
7.0
 40
7.0
 40
8.0
 40
8.0
 40
8.0
 40
9.0
 40
9.0
 40
9.0
 40
10.0
 40
10.0
 40
10.0
 40
11.0
 40
11.0
 40
11.0
 40
12.0
 40
12.0
 40
12.0
 40
13.0
 40
13.0
 40
13.0
 40
14.0
 40
14.0
 40
14.0
 40
15.0
 40
15.0
 40
15.0
 40
16.0
 40
16.0
 40
16.0
 40
17.0
 40
17.0
 40
17.0
 40
18.0
 40
18.0
 40
18.0
 40
19.0
 40
19.0
 40
19.0
 40
20.0
 40
20.0
 40
20.0
 40
21.0
 40
21.0
 40
21.0
 40
22.0
 40
22.0
 40
22.0
 40
23.0
 40
23.0
 40
23.0
 40
24.0
 40
24.0
 40
24.0
 40
25.0
 40
25.0
 40
25.0
 40
26.0
 40
26.0
 40
26.0
 40
26.0
 10
70.25342066386025
 20
-88.63162703947404
 30
0.0
 10
70.25342066386025
 20
-88.63162703947404
 30
0.0
 10
70.15592446162769
 20
-88.63162703947404
 30
0.0
 10
70.15592446162769
 20
-88.63162703947404
 30
0.0
 10
70.15592446162769
 20
-88.63162703947404
 30
0.0
 10
70.15592446162769
 20
-88.87915715008924
 30
0.0
 10
70.15592446162769
 20
-88.87915715008924
 30
0.0
 10
70.15592446162769
 20
-88.87915715008924
 30
0.0
 10
70.23860675327369
 20
-88.87915715008924
 30
0.0
 10
70.23860675327369
 20
-88.87915715008924
 30
0.0
 10
70.30406356749343
 20
-88.87915715008924
 30
0.0
 10
70.44358993464606
 20
-88.87485078073269
 30
0.0
 10
70.54315319416978
 20
-88.86641029679382
 30
0.0
 10
70.54315319416978
 20
-88.86641029679382
 30
0.0
 10
70.54315319416978
 20
-89.04624428112386
 30
0.0
 10
70.54315319416978
 20
-89.04624428112386
 30
0.0
 10
70.45013561606802
 20
-89.03780379718499
 30
0.0
 10
70.29992945291113
 20
-89.03366968260269
 30
0.0
 10
70.23860675327369
 20
-89.03366968260269
 30
0.0
 10
70.23860675327369
 20
-89.03366968260269
 30
0.0
 10
69.93371580282907
 20
-89.03366968260269
 30
0.0
 10
69.93371580282907
 20
-89.03366968260269
 30
0.0
 10
69.88100584190475
 20
-89.03366968260269
 30
0.0
 10
69.73493379333016
 20
-89.03780379718499
 30
0.0
 10
69.629169361933
 20
-89.04624428112386
 30
0.0
 10
69.629169361933
 20
-89.04624428112386
 30
0.0
 10
69.629169361933
 20
-88.86641029679382
 30
0.0
 10
69.629169361933
 20
-88.86641029679382
 30
0.0
 10
69.72873262145671
 20
-88.87485078073269
 30
0.0
 10
69.86825898860933
 20
-88.87915715008924
 30
0.0
 10
69.93371580282907
 20
-88.87915715008924
 30
0.0
 10
69.93371580282907
 20
-88.87915715008924
 30
0.0
 10
69.9781575345888
 20
-88.87915715008924
 30
0.0
 10
69.9781575345888
 20
-88.87915715008924
 30
0.0
 10
69.9781575345888
 20
-88.87915715008924
 30
0.0
 10
69.9781575345888
 20
-88.63162703947404
 30
0.0
 10
69.9781575345888
 20
-88.63162703947404
 30
0.0
 10
69.9781575345888
 20
-88.63162703947404
 30
0.0
 10
69.90443249120445
 20
-88.63162703947404
 30
0.0
 10
69.90443249120445
 20
-88.63162703947404
 30
0.0
 10
69.84276528201848
 20
-88.63162703947404
 30
0.0
 10
69.67567815098386
 20
-88.63593340883061
 30
0.0
 10
69.55509980900011
 20
-88.64437389276947
 30
0.0
 10
69.55509980900011
 20
-88.64437389276947
 30
0.0
 10
69.55509980900011
 20
-88.46660696573058
 30
0.0
 10
69.55509980900011
 20
-88.46660696573058
 30
0.0
 10
69.66947697911041
 20
-88.47298039237829
 30
0.0
 10
69.82795137143191
 20
-88.47728676173485
 30
0.0
 10
69.90443249120445
 20
-88.47728676173485
 30
0.0
 10
69.90443249120445
 20
-88.47728676173485
 30
0.0
 10
69.97609047729765
 20
-88.47728676173485
 30
0.0
 10
69.97609047729765
 20
-88.47728676173485
 30
0.0
 10
69.97195636271535
 20
-88.32484128651254
 30
0.0
 10
69.9698893054242
 20
-88.2910793507571
 30
0.0
 10
69.96334362400222
 20
-88.19788951788108
 30
0.0
 10
69.96334362400222
 20
-88.19788951788108
 30
0.0
 10
70.17521699634509
 20
-88.22131616718079
 30
0.0
 10
70.17521699634509
 20
-88.22131616718079
 30
0.0
 10
70.20036619338741
 20
-88.22338322447193
 30
0.0
 10
70.2237928426871
 20
-88.22751733905423
 30
0.0
 10
70.2237928426871
 20
-88.25077173357967
 30
0.0
 10
70.2237928426871
 20
-88.28263886681823
 30
0.0
 10
70.17935111092739
 20
-88.29951983469596
 30
0.0
 10
70.15592446162769
 20
-88.30796031863483
 30
0.0
 10
70.15592446162769
 20
-88.30796031863483
 30
0.0
 10
70.15592446162769
 20
-88.47728676173485
 30
0.0
 10
70.15592446162769
 20
-88.47728676173485
 30
0.0
 10
70.15592446162769
 20
-88.47728676173485
 30
0.0
 10
70.25342066386025
 20
-88.47728676173485
 30
0.0
 10
70.25342066386025
 20
-88.47728676173485
 30
0.0
 10
70.32955727408428
 20
-88.47728676173485
 30
0.0
 10
70.48803166640577
 20
-88.47298039237829
 30
0.0
 10
70.60447589380722
 20
-88.46660696573058
 30
0.0
 10
70.60447589380722
 20
-88.46660696573058
 30
0.0
 10
70.60447589380722
 20
-88.64437389276947
 30
0.0
 10
70.60447589380722
 20
-88.64437389276947
 30
0.0
 10
70.4966444051189
 20
-88.63800046612175
 30
0.0
 10
70.32301159266231
 20
-88.63162703947404
 30
0.0
 10
70.25342066386025
 20
-88.63162703947404
 30
0.0
  0
SPLINE
  5
CA
330
B9
100
AcDbEntity
  8
_U+30EC_U+30A4_U+30E4_U+30FC 1
370
     0
100
AcDbSpline
210
0.0
220
0.0
230
1.0
 70
    11
 71
     3
 72
    17
 73
    13
 74
     0
 42
0.0000000001
 43
0.0000000001
 12
1.0
 22
0.0
 32
0.0
 13
1.0
 23
0.0
 33
0.0
 40
0.0
 40
0.0
 40
0.0
 40
0.0
 40
1.0
 40
1.0
 40
1.0
 40
2.0
 40
2.0
 40
2.0
 40
3.0
 40
3.0
 40
3.0
 40
4.0
 40
4.0
 40
4.0
 40
4.0
 10
70.00778535576194
 20
-89.42916664430938
 30
0.0
 10
70.00778535576194
 20
-89.42916664430938
 30
0.0
 10
69.80486923168073
 20
-89.42916664430938
 30
0.0
 10
69.80486923168073
 20
-89.42916664430938
 30
0.0
 10
69.83242999556273
 20
-89.48842228665568
 30
0.0
 10
69.8872070137782
 20
-89.5604247822974
 30
0.0
 10
69.9147677776602
 20
-89.58970809392203
 30
0.0
 10
69.9423285415422
 20
-89.57523869288397
 30
0.0
 10
70.0567057116525
 20
-89.51150442640684
 30
0.0
 10
70.14765623246309
 20
-89.42916664430938
 30
0.0
 10
70.14765623246309
 20
-89.42916664430938
 30
0.0
 10
70.00778535576194
 20
-89.42916664430938
 30
0.0
 10
70.00778535576194
 20
-89.42916664430938
 30
0.0
  0
HATCH
  5
CB
330
B9
100
AcDbEntity
  8
_U+30EC_U+30A4_U+30E4_U+30FC 1
 62
   179
420
  2234388
100
AcDbHatch
 10
0.0
 20
0.0
 30
0.0
210
0.0
220
0.0
230
1.0
  2
SOLID
 70
     1
 71
     0
 91
        6
 92
        1
 93
        1
 72
     4
 94
        3
 73
     0
 74
     1
 95
      113
 96
      109
 40
0.0
 40
0.0
 40
0.0
 40
0.0
 40
1.0
 40
1.0
 40
1.0
 40
2.0
 40
2.0
 40
2.0
 40
3.0
 40
3.0
 40
3.0
 40
4.0
 40
4.0
 40
4.0
 40
5.0
 40
5.0
 40
5.0
 40
6.0
 40
6.0
 40
6.0
 40
7.0
 40
7.0
 40
7.0
 40
8.0
 40
8.0
 40
8.0
 40
9.0
 40
9.0
 40
9.0
 40
10.0
 40
10.0
 40
10.0
 40
11.0
 40
11.0
 40
11.0
 40
12.0
 40
12.0
 40
12.0
 40
13.0
 40
13.0
 40
13.0
 40
14.0
 40
14.0
 40
14.0
 40
15.0
 40
15.0
 40
15.0
 40
16.0
 40
16.0
 40
16.0
 40
17.0
 40
17.0
 40
17.0
 40
18.0
 40
18.0
 40
18.0
 40
19.0
 40
19.0
 40
19.0
 40
20.0
 40
20.0
 40
20.0
 40
21.0
 40
21.0
 40
21.0
 40
22.0
 40
22.0
 40
22.0
 40
23.0
 40
23.0
 40
23.0
 40
24.0
 40
24.0
 40
24.0
 40
25.0
 40
25.0
 40
25.0
 40
26.0
 40
26.0
 40
26.0
 40
27.0
 40
27.0
 40
27.0
 40
28.0
 40
28.0
 40
28.0
 40
29.0
 40
29.0
 40
29.0
 40
30.0
 40
30.0
 40
30.0
 40
31.0
 40
31.0
 40
31.0
 40
32.0
 40
32.0
 40
32.0
 40
33.0
 40
33.0
 40
33.0
 40
34.0
 40
34.0
 40
34.0
 40
35.0
 40
35.0
 40
35.0
 40
36.0
 40
36.0
 40
36.0
 40
36.0
 10
70.21518010397399
 20
-89.43123370160053
 10
70.21518010397399
 20
-89.43123370160053
 10
70.31474336349771
 20
-89.53079696112425
 10
70.31474336349771
 20
-89.53079696112425
 10
70.32507864995345
 20
-89.54113224758
 10
70.33575844595774
 20
-89.55387910087542
 10
70.33575844595774
 20
-89.568693011462
 10
70.33575844595774
 20
-89.57076006875315
 10
70.33575844595774
 20
-89.6003878899263
 10
70.29786239561999
 20
-89.6003878899263
 10
70.28924965690686
 20
-89.6003878899263
 10
70.24894203972943
 20
-89.596253775344
 10
70.24274086785599
 20
-89.596253775344
 10
70.20243325067857
 20
-89.62794865380829
 10
70.15592446162769
 20
-89.66171058956374
 10
70.0567057116525
 20
-89.7188991746189
 10
70.20243325067857
 20
-89.82673066330722
 10
70.36125215254857
 20
-89.88391924836236
 10
70.63410371498037
 20
-89.92215980824864
 10
70.63410371498037
 20
-89.92215980824864
 10
70.48389755182347
 20
-90.09751516844784
 10
70.48389755182347
 20
-90.09751516844784
 10
70.22172578539596
 20
-90.02551267280613
 10
70.0649739408171
 20
-89.9369737188352
 10
69.98883733059307
 20
-89.88391924836236
 10
69.83863116743618
 20
-89.78228893154748
 10
69.69497068570126
 20
-89.61933591509516
 10
69.61883407547724
 20
-89.4543158413517
 10
69.55096569441781
 20
-89.52011716511997
 10
69.47689614148494
 20
-89.5728271260443
 10
69.39869247396977
 20
-89.62174748193485
 10
69.39869247396977
 20
-89.62174748193485
 10
69.39869247396977
 20
-89.87323945235808
 10
69.39869247396977
 20
-89.87323945235808
 10
69.5616454904221
 20
-89.84809025531575
 10
69.74768064662558
 20
-89.80364852355603
 10
69.81107040355418
 20
-89.78883461296947
 10
69.81107040355418
 20
-89.78883461296947
 10
69.78144258238103
 20
-89.95798880129523
 10
69.78144258238103
 20
-89.95798880129523
 10
69.77937552508988
 20
-89.95798880129523
 10
69.76042749992101
 20
-89.96418997316867
 10
69.75836044262985
 20
-89.96418997316867
 10
69.55957843313094
 20
-90.00243053305495
 10
69.24194062939091
 20
-90.0678873472747
 10
69.04522567718314
 20
-90.10406084986982
 10
69.0348903907274
 20
-90.12094181774755
 10
69.01146374142769
 20
-90.15263669621184
 10
68.98838160167652
 20
-90.15263669621184
 10
68.96082083779451
 20
-90.15263669621184
 10
68.95668672321221
 20
-90.13368867104298
 10
68.95427515637255
 20
-90.11439613632557
 10
68.95427515637255
 20
-90.11439613632557
 10
68.92912595933022
 20
-89.9411078334175
 10
68.92912595933022
 20
-89.9411078334175
 10
69.00319551226309
 20
-89.93249509470438
 10
69.11102700095141
 20
-89.91974824140895
 10
69.21885848963973
 20
-89.89873315894893
 10
69.21885848963973
 20
-89.89873315894893
 10
69.21885848963973
 20
-89.72096623191004
 10
69.21885848963973
 20
-89.72096623191004
 10
69.07485349835629
 20
-89.79296872755177
 10
68.9797688629634
 20
-89.82259654872492
 10
68.81474878921993
 20
-89.85222436989805
 10
68.81474878921993
 20
-89.85222436989805
 10
68.69417044723619
 20
-89.68307018157229
 10
68.69417044723619
 20
-89.68307018157229
 10
69.01146374142769
 20
-89.6555094176903
 10
69.20404457905316
 20
-89.56249183958855
 10
69.38181150609205
 20
-89.42916664430938
 10
69.23573945751745
 20
-89.42916664430938
 10
68.93532713120368
 20
-89.43330075889168
 10
68.73861217899591
 20
-89.43984644031366
 10
68.73861217899591
 20
-89.43984644031366
 10
68.73861217899591
 20
-89.26207951327476
 10
68.73861217899591
 20
-89.26207951327476
 10
68.8929524567351
 20
-89.26828068514821
 10
69.18923066846658
 20
-89.27482636657018
 10
69.37319876737892
 20
-89.27482636657018
 10
69.37319876737892
 20
-89.27482636657018
 10
69.58472763017326
 20
-89.27482636657018
 10
69.58472763017326
 20
-89.27482636657018
 10
69.58472763017326
 20
-89.17956947640303
 10
69.58266057288212
 20
-89.1287543179956
 10
69.57645940100866
 20
-89.08224552894472
 10
69.57645940100866
 20
-89.08224552894472
 10
69.7921223783853
 20
-89.09912649682245
 10
69.7921223783853
 20
-89.09912649682245
 10
69.84069822472733
 20
-89.103432866179
 10
69.84931096344046
 20
-89.11824677676559
 10
69.84931096344046
 20
-89.13306068735216
 10
69.84931096344046
 20
-89.15838213916874
 10
69.83242999556273
 20
-89.1668226231076
 10
69.78144258238103
 20
-89.19231632969846
 10
69.77937552508988
 20
-89.21763778151504
 10
69.77937552508988
 20
-89.22401120816275
 10
69.77730846779873
 20
-89.27482636657018
 10
69.77730846779873
 20
-89.27482636657018
 10
70.00778535576194
 20
-89.27482636657018
 10
70.00778535576194
 20
-89.27482636657018
 10
70.17280542950542
 20
-89.27482636657018
 10
70.46494952665459
 20
-89.26828068514821
 10
70.64478351098464
 20
-89.26207951327476
 10
70.64478351098464
 20
-89.26207951327476
 10
70.64478351098464
 20
-89.43984644031366
 10
70.64478351098464
 20
-89.43984644031366
 10
70.51559243028777
 20
-89.43536781618283
 10
70.4925102905366
 20
-89.43536781618283
 10
70.21518010397399
 20
-89.43123370160053
 97
        0
 97
        0
 92
        1
 93
        1
 72
     4
 94
        3
 73
     0
 74
     1
 95
       23
 96
       19
 40
0.0
 40
0.0
 40
0.0
 40
0.0
 40
1.0
 40
1.0
 40
1.0
 40
2.0
 40
2.0
 40
2.0
 40
3.0
 40
3.0
 40
3.0
 40
4.0
 40
4.0
 40
4.0
 40
5.0
 40
5.0
 40
5.0
 40
6.0
 40
6.0
 40
6.0
 40
6.0
 10
68.93119301662138
 20
-89.08017847165357
 10
68.91431204874365
 20
-89.12031383405673
 10
68.90776636732167
 20
-89.13719480193446
 10
68.88675128486165
 20
-89.13719480193446
 10
68.87193737427508
 20
-89.13719480193446
 10
68.8612575782708
 20
-89.12031383405673
 10
68.85505640639735
 20
-89.1075669807613
 10
68.85505640639735
 20
-89.1075669807613
 10
68.75549314687363
 20
-88.94254690701784
 10
68.75549314687363
 20
-88.94254690701784
 10
68.8571234636885
 20
-88.91085202855353
 10
69.00732962684539
 20
-88.8559027555638
 10
69.2061116363443
 20
-88.69294973911148
 10
69.2061116363443
 20
-88.69294973911148
 10
69.26330022139946
 20
-88.86641029679382
 10
69.26330022139946
 20
-88.86641029679382
 10
69.17028264329771
 20
-88.94892033366555
 10
69.08139917977826
 20
-89.0061089187207
 10
68.93119301662138
 20
-89.08017847165357
 97
        0
 97
        0
 92
        1
 93
        1
 72
     4
 94
        3
 73
     0
 74
     1
 95
       17
 96
       13
 40
0.0
 40
0.0
 40
0.0
 40
0.0
 40
1.0
 40
1.0
 40
1.0
 40
2.0
 40
2.0
 40
2.0
 40
3.0
 40
3.0
 40
3.0
 40
4.0
 40
4.0
 40
4.0
 40
4.0
 10
69.08346623706942
 20
-88.61474607159631
 10
69.05383841589627
 20
-88.57461070919315
 10
68.98597003483684
 20
-88.47728676173485
 10
68.80406899321565
 20
-88.36721596098111
 10
68.80406899321565
 20
-88.36721596098111
 10
68.93119301662138
 20
-88.23389076570194
 10
68.93119301662138
 20
-88.23389076570194
 10
69.11722817282487
 20
-88.33552108251682
 10
69.17441675788001
 20
-88.42440454603626
 10
69.201977521762
 20
-88.46660696573058
 10
69.201977521762
 20
-88.46660696573058
 10
69.08346623706942
 20
-88.61474607159631
 10
69.08346623706942
 20
-88.61474607159631
 97
        0
 97
        0
 92
        1
 93
        1
 72
     4
 94
        3
 73
     0
 74
     1
 95
       38
 96
       34
 40
0.0
 40
0.0
 40
0.0
 40
0.0
 40
1.0
 40
1.0
 40
1.0
 40
2.0
 40
2.0
 40
2.0
 40
3.0
 40
3.0
 40
3.0
 40
4.0
 40
4.0
 40
4.0
 40
5.0
 40
5.0
 40
5.0
 40
6.0
 40
6.0
 40
6.0
 40
7.0
 40
7.0
 40
7.0
 40
8.0
 40
8.0
 40
8.0
 40
9.0
 40
9.0
 40
9.0
 40
10.0
 40
10.0
 40
10.0
 40
11.0
 40
11.0
 40
11.0
 40
11.0
 10
69.45140243489409
 20
-88.31002737592597
 10
69.44933537760295
 20
-88.3567084197511
 10
69.44726832031179
 20
-88.47298039237829
 10
69.44726832031179
 20
-88.51742212413801
 10
69.44726832031179
 20
-88.51742212413801
 10
69.44726832031179
 20
-88.86434323950267
 10
69.44726832031179
 20
-88.86434323950267
 10
69.44726832031179
 20
-88.95115964573097
 10
69.44933537760295
 20
-89.09275307017474
 10
69.46001517360722
 20
-89.21333141215848
 10
69.46001517360722
 20
-89.21333141215848
 10
69.2695013932729
 20
-89.21333141215848
 10
69.2695013932729
 20
-89.21333141215848
 10
69.27398001740373
 20
-89.14994165522988
 10
69.27811413198603
 20
-89.0970594395313
 10
69.28018118927719
 20
-89.04211016654156
 10
69.28224824656833
 20
-88.9192925124924
 10
69.28431530385949
 20
-88.90447860190582
 10
69.28431530385949
 20
-88.8600368701461
 10
69.28431530385949
 20
-88.8600368701461
 10
69.28431530385949
 20
-88.5386094613723
 10
69.28431530385949
 20
-88.5386094613723
 10
69.28431530385949
 20
-88.4834879336083
 10
69.27156845056406
 20
-88.24457056170623
 10
69.2695013932729
 20
-88.19375540329878
 10
69.2695013932729
 20
-88.19375540329878
 10
69.4706949696115
 20
-88.22131616718079
 10
69.4706949696115
 20
-88.22131616718079
 10
69.49171005207153
 20
-88.22338322447193
 10
69.52340493053582
 20
-88.22751733905423
 10
69.52340493053582
 20
-88.25301104564508
 10
69.52340493053582
 20
-88.28039955475282
 10
69.47276202690264
 20
-88.30158689198711
 10
69.45140243489409
 20
-88.31002737592597
 97
        0
 97
        0
 92
        1
 93
        1
 72
     4
 94
        3
 73
     0
 74
     1
 95
       83
 96
       79
 40
0.0
 40
0.0
 40
0.0
 40
0.0
 40
1.0
 40
1.0
 40
1.0
 40
2.0
 40
2.0
 40
2.0
 40
3.0
 40
3.0
 40
3.0
 40
4.0
 40
4.0
 40
4.0
 40
5.0
 40
5.0
 40
5.0
 40
6.0
 40
6.0
 40
6.0
 40
7.0
 40
7.0
 40
7.0
 40
8.0
 40
8.0
 40
8.0
 40
9.0
 40
9.0
 40
9.0
 40
10.0
 40
10.0
 40
10.0
 40
11.0
 40
11.0
 40
11.0
 40
12.0
 40
12.0
 40
12.0
 40
13.0
 40
13.0
 40
13.0
 40
14.0
 40
14.0
 40
14.0
 40
15.0
 40
15.0
 40
15.0
 40
16.0
 40
16.0
 40
16.0
 40
17.0
 40
17.0
 40
17.0
 40
18.0
 40
18.0
 40
18.0
 40
19.0
 40
19.0
 40
19.0
 40
20.0
 40
20.0
 40
20.0
 40
21.0
 40
21.0
 40
21.0
 40
22.0
 40
22.0
 40
22.0
 40
23.0
 40
23.0
 40
23.0
 40
24.0
 40
24.0
 40
24.0
 40
25.0
 40
25.0
 40
25.0
 40
26.0
 40
26.0
 40
26.0
 40
26.0
 10
70.25342066386025
 20
-88.63162703947404
 10
70.25342066386025
 20
-88.63162703947404
 10
70.15592446162769
 20
-88.63162703947404
 10
70.15592446162769
 20
-88.63162703947404
 10
70.15592446162769
 20
-88.63162703947404
 10
70.15592446162769
 20
-88.87915715008924
 10
70.15592446162769
 20
-88.87915715008924
 10
70.15592446162769
 20
-88.87915715008924
 10
70.23860675327369
 20
-88.87915715008924
 10
70.23860675327369
 20
-88.87915715008924
 10
70.30406356749343
 20
-88.87915715008924
 10
70.44358993464606
 20
-88.87485078073269
 10
70.54315319416978
 20
-88.86641029679382
 10
70.54315319416978
 20
-88.86641029679382
 10
70.54315319416978
 20
-89.04624428112386
 10
70.54315319416978
 20
-89.04624428112386
 10
70.45013561606802
 20
-89.03780379718499
 10
70.29992945291113
 20
-89.03366968260269
 10
70.23860675327369
 20
-89.03366968260269
 10
70.23860675327369
 20
-89.03366968260269
 10
69.93371580282907
 20
-89.03366968260269
 10
69.93371580282907
 20
-89.03366968260269
 10
69.88100584190475
 20
-89.03366968260269
 10
69.73493379333016
 20
-89.03780379718499
 10
69.629169361933
 20
-89.04624428112386
 10
69.629169361933
 20
-89.04624428112386
 10
69.629169361933
 20
-88.86641029679382
 10
69.629169361933
 20
-88.86641029679382
 10
69.72873262145671
 20
-88.87485078073269
 10
69.86825898860933
 20
-88.87915715008924
 10
69.93371580282907
 20
-88.87915715008924
 10
69.93371580282907
 20
-88.87915715008924
 10
69.9781575345888
 20
-88.87915715008924
 10
69.9781575345888
 20
-88.87915715008924
 10
69.9781575345888
 20
-88.87915715008924
 10
69.9781575345888
 20
-88.63162703947404
 10
69.9781575345888
 20
-88.63162703947404
 10
69.9781575345888
 20
-88.63162703947404
 10
69.90443249120445
 20
-88.63162703947404
 10
69.90443249120445
 20
-88.63162703947404
 10
69.84276528201848
 20
-88.63162703947404
 10
69.67567815098386
 20
-88.63593340883061
 10
69.55509980900011
 20
-88.64437389276947
 10
69.55509980900011
 20
-88.64437389276947
 10
69.55509980900011
 20
-88.46660696573058
 10
69.55509980900011
 20
-88.46660696573058
 10
69.66947697911041
 20
-88.47298039237829
 10
69.82795137143191
 20
-88.47728676173485
 10
69.90443249120445
 20
-88.47728676173485
 10
69.90443249120445
 20
-88.47728676173485
 10
69.97609047729765
 20
-88.47728676173485
 10
69.97609047729765
 20
-88.47728676173485
 10
69.97195636271535
 20
-88.32484128651254
 10
69.9698893054242
 20
-88.2910793507571
 10
69.96334362400222
 20
-88.19788951788108
 10
69.96334362400222
 20
-88.19788951788108
 10
70.17521699634509
 20
-88.22131616718079
 10
70.17521699634509
 20
-88.22131616718079
 10
70.20036619338741
 20
-88.22338322447193
 10
70.2237928426871
 20
-88.22751733905423
 10
70.2237928426871
 20
-88.25077173357967
 10
70.2237928426871
 20
-88.28263886681823
 10
70.17935111092739
 20
-88.29951983469596
 10
70.15592446162769
 20
-88.30796031863483
 10
70.15592446162769
 20
-88.30796031863483
 10
70.15592446162769
 20
-88.47728676173485
 10
70.15592446162769
 20
-88.47728676173485
 10
70.15592446162769
 20
-88.47728676173485
 10
70.25342066386025
 20
-88.47728676173485
 10
70.25342066386025
 20
-88.47728676173485
 10
70.32955727408428
 20
-88.47728676173485
 10
70.48803166640577
 20
-88.47298039237829
 10
70.60447589380722
 20
-88.46660696573058
 10
70.60447589380722
 20
-88.46660696573058
 10
70.60447589380722
 20
-88.64437389276947
 10
70.60447589380722
 20
-88.64437389276947
 10
70.4966444051189
 20
-88.63800046612175
 10
70.32301159266231
 20
-88.63162703947404
 10
70.25342066386025
 20
-88.63162703947404
 97
        0
 97
        0
 92
        1
 93
        1
 72
     4
 94
        3
 73
     0
 74
     1
 95
       17
 96
       13
 40
0.0
 40
0.0
 40
0.0
 40
0.0
 40
1.0
 40
1.0
 40
1.0
 40
2.0
 40
2.0
 40
2.0
 40
3.0
 40
3.0
 40
3.0
 40
4.0
 40
4.0
 40
4.0
 40
4.0
 10
70.00778535576194
 20
-89.42916664430938
 10
70.00778535576194
 20
-89.42916664430938
 10
69.80486923168073
 20
-89.42916664430938
 10
69.80486923168073
 20
-89.42916664430938
 10
69.83242999556273
 20
-89.48842228665568
 10
69.8872070137782
 20
-89.5604247822974
 10
69.9147677776602
 20
-89.58970809392203
 10
69.9423285415422
 20
-89.57523869288397
 10
70.0567057116525
 20
-89.51150442640684
 10
70.14765623246309
 20
-89.42916664430938
 10
70.14765623246309
 20
-89.42916664430938
 10
70.00778535576194
 20
-89.42916664430938
 10
70.00778535576194
 20
-89.42916664430938
 97
        0
 97
        0
 75
     2
 76
     1
 98
        0
  0
SPLINE
  5
CC
330
B9
100
AcDbEntity
  8
_U+30EC_U+30A4_U+30E4_U+30FC 1
370
     0
100
AcDbSpline
210
0.0
220
0.0
230
1.0
 70
    11
 71
     3
 72
    77
 73
    73
 74
     0
 42
0.0000000001
 43
0.0000000001
 12
1.0
 22
0.0
 32
0.0
 13
1.0
 23
0.0
 33
0.0
 40
0.0
 40
0.0
 40
0.0
 40
0.0
 40
1.0
 40
1.0
 40
1.0
 40
2.0
 40
2.0
 40
2.0
 40
3.0
 40
3.0
 40
3.0
 40
4.0
 40
4.0
 40
4.0
 40
5.0
 40
5.0
 40
5.0
 40
6.0
 40
6.0
 40
6.0
 40
7.0
 40
7.0
 40
7.0
 40
8.0
 40
8.0
 40
8.0
 40
9.0
 40
9.0
 40
9.0
 40
10.0
 40
10.0
 40
10.0
 40
11.0
 40
11.0
 40
11.0
 40
12.0
 40
12.0
 40
12.0
 40
13.0
 40
13.0
 40
13.0
 40
14.0
 40
14.0
 40
14.0
 40
15.0
 40
15.0
 40
15.0
 40
16.0
 40
16.0
 40
16.0
 40
17.0
 40
17.0
 40
17.0
 40
18.0
 40
18.0
 40
18.0
 40
19.0
 40
19.0
 40
19.0
 40
20.0
 40
20.0
 40
20.0
 40
21.0
 40
21.0
 40
21.0
 40
22.0
 40
22.0
 40
22.0
 40
23.0
 40
23.0
 40
23.0
 40
24.0
 40
24.0
 40
24.0
 40
24.0
 10
72.4989339011461
 20
-90.0596191181101
 30
0.0
 10
72.45242511209523
 20
-90.08476831515242
 30
0.0
 10
72.32771265552918
 20
-90.09751516844784
 30
0.0
 10
72.24916447846549
 20
-90.09751516844784
 30
0.0
 10
72.23676213471859
 20
-90.09751516844784
 30
0.0
 10
72.21126842812774
 20
-90.09751516844784
 30
0.0
 10
72.17750649237229
 20
-90.09338105386554
 30
0.0
 10
72.17750649237229
 20
-90.09338105386554
 30
0.0
 10
72.08001029013973
 20
-89.86703828048464
 30
0.0
 10
72.08001029013973
 20
-89.86703828048464
 30
0.0
 10
72.10963811131288
 20
-89.87323945235808
 30
0.0
 10
72.16682669636802
 20
-89.8818521910712
 30
0.0
 10
72.28327092376946
 20
-89.8818521910712
 30
0.0
 10
72.36147459128463
 20
-89.8818521910712
 30
0.0
 10
72.36354164857579
 20
-89.83947751660263
 30
0.0
 10
72.36354164857579
 20
-89.78228893154748
 30
0.0
 10
72.36354164857579
 20
-89.78228893154748
 30
0.0
 10
72.36354164857579
 20
-89.43330075889168
 30
0.0
 10
72.36354164857579
 20
-89.43330075889168
 30
0.0
 10
72.36354164857579
 20
-89.43330075889168
 30
0.0
 10
71.90431042039198
 20
-89.43330075889168
 30
0.0
 10
71.90431042039198
 20
-89.43330075889168
 30
0.0
 10
71.90672198723166
 20
-89.57076006875315
 30
0.0
 10
71.9087890445228
 20
-89.76954207825206
 30
0.0
 10
71.91499021639626
 20
-89.90286727353123
 30
0.0
 10
71.9170572736874
 20
-89.93042803741324
 30
0.0
 10
71.9170572736874
 20
-89.97486976917295
 30
0.0
 10
71.92980412698283
 20
-90.0361924688104
 30
0.0
 10
71.92980412698283
 20
-90.0361924688104
 30
0.0
 10
71.68864744301534
 20
-90.0361924688104
 30
0.0
 10
71.68864744301534
 20
-90.0361924688104
 30
0.0
 10
71.71414114960619
 20
-89.91148001224435
 30
0.0
 10
71.71414114960619
 20
-89.57076006875315
 30
0.0
 10
71.71414114960619
 20
-89.43330075889168
 30
0.0
 10
71.71414114960619
 20
-89.43330075889168
 30
0.0
 10
71.2717908893001
 20
-89.43330075889168
 30
0.0
 10
71.2717908893001
 20
-89.43330075889168
 30
0.0
 10
71.24870874954894
 20
-89.64069550710371
 30
0.0
 10
71.1832519353292
 20
-89.90941295495321
 30
0.0
 10
70.9861924735729
 20
-90.09338105386554
 30
0.0
 10
70.9861924735729
 20
-90.09338105386554
 30
0.0
 10
70.79809026007825
 20
-89.97073565459065
 30
0.0
 10
70.79809026007825
 20
-89.97073565459065
 30
0.0
 10
71.05199379734117
 20
-89.75059405308319
 30
0.0
 10
71.08368867580548
 20
-89.41848684830511
 30
0.0
 10
71.08368867580548
 20
-89.08655189830128
 30
0.0
 10
71.08368867580548
 20
-89.08655189830128
 30
0.0
 10
71.08368867580548
 20
-88.65074731941718
 30
0.0
 10
71.08368867580548
 20
-88.65074731941718
 30
0.0
 10
71.08368867580548
 20
-88.61474607159631
 30
0.0
 10
71.08162161851432
 20
-88.3820298715677
 30
0.0
 10
71.0730088798012
 20
-88.28039955475282
 30
0.0
 10
71.21253524695382
 20
-88.2910793507571
 30
0.0
 10
71.45403644046982
 20
-88.2910793507571
 30
0.0
 10
71.59769692220475
 20
-88.2910793507571
 30
0.0
 10
71.59769692220475
 20
-88.2910793507571
 30
0.0
 10
72.05692815038854
 20
-88.2910793507571
 30
0.0
 10
72.05692815038854
 20
-88.2910793507571
 30
0.0
 10
72.07174206097513
 20
-88.2910793507571
 30
0.0
 10
72.42073023363093
 20
-88.2910793507571
 30
0.0
 10
72.57920462595243
 20
-88.28039955475282
 30
0.0
 10
72.57713756866127
 20
-88.3332817704514
 30
0.0
 10
72.57093639678783
 20
-88.49416772961257
 30
0.0
 10
72.57093639678783
 20
-88.54498288802
 30
0.0
 10
72.57093639678783
 20
-88.54498288802
 30
0.0
 10
72.57093639678783
 20
-89.15200871252102
 30
0.0
 10
72.57093639678783
 20
-89.15200871252102
 30
0.0
 10
72.57093639678783
 20
-89.17112899246416
 30
0.0
 10
72.58127168324357
 20
-89.74232582391859
 30
0.0
 10
72.58127168324357
 20
-89.85429142718921
 30
0.0
 10
72.58127168324357
 20
-89.91148001224435
 30
0.0
 10
72.58127168324357
 20
-90.01311032905923
 30
0.0
 10
72.4989339011461
 20
-90.0596191181101
 30
0.0
  0
POLYLINE
  5
CD
330
B9
100
AcDbEntity
  8
_U+30EC_U+30A4_U+30E4_U+30FC 1
370
     0
100
AcDb2dPolyline
 66
     1
 10
0.0
 20
0.0
 30
0.0
  0
VERTEX
  5
CE
330
CD
100
AcDbEntity
  8
_U+30EC_U+30A4_U+30E4_U+30FC 1
370
     0
100
AcDbVertex
100
AcDb2dVertex
 10
71.71414114960619
 20
-88.47298039237829
 30
0.0
  0
VERTEX
  5
CF
330
CD
100
AcDbEntity
  8
_U+30EC_U+30A4_U+30E4_U+30FC 1
370
     0
100
AcDbVertex
100
AcDb2dVertex
 10
71.27626951343093
 20
-88.47298039237829
 30
0.0
  0
VERTEX
  5
D0
330
CD
100
AcDbEntity
  8
_U+30EC_U+30A4_U+30E4_U+30FC 1
370
     0
100
AcDbVertex
100
AcDb2dVertex
 10
71.27626951343093
 20
-88.77752683327438
 30
0.0
  0
VERTEX
  5
D1
330
CD
100
AcDbEntity
  8
_U+30EC_U+30A4_U+30E4_U+30FC 1
370
     0
100
AcDbVertex
100
AcDb2dVertex
 10
71.71414114960619
 20
-88.77752683327438
 30
0.0
  0
VERTEX
  5
D2
330
CD
100
AcDbEntity
  8
_U+30EC_U+30A4_U+30E4_U+30FC 1
370
     0
100
AcDbVertex
100
AcDb2dVertex
 10
71.71414114960619
 20
-88.47298039237829
 30
0.0
  0
SEQEND
  5
D3
330
CD
100
AcDbEntity
  8
_U+30EC_U+30A4_U+30E4_U+30FC 1
370
     0
  0
POLYLINE
  5
D4
330
B9
100
AcDbEntity
  8
_U+30EC_U+30A4_U+30E4_U+30FC 1
370
     0
100
AcDb2dPolyline
 66
     1
 10
0.0
 20
0.0
 30
0.0
  0
VERTEX
  5
D5
330
D4
100
AcDbEntity
  8
_U+30EC_U+30A4_U+30E4_U+30FC 1
370
     0
100
AcDbVertex
100
AcDb2dVertex
 10
71.71414114960619
 20
-88.94478621908326
 30
0.0
  0
VERTEX
  5
D6
330
D4
100
AcDbEntity
  8
_U+30EC_U+30A4_U+30E4_U+30FC 1
370
     0
100
AcDbVertex
100
AcDb2dVertex
 10
71.27626951343093
 20
-88.94478621908326
 30
0.0
  0
VERTEX
  5
D7
330
D4
100
AcDbEntity
  8
_U+30EC_U+30A4_U+30E4_U+30FC 1
370
     0
100
AcDbVertex
100
AcDb2dVertex
 10
71.27626951343093
 20
-89.25346677456163
 30
0.0
  0
VERTEX
  5
D8
330
D4
100
AcDbEntity
  8
_U+30EC_U+30A4_U+30E4_U+30FC 1
370
     0
100
AcDbVertex
100
AcDb2dVertex
 10
71.71414114960619
 20
-89.25346677456163
 30
0.0
  0
VERTEX
  5
D9
330
D4
100
AcDbEntity
  8
_U+30EC_U+30A4_U+30E4_U+30FC 1
370
     0
100
AcDbVertex
100
AcDb2dVertex
 10
71.71414114960619
 20
-88.94478621908326
 30
0.0
  0
SEQEND
  5
DA
330
D4
100
AcDbEntity
  8
_U+30EC_U+30A4_U+30E4_U+30FC 1
370
     0
  0
POLYLINE
  5
DB
330
B9
100
AcDbEntity
  8
_U+30EC_U+30A4_U+30E4_U+30FC 1
370
     0
100
AcDb2dPolyline
 66
     1
 10
0.0
 20
0.0
 30
0.0
  0
VERTEX
  5
DC
330
DB
100
AcDbEntity
  8
_U+30EC_U+30A4_U+30E4_U+30FC 1
370
     0
100
AcDbVertex
100
AcDb2dVertex
 10
72.36354164857579
 20
-88.47298039237829
 30
0.0
  0
VERTEX
  5
DD
330
DB
100
AcDbEntity
  8
_U+30EC_U+30A4_U+30E4_U+30FC 1
370
     0
100
AcDbVertex
100
AcDb2dVertex
 10
71.90431042039198
 20
-88.47298039237829
 30
0.0
  0
VERTEX
  5
DE
330
DB
100
AcDbEntity
  8
_U+30EC_U+30A4_U+30E4_U+30FC 1
370
     0
100
AcDbVertex
100
AcDb2dVertex
 10
71.90431042039198
 20
-88.77752683327438
 30
0.0
  0
VERTEX
  5
DF
330
DB
100
AcDbEntity
  8
_U+30EC_U+30A4_U+30E4_U+30FC 1
370
     0
100
AcDbVertex
100
AcDb2dVertex
 10
72.36354164857579
 20
-88.77752683327438
 30
0.0
  0
VERTEX
  5
E0
330
DB
100
AcDbEntity
  8
_U+30EC_U+30A4_U+30E4_U+30FC 1
370
     0
100
AcDbVertex
100
AcDb2dVertex
 10
72.36354164857579
 20
-88.47298039237829
 30
0.0
  0
SEQEND
  5
E1
330
DB
100
AcDbEntity
  8
_U+30EC_U+30A4_U+30E4_U+30FC 1
370
     0
  0
POLYLINE
  5
E2
330
B9
100
AcDbEntity
  8
_U+30EC_U+30A4_U+30E4_U+30FC 1
370
     0
100
AcDb2dPolyline
 66
     1
 10
0.0
 20
0.0
 30
0.0
  0
VERTEX
  5
E3
330
E2
100
AcDbEntity
  8
_U+30EC_U+30A4_U+30E4_U+30FC 1
370
     0
100
AcDbVertex
100
AcDb2dVertex
 10
72.36354164857579
 20
-88.94478621908326
 30
0.0
  0
VERTEX
  5
E4
330
E2
100
AcDbEntity
  8
_U+30EC_U+30A4_U+30E4_U+30FC 1
370
     0
100
AcDbVertex
100
AcDb2dVertex
 10
71.90431042039198
 20
-88.94478621908326
 30
0.0
  0
VERTEX
  5
E5
330
E2
100
AcDbEntity
  8
_U+30EC_U+30A4_U+30E4_U+30FC 1
370
     0
100
AcDbVertex
100
AcDb2dVertex
 10
71.90431042039198
 20
-89.25346677456163
 30
0.0
  0
VERTEX
  5
E6
330
E2
100
AcDbEntity
  8
_U+30EC_U+30A4_U+30E4_U+30FC 1
370
     0
100
AcDbVertex
100
AcDb2dVertex
 10
72.36354164857579
 20
-89.25346677456163
 30
0.0
  0
VERTEX
  5
E7
330
E2
100
AcDbEntity
  8
_U+30EC_U+30A4_U+30E4_U+30FC 1
370
     0
100
AcDbVertex
100
AcDb2dVertex
 10
72.36354164857579
 20
-88.94478621908326
 30
0.0
  0
SEQEND
  5
E8
330
E2
100
AcDbEntity
  8
_U+30EC_U+30A4_U+30E4_U+30FC 1
370
     0
  0
HATCH
  5
E9
330
B9
100
AcDbEntity
  8
_U+30EC_U+30A4_U+30E4_U+30FC 1
 62
   179
420
  2234388
100
AcDbHatch
 10
0.0
 20
0.0
 30
0.0
210
0.0
220
0.0
230
1.0
  2
SOLID
 70
     1
 71
     0
 91
        5
 92
        1
 93
        1
 72
     4
 94
        3
 73
     0
 74
     1
 95
       77
 96
       73
 40
0.0
 40
0.0
 40
0.0
 40
0.0
 40
1.0
 40
1.0
 40
1.0
 40
2.0
 40
2.0
 40
2.0
 40
3.0
 40
3.0
 40
3.0
 40
4.0
 40
4.0
 40
4.0
 40
5.0
 40
5.0
 40
5.0
 40
6.0
 40
6.0
 40
6.0
 40
7.0
 40
7.0
 40
7.0
 40
8.0
 40
8.0
 40
8.0
 40
9.0
 40
9.0
 40
9.0
 40
10.0
 40
10.0
 40
10.0
 40
11.0
 40
11.0
 40
11.0
 40
12.0
 40
12.0
 40
12.0
 40
13.0
 40
13.0
 40
13.0
 40
14.0
 40
14.0
 40
14.0
 40
15.0
 40
15.0
 40
15.0
 40
16.0
 40
16.0
 40
16.0
 40
17.0
 40
17.0
 40
17.0
 40
18.0
 40
18.0
 40
18.0
 40
19.0
 40
19.0
 40
19.0
 40
20.0
 40
20.0
 40
20.0
 40
21.0
 40
21.0
 40
21.0
 40
22.0
 40
22.0
 40
22.0
 40
23.0
 40
23.0
 40
23.0
 40
24.0
 40
24.0
 40
24.0
 40
24.0
 10
72.4989339011461
 20
-90.0596191181101
 10
72.45242511209523
 20
-90.08476831515242
 10
72.32771265552918
 20
-90.09751516844784
 10
72.24916447846549
 20
-90.09751516844784
 10
72.23676213471859
 20
-90.09751516844784
 10
72.21126842812774
 20
-90.09751516844784
 10
72.17750649237229
 20
-90.09338105386554
 10
72.17750649237229
 20
-90.09338105386554
 10
72.08001029013973
 20
-89.86703828048464
 10
72.08001029013973
 20
-89.86703828048464
 10
72.10963811131288
 20
-89.87323945235808
 10
72.16682669636802
 20
-89.8818521910712
 10
72.28327092376946
 20
-89.8818521910712
 10
72.36147459128463
 20
-89.8818521910712
 10
72.36354164857579
 20
-89.83947751660263
 10
72.36354164857579
 20
-89.78228893154748
 10
72.36354164857579
 20
-89.78228893154748
 10
72.36354164857579
 20
-89.43330075889168
 10
72.36354164857579
 20
-89.43330075889168
 10
72.36354164857579
 20
-89.43330075889168
 10
71.90431042039198
 20
-89.43330075889168
 10
71.90431042039198
 20
-89.43330075889168
 10
71.90672198723166
 20
-89.57076006875315
 10
71.9087890445228
 20
-89.76954207825206
 10
71.91499021639626
 20
-89.90286727353123
 10
71.9170572736874
 20
-89.93042803741324
 10
71.9170572736874
 20
-89.97486976917295
 10
71.92980412698283
 20
-90.0361924688104
 10
71.92980412698283
 20
-90.0361924688104
 10
71.68864744301534
 20
-90.0361924688104
 10
71.68864744301534
 20
-90.0361924688104
 10
71.71414114960619
 20
-89.91148001224435
 10
71.71414114960619
 20
-89.57076006875315
 10
71.71414114960619
 20
-89.43330075889168
 10
71.71414114960619
 20
-89.43330075889168
 10
71.2717908893001
 20
-89.43330075889168
 10
71.2717908893001
 20
-89.43330075889168
 10
71.24870874954894
 20
-89.64069550710371
 10
71.1832519353292
 20
-89.90941295495321
 10
70.9861924735729
 20
-90.09338105386554
 10
70.9861924735729
 20
-90.09338105386554
 10
70.79809026007825
 20
-89.97073565459065
 10
70.79809026007825
 20
-89.97073565459065
 10
71.05199379734117
 20
-89.75059405308319
 10
71.08368867580548
 20
-89.41848684830511
 10
71.08368867580548
 20
-89.08655189830128
 10
71.08368867580548
 20
-89.08655189830128
 10
71.08368867580548
 20
-88.65074731941718
 10
71.08368867580548
 20
-88.65074731941718
 10
71.08368867580548
 20
-88.61474607159631
 10
71.08162161851432
 20
-88.3820298715677
 10
71.0730088798012
 20
-88.28039955475282
 10
71.21253524695382
 20
-88.2910793507571
 10
71.45403644046982
 20
-88.2910793507571
 10
71.59769692220475
 20
-88.2910793507571
 10
71.59769692220475
 20
-88.2910793507571
 10
72.05692815038854
 20
-88.2910793507571
 10
72.05692815038854
 20
-88.2910793507571
 10
72.07174206097513
 20
-88.2910793507571
 10
72.42073023363093
 20
-88.2910793507571
 10
72.57920462595243
 20
-88.28039955475282
 10
72.57713756866127
 20
-88.3332817704514
 10
72.57093639678783
 20
-88.49416772961257
 10
72.57093639678783
 20
-88.54498288802
 10
72.57093639678783
 20
-88.54498288802
 10
72.57093639678783
 20
-89.15200871252102
 10
72.57093639678783
 20
-89.15200871252102
 10
72.57093639678783
 20
-89.17112899246416
 10
72.58127168324357
 20
-89.74232582391859
 10
72.58127168324357
 20
-89.85429142718921
 10
72.58127168324357
 20
-89.91148001224435
 10
72.58127168324357
 20
-90.01311032905923
 10
72.4989339011461
 20
-90.0596191181101
 97
        0
 97
        0
 92
        1
 93
        4
 72
     1
 10
71.71414114960619
 20
-88.47298039237829
 11
71.27626951343093
 21
-88.47298039237829
 72
     1
 10
71.27626951343093
 20
-88.47298039237829
 11
71.27626951343093
 21
-88.77752683327438
 72
     1
 10
71.27626951343093
 20
-88.77752683327438
 11
71.71414114960619
 21
-88.77752683327438
 72
     1
 10
71.71414114960619
 20
-88.77752683327438
 11
71.71414114960619
 21
-88.47298039237829
 97
        0
 92
        1
 93
        4
 72
     1
 10
71.71414114960619
 20
-88.94478621908326
 11
71.27626951343093
 21
-88.94478621908326
 72
     1
 10
71.27626951343093
 20
-88.94478621908326
 11
71.27626951343093
 21
-89.25346677456163
 72
     1
 10
71.27626951343093
 20
-89.25346677456163
 11
71.71414114960619
 21
-89.25346677456163
 72
     1
 10
71.71414114960619
 20
-89.25346677456163
 11
71.71414114960619
 21
-88.94478621908326
 97
        0
 92
        1
 93
        4
 72
     1
 10
72.36354164857579
 20
-88.47298039237829
 11
71.90431042039198
 21
-88.47298039237829
 72
     1
 10
71.90431042039198
 20
-88.47298039237829
 11
71.90431042039198
 21
-88.77752683327438
 72
     1
 10
71.90431042039198
 20
-88.77752683327438
 11
72.36354164857579
 21
-88.77752683327438
 72
     1
 10
72.36354164857579
 20
-88.77752683327438
 11
72.36354164857579
 21
-88.47298039237829
 97
        0
 92
        1
 93
        4
 72
     1
 10
72.36354164857579
 20
-88.94478621908326
 11
71.90431042039198
 21
-88.94478621908326
 72
     1
 10
71.90431042039198
 20
-88.94478621908326
 11
71.90431042039198
 21
-89.25346677456163
 72
     1
 10
71.90431042039198
 20
-89.25346677456163
 11
72.36354164857579
 21
-89.25346677456163
 72
     1
 10
72.36354164857579
 20
-89.25346677456163
 11
72.36354164857579
 21
-88.94478621908326
 97
        0
 75
     2
 76
     1
 98
        0
  0
SPLINE
  5
EA
330
B9
100
AcDbEntity
  8
_U+30EC_U+30A4_U+30E4_U+30FC 1
370
     0
100
AcDbSpline
210
0.0
220
0.0
230
1.0
 70
    11
 71
     3
 72
    44
 73
    40
 74
     0
 42
0.0000000001
 43
0.0000000001
 12
1.0
 22
0.0
 32
0.0
 13
1.0
 23
0.0
 33
0.0
 40
0.0
 40
0.0
 40
0.0
 40
0.0
 40
1.0
 40
1.0
 40
1.0
 40
2.0
 40
2.0
 40
2.0
 40
3.0
 40
3.0
 40
3.0
 40
4.0
 40
4.0
 40
4.0
 40
5.0
 40
5.0
 40
5.0
 40
6.0
 40
6.0
 40
6.0
 40
7.0
 40
7.0
 40
7.0
 40
8.0
 40
8.0
 40
8.0
 40
9.0
 40
9.0
 40
9.0
 40
10.0
 40
10.0
 40
10.0
 40
11.0
 40
11.0
 40
11.0
 40
12.0
 40
12.0
 40
12.0
 40
13.0
 40
13.0
 40
13.0
 40
13.0
 10
68.04752602465479
 20
-91.34946286778764
 30
0.0
 10
67.93556042138417
 20
-91.71739906561233
 30
0.0
 10
67.88491751775099
 20
-91.87621796748233
 30
0.0
 10
67.68820256554324
 20
-92.12564288061442
 30
0.0
 10
67.50388995708236
 20
-92.35646427812617
 30
0.0
 10
67.2672118972457
 20
-92.54249943432966
 30
0.0
 10
66.98781465339194
 20
-92.63551701243141
 30
0.0
 10
66.98781465339194
 20
-92.63551701243141
 30
0.0
 10
66.79523381576647
 20
-92.45568302810136
 30
0.0
 10
66.79523381576647
 20
-92.45568302810136
 30
0.0
 10
67.43636608557146
 20
-92.30340980765332
 30
0.0
 10
67.7664062330584
 20
-91.74702688678546
 30
0.0
 10
67.829795989987
 20
-91.30708819331906
 30
0.0
 10
67.829795989987
 20
-91.30708819331906
 30
0.0
 10
67.06395126361596
 20
-91.30708819331906
 30
0.0
 10
67.06395126361596
 20
-91.30708819331906
 30
0.0
 10
66.97093368551421
 20
-91.30708819331906
 30
0.0
 10
66.78696558660187
 20
-91.31122230790136
 30
0.0
 10
66.630213742023
 20
-91.33017033307024
 30
0.0
 10
66.630213742023
 20
-91.33017033307024
 30
0.0
 10
66.630213742023
 20
-91.1103732411113
 30
0.0
 10
66.630213742023
 20
-91.1103732411113
 30
0.0
 10
66.7170301482513
 20
-91.13138832357133
 30
0.0
 10
66.96886662822307
 20
-91.13138832357133
 30
0.0
 10
67.06808537819826
 20
-91.13138832357133
 30
0.0
 10
67.06808537819826
 20
-91.13138832357133
 30
0.0
 10
67.49975584250006
 20
-91.13138832357133
 30
0.0
 10
67.49975584250006
 20
-91.13138832357133
 30
0.0
 10
67.54213051696864
 20
-91.13138832357133
 30
0.0
 10
67.77674151951415
 20
-91.12932126628017
 30
0.0
 10
67.81498207940042
 20
-91.12312009440673
 30
0.0
 10
67.857356753869
 20
-91.11657441298475
 30
0.0
 10
67.85942381116014
 20
-91.1145073556936
 30
0.0
 10
67.9207465107976
 20
-91.07419973851617
 30
0.0
 10
67.9207465107976
 20
-91.07419973851617
 30
0.0
 10
68.10919323384076
 20
-91.22888452580389
 30
0.0
 10
68.10919323384076
 20
-91.22888452580389
 30
0.0
 10
68.0795654126676
 20
-91.25851234697704
 30
0.0
 10
68.06475150208104
 20
-91.29020722544134
 30
0.0
 10
68.04752602465479
 20
-91.34946286778764
 30
0.0
  0
SPLINE
  5
EB
330
B9
100
AcDbEntity
  8
_U+30EC_U+30A4_U+30E4_U+30FC 1
370
     0
100
AcDbSpline
210
0.0
220
0.0
230
1.0
 70
    11
 71
     3
 72
    17
 73
    13
 74
     0
 42
0.0000000001
 43
0.0000000001
 12
1.0
 22
0.0
 32
0.0
 13
1.0
 23
0.0
 33
0.0
 40
0.0
 40
0.0
 40
0.0
 40
0.0
 40
1.0
 40
1.0
 40
1.0
 40
2.0
 40
2.0
 40
2.0
 40
3.0
 40
3.0
 40
3.0
 40
4.0
 40
4.0
 40
4.0
 40
4.0
 10
68.25698783015798
 20
-91.1503363487402
 30
0.0
 10
68.13020831630078
 20
-91.1503363487402
 30
0.0
 10
68.02857799948592
 20
-91.04905054147385
 30
0.0
 10
68.02857799948592
 20
-90.92192651806813
 30
0.0
 10
68.02857799948592
 20
-90.79514700421095
 30
0.0
 10
68.13020831630078
 20
-90.69144963010491
 30
0.0
 10
68.25698783015798
 20
-90.69144963010491
 30
0.0
 10
68.3841118535637
 20
-90.69144963010491
 30
0.0
 10
68.48780922766971
 20
-90.79514700421095
 30
0.0
 10
68.48780922766971
 20
-90.92192651806813
 30
0.0
 10
68.48780922766971
 20
-91.04905054147385
 30
0.0
 10
68.3841118535637
 20
-91.1503363487402
 30
0.0
 10
68.25698783015798
 20
-91.1503363487402
 30
0.0
  0
SPLINE
  5
EC
330
B9
100
AcDbEntity
  8
_U+30EC_U+30A4_U+30E4_U+30FC 1
370
     0
100
AcDbSpline
210
0.0
220
0.0
230
1.0
 70
    11
 71
     3
 72
    17
 73
    13
 74
     0
 42
0.0000000001
 43
0.0000000001
 12
1.0
 22
0.0
 32
0.0
 13
1.0
 23
0.0
 33
0.0
 40
0.0
 40
0.0
 40
0.0
 40
0.0
 40
1.0
 40
1.0
 40
1.0
 40
2.0
 40
2.0
 40
2.0
 40
3.0
 40
3.0
 40
3.0
 40
4.0
 40
4.0
 40
4.0
 40
4.0
 10
68.25492077286683
 20
-90.82029620125326
 30
0.0
 10
68.20014375465135
 20
-90.82029620125326
 30
0.0
 10
68.15570202289163
 20
-90.86473793301299
 30
0.0
 10
68.15570202289163
 20
-90.91985946077699
 30
0.0
 10
68.15570202289163
 20
-90.97704804583213
 30
0.0
 10
68.20014375465135
 20
-91.02562389217415
 30
0.0
 10
68.25905488744912
 20
-91.02562389217415
 30
0.0
 10
68.31831052979543
 20
-91.02562389217415
 30
0.0
 10
68.35861814697284
 20
-90.97498098854098
 30
0.0
 10
68.35861814697284
 20
-90.92192651806813
 30
0.0
 10
68.35861814697284
 20
-90.86473793301299
 30
0.0
 10
68.31210935792197
 20
-90.82029620125326
 30
0.0
 10
68.25492077286683
 20
-90.82029620125326
 30
0.0
  0
HATCH
  5
ED
330
B9
100
AcDbEntity
  8
_U+30EC_U+30A4_U+30E4_U+30FC 1
 62
   179
420
  2234388
100
AcDbHatch
 10
0.0
 20
0.0
 30
0.0
210
0.0
220
0.0
230
1.0
  2
SOLID
 70
     1
 71
     0
 91
        3
 92
        1
 93
        1
 72
     4
 94
        3
 73
     0
 74
     1
 95
       44
 96
       40
 40
0.0
 40
0.0
 40
0.0
 40
0.0
 40
1.0
 40
1.0
 40
1.0
 40
2.0
 40
2.0
 40
2.0
 40
3.0
 40
3.0
 40
3.0
 40
4.0
 40
4.0
 40
4.0
 40
5.0
 40
5.0
 40
5.0
 40
6.0
 40
6.0
 40
6.0
 40
7.0
 40
7.0
 40
7.0
 40
8.0
 40
8.0
 40
8.0
 40
9.0
 40
9.0
 40
9.0
 40
10.0
 40
10.0
 40
10.0
 40
11.0
 40
11.0
 40
11.0
 40
12.0
 40
12.0
 40
12.0
 40
13.0
 40
13.0
 40
13.0
 40
13.0
 10
68.04752602465479
 20
-91.34946286778764
 10
67.93556042138417
 20
-91.71739906561233
 10
67.88491751775099
 20
-91.87621796748233
 10
67.68820256554324
 20
-92.12564288061442
 10
67.50388995708236
 20
-92.35646427812617
 10
67.2672118972457
 20
-92.54249943432966
 10
66.98781465339194
 20
-92.63551701243141
 10
66.98781465339194
 20
-92.63551701243141
 10
66.79523381576647
 20
-92.45568302810136
 10
66.79523381576647
 20
-92.45568302810136
 10
67.43636608557146
 20
-92.30340980765332
 10
67.7664062330584
 20
-91.74702688678546
 10
67.829795989987
 20
-91.30708819331906
 10
67.829795989987
 20
-91.30708819331906
 10
67.06395126361596
 20
-91.30708819331906
 10
67.06395126361596
 20
-91.30708819331906
 10
66.97093368551421
 20
-91.30708819331906
 10
66.78696558660187
 20
-91.31122230790136
 10
66.630213742023
 20
-91.33017033307024
 10
66.630213742023
 20
-91.33017033307024
 10
66.630213742023
 20
-91.1103732411113
 10
66.630213742023
 20
-91.1103732411113
 10
66.7170301482513
 20
-91.13138832357133
 10
66.96886662822307
 20
-91.13138832357133
 10
67.06808537819826
 20
-91.13138832357133
 10
67.06808537819826
 20
-91.13138832357133
 10
67.49975584250006
 20
-91.13138832357133
 10
67.49975584250006
 20
-91.13138832357133
 10
67.54213051696864
 20
-91.13138832357133
 10
67.77674151951415
 20
-91.12932126628017
 10
67.81498207940042
 20
-91.12312009440673
 10
67.857356753869
 20
-91.11657441298475
 10
67.85942381116014
 20
-91.1145073556936
 10
67.9207465107976
 20
-91.07419973851617
 10
67.9207465107976
 20
-91.07419973851617
 10
68.10919323384076
 20
-91.22888452580389
 10
68.10919323384076
 20
-91.22888452580389
 10
68.0795654126676
 20
-91.25851234697704
 10
68.06475150208104
 20
-91.29020722544134
 10
68.04752602465479
 20
-91.34946286778764
 97
        0
 97
        0
 92
        1
 93
        1
 72
     4
 94
        3
 73
     0
 74
     1
 95
       17
 96
       13
 40
0.0
 40
0.0
 40
0.0
 40
0.0
 40
1.0
 40
1.0
 40
1.0
 40
2.0
 40
2.0
 40
2.0
 40
3.0
 40
3.0
 40
3.0
 40
4.0
 40
4.0
 40
4.0
 40
4.0
 10
68.25698783015798
 20
-91.1503363487402
 10
68.13020831630078
 20
-91.1503363487402
 10
68.02857799948592
 20
-91.04905054147385
 10
68.02857799948592
 20
-90.92192651806813
 10
68.02857799948592
 20
-90.79514700421095
 10
68.13020831630078
 20
-90.69144963010491
 10
68.25698783015798
 20
-90.69144963010491
 10
68.3841118535637
 20
-90.69144963010491
 10
68.48780922766971
 20
-90.79514700421095
 10
68.48780922766971
 20
-90.92192651806813
 10
68.48780922766971
 20
-91.04905054147385
 10
68.3841118535637
 20
-91.1503363487402
 10
68.25698783015798
 20
-91.1503363487402
 97
        0
 97
        0
 92
        1
 93
        1
 72
     4
 94
        3
 73
     0
 74
     1
 95
       17
 96
       13
 40
0.0
 40
0.0
 40
0.0
 40
0.0
 40
1.0
 40
1.0
 40
1.0
 40
2.0
 40
2.0
 40
2.0
 40
3.0
 40
3.0
 40
3.0
 40
4.0
 40
4.0
 40
4.0
 40
4.0
 10
68.25492077286683
 20
-90.82029620125326
 10
68.20014375465135
 20
-90.82029620125326
 10
68.15570202289163
 20
-90.86473793301299
 10
68.15570202289163
 20
-90.91985946077699
 10
68.15570202289163
 20
-90.97704804583213
 10
68.20014375465135
 20
-91.02562389217415
 10
68.25905488744912
 20
-91.02562389217415
 10
68.31831052979543
 20
-91.02562389217415
 10
68.35861814697284
 20
-90.97498098854098
 10
68.35861814697284
 20
-90.92192651806813
 10
68.35861814697284
 20
-90.86473793301299
 10
68.31210935792197
 20
-90.82029620125326
 10
68.25492077286683
 20
-90.82029620125326
 97
        0
 97
        0
 75
     2
 76
     1
 98
        0
  0
SPLINE
  5
EE
330
B9
100
AcDbEntity
  8
_U+30EC_U+30A4_U+30E4_U+30FC 1
370
     0
100
AcDbSpline
210
0.0
220
0.0
230
1.0
 70
    11
 71
     3
 72
    50
 73
    46
 74
     0
 42
0.0000000001
 43
0.0000000001
 12
1.0
 22
0.0
 32
0.0
 13
1.0
 23
0.0
 33
0.0
 40
0.0
 40
0.0
 40
0.0
 40
0.0
 40
1.0
 40
1.0
 40
1.0
 40
2.0
 40
2.0
 40
2.0
 40
3.0
 40
3.0
 40
3.0
 40
4.0
 40
4.0
 40
4.0
 40
5.0
 40
5.0
 40
5.0
 40
6.0
 40
6.0
 40
6.0
 40
7.0
 40
7.0
 40
7.0
 40
8.0
 40
8.0
 40
8.0
 40
9.0
 40
9.0
 40
9.0
 40
10.0
 40
10.0
 40
10.0
 40
11.0
 40
11.0
 40
11.0
 40
12.0
 40
12.0
 40
12.0
 40
13.0
 40
13.0
 40
13.0
 40
14.0
 40
14.0
 40
14.0
 40
15.0
 40
15.0
 40
15.0
 40
15.0
 10
70.05222708752167
 20
-91.65814342326603
 30
0.0
 10
69.97367891045798
 20
-91.83591035030491
 30
0.0
 10
69.83828665788765
 20
-92.04330509851695
 30
0.0
 10
69.70082734802618
 20
-92.18283146566958
 30
0.0
 10
69.53167315970042
 20
-92.35405271128649
 30
0.0
 10
69.3687201432481
 20
-92.44293617480594
 30
0.0
 10
69.04935979176544
 20
-92.58487410879823
 30
0.0
 10
69.04935979176544
 20
-92.58487410879823
 30
0.0
 10
68.88020560343968
 20
-92.39642738575506
 30
0.0
 10
68.88020560343968
 20
-92.39642738575506
 30
0.0
 10
69.06624075964316
 20
-92.3733452460039
 30
0.0
 10
69.23746200526008
 20
-92.2865288397756
 30
0.0
 10
69.39007973525665
 20
-92.18076440837842
 30
0.0
 10
69.65225150168416
 20
-91.99886336675723
 30
0.0
 10
69.84276528201848
 20
-91.68570418714802
 30
0.0
 10
69.8913411283605
 20
-91.50380314552683
 30
0.0
 10
69.8913411283605
 20
-91.50380314552683
 30
0.0
 10
69.22058103738236
 20
-91.50380314552683
 30
0.0
 10
69.22058103738236
 20
-91.50380314552683
 30
0.0
 10
69.06210664506087
 20
-91.50380314552683
 30
0.0
 10
68.76996254791167
 20
-91.51207137469143
 30
0.0
 10
68.61768932746364
 20
-91.52929685211768
 30
0.0
 10
68.61768932746364
 20
-91.52929685211768
 30
0.0
 10
68.61768932746364
 20
-91.30054251189709
 30
0.0
 10
68.61768932746364
 20
-91.30054251189709
 30
0.0
 10
68.65179577276761
 20
-91.30708819331906
 30
0.0
 10
68.67694496980994
 20
-91.31328936519252
 30
0.0
 10
68.72999944028278
 20
-91.31742347977482
 30
0.0
 10
68.83128524754913
 20
-91.32396916119679
 30
0.0
 10
69.02834470930541
 20
-91.32603621848794
 30
0.0
 10
69.11274954869404
 20
-91.32603621848794
 30
0.0
 10
69.11274954869404
 20
-91.32603621848794
 30
0.0
 10
69.61848956592871
 20
-91.32603621848794
 30
0.0
 10
69.61848956592871
 20
-91.32603621848794
 30
0.0
 10
69.68601343743961
 20
-91.32603621848794
 30
0.0
 10
69.83208548601421
 20
-91.32190210390564
 30
0.0
 10
69.89340818565165
 20
-91.31535642248366
 30
0.0
 10
69.96541068129338
 20
-91.30708819331906
 30
0.0
 10
69.99297144517537
 20
-91.29227428273249
 30
0.0
 10
70.02673338093082
 20
-91.2688476334328
 30
0.0
 10
70.02673338093082
 20
-91.2688476334328
 30
0.0
 10
70.19175345467428
 20
-91.4359347644674
 30
0.0
 10
70.19175345467428
 20
-91.4359347644674
 30
0.0
 10
70.12181801632372
 20
-91.50380314552683
 30
0.0
 10
70.07530922727284
 20
-91.60750051963285
 30
0.0
 10
70.05222708752167
 20
-91.65814342326603
 30
0.0
  0
SPLINE
  5
EF
330
B9
100
AcDbEntity
  8
_U+30EC_U+30A4_U+30E4_U+30FC 1
370
     0
100
AcDbSpline
210
0.0
220
0.0
230
1.0
 70
    11
 71
     3
 72
    29
 73
    25
 74
     0
 42
0.0000000001
 43
0.0000000001
 12
1.0
 22
0.0
 32
0.0
 13
1.0
 23
0.0
 33
0.0
 40
0.0
 40
0.0
 40
0.0
 40
0.0
 40
1.0
 40
1.0
 40
1.0
 40
2.0
 40
2.0
 40
2.0
 40
3.0
 40
3.0
 40
3.0
 40
4.0
 40
4.0
 40
4.0
 40
5.0
 40
5.0
 40
5.0
 40
6.0
 40
6.0
 40
6.0
 40
7.0
 40
7.0
 40
7.0
 40
8.0
 40
8.0
 40
8.0
 40
8.0
 10
69.55923392358241
 20
-91.03216957359612
 30
0.0
 10
69.55923392358241
 20
-91.03216957359612
 30
0.0
 10
69.2185139800912
 20
-91.03216957359612
 30
0.0
 10
69.2185139800912
 20
-91.03216957359612
 30
0.0
 10
69.10448131952944
 20
-91.03216957359612
 30
0.0
 10
68.988037092128
 20
-91.03630368817844
 30
0.0
 10
68.8736599220177
 20
-91.051117598765
 30
0.0
 10
68.8736599220177
 20
-91.051117598765
 30
0.0
 10
68.8736599220177
 20
-90.84165579326181
 30
0.0
 10
68.8736599220177
 20
-90.84165579326181
 30
0.0
 10
68.9921712067103
 20
-90.85646970384839
 30
0.0
 10
69.16580401916688
 20
-90.86060381843069
 30
0.0
 10
69.2185139800912
 20
-90.86060381843069
 30
0.0
 10
69.2185139800912
 20
-90.86060381843069
 30
0.0
 10
69.55923392358241
 20
-90.86060381843069
 30
0.0
 10
69.55923392358241
 20
-90.86060381843069
 30
0.0
 10
69.67567815098386
 20
-90.86060381843069
 30
0.0
 10
69.79177786883677
 20
-90.85646970384839
 30
0.0
 10
69.90822209623822
 20
-90.84165579326181
 30
0.0
 10
69.90822209623822
 20
-90.84165579326181
 30
0.0
 10
69.90822209623822
 20
-91.051117598765
 30
0.0
 10
69.90822209623822
 20
-91.051117598765
 30
0.0
 10
69.75801593308134
 20
-91.03216957359612
 30
0.0
 10
69.574047834169
 20
-91.03216957359612
 30
0.0
 10
69.55923392358241
 20
-91.03216957359612
 30
0.0
  0
HATCH
  5
F0
330
B9
100
AcDbEntity
  8
_U+30EC_U+30A4_U+30E4_U+30FC 1
 62
   179
420
  2234388
100
AcDbHatch
 10
0.0
 20
0.0
 30
0.0
210
0.0
220
0.0
230
1.0
  2
SOLID
 70
     1
 71
     0
 91
        2
 92
        1
 93
        1
 72
     4
 94
        3
 73
     0
 74
     1
 95
       50
 96
       46
 40
0.0
 40
0.0
 40
0.0
 40
0.0
 40
1.0
 40
1.0
 40
1.0
 40
2.0
 40
2.0
 40
2.0
 40
3.0
 40
3.0
 40
3.0
 40
4.0
 40
4.0
 40
4.0
 40
5.0
 40
5.0
 40
5.0
 40
6.0
 40
6.0
 40
6.0
 40
7.0
 40
7.0
 40
7.0
 40
8.0
 40
8.0
 40
8.0
 40
9.0
 40
9.0
 40
9.0
 40
10.0
 40
10.0
 40
10.0
 40
11.0
 40
11.0
 40
11.0
 40
12.0
 40
12.0
 40
12.0
 40
13.0
 40
13.0
 40
13.0
 40
14.0
 40
14.0
 40
14.0
 40
15.0
 40
15.0
 40
15.0
 40
15.0
 10
70.05222708752167
 20
-91.65814342326603
 10
69.97367891045798
 20
-91.83591035030491
 10
69.83828665788765
 20
-92.04330509851695
 10
69.70082734802618
 20
-92.18283146566958
 10
69.53167315970042
 20
-92.35405271128649
 10
69.3687201432481
 20
-92.44293617480594
 10
69.04935979176544
 20
-92.58487410879823
 10
69.04935979176544
 20
-92.58487410879823
 10
68.88020560343968
 20
-92.39642738575506
 10
68.88020560343968
 20
-92.39642738575506
 10
69.06624075964316
 20
-92.3733452460039
 10
69.23746200526008
 20
-92.2865288397756
 10
69.39007973525665
 20
-92.18076440837842
 10
69.65225150168416
 20
-91.99886336675723
 10
69.84276528201848
 20
-91.68570418714802
 10
69.8913411283605
 20
-91.50380314552683
 10
69.8913411283605
 20
-91.50380314552683
 10
69.22058103738236
 20
-91.50380314552683
 10
69.22058103738236
 20
-91.50380314552683
 10
69.06210664506087
 20
-91.50380314552683
 10
68.76996254791167
 20
-91.51207137469143
 10
68.61768932746364
 20
-91.52929685211768
 10
68.61768932746364
 20
-91.52929685211768
 10
68.61768932746364
 20
-91.30054251189709
 10
68.61768932746364
 20
-91.30054251189709
 10
68.65179577276761
 20
-91.30708819331906
 10
68.67694496980994
 20
-91.31328936519252
 10
68.72999944028278
 20
-91.31742347977482
 10
68.83128524754913
 20
-91.32396916119679
 10
69.02834470930541
 20
-91.32603621848794
 10
69.11274954869404
 20
-91.32603621848794
 10
69.11274954869404
 20
-91.32603621848794
 10
69.61848956592871
 20
-91.32603621848794
 10
69.61848956592871
 20
-91.32603621848794
 10
69.68601343743961
 20
-91.32603621848794
 10
69.83208548601421
 20
-91.32190210390564
 10
69.89340818565165
 20
-91.31535642248366
 10
69.96541068129338
 20
-91.30708819331906
 10
69.99297144517537
 20
-91.29227428273249
 10
70.02673338093082
 20
-91.2688476334328
 10
70.02673338093082
 20
-91.2688476334328
 10
70.19175345467428
 20
-91.4359347644674
 10
70.19175345467428
 20
-91.4359347644674
 10
70.12181801632372
 20
-91.50380314552683
 10
70.07530922727284
 20
-91.60750051963285
 10
70.05222708752167
 20
-91.65814342326603
 97
        0
 97
        0
 92
        1
 93
        1
 72
     4
 94
        3
 73
     0
 74
     1
 95
       29
 96
       25
 40
0.0
 40
0.0
 40
0.0
 40
0.0
 40
1.0
 40
1.0
 40
1.0
 40
2.0
 40
2.0
 40
2.0
 40
3.0
 40
3.0
 40
3.0
 40
4.0
 40
4.0
 40
4.0
 40
5.0
 40
5.0
 40
5.0
 40
6.0
 40
6.0
 40
6.0
 40
7.0
 40
7.0
 40
7.0
 40
8.0
 40
8.0
 40
8.0
 40
8.0
 10
69.55923392358241
 20
-91.03216957359612
 10
69.55923392358241
 20
-91.03216957359612
 10
69.2185139800912
 20
-91.03216957359612
 10
69.2185139800912
 20
-91.03216957359612
 10
69.10448131952944
 20
-91.03216957359612
 10
68.988037092128
 20
-91.03630368817844
 10
68.8736599220177
 20
-91.051117598765
 10
68.8736599220177
 20
-91.051117598765
 10
68.8736599220177
 20
-90.84165579326181
 10
68.8736599220177
 20
-90.84165579326181
 10
68.9921712067103
 20
-90.85646970384839
 10
69.16580401916688
 20
-90.86060381843069
 10
69.2185139800912
 20
-90.86060381843069
 10
69.2185139800912
 20
-90.86060381843069
 10
69.55923392358241
 20
-90.86060381843069
 10
69.55923392358241
 20
-90.86060381843069
 10
69.67567815098386
 20
-90.86060381843069
 10
69.79177786883677
 20
-90.85646970384839
 10
69.90822209623822
 20
-90.84165579326181
 10
69.90822209623822
 20
-90.84165579326181
 10
69.90822209623822
 20
-91.051117598765
 10
69.90822209623822
 20
-91.051117598765
 10
69.75801593308134
 20
-91.03216957359612
 10
69.574047834169
 20
-91.03216957359612
 10
69.55923392358241
 20
-91.03216957359612
 97
        0
 97
        0
 75
     2
 76
     1
 98
        0
  0
SPLINE
  5
F1
330
B9
100
AcDbEntity
  8
_U+30EC_U+30A4_U+30E4_U+30FC 1
370
     0
100
AcDbSpline
210
0.0
220
0.0
230
1.0
 70
    11
 71
     3
 72
    50
 73
    46
 74
     0
 42
0.0000000001
 43
0.0000000001
 12
1.0
 22
0.0
 32
0.0
 13
1.0
 23
0.0
 33
0.0
 40
0.0
 40
0.0
 40
0.0
 40
0.0
 40
1.0
 40
1.0
 40
1.0
 40
2.0
 40
2.0
 40
2.0
 40
3.0
 40
3.0
 40
3.0
 40
4.0
 40
4.0
 40
4.0
 40
5.0
 40
5.0
 40
5.0
 40
6.0
 40
6.0
 40
6.0
 40
7.0
 40
7.0
 40
7.0
 40
8.0
 40
8.0
 40
8.0
 40
9.0
 40
9.0
 40
9.0
 40
10.0
 40
10.0
 40
10.0
 40
11.0
 40
11.0
 40
11.0
 40
12.0
 40
12.0
 40
12.0
 40
13.0
 40
13.0
 40
13.0
 40
14.0
 40
14.0
 40
14.0
 40
15.0
 40
15.0
 40
15.0
 40
15.0
 10
71.76237248639968
 20
-91.01735566300955
 30
0.0
 10
71.5529106808965
 20
-91.23095158309505
 30
0.0
 10
71.4812526948033
 20
-91.30295407873676
 30
0.0
 10
71.339314760811
 20
-91.42112085388084
 30
0.0
 10
71.339314760811
 20
-91.42112085388084
 30
0.0
 10
71.339314760811
 20
-91.98818357075295
 30
0.0
 10
71.339314760811
 20
-91.98818357075295
 30
0.0
 10
71.339314760811
 20
-92.13838973390985
 30
0.0
 10
71.34586044223298
 20
-92.15733775907873
 30
0.0
 10
71.34999455681528
 20
-92.33510468611762
 30
0.0
 10
71.35206161410643
 20
-92.46636282410563
 30
0.0
 10
71.35826278597989
 20
-92.51493867044766
 30
0.0
 10
71.36480846740186
 20
-92.57419431279395
 30
0.0
 10
71.36480846740186
 20
-92.57419431279395
 30
0.0
 10
71.13846569402094
 20
-92.57419431279395
 30
0.0
 10
71.13846569402094
 20
-92.57419431279395
 30
0.0
 10
71.14259980860324
 20
-92.52975258103423
 30
0.0
 10
71.14673392318554
 20
-92.48324379198336
 30
0.0
 10
71.14673392318554
 20
-92.47463105327023
 30
0.0
 10
71.14673392318554
 20
-92.39436032846392
 30
0.0
 10
71.15121254731636
 20
-92.04330509851695
 30
0.0
 10
71.15121254731636
 20
-91.97130260287524
 30
0.0
 10
71.15121254731636
 20
-91.97130260287524
 30
0.0
 10
71.15121254731636
 20
-91.56512584516427
 30
0.0
 10
71.15121254731636
 20
-91.56512584516427
 30
0.0
 10
70.96931150569517
 20
-91.68983830173032
 30
0.0
 10
70.77466361077856
 20
-91.80008135725832
 30
0.0
 10
70.57140297714882
 20
-91.88655325393809
 30
0.0
 10
70.57140297714882
 20
-91.88655325393809
 30
0.0
 10
70.36848685306761
 20
-91.72360023748577
 30
0.0
 10
70.36848685306761
 20
-91.72360023748577
 30
0.0
 10
70.4911322523425
 20
-91.68777124443918
 30
0.0
 10
70.74710284689657
 20
-91.61370169150631
 30
0.0
 10
71.09195690497008
 20
-91.35773109695224
 30
0.0
 10
71.30761988234671
 20
-91.19925670463074
 30
0.0
 10
71.50020071997217
 20
-91.01080998158758
 30
0.0
 10
71.65247394042022
 20
-90.79066838008012
 30
0.0
 10
71.65247394042022
 20
-90.79066838008012
 30
0.0
 10
71.84505477804568
 20
-90.93467337136356
 30
0.0
 10
71.84505477804568
 20
-90.93467337136356
 30
0.0
 10
71.8578016313411
 20
-90.94535316736783
 30
0.0
 10
71.8660698605057
 20
-90.96016707795441
 30
0.0
 10
71.8660698605057
 20
-90.97291393124983
 30
0.0
 10
71.8660698605057
 20
-91.01287703887873
 30
0.0
 10
71.82817381016795
 20
-91.01287703887873
 30
0.0
 10
71.76237248639968
 20
-91.01735566300955
 30
0.0
  0
HATCH
  5
F2
330
B9
100
AcDbEntity
  8
_U+30EC_U+30A4_U+30E4_U+30FC 1
 62
   179
420
  2234388
100
AcDbHatch
 10
0.0
 20
0.0
 30
0.0
210
0.0
220
0.0
230
1.0
  2
SOLID
 70
     1
 71
     0
 91
        1
 92
        1
 93
        1
 72
     4
 94
        3
 73
     0
 74
     1
 95
       50
 96
       46
 40
0.0
 40
0.0
 40
0.0
 40
0.0
 40
1.0
 40
1.0
 40
1.0
 40
2.0
 40
2.0
 40
2.0
 40
3.0
 40
3.0
 40
3.0
 40
4.0
 40
4.0
 40
4.0
 40
5.0
 40
5.0
 40
5.0
 40
6.0
 40
6.0
 40
6.0
 40
7.0
 40
7.0
 40
7.0
 40
8.0
 40
8.0
 40
8.0
 40
9.0
 40
9.0
 40
9.0
 40
10.0
 40
10.0
 40
10.0
 40
11.0
 40
11.0
 40
11.0
 40
12.0
 40
12.0
 40
12.0
 40
13.0
 40
13.0
 40
13.0
 40
14.0
 40
14.0
 40
14.0
 40
15.0
 40
15.0
 40
15.0
 40
15.0
 10
71.76237248639968
 20
-91.01735566300955
 10
71.5529106808965
 20
-91.23095158309505
 10
71.4812526948033
 20
-91.30295407873676
 10
71.339314760811
 20
-91.42112085388084
 10
71.339314760811
 20
-91.42112085388084
 10
71.339314760811
 20
-91.98818357075295
 10
71.339314760811
 20
-91.98818357075295
 10
71.339314760811
 20
-92.13838973390985
 10
71.34586044223298
 20
-92.15733775907873
 10
71.34999455681528
 20
-92.33510468611762
 10
71.35206161410643
 20
-92.46636282410563
 10
71.35826278597989
 20
-92.51493867044766
 10
71.36480846740186
 20
-92.57419431279395
 10
71.36480846740186
 20
-92.57419431279395
 10
71.13846569402094
 20
-92.57419431279395
 10
71.13846569402094
 20
-92.57419431279395
 10
71.14259980860324
 20
-92.52975258103423
 10
71.14673392318554
 20
-92.48324379198336
 10
71.14673392318554
 20
-92.47463105327023
 10
71.14673392318554
 20
-92.39436032846392
 10
71.15121254731636
 20
-92.04330509851695
 10
71.15121254731636
 20
-91.97130260287524
 10
71.15121254731636
 20
-91.97130260287524
 10
71.15121254731636
 20
-91.56512584516427
 10
71.15121254731636
 20
-91.56512584516427
 10
70.96931150569517
 20
-91.68983830173032
 10
70.77466361077856
 20
-91.80008135725832
 10
70.57140297714882
 20
-91.88655325393809
 10
70.57140297714882
 20
-91.88655325393809
 10
70.36848685306761
 20
-91.72360023748577
 10
70.36848685306761
 20
-91.72360023748577
 10
70.4911322523425
 20
-91.68777124443918
 10
70.74710284689657
 20
-91.61370169150631
 10
71.09195690497008
 20
-91.35773109695224
 10
71.30761988234671
 20
-91.19925670463074
 10
71.50020071997217
 20
-91.01080998158758
 10
71.65247394042022
 20
-90.79066838008012
 10
71.65247394042022
 20
-90.79066838008012
 10
71.84505477804568
 20
-90.93467337136356
 10
71.84505477804568
 20
-90.93467337136356
 10
71.8578016313411
 20
-90.94535316736783
 10
71.8660698605057
 20
-90.96016707795441
 10
71.8660698605057
 20
-90.97291393124983
 10
71.8660698605057
 20
-91.01287703887873
 10
71.82817381016795
 20
-91.01287703887873
 10
71.76237248639968
 20
-91.01735566300955
 97
        0
 97
        0
 75
     2
 76
     1
 98
        0
  0
SPLINE
  5
F3
330
B9
100
AcDbEntity
  8
_U+30EC_U+30A4_U+30E4_U+30FC 1
370
     0
100
AcDbSpline
210
0.0
220
0.0
230
1.0
 70
    11
 71
     3
 72
    50
 73
    46
 74
     0
 42
0.0000000001
 43
0.0000000001
 12
1.0
 22
0.0
 32
0.0
 13
1.0
 23
0.0
 33
0.0
 40
0.0
 40
0.0
 40
0.0
 40
0.0
 40
1.0
 40
1.0
 40
1.0
 40
2.0
 40
2.0
 40
2.0
 40
3.0
 40
3.0
 40
3.0
 40
4.0
 40
4.0
 40
4.0
 40
5.0
 40
5.0
 40
5.0
 40
6.0
 40
6.0
 40
6.0
 40
7.0
 40
7.0
 40
7.0
 40
8.0
 40
8.0
 40
8.0
 40
9.0
 40
9.0
 40
9.0
 40
10.0
 40
10.0
 40
10.0
 40
11.0
 40
11.0
 40
11.0
 40
12.0
 40
12.0
 40
12.0
 40
13.0
 40
13.0
 40
13.0
 40
14.0
 40
14.0
 40
14.0
 40
15.0
 40
15.0
 40
15.0
 40
15.0
 10
73.47079533753508
 20
-91.54411076270425
 30
0.0
 10
73.40947263789764
 20
-91.61576874879745
 30
0.0
 10
73.14902341921275
 20
-91.93306204298896
 30
0.0
 10
73.09217934370612
 20
-91.99679630946608
 30
0.0
 10
73.17658418309475
 20
-92.09394800215013
 30
0.0
 10
73.22757159627645
 20
-92.15733775907873
 30
0.0
 10
73.29302841049619
 20
-92.24828827988932
 30
0.0
 10
73.29302841049619
 20
-92.24828827988932
 30
0.0
 10
73.10906031158385
 20
-92.38609209929932
 30
0.0
 10
73.10906031158385
 20
-92.38609209929932
 30
0.0
 10
72.97366805901353
 20
-92.17421872695645
 30
0.0
 10
72.80210230384809
 20
-91.95028752041522
 30
0.0
 10
72.50823565895628
 20
-91.75116100136776
 30
0.0
 10
72.50823565895628
 20
-91.75116100136776
 30
0.0
 10
72.65637476482202
 20
-91.59682072362858
 30
0.0
 10
72.65637476482202
 20
-91.59682072362858
 30
0.0
 10
72.7662733108015
 20
-91.6770914484349
 30
0.0
 10
72.86997068490751
 20
-91.76597491195434
 30
0.0
 10
72.96712237759155
 20
-91.86140405689576
 30
0.0
 10
73.03499075865098
 20
-91.78526744667174
 30
0.0
 10
73.23790688273219
 20
-91.54169919586458
 30
0.0
 10
73.37123207801136
 20
-91.31328936519252
 30
0.0
 10
73.37123207801136
 20
-91.31328936519252
 30
0.0
 10
72.69840492974207
 20
-91.31328936519252
 30
0.0
 10
72.69840492974207
 20
-91.31328936519252
 30
0.0
 10
72.57369247317602
 20
-91.31328936519252
 30
0.0
 10
72.32185599320427
 20
-91.32190210390564
 30
0.0
 10
72.11239418770107
 20
-91.33223739036139
 30
0.0
 10
72.11239418770107
 20
-91.33223739036139
 30
0.0
 10
72.11239418770107
 20
-91.11244029840245
 30
0.0
 10
72.11239418770107
 20
-91.11244029840245
 30
0.0
 10
72.29670679616194
 20
-91.13138832357133
 30
0.0
 10
72.5016899775343
 20
-91.13552243815363
 30
0.0
 10
72.69013670057747
 20
-91.13552243815363
 30
0.0
 10
72.69013670057747
 20
-91.13552243815363
 30
0.0
 10
73.19346515097247
 20
-91.13552243815363
 30
0.0
 10
73.19346515097247
 20
-91.13552243815363
 30
0.0
 10
73.53211803717252
 20
-91.13552243815363
 30
0.0
 10
73.57655976893226
 20
-91.12070852756705
 30
0.0
 10
73.65889755102972
 20
-91.08074541993815
 30
0.0
 10
73.65889755102972
 20
-91.08074541993815
 30
0.0
 10
73.82598468206434
 20
-91.23921981225965
 30
0.0
 10
73.82598468206434
 20
-91.23921981225965
 30
0.0
 10
73.67371146161629
 20
-91.31122230790136
 30
0.0
 10
73.53005097988138
 20
-91.47417532435368
 30
0.0
 10
73.47079533753508
 20
-91.54411076270425
 30
0.0
  0
HATCH
  5
F4
330
B9
100
AcDbEntity
  8
_U+30EC_U+30A4_U+30E4_U+30FC 1
 62
   179
420
  2234388
100
AcDbHatch
 10
0.0
 20
0.0
 30
0.0
210
0.0
220
0.0
230
1.0
  2
SOLID
 70
     1
 71
     0
 91
        1
 92
        1
 93
        1
 72
     4
 94
        3
 73
     0
 74
     1
 95
       50
 96
       46
 40
0.0
 40
0.0
 40
0.0
 40
0.0
 40
1.0
 40
1.0
 40
1.0
 40
2.0
 40
2.0
 40
2.0
 40
3.0
 40
3.0
 40
3.0
 40
4.0
 40
4.0
 40
4.0
 40
5.0
 40
5.0
 40
5.0
 40
6.0
 40
6.0
 40
6.0
 40
7.0
 40
7.0
 40
7.0
 40
8.0
 40
8.0
 40
8.0
 40
9.0
 40
9.0
 40
9.0
 40
10.0
 40
10.0
 40
10.0
 40
11.0
 40
11.0
 40
11.0
 40
12.0
 40
12.0
 40
12.0
 40
13.0
 40
13.0
 40
13.0
 40
14.0
 40
14.0
 40
14.0
 40
15.0
 40
15.0
 40
15.0
 40
15.0
 10
73.47079533753508
 20
-91.54411076270425
 10
73.40947263789764
 20
-91.61576874879745
 10
73.14902341921275
 20
-91.93306204298896
 10
73.09217934370612
 20
-91.99679630946608
 10
73.17658418309475
 20
-92.09394800215013
 10
73.22757159627645
 20
-92.15733775907873
 10
73.29302841049619
 20
-92.24828827988932
 10
73.29302841049619
 20
-92.24828827988932
 10
73.10906031158385
 20
-92.38609209929932
 10
73.10906031158385
 20
-92.38609209929932
 10
72.97366805901353
 20
-92.17421872695645
 10
72.80210230384809
 20
-91.95028752041522
 10
72.50823565895628
 20
-91.75116100136776
 10
72.50823565895628
 20
-91.75116100136776
 10
72.65637476482202
 20
-91.59682072362858
 10
72.65637476482202
 20
-91.59682072362858
 10
72.7662733108015
 20
-91.6770914484349
 10
72.86997068490751
 20
-91.76597491195434
 10
72.96712237759155
 20
-91.86140405689576
 10
73.03499075865098
 20
-91.78526744667174
 10
73.23790688273219
 20
-91.54169919586458
 10
73.37123207801136
 20
-91.31328936519252
 10
73.37123207801136
 20
-91.31328936519252
 10
72.69840492974207
 20
-91.31328936519252
 10
72.69840492974207
 20
-91.31328936519252
 10
72.57369247317602
 20
-91.31328936519252
 10
72.32185599320427
 20
-91.32190210390564
 10
72.11239418770107
 20
-91.33223739036139
 10
72.11239418770107
 20
-91.33223739036139
 10
72.11239418770107
 20
-91.11244029840245
 10
72.11239418770107
 20
-91.11244029840245
 10
72.29670679616194
 20
-91.13138832357133
 10
72.5016899775343
 20
-91.13552243815363
 10
72.69013670057747
 20
-91.13552243815363
 10
72.69013670057747
 20
-91.13552243815363
 10
73.19346515097247
 20
-91.13552243815363
 10
73.19346515097247
 20
-91.13552243815363
 10
73.53211803717252
 20
-91.13552243815363
 10
73.57655976893226
 20
-91.12070852756705
 10
73.65889755102972
 20
-91.08074541993815
 10
73.65889755102972
 20
-91.08074541993815
 10
73.82598468206434
 20
-91.23921981225965
 10
73.82598468206434
 20
-91.23921981225965
 10
73.67371146161629
 20
-91.31122230790136
 10
73.53005097988138
 20
-91.47417532435368
 10
73.47079533753508
 20
-91.54411076270425
 97
        0
 97
        0
 75
     2
 76
     1
 98
        0
  0
SPLINE
  5
F5
330
B9
100
AcDbEntity
  8
_U+30EC_U+30A4_U+30E4_U+30FC 1
370
     0
100
AcDbSpline
210
0.0
220
0.0
230
1.0
 70
    11
 71
     3
 72
    29
 73
    25
 74
     0
 42
0.0000000001
 43
0.0000000001
 12
1.0
 22
0.0
 32
0.0
 13
1.0
 23
0.0
 33
0.0
 40
0.0
 40
0.0
 40
0.0
 40
0.0
 40
1.0
 40
1.0
 40
1.0
 40
2.0
 40
2.0
 40
2.0
 40
3.0
 40
3.0
 40
3.0
 40
4.0
 40
4.0
 40
4.0
 40
5.0
 40
5.0
 40
5.0
 40
6.0
 40
6.0
 40
6.0
 40
7.0
 40
7.0
 40
7.0
 40
8.0
 40
8.0
 40
8.0
 40
8.0
 10
75.09446883973332
 20
-91.7873345039629
 30
0.0
 10
75.09446883973332
 20
-91.7873345039629
 30
0.0
 10
74.6100884145072
 20
-91.7873345039629
 30
0.0
 10
74.6100884145072
 20
-91.7873345039629
 30
0.0
 10
74.58252765062521
 20
-91.7873345039629
 30
0.0
 10
74.2652343564337
 20
-91.7873345039629
 30
0.0
 10
74.05370549363936
 20
-91.81248370100522
 30
0.0
 10
74.05370549363936
 20
-91.81248370100522
 30
0.0
 10
74.05370549363936
 20
-91.582006813042
 30
0.0
 10
74.05370549363936
 20
-91.582006813042
 30
0.0
 10
74.21217988596085
 20
-91.60543346234171
 30
0.0
 10
74.40269366629516
 20
-91.60750051963285
 30
0.0
 10
74.6100884145072
 20
-91.60750051963285
 30
0.0
 10
74.6100884145072
 20
-91.60750051963285
 30
0.0
 10
75.09446883973332
 20
-91.60750051963285
 30
0.0
 10
75.09446883973332
 20
-91.60750051963285
 30
0.0
 10
75.28050399593683
 20
-91.60750051963285
 30
0.0
 10
75.46688366168884
 20
-91.60543346234171
 30
0.0
 10
75.65085176060118
 20
-91.582006813042
 30
0.0
 10
75.65085176060118
 20
-91.582006813042
 30
0.0
 10
75.65085176060118
 20
-91.81248370100522
 30
0.0
 10
75.65085176060118
 20
-91.81248370100522
 30
0.0
 10
75.46688366168884
 20
-91.78940156125404
 30
0.0
 10
75.21918129629937
 20
-91.7873345039629
 30
0.0
 10
75.09446883973332
 20
-91.7873345039629
 30
0.0
  0
HATCH
  5
F6
330
B9
100
AcDbEntity
  8
_U+30EC_U+30A4_U+30E4_U+30FC 1
 62
   179
420
  2234388
100
AcDbHatch
 10
0.0
 20
0.0
 30
0.0
210
0.0
220
0.0
230
1.0
  2
SOLID
 70
     1
 71
     0
 91
        1
 92
        1
 93
        1
 72
     4
 94
        3
 73
     0
 74
     1
 95
       29
 96
       25
 40
0.0
 40
0.0
 40
0.0
 40
0.0
 40
1.0
 40
1.0
 40
1.0
 40
2.0
 40
2.0
 40
2.0
 40
3.0
 40
3.0
 40
3.0
 40
4.0
 40
4.0
 40
4.0
 40
5.0
 40
5.0
 40
5.0
 40
6.0
 40
6.0
 40
6.0
 40
7.0
 40
7.0
 40
7.0
 40
8.0
 40
8.0
 40
8.0
 40
8.0
 10
75.09446883973332
 20
-91.7873345039629
 10
75.09446883973332
 20
-91.7873345039629
 10
74.6100884145072
 20
-91.7873345039629
 10
74.6100884145072
 20
-91.7873345039629
 10
74.58252765062521
 20
-91.7873345039629
 10
74.2652343564337
 20
-91.7873345039629
 10
74.05370549363936
 20
-91.81248370100522
 10
74.05370549363936
 20
-91.81248370100522
 10
74.05370549363936
 20
-91.582006813042
 10
74.05370549363936
 20
-91.582006813042
 10
74.21217988596085
 20
-91.60543346234171
 10
74.40269366629516
 20
-91.60750051963285
 10
74.6100884145072
 20
-91.60750051963285
 10
74.6100884145072
 20
-91.60750051963285
 10
75.09446883973332
 20
-91.60750051963285
 10
75.09446883973332
 20
-91.60750051963285
 10
75.28050399593683
 20
-91.60750051963285
 10
75.46688366168884
 20
-91.60543346234171
 10
75.65085176060118
 20
-91.582006813042
 10
75.65085176060118
 20
-91.582006813042
 10
75.65085176060118
 20
-91.81248370100522
 10
75.65085176060118
 20
-91.81248370100522
 10
75.46688366168884
 20
-91.78940156125404
 10
75.21918129629937
 20
-91.7873345039629
 10
75.09446883973332
 20
-91.7873345039629
 97
        0
 97
        0
 75
     2
 76
     1
 98
        0
  0
SPLINE
  5
F7
330
B9
100
AcDbEntity
  8
_U+30EC_U+30A4_U+30E4_U+30FC 1
370
     0
100
AcDbSpline
210
0.0
220
0.0
230
1.0
 70
    11
 71
     3
 72
    53
 73
    49
 74
     0
 42
0.0000000001
 43
0.0000000001
 12
1.0
 22
0.0
 32
0.0
 13
1.0
 23
0.0
 33
0.0
 40
0.0
 40
0.0
 40
0.0
 40
0.0
 40
1.0
 40
1.0
 40
1.0
 40
2.0
 40
2.0
 40
2.0
 40
3.0
 40
3.0
 40
3.0
 40
4.0
 40
4.0
 40
4.0
 40
5.0
 40
5.0
 40
5.0
 40
6.0
 40
6.0
 40
6.0
 40
7.0
 40
7.0
 40
7.0
 40
8.0
 40
8.0
 40
8.0
 40
9.0
 40
9.0
 40
9.0
 40
10.0
 40
10.0
 40
10.0
 40
11.0
 40
11.0
 40
11.0
 40
12.0
 40
12.0
 40
12.0
 40
13.0
 40
13.0
 40
13.0
 40
14.0
 40
14.0
 40
14.0
 40
15.0
 40
15.0
 40
15.0
 40
16.0
 40
16.0
 40
16.0
 40
16.0
 10
76.51281465101069
 20
-90.91365828890353
 30
0.0
 10
76.44529077949979
 20
-91.06593150935157
 30
0.0
 10
76.40291610503122
 20
-91.14413517686675
 30
0.0
 10
76.36467554514495
 20
-91.21165904837764
 30
0.0
 10
76.40705021961352
 20
-91.23301864038619
 30
0.0
 10
76.41118433419582
 20
-91.23508569767735
 30
0.0
 10
76.41118433419582
 20
-91.24989960826392
 30
0.0
 10
76.41118433419582
 20
-91.26264646155934
 30
0.0
 10
76.37742239844037
 20
-91.29640839731479
 30
0.0
 10
76.36674260243609
 20
-91.30502113602792
 30
0.0
 10
76.36467554514495
 20
-91.50173608823569
 30
0.0
 10
76.36467554514495
 20
-91.5227511706957
 30
0.0
 10
76.36467554514495
 20
-91.65607636597487
 30
0.0
 10
76.36260848785379
 20
-91.6688232192703
 30
0.0
 10
76.36260848785379
 20
-91.68363712985688
 30
0.0
 10
76.36260848785379
 20
-91.69845104044344
 30
0.0
 10
76.36260848785379
 20
-91.69845104044344
 30
0.0
 10
76.36260848785379
 20
-92.23347436930274
 30
0.0
 10
76.36260848785379
 20
-92.23347436930274
 30
0.0
 10
76.36260848785379
 20
-92.30547686494447
 30
0.0
 10
76.36674260243609
 20
-92.54043237703851
 30
0.0
 10
76.37535534114922
 20
-92.65033092301798
 30
0.0
 10
76.37535534114922
 20
-92.65033092301798
 30
0.0
 10
76.13213159989058
 20
-92.65033092301798
 30
0.0
 10
76.13213159989058
 20
-92.65033092301798
 30
0.0
 10
76.15521373964175
 20
-92.49185653069648
 30
0.0
 10
76.16175942106373
 20
-92.25069984672899
 30
0.0
 10
76.16175942106373
 20
-92.22934025472044
 30
0.0
 10
76.16175942106373
 20
-92.22934025472044
 30
0.0
 10
76.16175942106373
 20
-91.51207137469143
 30
0.0
 10
76.16175942106373
 20
-91.51207137469143
 30
0.0
 10
76.07080890025314
 20
-91.62644854480172
 30
0.0
 10
76.00948620061568
 20
-91.68570418714802
 30
0.0
 10
75.96711152614712
 20
-91.7280788616166
 30
0.0
 10
75.96711152614712
 20
-91.7280788616166
 30
0.0
 10
75.7765977458128
 20
-91.59061955175513
 30
0.0
 10
75.7765977458128
 20
-91.59061955175513
 30
0.0
 10
76.05806204695772
 20
-91.37461206482996
 30
0.0
 10
76.25064288458317
 20
-91.06593150935157
 30
0.0
 10
76.36260848785379
 20
-90.72934568044266
 30
0.0
 10
76.36260848785379
 20
-90.72934568044266
 30
0.0
 10
76.58275008936126
 20
-90.84372285055296
 30
0.0
 10
76.58275008936126
 20
-90.84372285055296
 30
0.0
 10
76.59549694265668
 20
-90.8499240224264
 30
0.0
 10
76.60376517182128
 20
-90.85440264655723
 30
0.0
 10
76.60376517182128
 20
-90.86921655714382
 30
0.0
 10
76.60376517182128
 20
-90.89436575418614
 30
0.0
 10
76.58688420394355
 20
-90.89884437831697
 30
0.0
 10
76.51281465101069
 20
-90.91365828890353
 30
0.0
  0
SPLINE
  5
F8
330
B9
100
AcDbEntity
  8
_U+30EC_U+30A4_U+30E4_U+30FC 1
370
     0
100
AcDbSpline
210
0.0
220
0.0
230
1.0
 70
    11
 71
     3
 72
    77
 73
    73
 74
     0
 42
0.0000000001
 43
0.0000000001
 12
1.0
 22
0.0
 32
0.0
 13
1.0
 23
0.0
 33
0.0
 40
0.0
 40
0.0
 40
0.0
 40
0.0
 40
1.0
 40
1.0
 40
1.0
 40
2.0
 40
2.0
 40
2.0
 40
3.0
 40
3.0
 40
3.0
 40
4.0
 40
4.0
 40
4.0
 40
5.0
 40
5.0
 40
5.0
 40
6.0
 40
6.0
 40
6.0
 40
7.0
 40
7.0
 40
7.0
 40
8.0
 40
8.0
 40
8.0
 40
9.0
 40
9.0
 40
9.0
 40
10.0
 40
10.0
 40
10.0
 40
11.0
 40
11.0
 40
11.0
 40
12.0
 40
12.0
 40
12.0
 40
13.0
 40
13.0
 40
13.0
 40
14.0
 40
14.0
 40
14.0
 40
15.0
 40
15.0
 40
15.0
 40
16.0
 40
16.0
 40
16.0
 40
17.0
 40
17.0
 40
17.0
 40
18.0
 40
18.0
 40
18.0
 40
19.0
 40
19.0
 40
19.0
 40
20.0
 40
20.0
 40
20.0
 40
21.0
 40
21.0
 40
21.0
 40
22.0
 40
22.0
 40
22.0
 40
23.0
 40
23.0
 40
23.0
 40
24.0
 40
24.0
 40
24.0
 40
24.0
 10
77.66382105263266
 20
-91.41285262471624
 30
0.0
 10
77.59388561428209
 20
-91.40871851013394
 30
0.0
 10
77.52601723322266
 20
-91.40871851013394
 30
0.0
 10
77.45849336171177
 20
-91.40871851013394
 30
0.0
 10
77.45849336171177
 20
-91.40871851013394
 30
0.0
 10
77.45849336171177
 20
-92.18283146566958
 30
0.0
 10
77.45849336171177
 20
-92.18283146566958
 30
0.0
 10
77.45849336171177
 20
-92.44741479893676
 30
0.0
 10
77.45642630442062
 20
-92.47704262010991
 30
0.0
 10
77.44988062299865
 20
-92.50667044128306
 30
0.0
 10
77.4161186872432
 20
-92.6396511270137
 30
0.0
 10
77.31448837042832
 20
-92.64826386572683
 30
0.0
 10
77.1391330102291
 20
-92.64826386572683
 30
0.0
 10
77.09882539305168
 20
-92.64826386572683
 30
0.0
 10
77.08194442517396
 20
-92.64826386572683
 30
0.0
 10
77.04163680799654
 20
-92.64412975114453
 30
0.0
 10
77.04163680799654
 20
-92.64412975114453
 30
0.0
 10
76.9169243514305
 20
-92.40297306717704
 30
0.0
 10
76.9169243514305
 20
-92.40297306717704
 30
0.0
 10
77.03336857883194
 20
-92.43466794564134
 30
0.0
 10
77.11570636092941
 20
-92.43466794564134
 30
0.0
 10
77.1391330102291
 20
-92.43466794564134
 30
0.0
 10
77.20872393903116
 20
-92.43466794564134
 30
0.0
 10
77.24283038433514
 20
-92.41778697776361
 30
0.0
 10
77.24696449891744
 20
-92.36059839270847
 30
0.0
 10
77.24696449891744
 20
-92.34785153941304
 30
0.0
 10
77.24903155620858
 20
-92.25069984672899
 30
0.0
 10
77.24903155620858
 20
-92.19351126167385
 30
0.0
 10
77.24903155620858
 20
-92.19351126167385
 30
0.0
 10
77.24903155620858
 20
-91.40630694329425
 30
0.0
 10
77.24903155620858
 20
-91.40630694329425
 30
0.0
 10
77.24903155620858
 20
-91.40630694329425
 30
0.0
 10
76.95482040176825
 20
-91.40630694329425
 30
0.0
 10
76.95482040176825
 20
-91.40630694329425
 30
0.0
 10
76.80909286274218
 20
-91.40630694329425
 30
0.0
 10
76.66302081416758
 20
-91.41285262471624
 30
0.0
 10
76.51936033243267
 20
-91.42559947801166
 30
0.0
 10
76.51936033243267
 20
-91.42559947801166
 30
0.0
 10
76.51936033243267
 20
-91.21820472979962
 30
0.0
 10
76.51936033243267
 20
-91.21820472979962
 30
0.0
 10
76.66922198604104
 20
-91.23095158309505
 30
0.0
 10
76.88729653025734
 20
-91.23508569767735
 30
0.0
 10
76.95482040176825
 20
-91.23508569767735
 30
0.0
 10
76.95482040176825
 20
-91.23508569767735
 30
0.0
 10
77.24903155620858
 20
-91.23508569767735
 30
0.0
 10
77.24903155620858
 20
-91.23508569767735
 30
0.0
 10
77.24696449891744
 20
-90.96636824982785
 30
0.0
 10
77.24696449891744
 20
-90.89023163960384
 30
0.0
 10
77.23835176020431
 20
-90.74209253373809
 30
0.0
 10
77.23835176020431
 20
-90.74209253373809
 30
0.0
 10
77.49638941204952
 20
-90.78033309362436
 30
0.0
 10
77.49638941204952
 20
-90.78033309362436
 30
0.0
 10
77.51120332263609
 20
-90.78240015091552
 30
0.0
 10
77.52601723322266
 20
-90.78860132278896
 30
0.0
 10
77.52601723322266
 20
-90.80996091479751
 30
0.0
 10
77.52601723322266
 20
-90.82890893996638
 30
0.0
 10
77.51981606134922
 20
-90.83097599725754
 30
0.0
 10
77.46262747629407
 20
-90.86473793301299
 30
0.0
 10
77.45849336171177
 20
-90.94328611007668
 30
0.0
 10
77.45849336171177
 20
-90.95810002066325
 30
0.0
 10
77.45849336171177
 20
-91.23508569767735
 30
0.0
 10
77.63626028875066
 20
-91.23095158309505
 30
0.0
 10
77.65520831391953
 20
-91.23095158309505
 30
0.0
 10
77.68897024967498
 20
-91.22647295896422
 30
0.0
 10
77.73995766285668
 20
-91.22233884438192
 30
0.0
 10
77.74409177743898
 20
-91.22027178709077
 30
0.0
 10
77.7885335091987
 20
-91.21820472979962
 30
0.0
 10
77.7885335091987
 20
-91.21820472979962
 30
0.0
 10
77.7885335091987
 20
-91.42559947801166
 30
0.0
 10
77.7885335091987
 20
-91.42559947801166
 30
0.0
 10
77.75890568802555
 20
-91.4235324207205
 30
0.0
 10
77.70378416026156
 20
-91.41491968200738
 30
0.0
 10
77.66382105263266
 20
-91.41285262471624
 30
0.0
  0
SPLINE
  5
F9
330
B9
100
AcDbEntity
  8
_U+30EC_U+30A4_U+30E4_U+30FC 1
370
     0
100
AcDbSpline
210
0.0
220
0.0
230
1.0
 70
    11
 71
     3
 72
    20
 73
    16
 74
     0
 42
0.0000000001
 43
0.0000000001
 12
1.0
 22
0.0
 32
0.0
 13
1.0
 23
0.0
 33
0.0
 40
0.0
 40
0.0
 40
0.0
 40
0.0
 40
1.0
 40
1.0
 40
1.0
 40
2.0
 40
2.0
 40
2.0
 40
3.0
 40
3.0
 40
3.0
 40
4.0
 40
4.0
 40
4.0
 40
5.0
 40
5.0
 40
5.0
 40
5.0
 10
76.8934977021308
 20
-92.13838973390985
 30
0.0
 10
76.84698891307993
 20
-91.96062280687096
 30
0.0
 10
76.74983722039588
 20
-91.81902938242719
 30
0.0
 10
76.61031085324326
 20
-91.70913083644773
 30
0.0
 10
76.61031085324326
 20
-91.70913083644773
 30
0.0
 10
76.7708523028559
 20
-91.59475366633743
 30
0.0
 10
76.7708523028559
 20
-91.59475366633743
 30
0.0
 10
76.83217500249334
 20
-91.637128340806
 30
0.0
 10
76.87248261967078
 20
-91.67089027656145
 30
0.0
 10
76.94861922989479
 20
-91.77872176524977
 30
0.0
 10
77.02888995470111
 20
-91.89516599265121
 30
0.0
 10
77.05024954670967
 20
-91.94787595357553
 30
0.0
 10
77.07539874375199
 20
-92.0136772773438
 30
0.0
 10
77.07539874375199
 20
-92.0136772773438
 30
0.0
 10
76.8934977021308
 20
-92.13838973390985
 30
0.0
 10
76.8934977021308
 20
-92.13838973390985
 30
0.0
  0
HATCH
  5
FA
330
B9
100
AcDbEntity
  8
_U+30EC_U+30A4_U+30E4_U+30FC 1
 62
   179
420
  2234388
100
AcDbHatch
 10
0.0
 20
0.0
 30
0.0
210
0.0
220
0.0
230
1.0
  2
SOLID
 70
     1
 71
     0
 91
        3
 92
        1
 93
        1
 72
     4
 94
        3
 73
     0
 74
     1
 95
       53
 96
       49
 40
0.0
 40
0.0
 40
0.0
 40
0.0
 40
1.0
 40
1.0
 40
1.0
 40
2.0
 40
2.0
 40
2.0
 40
3.0
 40
3.0
 40
3.0
 40
4.0
 40
4.0
 40
4.0
 40
5.0
 40
5.0
 40
5.0
 40
6.0
 40
6.0
 40
6.0
 40
7.0
 40
7.0
 40
7.0
 40
8.0
 40
8.0
 40
8.0
 40
9.0
 40
9.0
 40
9.0
 40
10.0
 40
10.0
 40
10.0
 40
11.0
 40
11.0
 40
11.0
 40
12.0
 40
12.0
 40
12.0
 40
13.0
 40
13.0
 40
13.0
 40
14.0
 40
14.0
 40
14.0
 40
15.0
 40
15.0
 40
15.0
 40
16.0
 40
16.0
 40
16.0
 40
16.0
 10
76.51281465101069
 20
-90.91365828890353
 10
76.44529077949979
 20
-91.06593150935157
 10
76.40291610503122
 20
-91.14413517686675
 10
76.36467554514495
 20
-91.21165904837764
 10
76.40705021961352
 20
-91.23301864038619
 10
76.41118433419582
 20
-91.23508569767735
 10
76.41118433419582
 20
-91.24989960826392
 10
76.41118433419582
 20
-91.26264646155934
 10
76.37742239844037
 20
-91.29640839731479
 10
76.36674260243609
 20
-91.30502113602792
 10
76.36467554514495
 20
-91.50173608823569
 10
76.36467554514495
 20
-91.5227511706957
 10
76.36467554514495
 20
-91.65607636597487
 10
76.36260848785379
 20
-91.6688232192703
 10
76.36260848785379
 20
-91.68363712985688
 10
76.36260848785379
 20
-91.69845104044344
 10
76.36260848785379
 20
-91.69845104044344
 10
76.36260848785379
 20
-92.23347436930274
 10
76.36260848785379
 20
-92.23347436930274
 10
76.36260848785379
 20
-92.30547686494447
 10
76.36674260243609
 20
-92.54043237703851
 10
76.37535534114922
 20
-92.65033092301798
 10
76.37535534114922
 20
-92.65033092301798
 10
76.13213159989058
 20
-92.65033092301798
 10
76.13213159989058
 20
-92.65033092301798
 10
76.15521373964175
 20
-92.49185653069648
 10
76.16175942106373
 20
-92.25069984672899
 10
76.16175942106373
 20
-92.22934025472044
 10
76.16175942106373
 20
-92.22934025472044
 10
76.16175942106373
 20
-91.51207137469143
 10
76.16175942106373
 20
-91.51207137469143
 10
76.07080890025314
 20
-91.62644854480172
 10
76.00948620061568
 20
-91.68570418714802
 10
75.96711152614712
 20
-91.7280788616166
 10
75.96711152614712
 20
-91.7280788616166
 10
75.7765977458128
 20
-91.59061955175513
 10
75.7765977458128
 20
-91.59061955175513
 10
76.05806204695772
 20
-91.37461206482996
 10
76.25064288458317
 20
-91.06593150935157
 10
76.36260848785379
 20
-90.72934568044266
 10
76.36260848785379
 20
-90.72934568044266
 10
76.58275008936126
 20
-90.84372285055296
 10
76.58275008936126
 20
-90.84372285055296
 10
76.59549694265668
 20
-90.8499240224264
 10
76.60376517182128
 20
-90.85440264655723
 10
76.60376517182128
 20
-90.86921655714382
 10
76.60376517182128
 20
-90.89436575418614
 10
76.58688420394355
 20
-90.89884437831697
 10
76.51281465101069
 20
-90.91365828890353
 97
        0
 97
        0
 92
        1
 93
        1
 72
     4
 94
        3
 73
     0
 74
     1
 95
       77
 96
       73
 40
0.0
 40
0.0
 40
0.0
 40
0.0
 40
1.0
 40
1.0
 40
1.0
 40
2.0
 40
2.0
 40
2.0
 40
3.0
 40
3.0
 40
3.0
 40
4.0
 40
4.0
 40
4.0
 40
5.0
 40
5.0
 40
5.0
 40
6.0
 40
6.0
 40
6.0
 40
7.0
 40
7.0
 40
7.0
 40
8.0
 40
8.0
 40
8.0
 40
9.0
 40
9.0
 40
9.0
 40
10.0
 40
10.0
 40
10.0
 40
11.0
 40
11.0
 40
11.0
 40
12.0
 40
12.0
 40
12.0
 40
13.0
 40
13.0
 40
13.0
 40
14.0
 40
14.0
 40
14.0
 40
15.0
 40
15.0
 40
15.0
 40
16.0
 40
16.0
 40
16.0
 40
17.0
 40
17.0
 40
17.0
 40
18.0
 40
18.0
 40
18.0
 40
19.0
 40
19.0
 40
19.0
 40
20.0
 40
20.0
 40
20.0
 40
21.0
 40
21.0
 40
21.0
 40
22.0
 40
22.0
 40
22.0
 40
23.0
 40
23.0
 40
23.0
 40
24.0
 40
24.0
 40
24.0
 40
24.0
 10
77.66382105263266
 20
-91.41285262471624
 10
77.59388561428209
 20
-91.40871851013394
 10
77.52601723322266
 20
-91.40871851013394
 10
77.45849336171177
 20
-91.40871851013394
 10
77.45849336171177
 20
-91.40871851013394
 10
77.45849336171177
 20
-92.18283146566958
 10
77.45849336171177
 20
-92.18283146566958
 10
77.45849336171177
 20
-92.44741479893676
 10
77.45642630442062
 20
-92.47704262010991
 10
77.44988062299865
 20
-92.50667044128306
 10
77.4161186872432
 20
-92.6396511270137
 10
77.31448837042832
 20
-92.64826386572683
 10
77.1391330102291
 20
-92.64826386572683
 10
77.09882539305168
 20
-92.64826386572683
 10
77.08194442517396
 20
-92.64826386572683
 10
77.04163680799654
 20
-92.64412975114453
 10
77.04163680799654
 20
-92.64412975114453
 10
76.9169243514305
 20
-92.40297306717704
 10
76.9169243514305
 20
-92.40297306717704
 10
77.03336857883194
 20
-92.43466794564134
 10
77.11570636092941
 20
-92.43466794564134
 10
77.1391330102291
 20
-92.43466794564134
 10
77.20872393903116
 20
-92.43466794564134
 10
77.24283038433514
 20
-92.41778697776361
 10
77.24696449891744
 20
-92.36059839270847
 10
77.24696449891744
 20
-92.34785153941304
 10
77.24903155620858
 20
-92.25069984672899
 10
77.24903155620858
 20
-92.19351126167385
 10
77.24903155620858
 20
-92.19351126167385
 10
77.24903155620858
 20
-91.40630694329425
 10
77.24903155620858
 20
-91.40630694329425
 10
77.24903155620858
 20
-91.40630694329425
 10
76.95482040176825
 20
-91.40630694329425
 10
76.95482040176825
 20
-91.40630694329425
 10
76.80909286274218
 20
-91.40630694329425
 10
76.66302081416758
 20
-91.41285262471624
 10
76.51936033243267
 20
-91.42559947801166
 10
76.51936033243267
 20
-91.42559947801166
 10
76.51936033243267
 20
-91.21820472979962
 10
76.51936033243267
 20
-91.21820472979962
 10
76.66922198604104
 20
-91.23095158309505
 10
76.88729653025734
 20
-91.23508569767735
 10
76.95482040176825
 20
-91.23508569767735
 10
76.95482040176825
 20
-91.23508569767735
 10
77.24903155620858
 20
-91.23508569767735
 10
77.24903155620858
 20
-91.23508569767735
 10
77.24696449891744
 20
-90.96636824982785
 10
77.24696449891744
 20
-90.89023163960384
 10
77.23835176020431
 20
-90.74209253373809
 10
77.23835176020431
 20
-90.74209253373809
 10
77.49638941204952
 20
-90.78033309362436
 10
77.49638941204952
 20
-90.78033309362436
 10
77.51120332263609
 20
-90.78240015091552
 10
77.52601723322266
 20
-90.78860132278896
 10
77.52601723322266
 20
-90.80996091479751
 10
77.52601723322266
 20
-90.82890893996638
 10
77.51981606134922
 20
-90.83097599725754
 10
77.46262747629407
 20
-90.86473793301299
 10
77.45849336171177
 20
-90.94328611007668
 10
77.45849336171177
 20
-90.95810002066325
 10
77.45849336171177
 20
-91.23508569767735
 10
77.63626028875066
 20
-91.23095158309505
 10
77.65520831391953
 20
-91.23095158309505
 10
77.68897024967498
 20
-91.22647295896422
 10
77.73995766285668
 20
-91.22233884438192
 10
77.74409177743898
 20
-91.22027178709077
 10
77.7885335091987
 20
-91.21820472979962
 10
77.7885335091987
 20
-91.21820472979962
 10
77.7885335091987
 20
-91.42559947801166
 10
77.7885335091987
 20
-91.42559947801166
 10
77.75890568802555
 20
-91.4235324207205
 10
77.70378416026156
 20
-91.41491968200738
 10
77.66382105263266
 20
-91.41285262471624
 97
        0
 97
        0
 92
        1
 93
        1
 72
     4
 94
        3
 73
     0
 74
     1
 95
       20
 96
       16
 40
0.0
 40
0.0
 40
0.0
 40
0.0
 40
1.0
 40
1.0
 40
1.0
 40
2.0
 40
2.0
 40
2.0
 40
3.0
 40
3.0
 40
3.0
 40
4.0
 40
4.0
 40
4.0
 40
5.0
 40
5.0
 40
5.0
 40
5.0
 10
76.8934977021308
 20
-92.13838973390985
 10
76.84698891307993
 20
-91.96062280687096
 10
76.74983722039588
 20
-91.81902938242719
 10
76.61031085324326
 20
-91.70913083644773
 10
76.61031085324326
 20
-91.70913083644773
 10
76.7708523028559
 20
-91.59475366633743
 10
76.7708523028559
 20
-91.59475366633743
 10
76.83217500249334
 20
-91.637128340806
 10
76.87248261967078
 20
-91.67089027656145
 10
76.94861922989479
 20
-91.77872176524977
 10
77.02888995470111
 20
-91.89516599265121
 10
77.05024954670967
 20
-91.94787595357553
 10
77.07539874375199
 20
-92.0136772773438
 10
77.07539874375199
 20
-92.0136772773438
 10
76.8934977021308
 20
-92.13838973390985
 10
76.8934977021308
 20
-92.13838973390985
 97
        0
 97
        0
 75
     2
 76
     1
 98
        0
  0
ENDBLK
  5
BC
330
B9
100
AcDbEntity
  8
0
100
AcDbBlockEnd
  0
ENDSEC
  0
SECTION
  2
ENTITIES
  0
SPLINE
  5
41
330
1F
100
AcDbEntity
  8
_U+30EC_U+30A4_U+30E4_U+30FC 1
 62
     7
420
 16777215
370
     9
100
AcDbSpline
210
0.0
220
0.0
230
1.0
 70
    11
 71
     3
 72
    17
 73
    13
 74
     0
 42
0.0000000001
 43
0.0000000001
 12
1.0
 22
0.0
 32
0.0
 13
1.0
 23
0.0
 33
0.0
 40
0.0
 40
0.0
 40
0.0
 40
0.0
 40
1.0
 40
1.0
 40
1.0
 40
2.0
 40
2.0
 40
2.0
 40
3.0
 40
3.0
 40
3.0
 40
4.0
 40
4.0
 40
4.0
 40
4.0
 10
81.16403987377728
 20
-83.44915997913756
 30
0.0
 10
81.16403987377728
 20
-83.39405609026265
 30
0.0
 10
81.11923709714252
 20
-83.34925331249593
 30
0.0
 10
81.06413320965945
 20
-83.34925331249593
 30
0.0
 10
81.0089940443995
 20
-83.34925331249593
 30
0.0
 10
80.9642265455416
 20
-83.39405609026265
 30
0.0
 10
80.9642265455416
 20
-83.44915997913756
 30
0.0
 10
80.9642265455416
 20
-83.50429914579064
 30
0.0
 10
81.0089940443995
 20
-83.54906664577952
 30
0.0
 10
81.06413320965945
 20
-83.54906664577952
 30
0.0
 10
81.11923709714252
 20
-83.54906664577952
 30
0.0
 10
81.16403987377728
 20
-83.50429914579064
 30
0.0
 10
81.16403987377728
 20
-83.44915997913756
 30
0.0
  0
SPLINE
  5
42
330
1F
100
AcDbEntity
  8
_U+30EC_U+30A4_U+30E4_U+30FC 1
 62
     7
420
 16777215
370
     9
100
AcDbSpline
210
0.0
220
0.0
230
1.0
 70
    11
 71
     3
 72
    17
 73
    13
 74
     0
 42
0.0000000001
 43
0.0000000001
 12
1.0
 22
0.0
 32
0.0
 13
1.0
 23
0.0
 33
0.0
 40
0.0
 40
0.0
 40
0.0
 40
0.0
 40
1.0
 40
1.0
 40
1.0
 40
2.0
 40
2.0
 40
2.0
 40
3.0
 40
3.0
 40
3.0
 40
4.0
 40
4.0
 40
4.0
 40
4.0
 10
81.16403987377728
 20
-84.44893220111011
 30
0.0
 10
81.16403987377728
 20
-84.39382831223487
 30
0.0
 10
81.11923709714252
 20
-84.34902553446814
 30
0.0
 10
81.06413320965945
 20
-84.34902553446814
 30
0.0
 10
81.0089940443995
 20
-84.34902553446814
 30
0.0
 10
80.9642265455416
 20
-84.39382831223487
 30
0.0
 10
80.9642265455416
 20
-84.44893220111011
 30
0.0
 10
80.9642265455416
 20
-84.50407136776286
 30
0.0
 10
81.0089940443995
 20
-84.54883886775174
 30
0.0
 10
81.06413320965945
 20
-84.54883886775174
 30
0.0
 10
81.11923709714252
 20
-84.54883886775174
 30
0.0
 10
81.16403987377728
 20
-84.50407136776286
 30
0.0
 10
81.16403987377728
 20
-84.44893220111011
 30
0.0
  0
SPLINE
  5
43
330
1F
100
AcDbEntity
  8
_U+30EC_U+30A4_U+30E4_U+30FC 1
 62
     7
420
 16777215
370
     9
100
AcDbSpline
210
0.0
220
0.0
230
1.0
 70
    11
 71
     3
 72
    17
 73
    13
 74
     0
 42
0.0000000001
 43
0.0000000001
 12
1.0
 22
0.0
 32
0.0
 13
1.0
 23
0.0
 33
0.0
 40
0.0
 40
0.0
 40
0.0
 40
0.0
 40
1.0
 40
1.0
 40
1.0
 40
2.0
 40
2.0
 40
2.0
 40
3.0
 40
3.0
 40
3.0
 40
4.0
 40
4.0
 40
4.0
 40
4.0
 10
81.16403987377728
 20
-94.42111330972821
 30
0.0
 10
81.16403987377728
 20
-94.36597414307514
 30
0.0
 10
81.11923709714252
 20
-94.32120664308658
 30
0.0
 10
81.06413320965945
 20
-94.32120664308658
 30
0.0
 10
81.0089940443995
 20
-94.32120664308658
 30
0.0
 10
80.9642265455416
 20
-94.36597414307514
 30
0.0
 10
80.9642265455416
 20
-94.42111330972821
 30
0.0
 10
80.9642265455416
 20
-94.47621719860314
 30
0.0
 10
81.0089940443995
 20
-94.52101997636986
 30
0.0
 10
81.06413320965945
 20
-94.52101997636986
 30
0.0
 10
81.11923709714252
 20
-94.52101997636986
 30
0.0
 10
81.16403987377728
 20
-94.47621719860314
 30
0.0
 10
81.16403987377728
 20
-94.42111330972821
 30
0.0
  0
POLYLINE
  5
44
330
1F
100
AcDbEntity
  8
_U+30EC_U+30A4_U+30E4_U+30FC 1
 62
     7
420
 16777215
370
     9
100
AcDb2dPolyline
 66
     1
 10
0.0
 20
0.0
 30
0.0
  0
VERTEX
  5
45
330
44
100
AcDbEntity
  8
_U+30EC_U+30A4_U+30E4_U+30FC 1
 62
     7
420
 16777215
370
     9
100
AcDbVertex
100
AcDb2dVertex
 10
81.06413320965945
 20
-83.64897331242116
 30
0.0
  0
VERTEX
  5
46
330
44
100
AcDbEntity
  8
_U+30EC_U+30A4_U+30E4_U+30FC 1
 62
     7
420
 16777215
370
     9
100
AcDbVertex
100
AcDb2dVertex
 10
81.06413320965945
 20
-79.87834331336381
 30
0.0
  0
SEQEND
  5
47
330
44
100
AcDbEntity
  8
_U+30EC_U+30A4_U+30E4_U+30FC 1
 62
     7
420
 16777215
370
     9
  0
POLYLINE
  5
48
330
1F
100
AcDbEntity
  8
_U+30EC_U+30A4_U+30E4_U+30FC 1
 62
     7
420
 16777215
370
     9
100
AcDb2dPolyline
 66
     1
 10
0.0
 20
0.0
 30
0.0
  0
VERTEX
  5
49
330
48
100
AcDbEntity
  8
_U+30EC_U+30A4_U+30E4_U+30FC 1
 62
     7
420
 16777215
370
     9
100
AcDbVertex
100
AcDb2dVertex
 10
81.06413320965945
 20
-83.44915997913756
 30
0.0
  0
VERTEX
  5
4A
330
48
100
AcDbEntity
  8
_U+30EC_U+30A4_U+30E4_U+30FC 1
 62
     7
420
 16777215
370
     9
100
AcDbVertex
100
AcDb2dVertex
 10
81.06413320965945
 20
-84.44893220111011
 30
0.0
  0
SEQEND
  5
4B
330
48
100
AcDbEntity
  8
_U+30EC_U+30A4_U+30E4_U+30FC 1
 62
     7
420
 16777215
370
     9
  0
POLYLINE
  5
4C
330
1F
100
AcDbEntity
  8
_U+30EC_U+30A4_U+30E4_U+30FC 1
 62
     7
420
 16777215
370
     9
100
AcDb2dPolyline
 66
     1
 10
0.0
 20
0.0
 30
0.0
  0
VERTEX
  5
4D
330
4C
100
AcDbEntity
  8
_U+30EC_U+30A4_U+30E4_U+30FC 1
 62
     7
420
 16777215
370
     9
100
AcDbVertex
100
AcDb2dVertex
 10
79.60409185801932
 20
-83.44915997913756
 30
0.0
  0
VERTEX
  5
4E
330
4C
100
AcDbEntity
  8
_U+30EC_U+30A4_U+30E4_U+30FC 1
 62
     7
420
 16777215
370
     9
100
AcDbVertex
100
AcDb2dVertex
 10
82.06390540637535
 20
-83.44915997913756
 30
0.0
  0
SEQEND
  5
4F
330
4C
100
AcDbEntity
  8
_U+30EC_U+30A4_U+30E4_U+30FC 1
 62
     7
420
 16777215
370
     9
  0
POLYLINE
  5
50
330
1F
100
AcDbEntity
  8
_U+30EC_U+30A4_U+30E4_U+30FC 1
 62
     7
420
 16777215
370
     9
100
AcDb2dPolyline
 66
     1
 10
0.0
 20
0.0
 30
0.0
  0
VERTEX
  5
51
330
50
100
AcDbEntity
  8
_U+30EC_U+30A4_U+30E4_U+30FC 1
 62
     7
420
 16777215
370
     9
100
AcDbVertex
100
AcDb2dVertex
 10
79.60409185801932
 20
-84.44893220111011
 30
0.0
  0
VERTEX
  5
52
330
50
100
AcDbEntity
  8
_U+30EC_U+30A4_U+30E4_U+30FC 1
 62
     7
420
 16777215
370
     9
100
AcDbVertex
100
AcDb2dVertex
 10
82.06390540637535
 20
-84.44893220111011
 30
0.0
  0
SEQEND
  5
53
330
50
100
AcDbEntity
  8
_U+30EC_U+30A4_U+30E4_U+30FC 1
 62
     7
420
 16777215
370
     9
  0
INSERT
  5
55
330
1F
100
AcDbEntity
  8
_U+30EC_U+30A4_U+30E4_U+30FC 1
100
AcDbBlockReference
  2
block 2
 10
0.0
 20
0.0
 30
0.0
  0
INSERT
  5
5B
330
1F
100
AcDbEntity
  8
_U+30EC_U+30A4_U+30E4_U+30FC 1
100
AcDbBlockReference
  2
block 3
 10
0.0
 20
0.0
 30
0.0
  0
INSERT
  5
62
330
1F
100
AcDbEntity
  8
_U+30EC_U+30A4_U+30E4_U+30FC 1
100
AcDbBlockReference
  2
block 4
 10
0.0
 20
0.0
 30
0.0
  0
INSERT
  5
6A
330
1F
100
AcDbEntity
  8
_U+30EC_U+30A4_U+30E4_U+30FC 1
100
AcDbBlockReference
  2
block 5
 10
0.0
 20
0.0
 30
0.0
  0
INSERT
  5
72
330
1F
100
AcDbEntity
  8
_U+30EC_U+30A4_U+30E4_U+30FC 1
100
AcDbBlockReference
  2
block 6
 10
0.0
 20
0.0
 30
0.0
  0
SPLINE
  5
77
330
1F
100
AcDbEntity
  8
_U+30EC_U+30A4_U+30E4_U+30FC 1
 62
     7
420
 16777215
370
     9
100
AcDbSpline
210
0.0
220
0.0
230
1.0
 70
    11
 71
     3
 72
    17
 73
    13
 74
     0
 42
0.0000000001
 43
0.0000000001
 12
1.0
 22
0.0
 32
0.0
 13
1.0
 23
0.0
 33
0.0
 40
0.0
 40
0.0
 40
0.0
 40
0.0
 40
1.0
 40
1.0
 40
1.0
 40
2.0
 40
2.0
 40
2.0
 40
3.0
 40
3.0
 40
3.0
 40
4.0
 40
4.0
 40
4.0
 40
4.0
 10
45.17622718079176
 20
-99.24492608629957
 30
0.0
 10
45.17622718079176
 20
-99.18911664186913
 30
0.0
 10
45.13142440415699
 20
-99.14434914188057
 30
0.0
 10
45.07632051667392
 20
-99.14434914188057
 30
0.0
 10
45.02118135141397
 20
-99.14434914188057
 30
0.0
 10
44.97641385255609
 20
-99.18911664186913
 30
0.0
 10
44.97641385255609
 20
-99.24492608629957
 30
0.0
 10
44.97641385255609
 20
-99.30006525295265
 30
0.0
 10
45.02118135141397
 20
-99.34483275294185
 30
0.0
 10
45.07632051667392
 20
-99.34483275294185
 30
0.0
 10
45.13142440415699
 20
-99.34483275294185
 30
0.0
 10
45.17622718079176
 20
-99.30006525295265
 30
0.0
 10
45.17622718079176
 20
-99.24492608629957
 30
0.0
  0
SPLINE
  5
78
330
1F
100
AcDbEntity
  8
_U+30EC_U+30A4_U+30E4_U+30FC 1
 62
     7
420
 16777215
370
     9
100
AcDbSpline
210
0.0
220
0.0
230
1.0
 70
    11
 71
     3
 72
    17
 73
    13
 74
     0
 42
0.0000000001
 43
0.0000000001
 12
1.0
 22
0.0
 32
0.0
 13
1.0
 23
0.0
 33
0.0
 40
0.0
 40
0.0
 40
0.0
 40
0.0
 40
1.0
 40
1.0
 40
1.0
 40
2.0
 40
2.0
 40
2.0
 40
3.0
 40
3.0
 40
3.0
 40
4.0
 40
4.0
 40
4.0
 40
4.0
 10
54.16345250706409
 20
-99.24492608629957
 30
0.0
 10
54.16345250706409
 20
-99.18911664186913
 30
0.0
 10
54.11864973042933
 20
-99.14434914188057
 30
0.0
 10
54.06354720870641
 20
-99.14434914188057
 30
0.0
 10
54.00840667768631
 20
-99.14434914188057
 30
0.0
 10
53.96363917882842
 20
-99.18911664186913
 30
0.0
 10
53.96363917882842
 20
-99.24492608629957
 30
0.0
 10
53.96363917882842
 20
-99.30006525295265
 30
0.0
 10
54.00840667768631
 20
-99.34483275294185
 30
0.0
 10
54.06354720870641
 20
-99.34483275294185
 30
0.0
 10
54.11864973042933
 20
-99.34483275294185
 30
0.0
 10
54.16345250706409
 20
-99.30006525295265
 30
0.0
 10
54.16345250706409
 20
-99.24492608629957
 30
0.0
  0
POLYLINE
  5
79
330
1F
100
AcDbEntity
  8
_U+30EC_U+30A4_U+30E4_U+30FC 1
 62
     7
420
 16777215
370
     9
100
AcDb2dPolyline
 66
     1
 10
0.0
 20
0.0
 30
0.0
  0
VERTEX
  5
7A
330
79
100
AcDbEntity
  8
_U+30EC_U+30A4_U+30E4_U+30FC 1
 62
     7
420
 16777215
370
     9
100
AcDbVertex
100
AcDb2dVertex
 10
45.07632051667392
 20
-99.24492608629957
 30
0.0
  0
VERTEX
  5
7B
330
79
100
AcDbEntity
  8
_U+30EC_U+30A4_U+30E4_U+30FC 1
 62
     7
420
 16777215
370
     9
100
AcDbVertex
100
AcDb2dVertex
 10
71.96941649724056
 20
-99.24492608629957
 30
0.0
  0
SEQEND
  5
7C
330
79
100
AcDbEntity
  8
_U+30EC_U+30A4_U+30E4_U+30FC 1
 62
     7
420
 16777215
370
     9
  0
POLYLINE
  5
7D
330
1F
100
AcDbEntity
  8
_U+30EC_U+30A4_U+30E4_U+30FC 1
 62
     7
420
 16777215
370
     9
100
AcDb2dPolyline
 66
     1
 10
0.0
 20
0.0
 30
0.0
  0
VERTEX
  5
7E
330
7D
100
AcDbEntity
  8
_U+30EC_U+30A4_U+30E4_U+30FC 1
 62
     7
420
 16777215
370
     9
100
AcDbVertex
100
AcDb2dVertex
 10
45.07632051667392
 20
-97.78488469777587
 30
0.0
  0
VERTEX
  5
7F
330
7D
100
AcDbEntity
  8
_U+30EC_U+30A4_U+30E4_U+30FC 1
 62
     7
420
 16777215
370
     9
100
AcDbVertex
100
AcDb2dVertex
 10
45.07632051667392
 20
-100.2446983082721
 30
0.0
  0
SEQEND
  5
80
330
7D
100
AcDbEntity
  8
_U+30EC_U+30A4_U+30E4_U+30FC 1
 62
     7
420
 16777215
370
     9
  0
POLYLINE
  5
81
330
1F
100
AcDbEntity
  8
_U+30EC_U+30A4_U+30E4_U+30FC 1
 62
     7
420
 16777215
370
     9
100
AcDb2dPolyline
 66
     1
 10
0.0
 20
0.0
 30
0.0
  0
VERTEX
  5
82
330
81
100
AcDbEntity
  8
_U+30EC_U+30A4_U+30E4_U+30FC 1
 62
     7
420
 16777215
370
     9
100
AcDbVertex
100
AcDb2dVertex
 10
54.06354720870641
 20
-97.78488469777587
 30
0.0
  0
VERTEX
  5
83
330
81
100
AcDbEntity
  8
_U+30EC_U+30A4_U+30E4_U+30FC 1
 62
     7
420
 16777215
370
     9
100
AcDbVertex
100
AcDb2dVertex
 10
54.06354720870641
 20
-100.2446983082721
 30
0.0
  0
SEQEND
  5
84
330
81
100
AcDbEntity
  8
_U+30EC_U+30A4_U+30E4_U+30FC 1
 62
     7
420
 16777215
370
     9
  0
SPLINE
  5
85
330
1F
100
AcDbEntity
  8
_U+30EC_U+30A4_U+30E4_U+30FC 1
 62
     7
420
 16777215
370
     9
100
AcDbSpline
210
0.0
220
0.0
230
1.0
 70
    11
 71
     3
 72
    17
 73
    13
 74
     0
 42
0.0000000001
 43
0.0000000001
 12
1.0
 22
0.0
 32
0.0
 13
1.0
 23
0.0
 33
0.0
 40
0.0
 40
0.0
 40
0.0
 40
0.0
 40
1.0
 40
1.0
 40
1.0
 40
2.0
 40
2.0
 40
2.0
 40
3.0
 40
3.0
 40
3.0
 40
4.0
 40
4.0
 40
4.0
 40
4.0
 10
57.1634393749725
 20
-99.24492608629957
 30
0.0
 10
57.1634393749725
 20
-99.18911664186913
 30
0.0
 10
57.11863659833774
 20
-99.14434914188057
 30
0.0
 10
57.06353271085466
 20
-99.14434914188057
 30
0.0
 10
57.00839354559471
 20
-99.14434914188057
 30
0.0
 10
56.96362604673683
 20
-99.18911664186913
 30
0.0
 10
56.96362604673683
 20
-99.24492608629957
 30
0.0
 10
56.96362604673683
 20
-99.30006525295265
 30
0.0
 10
57.00839354559471
 20
-99.34483275294185
 30
0.0
 10
57.06353271085466
 20
-99.34483275294185
 30
0.0
 10
57.11863659833774
 20
-99.34483275294185
 30
0.0
 10
57.1634393749725
 20
-99.30006525295265
 30
0.0
 10
57.1634393749725
 20
-99.24492608629957
 30
0.0
  0
POLYLINE
  5
86
330
1F
100
AcDbEntity
  8
_U+30EC_U+30A4_U+30E4_U+30FC 1
 62
     7
420
 16777215
370
     9
100
AcDb2dPolyline
 66
     1
 10
0.0
 20
0.0
 30
0.0
  0
VERTEX
  5
87
330
86
100
AcDbEntity
  8
_U+30EC_U+30A4_U+30E4_U+30FC 1
 62
     7
420
 16777215
370
     9
100
AcDbVertex
100
AcDb2dVertex
 10
57.06353271085466
 20
-97.78488469777587
 30
0.0
  0
VERTEX
  5
88
330
86
100
AcDbEntity
  8
_U+30EC_U+30A4_U+30E4_U+30FC 1
 62
     7
420
 16777215
370
     9
100
AcDbVertex
100
AcDb2dVertex
 10
57.06353271085466
 20
-100.2446983082721
 30
0.0
  0
SEQEND
  5
89
330
86
100
AcDbEntity
  8
_U+30EC_U+30A4_U+30E4_U+30FC 1
 62
     7
420
 16777215
370
     9
  0
SPLINE
  5
8A
330
1F
100
AcDbEntity
  8
_U+30EC_U+30A4_U+30E4_U+30FC 1
 62
     7
420
 16777215
370
     9
100
AcDbSpline
210
0.0
220
0.0
230
1.0
 70
    11
 71
     3
 72
    17
 73
    13
 74
     0
 42
0.0000000001
 43
0.0000000001
 12
1.0
 22
0.0
 32
0.0
 13
1.0
 23
0.0
 33
0.0
 40
0.0
 40
0.0
 40
0.0
 40
0.0
 40
1.0
 40
1.0
 40
1.0
 40
2.0
 40
2.0
 40
2.0
 40
3.0
 40
3.0
 40
3.0
 40
4.0
 40
4.0
 40
4.0
 40
4.0
 10
72.16372649228329
 20
-99.24492608629957
 30
0.0
 10
72.16372649228329
 20
-99.18911664186913
 30
0.0
 10
72.11892371564852
 20
-99.14434914188057
 30
0.0
 10
72.06381982816545
 20
-99.14434914188057
 30
0.0
 10
72.0086806629055
 20
-99.14434914188057
 30
0.0
 10
71.96391316404763
 20
-99.18911664186913
 30
0.0
 10
71.96391316404763
 20
-99.24492608629957
 30
0.0
 10
71.96391316404763
 20
-99.30006525295265
 30
0.0
 10
72.0086806629055
 20
-99.34483275294185
 30
0.0
 10
72.06381982816545
 20
-99.34483275294185
 30
0.0
 10
72.11892371564852
 20
-99.34483275294185
 30
0.0
 10
72.16372649228329
 20
-99.30006525295265
 30
0.0
 10
72.16372649228329
 20
-99.24492608629957
 30
0.0
  0
POLYLINE
  5
8B
330
1F
100
AcDbEntity
  8
_U+30EC_U+30A4_U+30E4_U+30FC 1
 62
     7
420
 16777215
370
     9
100
AcDb2dPolyline
 66
     1
 10
0.0
 20
0.0
 30
0.0
  0
VERTEX
  5
8C
330
8B
100
AcDbEntity
  8
_U+30EC_U+30A4_U+30E4_U+30FC 1
 62
     7
420
 16777215
370
     9
100
AcDbVertex
100
AcDb2dVertex
 10
72.06381982816545
 20
-97.78488469777587
 30
0.0
  0
VERTEX
  5
8D
330
8B
100
AcDbEntity
  8
_U+30EC_U+30A4_U+30E4_U+30FC 1
 62
     7
420
 16777215
370
     9
100
AcDbVertex
100
AcDb2dVertex
 10
72.06381982816545
 20
-100.2446983082721
 30
0.0
  0
SEQEND
  5
8E
330
8B
100
AcDbEntity
  8
_U+30EC_U+30A4_U+30E4_U+30FC 1
 62
     7
420
 16777215
370
     9
  0
SPLINE
  5
8F
330
1F
100
AcDbEntity
  8
_U+30EC_U+30A4_U+30E4_U+30FC 1
 62
     7
420
 16777215
370
     9
100
AcDbSpline
210
0.0
220
0.0
230
1.0
 70
    11
 71
     3
 72
    17
 73
    13
 74
     0
 42
0.0000000001
 43
0.0000000001
 12
1.0
 22
0.0
 32
0.0
 13
1.0
 23
0.0
 33
0.0
 40
0.0
 40
0.0
 40
0.0
 40
0.0
 40
1.0
 40
1.0
 40
1.0
 40
2.0
 40
2.0
 40
2.0
 40
3.0
 40
3.0
 40
3.0
 40
4.0
 40
4.0
 40
4.0
 40
4.0
 10
45.17622718079176
 20
-80.74889303536845
 30
0.0
 10
45.17622718079176
 20
-80.69343636871545
 30
0.0
 10
45.13142440415699
 20
-80.64866886872657
 30
0.0
 10
45.07632051667392
 20
-80.64866886872657
 30
0.0
 10
45.02118135141397
 20
-80.64866886872657
 30
0.0
 10
44.97641385255609
 20
-80.69343636871545
 30
0.0
 10
44.97641385255609
 20
-80.74889303536845
 30
0.0
 10
44.97641385255609
 20
-80.8040322020212
 30
0.0
 10
45.02118135141397
 20
-80.8487997020101
 30
0.0
 10
45.07632051667392
 20
-80.8487997020101
 30
0.0
 10
45.13142440415699
 20
-80.8487997020101
 30
0.0
 10
45.17622718079176
 20
-80.8040322020212
 30
0.0
 10
45.17622718079176
 20
-80.74889303536845
 30
0.0
  0
POLYLINE
  5
90
330
1F
100
AcDbEntity
  8
_U+30EC_U+30A4_U+30E4_U+30FC 1
 62
     7
420
 16777215
370
     9
100
AcDb2dPolyline
 66
     1
 10
0.0
 20
0.0
 30
0.0
  0
VERTEX
  5
91
330
90
100
AcDbEntity
  8
_U+30EC_U+30A4_U+30E4_U+30FC 1
 62
     7
420
 16777215
370
     9
100
AcDbVertex
100
AcDb2dVertex
 10
45.07632051667392
 20
-80.74889303536845
 30
0.0
  0
VERTEX
  5
92
330
90
100
AcDbEntity
  8
_U+30EC_U+30A4_U+30E4_U+30FC 1
 62
     7
420
 16777215
370
     9
100
AcDbVertex
100
AcDb2dVertex
 10
71.96941649724056
 20
-80.74889303536845
 30
0.0
  0
SEQEND
  5
93
330
90
100
AcDbEntity
  8
_U+30EC_U+30A4_U+30E4_U+30FC 1
 62
     7
420
 16777215
370
     9
  0
POLYLINE
  5
94
330
1F
100
AcDbEntity
  8
_U+30EC_U+30A4_U+30E4_U+30FC 1
 62
     7
420
 16777215
370
     9
100
AcDb2dPolyline
 66
     1
 10
0.0
 20
0.0
 30
0.0
  0
VERTEX
  5
95
330
94
100
AcDbEntity
  8
_U+30EC_U+30A4_U+30E4_U+30FC 1
 62
     7
420
 16777215
370
     9
100
AcDbVertex
100
AcDb2dVertex
 10
45.07632051667392
 20
-79.2885341468445
 30
0.0
  0
VERTEX
  5
96
330
94
100
AcDbEntity
  8
_U+30EC_U+30A4_U+30E4_U+30FC 1
 62
     7
420
 16777215
370
     9
100
AcDbVertex
100
AcDb2dVertex
 10
45.07632051667392
 20
-81.74866525734068
 30
0.0
  0
SEQEND
  5
97
330
94
100
AcDbEntity
  8
_U+30EC_U+30A4_U+30E4_U+30FC 1
 62
     7
420
 16777215
370
     9
  0
SPLINE
  5
98
330
1F
100
AcDbEntity
  8
_U+30EC_U+30A4_U+30E4_U+30FC 1
 62
     7
420
 16777215
370
     9
100
AcDbSpline
210
0.0
220
0.0
230
1.0
 70
    11
 71
     3
 72
    17
 73
    13
 74
     0
 42
0.0000000001
 43
0.0000000001
 12
1.0
 22
0.0
 32
0.0
 13
1.0
 23
0.0
 33
0.0
 40
0.0
 40
0.0
 40
0.0
 40
0.0
 40
1.0
 40
1.0
 40
1.0
 40
2.0
 40
2.0
 40
2.0
 40
3.0
 40
3.0
 40
3.0
 40
4.0
 40
4.0
 40
4.0
 40
4.0
 10
72.16372649228329
 20
-80.74889303536845
 30
0.0
 10
72.16372649228329
 20
-80.69343636871545
 30
0.0
 10
72.11892371564852
 20
-80.64866886872657
 30
0.0
 10
72.06381982816545
 20
-80.64866886872657
 30
0.0
 10
72.0086806629055
 20
-80.64866886872657
 30
0.0
 10
71.96391316404763
 20
-80.69343636871545
 30
0.0
 10
71.96391316404763
 20
-80.74889303536845
 30
0.0
 10
71.96391316404763
 20
-80.8040322020212
 30
0.0
 10
72.0086806629055
 20
-80.8487997020101
 30
0.0
 10
72.06381982816545
 20
-80.8487997020101
 30
0.0
 10
72.11892371564852
 20
-80.8487997020101
 30
0.0
 10
72.16372649228329
 20
-80.8040322020212
 30
0.0
 10
72.16372649228329
 20
-80.74889303536845
 30
0.0
  0
POLYLINE
  5
99
330
1F
100
AcDbEntity
  8
_U+30EC_U+30A4_U+30E4_U+30FC 1
 62
     7
420
 16777215
370
     9
100
AcDb2dPolyline
 66
     1
 10
0.0
 20
0.0
 30
0.0
  0
VERTEX
  5
9A
330
99
100
AcDbEntity
  8
_U+30EC_U+30A4_U+30E4_U+30FC 1
 62
     7
420
 16777215
370
     9
100
AcDbVertex
100
AcDb2dVertex
 10
72.06381982816545
 20
-79.28888692462226
 30
0.0
  0
VERTEX
  5
9B
330
99
100
AcDbEntity
  8
_U+30EC_U+30A4_U+30E4_U+30FC 1
 62
     7
420
 16777215
370
     9
100
AcDbVertex
100
AcDb2dVertex
 10
72.06381982816545
 20
-81.74866525734068
 30
0.0
  0
SEQEND
  5
9C
330
99
100
AcDbEntity
  8
_U+30EC_U+30A4_U+30E4_U+30FC 1
 62
     7
420
 16777215
370
     9
  0
POLYLINE
  5
9D
330
1F
100
AcDbEntity
  8
_U+30EC_U+30A4_U+30E4_U+30FC 1
 62
     7
420
 16777215
370
     9
100
AcDb2dPolyline
 66
     1
 10
0.0
 20
0.0
 30
0.0
  0
VERTEX
  5
9E
330
9D
100
AcDbEntity
  8
_U+30EC_U+30A4_U+30E4_U+30FC 1
 62
     7
420
 16777215
370
     9
100
AcDbVertex
100
AcDb2dVertex
 10
81.06413320965945
 20
-84.44893220111011
 30
0.0
  0
VERTEX
  5
9F
330
9D
100
AcDbEntity
  8
_U+30EC_U+30A4_U+30E4_U+30FC 1
 62
     7
420
 16777215
370
     9
100
AcDbVertex
100
AcDb2dVertex
 10
81.06413320965945
 20
-94.45004108749887
 30
0.0
  0
SEQEND
  5
A0
330
9D
100
AcDbEntity
  8
_U+30EC_U+30A4_U+30E4_U+30FC 1
 62
     7
420
 16777215
370
     9
  0
POLYLINE
  5
A1
330
1F
100
AcDbEntity
  8
_U+30EC_U+30A4_U+30E4_U+30FC 1
 62
     7
420
 16777215
370
     9
100
AcDb2dPolyline
 66
     1
 10
0.0
 20
0.0
 30
0.0
  0
VERTEX
  5
A2
330
A1
100
AcDbEntity
  8
_U+30EC_U+30A4_U+30E4_U+30FC 1
 62
     7
420
 16777215
370
     9
100
AcDbVertex
100
AcDb2dVertex
 10
63.60509087729894
 20
-94.44937080972088
 30
0.0
  0
VERTEX
  5
A3
330
A1
100
AcDbEntity
  8
_U+30EC_U+30A4_U+30E4_U+30FC 1
 62
     7
420
 16777215
370
     9
100
AcDbVertex
100
AcDb2dVertex
 10
82.06457775726156
 20
-94.44937080972088
 30
0.0
  0
SEQEND
  5
A4
330
A1
100
AcDbEntity
  8
_U+30EC_U+30A4_U+30E4_U+30FC 1
 62
     7
420
 16777215
370
     9
  0
INSERT
  5
A6
330
1F
100
AcDbEntity
  8
_U+30EC_U+30A4_U+30E4_U+30FC 1
100
AcDbBlockReference
  2
block 7
 10
0.0
 20
0.0
 30
0.0
  0
POLYLINE
  5
AE
330
1F
100
AcDbEntity
  8
_U+30EC_U+30A4_U+30E4_U+30FC 1
 62
     7
420
 16777215
370
    25
100
AcDb2dPolyline
 66
     1
 10
0.0
 20
0.0
 30
0.0
  0
VERTEX
  5
AF
330
AE
100
AcDbEntity
  8
_U+30EC_U+30A4_U+30E4_U+30FC 1
 62
     7
420
 16777215
370
    25
100
AcDbVertex
100
AcDb2dVertex
 10
72.0789892722229
 20
-84.50269553442998
 30
0.0
  0
VERTEX
  5
B0
330
AE
100
AcDbEntity
  8
_U+30EC_U+30A4_U+30E4_U+30FC 1
 62
     7
420
 16777215
370
    25
100
AcDbVertex
100
AcDb2dVertex
 10
57.08212409926924
 20
-84.50269553442998
 30
0.0
  0
VERTEX
  5
B1
330
AE
100
AcDbEntity
  8
_U+30EC_U+30A4_U+30E4_U+30FC 1
 62
     7
420
 16777215
370
    25
100
AcDbVertex
100
AcDb2dVertex
 10
57.08212409926924
 20
-94.49759553193137
 30
0.0
  0
VERTEX
  5
B2
330
AE
100
AcDbEntity
  8
_U+30EC_U+30A4_U+30E4_U+30FC 1
 62
     7
420
 16777215
370
    25
100
AcDbVertex
100
AcDb2dVertex
 10
54.0831602868903
 20
-94.49759553193137
 30
0.0
  0
VERTEX
  5
B3
330
AE
100
AcDbEntity
  8
_U+30EC_U+30A4_U+30E4_U+30FC 1
 62
     7
420
 16777215
370
    25
100
AcDbVertex
100
AcDb2dVertex
 10
54.0831602868903
 20
-84.50269553442998
 30
0.0
  0
VERTEX
  5
B4
330
AE
100
AcDbEntity
  8
_U+30EC_U+30A4_U+30E4_U+30FC 1
 62
     7
420
 16777215
370
    25
100
AcDbVertex
100
AcDb2dVertex
 10
45.07907218327039
 20
-84.50269553442998
 30
0.0
  0
VERTEX
  5
B5
330
AE
100
AcDbEntity
  8
_U+30EC_U+30A4_U+30E4_U+30FC 1
 62
     7
420
 16777215
370
    25
100
AcDbVertex
100
AcDb2dVertex
 10
45.07907218327039
 20
-83.49738470134774
 30
0.0
  0
VERTEX
  5
B6
330
AE
100
AcDbEntity
  8
_U+30EC_U+30A4_U+30E4_U+30FC 1
 62
     7
420
 16777215
370
    25
100
AcDbVertex
100
AcDb2dVertex
 10
72.0789892722229
 20
-83.49738470134774
 30
0.0
  0
VERTEX
  5
B7
330
AE
100
AcDbEntity
  8
_U+30EC_U+30A4_U+30E4_U+30FC 1
 62
     7
420
 16777215
370
    25
100
AcDbVertex
100
AcDb2dVertex
 10
72.0789892722229
 20
-84.50269553442998
 30
0.0
  0
SEQEND
  5
B8
330
AE
100
AcDbEntity
  8
_U+30EC_U+30A4_U+30E4_U+30FC 1
 62
     7
420
 16777215
370
    25
  0
INSERT
  5
BA
330
1F
100
AcDbEntity
  8
_U+30EC_U+30A4_U+30E4_U+30FC 1
100
AcDbBlockReference
  2
block 8
 10
0.0
 20
0.0
 30
0.0
  0
POLYLINE
  5
FB
330
1F
100
AcDbEntity
  8
_U+30EC_U+30A4_U+30E4_U+30FC 1
 62
   179
420
  2234388
370
     9
100
AcDb2dPolyline
 66
     1
 10
0.0
 20
0.0
 30
0.0
  0
VERTEX
  5
FC
330
FB
100
AcDbEntity
  8
_U+30EC_U+30A4_U+30E4_U+30FC 1
 62
   179
420
  2234388
370
     9
100
AcDbVertex
100
AcDb2dVertex
 10
60.33568762737504
 20
-85.01323553430221
 30
0.0
  0
VERTEX
  5
FD
330
FB
100
AcDbEntity
  8
_U+30EC_U+30A4_U+30E4_U+30FC 1
 62
   179
420
  2234388
370
     9
100
AcDbVertex
100
AcDb2dVertex
 10
66.50929858098421
 20
-93.12712442116295
 30
0.0
  0
VERTEX
  5
FE
330
FB
100
AcDbEntity
  8
_U+30EC_U+30A4_U+30E4_U+30FC 1
 62
   179
420
  2234388
370
     9
100
AcDbVertex
100
AcDb2dVertex
 10
78.1516352284079
 20
-93.12712442116295
 30
0.0
  0
SEQEND
  5
FF
330
FB
100
AcDbEntity
  8
_U+30EC_U+30A4_U+30E4_U+30FC 1
 62
   179
420
  2234388
370
     9
  0
POLYLINE
  5
100
330
1F
100
AcDbEntity
  8
_U+30EC_U+30A4_U+30E4_U+30FC 1
  6
AI-Linetype-1
 62
   154
420
    23468
370
    25
100
AcDb2dPolyline
 66
     1
 10
0.0
 20
0.0
 30
0.0
  0
VERTEX
  5
101
330
100
100
AcDbEntity
  8
_U+30EC_U+30A4_U+30E4_U+30FC 1
  6
AI-Linetype-1
 62
   154
420
    23468
370
    25
100
AcDbVertex
100
AcDb2dVertex
 10
45.05564773942356
 20
-85.03115664540883
 30
0.0
  0
VERTEX
  5
102
330
100
100
AcDbEntity
  8
_U+30EC_U+30A4_U+30E4_U+30FC 1
  6
AI-Linetype-1
 62
   154
420
    23468
370
    25
100
AcDbVertex
100
AcDb2dVertex
 10
53.55021891159787
 20
-85.03115664540883
 30
0.0
  0
VERTEX
  5
103
330
100
100
AcDbEntity
  8
_U+30EC_U+30A4_U+30E4_U+30FC 1
  6
AI-Linetype-1
 62
   154
420
    23468
370
    25
100
AcDbVertex
100
AcDb2dVertex
 10
53.55021891159787
 20
-95.0308896984644
 30
0.0
  0
VERTEX
  5
104
330
100
100
AcDbEntity
  8
_U+30EC_U+30A4_U+30E4_U+30FC 1
  6
AI-Linetype-1
 62
   154
420
    23468
370
    25
100
AcDbVertex
100
AcDb2dVertex
 10
57.60060158604178
 20
-95.0308896984644
 30
0.0
  0
VERTEX
  5
105
330
100
100
AcDbEntity
  8
_U+30EC_U+30A4_U+30E4_U+30FC 1
  6
AI-Linetype-1
 62
   154
420
    23468
370
    25
100
AcDbVertex
100
AcDb2dVertex
 10
57.60060158604178
 20
-85.03115664540883
 30
0.0
  0
VERTEX
  5
106
330
100
100
AcDbEntity
  8
_U+30EC_U+30A4_U+30E4_U+30FC 1
  6
AI-Linetype-1
 62
   154
420
    23468
370
    25
100
AcDbVertex
100
AcDb2dVertex
 10
72.06381982816545
 20
-85.03115664540883
 30
0.0
  0
SEQEND
  5
108
330
100
100
AcDbEntity
  8
_U+30EC_U+30A4_U+30E4_U+30FC 1
  6
AI-Linetype-1
 62
   154
420
    23468
370
    25
  0
ENDSEC
  0
SECTION
  2
OBJECTS
  0
DICTIONARY
  5
C
330
0
100
AcDbDictionary
281
     1
  3
ACAD_GROUP
350
D
  3
ACAD_LAYOUT
350
1A
  3
ACAD_MATERIAL
350
3B
  3
ACAD_MLEADERSTYLE
350
10A
  3
ACAD_MLINESTYLE
350
17
  3
ACAD_PLOTSETTINGS
350
19
  3
ACAD_PLOTSTYLENAME
350
E
  3
ACAD_TABLESTYLE
350
109
  3
ACAD_VISUALSTYLE
350
2A
  0
SUN
  5
3F
330
29
100
AcDbSun
 90
        1
290
     0
 63
     7
421
 16777215
 40
1.0
291
     1
 91
  2455826
 92
 54000000
292
     0
 70
     2
 71
   256
280
     1
  0
DICTIONARY
  5
D
102
{ACAD_REACTORS
330
C
102
}
330
C
100
AcDbDictionary
281
     1
  0
DICTIONARY
  5
1A
102
{ACAD_REACTORS
330
C
102
}
330
C
100
AcDbDictionary
281
     1
  3
Layout1
350
1E
  3
Layout2
350
26
  3
Model
350
22
  0
DICTIONARY
  5
3B
102
{ACAD_REACTORS
330
C
102
}
330
C
100
AcDbDictionary
281
     1
  3
ByBlock
350
3D
  3
ByLayer
350
3C
  3
Global
350
3E
  0
DICTIONARY
  5
10A
102
{ACAD_REACTORS
330
C
102
}
330
C
100
AcDbDictionary
281
     1
  0
DICTIONARY
  5
17
102
{ACAD_REACTORS
330
C
102
}
330
C
100
AcDbDictionary
281
     1
  3
Standard
350
18
  0
DICTIONARY
  5
19
102
{ACAD_REACTORS
330
C
102
}
330
C
100
AcDbDictionary
281
     1
  0
ACDBDICTIONARYWDFLT
  5
E
102
{ACAD_REACTORS
330
C
102
}
330
C
100
AcDbDictionary
281
     1
  3
Normal
350
F
100
AcDbDictionaryWithDefault
340
F
  0
DICTIONARY
  5
109
102
{ACAD_REACTORS
330
C
102
}
330
C
100
AcDbDictionary
281
     1
  0
DICTIONARY
  5
2A
102
{ACAD_REACTORS
330
C
102
}
330
C
100
AcDbDictionary
281
     1
  3
2dWireframe
350
2F
  3
3D Hidden
350
31
  3
3dWireframe
350
30
  3
Basic
350
32
  3
Brighten
350
36
  3
ColorChange
350
3A
  3
Conceptual
350
34
  3
Dim
350
35
  3
Facepattern
350
39
  3
Flat
350
2B
  3
FlatWithEdges
350
2C
  3
Gouraud
350
2D
  3
GouraudWithEdges
350
2E
  3
Linepattern
350
38
  3
Realistic
350
33
  3
Thicken
350
37
  0
LAYOUT
  5
1E
102
{ACAD_REACTORS
330
1A
102
}
330
1A
100
AcDbPlotSettings
  1

  2
none_device
  4

  6

 40
0.0
 41
0.0
 42
0.0
 43
0.0
 44
0.0
 45
0.0
 46
0.0
 47
0.0
 48
0.0
 49
0.0
140
0.0
141
0.0
142
1.0
143
1.0
 70
   688
 72
     0
 73
     0
 74
     5
  7

 75
    16
 76
     0
 77
     2
 78
   300
147
1.0
148
0.0
149
0.0
100
AcDbLayout
  1
Layout1
 70
     1
 71
     1
 10
0.0
 20
0.0
 11
12.0
 21
9.0
 12
0.0
 22
0.0
 32
0.0
 14
1.000000000000000E+20
 24
1.000000000000000E+20
 34
1.000000000000000E+20
 15
-1.000000000000000E+20
 25
-1.000000000000000E+20
 35
-1.000000000000000E+20
146
0.0
 13
0.0
 23
0.0
 33
0.0
 16
1.0
 26
0.0
 36
0.0
 17
0.0
 27
1.0
 37
0.0
 76
     0
330
1B
  0
LAYOUT
  5
26
102
{ACAD_REACTORS
330
1A
102
}
330
1A
100
AcDbPlotSettings
  1

  2
none_device
  4

  6

 40
0.0
 41
0.0
 42
0.0
 43
0.0
 44
0.0
 45
0.0
 46
0.0
 47
0.0
 48
0.0
 49
0.0
140
0.0
141
0.0
142
1.0
143
1.0
 70
   688
 72
     0
 73
     0
 74
     5
  7

 75
    16
 76
     0
 77
     2
 78
   300
147
1.0
148
0.0
149
0.0
100
AcDbLayout
  1
Layout2
 70
     1
 71
     2
 10
0.0
 20
0.0
 11
0.0
 21
0.0
 12
0.0
 22
0.0
 32
0.0
 14
0.0
 24
0.0
 34
0.0
 15
0.0
 25
0.0
 35
0.0
146
0.0
 13
0.0
 23
0.0
 33
0.0
 16
1.0
 26
0.0
 36
0.0
 17
0.0
 27
1.0
 37
0.0
 76
     0
330
23
  0
LAYOUT
  5
22
102
{ACAD_REACTORS
330
1A
102
}
330
1A
100
AcDbPlotSettings
  1

  2
none_device
  4

  6

 40
0.0
 41
0.0
 42
0.0
 43
0.0
 44
0.0
 45
0.0
 46
0.0
 47
0.0
 48
0.0
 49
0.0
140
0.0
141
0.0
142
1.0
143
1.0
 70
  1712
 72
     0
 73
     0
 74
     0
  7

 75
     0
 76
     0
 77
     2
 78
   300
147
1.0
148
0.0
149
0.0
100
AcDbLayout
  1
Model
 70
     1
 71
     0
 10
0.0
 20
0.0
 11
12.0
 21
9.0
 12
0.0
 22
0.0
 32
0.0
 14
1.000000000000000E+20
 24
1.000000000000000E+20
 34
1.000000000000000E+20
 15
-1.000000000000000E+20
 25
-1.000000000000000E+20
 35
-1.000000000000000E+20
146
0.0
 13
0.0
 23
0.0
 33
0.0
 16
1.0
 26
0.0
 36
0.0
 17
0.0
 27
1.0
 37
0.0
 76
     0
330
1F
331
29
  0
MATERIAL
  5
3D
102
{ACAD_REACTORS
330
3B
102
}
330
3B
100
AcDbMaterial
  1
ByBlock
 72
     1
 94
      127
  0
MATERIAL
  5
3C
102
{ACAD_REACTORS
330
3B
102
}
330
3B
100
AcDbMaterial
  1
ByLayer
 72
     1
 94
      127
  0
MATERIAL
  5
3E
102
{ACAD_REACTORS
330
3B
102
}
330
3B
100
AcDbMaterial
  1
Global
 72
     1
 94
      127
  0
MLINESTYLE
  5
18
102
{ACAD_REACTORS
330
17
102
}
330
17
100
AcDbMlineStyle
  2
Standard
 70
     0
  3

 62
   256
 51
90.0
 52
90.0
 71
     2
 49
0.5
 62
   256
  6
BYLAYER
 49
-0.5
 62
   256
  6
BYLAYER
  0
ACDBPLACEHOLDER
  5
F
102
{ACAD_REACTORS
330
E
102
}
330
E
  0
VISUALSTYLE
  5
2F
102
{ACAD_REACTORS
330
2A
102
}
330
2A
100
AcDbVisualStyle
  2
2dWireframe
 70
     4
177
     2
291
     0
 71
     0
176
     1
 72
     2
176
     1
 73
     0
176
     1
 90
        0
176
     1
 40
-0.6
176
     1
 41
-30.0
176
     1
 62
     5
 63
     7
421
 16777215
176
     1
 74
     1
176
     1
 91
        4
176
     1
 64
     7
176
     1
 65
   257
176
     1
 75
     1
176
     1
175
     1
176
     1
 42
1.0
176
     1
 92
        0
176
     1
 66
   257
176
     1
 43
1.0
176
     1
 76
     1
176
     1
 77
     6
176
     1
 78
     2
176
     1
 67
     7
176
     1
 79
     5
176
     1
170
     0
176
     1
171
     0
176
     1
290
     0
176
     1
 93
        1
176
     1
 44
0.0
176
     1
173
     0
176
     1
  0
VISUALSTYLE
  5
31
102
{ACAD_REACTORS
330
2A
102
}
330
2A
100
AcDbVisualStyle
  2
3D Hidden
 70
     6
177
     2
291
     0
 71
     1
176
     1
 72
     2
176
     1
 73
     2
176
     1
 90
        0
176
     1
 40
-0.6
176
     1
 41
-30.0
176
     1
 62
     5
 63
     7
421
 16777215
176
     1
 74
     2
176
     1
 91
        2
176
     1
 64
     7
176
     1
 65
   257
176
     1
 75
     2
176
     1
175
     1
176
     1
 42
40.0
176
     1
 92
        0
176
     1
 66
   257
176
     1
 43
1.0
176
     1
 76
     1
176
     1
 77
     6
176
     1
 78
     2
176
     1
 67
     7
176
     1
 79
     3
176
     1
170
     0
176
     1
171
     0
176
     1
290
     0
176
     1
 93
        1
176
     1
 44
0.0
176
     1
173
     0
176
     1
  0
VISUALSTYLE
  5
30
102
{ACAD_REACTORS
330
2A
102
}
330
2A
100
AcDbVisualStyle
  2
3dWireframe
 70
     5
177
     2
291
     0
 71
     0
176
     1
 72
     2
176
     1
 73
     0
176
     1
 90
        0
176
     1
 40
-0.6
176
     1
 41
-30.0
176
     1
 62
     5
 63
     7
421
 16777215
176
     1
 74
     1
176
     1
 91
        4
176
     1
 64
     7
176
     1
 65
   257
176
     1
 75
     1
176
     1
175
     1
176
     1
 42
1.0
176
     1
 92
        0
176
     1
 66
   257
176
     1
 43
1.0
176
     1
 76
     1
176
     1
 77
     6
176
     1
 78
     2
176
     1
 67
     7
176
     1
 79
     5
176
     1
170
     0
176
     1
171
     0
176
     1
290
     0
176
     1
 93
        1
176
     1
 44
0.0
176
     1
173
     0
176
     1
  0
VISUALSTYLE
  5
32
102
{ACAD_REACTORS
330
2A
102
}
330
2A
100
AcDbVisualStyle
  2
Basic
 70
     7
177
     2
291
     1
 71
     1
176
     1
 72
     0
176
     1
 73
     1
176
     1
 90
        0
176
     1
 40
-0.6
176
     1
 41
-30.0
176
     1
 62
     5
 63
     7
421
 16777215
176
     1
 74
     0
176
     1
 91
        4
176
     1
 64
     7
176
     1
 65
   257
176
     1
 75
     1
176
     1
175
     1
176
     1
 42
1.0
176
     1
 92
        8
176
     1
 66
     7
176
     1
 43
1.0
176
     1
 76
     1
176
     1
 77
     6
176
     1
 78
     2
176
     1
 67
     7
176
     1
 79
     5
176
     1
170
     0
176
     1
171
     0
176
     1
290
     0
176
     1
 93
        1
176
     1
 44
0.0
176
     1
173
     0
176
     1
  0
VISUALSTYLE
  5
36
102
{ACAD_REACTORS
330
2A
102
}
330
2A
100
AcDbVisualStyle
  2
Brighten
 70
    12
177
     2
291
     1
 71
     2
176
     1
 72
     2
176
     1
 73
     0
176
     1
 90
        0
176
     1
 40
-0.6
176
     1
 41
-30.0
176
     1
 62
     5
 63
     7
421
 16777215
176
     1
 74
     1
176
     1
 91
        4
176
     1
 64
     7
176
     1
 65
   257
176
     1
 75
     1
176
     1
175
     1
176
     1
 42
1.0
176
     1
 92
        8
176
     1
 66
     7
176
     1
 43
1.0
176
     1
 76
     1
176
     1
 77
     6
176
     1
 78
     2
176
     1
 67
     7
176
     1
 79
     5
176
     1
170
     0
176
     1
171
     0
176
     1
290
     0
176
     1
 93
        1
176
     1
 44
50.0
176
     1
173
     0
176
     1
  0
VISUALSTYLE
  5
3A
102
{ACAD_REACTORS
330
2A
102
}
330
2A
100
AcDbVisualStyle
  2
ColorChange
 70
    16
177
     2
291
     1
 71
     2
176
     1
 72
     2
176
     1
 73
     3
176
     1
 90
        0
176
     1
 40
-0.6
176
     1
 41
-30.0
176
     1
 62
     5
 63
     8
421
  8421504
176
     1
 74
     1
176
     1
 91
        4
176
     1
 64
     7
176
     1
 65
   257
176
     1
 75
     1
176
     1
175
     1
176
     1
 42
1.0
176
     1
 92
        8
176
     1
 66
     8
424
  8421504
176
     1
 43
1.0
176
     1
 76
     1
176
     1
 77
     6
176
     1
 78
     2
176
     1
 67
     7
176
     1
 79
     5
176
     1
170
     0
176
     1
171
     0
176
     1
290
     0
176
     1
 93
        1
176
     1
 44
0.0
176
     1
173
     0
176
     1
  0
VISUALSTYLE
  5
34
102
{ACAD_REACTORS
330
2A
102
}
330
2A
100
AcDbVisualStyle
  2
Conceptual
 70
     9
177
     2
291
     0
 71
     3
176
     1
 72
     2
176
     1
 73
     0
176
     1
 90
        0
176
     1
 40
-0.6
176
     1
 41
-30.0
176
     1
 62
     5
 63
     7
421
 16777215
176
     1
 74
     2
176
     1
 91
        2
176
     1
 64
     7
176
     1
 65
   257
176
     1
 75
     1
176
     1
175
     1
176
     1
 42
40.0
176
     1
 92
        8
176
     1
 66
     7
176
     1
 43
1.0
176
     1
 76
     1
176
     1
 77
     6
176
     1
 78
     2
176
     1
 67
     7
176
     1
 79
     3
176
     1
170
     0
176
     1
171
     0
176
     1
290
     0
176
     1
 93
        1
176
     1
 44
0.0
176
     1
173
     0
176
     1
  0
VISUALSTYLE
  5
35
102
{ACAD_REACTORS
330
2A
102
}
330
2A
100
AcDbVisualStyle
  2
Dim
 70
    11
177
     2
291
     1
 71
     2
176
     1
 72
     2
176
     1
 73
     0
176
     1
 90
        0
176
     1
 40
-0.6
176
     1
 41
-30.0
176
     1
 62
     5
 63
     7
421
 16777215
176
     1
 74
     1
176
     1
 91
        4
176
     1
 64
     7
176
     1
 65
   257
176
     1
 75
     1
176
     1
175
     1
176
     1
 42
1.0
176
     1
 92
        8
176
     1
 66
     7
176
     1
 43
1.0
176
     1
 76
     1
176
     1
 77
     6
176
     1
 78
     2
176
     1
 67
     7
176
     1
 79
     5
176
     1
170
     0
176
     1
171
     0
176
     1
290
     0
176
     1
 93
        1
176
     1
 44
-50.0
176
     1
173
     0
176
     1
  0
VISUALSTYLE
  5
39
102
{ACAD_REACTORS
330
2A
102
}
330
2A
100
AcDbVisualStyle
  2
Facepattern
 70
    15
177
     2
291
     1
 71
     2
176
     1
 72
     2
176
     1
 73
     0
176
     1
 90
        0
176
     1
 40
-0.6
176
     1
 41
-30.0
176
     1
 62
     5
 63
     7
421
 16777215
176
     1
 74
     1
176
     1
 91
        4
176
     1
 64
     7
176
     1
 65
   257
176
     1
 75
     1
176
     1
175
     1
176
     1
 42
1.0
176
     1
 92
        8
176
     1
 66
     7
176
     1
 43
1.0
176
     1
 76
     1
176
     1
 77
     6
176
     1
 78
     2
176
     1
 67
     7
176
     1
 79
     5
176
     1
170
     0
176
     1
171
     0
176
     1
290
     0
176
     1
 93
        1
176
     1
 44
0.0
176
     1
173
     0
176
     1
  0
VISUALSTYLE
  5
2B
102
{ACAD_REACTORS
330
2A
102
}
330
2A
100
AcDbVisualStyle
  2
Flat
 70
     0
177
     2
291
     1
 71
     2
176
     1
 72
     1
176
     1
 73
     1
176
     1
 90
        2
176
     1
 40
-0.6
176
     1
 41
30.0
176
     1
 62
     5
 63
     7
421
 16777215
176
     1
 74
     0
176
     1
 91
        4
176
     1
 64
     7
176
     1
 65
   257
176
     1
 75
     1
176
     1
175
     1
176
     1
 42
1.0
176
     1
 92
        8
176
     1
 66
     7
176
     1
 43
1.0
176
     1
 76
     1
176
     1
 77
     6
176
     1
 78
     2
176
     1
 67
     7
176
     1
 79
     5
176
     1
170
     0
176
     1
171
     0
176
     1
290
     0
176
     1
 93
       13
176
     1
 44
0.0
176
     1
173
     0
176
     1
  0
VISUALSTYLE
  5
2C
102
{ACAD_REACTORS
330
2A
102
}
330
2A
100
AcDbVisualStyle
  2
FlatWithEdges
 70
     1
177
     2
291
     1
 71
     2
176
     1
 72
     1
176
     1
 73
     1
176
     1
 90
        2
176
     1
 40
-0.6
176
     1
 41
30.0
176
     1
 62
     5
 63
     7
421
 16777215
176
     1
 74
     1
176
     1
 91
        4
176
     1
 64
     7
176
     1
 65
   257
176
     1
 75
     1
176
     1
175
     1
176
     1
 42
1.0
176
     1
 92
        0
176
     1
 66
   257
176
     1
 43
1.0
176
     1
 76
     1
176
     1
 77
     6
176
     1
 78
     2
176
     1
 67
     7
176
     1
 79
     5
176
     1
170
     0
176
     1
171
     0
176
     1
290
     0
176
     1
 93
       13
176
     1
 44
0.0
176
     1
173
     0
176
     1
  0
VISUALSTYLE
  5
2D
102
{ACAD_REACTORS
330
2A
102
}
330
2A
100
AcDbVisualStyle
  2
Gouraud
 70
     2
177
     2
291
     1
 71
     2
176
     1
 72
     2
176
     1
 73
     1
176
     1
 90
        2
176
     1
 40
-0.6
176
     1
 41
30.0
176
     1
 62
     5
 63
     7
421
 16777215
176
     1
 74
     0
176
     1
 91
        4
176
     1
 64
     7
176
     1
 65
   257
176
     1
 75
     1
176
     1
175
     1
176
     1
 42
1.0
176
     1
 92
        0
176
     1
 66
     7
176
     1
 43
1.0
176
     1
 76
     1
176
     1
 77
     6
176
     1
 78
     2
176
     1
 67
     7
176
     1
 79
     5
176
     1
170
     0
176
     1
171
     0
176
     1
290
     0
176
     1
 93
       13
176
     1
 44
0.0
176
     1
173
     0
176
     1
  0
VISUALSTYLE
  5
2E
102
{ACAD_REACTORS
330
2A
102
}
330
2A
100
AcDbVisualStyle
  2
GouraudWithEdges
 70
     3
177
     2
291
     1
 71
     2
176
     1
 72
     2
176
     1
 73
     1
176
     1
 90
        2
176
     1
 40
-0.6
176
     1
 41
30.0
176
     1
 62
     5
 63
     7
421
 16777215
176
     1
 74
     1
176
     1
 91
        4
176
     1
 64
     7
176
     1
 65
   257
176
     1
 75
     1
176
     1
175
     1
176
     1
 42
1.0
176
     1
 92
        0
176
     1
 66
   257
176
     1
 43
1.0
176
     1
 76
     1
176
     1
 77
     6
176
     1
 78
     2
176
     1
 67
     7
176
     1
 79
     5
176
     1
170
     0
176
     1
171
     0
176
     1
290
     0
176
     1
 93
       13
176
     1
 44
0.0
176
     1
173
     0
176
     1
  0
VISUALSTYLE
  5
38
102
{ACAD_REACTORS
330
2A
102
}
330
2A
100
AcDbVisualStyle
  2
Linepattern
 70
    14
177
     2
291
     1
 71
     2
176
     1
 72
     2
176
     1
 73
     0
176
     1
 90
        0
176
     1
 40
-0.6
176
     1
 41
-30.0
176
     1
 62
     5
 63
     7
421
 16777215
176
     1
 74
     1
176
     1
 91
        4
176
     1
 64
     7
176
     1
 65
   257
176
     1
 75
     7
176
     1
175
     7
176
     1
 42
1.0
176
     1
 92
        8
176
     1
 66
     7
176
     1
 43
1.0
176
     1
 76
     1
176
     1
 77
     6
176
     1
 78
     2
176
     1
 67
     7
176
     1
 79
     5
176
     1
170
     0
176
     1
171
     0
176
     1
290
     0
176
     1
 93
        1
176
     1
 44
0.0
176
     1
173
     0
176
     1
  0
VISUALSTYLE
  5
33
102
{ACAD_REACTORS
330
2A
102
}
330
2A
100
AcDbVisualStyle
  2
Realistic
 70
     8
177
     2
291
     0
 71
     2
176
     1
 72
     2
176
     1
 73
     0
176
     1
 90
        0
176
     1
 40
-0.6
176
     1
 41
-30.0
176
     1
 62
     5
 63
     7
421
 16777215
176
     1
 74
     1
176
     1
 91
        0
176
     1
 64
     7
176
     1
 65
   257
176
     1
 75
     1
176
     1
175
     1
176
     1
 42
1.0
176
     1
 92
        8
176
     1
 66
     8
424
  7895160
176
     1
 43
1.0
176
     1
 76
     1
176
     1
 77
     6
176
     1
 78
     2
176
     1
 67
     7
176
     1
 79
     5
176
     1
170
     0
176
     1
171
     0
176
     1
290
     0
176
     1
 93
       13
176
     1
 44
0.0
176
     1
173
     0
176
     1
  0
VISUALSTYLE
  5
37
102
{ACAD_REACTORS
330
2A
102
}
330
2A
100
AcDbVisualStyle
  2
Thicken
 70
    13
177
     2
291
     1
 71
     2
176
     1
 72
     2
176
     1
 73
     0
176
     1
 90
        0
176
     1
 40
-0.6
176
     1
 41
-30.0
176
     1
 62
     5
 63
     7
421
 16777215
176
     1
 74
     1
176
     1
 91
        4
176
     1
 64
     7
176
     1
 65
   257
176
     1
 75
     1
176
     1
175
     1
176
     1
 42
1.0
176
     1
 92
       12
176
     1
 66
     7
176
     1
 43
1.0
176
     1
 76
     1
176
     1
 77
     6
176
     1
 78
     2
176
     1
 67
     7
176
     1
 79
     5
176
     1
170
     0
176
     1
171
     0
176
     1
290
     0
176
     1
 93
        1
176
     1
 44
0.0
176
     1
173
     0
176
     1
  0
ENDSEC
  0
EOF
