  0
SECTION
  2
HEADER
  9
$ACADVER
  1
AC1024
  9
$ACADMAINTVER
 70
   226
  9
$DWGCODEPAGE
  3
ANSI_932
  9
$INSBASE
 10
0.0
 20
0.0
 30
0.0
  9
$EXTMIN
 10
1.000000000000000E+20
 20
1.000000000000000E+20
 30
1.000000000000000E+20
  9
$EXTMAX
 10
-1.000000000000000E+20
 20
-1.000000000000000E+20
 30
-1.000000000000000E+20
  9
$LIMMIN
 10
0.0
 20
0.0
  9
$LIMMAX
 10
12.0
 20
9.0
  9
$ORTHOMODE
 70
     0
  9
$REGENMODE
 70
     1
  9
$FILLMODE
 70
     1
  9
$QTEXTMODE
 70
     0
  9
$MIRRTEXT
 70
     0
  9
$LTSCALE
 40
1.0
  9
$ATTMODE
 70
     1
  9
$TEXTSIZE
 40
0.2
  9
$TRACEWID
 40
0.05
  9
$TEXTSTYLE
  7
Standard
  9
$CLAYER
  8
0
  9
$CELTYPE
  6
ByLayer
  9
$CECOLOR
 62
   256
  9
$CELTSCALE
 40
1.0
  9
$DISPSILH
 70
     0
  9
$DIMSCALE
 40
1.0
  9
$DIMASZ
 40
0.18
  9
$DIMEXO
 40
0.0625
  9
$DIMDLI
 40
0.38
  9
$DIMRND
 40
0.0
  9
$DIMDLE
 40
0.0
  9
$DIMEXE
 40
0.18
  9
$DIMTP
 40
0.0
  9
$DIMTM
 40
0.0
  9
$DIMTXT
 40
0.18
  9
$DIMCEN
 40
0.09
  9
$DIMTSZ
 40
0.0
  9
$DIMTOL
 70
     0
  9
$DIMLIM
 70
     0
  9
$DIMTIH
 70
     1
  9
$DIMTOH
 70
     1
  9
$DIMSE1
 70
     0
  9
$DIMSE2
 70
     0
  9
$DIMTAD
 70
     0
  9
$DIMZIN
 70
     0
  9
$DIMBLK
  1

  9
$DIMASO
 70
     1
  9
$DIMSHO
 70
     1
  9
$DIMPOST
  1

  9
$DIMAPOST
  1

  9
$DIMALT
 70
     0
  9
$DIMALTD
 70
     2
  9
$DIMALTF
 40
25.4
  9
$DIMLFAC
 40
1.0
  9
$DIMTOFL
 70
     0
  9
$DIMTVP
 40
0.0
  9
$DIMTIX
 70
     0
  9
$DIMSOXD
 70
     0
  9
$DIMSAH
 70
     0
  9
$DIMBLK1
  1

  9
$DIMBLK2
  1

  9
$DIMSTYLE
  2
Standard
  9
$DIMCLRD
 70
     0
  9
$DIMCLRE
 70
     0
  9
$DIMCLRT
 70
     0
  9
$DIMTFAC
 40
1.0
  9
$DIMGAP
 40
0.09
  9
$DIMJUST
 70
     0
  9
$DIMSD1
 70
     0
  9
$DIMSD2
 70
     0
  9
$DIMTOLJ
 70
     1
  9
$DIMTZIN
 70
     0
  9
$DIMALTZ
 70
     0
  9
$DIMALTTZ
 70
     0
  9
$DIMUPT
 70
     0
  9
$DIMDEC
 70
     4
  9
$DIMTDEC
 70
     4
  9
$DIMALTU
 70
     2
  9
$DIMALTTD
 70
     2
  9
$DIMTXSTY
  7
Standard
  9
$DIMAUNIT
 70
     0
  9
$DIMADEC
 70
     0
  9
$DIMALTRND
 40
0.0
  9
$DIMAZIN
 70
     0
  9
$DIMDSEP
 70
    46
  9
$DIMATFIT
 70
     3
  9
$DIMFRAC
 70
     0
  9
$DIMLDRBLK
  1

  9
$DIMLUNIT
 70
     2
  9
$DIMLWD
 70
    -2
  9
$DIMLWE
 70
    -2
  9
$DIMTMOVE
 70
     0
  9
$DIMFXL
 40
1.0
  9
$DIMFXLON
 70
     0
  9
$DIMJOGANG
 40
0.7853981633974483
  9
$DIMTFILL
 70
     0
  9
$DIMTFILLCLR
 70
     0
  9
$DIMARCSYM
 70
     0
  9
$DIMLTYPE
  6

  9
$DIMLTEX1
  6

  9
$DIMLTEX2
  6

  9
$DIMTXTDIRECTION
 70
     0
  9
$LUNITS
 70
     2
  9
$LUPREC
 70
     4
  9
$SKETCHINC
 40
0.1
  9
$FILLETRAD
 40
0.0
  9
$AUNITS
 70
     0
  9
$AUPREC
 70
     0
  9
$MENU
  1
.
  9
$ELEVATION
 40
0.0
  9
$PELEVATION
 40
0.0
  9
$THICKNESS
 40
0.0
  9
$LIMCHECK
 70
     0
  9
$CHAMFERA
 40
0.0
  9
$CHAMFERB
 40
0.0
  9
$CHAMFERC
 40
0.0
  9
$CHAMFERD
 40
0.0
  9
$SKPOLY
 70
     0
  9
$TDCREATE
 40
2459569.503564815
  9
$TDUCREATE
 40
2459569.128564815
  9
$TDUPDATE
 40
2459569.503564815
  9
$TDUUPDATE
 40
2459569.128564815
  9
$TDINDWG
 40
0.0000000000
  9
$TDUSRTIMER
 40
0.0000000000
  9
$USRTIMER
 70
     1
  9
$ANGBASE
 50
0.0
  9
$ANGDIR
 70
     0
  9
$PDMODE
 70
     0
  9
$PDSIZE
 40
0.0
  9
$PLINEWID
 40
0.0
  9
$SPLFRAME
 70
     0
  9
$SPLINETYPE
 70
     6
  9
$SPLINESEGS
 70
     8
  9
$HANDSEED
  5
189
  9
$SURFTAB1
 70
     6
  9
$SURFTAB2
 70
     6
  9
$SURFTYPE
 70
     6
  9
$SURFU
 70
     6
  9
$SURFV
 70
     6
  9
$UCSBASE
  2

  9
$UCSNAME
  2

  9
$UCSORG
 10
0.0
 20
0.0
 30
0.0
  9
$UCSXDIR
 10
1.0
 20
0.0
 30
0.0
  9
$UCSYDIR
 10
0.0
 20
1.0
 30
0.0
  9
$UCSORTHOREF
  2

  9
$UCSORTHOVIEW
 70
     0
  9
$UCSORGTOP
 10
0.0
 20
0.0
 30
0.0
  9
$UCSORGBOTTOM
 10
0.0
 20
0.0
 30
0.0
  9
$UCSORGLEFT
 10
0.0
 20
0.0
 30
0.0
  9
$UCSORGRIGHT
 10
0.0
 20
0.0
 30
0.0
  9
$UCSORGFRONT
 10
0.0
 20
0.0
 30
0.0
  9
$UCSORGBACK
 10
0.0
 20
0.0
 30
0.0
  9
$PUCSBASE
  2

  9
$PUCSNAME
  2

  9
$PUCSORG
 10
0.0
 20
0.0
 30
0.0
  9
$PUCSXDIR
 10
1.0
 20
0.0
 30
0.0
  9
$PUCSYDIR
 10
0.0
 20
1.0
 30
0.0
  9
$PUCSORTHOREF
  2

  9
$PUCSORTHOVIEW
 70
     0
  9
$PUCSORGTOP
 10
0.0
 20
0.0
 30
0.0
  9
$PUCSORGBOTTOM
 10
0.0
 20
0.0
 30
0.0
  9
$PUCSORGLEFT
 10
0.0
 20
0.0
 30
0.0
  9
$PUCSORGRIGHT
 10
0.0
 20
0.0
 30
0.0
  9
$PUCSORGFRONT
 10
0.0
 20
0.0
 30
0.0
  9
$PUCSORGBACK
 10
0.0
 20
0.0
 30
0.0
  9
$USERI1
 70
     0
  9
$USERI2
 70
     0
  9
$USERI3
 70
     0
  9
$USERI4
 70
     0
  9
$USERI5
 70
     0
  9
$USERR1
 40
0.0
  9
$USERR2
 40
0.0
  9
$USERR3
 40
0.0
  9
$USERR4
 40
0.0
  9
$USERR5
 40
0.0
  9
$WORLDVIEW
 70
     1
  9
$SHADEDGE
 70
     3
  9
$SHADEDIF
 70
    70
  9
$TILEMODE
 70
     1
  9
$MAXACTVP
 70
    64
  9
$PINSBASE
 10
0.0
 20
0.0
 30
0.0
  9
$PLIMCHECK
 70
     0
  9
$PEXTMIN
 10
1.000000000000000E+20
 20
1.000000000000000E+20
 30
1.000000000000000E+20
  9
$PEXTMAX
 10
-1.000000000000000E+20
 20
-1.000000000000000E+20
 30
-1.000000000000000E+20
  9
$PLIMMIN
 10
0.0
 20
0.0
  9
$PLIMMAX
 10
12.0
 20
9.0
  9
$UNITMODE
 70
     0
  9
$VISRETAIN
 70
     1
  9
$PLINEGEN
 70
     0
  9
$PSLTSCALE
 70
     1
  9
$TREEDEPTH
 70
  3020
  9
$CMLSTYLE
  2
Standard
  9
$CMLJUST
 70
     0
  9
$CMLSCALE
 40
1.0
  9
$PROXYGRAPHICS
 70
     1
  9
$MEASUREMENT
 70
     0
  9
$CELWEIGHT
370
    -1
  9
$ENDCAPS
280
     0
  9
$JOINSTYLE
280
     0
  9
$LWDISPLAY
290
     1
  9
$INSUNITS
 70
     4
  9
$HYPERLINKBASE
  1

  9
$STYLESHEET
  1

  9
$XEDIT
290
     1
  9
$CEPSNTYPE
380
     0
  9
$PSTYLEMODE
290
     1
  9
$FINGERPRINTGUID
  2
{A88EDD7C-7FDB-3545-9C15-5692482F97A4}
  9
$VERSIONGUID
  2
{6B0CAC07-C7A9-994E-ACD8-D0415B852C8F}
  9
$EXTNAMES
290
     1
  9
$PSVPSCALE
 40
0.0
  9
$OLESTARTUP
290
     0
  9
$SORTENTS
280
   127
  9
$INDEXCTL
280
     0
  9
$HIDETEXT
280
     1
  9
$XCLIPFRAME
280
     2
  9
$HALOGAP
280
     0
  9
$OBSCOLOR
 70
   257
  9
$OBSLTYPE
280
     0
  9
$INTERSECTIONDISPLAY
280
     0
  9
$INTERSECTIONCOLOR
 70
   257
  9
$DIMASSOC
280
     2
  9
$PROJECTNAME
  1

  9
$CAMERADISPLAY
290
     0
  9
$LENSLENGTH
 40
50.0
  9
$CAMERAHEIGHT
 40
0.0
  9
$STEPSPERSEC
 40
2.0
  9
$STEPSIZE
 40
6.0
  9
$3DDWFPREC
 40
2.0
  9
$PSOLWIDTH
 40
0.25
  9
$PSOLHEIGHT
 40
4.0
  9
$LOFTANG1
 40
1.570796326794896
  9
$LOFTANG2
 40
1.570796326794896
  9
$LOFTMAG1
 40
0.0
  9
$LOFTMAG2
 40
0.0
  9
$LOFTPARAM
 70
     7
  9
$LOFTNORMALS
280
     1
  9
$LATITUDE
 40
37.795
  9
$LONGITUDE
 40
-122.394
  9
$NORTHDIRECTION
 40
0.0
  9
$TIMEZONE
 70
 -8000
  9
$LIGHTGLYPHDISPLAY
280
     1
  9
$TILEMODELIGHTSYNCH
280
     1
  9
$CMATERIAL
347
11
  9
$SOLIDHIST
280
     0
  9
$SHOWHIST
280
     1
  9
$DWFFRAME
280
     2
  9
$DGNFRAME
280
     0
  9
$REALWORLDSCALE
290
     1
  9
$INTERFERECOLOR
 62
     1
  9
$INTERFEREOBJVS
345
33
  9
$INTERFEREVPVS
346
30
  9
$CSHADOW
280
     0
  9
$SHADOWPLANELOCATION
 40
0.0
  0
ENDSEC
  0
SECTION
  2
CLASSES
  0
CLASS
  1
ACDBDICTIONARYWDFLT
  2
AcDbDictionaryWithDefault
  3
ObjectDBX Classes
 90
        0
 91
        1
280
     0
281
     0
  0
CLASS
  1
MATERIAL
  2
AcDbMaterial
  3
ObjectDBX Classes
 90
     1153
 91
        3
280
     0
281
     0
  0
CLASS
  1
VISUALSTYLE
  2
AcDbVisualStyle
  3
ObjectDBX Classes
 90
     4095
 91
       24
280
     0
281
     0
  0
CLASS
  1
SCALE
  2
AcDbScale
  3
ObjectDBX Classes
 90
     1153
 91
       17
280
     0
281
     0
  0
CLASS
  1
TABLESTYLE
  2
AcDbTableStyle
  3
ObjectDBX Classes
 90
     4095
 91
        1
280
     0
281
     0
  0
CLASS
  1
MLEADERSTYLE
  2
AcDbMLeaderStyle
  3
ACDB_MLEADERSTYLE_CLASS
 90
     4095
 91
        1
280
     0
281
     0
  0
CLASS
  1
ACDBSECTIONVIEWSTYLE
  2
AcDbSectionViewStyle
  3
ObjectDBX Classes
 90
     1025
 91
        1
280
     0
281
     0
  0
CLASS
  1
ACDBDETAILVIEWSTYLE
  2
AcDbDetailViewStyle
  3
ObjectDBX Classes
 90
     1025
 91
        1
280
     0
281
     0
  0
CLASS
  1
DICTIONARYVAR
  2
AcDbDictionaryVar
  3
ObjectDBX Classes
 90
        0
 91
        5
280
     0
281
     0
  0
CLASS
  1
CELLSTYLEMAP
  2
AcDbCellStyleMap
  3
ObjectDBX Classes
 90
     1152
 91
        1
280
     0
281
     0
  0
ENDSEC
  0
SECTION
  2
TABLES
  0
TABLE
  2
VPORT
  5
8
330
0
100
AcDbSymbolTable
 70
     1
  0
VPORT
  5
57
330
8
100
AcDbSymbolTableRecord
100
AcDbViewportTableRecord
  2
*Active
 70
     0
 10
0.0
 20
0.0
 11
1.0
 21
1.0
 12
0.0
 22
0.0
 13
0.0
 23
0.0
 14
1.0
 24
1.0
 15
0.0
 25
0.0
 16
0.0
 26
0.0
 36
1.0
 17
104.9999999737534
 27
-148.4999999628701
 37
0.0
 40
302.939999924255
 41
0.7070707070707534
 42
50.0
 43
0.0
 44
0.0
 50
0.0
 51
0.0
 71
     0
 72
   100
 73
     1
 74
     0
 75
     1
 76
     0
 77
     0
 78
     0
281
     0
 65
     1
110
0.0
120
0.0
130
0.0
111
1.0
121
0.0
131
0.0
112
0.0
122
1.0
132
0.0
 79
     0
146
0.0
 60
     3
 61
     5
292
     1
282
     1
141
0.0
142
0.0
 63
   250
421
  3355443
  0
ENDTAB
  0
TABLE
  2
LTYPE
  5
5
330
0
100
AcDbSymbolTable
 70
     2
  0
LTYPE
  5
5B
330
5
100
AcDbSymbolTableRecord
100
AcDbLinetypeTableRecord
  2
ByBlock
 70
     0
  3

 72
    65
 73
     0
 40
0.0
  0
LTYPE
  5
5C
330
5
100
AcDbSymbolTableRecord
100
AcDbLinetypeTableRecord
  2
ByLayer
 70
     0
  3

 72
    65
 73
     0
 40
0.0
  0
LTYPE
  5
5D
330
5
100
AcDbSymbolTableRecord
100
AcDbLinetypeTableRecord
  2
Continuous
 70
     0
  3
Solid line
 72
    65
 73
     0
 40
0.0
  0
LTYPE
  5
123
330
5
100
AcDbSymbolTableRecord
100
AcDbLinetypeTableRecord
  2
AI-Linetype-0
 70
     0
  3
Adobe Illustrator Linetype No. 0
 72
    65
 73
     2
 40
1.411111110758333
 49
0.7055555553791667
 74
     0
 49
-0.7055555553791667
 74
     0
  0
ENDTAB
  0
TABLE
  2
LAYER
  5
2
330
0
100
AcDbSymbolTable
 70
     2
  0
LAYER
  5
54
330
2
100
AcDbSymbolTableRecord
100
AcDbLayerTableRecord
  2
0
 70
     0
 62
     7
  6
Continuous
370
    -3
390
F
347
21
  0
LAYER
  5
78
330
2
100
AcDbSymbolTableRecord
100
AcDbLayerTableRecord
  2
レイヤー 1
 70
     0
 62
     7
  6
Continuous
370
     0
390
F
347
21
  0
ENDTAB
  0
TABLE
  2
STYLE
  5
3
330
0
100
AcDbSymbolTable
 70
     2
  0
STYLE
  5
55
330
3
100
AcDbSymbolTableRecord
100
AcDbTextStyleTableRecord
  2
Standard
 70
     0
 40
0.0
 41
1.0
 50
0.0
 71
     0
 42
0.2
  3
txt
  4

  0
STYLE
  5
5A
330
3
100
AcDbSymbolTableRecord
100
AcDbTextStyleTableRecord
  2
Annotative
 70
     0
 40
0.0
 41
1.0
 50
0.0
 71
     0
 42
0.2
  3
txt
  4

1001
AcadAnnotative
1000
AnnotativeData
1002
{
1070
     1
1070
     1
1002
}
  0
ENDTAB
  0
TABLE
  2
VIEW
  5
6
330
0
100
AcDbSymbolTable
 70
     0
  0
ENDTAB
  0
TABLE
  2
UCS
  5
7
330
0
100
AcDbSymbolTable
 70
     0
  0
ENDTAB
  0
TABLE
  2
APPID
  5
9
330
0
100
AcDbSymbolTable
 70
     2
  0
APPID
  5
56
330
9
100
AcDbSymbolTableRecord
100
AcDbRegAppTableRecord
  2
ACAD
 70
     0
  0
APPID
  5
5E
330
9
100
AcDbSymbolTableRecord
100
AcDbRegAppTableRecord
  2
AcadAnnotative
 70
     0
  0
ENDTAB
  0
TABLE
  2
DIMSTYLE
  5
A
330
0
100
AcDbSymbolTable
 70
     2
100
AcDbDimStyleTable
 71
     0
  0
DIMSTYLE
105
58
330
A
100
AcDbSymbolTableRecord
100
AcDbDimStyleTableRecord
  2
Standard
 70
     0
340
55
  0
DIMSTYLE
105
59
330
A
100
AcDbSymbolTableRecord
100
AcDbDimStyleTableRecord
  2
Annotative
 70
     0
340
55
1001
AcadAnnotative
1000
AnnotativeData
1002
{
1070
     1
1070
     1
1002
}
  0
ENDTAB
  0
TABLE
  2
BLOCK_RECORD
  5
1
330
0
100
AcDbSymbolTable
 70
    15
  0
BLOCK_RECORD
  5
70
330
1
100
AcDbSymbolTableRecord
100
AcDbBlockTableRecord
  2
*Model_Space
340
73
 70
     0
280
     1
281
     0
  0
BLOCK_RECORD
  5
6C
330
1
100
AcDbSymbolTableRecord
100
AcDbBlockTableRecord
  2
*Paper_Space
340
6F
 70
     0
280
     1
281
     0
  0
BLOCK_RECORD
  5
74
330
1
100
AcDbSymbolTableRecord
100
AcDbBlockTableRecord
  2
*Paper_Space0
340
77
 70
     0
280
     1
281
     0
  0
BLOCK_RECORD
  5
79
330
1
100
AcDbSymbolTableRecord
100
AcDbBlockTableRecord
  2
Block_0
340
0
102
{BLKREFS
331
7A
102
}
 70
     0
280
     1
281
     0
  0
BLOCK_RECORD
  5
B8
330
1
100
AcDbSymbolTableRecord
100
AcDbBlockTableRecord
  2
Block_1
340
0
102
{BLKREFS
331
B9
102
}
 70
     0
280
     1
281
     0
  0
BLOCK_RECORD
  5
BC
330
1
100
AcDbSymbolTableRecord
100
AcDbBlockTableRecord
  2
Block_2
340
0
102
{BLKREFS
331
BD
102
}
 70
     0
280
     1
281
     0
  0
BLOCK_RECORD
  5
C9
330
1
100
AcDbSymbolTableRecord
100
AcDbBlockTableRecord
  2
Block_3
340
0
102
{BLKREFS
331
CA
102
}
 70
     0
280
     1
281
     0
  0
BLOCK_RECORD
  5
CD
330
1
100
AcDbSymbolTableRecord
100
AcDbBlockTableRecord
  2
Block_4
340
0
102
{BLKREFS
331
CE
102
}
 70
     0
280
     1
281
     0
  0
BLOCK_RECORD
  5
D7
330
1
100
AcDbSymbolTableRecord
100
AcDbBlockTableRecord
  2
Block_5
340
0
102
{BLKREFS
331
D8
102
}
 70
     0
280
     1
281
     0
  0
BLOCK_RECORD
  5
E2
330
1
100
AcDbSymbolTableRecord
100
AcDbBlockTableRecord
  2
Block_6
340
0
102
{BLKREFS
331
E3
102
}
 70
     0
280
     1
281
     0
  0
BLOCK_RECORD
  5
EE
330
1
100
AcDbSymbolTableRecord
100
AcDbBlockTableRecord
  2
Block_7
340
0
102
{BLKREFS
331
EF
102
}
 70
     0
280
     1
281
     0
  0
BLOCK_RECORD
  5
F8
330
1
100
AcDbSymbolTableRecord
100
AcDbBlockTableRecord
  2
Block_8
340
0
102
{BLKREFS
331
F9
102
}
 70
     0
280
     1
281
     0
  0
BLOCK_RECORD
  5
FE
330
1
100
AcDbSymbolTableRecord
100
AcDbBlockTableRecord
  2
Block_9
340
0
102
{BLKREFS
331
FF
102
}
 70
     0
280
     1
281
     0
  0
BLOCK_RECORD
  5
124
330
1
100
AcDbSymbolTableRecord
100
AcDbBlockTableRecord
  2
Block_10
340
0
102
{BLKREFS
331
125
102
}
 70
     0
280
     1
281
     0
  0
BLOCK_RECORD
  5
128
330
1
100
AcDbSymbolTableRecord
100
AcDbBlockTableRecord
  2
Block_11
340
0
102
{BLKREFS
331
129
102
}
 70
     0
280
     1
281
     0
  0
BLOCK_RECORD
  5
12F
330
1
100
AcDbSymbolTableRecord
100
AcDbBlockTableRecord
  2
Block_12
340
0
102
{BLKREFS
331
130
102
}
 70
     0
280
     1
281
     0
  0
BLOCK_RECORD
  5
133
330
1
100
AcDbSymbolTableRecord
100
AcDbBlockTableRecord
  2
Block_13
340
0
102
{BLKREFS
331
134
102
}
 70
     0
280
     1
281
     0
  0
ENDTAB
  0
ENDSEC
  0
SECTION
  2
BLOCKS
  0
BLOCK
  5
71
330
70
100
AcDbEntity
  8
0
100
AcDbBlockBegin
  2
*Model_Space
 70
     0
 10
0.0
 20
0.0
 30
0.0
  3
*Model_Space
  1

  0
ENDBLK
  5
72
330
70
100
AcDbEntity
  8
0
100
AcDbBlockEnd
  0
BLOCK
  5
6D
330
6C
100
AcDbEntity
 67
     1
  8
0
100
AcDbBlockBegin
  2
*Paper_Space
 70
     0
 10
0.0
 20
0.0
 30
0.0
  3
*Paper_Space
  1

  0
ENDBLK
  5
6E
330
6C
100
AcDbEntity
 67
     1
  8
0
100
AcDbBlockEnd
  0
BLOCK
  5
75
330
74
100
AcDbEntity
 67
     1
  8
0
100
AcDbBlockBegin
  2
*Paper_Space0
 70
     0
 10
0.0
 20
0.0
 30
0.0
  3
*Paper_Space0
  1

  0
ENDBLK
  5
76
330
74
100
AcDbEntity
 67
     1
  8
0
100
AcDbBlockEnd
  0
BLOCK
  5
7B
330
79
100
AcDbEntity
  8
0
100
AcDbBlockBegin
  2
Block_0
 70
     0
 10
0.0
 20
0.0
 30
0.0
  3
Block_0
  1

  0
LINE
  5
7D
330
79
100
AcDbEntity
  8
レイヤー 1
 62
   250
420
  2299925
370
    25
100
AcDbLine
 10
109.7244667652705
 20
-154.1576310401408
 30
0.0
 11
101.72463113603
 21
-154.1576310401408
 31
0.0
  0
LINE
  5
7E
330
79
100
AcDbEntity
  8
レイヤー 1
 62
   250
420
  2299925
370
    25
100
AcDbLine
 10
81.72308414631197
 20
-145.657203542266
 30
0.0
 11
81.72308414631197
 21
-146.1574424310297
 31
0.0
  0
LINE
  5
7F
330
79
100
AcDbEntity
  8
レイヤー 1
 62
   250
420
  2299925
370
    25
100
AcDbLine
 10
101.72463113603
 20
-146.1574424310297
 30
0.0
 11
81.72308414631197
 21
-146.1574424310297
 31
0.0
  0
LINE
  5
80
330
79
100
AcDbEntity
  8
レイヤー 1
 62
   250
420
  2299925
370
    25
100
AcDbLine
 10
81.72308414631197
 20
-145.657203542266
 30
0.0
 11
82.23708135542104
 21
-146.0396146532811
 31
0.0
  0
LINE
  5
81
330
79
100
AcDbEntity
  8
レイヤー 1
 62
   250
420
  2299925
370
    25
100
AcDbLine
 10
82.23708135542104
 20
-146.0396146532811
 30
0.0
 11
82.72215078749033
 21
-145.6220668756076
 31
0.0
  0
LINE
  5
82
330
79
100
AcDbEntity
  8
レイヤー 1
 62
   250
420
  2299925
370
    25
100
AcDbLine
 10
83.23618327437626
 20
-146.003807708846
 30
0.0
 11
83.72192298420625
 21
-145.5862599311725
 31
0.0
  0
LINE
  5
83
330
79
100
AcDbEntity
  8
レイヤー 1
 62
   250
420
  2299925
370
    25
100
AcDbLine
 10
82.72215078749033
 20
-145.6220668756076
 30
0.0
 11
83.23618327437626
 21
-146.003807708846
 31
0.0
  0
LINE
  5
84
330
79
100
AcDbEntity
  8
レイヤー 1
 62
   250
420
  2299925
370
    25
100
AcDbLine
 10
83.72192298420625
 20
-145.5862599311725
 30
0.0
 11
84.23595547109218
 21
-145.9679654866327
 31
0.0
  0
LINE
  5
85
330
79
100
AcDbEntity
  8
レイヤー 1
 62
   250
420
  2299925
370
    25
100
AcDbLine
 10
84.23595547109218
 20
-145.9679654866327
 30
0.0
 11
84.72102490316148
 21
-145.5504177089593
 31
0.0
  0
LINE
  5
86
330
79
100
AcDbEntity
  8
レイヤー 1
 62
   250
420
  2299925
370
    25
100
AcDbLine
 10
84.72102490316148
 20
-145.5504177089593
 30
0.0
 11
85.23502211227054
 21
-145.9321232644195
 31
0.0
  0
LINE
  5
87
330
79
100
AcDbEntity
  8
レイヤー 1
 62
   250
420
  2299925
370
    25
100
AcDbLine
 10
85.23502211227054
 20
-145.9321232644195
 30
0.0
 11
85.7204443221086
 21
-145.514575486746
 31
0.0
  0
LINE
  5
88
330
79
100
AcDbEntity
  8
レイヤー 1
 62
   250
420
  2299925
370
    25
100
AcDbLine
 10
85.7204443221086
 20
-145.514575486746
 30
0.0
 11
86.23444153121766
 21
-145.8963163199838
 31
0.0
  0
LINE
  5
89
330
79
100
AcDbEntity
  8
レイヤー 1
 62
   250
420
  2299925
370
    25
100
AcDbLine
 10
86.23444153121766
 20
-145.8963163199838
 30
0.0
 11
86.71986374105573
 21
-145.4787685423103
 31
0.0
  0
LINE
  5
8A
330
79
100
AcDbEntity
  8
レイヤー 1
 62
   250
420
  2299925
370
    25
100
AcDbLine
 10
86.71986374105573
 20
-145.4787685423103
 30
0.0
 11
87.23386095016479
 21
-145.8611796533261
 31
0.0
  0
LINE
  5
8B
330
79
100
AcDbEntity
  8
レイヤー 1
 62
   250
420
  2299925
370
    25
100
AcDbLine
 10
87.23386095016479
 20
-145.8611796533261
 30
0.0
 11
87.71928316000286
 21
-145.4436318756526
 31
0.0
  0
LINE
  5
8C
330
79
100
AcDbEntity
  8
レイヤー 1
 62
   250
420
  2299925
370
    25
100
AcDbLine
 10
87.71928316000286
 20
-145.4436318756526
 30
0.0
 11
88.23292759134316
 21
-145.8253374311128
 31
0.0
  0
LINE
  5
8D
330
79
100
AcDbEntity
  8
レイヤー 1
 62
   250
420
  2299925
370
    25
100
AcDbLine
 10
88.23292759134316
 20
-145.8253374311128
 30
0.0
 11
88.71870257895
 21
-145.4077896534393
 31
0.0
  0
LINE
  5
8E
330
79
100
AcDbEntity
  8
レイヤー 1
 62
   250
420
  2299925
370
    25
100
AcDbLine
 10
89.23269978805938
 20
-145.7894952088996
 30
0.0
 11
89.71776922012868
 21
-145.3719827090036
 31
0.0
  0
LINE
  5
8F
330
79
100
AcDbEntity
  8
レイヤー 1
 62
   250
420
  2299925
370
    25
100
AcDbLine
 10
88.71870257895
 20
-145.4077896534393
 30
0.0
 11
89.23269978805938
 21
-145.7894952088996
 31
0.0
  0
LINE
  5
90
330
79
100
AcDbEntity
  8
レイヤー 1
 62
   250
420
  2299925
370
    25
100
AcDbLine
 10
89.71776922012868
 20
-145.3719827090036
 30
0.0
 11
90.23180170701428
 21
-145.7536882644638
 31
0.0
  0
LINE
  5
91
330
79
100
AcDbEntity
  8
レイヤー 1
 62
   250
420
  2299925
370
    25
100
AcDbLine
 10
90.23180170701428
 20
-145.7536882644638
 30
0.0
 11
90.71754141684426
 21
-145.3361404867903
 31
0.0
  0
LINE
  5
92
330
79
100
AcDbEntity
  8
レイヤー 1
 62
   250
420
  2299925
370
    25
100
AcDbLine
 10
91.23153862595332
 20
-145.7178460422506
 30
0.0
 11
91.71660805802261
 21
-145.3002982645771
 31
0.0
  0
LINE
  5
93
330
79
100
AcDbEntity
  8
レイヤー 1
 62
   250
420
  2299925
370
    25
100
AcDbLine
 10
90.71754141684426
 20
-145.3361404867903
 30
0.0
 11
91.23153862595332
 21
-145.7178460422506
 31
0.0
  0
LINE
  5
94
330
79
100
AcDbEntity
  8
レイヤー 1
 62
   250
420
  2299925
370
    25
100
AcDbLine
 10
92.23064054490855
 20
-145.6827093755929
 30
0.0
 11
92.71638025473853
 21
-145.2651615979194
 31
0.0
  0
LINE
  5
95
330
79
100
AcDbEntity
  8
レイヤー 1
 62
   250
420
  2299925
370
    25
100
AcDbLine
 10
91.71660805802261
 20
-145.3002982645771
 30
0.0
 11
92.23064054490855
 21
-145.6827093755929
 31
0.0
  0
LINE
  5
96
330
79
100
AcDbEntity
  8
レイヤー 1
 62
   250
420
  2299925
370
    25
100
AcDbLine
 10
92.71638025473853
 20
-145.2651615979194
 30
0.0
 11
93.23041274162447
 21
-145.6468671533796
 31
0.0
  0
LINE
  5
97
330
79
100
AcDbEntity
  8
レイヤー 1
 62
   250
420
  2299925
370
    25
100
AcDbLine
 10
93.23041274162447
 20
-145.6468671533796
 30
0.0
 11
93.71548217369376
 21
-145.2293546534836
 31
0.0
  0
LINE
  5
98
330
79
100
AcDbEntity
  8
レイヤー 1
 62
   250
420
  2299925
370
    25
100
AcDbLine
 10
93.71548217369376
 20
-145.2293546534836
 30
0.0
 11
94.2294793828028
 21
-145.6110602089438
 31
0.0
  0
LINE
  5
99
330
79
100
AcDbEntity
  8
レイヤー 1
 62
   250
420
  2299925
370
    25
100
AcDbLine
 10
94.2294793828028
 20
-145.6110602089438
 30
0.0
 11
94.71454881487209
 21
-145.1935124312704
 31
0.0
  0
LINE
  5
9A
330
79
100
AcDbEntity
  8
レイヤー 1
 62
   250
420
  2299925
370
    25
100
AcDbLine
 10
94.71454881487209
 20
-145.1935124312704
 30
0.0
 11
95.22854602398117
 21
-145.5752179867306
 31
0.0
  0
LINE
  5
9B
330
79
100
AcDbEntity
  8
レイヤー 1
 62
   250
420
  2299925
370
    25
100
AcDbLine
 10
95.22854602398117
 20
-145.5752179867306
 30
0.0
 11
95.71432101158801
 21
-145.1576702090571
 31
0.0
  0
LINE
  5
9C
330
79
100
AcDbEntity
  8
レイヤー 1
 62
   250
420
  2299925
370
    25
100
AcDbLine
 10
95.71432101158801
 20
-145.1576702090571
 30
0.0
 11
96.22831822069739
 21
-145.5394110422949
 31
0.0
  0
LINE
  5
9D
330
79
100
AcDbEntity
  8
レイヤー 1
 62
   250
420
  2299925
370
    25
100
AcDbLine
 10
96.22831822069739
 20
-145.5394110422949
 30
0.0
 11
96.71338765276637
 21
-145.121863264622
 31
0.0
  0
LINE
  5
9E
330
79
100
AcDbEntity
  8
レイヤー 1
 62
   250
420
  2299925
370
    25
100
AcDbLine
 10
96.71338765276637
 20
-145.121863264622
 30
0.0
 11
97.22738486187543
 21
-145.5042743756371
 31
0.0
  0
LINE
  5
9F
330
79
100
AcDbEntity
  8
レイヤー 1
 62
   250
420
  2299925
370
    25
100
AcDbLine
 10
97.22738486187543
 20
-145.5042743756371
 30
0.0
 11
97.71315984948229
 21
-145.0867265979637
 31
0.0
  0
LINE
  5
A0
330
79
100
AcDbEntity
  8
レイヤー 1
 62
   250
420
  2299925
370
    25
100
AcDbLine
 10
97.71315984948229
 20
-145.0867265979637
 30
0.0
 11
98.22715705859133
 21
-145.4684321534239
 31
0.0
  0
LINE
  5
A1
330
79
100
AcDbEntity
  8
レイヤー 1
 62
   250
420
  2299925
370
    25
100
AcDbLine
 10
98.22715705859133
 20
-145.4684321534239
 30
0.0
 11
98.71222649066062
 21
-145.0508843757504
 31
0.0
  0
LINE
  5
A2
330
79
100
AcDbEntity
  8
レイヤー 1
 62
   250
420
  2299925
370
    25
100
AcDbLine
 10
98.71222649066062
 20
-145.0508843757504
 30
0.0
 11
99.2262236997697
 21
-145.4325899312107
 31
0.0
  0
LINE
  5
A3
330
79
100
AcDbEntity
  8
レイヤー 1
 62
   250
420
  2299925
370
    25
100
AcDbLine
 10
99.2262236997697
 20
-145.4325899312107
 30
0.0
 11
99.71199868737654
 21
-145.0150421535372
 31
0.0
  0
LINE
  5
A4
330
79
100
AcDbEntity
  8
レイヤー 1
 62
   250
420
  2299925
370
    25
100
AcDbLine
 10
99.71199868737654
 20
-145.0150421535372
 30
0.0
 11
100.2259958964856
 21
-145.3967829867756
 31
0.0
  0
LINE
  5
A5
330
79
100
AcDbEntity
  8
レイヤー 1
 62
   250
420
  2299925
370
    25
100
AcDbLine
 10
100.2259958964856
 20
-145.3967829867756
 30
0.0
 11
100.7110653285549
 21
-144.9792352091021
 31
0.0
  0
LINE
  5
A6
330
79
100
AcDbEntity
  8
レイヤー 1
 62
   250
420
  2299925
370
    25
100
AcDbLine
 10
100.7110653285549
 20
-144.9792352091021
 30
0.0
 11
101.2250978154408
 21
-145.3609407645624
 31
0.0
  0
LINE
  5
A7
330
79
100
AcDbEntity
  8
レイヤー 1
 62
   250
420
  2299925
370
    25
100
AcDbLine
 10
101.2250978154408
 20
-145.3609407645624
 30
0.0
 11
101.7108375252708
 21
-144.9433929868888
 31
0.0
  0
LINE
  5
A8
330
79
100
AcDbEntity
  8
レイヤー 1
 62
   250
420
  2299925
370
    25
100
AcDbLine
 10
101.7848347344888
 20
-144.8951682646784
 30
0.0
 11
102.7244033327459
 21
-144.8951682646784
 31
0.0
  0
LINE
  5
A9
330
79
100
AcDbEntity
  8
レイヤー 1
 62
   250
420
  2299925
370
    25
100
AcDbLine
 10
102.7244033327459
 20
-144.8951682646784
 30
0.0
 11
102.7244033327459
 21
-153.1571885403909
 31
0.0
  0
LINE
  5
AA
330
79
100
AcDbEntity
  8
レイヤー 1
 62
   250
420
  2299925
370
    25
100
AcDbLine
 10
101.72463113603
 20
-146.1574424310297
 30
0.0
 11
101.72463113603
 21
-154.1576310401408
 31
0.0
  0
LINE
  5
AB
330
79
100
AcDbEntity
  8
レイヤー 1
 62
   250
420
  2299925
370
    25
100
AcDbLine
 10
108.7240242907939
 20
-153.1571885403909
 30
0.0
 11
102.7244033327459
 21
-153.1571885403909
 31
0.0
  0
LINE
  5
AC
330
79
100
AcDbEntity
  8
レイヤー 1
 62
   250
420
  2299925
370
    25
100
AcDbLine
 10
108.7240242907939
 20
-144.8951682646784
 30
0.0
 11
108.7240242907939
 21
-153.1571885403909
 31
0.0
  0
LINE
  5
AD
330
79
100
AcDbEntity
  8
レイヤー 1
 62
   250
420
  2299925
370
    25
100
AcDbLine
 10
109.7244667652705
 20
-144.8951682646784
 30
0.0
 11
109.7244667652705
 21
-154.1576310401408
 31
0.0
  0
CIRCLE
  5
AE
330
79
100
AcDbEntity
  8
レイヤー 1
 62
   250
420
  2299925
370
     9
100
AcDbCircle
 10
81.72308414631197
 20
-140.8954090990119
 30
0.0
 40
0.0999066653799771
  0
SPLINE
  5
AF
330
79
100
AcDbEntity
  8
レイヤー 1
 62
   250
420
  2299925
370
     9
100
AcDbSpline
210
0.0
220
0.0
230
1.0
 70
     9
 71
     3
 72
    17
 73
    13
 74
     0
 42
0.0000000001
 43
0.0000000001
 40
0.0
 40
0.0
 40
0.0
 40
0.0
 40
1.0
 40
1.0
 40
1.0
 40
2.0
 40
2.0
 40
2.0
 40
3.0
 40
3.0
 40
3.0
 40
4.0
 40
4.0
 40
4.0
 40
4.0
 10
77.82323174580582
 20
-145.657203542266
 30
0.0
 10
77.82323174580582
 20
-145.6020996533904
 30
0.0
 10
77.77846424694762
 20
-145.5572968756243
 30
0.0
 10
77.72297230391889
 20
-145.5572968756243
 30
0.0
 10
77.66786841643583
 20
-145.5572968756243
 30
0.0
 10
77.62306563980105
 20
-145.6020996533904
 30
0.0
 10
77.62306563980105
 20
-145.657203542266
 30
0.0
 10
77.62306563980105
 20
-145.7123427089184
 30
0.0
 10
77.66786841643583
 20
-145.7571102089076
 30
0.0
 10
77.72297230391889
 20
-145.7571102089076
 30
0.0
 10
77.77846424694762
 20
-145.7571102089076
 30
0.0
 10
77.82323174580582
 20
-145.7123427089184
 30
0.0
 10
77.82323174580582
 20
-145.657203542266
 30
0.0
  0
SPLINE
  5
B0
330
79
100
AcDbEntity
  8
レイヤー 1
 62
   250
420
  2299925
370
     9
100
AcDbSpline
210
0.0
220
0.0
230
1.0
 70
     9
 71
     3
 72
    17
 73
    13
 74
     0
 42
0.0000000001
 43
0.0000000001
 40
0.0
 40
0.0
 40
0.0
 40
0.0
 40
1.0
 40
1.0
 40
1.0
 40
2.0
 40
2.0
 40
2.0
 40
3.0
 40
3.0
 40
3.0
 40
4.0
 40
4.0
 40
4.0
 40
4.0
 10
77.82323174580582
 20
-146.1574424310297
 30
0.0
 10
77.82323174580582
 20
-146.1023385421547
 30
0.0
 10
77.77846424694762
 20
-146.057535764388
 30
0.0
 10
77.72297230391889
 20
-146.057535764388
 30
0.0
 10
77.66786841643583
 20
-146.057535764388
 30
0.0
 10
77.62306563980105
 20
-146.1023385421547
 30
0.0
 10
77.62306563980105
 20
-146.1574424310297
 30
0.0
 10
77.62306563980105
 20
-146.2125815976827
 30
0.0
 10
77.66786841643583
 20
-146.2573490976713
 30
0.0
 10
77.72297230391889
 20
-146.2573490976713
 30
0.0
 10
77.77846424694762
 20
-146.2573490976713
 30
0.0
 10
77.82323174580582
 20
-146.2125815976827
 30
0.0
 10
77.82323174580582
 20
-146.1574424310297
 30
0.0
  0
SPLINE
  5
B1
330
79
100
AcDbEntity
  8
レイヤー 1
 62
   250
420
  2299925
370
     9
100
AcDbSpline
210
0.0
220
0.0
230
1.0
 70
     9
 71
     3
 72
    17
 73
    13
 74
     0
 42
0.0000000001
 43
0.0000000001
 40
0.0
 40
0.0
 40
0.0
 40
0.0
 40
1.0
 40
1.0
 40
1.0
 40
2.0
 40
2.0
 40
2.0
 40
3.0
 40
3.0
 40
3.0
 40
4.0
 40
4.0
 40
4.0
 40
4.0
 10
77.82323174580582
 20
-154.1576310401408
 30
0.0
 10
77.82323174580582
 20
-154.1025271512659
 30
0.0
 10
77.77846424694762
 20
-154.0577243734992
 30
0.0
 10
77.72297230391889
 20
-154.0577243734992
 30
0.0
 10
77.66786841643583
 20
-154.0577243734992
 30
0.0
 10
77.62306563980105
 20
-154.1025271512659
 30
0.0
 10
77.62306563980105
 20
-154.1576310401408
 30
0.0
 10
77.62306563980105
 20
-154.2127702067939
 30
0.0
 10
77.66786841643583
 20
-154.25757298456
 30
0.0
 10
77.72297230391889
 20
-154.25757298456
 30
0.0
 10
77.77846424694762
 20
-154.25757298456
 30
0.0
 10
77.82323174580582
 20
-154.2127702067939
 30
0.0
 10
77.82323174580582
 20
-154.1576310401408
 30
0.0
  0
CIRCLE
  5
B2
330
79
100
AcDbEntity
  8
レイヤー 1
 62
   250
420
  2299925
370
     9
100
AcDbCircle
 10
102.7244033327459
 20
-140.8954090990119
 30
0.0
 40
0.0999066653799771
  0
CIRCLE
  5
B3
330
79
100
AcDbEntity
  8
レイヤー 1
 62
   250
420
  2299925
370
     9
100
AcDbCircle
 10
108.7240242907939
 20
-140.8954090990119
 30
0.0
 40
0.0999066653799771
  0
LINE
  5
B4
330
79
100
AcDbEntity
  8
レイヤー 1
 62
   250
420
  2299925
370
     9
100
AcDbLine
 10
77.72297230391889
 20
-145.657203542266
 30
0.0
 11
77.72297230391889
 21
-140.3992977102471
 31
0.0
  0
LINE
  5
B5
330
79
100
AcDbEntity
  8
レイヤー 1
 62
   250
420
  2299925
370
     9
100
AcDbLine
 10
77.72297230391889
 20
-145.657203542266
 30
0.0
 11
77.72297230391889
 21
-146.1574424310297
 31
0.0
  0
LINE
  5
B6
330
79
100
AcDbEntity
  8
レイヤー 1
 62
   250
420
  2299925
370
     9
100
AcDbLine
 10
79.18301365555902
 20
-145.657203542266
 30
0.0
 11
76.72288260721109
 21
-145.657203542266
 31
0.0
  0
LINE
  5
B7
330
79
100
AcDbEntity
  8
レイヤー 1
 62
   250
420
  2299925
370
     9
100
AcDbLine
 10
79.18301365555902
 20
-146.1574424310297
 30
0.0
 11
76.72288260721109
 21
-146.1574424310297
 31
0.0
  0
INSERT
  5
B9
330
79
100
AcDbEntity
  8
レイヤー 1
100
AcDbBlockReference
  2
Block_1
 10
0.0
 20
0.0
 30
0.0
  0
LINE
  5
C7
330
79
100
AcDbEntity
  8
レイヤー 1
 62
   250
420
  2299925
370
     9
100
AcDbLine
 10
81.72308414631197
 20
-140.8954090990121
 30
0.0
 11
102.7244033327459
 21
-140.8954090990121
 31
0.0
  0
LINE
  5
C8
330
79
100
AcDbEntity
  8
レイヤー 1
 62
   250
420
  2299925
370
     9
100
AcDbLine
 10
81.72308414631197
 20
-143.1174857651228
 30
0.0
 11
81.72308414631197
 21
-139.8956368770396
 31
0.0
  0
INSERT
  5
CA
330
79
100
AcDbEntity
  8
レイヤー 1
100
AcDbBlockReference
  2
Block_3
 10
0.0
 20
0.0
 30
0.0
  0
LINE
  5
D5
330
79
100
AcDbEntity
  8
レイヤー 1
 62
   250
420
  2299925
370
     9
100
AcDbLine
 10
77.72297230391889
 20
-146.1574424310297
 30
0.0
 11
77.72297230391889
 21
-154.1576310401408
 31
0.0
  0
LINE
  5
D6
330
79
100
AcDbEntity
  8
レイヤー 1
 62
   250
420
  2299925
370
     9
100
AcDbLine
 10
99.18491342304584
 20
-154.1576310401408
 30
0.0
 11
76.72288260721109
 21
-154.1576310401408
 31
0.0
  0
INSERT
  5
D8
330
79
100
AcDbEntity
  8
レイヤー 1
100
AcDbBlockReference
  2
Block_5
 10
0.0
 20
0.0
 30
0.0
  0
LINE
  5
DF
330
79
100
AcDbEntity
  8
レイヤー 1
 62
   250
420
  2299925
370
     9
100
AcDbLine
 10
102.7244033327459
 20
-140.8954090990121
 30
0.0
 11
108.7240242907939
 21
-140.8954090990121
 31
0.0
  0
LINE
  5
E0
330
79
100
AcDbEntity
  8
レイヤー 1
 62
   250
420
  2299925
370
     9
100
AcDbLine
 10
102.7244033327459
 20
-142.3554504875358
 30
0.0
 11
102.7244033327459
 21
-139.8956368770396
 31
0.0
  0
LINE
  5
E1
330
79
100
AcDbEntity
  8
レイヤー 1
 62
   250
420
  2299925
370
     9
100
AcDbLine
 10
108.7240242907939
 20
-142.3554504875358
 30
0.0
 11
108.7240242907939
 21
-139.8956368770396
 31
0.0
  0
INSERT
  5
E3
330
79
100
AcDbEntity
  8
レイヤー 1
100
AcDbBlockReference
  2
Block_6
 10
0.0
 20
0.0
 30
0.0
  0
SPLINE
  5
E9
330
79
100
AcDbEntity
  8
レイヤー 1
 62
   250
420
  2299925
370
     9
100
AcDbSpline
210
0.0
220
0.0
230
1.0
 70
     9
 71
     3
 72
    17
 73
    13
 74
     0
 42
0.0000000001
 43
0.0000000001
 40
0.0
 40
0.0
 40
0.0
 40
0.0
 40
1.0
 40
1.0
 40
1.0
 40
2.0
 40
2.0
 40
2.0
 40
3.0
 40
3.0
 40
3.0
 40
4.0
 40
4.0
 40
4.0
 40
4.0
 10
101.8245378001478
 20
-158.271090483557
 30
0.0
 10
101.8245378001478
 20
-158.2159865946814
 30
0.0
 10
101.7790674327041
 20
-158.1711838169153
 30
0.0
 10
101.7239255804924
 20
-158.1711838169153
 30
0.0
 10
101.6688216930093
 20
-158.1711838169153
 30
0.0
 10
101.6240189163746
 20
-158.2159865946814
 30
0.0
 10
101.6240189163746
 20
-158.271090483557
 30
0.0
 10
101.6240189163746
 20
-158.3262296502094
 30
0.0
 10
101.6688216930093
 20
-158.3709971501986
 30
0.0
 10
101.7239255804924
 20
-158.3709971501986
 30
0.0
 10
101.7790674327041
 20
-158.3709971501986
 30
0.0
 10
101.8245378001478
 20
-158.3262296502094
 30
0.0
 10
101.8245378001478
 20
-158.271090483557
 30
0.0
  0
CIRCLE
  5
EA
330
79
100
AcDbEntity
  8
レイヤー 1
 62
   250
420
  2299925
370
     9
100
AcDbCircle
 10
109.7244667652705
 20
-158.271090483557
 30
0.0
 40
0.0999066653797365
  0
LINE
  5
EB
330
79
100
AcDbEntity
  8
レイヤー 1
 62
   250
420
  2299925
370
     9
100
AcDbLine
 10
109.7244667652705
 20
-158.271090483557
 30
0.0
 11
101.7239255804924
 21
-158.271090483557
 31
0.0
  0
LINE
  5
EC
330
79
100
AcDbEntity
  8
レイヤー 1
 62
   250
420
  2299925
370
     9
100
AcDbLine
 10
109.7244667652705
 20
-156.8110490950326
 30
0.0
 11
109.7244667652705
 21
-159.2708627055289
 31
0.0
  0
LINE
  5
ED
330
79
100
AcDbEntity
  8
レイヤー 1
 62
   250
420
  2299925
370
     9
100
AcDbLine
 10
101.7239255804924
 20
-156.8110490950326
 30
0.0
 11
101.7239255804924
 21
-159.2708627055289
 31
0.0
  0
INSERT
  5
EF
330
79
100
AcDbEntity
  8
レイヤー 1
100
AcDbBlockReference
  2
Block_7
 10
0.0
 20
0.0
 30
0.0
  0
LINE
  5
F6
330
79
100
AcDbEntity
  8
レイヤー 1
 62
   250
420
  2299925
370
    25
100
AcDbLine
 10
109.7244667652705
 20
-144.8951682646784
 30
0.0
 11
108.7240242907939
 21
-144.8951682646784
 31
0.0
  0
LINE
  5
F7
330
79
100
AcDbEntity
  8
レイヤー 1
 62
   250
420
  2299925
370
     9
100
AcDbLine
 10
106.665918787745
 20
-150.3025813188823
 30
0.0
 11
114.6661424725312
 21
-150.3025813188823
 31
0.0
  0
INSERT
  5
F9
330
79
100
AcDbEntity
  8
レイヤー 1
100
AcDbBlockReference
  2
Block_8
 10
0.0
 20
0.0
 30
0.0
  0
INSERT
  5
FF
330
79
100
AcDbEntity
  8
レイヤー 1
100
AcDbBlockReference
  2
Block_9
 10
0.0
 20
0.0
 30
0.0
  0
LINE
  5
122
330
79
100
AcDbEntity
  8
レイヤー 1
  6
AI-Linetype-0
 62
   154
420
    23468
370
    25
100
AcDbLine
 10
81.72308414631197
 20
-147.0331779863659
 30
0.0
 11
91.7228169467531
 21
-147.0331779863659
 31
0.0
  0
INSERT
  5
125
330
79
100
AcDbEntity
  8
レイヤー 1
100
AcDbBlockReference
  2
Block_10
 10
0.0
 20
0.0
 30
0.0
  0
ENDBLK
  5
7C
330
79
100
AcDbEntity
  8
0
100
AcDbBlockEnd
  0
BLOCK
  5
BA
330
B8
100
AcDbEntity
  8
0
100
AcDbBlockBegin
  2
Block_1
 70
     0
 10
0.0
 20
0.0
 30
0.0
  3
Block_1
  1

  0
INSERT
  5
BD
330
B8
100
AcDbEntity
  8
レイヤー 1
100
AcDbBlockReference
  2
Block_2
 10
0.0
 20
0.0
 30
0.0
  0
ENDBLK
  5
BB
330
B8
100
AcDbEntity
  8
0
100
AcDbBlockEnd
  0
BLOCK
  5
BE
330
BC
100
AcDbEntity
  8
0
100
AcDbBlockBegin
  2
Block_2
 70
     0
 10
0.0
 20
0.0
 30
0.0
  3
Block_2
  1

  0
SPLINE
  5
C0
330
BC
100
AcDbEntity
  8
レイヤー 1
100
AcDbSpline
210
0.0
220
0.0
230
1.0
 70
     9
 71
     3
 72
    17
 73
    13
 74
     0
 42
0.0000000001
 43
0.0000000001
 40
0.0
 40
0.0
 40
0.0
 40
0.0
 40
1.0
 40
1.0
 40
1.0
 40
2.0
 40
2.0
 40
2.0
 40
3.0
 40
3.0
 40
3.0
 40
4.0
 40
4.0
 40
4.0
 40
4.0
 10
74.87846135280816
 20
-146.7714029580988
 30
0.0
 10
74.87846135280816
 20
-147.0211723807794
 30
0.0
 10
75.16182045646996
 20
-147.0676811698303
 30
0.0
 10
75.50667451454348
 20
-147.0676811698303
 30
0.0
 10
75.82620712080039
 20
-147.0676811698303
 30
0.0
 10
76.13505993105305
 20
-147.0315076672352
 30
0.0
 10
76.13505993105305
 20
-146.7714029580988
 30
0.0
 10
76.13505993105305
 20
-146.5237005927093
 30
0.0
 10
75.85359562990813
 20
-146.4751247463673
 30
0.0
 10
75.50667451454348
 20
-146.4751247463673
 30
0.0
 10
75.18731416306081
 20
-146.4751247463673
 30
0.0
 10
74.87846135280816
 20
-146.5133653062536
 30
0.0
 10
74.87846135280816
 20
-146.7714029580988
 30
0.0
  0
SPLINE
  5
C1
330
BC
100
AcDbEntity
  8
レイヤー 1
100
AcDbSpline
210
0.0
220
0.0
230
1.0
 70
     9
 71
     3
 72
    29
 73
    25
 74
     0
 42
0.0000000001
 43
0.0000000001
 40
0.0
 40
0.0
 40
0.0
 40
0.0
 40
1.0
 40
1.0
 40
1.0
 40
2.0
 40
2.0
 40
2.0
 40
3.0
 40
3.0
 40
3.0
 40
4.0
 40
4.0
 40
4.0
 40
5.0
 40
5.0
 40
5.0
 40
6.0
 40
6.0
 40
6.0
 40
7.0
 40
7.0
 40
7.0
 40
8.0
 40
8.0
 40
8.0
 40
8.0
 10
76.10112574052333
 20
-146.3734944295524
 30
0.0
 10
76.31058754602652
 20
-146.4816704277893
 30
0.0
 10
76.32970782596967
 20
-146.6549587306974
 30
0.0
 10
76.32970782596967
 20
-146.7714029580988
 30
0.0
 10
76.32970782596967
 20
-146.93228891726
 30
0.0
 10
76.28319903691878
 20
-147.0738823417037
 30
0.0
 10
76.10112574052333
 20
-147.1689669770966
 30
0.0
 10
75.90665010038098
 20
-147.2726643512026
 30
0.0
 10
75.6696275309958
 20
-147.2919568859201
 30
0.0
 10
75.50667451454348
 20
-147.2919568859201
 30
0.0
 10
75.36284177803429
 20
-147.2919568859201
 30
0.0
 10
75.11117755283679
 20
-147.2747314084938
 30
0.0
 10
74.91222328856361
 20
-147.1689669770966
 30
0.0
 10
74.70913490970814
 20
-147.0611354884083
 30
0.0
 10
74.6858805151827
 20
-146.9002495292471
 30
0.0
 10
74.6858805151827
 20
-146.7714029580988
 30
0.0
 10
74.6858805151827
 20
-146.6125840562288
 30
0.0
 10
74.73032224694242
 20
-146.4689235744939
 30
0.0
 10
74.91222328856361
 20
-146.3734944295524
 30
0.0
 10
75.10480412618908
 20
-146.2742756795772
 30
0.0
 10
75.33321395686114
 20
-146.2508490302776
 30
0.0
 10
75.50667451454348
 20
-146.2508490302776
 30
0.0
 10
75.67806801493465
 20
-146.2508490302776
 30
0.0
 10
75.90871715767213
 20
-146.2722086222861
 30
0.0
 10
76.10112574052333
 20
-146.3734944295524
 30
0.0
  0
HATCH
  5
C2
330
BC
100
AcDbEntity
  8
レイヤー 1
 62
   250
420
  2299925
440
 33554687
100
AcDbHatch
 10
0.0
 20
0.0
 30
0.0
210
0.0
220
0.0
230
1.0
  2
SOLID
 70
     1
 71
     1
 91
        2
 92
        1
 93
        1
 72
     4
 94
        3
 73
     0
 74
     0
 95
       17
 96
       13
 40
0.0
 40
0.0
 40
0.0
 40
0.0
 40
1.0
 40
1.0
 40
1.0
 40
2.0
 40
2.0
 40
2.0
 40
3.0
 40
3.0
 40
3.0
 40
4.0
 40
4.0
 40
4.0
 40
4.0
 10
74.87846135280816
 20
-146.7714029580988
 10
74.87846135280816
 20
-147.0211723807794
 10
75.16182045646996
 20
-147.0676811698303
 10
75.50667451454348
 20
-147.0676811698303
 10
75.82620712080039
 20
-147.0676811698303
 10
76.13505993105305
 20
-147.0315076672352
 10
76.13505993105305
 20
-146.7714029580988
 10
76.13505993105305
 20
-146.5237005927093
 10
75.85359562990813
 20
-146.4751247463673
 10
75.50667451454348
 20
-146.4751247463673
 10
75.18731416306081
 20
-146.4751247463673
 10
74.87846135280816
 20
-146.5133653062536
 10
74.87846135280816
 20
-146.7714029580988
 97
        0
 97
        1
330
C0
 92
        1
 93
        1
 72
     4
 94
        3
 73
     0
 74
     0
 95
       29
 96
       25
 40
0.0
 40
0.0
 40
0.0
 40
0.0
 40
1.0
 40
1.0
 40
1.0
 40
2.0
 40
2.0
 40
2.0
 40
3.0
 40
3.0
 40
3.0
 40
4.0
 40
4.0
 40
4.0
 40
5.0
 40
5.0
 40
5.0
 40
6.0
 40
6.0
 40
6.0
 40
7.0
 40
7.0
 40
7.0
 40
8.0
 40
8.0
 40
8.0
 40
8.0
 10
76.10112574052333
 20
-146.3734944295524
 10
76.31058754602652
 20
-146.4816704277893
 10
76.32970782596967
 20
-146.6549587306974
 10
76.32970782596967
 20
-146.7714029580988
 10
76.32970782596967
 20
-146.93228891726
 10
76.28319903691878
 20
-147.0738823417037
 10
76.10112574052333
 20
-147.1689669770966
 10
75.90665010038098
 20
-147.2726643512026
 10
75.6696275309958
 20
-147.2919568859201
 10
75.50667451454348
 20
-147.2919568859201
 10
75.36284177803429
 20
-147.2919568859201
 10
75.11117755283679
 20
-147.2747314084938
 10
74.91222328856361
 20
-147.1689669770966
 10
74.70913490970814
 20
-147.0611354884083
 10
74.6858805151827
 20
-146.9002495292471
 10
74.6858805151827
 20
-146.7714029580988
 10
74.6858805151827
 20
-146.6125840562288
 10
74.73032224694242
 20
-146.4689235744939
 10
74.91222328856361
 20
-146.3734944295524
 10
75.10480412618908
 20
-146.2742756795772
 10
75.33321395686114
 20
-146.2508490302776
 10
75.50667451454348
 20
-146.2508490302776
 10
75.67806801493465
 20
-146.2508490302776
 10
75.90871715767213
 20
-146.2722086222861
 10
76.10112574052333
 20
-146.3734944295524
 97
        0
 97
        1
330
C1
 75
     2
 76
     1
 98
        1
 10
0.0
 20
0.0
450
        0
451
        0
460
0.0
461
0.0
452
        0
462
0.0
453
        0
470

  0
SPLINE
  5
C3
330
BC
100
AcDbEntity
  8
レイヤー 1
100
AcDbSpline
210
0.0
220
0.0
230
1.0
 70
    11
 71
     3
 72
    17
 73
    13
 74
     0
 42
0.0000000001
 43
0.0000000001
 40
0.0
 40
0.0
 40
0.0
 40
0.0
 40
1.0
 40
1.0
 40
1.0
 40
2.0
 40
2.0
 40
2.0
 40
3.0
 40
3.0
 40
3.0
 40
4.0
 40
4.0
 40
4.0
 40
4.0
 10
76.27889266756222
 20
-146.0344970338039
 30
0.0
 10
76.27889266756222
 20
-146.0344970338039
 30
0.0
 10
76.02722844236473
 20
-146.0344970338039
 30
0.0
 10
76.02722844236473
 20
-146.0344970338039
 30
0.0
 10
76.02722844236473
 20
-146.0344970338039
 30
0.0
 10
76.02722844236473
 20
-145.7826605538321
 30
0.0
 10
76.02722844236473
 20
-145.7826605538321
 30
0.0
 10
76.02722844236473
 20
-145.7826605538321
 30
0.0
 10
76.27889266756222
 20
-145.7826605538321
 30
0.0
 10
76.27889266756222
 20
-145.7826605538321
 30
0.0
 10
76.27889266756222
 20
-145.7826605538321
 30
0.0
 10
76.27889266756222
 20
-146.0344970338039
 30
0.0
 10
76.27889266756222
 20
-146.0344970338039
 30
0.0
  0
HATCH
  5
C4
330
BC
100
AcDbEntity
  8
レイヤー 1
 62
   250
420
  2299925
440
 33554687
100
AcDbHatch
 10
0.0
 20
0.0
 30
0.0
210
0.0
220
0.0
230
1.0
  2
SOLID
 70
     1
 71
     1
 91
        1
 92
        1
 93
        1
 72
     4
 94
        3
 73
     0
 74
     0
 95
       17
 96
       13
 40
0.0
 40
0.0
 40
0.0
 40
0.0
 40
1.0
 40
1.0
 40
1.0
 40
2.0
 40
2.0
 40
2.0
 40
3.0
 40
3.0
 40
3.0
 40
4.0
 40
4.0
 40
4.0
 40
4.0
 10
76.27889266756222
 20
-146.0344970338039
 10
76.27889266756222
 20
-146.0344970338039
 10
76.02722844236473
 20
-146.0344970338039
 10
76.02722844236473
 20
-146.0344970338039
 10
76.02722844236473
 20
-146.0344970338039
 10
76.02722844236473
 20
-145.7826605538321
 10
76.02722844236473
 20
-145.7826605538321
 10
76.02722844236473
 20
-145.7826605538321
 10
76.27889266756222
 20
-145.7826605538321
 10
76.27889266756222
 20
-145.7826605538321
 10
76.27889266756222
 20
-145.7826605538321
 10
76.27889266756222
 20
-146.0344970338039
 10
76.27889266756222
 20
-146.0344970338039
 97
        0
 97
        1
330
C3
 75
     2
 76
     1
 98
        1
 10
0.0
 20
0.0
450
        0
451
        0
460
0.0
461
0.0
452
        0
462
0.0
453
        0
470

  0
SPLINE
  5
C5
330
BC
100
AcDbEntity
  8
レイヤー 1
100
AcDbSpline
210
0.0
220
0.0
230
1.0
 70
     9
 71
     3
 72
    53
 73
    49
 74
     0
 42
0.0000000001
 43
0.0000000001
 40
0.0
 40
0.0
 40
0.0
 40
0.0
 40
1.0
 40
1.0
 40
1.0
 40
2.0
 40
2.0
 40
2.0
 40
3.0
 40
3.0
 40
3.0
 40
4.0
 40
4.0
 40
4.0
 40
5.0
 40
5.0
 40
5.0
 40
6.0
 40
6.0
 40
6.0
 40
7.0
 40
7.0
 40
7.0
 40
8.0
 40
8.0
 40
8.0
 40
9.0
 40
9.0
 40
9.0
 40
10.0
 40
10.0
 40
10.0
 40
11.0
 40
11.0
 40
11.0
 40
12.0
 40
12.0
 40
12.0
 40
13.0
 40
13.0
 40
13.0
 40
14.0
 40
14.0
 40
14.0
 40
15.0
 40
15.0
 40
15.0
 40
16.0
 40
16.0
 40
16.0
 40
16.0
 10
76.32970782596967
 20
-145.0653916738031
 30
0.0
 10
76.32970782596967
 20
-145.1435953413183
 30
0.0
 10
76.31282685809193
 20
-145.2452256581331
 30
0.0
 10
76.24926484638908
 20
-145.346855974948
 30
0.0
 10
76.13919404563535
 20
-145.5201442778561
 30
0.0
 10
76.00810816242159
 20
-145.5415038698646
 30
0.0
 10
75.90027667373327
 20
-145.5604518950335
 30
0.0
 10
75.90027667373327
 20
-145.5604518950335
 30
0.0
 10
75.90027667373327
 20
-145.3382432362349
 30
0.0
 10
75.90027667373327
 20
-145.3382432362349
 30
0.0
 10
76.09905868323219
 20
-145.2834662180194
 30
0.0
 10
76.12868650440534
 20
-145.1563421946137
 30
0.0
 10
76.12868650440534
 20
-145.0633246165119
 30
0.0
 10
76.12868650440534
 20
-144.9237982493593
 30
0.0
 10
76.02929549965587
 20
-144.7715250289113
 30
0.0
 10
75.79657929962725
 20
-144.7715250289113
 30
0.0
 10
75.54060870507318
 20
-144.7715250289113
 30
0.0
 10
75.47084552149687
 20
-144.9513590132413
 30
0.0
 10
75.47084552149687
 20
-145.0719373552251
 30
0.0
 10
75.47084552149687
 20
-145.1036322336894
 30
0.0
 10
75.47084552149687
 20
-145.2452256581331
 30
0.0
 10
75.59986434741948
 20
-145.3341091216526
 30
0.0
 10
75.59986434741948
 20
-145.3341091216526
 30
0.0
 10
75.58074406747635
 20
-145.5098089914003
 30
0.0
 10
75.58074406747635
 20
-145.5098089914003
 30
0.0
 10
75.58074406747635
 20
-145.5098089914003
 30
0.0
 10
74.73462861629899
 20
-145.3892306494166
 30
0.0
 10
74.73462861629899
 20
-145.3892306494166
 30
0.0
 10
74.73462861629899
 20
-145.3892306494166
 30
0.0
 10
74.73462861629899
 20
-144.6106390697501
 30
0.0
 10
74.73462861629899
 20
-144.6106390697501
 30
0.0
 10
74.73462861629899
 20
-144.6106390697501
 30
0.0
 10
74.92927651121561
 20
-144.6106390697501
 30
0.0
 10
74.92927651121561
 20
-144.6106390697501
 30
0.0
 10
74.92927651121561
 20
-144.6106390697501
 30
0.0
 10
74.92927651121561
 20
-145.2262776329642
 30
0.0
 10
74.92927651121561
 20
-145.2262776329642
 30
0.0
 10
74.92927651121561
 20
-145.2262776329642
 30
0.0
 10
75.35233423680428
 20
-145.291734447184
 30
0.0
 10
75.35233423680428
 20
-145.291734447184
 30
0.0
 10
75.31840004627458
 20
-145.2304117475466
 30
0.0
 10
75.27826468387141
 20
-145.1480739654491
 30
0.0
 10
75.27826468387141
 20
-145.0295626807565
 30
0.0
 10
75.27826468387141
 20
-144.7756591434936
 30
0.0
 10
75.46447209484916
 20
-144.5386365741084
 30
0.0
 10
75.77745901968412
 20
-144.5386365741084
 30
0.0
 10
76.09492456864988
 20
-144.5386365741084
 30
0.0
 10
76.32970782596967
 20
-144.7629122901981
 30
0.0
 10
76.32970782596967
 20
-145.0653916738031
 30
0.0
  0
HATCH
  5
C6
330
BC
100
AcDbEntity
  8
レイヤー 1
 62
   250
420
  2299925
440
 33554687
100
AcDbHatch
 10
0.0
 20
0.0
 30
0.0
210
0.0
220
0.0
230
1.0
  2
SOLID
 70
     1
 71
     1
 91
        1
 92
        1
 93
        1
 72
     4
 94
        3
 73
     0
 74
     0
 95
       53
 96
       49
 40
0.0
 40
0.0
 40
0.0
 40
0.0
 40
1.0
 40
1.0
 40
1.0
 40
2.0
 40
2.0
 40
2.0
 40
3.0
 40
3.0
 40
3.0
 40
4.0
 40
4.0
 40
4.0
 40
5.0
 40
5.0
 40
5.0
 40
6.0
 40
6.0
 40
6.0
 40
7.0
 40
7.0
 40
7.0
 40
8.0
 40
8.0
 40
8.0
 40
9.0
 40
9.0
 40
9.0
 40
10.0
 40
10.0
 40
10.0
 40
11.0
 40
11.0
 40
11.0
 40
12.0
 40
12.0
 40
12.0
 40
13.0
 40
13.0
 40
13.0
 40
14.0
 40
14.0
 40
14.0
 40
15.0
 40
15.0
 40
15.0
 40
16.0
 40
16.0
 40
16.0
 40
16.0
 10
76.32970782596967
 20
-145.0653916738031
 10
76.32970782596967
 20
-145.1435953413183
 10
76.31282685809193
 20
-145.2452256581331
 10
76.24926484638908
 20
-145.346855974948
 10
76.13919404563535
 20
-145.5201442778561
 10
76.00810816242159
 20
-145.5415038698646
 10
75.90027667373327
 20
-145.5604518950335
 10
75.90027667373327
 20
-145.5604518950335
 10
75.90027667373327
 20
-145.3382432362349
 10
75.90027667373327
 20
-145.3382432362349
 10
76.09905868323219
 20
-145.2834662180194
 10
76.12868650440534
 20
-145.1563421946137
 10
76.12868650440534
 20
-145.0633246165119
 10
76.12868650440534
 20
-144.9237982493593
 10
76.02929549965587
 20
-144.7715250289113
 10
75.79657929962725
 20
-144.7715250289113
 10
75.54060870507318
 20
-144.7715250289113
 10
75.47084552149687
 20
-144.9513590132413
 10
75.47084552149687
 20
-145.0719373552251
 10
75.47084552149687
 20
-145.1036322336894
 10
75.47084552149687
 20
-145.2452256581331
 10
75.59986434741948
 20
-145.3341091216526
 10
75.59986434741948
 20
-145.3341091216526
 10
75.58074406747635
 20
-145.5098089914003
 10
75.58074406747635
 20
-145.5098089914003
 10
75.58074406747635
 20
-145.5098089914003
 10
74.73462861629899
 20
-145.3892306494166
 10
74.73462861629899
 20
-145.3892306494166
 10
74.73462861629899
 20
-145.3892306494166
 10
74.73462861629899
 20
-144.6106390697501
 10
74.73462861629899
 20
-144.6106390697501
 10
74.73462861629899
 20
-144.6106390697501
 10
74.92927651121561
 20
-144.6106390697501
 10
74.92927651121561
 20
-144.6106390697501
 10
74.92927651121561
 20
-144.6106390697501
 10
74.92927651121561
 20
-145.2262776329642
 10
74.92927651121561
 20
-145.2262776329642
 10
74.92927651121561
 20
-145.2262776329642
 10
75.35233423680428
 20
-145.291734447184
 10
75.35233423680428
 20
-145.291734447184
 10
75.31840004627458
 20
-145.2304117475466
 10
75.27826468387141
 20
-145.1480739654491
 10
75.27826468387141
 20
-145.0295626807565
 10
75.27826468387141
 20
-144.7756591434936
 10
75.46447209484916
 20
-144.5386365741084
 10
75.77745901968412
 20
-144.5386365741084
 10
76.09492456864988
 20
-144.5386365741084
 10
76.32970782596967
 20
-144.7629122901981
 10
76.32970782596967
 20
-145.0653916738031
 97
        0
 97
        1
330
C5
 75
     2
 76
     1
 98
        1
 10
0.0
 20
0.0
450
        0
451
        0
460
0.0
461
0.0
452
        0
462
0.0
453
        0
470

  0
ENDBLK
  5
BF
330
BC
100
AcDbEntity
  8
0
100
AcDbBlockEnd
  0
BLOCK
  5
CB
330
C9
100
AcDbEntity
  8
0
100
AcDbBlockBegin
  2
Block_3
 70
     0
 10
0.0
 20
0.0
 30
0.0
  3
Block_3
  1

  0
INSERT
  5
CE
330
C9
100
AcDbEntity
  8
レイヤー 1
100
AcDbBlockReference
  2
Block_4
 10
0.0
 20
0.0
 30
0.0
  0
ENDBLK
  5
CC
330
C9
100
AcDbEntity
  8
0
100
AcDbBlockEnd
  0
BLOCK
  5
CF
330
CD
100
AcDbEntity
  8
0
100
AcDbBlockBegin
  2
Block_4
 70
     0
 10
0.0
 20
0.0
 30
0.0
  3
Block_4
  1

  0
SPLINE
  5
D1
330
CD
100
AcDbEntity
  8
レイヤー 1
100
AcDbSpline
210
0.0
220
0.0
230
1.0
 70
     9
 71
     3
 72
    44
 73
    40
 74
     0
 42
0.0000000001
 43
0.0000000001
 40
0.0
 40
0.0
 40
0.0
 40
0.0
 40
1.0
 40
1.0
 40
1.0
 40
2.0
 40
2.0
 40
2.0
 40
3.0
 40
3.0
 40
3.0
 40
4.0
 40
4.0
 40
4.0
 40
5.0
 40
5.0
 40
5.0
 40
6.0
 40
6.0
 40
6.0
 40
7.0
 40
7.0
 40
7.0
 40
8.0
 40
8.0
 40
8.0
 40
9.0
 40
9.0
 40
9.0
 40
10.0
 40
10.0
 40
10.0
 40
11.0
 40
11.0
 40
11.0
 40
12.0
 40
12.0
 40
12.0
 40
13.0
 40
13.0
 40
13.0
 40
13.0
 10
91.72773435206806
 20
-139.6018147437454
 30
0.0
 10
91.50965980785176
 20
-139.7604613908411
 30
0.0
 10
91.41664222975
 20
-139.834530943774
 30
0.0
 10
91.36806638340798
 20
-139.9783636802832
 30
0.0
 10
91.36806638340798
 20
-139.9783636802832
 30
0.0
 10
92.14631345352591
 20
-139.9783636802832
 30
0.0
 10
92.14631345352591
 20
-139.9783636802832
 30
0.0
 10
92.14631345352591
 20
-139.9783636802832
 30
0.0
 10
92.14631345352591
 20
-140.1835191164298
 30
0.0
 10
92.14631345352591
 20
-140.1835191164298
 30
0.0
 10
92.14631345352591
 20
-140.1835191164298
 30
0.0
 10
91.11829696072737
 20
-140.1835191164298
 30
0.0
 10
91.11829696072737
 20
-140.1835191164298
 30
0.0
 10
91.14999183919167
 20
-139.8259182050609
 30
0.0
 10
91.21544865341141
 20
-139.7477145375457
 30
0.0
 10
91.60061032866236
 20
-139.449369268523
 30
0.0
 10
91.85658092321641
 20
-139.2505872590241
 30
0.0
 10
91.92203773743615
 20
-139.182891132739
 30
0.0
 10
91.92203773743615
 20
-139.0454318228775
 30
0.0
 10
91.92203773743615
 20
-138.9269205381849
 30
0.0
 10
91.85037975134298
 20
-138.7956624001969
 30
0.0
 10
91.65366479913521
 20
-138.7956624001969
 30
0.0
 10
91.39321558045031
 20
-138.7956624001969
 30
0.0
 10
91.38494735128572
 20
-139.0263115429344
 30
0.0
 10
91.3804687271549
 20
-139.1427557703358
 30
0.0
 10
91.3804687271549
 20
-139.1427557703358
 30
0.0
 10
91.15653752061366
 20
-139.1427557703358
 30
0.0
 10
91.15653752061366
 20
-139.1427557703358
 30
0.0
 10
91.16480574977826
 20
-139.0158040017044
 30
0.0
 10
91.17548554578252
 20
-138.9036661436595
 30
0.0
 10
91.25575627058884
 20
-138.7851548589669
 30
0.0
 10
91.3656548165683
 20
-138.62444115458
 30
0.0
 10
91.55203448232033
 20
-138.5905069640503
 30
0.0
 10
91.66847870972176
 20
-138.5905069640503
 30
0.0
 10
91.94546438673587
 20
-138.5905069640503
 30
0.0
 10
92.1528591349479
 20
-138.7746473177369
 30
0.0
 10
92.1528591349479
 20
-139.0474988801687
 30
0.0
 10
92.1528591349479
 20
-139.2759087108407
 30
0.0
 10
92.03641490754646
 20
-139.3754719703644
 30
0.0
 10
91.72773435206806
 20
-139.6018147437454
 30
0.0
  0
HATCH
  5
D2
330
CD
100
AcDbEntity
  8
レイヤー 1
 62
   250
420
  2299925
440
 33554687
100
AcDbHatch
 10
0.0
 20
0.0
 30
0.0
210
0.0
220
0.0
230
1.0
  2
SOLID
 70
     1
 71
     1
 91
        1
 92
        1
 93
        1
 72
     4
 94
        3
 73
     0
 74
     0
 95
       44
 96
       40
 40
0.0
 40
0.0
 40
0.0
 40
0.0
 40
1.0
 40
1.0
 40
1.0
 40
2.0
 40
2.0
 40
2.0
 40
3.0
 40
3.0
 40
3.0
 40
4.0
 40
4.0
 40
4.0
 40
5.0
 40
5.0
 40
5.0
 40
6.0
 40
6.0
 40
6.0
 40
7.0
 40
7.0
 40
7.0
 40
8.0
 40
8.0
 40
8.0
 40
9.0
 40
9.0
 40
9.0
 40
10.0
 40
10.0
 40
10.0
 40
11.0
 40
11.0
 40
11.0
 40
12.0
 40
12.0
 40
12.0
 40
13.0
 40
13.0
 40
13.0
 40
13.0
 10
91.72773435206806
 20
-139.6018147437454
 10
91.50965980785176
 20
-139.7604613908411
 10
91.41664222975
 20
-139.834530943774
 10
91.36806638340798
 20
-139.9783636802832
 10
91.36806638340798
 20
-139.9783636802832
 10
92.14631345352591
 20
-139.9783636802832
 10
92.14631345352591
 20
-139.9783636802832
 10
92.14631345352591
 20
-139.9783636802832
 10
92.14631345352591
 20
-140.1835191164298
 10
92.14631345352591
 20
-140.1835191164298
 10
92.14631345352591
 20
-140.1835191164298
 10
91.11829696072737
 20
-140.1835191164298
 10
91.11829696072737
 20
-140.1835191164298
 10
91.14999183919167
 20
-139.8259182050609
 10
91.21544865341141
 20
-139.7477145375457
 10
91.60061032866236
 20
-139.449369268523
 10
91.85658092321641
 20
-139.2505872590241
 10
91.92203773743615
 20
-139.182891132739
 10
91.92203773743615
 20
-139.0454318228775
 10
91.92203773743615
 20
-138.9269205381849
 10
91.85037975134298
 20
-138.7956624001969
 10
91.65366479913521
 20
-138.7956624001969
 10
91.39321558045031
 20
-138.7956624001969
 10
91.38494735128572
 20
-139.0263115429344
 10
91.3804687271549
 20
-139.1427557703358
 10
91.3804687271549
 20
-139.1427557703358
 10
91.15653752061366
 20
-139.1427557703358
 10
91.15653752061366
 20
-139.1427557703358
 10
91.16480574977826
 20
-139.0158040017044
 10
91.17548554578252
 20
-138.9036661436595
 10
91.25575627058884
 20
-138.7851548589669
 10
91.3656548165683
 20
-138.62444115458
 10
91.55203448232033
 20
-138.5905069640503
 10
91.66847870972176
 20
-138.5905069640503
 10
91.94546438673587
 20
-138.5905069640503
 10
92.1528591349479
 20
-138.7746473177369
 10
92.1528591349479
 20
-139.0474988801687
 10
92.1528591349479
 20
-139.2759087108407
 10
92.03641490754646
 20
-139.3754719703644
 10
91.72773435206806
 20
-139.6018147437454
 97
        0
 97
        1
330
D1
 75
     2
 76
     1
 98
        1
 10
0.0
 20
0.0
450
        0
451
        0
460
0.0
461
0.0
452
        0
462
0.0
453
        0
470

  0
SPLINE
  5
D3
330
CD
100
AcDbEntity
  8
レイヤー 1
100
AcDbSpline
210
0.0
220
0.0
230
1.0
 70
    11
 71
     3
 72
    26
 73
    22
 74
     0
 42
0.0000000001
 43
0.0000000001
 40
0.0
 40
0.0
 40
0.0
 40
0.0
 40
1.0
 40
1.0
 40
1.0
 40
2.0
 40
2.0
 40
2.0
 40
3.0
 40
3.0
 40
3.0
 40
4.0
 40
4.0
 40
4.0
 40
5.0
 40
5.0
 40
5.0
 40
6.0
 40
6.0
 40
6.0
 40
7.0
 40
7.0
 40
7.0
 40
7.0
 10
92.76264103583711
 20
-140.1835191164298
 30
0.0
 10
92.76264103583711
 20
-140.1835191164298
 30
0.0
 10
92.76264103583711
 20
-139.079193758633
 30
0.0
 10
92.76264103583711
 20
-139.079193758633
 30
0.0
 10
92.76264103583711
 20
-139.079193758633
 30
0.0
 10
92.4326008883502
 20
-139.079193758633
 30
0.0
 10
92.4326008883502
 20
-139.079193758633
 30
0.0
 10
92.4326008883502
 20
-139.079193758633
 30
0.0
 10
92.4326008883502
 20
-138.9310546527672
 30
0.0
 10
92.4326008883502
 20
-138.9310546527672
 30
0.0
 10
92.76470809312828
 20
-138.9164129969549
 30
0.0
 10
92.81121688217913
 20
-138.7534599805026
 30
0.0
 10
92.84084470335228
 20
-138.6392550651666
 30
0.0
 10
92.84084470335228
 20
-138.6392550651666
 30
0.0
 10
92.98691675192689
 20
-138.6392550651666
 30
0.0
 10
92.98691675192689
 20
-138.6392550651666
 30
0.0
 10
92.98691675192689
 20
-138.6392550651666
 30
0.0
 10
92.98691675192689
 20
-140.1835191164298
 30
0.0
 10
92.98691675192689
 20
-140.1835191164298
 30
0.0
 10
92.98691675192689
 20
-140.1835191164298
 30
0.0
 10
92.76264103583711
 20
-140.1835191164298
 30
0.0
 10
92.76264103583711
 20
-140.1835191164298
 30
0.0
  0
HATCH
  5
D4
330
CD
100
AcDbEntity
  8
レイヤー 1
 62
   250
420
  2299925
440
 33554687
100
AcDbHatch
 10
0.0
 20
0.0
 30
0.0
210
0.0
220
0.0
230
1.0
  2
SOLID
 70
     1
 71
     1
 91
        1
 92
        1
 93
        1
 72
     4
 94
        3
 73
     0
 74
     0
 95
       26
 96
       22
 40
0.0
 40
0.0
 40
0.0
 40
0.0
 40
1.0
 40
1.0
 40
1.0
 40
2.0
 40
2.0
 40
2.0
 40
3.0
 40
3.0
 40
3.0
 40
4.0
 40
4.0
 40
4.0
 40
5.0
 40
5.0
 40
5.0
 40
6.0
 40
6.0
 40
6.0
 40
7.0
 40
7.0
 40
7.0
 40
7.0
 10
92.76264103583711
 20
-140.1835191164298
 10
92.76264103583711
 20
-140.1835191164298
 10
92.76264103583711
 20
-139.079193758633
 10
92.76264103583711
 20
-139.079193758633
 10
92.76264103583711
 20
-139.079193758633
 10
92.4326008883502
 20
-139.079193758633
 10
92.4326008883502
 20
-139.079193758633
 10
92.4326008883502
 20
-139.079193758633
 10
92.4326008883502
 20
-138.9310546527672
 10
92.4326008883502
 20
-138.9310546527672
 10
92.76470809312828
 20
-138.9164129969549
 10
92.81121688217913
 20
-138.7534599805026
 10
92.84084470335228
 20
-138.6392550651666
 10
92.84084470335228
 20
-138.6392550651666
 10
92.98691675192689
 20
-138.6392550651666
 10
92.98691675192689
 20
-138.6392550651666
 10
92.98691675192689
 20
-138.6392550651666
 10
92.98691675192689
 20
-140.1835191164298
 10
92.98691675192689
 20
-140.1835191164298
 10
92.98691675192689
 20
-140.1835191164298
 10
92.76264103583711
 20
-140.1835191164298
 10
92.76264103583711
 20
-140.1835191164298
 97
        0
 97
        1
330
D3
 75
     2
 76
     1
 98
        1
 10
0.0
 20
0.0
450
        0
451
        0
460
0.0
461
0.0
452
        0
462
0.0
453
        0
470

  0
ENDBLK
  5
D0
330
CD
100
AcDbEntity
  8
0
100
AcDbBlockEnd
  0
BLOCK
  5
D9
330
D7
100
AcDbEntity
  8
0
100
AcDbBlockBegin
  2
Block_5
 70
     0
 10
0.0
 20
0.0
 30
0.0
  3
Block_5
  1

  0
SPLINE
  5
DB
330
D7
100
AcDbEntity
  8
レイヤー 1
100
AcDbSpline
210
0.0
220
0.0
230
1.0
 70
     9
 71
     3
 72
    17
 73
    13
 74
     0
 42
0.0000000001
 43
0.0000000001
 40
0.0
 40
0.0
 40
0.0
 40
0.0
 40
1.0
 40
1.0
 40
1.0
 40
2.0
 40
2.0
 40
2.0
 40
3.0
 40
3.0
 40
3.0
 40
4.0
 40
4.0
 40
4.0
 40
4.0
 10
76.26924640020352
 20
-150.1575873105509
 30
0.0
 10
76.26924640020352
 20
-150.3012477922858
 30
0.0
 10
76.35589055165755
 20
-150.4538655222823
 30
0.0
 10
76.55897893051303
 20
-150.4538655222823
 30
0.0
 10
76.76413436665966
 20
-150.4538655222823
 30
0.0
 10
76.86576468347453
 20
-150.3267414988766
 30
0.0
 10
76.86576468347453
 20
-150.1575873105509
 30
0.0
 10
76.86576468347453
 20
-149.9715521543474
 30
0.0
 10
76.74311928419964
 20
-149.8613090988194
 30
0.0
 10
76.56535235716074
 20
-149.8613090988194
 30
0.0
 10
76.34314369836214
 20
-149.8613090988194
 30
0.0
 10
76.26924640020352
 20
-150.0242621152717
 30
0.0
 10
76.26924640020352
 20
-150.1575873105509
 30
0.0
  0
SPLINE
  5
DC
330
D7
100
AcDbEntity
  8
レイヤー 1
100
AcDbSpline
210
0.0
220
0.0
230
1.0
 70
     9
 71
     3
 72
    17
 73
    13
 74
     0
 42
0.0000000001
 43
0.0000000001
 40
0.0
 40
0.0
 40
0.0
 40
0.0
 40
1.0
 40
1.0
 40
1.0
 40
2.0
 40
2.0
 40
2.0
 40
3.0
 40
3.0
 40
3.0
 40
4.0
 40
4.0
 40
4.0
 40
4.0
 10
75.60916610522966
 20
-150.1575873105509
 30
0.0
 10
75.60916610522966
 20
-150.3226073842943
 30
0.0
 10
75.70425074062256
 20
-150.4073567332315
 30
0.0
 10
75.83964299319287
 20
-150.4073567332315
 30
0.0
 10
75.96246064724202
 20
-150.4073567332315
 30
0.0
 10
76.08097193193462
 20
-150.3353542375897
 30
0.0
 10
76.08097193193462
 20
-150.1575873105509
 30
0.0
 10
76.08097193193462
 20
-149.979820383512
 30
0.0
 10
75.96246064724202
 20
-149.9078178878702
 30
0.0
 10
75.83964299319287
 20
-149.9078178878702
 30
0.0
 10
75.70425074062256
 20
-149.9078178878702
 30
0.0
 10
75.60916610522966
 20
-149.9946342940986
 30
0.0
 10
75.60916610522966
 20
-150.1575873105509
 30
0.0
  0
SPLINE
  5
DD
330
D7
100
AcDbEntity
  8
レイヤー 1
100
AcDbSpline
210
0.0
220
0.0
230
1.0
 70
     9
 71
     3
 72
    29
 73
    25
 74
     0
 42
0.0000000001
 43
0.0000000001
 40
0.0
 40
0.0
 40
0.0
 40
0.0
 40
1.0
 40
1.0
 40
1.0
 40
2.0
 40
2.0
 40
2.0
 40
3.0
 40
3.0
 40
3.0
 40
4.0
 40
4.0
 40
4.0
 40
5.0
 40
5.0
 40
5.0
 40
6.0
 40
6.0
 40
6.0
 40
7.0
 40
7.0
 40
7.0
 40
8.0
 40
8.0
 40
8.0
 40
8.0
 10
77.06041257839115
 20
-150.1575873105509
 30
0.0
 10
77.06041257839115
 20
-150.4242377011092
 30
0.0
 10
76.92278101375542
 20
-150.6781412383721
 30
0.0
 10
76.57379284109961
 20
-150.6781412383721
 30
0.0
 10
76.31782224654554
 20
-150.6781412383721
 30
0.0
 10
76.2225653563784
 20
-150.5362033043798
 30
0.0
 10
76.16124265674094
 20
-150.4304388729827
 30
0.0
 10
76.10198701439465
 20
-150.5551513295487
 30
0.0
 10
75.98778209905862
 20
-150.6312879397727
 30
0.0
 10
75.82706839467171
 20
-150.6312879397727
 30
0.0
 10
75.5519775201745
 20
-150.6312879397727
 30
0.0
 10
75.41658526760419
 20
-150.4325059302738
 30
0.0
 10
75.41658526760419
 20
-150.1575873105509
 30
0.0
 10
75.41658526760419
 20
-149.8740559521148
 30
0.0
 10
75.56041800411337
 20
-149.6835421717805
 30
0.0
 10
75.82706839467171
 20
-149.6835421717805
 30
0.0
 10
75.98778209905862
 20
-149.6835421717805
 30
0.0
 10
76.10198701439465
 20
-149.7620903488442
 30
0.0
 10
76.16124265674094
 20
-149.8868028054102
 30
0.0
 10
76.21205781514838
 20
-149.7979193418908
 30
0.0
 10
76.30731470531554
 20
-149.6391004400208
 30
0.0
 10
76.56965872651731
 20
-149.6391004400208
 30
0.0
 10
76.9439683509897
 20
-149.6391004400208
 30
0.0
 10
77.06041257839115
 20
-149.9184976838745
 30
0.0
 10
77.06041257839115
 20
-150.1575873105509
 30
0.0
  0
HATCH
  5
DE
330
D7
100
AcDbEntity
  8
レイヤー 1
 62
   250
420
  2299925
440
 33554687
100
AcDbHatch
 10
0.0
 20
0.0
 30
0.0
210
0.0
220
0.0
230
1.0
  2
SOLID
 70
     1
 71
     1
 91
        3
 92
        1
 93
        1
 72
     4
 94
        3
 73
     0
 74
     0
 95
       17
 96
       13
 40
0.0
 40
0.0
 40
0.0
 40
0.0
 40
1.0
 40
1.0
 40
1.0
 40
2.0
 40
2.0
 40
2.0
 40
3.0
 40
3.0
 40
3.0
 40
4.0
 40
4.0
 40
4.0
 40
4.0
 10
76.26924640020352
 20
-150.1575873105509
 10
76.26924640020352
 20
-150.3012477922858
 10
76.35589055165755
 20
-150.4538655222823
 10
76.55897893051303
 20
-150.4538655222823
 10
76.76413436665966
 20
-150.4538655222823
 10
76.86576468347453
 20
-150.3267414988766
 10
76.86576468347453
 20
-150.1575873105509
 10
76.86576468347453
 20
-149.9715521543474
 10
76.74311928419964
 20
-149.8613090988194
 10
76.56535235716074
 20
-149.8613090988194
 10
76.34314369836214
 20
-149.8613090988194
 10
76.26924640020352
 20
-150.0242621152717
 10
76.26924640020352
 20
-150.1575873105509
 97
        0
 97
        1
330
DB
 92
        1
 93
        1
 72
     4
 94
        3
 73
     0
 74
     0
 95
       17
 96
       13
 40
0.0
 40
0.0
 40
0.0
 40
0.0
 40
1.0
 40
1.0
 40
1.0
 40
2.0
 40
2.0
 40
2.0
 40
3.0
 40
3.0
 40
3.0
 40
4.0
 40
4.0
 40
4.0
 40
4.0
 10
75.60916610522966
 20
-150.1575873105509
 10
75.60916610522966
 20
-150.3226073842943
 10
75.70425074062256
 20
-150.4073567332315
 10
75.83964299319287
 20
-150.4073567332315
 10
75.96246064724202
 20
-150.4073567332315
 10
76.08097193193462
 20
-150.3353542375897
 10
76.08097193193462
 20
-150.1575873105509
 10
76.08097193193462
 20
-149.979820383512
 10
75.96246064724202
 20
-149.9078178878702
 10
75.83964299319287
 20
-149.9078178878702
 10
75.70425074062256
 20
-149.9078178878702
 10
75.60916610522966
 20
-149.9946342940986
 10
75.60916610522966
 20
-150.1575873105509
 97
        0
 97
        1
330
DC
 92
        1
 93
        1
 72
     4
 94
        3
 73
     0
 74
     0
 95
       29
 96
       25
 40
0.0
 40
0.0
 40
0.0
 40
0.0
 40
1.0
 40
1.0
 40
1.0
 40
2.0
 40
2.0
 40
2.0
 40
3.0
 40
3.0
 40
3.0
 40
4.0
 40
4.0
 40
4.0
 40
5.0
 40
5.0
 40
5.0
 40
6.0
 40
6.0
 40
6.0
 40
7.0
 40
7.0
 40
7.0
 40
8.0
 40
8.0
 40
8.0
 40
8.0
 10
77.06041257839115
 20
-150.1575873105509
 10
77.06041257839115
 20
-150.4242377011092
 10
76.92278101375542
 20
-150.6781412383721
 10
76.57379284109961
 20
-150.6781412383721
 10
76.31782224654554
 20
-150.6781412383721
 10
76.2225653563784
 20
-150.5362033043798
 10
76.16124265674094
 20
-150.4304388729827
 10
76.10198701439465
 20
-150.5551513295487
 10
75.98778209905862
 20
-150.6312879397727
 10
75.82706839467171
 20
-150.6312879397727
 10
75.5519775201745
 20
-150.6312879397727
 10
75.41658526760419
 20
-150.4325059302738
 10
75.41658526760419
 20
-150.1575873105509
 10
75.41658526760419
 20
-149.8740559521148
 10
75.56041800411337
 20
-149.6835421717805
 10
75.82706839467171
 20
-149.6835421717805
 10
75.98778209905862
 20
-149.6835421717805
 10
76.10198701439465
 20
-149.7620903488442
 10
76.16124265674094
 20
-149.8868028054102
 10
76.21205781514838
 20
-149.7979193418908
 10
76.30731470531554
 20
-149.6391004400208
 10
76.56965872651731
 20
-149.6391004400208
 10
76.9439683509897
 20
-149.6391004400208
 10
77.06041257839115
 20
-149.9184976838745
 10
77.06041257839115
 20
-150.1575873105509
 97
        0
 97
        1
330
DD
 75
     2
 76
     1
 98
        1
 10
0.0
 20
0.0
450
        0
451
        0
460
0.0
461
0.0
452
        0
462
0.0
453
        0
470

  0
ENDBLK
  5
DA
330
D7
100
AcDbEntity
  8
0
100
AcDbBlockEnd
  0
BLOCK
  5
E4
330
E2
100
AcDbEntity
  8
0
100
AcDbBlockBegin
  2
Block_6
 70
     0
 10
0.0
 20
0.0
 30
0.0
  3
Block_6
  1

  0
SPLINE
  5
E6
330
E2
100
AcDbEntity
  8
レイヤー 1
100
AcDbSpline
210
0.0
220
0.0
230
1.0
 70
     9
 71
     3
 72
    17
 73
    13
 74
     0
 42
0.0000000001
 43
0.0000000001
 40
0.0
 40
0.0
 40
0.0
 40
0.0
 40
1.0
 40
1.0
 40
1.0
 40
2.0
 40
2.0
 40
2.0
 40
3.0
 40
3.0
 40
3.0
 40
4.0
 40
4.0
 40
4.0
 40
4.0
 10
105.7447943529041
 20
-139.3742661869446
 30
0.0
 10
105.4826225864765
 20
-139.3742661869446
 30
0.0
 10
105.4445542813645
 20
-139.585795049739
 30
0.0
 10
105.4445542813645
 20
-139.7020670223661
 30
0.0
 10
105.4445542813645
 20
-139.8777668921139
 30
0.0
 10
105.5398111715317
 20
-140.0405476537919
 30
0.0
 10
105.723779270444
 20
-140.0405476537919
 30
0.0
 10
105.8443576124278
 20
-140.0405476537919
 30
0.0
 10
106.0200574821755
 20
-139.9812920114456
 30
0.0
 10
106.0200574821755
 20
-139.6956935957184
 30
0.0
 10
106.0200574821755
 20
-139.4715901344029
 30
0.0
 10
105.8801866054744
 20
-139.3742661869446
 30
0.0
 10
105.7447943529041
 20
-139.3742661869446
 30
0.0
  0
SPLINE
  5
E7
330
E2
100
AcDbEntity
  8
レイヤー 1
100
AcDbSpline
210
0.0
220
0.0
230
1.0
 70
     9
 71
     3
 72
    32
 73
    28
 74
     0
 42
0.0000000001
 43
0.0000000001
 40
0.0
 40
0.0
 40
0.0
 40
0.0
 40
1.0
 40
1.0
 40
1.0
 40
2.0
 40
2.0
 40
2.0
 40
3.0
 40
3.0
 40
3.0
 40
4.0
 40
4.0
 40
4.0
 40
5.0
 40
5.0
 40
5.0
 40
6.0
 40
6.0
 40
6.0
 40
7.0
 40
7.0
 40
7.0
 40
8.0
 40
8.0
 40
8.0
 40
9.0
 40
9.0
 40
9.0
 40
9.0
 10
105.7279133850263
 20
-140.2331284914174
 30
0.0
 10
105.2118380813359
 20
-140.2331284914174
 30
0.0
 10
105.203397597397
 20
-139.6788126278407
 30
0.0
 10
105.203397597397
 20
-139.4652167077552
 30
0.0
 10
105.203397597397
 20
-139.2345675650177
 30
0.0
 10
105.2223456225659
 20
-138.5872341233393
 30
0.0
 10
105.7661539449126
 20
-138.5872341233393
 30
0.0
 10
105.9394422478207
 20
-138.5872341233393
 30
0.0
 10
106.185077555919
 20
-138.6569973069156
 30
0.0
 10
106.2229736062567
 20
-138.9891045116937
 30
0.0
 10
106.2229736062567
 20
-138.9891045116937
 30
0.0
 10
106.0093776861712
 20
-138.9891045116937
 30
0.0
 10
106.0093776861712
 20
-138.9891045116937
 30
0.0
 10
105.998697890167
 20
-138.9320881814128
 30
0.0
 10
105.9670030117027
 20
-138.783949075547
 30
0.0
 10
105.7640868876215
 20
-138.783949075547
 30
0.0
 10
105.4721150452465
 20
-138.783949075547
 30
0.0
 10
105.4318074280691
 20
-139.1119221657428
 30
0.0
 10
105.4192328295479
 20
-139.3170776018894
 30
0.0
 10
105.5122504076497
 20
-139.2388739343743
 30
0.0
 10
105.5797742791606
 20
-139.179618292028
 30
0.0
 10
105.7620198303303
 20
-139.179618292028
 30
0.0
 10
105.9418538146603
 20
-139.179618292028
 30
0.0
 10
106.2443331982653
 20
-139.2874497807163
 30
0.0
 10
106.2443331982653
 20
-139.6936265384272
 30
0.0
 10
106.2443331982653
 20
-140.0131591446842
 30
0.0
 10
106.0452066792178
 20
-140.2331284914174
 30
0.0
 10
105.7279133850263
 20
-140.2331284914174
 30
0.0
  0
HATCH
  5
E8
330
E2
100
AcDbEntity
  8
レイヤー 1
 62
   250
420
  2299925
440
 33554687
100
AcDbHatch
 10
0.0
 20
0.0
 30
0.0
210
0.0
220
0.0
230
1.0
  2
SOLID
 70
     1
 71
     1
 91
        2
 92
        1
 93
        1
 72
     4
 94
        3
 73
     0
 74
     0
 95
       17
 96
       13
 40
0.0
 40
0.0
 40
0.0
 40
0.0
 40
1.0
 40
1.0
 40
1.0
 40
2.0
 40
2.0
 40
2.0
 40
3.0
 40
3.0
 40
3.0
 40
4.0
 40
4.0
 40
4.0
 40
4.0
 10
105.7447943529041
 20
-139.3742661869446
 10
105.4826225864765
 20
-139.3742661869446
 10
105.4445542813645
 20
-139.585795049739
 10
105.4445542813645
 20
-139.7020670223661
 10
105.4445542813645
 20
-139.8777668921139
 10
105.5398111715317
 20
-140.0405476537919
 10
105.723779270444
 20
-140.0405476537919
 10
105.8443576124278
 20
-140.0405476537919
 10
106.0200574821755
 20
-139.9812920114456
 10
106.0200574821755
 20
-139.6956935957184
 10
106.0200574821755
 20
-139.4715901344029
 10
105.8801866054744
 20
-139.3742661869446
 10
105.7447943529041
 20
-139.3742661869446
 97
        0
 97
        1
330
E6
 92
        1
 93
        1
 72
     4
 94
        3
 73
     0
 74
     0
 95
       32
 96
       28
 40
0.0
 40
0.0
 40
0.0
 40
0.0
 40
1.0
 40
1.0
 40
1.0
 40
2.0
 40
2.0
 40
2.0
 40
3.0
 40
3.0
 40
3.0
 40
4.0
 40
4.0
 40
4.0
 40
5.0
 40
5.0
 40
5.0
 40
6.0
 40
6.0
 40
6.0
 40
7.0
 40
7.0
 40
7.0
 40
8.0
 40
8.0
 40
8.0
 40
9.0
 40
9.0
 40
9.0
 40
9.0
 10
105.7279133850263
 20
-140.2331284914174
 10
105.2118380813359
 20
-140.2331284914174
 10
105.203397597397
 20
-139.6788126278407
 10
105.203397597397
 20
-139.4652167077552
 10
105.203397597397
 20
-139.2345675650177
 10
105.2223456225659
 20
-138.5872341233393
 10
105.7661539449126
 20
-138.5872341233393
 10
105.9394422478207
 20
-138.5872341233393
 10
106.185077555919
 20
-138.6569973069156
 10
106.2229736062567
 20
-138.9891045116937
 10
106.2229736062567
 20
-138.9891045116937
 10
106.0093776861712
 20
-138.9891045116937
 10
106.0093776861712
 20
-138.9891045116937
 10
105.998697890167
 20
-138.9320881814128
 10
105.9670030117027
 20
-138.783949075547
 10
105.7640868876215
 20
-138.783949075547
 10
105.4721150452465
 20
-138.783949075547
 10
105.4318074280691
 20
-139.1119221657428
 10
105.4192328295479
 20
-139.3170776018894
 10
105.5122504076497
 20
-139.2388739343743
 10
105.5797742791606
 20
-139.179618292028
 10
105.7620198303303
 20
-139.179618292028
 10
105.9418538146603
 20
-139.179618292028
 10
106.2443331982653
 20
-139.2874497807163
 10
106.2443331982653
 20
-139.6936265384272
 10
106.2443331982653
 20
-140.0131591446842
 10
106.0452066792178
 20
-140.2331284914174
 10
105.7279133850263
 20
-140.2331284914174
 97
        0
 97
        1
330
E7
 75
     2
 76
     1
 98
        1
 10
0.0
 20
0.0
450
        0
451
        0
460
0.0
461
0.0
452
        0
462
0.0
453
        0
470

  0
ENDBLK
  5
E5
330
E2
100
AcDbEntity
  8
0
100
AcDbBlockEnd
  0
BLOCK
  5
F0
330
EE
100
AcDbEntity
  8
0
100
AcDbBlockBegin
  2
Block_7
 70
     0
 10
0.0
 20
0.0
 30
0.0
  3
Block_7
  1

  0
SPLINE
  5
F2
330
EE
100
AcDbEntity
  8
レイヤー 1
100
AcDbSpline
210
0.0
220
0.0
230
1.0
 70
     9
 71
     3
 72
    17
 73
    13
 74
     0
 42
0.0000000001
 43
0.0000000001
 40
0.0
 40
0.0
 40
0.0
 40
0.0
 40
1.0
 40
1.0
 40
1.0
 40
2.0
 40
2.0
 40
2.0
 40
3.0
 40
3.0
 40
3.0
 40
4.0
 40
4.0
 40
4.0
 40
4.0
 10
105.723779270444
 20
-156.1589436458561
 30
0.0
 10
105.5587591967006
 20
-156.1589436458561
 30
0.0
 10
105.4741821025377
 20
-156.254028281249
 30
0.0
 10
105.4741821025377
 20
-156.3894205338193
 30
0.0
 10
105.4741821025377
 20
-156.5120659330942
 30
0.0
 10
105.5460123434051
 20
-156.6305772177868
 30
0.0
 10
105.723779270444
 20
-156.6305772177868
 30
0.0
 10
105.9015461974829
 20
-156.6305772177868
 30
0.0
 10
105.9735486931246
 20
-156.5120659330942
 30
0.0
 10
105.9735486931246
 20
-156.3894205338193
 30
0.0
 10
105.9735486931246
 20
-156.254028281249
 30
0.0
 10
105.8867322868964
 20
-156.1589436458561
 30
0.0
 10
105.723779270444
 20
-156.1589436458561
 30
0.0
  0
SPLINE
  5
F3
330
EE
100
AcDbEntity
  8
レイヤー 1
100
AcDbSpline
210
0.0
220
0.0
230
1.0
 70
     9
 71
     3
 72
    17
 73
    13
 74
     0
 42
0.0000000001
 43
0.0000000001
 40
0.0
 40
0.0
 40
0.0
 40
0.0
 40
1.0
 40
1.0
 40
1.0
 40
2.0
 40
2.0
 40
2.0
 40
3.0
 40
3.0
 40
3.0
 40
4.0
 40
4.0
 40
4.0
 40
4.0
 10
105.723779270444
 20
-156.8190239408299
 30
0.0
 10
105.5801187887091
 20
-156.8190239408299
 30
0.0
 10
105.4276733134868
 20
-156.9058403470583
 30
0.0
 10
105.4276733134868
 20
-157.1087564711395
 30
0.0
 10
105.4276733134868
 20
-157.3140841620603
 30
0.0
 10
105.5546250821183
 20
-157.4153699693267
 30
0.0
 10
105.723779270444
 20
-157.4153699693267
 30
0.0
 10
105.9098144266475
 20
-157.4153699693267
 30
0.0
 10
106.0200574821755
 20
-157.2927245700518
 30
0.0
 10
106.0200574821755
 20
-157.1149576430129
 30
0.0
 10
106.0200574821755
 20
-156.8930934937628
 30
0.0
 10
105.8571044657232
 20
-156.8190239408299
 30
0.0
 10
105.723779270444
 20
-156.8190239408299
 30
0.0
  0
SPLINE
  5
F4
330
EE
100
AcDbEntity
  8
レイヤー 1
100
AcDbSpline
210
0.0
220
0.0
230
1.0
 70
     9
 71
     3
 72
    29
 73
    25
 74
     0
 42
0.0000000001
 43
0.0000000001
 40
0.0
 40
0.0
 40
0.0
 40
0.0
 40
1.0
 40
1.0
 40
1.0
 40
2.0
 40
2.0
 40
2.0
 40
3.0
 40
3.0
 40
3.0
 40
4.0
 40
4.0
 40
4.0
 40
5.0
 40
5.0
 40
5.0
 40
6.0
 40
6.0
 40
6.0
 40
7.0
 40
7.0
 40
7.0
 40
8.0
 40
8.0
 40
8.0
 40
8.0
 10
105.723779270444
 20
-157.6100178642433
 30
0.0
 10
105.45730113466
 20
-157.6100178642433
 30
0.0
 10
105.203397597397
 20
-157.4725585543818
 30
0.0
 10
105.203397597397
 20
-157.123570381726
 30
0.0
 10
105.203397597397
 20
-156.867599787172
 30
0.0
 10
105.3453355313893
 20
-156.7725151517791
 30
0.0
 10
105.4510999627865
 20
-156.7111924521416
 30
0.0
 10
105.3263875062204
 20
-156.6519368097953
 30
0.0
 10
105.2502508959964
 20
-156.537559639685
 30
0.0
 10
105.2502508959964
 20
-156.3766736805239
 30
0.0
 10
105.2502508959964
 20
-156.1017550608009
 30
0.0
 10
105.4490329054954
 20
-155.9663628082306
 30
0.0
 10
105.723779270444
 20
-155.9663628082306
 30
0.0
 10
106.0073106288801
 20
-155.9663628082306
 30
0.0
 10
106.1978244092144
 20
-156.1103677995141
 30
0.0
 10
106.1978244092144
 20
-156.3766736805239
 30
0.0
 10
106.1978244092144
 20
-156.537559639685
 30
0.0
 10
106.1192762321507
 20
-156.6519368097953
 30
0.0
 10
105.9945637755847
 20
-156.7111924521416
 30
0.0
 10
106.0834472391041
 20
-156.7618353557748
 30
0.0
 10
106.2422661409741
 20
-156.8569199911677
 30
0.0
 10
106.2422661409741
 20
-157.1194362671437
 30
0.0
 10
106.2422661409741
 20
-157.4939181463904
 30
0.0
 10
105.9628688971204
 20
-157.6100178642433
 30
0.0
 10
105.723779270444
 20
-157.6100178642433
 30
0.0
  0
HATCH
  5
F5
330
EE
100
AcDbEntity
  8
レイヤー 1
 62
   250
420
  2299925
440
 33554687
100
AcDbHatch
 10
0.0
 20
0.0
 30
0.0
210
0.0
220
0.0
230
1.0
  2
SOLID
 70
     1
 71
     1
 91
        3
 92
        1
 93
        1
 72
     4
 94
        3
 73
     0
 74
     0
 95
       17
 96
       13
 40
0.0
 40
0.0
 40
0.0
 40
0.0
 40
1.0
 40
1.0
 40
1.0
 40
2.0
 40
2.0
 40
2.0
 40
3.0
 40
3.0
 40
3.0
 40
4.0
 40
4.0
 40
4.0
 40
4.0
 10
105.723779270444
 20
-156.1589436458561
 10
105.5587591967006
 20
-156.1589436458561
 10
105.4741821025377
 20
-156.254028281249
 10
105.4741821025377
 20
-156.3894205338193
 10
105.4741821025377
 20
-156.5120659330942
 10
105.5460123434051
 20
-156.6305772177868
 10
105.723779270444
 20
-156.6305772177868
 10
105.9015461974829
 20
-156.6305772177868
 10
105.9735486931246
 20
-156.5120659330942
 10
105.9735486931246
 20
-156.3894205338193
 10
105.9735486931246
 20
-156.254028281249
 10
105.8867322868964
 20
-156.1589436458561
 10
105.723779270444
 20
-156.1589436458561
 97
        0
 97
        1
330
F2
 92
        1
 93
        1
 72
     4
 94
        3
 73
     0
 74
     0
 95
       17
 96
       13
 40
0.0
 40
0.0
 40
0.0
 40
0.0
 40
1.0
 40
1.0
 40
1.0
 40
2.0
 40
2.0
 40
2.0
 40
3.0
 40
3.0
 40
3.0
 40
4.0
 40
4.0
 40
4.0
 40
4.0
 10
105.723779270444
 20
-156.8190239408299
 10
105.5801187887091
 20
-156.8190239408299
 10
105.4276733134868
 20
-156.9058403470583
 10
105.4276733134868
 20
-157.1087564711395
 10
105.4276733134868
 20
-157.3140841620603
 10
105.5546250821183
 20
-157.4153699693267
 10
105.723779270444
 20
-157.4153699693267
 10
105.9098144266475
 20
-157.4153699693267
 10
106.0200574821755
 20
-157.2927245700518
 10
106.0200574821755
 20
-157.1149576430129
 10
106.0200574821755
 20
-156.8930934937628
 10
105.8571044657232
 20
-156.8190239408299
 10
105.723779270444
 20
-156.8190239408299
 97
        0
 97
        1
330
F3
 92
        1
 93
        1
 72
     4
 94
        3
 73
     0
 74
     0
 95
       29
 96
       25
 40
0.0
 40
0.0
 40
0.0
 40
0.0
 40
1.0
 40
1.0
 40
1.0
 40
2.0
 40
2.0
 40
2.0
 40
3.0
 40
3.0
 40
3.0
 40
4.0
 40
4.0
 40
4.0
 40
5.0
 40
5.0
 40
5.0
 40
6.0
 40
6.0
 40
6.0
 40
7.0
 40
7.0
 40
7.0
 40
8.0
 40
8.0
 40
8.0
 40
8.0
 10
105.723779270444
 20
-157.6100178642433
 10
105.45730113466
 20
-157.6100178642433
 10
105.203397597397
 20
-157.4725585543818
 10
105.203397597397
 20
-157.123570381726
 10
105.203397597397
 20
-156.867599787172
 10
105.3453355313893
 20
-156.7725151517791
 10
105.4510999627865
 20
-156.7111924521416
 10
105.3263875062204
 20
-156.6519368097953
 10
105.2502508959964
 20
-156.537559639685
 10
105.2502508959964
 20
-156.3766736805239
 10
105.2502508959964
 20
-156.1017550608009
 10
105.4490329054954
 20
-155.9663628082306
 10
105.723779270444
 20
-155.9663628082306
 10
106.0073106288801
 20
-155.9663628082306
 10
106.1978244092144
 20
-156.1103677995141
 10
106.1978244092144
 20
-156.3766736805239
 10
106.1978244092144
 20
-156.537559639685
 10
106.1192762321507
 20
-156.6519368097953
 10
105.9945637755847
 20
-156.7111924521416
 10
106.0834472391041
 20
-156.7618353557748
 10
106.2422661409741
 20
-156.8569199911677
 10
106.2422661409741
 20
-157.1194362671437
 10
106.2422661409741
 20
-157.4939181463904
 10
105.9628688971204
 20
-157.6100178642433
 10
105.723779270444
 20
-157.6100178642433
 97
        0
 97
        1
330
F4
 75
     2
 76
     1
 98
        1
 10
0.0
 20
0.0
450
        0
451
        0
460
0.0
461
0.0
452
        0
462
0.0
453
        0
470

  0
ENDBLK
  5
F1
330
EE
100
AcDbEntity
  8
0
100
AcDbBlockEnd
  0
BLOCK
  5
FA
330
F8
100
AcDbEntity
  8
0
100
AcDbBlockBegin
  2
Block_8
 70
     0
 10
0.0
 20
0.0
 30
0.0
  3
Block_8
  1

  0
SPLINE
  5
FC
330
F8
100
AcDbEntity
  8
レイヤー 1
100
AcDbSpline
210
0.0
220
0.0
230
1.0
 70
    11
 71
     3
 72
    26
 73
    22
 74
     0
 42
0.0000000001
 43
0.0000000001
 40
0.0
 40
0.0
 40
0.0
 40
0.0
 40
1.0
 40
1.0
 40
1.0
 40
2.0
 40
2.0
 40
2.0
 40
3.0
 40
3.0
 40
3.0
 40
4.0
 40
4.0
 40
4.0
 40
5.0
 40
5.0
 40
5.0
 40
6.0
 40
6.0
 40
6.0
 40
7.0
 40
7.0
 40
7.0
 40
7.0
 10
111.625916855774
 20
-149.5364365945603
 30
0.0
 10
111.625916855774
 20
-149.5364365945603
 30
0.0
 10
111.625916855774
 20
-148.4319389819892
 30
0.0
 10
111.625916855774
 20
-148.4319389819892
 30
0.0
 10
111.625916855774
 20
-148.4319389819892
 30
0.0
 10
111.2958767082871
 20
-148.4319389819892
 30
0.0
 10
111.2958767082871
 20
-148.4319389819892
 30
0.0
 10
111.2958767082871
 20
-148.4319389819892
 30
0.0
 10
111.2958767082871
 20
-148.2837998761235
 30
0.0
 10
111.2958767082871
 20
-148.2837998761235
 30
0.0
 10
111.6279839130652
 20
-148.2691582203112
 30
0.0
 10
111.6744927021161
 20
-148.1062052038589
 30
0.0
 10
111.7041205232892
 20
-147.9920002885228
 30
0.0
 10
111.7041205232892
 20
-147.9920002885228
 30
0.0
 10
111.8501925718638
 20
-147.9920002885228
 30
0.0
 10
111.8501925718638
 20
-147.9920002885228
 30
0.0
 10
111.8501925718638
 20
-147.9920002885228
 30
0.0
 10
111.8501925718638
 20
-149.5364365945603
 30
0.0
 10
111.8501925718638
 20
-149.5364365945603
 30
0.0
 10
111.8501925718638
 20
-149.5364365945603
 30
0.0
 10
111.625916855774
 20
-149.5364365945603
 30
0.0
 10
111.625916855774
 20
-149.5364365945603
 30
0.0
  0
HATCH
  5
FD
330
F8
100
AcDbEntity
  8
レイヤー 1
 62
   250
420
  2299925
440
 33554687
100
AcDbHatch
 10
0.0
 20
0.0
 30
0.0
210
0.0
220
0.0
230
1.0
  2
SOLID
 70
     1
 71
     1
 91
        1
 92
        1
 93
        1
 72
     4
 94
        3
 73
     0
 74
     0
 95
       26
 96
       22
 40
0.0
 40
0.0
 40
0.0
 40
0.0
 40
1.0
 40
1.0
 40
1.0
 40
2.0
 40
2.0
 40
2.0
 40
3.0
 40
3.0
 40
3.0
 40
4.0
 40
4.0
 40
4.0
 40
5.0
 40
5.0
 40
5.0
 40
6.0
 40
6.0
 40
6.0
 40
7.0
 40
7.0
 40
7.0
 40
7.0
 10
111.625916855774
 20
-149.5364365945603
 10
111.625916855774
 20
-149.5364365945603
 10
111.625916855774
 20
-148.4319389819892
 10
111.625916855774
 20
-148.4319389819892
 10
111.625916855774
 20
-148.4319389819892
 10
111.2958767082871
 20
-148.4319389819892
 10
111.2958767082871
 20
-148.4319389819892
 10
111.2958767082871
 20
-148.4319389819892
 10
111.2958767082871
 20
-148.2837998761235
 10
111.2958767082871
 20
-148.2837998761235
 10
111.6279839130652
 20
-148.2691582203112
 10
111.6744927021161
 20
-148.1062052038589
 10
111.7041205232892
 20
-147.9920002885228
 10
111.7041205232892
 20
-147.9920002885228
 10
111.8501925718638
 20
-147.9920002885228
 10
111.8501925718638
 20
-147.9920002885228
 10
111.8501925718638
 20
-147.9920002885228
 10
111.8501925718638
 20
-149.5364365945603
 10
111.8501925718638
 20
-149.5364365945603
 10
111.8501925718638
 20
-149.5364365945603
 10
111.625916855774
 20
-149.5364365945603
 10
111.625916855774
 20
-149.5364365945603
 97
        0
 97
        1
330
FC
 75
     2
 76
     1
 98
        1
 10
0.0
 20
0.0
450
        0
451
        0
460
0.0
461
0.0
452
        0
462
0.0
453
        0
470

  0
ENDBLK
  5
FB
330
F8
100
AcDbEntity
  8
0
100
AcDbBlockEnd
  0
BLOCK
  5
100
330
FE
100
AcDbEntity
  8
0
100
AcDbBlockBegin
  2
Block_9
 70
     0
 10
0.0
 20
0.0
 30
0.0
  3
Block_9
  1

  0
SPLINE
  5
102
330
FE
100
AcDbEntity
  8
レイヤー 1
 62
   250
420
  2299925
370
     9
100
AcDbSpline
210
0.0
220
0.0
230
1.0
 70
     8
 71
     3
 72
    26
 73
    22
 74
     0
 42
0.0000000001
 43
0.0000000001
 40
0.0
 40
0.0
 40
0.0
 40
0.0
 40
1.0
 40
1.0
 40
1.0
 40
2.0
 40
2.0
 40
2.0
 40
3.0
 40
3.0
 40
3.0
 40
4.0
 40
4.0
 40
4.0
 40
5.0
 40
5.0
 40
5.0
 40
6.0
 40
6.0
 40
6.0
 40
7.0
 40
7.0
 40
7.0
 40
7.0
 10
126.7577063307164
 20
-147.6202354862198
 30
0.0
 10
126.7577063307164
 20
-147.6202354862198
 30
0.0
 10
118.1656626610288
 20
-150.6429765965746
 30
0.0
 10
118.1656626610288
 20
-150.6429765965746
 30
0.0
 10
118.1656626610288
 20
-150.6429765965746
 30
0.0
 10
116.7972729737171
 20
-150.9089357631753
 30
0.0
 10
117.3105646272886
 20
-151.3650421519497
 30
0.0
 10
117.3105646272886
 20
-151.3650421519497
 30
0.0
 10
117.6144473973137
 20
-151.5552246519021
 30
0.0
 10
118.1470359948373
 20
-151.7646688185169
 30
0.0
 10
118.1470359948373
 20
-151.7646688185169
 30
0.0
 10
123.1458969784168
 20
-153.7828046513456
 30
0.0
 10
123.1458969784168
 20
-153.7828046513456
 30
0.0
 10
123.1458969784168
 20
-153.7828046513456
 30
0.0
 10
123.1458969784168
 20
-156.8578979839102
 30
0.0
 10
123.1458969784168
 20
-156.8578979839102
 30
0.0
 10
123.1458969784168
 20
-156.8578979839102
 30
0.0
 10
125.7882730221153
 20
-158.1319196502583
 30
0.0
 10
125.7882730221153
 20
-158.1319196502583
 30
0.0
 10
125.7882730221153
 20
-158.1319196502583
 30
0.0
 10
135.9712738734365
 20
-153.7284063180256
 30
0.0
 10
135.9712738734365
 20
-153.7284063180256
 30
0.0
  0
LINE
  5
103
330
FE
100
AcDbEntity
  8
レイヤー 1
 62
   250
420
  2299925
370
     9
100
AcDbLine
 10
125.2942430347191
 20
-154.282373262332
 30
0.0
 11
135.4772438860402
 21
-150.2819085411095
 31
0.0
  0
SPLINE
  5
104
330
FE
100
AcDbEntity
  8
レイヤー 1
 62
   250
420
  2299925
370
     9
100
AcDbSpline
210
0.0
220
0.0
230
1.0
 70
     8
 71
     3
 72
    26
 73
    22
 74
     0
 42
0.0000000001
 43
0.0000000001
 40
0.0
 40
0.0
 40
0.0
 40
0.0
 40
1.0
 40
1.0
 40
1.0
 40
2.0
 40
2.0
 40
2.0
 40
3.0
 40
3.0
 40
3.0
 40
4.0
 40
4.0
 40
4.0
 40
5.0
 40
5.0
 40
5.0
 40
6.0
 40
6.0
 40
6.0
 40
7.0
 40
7.0
 40
7.0
 40
7.0
 10
126.8521096616413
 20
-147.7911210417324
 30
0.0
 10
126.8521096616413
 20
-147.7911210417324
 30
0.0
 10
117.9568887774661
 20
-150.9089357631753
 30
0.0
 10
117.9568887774661
 20
-150.9089357631753
 30
0.0
 10
117.9568887774661
 20
-150.9089357631753
 30
0.0
 10
117.482155734022
 20
-150.984712429823
 30
0.0
 10
117.5200440663888
 20
-151.1555979853356
 30
0.0
 10
117.5200440663888
 20
-151.1555979853356
 30
0.0
 10
117.5007471224366
 20
-151.2320802075387
 30
0.0
 10
117.8053001702224
 20
-151.3271538186262
 30
0.0
 10
117.8053001702224
 20
-151.3271538186262
 30
0.0
 10
123.4876328030318
 20
-153.5699032625096
 30
0.0
 10
123.4876328030318
 20
-153.5699032625096
 30
0.0
 10
123.4876328030318
 20
-153.5699032625096
 30
0.0
 10
123.4876328030318
 20
-156.5354590951017
 30
0.0
 10
123.4876328030318
 20
-156.5354590951017
 30
0.0
 10
123.4876328030318
 20
-156.5354590951017
 30
0.0
 10
125.2942430347191
 20
-157.3905218726659
 30
0.0
 10
125.2942430347191
 20
-157.3905218726659
 30
0.0
 10
125.2942430347191
 20
-157.3905218726659
 30
0.0
 10
125.2942430347191
 20
-154.282373262332
 30
0.0
 10
125.2942430347191
 20
-154.282373262332
 30
0.0
  0
LINE
  5
105
330
FE
100
AcDbEntity
  8
レイヤー 1
 62
   250
420
  2299925
370
     9
100
AcDbLine
 10
132.8024828431679
 20
-149.8443935412189
 30
0.0
 11
123.4876328030318
 21
-153.5699032625096
 31
0.0
  0
LINE
  5
106
330
FE
100
AcDbEntity
  8
レイヤー 1
 62
   250
420
  2299925
370
     9
100
AcDbLine
 10
125.7882730221153
 20
-158.1319196502583
 30
0.0
 11
125.7882730221153
 21
-154.477353540061
 31
0.0
  0
LINE
  5
107
330
FE
100
AcDbEntity
  8
レイヤー 1
 62
   250
420
  2299925
370
     9
100
AcDbLine
 10
123.4876328030318
 20
-156.5354590951017
 30
0.0
 11
125.2942430347191
 21
-155.8836315952646
 31
0.0
  0
SPLINE
  5
108
330
FE
100
AcDbEntity
  8
レイヤー 1
 62
   250
420
  2299925
370
     9
100
AcDbSpline
210
0.0
220
0.0
230
1.0
 70
     9
 71
     3
 72
    17
 73
    13
 74
     0
 42
0.0000000001
 43
0.0000000001
 40
0.0
 40
0.0
 40
0.0
 40
0.0
 40
1.0
 40
1.0
 40
1.0
 40
2.0
 40
2.0
 40
2.0
 40
3.0
 40
3.0
 40
3.0
 40
4.0
 40
4.0
 40
4.0
 40
4.0
 10
130.0822487459002
 20
-149.6252832634958
 30
0.0
 10
130.0822487459002
 20
-149.8602332634374
 30
0.0
 10
129.7535656987301
 20
-150.0510860411672
 30
0.0
 10
129.3491059868265
 20
-150.0510860411672
 30
0.0
 10
128.9426035370243
 20
-150.0510860411672
 30
0.0
 10
128.6153282277689
 20
-149.8602332634374
 30
0.0
 10
128.6153282277689
 20
-149.6252832634958
 30
0.0
 10
128.6153282277689
 20
-149.3903332635548
 30
0.0
 10
128.9426035370243
 20
-149.2001507636023
 30
0.0
 10
129.3491059868265
 20
-149.2001507636023
 30
0.0
 10
129.7535656987301
 20
-149.2001507636023
 30
0.0
 10
130.0822487459002
 20
-149.3903332635548
 30
0.0
 10
130.0822487459002
 20
-149.6252832634958
 30
0.0
  0
SPLINE
  5
109
330
FE
100
AcDbEntity
  8
レイヤー 1
 62
   250
420
  2299925
370
     9
100
AcDbSpline
210
0.0
220
0.0
230
1.0
 70
     8
 71
     3
 72
    11
 73
     7
 74
     0
 42
0.0000000001
 43
0.0000000001
 40
0.0
 40
0.0
 40
0.0
 40
0.0
 40
1.0
 40
1.0
 40
1.0
 40
2.0
 40
2.0
 40
2.0
 40
2.0
 10
128.7427868356283
 20
-149.8595629856594
 30
0.0
 10
128.7427868356283
 20
-149.8595629856594
 30
0.0
 10
128.7207382250797
 20
-149.3482821524538
 30
0.0
 10
129.5503304261372
 20
-149.3917090968876
 30
0.0
 10
129.5503304261372
 20
-149.3917090968876
 30
0.0
 10
130.0395273581012
 20
-149.4551032635387
 30
0.0
 10
129.954754860264
 20
-149.8381846523318
 30
0.0
  0
SPLINE
  5
10A
330
FE
100
AcDbEntity
  8
レイヤー 1
 62
   250
420
  2299925
370
     9
100
AcDbSpline
210
0.0
220
0.0
230
1.0
 70
     9
 71
     3
 72
    17
 73
    13
 74
     0
 42
0.0000000001
 43
0.0000000001
 40
0.0
 40
0.0
 40
0.0
 40
0.0
 40
1.0
 40
1.0
 40
1.0
 40
2.0
 40
2.0
 40
2.0
 40
3.0
 40
3.0
 40
3.0
 40
4.0
 40
4.0
 40
4.0
 40
4.0
 10
129.8458876408192
 20
-148.5449013193214
 30
0.0
 10
129.8458876408192
 20
-148.7798513192631
 30
0.0
 10
129.5172398714259
 20
-148.9707040969928
 30
0.0
 10
129.1127801595223
 20
-148.9707040969928
 30
0.0
 10
128.7069479815277
 20
-148.9707040969928
 30
0.0
 10
128.3789671226879
 20
-148.7798513192631
 30
0.0
 10
128.3789671226879
 20
-148.5449013193214
 30
0.0
 10
128.3789671226879
 20
-148.3099513193804
 30
0.0
 10
128.7069479815277
 20
-148.11909854165
 30
0.0
 10
129.1127801595223
 20
-148.11909854165
 30
0.0
 10
129.5172398714259
 20
-148.11909854165
 30
0.0
 10
129.8458876408192
 20
-148.3099513193804
 30
0.0
 10
129.8458876408192
 20
-148.5449013193214
 30
0.0
  0
SPLINE
  5
10B
330
FE
100
AcDbEntity
  8
レイヤー 1
 62
   250
420
  2299925
370
     9
100
AcDbSpline
210
0.0
220
0.0
230
1.0
 70
     8
 71
     3
 72
    11
 73
     7
 74
     0
 42
0.0000000001
 43
0.0000000001
 40
0.0
 40
0.0
 40
0.0
 40
0.0
 40
1.0
 40
1.0
 40
1.0
 40
2.0
 40
2.0
 40
2.0
 40
2.0
 10
128.5064610083241
 20
-148.7784754859302
 30
0.0
 10
128.5064610083241
 20
-148.7784754859302
 30
0.0
 10
128.4850826755362
 20
-148.2679002082795
 30
0.0
 10
129.3146748765938
 20
-148.3113271527133
 30
0.0
 10
129.3146748765938
 20
-148.3113271527133
 30
0.0
 10
129.8032015307971
 20
-148.3740157638088
 30
0.0
 10
129.7184290329598
 20
-148.7578027081575
 30
0.0
  0
SPLINE
  5
10C
330
FE
100
AcDbEntity
  8
レイヤー 1
 62
   250
420
  2299925
370
     9
100
AcDbSpline
210
0.0
220
0.0
230
1.0
 70
     9
 71
     3
 72
    17
 73
    13
 74
     0
 42
0.0000000001
 43
0.0000000001
 40
0.0
 40
0.0
 40
0.0
 40
0.0
 40
1.0
 40
1.0
 40
1.0
 40
2.0
 40
2.0
 40
2.0
 40
3.0
 40
3.0
 40
3.0
 40
4.0
 40
4.0
 40
4.0
 40
4.0
 10
120.1893017760681
 20
-151.1445560408937
 30
0.0
 10
120.1893017760681
 20
-151.3795060408353
 30
0.0
 10
119.8606540066748
 20
-151.5703940963433
 30
0.0
 10
119.4554887392337
 20
-151.5703940963433
 30
0.0
 10
119.0503618728309
 20
-151.5703940963433
 30
0.0
 10
118.7216757023992
 20
-151.3795060408353
 30
0.0
 10
118.7216757023992
 20
-151.1445560408937
 30
0.0
 10
118.7216757023992
 20
-150.9096060409527
 30
0.0
 10
119.0503618728309
 20
-150.7187532632229
 30
0.0
 10
119.4554887392337
 20
-150.7187532632229
 30
0.0
 10
119.8606540066748
 20
-150.7187532632229
 30
0.0
 10
120.1893017760681
 20
-150.9096060409527
 30
0.0
 10
120.1893017760681
 20
-151.1445560408937
 30
0.0
  0
SPLINE
  5
10D
330
FE
100
AcDbEntity
  8
レイヤー 1
 62
   250
420
  2299925
370
     9
100
AcDbSpline
210
0.0
220
0.0
230
1.0
 70
     8
 71
     3
 72
    11
 73
     7
 74
     0
 42
0.0000000001
 43
0.0000000001
 40
0.0
 40
0.0
 40
0.0
 40
0.0
 40
1.0
 40
1.0
 40
1.0
 40
2.0
 40
2.0
 40
2.0
 40
2.0
 10
118.8498398657962
 20
-151.3788357630573
 30
0.0
 10
118.8498398657962
 20
-151.3788357630573
 30
0.0
 10
118.8277912552476
 20
-150.8675902076299
 30
0.0
 10
119.6573834563051
 20
-150.9109818742856
 30
0.0
 10
119.6573834563051
 20
-150.9109818742856
 30
0.0
 10
120.1465803882691
 20
-150.9743760409366
 30
0.0
 10
120.0618431682087
 20
-151.3574574297297
 30
0.0
  0
SPLINE
  5
10E
330
FE
100
AcDbEntity
  8
レイヤー 1
 62
   250
420
  2299925
370
     9
100
AcDbSpline
210
0.0
220
0.0
230
1.0
 70
     9
 71
     3
 72
    17
 73
    13
 74
     0
 42
0.0000000001
 43
0.0000000001
 40
0.0
 40
0.0
 40
0.0
 40
0.0
 40
1.0
 40
1.0
 40
1.0
 40
2.0
 40
2.0
 40
2.0
 40
3.0
 40
3.0
 40
3.0
 40
4.0
 40
4.0
 40
4.0
 40
4.0
 10
127.887724079665
 20
-150.7056652076701
 30
0.0
 10
127.887724079665
 20
-150.9406152076118
 30
0.0
 10
127.5576651991966
 20
-151.1314679853416
 30
0.0
 10
127.153205487293
 20
-151.1314679853416
 30
0.0
 10
126.7487810531663
 20
-151.1314679853416
 30
0.0
 10
126.4200980059961
 20
-150.9406152076118
 30
0.0
 10
126.4200980059961
 20
-150.7056652076701
 30
0.0
 10
126.4200980059961
 20
-150.4713854855065
 30
0.0
 10
126.7487810531663
 20
-150.2805327077767
 30
0.0
 10
127.153205487293
 20
-150.2805327077767
 30
0.0
 10
127.5576651991966
 20
-150.2805327077767
 30
0.0
 10
127.887724079665
 20
-150.4713854855065
 30
0.0
 10
127.887724079665
 20
-150.7056652076701
 30
0.0
  0
SPLINE
  5
10F
330
FE
100
AcDbEntity
  8
レイヤー 1
 62
   250
420
  2299925
370
     9
100
AcDbSpline
210
0.0
220
0.0
230
1.0
 70
     8
 71
     3
 72
    11
 73
     7
 74
     0
 42
0.0000000001
 43
0.0000000001
 40
0.0
 40
0.0
 40
0.0
 40
0.0
 40
1.0
 40
1.0
 40
1.0
 40
2.0
 40
2.0
 40
2.0
 40
2.0
 10
126.5475566138555
 20
-150.9399449298338
 30
0.0
 10
126.5475566138555
 20
-150.9399449298338
 30
0.0
 10
126.5262135588445
 20
-150.4286640966282
 30
0.0
 10
127.3558090929767
 20
-150.472091041062
 30
0.0
 10
127.3558090929767
 20
-150.472091041062
 30
0.0
 10
127.845002691866
 20
-150.535485207713
 30
0.0
 10
127.7595599162681
 20
-150.9185665965062
 30
0.0
  0
SPLINE
  5
110
330
FE
100
AcDbEntity
  8
レイヤー 1
 62
   250
420
  2299925
370
     9
100
AcDbSpline
210
0.0
220
0.0
230
1.0
 70
     9
 71
     3
 72
    17
 73
    13
 74
     0
 42
0.0000000001
 43
0.0000000001
 40
0.0
 40
0.0
 40
0.0
 40
0.0
 40
1.0
 40
1.0
 40
1.0
 40
2.0
 40
2.0
 40
2.0
 40
3.0
 40
3.0
 40
3.0
 40
4.0
 40
4.0
 40
4.0
 40
4.0
 10
127.6506926968233
 20
-149.6252832634958
 30
0.0
 10
127.6506926968233
 20
-149.8602332634374
 30
0.0
 10
127.32204492743
 20
-150.0510860411672
 30
0.0
 10
126.9168796599888
 20
-150.0510860411672
 30
0.0
 10
126.5124199480852
 20
-150.0510860411672
 30
0.0
 10
126.1830666231544
 20
-149.8602332634374
 30
0.0
 10
126.1830666231544
 20
-149.6252832634958
 30
0.0
 10
126.1830666231544
 20
-149.3903332635548
 30
0.0
 10
126.5124199480852
 20
-149.2001507636023
 30
0.0
 10
126.9168796599888
 20
-149.2001507636023
 30
0.0
 10
127.32204492743
 20
-149.2001507636023
 30
0.0
 10
127.6506926968233
 20
-149.3903332635548
 30
0.0
 10
127.6506926968233
 20
-149.6252832634958
 30
0.0
  0
SPLINE
  5
111
330
FE
100
AcDbEntity
  8
レイヤー 1
 62
   250
420
  2299925
370
     9
100
AcDbSpline
210
0.0
220
0.0
230
1.0
 70
     8
 71
     3
 72
    11
 73
     7
 74
     0
 42
0.0000000001
 43
0.0000000001
 40
0.0
 40
0.0
 40
0.0
 40
0.0
 40
1.0
 40
1.0
 40
1.0
 40
2.0
 40
2.0
 40
2.0
 40
2.0
 10
126.3119396487929
 20
-149.8595629856594
 30
0.0
 10
126.3119396487929
 20
-149.8595629856594
 30
0.0
 10
126.2898877315403
 20
-149.3482821524538
 30
0.0
 10
127.1187743770603
 20
-149.3917090968876
 30
0.0
 10
127.1187743770603
 20
-149.3917090968876
 30
0.0
 10
127.6079713090243
 20
-149.4551032635387
 30
0.0
 10
127.5232340889639
 20
-149.8381846523318
 30
0.0
  0
SPLINE
  5
112
330
FE
100
AcDbEntity
  8
レイヤー 1
 62
   250
420
  2299925
370
     9
100
AcDbSpline
210
0.0
220
0.0
230
1.0
 70
     9
 71
     3
 72
    17
 73
    13
 74
     0
 42
0.0000000001
 43
0.0000000001
 40
0.0
 40
0.0
 40
0.0
 40
0.0
 40
1.0
 40
1.0
 40
1.0
 40
2.0
 40
2.0
 40
2.0
 40
3.0
 40
3.0
 40
3.0
 40
4.0
 40
4.0
 40
4.0
 40
4.0
 10
127.1111896550316
 20
-148.6799446526214
 30
0.0
 10
127.1111896550316
 20
-148.9148946525624
 30
0.0
 10
126.7818396486756
 20
-149.1057474302922
 30
0.0
 10
126.3773766181971
 20
-149.1057474302922
 30
0.0
 10
125.9722466285329
 20
-149.1057474302922
 30
0.0
 10
125.642893303602
 20
-148.9148946525624
 30
0.0
 10
125.642893303602
 20
-148.6799446526214
 30
0.0
 10
125.642893303602
 20
-148.4449946526798
 30
0.0
 10
125.9722466285329
 20
-148.2548121527273
 30
0.0
 10
126.3773766181971
 20
-148.2548121527273
 30
0.0
 10
126.7818396486756
 20
-148.2548121527273
 30
0.0
 10
127.1111896550316
 20
-148.4449946526798
 30
0.0
 10
127.1111896550316
 20
-148.6799446526214
 30
0.0
  0
SPLINE
  5
113
330
FE
100
AcDbEntity
  8
レイヤー 1
 62
   250
420
  2299925
370
     9
100
AcDbSpline
210
0.0
220
0.0
230
1.0
 70
     8
 71
     3
 72
    11
 73
     7
 74
     0
 42
0.0000000001
 43
0.0000000001
 40
0.0
 40
0.0
 40
0.0
 40
0.0
 40
1.0
 40
1.0
 40
1.0
 40
2.0
 40
2.0
 40
2.0
 40
2.0
 10
125.771057466999
 20
-148.914224374785
 30
0.0
 10
125.771057466999
 20
-148.914224374785
 30
0.0
 10
125.7503846897486
 20
-148.4029435415795
 30
0.0
 10
126.5785657797311
 20
-148.4463704860127
 30
0.0
 10
126.5785657797311
 20
-148.4463704860127
 30
0.0
 10
127.0677627116951
 20
-148.5097646526637
 30
0.0
 10
126.9830254916346
 20
-148.8928460414568
 30
0.0
  0
SPLINE
  5
114
330
FE
100
AcDbEntity
  8
レイヤー 1
 62
   250
420
  2299925
370
     9
100
AcDbSpline
210
0.0
220
0.0
230
1.0
 70
     9
 71
     3
 72
    17
 73
    13
 74
     0
 42
0.0000000001
 43
0.0000000001
 40
0.0
 40
0.0
 40
0.0
 40
0.0
 40
1.0
 40
1.0
 40
1.0
 40
2.0
 40
2.0
 40
2.0
 40
3.0
 40
3.0
 40
3.0
 40
4.0
 40
4.0
 40
4.0
 40
4.0
 10
125.5912146489732
 20
-151.5159604852457
 30
0.0
 10
125.5912146489732
 20
-151.7509104851867
 30
0.0
 10
125.2618580355453
 20
-151.9417632629172
 30
0.0
 10
124.8573983236417
 20
-151.9417632629172
 30
0.0
 10
124.4515627784399
 20
-151.9417632629172
 30
0.0
 10
124.1242908423448
 20
-151.7509104851867
 30
0.0
 10
124.1242908423448
 20
-151.5159604852457
 30
0.0
 10
124.1242908423448
 20
-151.2810104853041
 30
0.0
 10
124.4515627784399
 20
-151.0908279853516
 30
0.0
 10
124.8573983236417
 20
-151.0908279853516
 30
0.0
 10
125.2618580355453
 20
-151.0908279853516
 30
0.0
 10
125.5912146489732
 20
-151.2810104853041
 30
0.0
 10
125.5912146489732
 20
-151.5159604852457
 30
0.0
  0
SPLINE
  5
115
330
FE
100
AcDbEntity
  8
レイヤー 1
 62
   250
420
  2299925
370
     9
100
AcDbSpline
210
0.0
220
0.0
230
1.0
 70
     8
 71
     3
 72
    11
 73
     7
 74
     0
 42
0.0000000001
 43
0.0000000001
 40
0.0
 40
0.0
 40
0.0
 40
0.0
 40
1.0
 40
1.0
 40
1.0
 40
2.0
 40
2.0
 40
2.0
 40
2.0
 10
124.2517494502042
 20
-151.7502049296312
 30
0.0
 10
124.2517494502042
 20
-151.7502049296312
 30
0.0
 10
124.2297008396556
 20
-151.2389593742038
 30
0.0
 10
125.0599633184738
 20
-151.282386318637
 30
0.0
 10
125.0599633184738
 20
-151.282386318637
 30
0.0
 10
125.5484899726772
 20
-151.3457452075105
 30
0.0
 10
125.4630471970792
 20
-151.7288618740811
 30
0.0
  0
SPLINE
  5
116
330
FE
100
AcDbEntity
  8
レイヤー 1
 62
   250
420
  2299925
370
     9
100
AcDbSpline
210
0.0
220
0.0
230
1.0
 70
     9
 71
     3
 72
    17
 73
    13
 74
     0
 42
0.0000000001
 43
0.0000000001
 40
0.0
 40
0.0
 40
0.0
 40
0.0
 40
1.0
 40
1.0
 40
1.0
 40
2.0
 40
2.0
 40
2.0
 40
3.0
 40
3.0
 40
3.0
 40
4.0
 40
4.0
 40
4.0
 40
4.0
 10
125.3541799776344
 20
-150.4355785410714
 30
0.0
 10
125.3541799776344
 20
-150.6705285410124
 30
0.0
 10
125.0255322082411
 20
-150.8613813187428
 30
0.0
 10
124.6210757603269
 20
-150.8613813187428
 30
0.0
 10
124.2159425066733
 20
-150.8613813187428
 30
0.0
 10
123.8872594595031
 20
-150.6705285410124
 30
0.0
 10
123.8872594595031
 20
-150.4355785410714
 30
0.0
 10
123.8872594595031
 20
-150.2012988189077
 30
0.0
 10
124.2159425066733
 20
-150.0097404856218
 30
0.0
 10
124.6210757603269
 20
-150.0097404856218
 30
0.0
 10
125.0255322082411
 20
-150.0097404856218
 30
0.0
 10
125.3541799776344
 20
-150.2012988189077
 30
0.0
 10
125.3541799776344
 20
-150.4355785410714
 30
0.0
  0
SPLINE
  5
117
330
FE
100
AcDbEntity
  8
レイヤー 1
 62
   250
420
  2299925
370
     9
100
AcDbSpline
210
0.0
220
0.0
230
1.0
 70
     8
 71
     3
 72
    11
 73
     7
 74
     0
 42
0.0000000001
 43
0.0000000001
 40
0.0
 40
0.0
 40
0.0
 40
0.0
 40
1.0
 40
1.0
 40
1.0
 40
2.0
 40
2.0
 40
2.0
 40
2.0
 10
124.0154236229001
 20
-150.6691527076795
 30
0.0
 10
124.0154236229001
 20
-150.6691527076795
 30
0.0
 10
123.994080567889
 20
-150.1585774300294
 30
0.0
 10
124.822967213409
 20
-150.2020043744626
 30
0.0
 10
124.822967213409
 20
-150.2020043744626
 30
0.0
 10
125.312167426821
 20
-150.2653632633361
 30
0.0
 10
125.226721369775
 20
-150.6484799299068
 30
0.0
  0
SPLINE
  5
118
330
FE
100
AcDbEntity
  8
レイヤー 1
 62
   250
420
  2299925
370
     9
100
AcDbSpline
210
0.0
220
0.0
230
1.0
 70
    11
 71
     3
 72
    17
 73
    13
 74
     0
 42
0.0000000001
 43
0.0000000001
 40
0.0
 40
0.0
 40
0.0
 40
0.0
 40
1.0
 40
1.0
 40
1.0
 40
2.0
 40
2.0
 40
2.0
 40
3.0
 40
3.0
 40
3.0
 40
4.0
 40
4.0
 40
4.0
 40
4.0
 10
124.8146769358427
 20
-149.4902399301964
 30
0.0
 10
124.8146769358427
 20
-149.7251899301374
 30
0.0
 10
124.4853236109119
 20
-149.9153724300898
 30
0.0
 10
124.0815694545459
 20
-149.9153724300898
 30
0.0
 10
123.675733909344
 20
-149.9153724300898
 30
0.0
 10
123.3470861399508
 20
-149.7251899301374
 30
0.0
 10
123.3470861399508
 20
-149.4902399301964
 30
0.0
 10
123.3470861399508
 20
-149.2552899302554
 30
0.0
 10
123.675733909344
 20
-149.065107430303
 30
0.0
 10
124.0815694545459
 20
-149.065107430303
 30
0.0
 10
124.4853236109119
 20
-149.065107430303
 30
0.0
 10
124.8146769358427
 20
-149.2552899302554
 30
0.0
 10
124.8146769358427
 20
-149.4902399301964
 30
0.0
  0
SPLINE
  5
119
330
FE
100
AcDbEntity
  8
レイヤー 1
 62
   250
420
  2299925
370
     9
100
AcDbSpline
210
0.0
220
0.0
230
1.0
 70
     8
 71
     3
 72
    11
 73
     7
 74
     0
 42
0.0000000001
 43
0.0000000001
 40
0.0
 40
0.0
 40
0.0
 40
0.0
 40
1.0
 40
1.0
 40
1.0
 40
2.0
 40
2.0
 40
2.0
 40
2.0
 10
123.4752535383913
 20
-149.7238140968045
 30
0.0
 10
123.4752535383913
 20
-149.7238140968045
 30
0.0
 10
123.4538719705597
 20
-149.2132388191544
 30
0.0
 10
124.2820883383191
 20
-149.2566657635883
 30
0.0
 10
124.2820883383191
 20
-149.2566657635883
 30
0.0
 10
124.7719555480438
 20
-149.3200599302387
 30
0.0
 10
124.6872183279833
 20
-149.7031413190318
 30
0.0
  0
SPLINE
  5
11A
330
FE
100
AcDbEntity
  8
レイヤー 1
 62
   250
420
  2299925
370
     9
100
AcDbSpline
210
0.0
220
0.0
230
1.0
 70
     9
 71
     3
 72
    17
 73
    13
 74
     0
 42
0.0000000001
 43
0.0000000001
 40
0.0
 40
0.0
 40
0.0
 40
0.0
 40
1.0
 40
1.0
 40
1.0
 40
2.0
 40
2.0
 40
2.0
 40
3.0
 40
3.0
 40
3.0
 40
4.0
 40
4.0
 40
4.0
 40
4.0
 10
123.1596553113992
 20
-152.3269260405981
 30
0.0
 10
123.1596553113992
 20
-152.5612057627617
 30
0.0
 10
122.8310075420059
 20
-152.7520585404922
 30
0.0
 10
122.4258422745647
 20
-152.7520585404922
 30
0.0
 10
122.0207122849005
 20
-152.7520585404922
 30
0.0
 10
121.6920645155072
 20
-152.5612057627617
 30
0.0
 10
121.6920645155072
 20
-152.3269260405981
 30
0.0
 10
121.6920645155072
 20
-152.0919760406571
 30
0.0
 10
122.0207122849005
 20
-151.9011232629273
 30
0.0
 10
122.4258422745647
 20
-151.9011232629273
 30
0.0
 10
122.8310075420059
 20
-151.9011232629273
 30
0.0
 10
123.1596553113992
 20
-152.0919760406571
 30
0.0
 10
123.1596553113992
 20
-152.3269260405981
 30
0.0
  0
SPLINE
  5
11B
330
FE
100
AcDbEntity
  8
レイヤー 1
 62
   250
420
  2299925
370
     9
100
AcDbSpline
210
0.0
220
0.0
230
1.0
 70
     8
 71
     3
 72
    11
 73
     7
 74
     0
 42
0.0000000001
 43
0.0000000001
 40
0.0
 40
0.0
 40
0.0
 40
0.0
 40
1.0
 40
1.0
 40
1.0
 40
2.0
 40
2.0
 40
2.0
 40
2.0
 10
121.8201934011273
 20
-152.5605002072069
 30
0.0
 10
121.8201934011273
 20
-152.5605002072069
 30
0.0
 10
121.7981479832547
 20
-152.0499249295568
 30
0.0
 10
122.6284425471738
 20
-152.0926463184345
 30
0.0
 10
122.6284425471738
 20
-152.0926463184345
 30
0.0
 10
123.1169339236002
 20
-152.1560404850855
 30
0.0
 10
123.0328702051682
 20
-152.5398274294341
 30
0.0
  0
SPLINE
  5
11C
330
FE
100
AcDbEntity
  8
レイヤー 1
 62
   250
420
  2299925
370
     9
100
AcDbSpline
210
0.0
220
0.0
230
1.0
 70
     9
 71
     3
 72
    17
 73
    13
 74
     0
 42
0.0000000001
 43
0.0000000001
 40
0.0
 40
0.0
 40
0.0
 40
0.0
 40
1.0
 40
1.0
 40
1.0
 40
2.0
 40
2.0
 40
2.0
 40
3.0
 40
3.0
 40
3.0
 40
4.0
 40
4.0
 40
4.0
 40
4.0
 10
122.9240350396326
 20
-151.2458385408689
 30
0.0
 10
122.9240350396326
 20
-151.4808238185874
 30
0.0
 10
122.5939761591642
 20
-151.6716765963178
 30
0.0
 10
122.1895164472606
 20
-151.6716765963178
 30
0.0
 10
121.7843896499252
 20
-151.6716765963178
 30
0.0
 10
121.4564089659637
 20
-151.4808238185874
 30
0.0
 10
121.4564089659637
 20
-151.2458385408689
 30
0.0
 10
121.4564089659637
 20
-151.0108885409272
 30
0.0
 10
121.7843896499252
 20
-150.8207413187529
 30
0.0
 10
122.1895164472606
 20
-150.8207413187529
 30
0.0
 10
122.5939761591642
 20
-150.8207413187529
 30
0.0
 10
122.9240350396326
 20
-151.0108885409272
 30
0.0
 10
122.9240350396326
 20
-151.2458385408689
 30
0.0
  0
SPLINE
  5
11D
330
FE
100
AcDbEntity
  8
レイヤー 1
 62
   250
420
  2299925
370
     9
100
AcDbSpline
210
0.0
220
0.0
230
1.0
 70
     8
 71
     3
 72
    11
 73
     7
 74
     0
 42
0.0000000001
 43
0.0000000001
 40
0.0
 40
0.0
 40
0.0
 40
0.0
 40
1.0
 40
1.0
 40
1.0
 40
2.0
 40
2.0
 40
2.0
 40
2.0
 10
121.5831972960624
 20
-151.4801182630325
 30
0.0
 10
121.5831972960624
 20
-151.4801182630325
 30
0.0
 10
121.562524518812
 20
-150.9688727076044
 30
0.0
 10
122.3920814420927
 20
-151.0122643742601
 30
0.0
 10
122.3920814420927
 20
-151.0122643742601
 30
0.0
 10
122.8813136518336
 20
-151.0756585409111
 30
0.0
 10
122.7958708762356
 20
-151.4587752074818
 30
0.0
  0
SPLINE
  5
11E
330
FE
100
AcDbEntity
  8
レイヤー 1
 62
   250
420
  2299925
370
     9
100
AcDbSpline
210
0.0
220
0.0
230
1.0
 70
     9
 71
     3
 72
    17
 73
    13
 74
     0
 42
0.0000000001
 43
0.0000000001
 40
0.0
 40
0.0
 40
0.0
 40
0.0
 40
1.0
 40
1.0
 40
1.0
 40
2.0
 40
2.0
 40
2.0
 40
3.0
 40
3.0
 40
3.0
 40
4.0
 40
4.0
 40
4.0
 40
4.0
 10
122.3831561645427
 20
-150.3005352077714
 30
0.0
 10
122.3831561645427
 20
-150.535485207713
 30
0.0
 10
122.0544731173725
 20
-150.7263379854428
 30
0.0
 10
121.6500134054689
 20
-150.7263379854428
 30
0.0
 10
121.2441778602671
 20
-150.7263379854428
 30
0.0
 10
120.9162035390307
 20
-150.535485207713
 30
0.0
 10
120.9162035390307
 20
-150.3005352077714
 30
0.0
 10
120.9162035390307
 20
-150.0655499300529
 30
0.0
 10
121.2441778602671
 20
-149.8754027078779
 30
0.0
 10
121.6500134054689
 20
-149.8754027078779
 30
0.0
 10
122.0544731173725
 20
-149.8754027078779
 30
0.0
 10
122.3831561645427
 20
-150.0655499300529
 30
0.0
 10
122.3831561645427
 20
-150.3005352077714
 30
0.0
  0
SPLINE
  5
11F
330
FE
100
AcDbEntity
  8
レイヤー 1
 62
   250
420
  2299925
370
     9
100
AcDbSpline
210
0.0
220
0.0
230
1.0
 70
     8
 71
     3
 72
    11
 73
     7
 74
     0
 42
0.0000000001
 43
0.0000000001
 40
0.0
 40
0.0
 40
0.0
 40
0.0
 40
1.0
 40
1.0
 40
1.0
 40
2.0
 40
2.0
 40
2.0
 40
2.0
 10
121.0443645320314
 20
-150.5347796521575
 30
0.0
 10
121.0443645320314
 20
-150.5347796521575
 30
0.0
 10
121.0223159214828
 20
-150.0235340967301
 30
0.0
 10
121.8519081225404
 20
-150.0669257633857
 30
0.0
 10
121.8519081225404
 20
-150.0669257633857
 30
0.0
 10
122.3411050545044
 20
-150.1303199300361
 30
0.0
 10
122.2556622789064
 20
-150.5134365966074
 30
0.0
  0
LINE
  5
120
330
FE
100
AcDbEntity
  8
レイヤー 1
 62
   250
420
  2299925
370
     9
100
AcDbLine
 10
125.2935727569584
 20
-154.282373262332
 30
0.0
 11
125.7882730221153
 21
-154.477353540061
 31
0.0
  0
LINE
  5
121
330
FE
100
AcDbEntity
  8
レイヤー 1
 62
   250
420
  2299925
370
     9
100
AcDbLine
 10
125.7882730221153
 20
-154.477353540061
 30
0.0
 11
135.9712738734365
 21
-150.4769240966162
 31
0.0
  0
ENDBLK
  5
101
330
FE
100
AcDbEntity
  8
0
100
AcDbBlockEnd
  0
BLOCK
  5
126
330
124
100
AcDbEntity
  8
0
100
AcDbBlockBegin
  2
Block_10
 70
     0
 10
0.0
 20
0.0
 30
0.0
  3
Block_10
  1

  0
INSERT
  5
129
330
124
100
AcDbEntity
  8
レイヤー 1
100
AcDbBlockReference
  2
Block_11
 10
0.0
 20
0.0
 30
0.0
  0
INSERT
  5
130
330
124
100
AcDbEntity
  8
レイヤー 1
100
AcDbBlockReference
  2
Block_12
 10
0.0
 20
0.0
 30
0.0
  0
ENDBLK
  5
127
330
124
100
AcDbEntity
  8
0
100
AcDbBlockEnd
  0
BLOCK
  5
12A
330
128
100
AcDbEntity
  8
0
100
AcDbBlockBegin
  2
Block_11
 70
     0
 10
0.0
 20
0.0
 30
0.0
  3
Block_11
  1

  0
LINE
  5
12C
330
128
100
AcDbEntity
  8
レイヤー 1
 62
    18
420
        0
370
     9
100
AcDbLine
 10
85.98001820437522
 20
-147.1330846530082
 30
0.0
 11
86.79133651701041
 21
-147.718060763973
 31
0.0
  0
LINE
  5
12D
330
128
100
AcDbEntity
  8
レイヤー 1
 62
    18
420
        0
370
     9
100
AcDbLine
 10
85.98001820437522
 20
-147.1330846530082
 30
0.0
 11
88.55762424972612
 21
-150.290198818885
 31
0.0
  0
LINE
  5
12E
330
128
100
AcDbEntity
  8
レイヤー 1
 62
    18
420
        0
370
     9
100
AcDbLine
 10
85.98001820437522
 20
-147.1330846530082
 30
0.0
 11
86.3903340272405
 21
-148.0453679861132
 31
0.0
  0
ENDBLK
  5
12B
330
128
100
AcDbEntity
  8
0
100
AcDbBlockEnd
  0
BLOCK
  5
131
330
12F
100
AcDbEntity
  8
0
100
AcDbBlockBegin
  2
Block_12
 70
     0
 10
0.0
 20
0.0
 30
0.0
  3
Block_12
  1

  0
INSERT
  5
134
330
12F
100
AcDbEntity
  8
レイヤー 1
100
AcDbBlockReference
  2
Block_13
 10
0.0
 20
0.0
 30
0.0
  0
ENDBLK
  5
132
330
12F
100
AcDbEntity
  8
0
100
AcDbBlockEnd
  0
BLOCK
  5
135
330
133
100
AcDbEntity
  8
0
100
AcDbBlockBegin
  2
Block_13
 70
     0
 10
0.0
 20
0.0
 30
0.0
  3
Block_13
  1

  0
SPLINE
  5
137
330
133
100
AcDbEntity
  8
レイヤー 1
100
AcDbSpline
210
0.0
220
0.0
230
1.0
 70
     9
 71
     3
 72
    17
 73
    13
 74
     0
 42
0.0000000001
 43
0.0000000001
 40
0.0
 40
0.0
 40
0.0
 40
0.0
 40
1.0
 40
1.0
 40
1.0
 40
2.0
 40
2.0
 40
2.0
 40
3.0
 40
3.0
 40
3.0
 40
4.0
 40
4.0
 40
4.0
 40
4.0
 10
90.22412242753077
 20
-150.7380858998154
 30
0.0
 10
90.20724145965305
 20
-150.7677137209886
 30
0.0
 10
90.15642630124562
 20
-150.8607312990904
 30
0.0
 10
90.1459187600156
 20
-150.8796793242592
 30
0.0
 10
90.33626028557566
 20
-150.9389349666055
 30
0.0
 10
90.35744762280994
 20
-150.9454806480275
 30
0.0
 10
90.42945011845167
 20
-150.972696902361
 30
0.0
 10
90.4843993914414
 20
-150.8862250056812
 30
0.0
 10
90.50765378596684
 20
-150.8121554527483
 30
0.0
 10
90.52246769655342
 20
-150.7380858998154
 30
0.0
 10
90.52246769655342
 20
-150.7380858998154
 30
0.0
 10
90.22412242753077
 20
-150.7380858998154
 30
0.0
 10
90.22412242753077
 20
-150.7380858998154
 30
0.0
  0
SPLINE
  5
138
330
133
100
AcDbEntity
  8
レイヤー 1
100
AcDbSpline
210
0.0
220
0.0
230
1.0
 70
    11
 71
     3
 72
    20
 73
    16
 74
     0
 42
0.0000000001
 43
0.0000000001
 40
0.0
 40
0.0
 40
0.0
 40
0.0
 40
1.0
 40
1.0
 40
1.0
 40
2.0
 40
2.0
 40
2.0
 40
3.0
 40
3.0
 40
3.0
 40
4.0
 40
4.0
 40
4.0
 40
5.0
 40
5.0
 40
5.0
 40
5.0
 10
90.16073267060219
 20
-149.8874918245073
 30
0.0
 10
90.16073267060219
 20
-149.8874918245073
 30
0.0
 10
90.12903779213788
 20
-149.8874918245073
 30
0.0
 10
90.12903779213788
 20
-149.8874918245073
 30
0.0
 10
90.17554658118875
 20
-149.987055084031
 30
0.0
 10
90.20724145965305
 20
-150.0673258088373
 30
0.0
 10
90.24117565018277
 20
-150.194449832243
 30
0.0
 10
90.24117565018277
 20
-150.194449832243
 30
0.0
 10
90.44839814362054
 20
-150.194449832243
 30
0.0
 10
90.44839814362054
 20
-150.194449832243
 30
0.0
 10
90.48009302208484
 20
-150.1014322541413
 30
0.0
 10
90.50334741661028
 20
-150.0166829052041
 30
0.0
 10
90.52677406590998
 20
-149.8874918245073
 30
0.0
 10
90.52677406590998
 20
-149.8874918245073
 30
0.0
 10
90.16073267060219
 20
-149.8874918245073
 30
0.0
 10
90.16073267060219
 20
-149.8874918245073
 30
0.0
  0
SPLINE
  5
139
330
133
100
AcDbEntity
  8
レイヤー 1
100
AcDbSpline
210
0.0
220
0.0
230
1.0
 70
     9
 71
     3
 72
   242
 73
   238
 74
     0
 42
0.0000000001
 43
0.0000000001
 40
0.0
 40
0.0
 40
0.0
 40
0.0
 40
1.0
 40
1.0
 40
1.0
 40
2.0
 40
2.0
 40
2.0
 40
3.0
 40
3.0
 40
3.0
 40
4.0
 40
4.0
 40
4.0
 40
5.0
 40
5.0
 40
5.0
 40
6.0
 40
6.0
 40
6.0
 40
7.0
 40
7.0
 40
7.0
 40
8.0
 40
8.0
 40
8.0
 40
9.0
 40
9.0
 40
9.0
 40
10.0
 40
10.0
 40
10.0
 40
11.0
 40
11.0
 40
11.0
 40
12.0
 40
12.0
 40
12.0
 40
13.0
 40
13.0
 40
13.0
 40
14.0
 40
14.0
 40
14.0
 40
15.0
 40
15.0
 40
15.0
 40
16.0
 40
16.0
 40
16.0
 40
17.0
 40
17.0
 40
17.0
 40
18.0
 40
18.0
 40
18.0
 40
19.0
 40
19.0
 40
19.0
 40
20.0
 40
20.0
 40
20.0
 40
21.0
 40
21.0
 40
21.0
 40
22.0
 40
22.0
 40
22.0
 40
23.0
 40
23.0
 40
23.0
 40
24.0
 40
24.0
 40
24.0
 40
25.0
 40
25.0
 40
25.0
 40
26.0
 40
26.0
 40
26.0
 40
27.0
 40
27.0
 40
27.0
 40
28.0
 40
28.0
 40
28.0
 40
29.0
 40
29.0
 40
29.0
 40
30.0
 40
30.0
 40
30.0
 40
31.0
 40
31.0
 40
31.0
 40
32.0
 40
32.0
 40
32.0
 40
33.0
 40
33.0
 40
33.0
 40
34.0
 40
34.0
 40
34.0
 40
35.0
 40
35.0
 40
35.0
 40
36.0
 40
36.0
 40
36.0
 40
37.0
 40
37.0
 40
37.0
 40
38.0
 40
38.0
 40
38.0
 40
39.0
 40
39.0
 40
39.0
 40
40.0
 40
40.0
 40
40.0
 40
41.0
 40
41.0
 40
41.0
 40
42.0
 40
42.0
 40
42.0
 40
43.0
 40
43.0
 40
43.0
 40
44.0
 40
44.0
 40
44.0
 40
45.0
 40
45.0
 40
45.0
 40
46.0
 40
46.0
 40
46.0
 40
47.0
 40
47.0
 40
47.0
 40
48.0
 40
48.0
 40
48.0
 40
49.0
 40
49.0
 40
49.0
 40
50.0
 40
50.0
 40
50.0
 40
51.0
 40
51.0
 40
51.0
 40
52.0
 40
52.0
 40
52.0
 40
53.0
 40
53.0
 40
53.0
 40
54.0
 40
54.0
 40
54.0
 40
55.0
 40
55.0
 40
55.0
 40
56.0
 40
56.0
 40
56.0
 40
57.0
 40
57.0
 40
57.0
 40
58.0
 40
58.0
 40
58.0
 40
59.0
 40
59.0
 40
59.0
 40
60.0
 40
60.0
 40
60.0
 40
61.0
 40
61.0
 40
61.0
 40
62.0
 40
62.0
 40
62.0
 40
63.0
 40
63.0
 40
63.0
 40
64.0
 40
64.0
 40
64.0
 40
65.0
 40
65.0
 40
65.0
 40
66.0
 40
66.0
 40
66.0
 40
67.0
 40
67.0
 40
67.0
 40
68.0
 40
68.0
 40
68.0
 40
69.0
 40
69.0
 40
69.0
 40
70.0
 40
70.0
 40
70.0
 40
71.0
 40
71.0
 40
71.0
 40
72.0
 40
72.0
 40
72.0
 40
73.0
 40
73.0
 40
73.0
 40
74.0
 40
74.0
 40
74.0
 40
75.0
 40
75.0
 40
75.0
 40
76.0
 40
76.0
 40
76.0
 40
77.0
 40
77.0
 40
77.0
 40
78.0
 40
78.0
 40
78.0
 40
79.0
 40
79.0
 40
79.0
 40
79.0
 10
90.78894583233749
 20
-150.3529242245645
 30
0.0
 10
90.78894583233749
 20
-150.3529242245645
 30
0.0
 10
90.53521454984885
 20
-150.3529242245645
 30
0.0
 10
90.53521454984885
 20
-150.3529242245645
 30
0.0
 10
90.53521454984885
 20
-150.3529242245645
 30
0.0
 10
90.2580566180605
 20
-150.3529242245645
 30
0.0
 10
90.2580566180605
 20
-150.3529242245645
 30
0.0
 10
90.2580566180605
 20
-150.3529242245645
 30
0.0
 10
90.38500838669195
 20
-150.3952988990331
 30
0.0
 10
90.38500838669195
 20
-150.3952988990331
 30
0.0
 10
90.39551592792196
 20
-150.3994330136154
 30
0.0
 10
90.40826278121739
 20
-150.4059786950374
 30
0.0
 10
90.40826278121739
 20
-150.4187255483328
 30
0.0
 10
90.40826278121739
 20
-150.4397406307928
 30
0.0
 10
90.37656790275308
 20
-150.4459418026663
 30
0.0
 10
90.3553805655188
 20
-150.4504204267971
 30
0.0
 10
90.34470076951452
 20
-150.4735025665483
 30
0.0
 10
90.31507294834138
 20
-150.5393038903165
 30
0.0
 10
90.2961249231725
 20
-150.5837456220763
 30
0.0
 10
90.2961249231725
 20
-150.5837456220763
 30
0.0
 10
90.56690942831314
 20
-150.5837456220763
 30
0.0
 10
90.56690942831314
 20
-150.5837456220763
 30
0.0
 10
90.65785994912372
 20
-150.5837456220763
 30
0.0
 10
90.85457490133149
 20
-150.5792669979454
 30
0.0
 10
90.99634058054952
 20
-150.5709987687808
 30
0.0
 10
90.99634058054952
 20
-150.5709987687808
 30
0.0
 10
90.99634058054952
 20
-150.7487656958197
 30
0.0
 10
90.99634058054952
 20
-150.7487656958197
 30
0.0
 10
90.9138305436778
 20
-150.7442870716889
 30
0.0
 10
90.89264320644351
 20
-150.7442870716889
 30
0.0
 10
90.71280922211347
 20
-150.7401529571066
 30
0.0
 10
90.68111434364917
 20
-150.8944932348458
 30
0.0
 10
90.63667261188944
 20
-150.9751084692006
 30
0.0
 10
90.59223088012972
 20
-151.0446993980027
 30
0.0
 10
90.71280922211347
 20
-151.103955040349
 30
0.0
 10
90.81857365351064
 20
-151.1718234214084
 30
0.0
 10
90.92227102761667
 20
-151.2541612035059
 30
0.0
 10
90.92227102761667
 20
-151.2541612035059
 30
0.0
 10
90.80375974292406
 20
-151.4212483345405
 30
0.0
 10
90.80375974292406
 20
-151.4212483345405
 30
0.0
 10
90.78050534839864
 20
-151.4023003093717
 30
0.0
 10
90.76793074987746
 20
-151.3936875706585
 30
0.0
 10
90.6557928918326
 20
-151.3092827312699
 30
0.0
 10
90.60704479071629
 20
-151.2710421713836
 30
0.0
 10
90.54778914836999
 20
-151.235213178337
 30
0.0
 10
90.46751842356368
 20
-151.1907714465773
 30
0.0
 10
90.25598956076933
 20
-151.3768066027808
 30
0.0
 10
90.05066186984846
 20
-151.4002332520805
 30
0.0
 10
89.76092933953893
 20
-151.4298610732536
 30
0.0
 10
89.76092933953893
 20
-151.4298610732536
 30
0.0
 10
89.65723196543292
 20
-151.2500270889236
 30
0.0
 10
89.65723196543292
 20
-151.2500270889236
 30
0.0
 10
89.97452525962442
 20
-151.2458929743413
 30
0.0
 10
90.15005287459791
 20
-151.2203992677504
 30
0.0
 10
90.3024983498202
 20
-151.110500721771
 30
0.0
 10
90.18398706512762
 20
-151.0595133085893
 30
0.0
 10
90.09510360160817
 20
-151.0319525447073
 30
0.0
 10
90.05910235378731
 20
-151.0195502009604
 30
0.0
 10
90.04015432861844
 20
-151.0467664552938
 30
0.0
 10
90.02534041803185
 20
-151.0660589900112
 30
0.0
 10
89.99777965414986
 20
-151.0998209257667
 30
0.0
 10
89.99777965414986
 20
-151.0998209257667
 30
0.0
 10
89.80106470194209
 20
-151.0171386341207
 30
0.0
 10
89.80106470194209
 20
-151.0171386341207
 30
0.0
 10
89.88357473881384
 20
-150.9368679093144
 30
0.0
 10
89.94489743845127
 20
-150.8417832739215
 30
0.0
 10
90.00208602350642
 20
-150.7401529571066
 30
0.0
 10
89.81157224317211
 20
-150.7442870716889
 30
0.0
 10
89.79055716071208
 20
-150.7442870716889
 30
0.0
 10
89.70804712384035
 20
-150.7487656958197
 30
0.0
 10
89.70804712384035
 20
-150.7487656958197
 30
0.0
 10
89.70804712384035
 20
-150.5709987687808
 30
0.0
 10
89.70804712384035
 20
-150.5709987687808
 30
0.0
 10
89.84757349099297
 20
-150.5771999406543
 30
0.0
 10
90.05703529649617
 20
-150.5813340552366
 30
0.0
 10
90.08235674831274
 20
-150.5813340552366
 30
0.0
 10
90.09940997096473
 20
-150.5475721194811
 30
0.0
 10
90.15435924395447
 20
-150.4269937774974
 30
0.0
 10
90.1734795238976
 20
-150.3529242245645
 30
0.0
 10
90.15435924395447
 20
-150.3529242245645
 30
0.0
 10
89.97659231691557
 20
-150.3594699059865
 30
0.0
 10
89.78194442199896
 20
-150.3722167592819
 30
0.0
 10
89.78194442199896
 20
-150.3722167592819
 30
0.0
 10
89.78194442199896
 20
-150.5051974450126
 30
0.0
 10
89.78194442199896
 20
-150.5051974450126
 30
0.0
 10
89.73336857565694
 20
-150.5306911516034
 30
0.0
 10
89.67411293331064
 20
-150.5623860300677
 30
0.0
 10
89.54078773803146
 20
-150.628187353836
 30
0.0
 10
89.54078773803146
 20
-150.628187353836
 30
0.0
 10
89.54078773803146
 20
-150.7739148928621
 30
0.0
 10
89.54078773803146
 20
-150.7739148928621
 30
0.0
 10
89.54078773803146
 20
-150.7739148928621
 30
0.0
 10
89.54078773803146
 20
-151.2414143502105
 30
0.0
 10
89.54078773803146
 20
-151.2414143502105
 30
0.0
 10
89.54078773803146
 20
-151.3685383736162
 30
0.0
 10
89.50495874498487
 20
-151.4277940159625
 30
0.0
 10
89.22142738654882
 20
-151.4191812772494
 30
0.0
 10
89.22142738654882
 20
-151.4191812772494
 30
0.0
 10
89.11773001244279
 20
-151.2117865290373
 30
0.0
 10
89.11773001244279
 20
-151.2117865290373
 30
0.0
 10
89.18129202414565
 20
-151.2245333823327
 30
0.0
 10
89.22986787048769
 20
-151.228667496915
 30
0.0
 10
89.27000323289083
 20
-151.228667496915
 30
0.0
 10
89.34631209788912
 20
-151.228667496915
 30
0.0
 10
89.35681963911914
 20
-151.2055853571639
 30
0.0
 10
89.35681963911914
 20
-151.1401285429441
 30
0.0
 10
89.35681963911914
 20
-151.1401285429441
 30
0.0
 10
89.35681963911914
 20
-150.7105251359335
 30
0.0
 10
89.35681963911914
 20
-150.7105251359335
 30
0.0
 10
89.25949569166084
 20
-150.7508327531109
 30
0.0
 10
89.2426147237831
 20
-150.7570339249843
 30
0.0
 10
89.19610593473223
 20
-150.7759819501532
 30
0.0
 10
89.19179956537567
 20
-150.7973415421617
 30
0.0
 10
89.18749319601911
 20
-150.8269693633349
 30
0.0
 10
89.16854517085022
 20
-150.8269693633349
 30
0.0
 10
89.16010468691137
 20
-150.8269693633349
 30
0.0
 10
89.1494248909071
 20
-150.8228352487526
 30
0.0
 10
89.14322371903365
 20
-150.7994085994529
 30
0.0
 10
89.14322371903365
 20
-150.7994085994529
 30
0.0
 10
89.09034150333505
 20
-150.6068277618274
 30
0.0
 10
89.09034150333505
 20
-150.6068277618274
 30
0.0
 10
89.23624129713539
 20
-150.5603189727766
 30
0.0
 10
89.3018703661294
 20
-150.5372368330254
 30
0.0
 10
89.35681963911914
 20
-150.5158772410169
 30
0.0
 10
89.35681963911914
 20
-150.5158772410169
 30
0.0
 10
89.35681963911914
 20
-150.1034993114324
 30
0.0
 10
89.35681963911914
 20
-150.1034993114324
 30
0.0
 10
89.35681963911914
 20
-150.1034993114324
 30
0.0
 10
89.30393742342054
 20
-150.1034993114324
 30
0.0
 10
89.30393742342054
 20
-150.1034993114324
 30
0.0
 10
89.30393742342054
 20
-150.1034993114324
 30
0.0
 10
89.22573375590538
 20
-150.1034993114324
 30
0.0
 10
89.22573375590538
 20
-150.1034993114324
 30
0.0
 10
89.15803762962021
 20
-150.1034993114324
 30
0.0
 10
89.1494248909071
 20
-150.1034993114324
 30
0.0
 10
89.1135958978605
 20
-150.1097004833059
 30
0.0
 10
89.1135958978605
 20
-150.1097004833059
 30
0.0
 10
89.1135958978605
 20
-149.9150525883893
 30
0.0
 10
89.1135958978605
 20
-149.9150525883893
 30
0.0
 10
89.14098440696823
 20
-149.9215982698113
 30
0.0
 10
89.1494248909071
 20
-149.9215982698113
 30
0.0
 10
89.21936032925767
 20
-149.9215982698113
 30
0.0
 10
89.21936032925767
 20
-149.9215982698113
 30
0.0
 10
89.35251326976256
 20
-149.9215982698113
 30
0.0
 10
89.35251326976256
 20
-149.9215982698113
 30
0.0
 10
89.35251326976256
 20
-149.8516628314607
 30
0.0
 10
89.35251326976256
 20
-149.7689805398147
 30
0.0
 10
89.35044621247142
 20
-149.7648464252324
 30
0.0
 10
89.34200572853255
 20
-149.5850124409024
 30
0.0
 10
89.34200572853255
 20
-149.5660644157335
 30
0.0
 10
89.33993867124142
 20
-149.5195556266826
 30
0.0
 10
89.33993867124142
 20
-149.5195556266826
 30
0.0
 10
89.55560164861806
 20
-149.5278238558472
 30
0.0
 10
89.55560164861806
 20
-149.5278238558472
 30
0.0
 10
89.56628144462232
 20
-149.5278238558472
 30
0.0
 10
89.58746878185662
 20
-149.5302354226869
 30
0.0
 10
89.58746878185662
 20
-149.5471163905646
 30
0.0
 10
89.58746878185662
 20
-149.5660644157335
 30
0.0
 10
89.57265487127003
 20
-149.5767442117378
 30
0.0
 10
89.54716116467919
 20
-149.5956922369066
 30
0.0
 10
89.54716116467919
 20
-149.6463351405398
 30
0.0
 10
89.54078773803146
 20
-149.8747449712118
 30
0.0
 10
89.54302705009688
 20
-149.9215982698113
 30
0.0
 10
89.67204587601949
 20
-149.9215982698113
 30
0.0
 10
89.68479272931492
 20
-149.9215982698113
 30
0.0
 10
89.78194442199896
 20
-149.9129855310981
 30
0.0
 10
89.78194442199896
 20
-149.9129855310981
 30
0.0
 10
89.78194442199896
 20
-150.1076334260147
 30
0.0
 10
89.78194442199896
 20
-150.1076334260147
 30
0.0
 10
89.74387611688696
 20
-150.1055663687236
 30
0.0
 10
89.67617999060179
 20
-150.1014322541413
 30
0.0
 10
89.54078773803146
 20
-150.1034993114324
 30
0.0
 10
89.54078773803146
 20
-150.1034993114324
 30
0.0
 10
89.54078773803146
 20
-150.441807688084
 30
0.0
 10
89.54078773803146
 20
-150.441807688084
 30
0.0
 10
89.59590926579547
 20
-150.4187255483328
 30
0.0
 10
89.66136608001521
 20
-150.3911647844508
 30
0.0
 10
89.7101141811315
 20
-150.3677381351511
 30
0.0
 10
89.7101141811315
 20
-150.3677381351511
 30
0.0
 10
89.7101141811315
 20
-150.1899712081122
 30
0.0
 10
89.7101141811315
 20
-150.1899712081122
 30
0.0
 10
89.82431909646754
 20
-150.2027180614076
 30
0.0
 10
89.94283038116014
 20
-150.2027180614076
 30
0.0
 10
90.05910235378731
 20
-150.2027180614076
 30
0.0
 10
90.03584795926187
 20
-150.1076334260147
 30
0.0
 10
90.00845945015413
 20
-150.0249511343687
 30
0.0
 10
89.94489743845127
 20
-149.8919704486381
 30
0.0
 10
89.90045570669156
 20
-149.8940375059293
 30
0.0
 10
89.81794566981982
 20
-149.8981716205115
 30
0.0
 10
89.77987736470781
 20
-149.9002386778027
 30
0.0
 10
89.77987736470781
 20
-149.9002386778027
 30
0.0
 10
89.77987736470781
 20
-149.7204046934727
 30
0.0
 10
89.77987736470781
 20
-149.7204046934727
 30
0.0
 10
89.90476207604812
 20
-149.7290174321858
 30
0.0
 10
90.07822263373045
 20
-149.7331515467681
 30
0.0
 10
90.16073267060219
 20
-149.7331515467681
 30
0.0
 10
90.16073267060219
 20
-149.7331515467681
 30
0.0
 10
90.2432427074739
 20
-149.7331515467681
 30
0.0
 10
90.2432427074739
 20
-149.7331515467681
 30
0.0
 10
90.2432427074739
 20
-149.5701985303158
 30
0.0
 10
90.2432427074739
 20
-149.55986324386
 30
0.0
 10
90.24117565018277
 20
-149.504741716096
 30
0.0
 10
90.24117565018277
 20
-149.504741716096
 30
0.0
 10
90.46527911149826
 20
-149.5302354226869
 30
0.0
 10
90.46527911149826
 20
-149.5302354226869
 30
0.0
 10
90.46958548085482
 20
-149.5302354226869
 30
0.0
 10
90.4907728180891
 20
-149.532302479978
 30
0.0
 10
90.4907728180891
 20
-149.5491834478557
 30
0.0
 10
90.4907728180891
 20
-149.5639973584423
 30
0.0
 10
90.48009302208484
 20
-149.5722655876069
 30
0.0
 10
90.4527045129771
 20
-149.5870794981935
 30
0.0
 10
90.4463310863294
 20
-149.6528808219618
 30
0.0
 10
90.44426402903823
 20
-149.6738959044218
 30
0.0
 10
90.44426402903823
 20
-149.7331515467681
 30
0.0
 10
90.44426402903823
 20
-149.7331515467681
 30
0.0
 10
90.53934866443114
 20
-149.7331515467681
 30
0.0
 10
90.53934866443114
 20
-149.7331515467681
 30
0.0
 10
90.62185870130287
 20
-149.7331515467681
 30
0.0
 10
90.79531925898519
 20
-149.7290174321858
 30
0.0
 10
90.9202039703255
 20
-149.7204046934727
 30
0.0
 10
90.9202039703255
 20
-149.7204046934727
 30
0.0
 10
90.9202039703255
 20
-149.9002386778027
 30
0.0
 10
90.9202039703255
 20
-149.9002386778027
 30
0.0
 10
90.89057614915237
 20
-149.8981716205115
 30
0.0
 10
90.77206486445977
 20
-149.8940375059293
 30
0.0
 10
90.7319295020566
 20
-149.8919704486381
 30
0.0
 10
90.71711559147003
 20
-149.9426133522713
 30
0.0
 10
90.68318140094032
 20
-150.0545789555419
 30
0.0
 10
90.61772458672058
 20
-150.194449832243
 30
0.0
 10
90.65992700641489
 20
-150.194449832243
 30
0.0
 10
90.93708493820322
 20
-150.1751572975256
 30
0.0
 10
90.99840763784069
 20
-150.1730902402345
 30
0.0
 10
90.99840763784069
 20
-150.1730902402345
 30
0.0
 10
90.99840763784069
 20
-150.3574028486954
 30
0.0
 10
90.99840763784069
 20
-150.3574028486954
 30
0.0
 10
90.96877981666754
 20
-150.3574028486954
 30
0.0
 10
90.95189884878982
 20
-150.3529242245645
 30
0.0
 10
90.78894583233749
 20
-150.3529242245645
 30
0.0
  0
HATCH
  5
13A
330
133
100
AcDbEntity
  8
レイヤー 1
 62
    18
420
        0
440
 33554687
100
AcDbHatch
 10
0.0
 20
0.0
 30
0.0
210
0.0
220
0.0
230
1.0
  2
SOLID
 70
     1
 71
     1
 91
        3
 92
        1
 93
        1
 72
     4
 94
        3
 73
     0
 74
     0
 95
       17
 96
       13
 40
0.0
 40
0.0
 40
0.0
 40
0.0
 40
1.0
 40
1.0
 40
1.0
 40
2.0
 40
2.0
 40
2.0
 40
3.0
 40
3.0
 40
3.0
 40
4.0
 40
4.0
 40
4.0
 40
4.0
 10
90.22412242753077
 20
-150.7380858998154
 10
90.20724145965305
 20
-150.7677137209886
 10
90.15642630124562
 20
-150.8607312990904
 10
90.1459187600156
 20
-150.8796793242592
 10
90.33626028557566
 20
-150.9389349666055
 10
90.35744762280994
 20
-150.9454806480275
 10
90.42945011845167
 20
-150.972696902361
 10
90.4843993914414
 20
-150.8862250056812
 10
90.50765378596684
 20
-150.8121554527483
 10
90.52246769655342
 20
-150.7380858998154
 10
90.52246769655342
 20
-150.7380858998154
 10
90.22412242753077
 20
-150.7380858998154
 10
90.22412242753077
 20
-150.7380858998154
 97
        0
 97
        1
330
137
 92
        1
 93
        1
 72
     4
 94
        3
 73
     0
 74
     0
 95
       20
 96
       16
 40
0.0
 40
0.0
 40
0.0
 40
0.0
 40
1.0
 40
1.0
 40
1.0
 40
2.0
 40
2.0
 40
2.0
 40
3.0
 40
3.0
 40
3.0
 40
4.0
 40
4.0
 40
4.0
 40
5.0
 40
5.0
 40
5.0
 40
5.0
 10
90.16073267060219
 20
-149.8874918245073
 10
90.16073267060219
 20
-149.8874918245073
 10
90.12903779213788
 20
-149.8874918245073
 10
90.12903779213788
 20
-149.8874918245073
 10
90.17554658118875
 20
-149.987055084031
 10
90.20724145965305
 20
-150.0673258088373
 10
90.24117565018277
 20
-150.194449832243
 10
90.24117565018277
 20
-150.194449832243
 10
90.44839814362054
 20
-150.194449832243
 10
90.44839814362054
 20
-150.194449832243
 10
90.48009302208484
 20
-150.1014322541413
 10
90.50334741661028
 20
-150.0166829052041
 10
90.52677406590998
 20
-149.8874918245073
 10
90.52677406590998
 20
-149.8874918245073
 10
90.16073267060219
 20
-149.8874918245073
 10
90.16073267060219
 20
-149.8874918245073
 97
        0
 97
        1
330
138
 92
        1
 93
        1
 72
     4
 94
        3
 73
     0
 74
     0
 95
      242
 96
      238
 40
0.0
 40
0.0
 40
0.0
 40
0.0
 40
1.0
 40
1.0
 40
1.0
 40
2.0
 40
2.0
 40
2.0
 40
3.0
 40
3.0
 40
3.0
 40
4.0
 40
4.0
 40
4.0
 40
5.0
 40
5.0
 40
5.0
 40
6.0
 40
6.0
 40
6.0
 40
7.0
 40
7.0
 40
7.0
 40
8.0
 40
8.0
 40
8.0
 40
9.0
 40
9.0
 40
9.0
 40
10.0
 40
10.0
 40
10.0
 40
11.0
 40
11.0
 40
11.0
 40
12.0
 40
12.0
 40
12.0
 40
13.0
 40
13.0
 40
13.0
 40
14.0
 40
14.0
 40
14.0
 40
15.0
 40
15.0
 40
15.0
 40
16.0
 40
16.0
 40
16.0
 40
17.0
 40
17.0
 40
17.0
 40
18.0
 40
18.0
 40
18.0
 40
19.0
 40
19.0
 40
19.0
 40
20.0
 40
20.0
 40
20.0
 40
21.0
 40
21.0
 40
21.0
 40
22.0
 40
22.0
 40
22.0
 40
23.0
 40
23.0
 40
23.0
 40
24.0
 40
24.0
 40
24.0
 40
25.0
 40
25.0
 40
25.0
 40
26.0
 40
26.0
 40
26.0
 40
27.0
 40
27.0
 40
27.0
 40
28.0
 40
28.0
 40
28.0
 40
29.0
 40
29.0
 40
29.0
 40
30.0
 40
30.0
 40
30.0
 40
31.0
 40
31.0
 40
31.0
 40
32.0
 40
32.0
 40
32.0
 40
33.0
 40
33.0
 40
33.0
 40
34.0
 40
34.0
 40
34.0
 40
35.0
 40
35.0
 40
35.0
 40
36.0
 40
36.0
 40
36.0
 40
37.0
 40
37.0
 40
37.0
 40
38.0
 40
38.0
 40
38.0
 40
39.0
 40
39.0
 40
39.0
 40
40.0
 40
40.0
 40
40.0
 40
41.0
 40
41.0
 40
41.0
 40
42.0
 40
42.0
 40
42.0
 40
43.0
 40
43.0
 40
43.0
 40
44.0
 40
44.0
 40
44.0
 40
45.0
 40
45.0
 40
45.0
 40
46.0
 40
46.0
 40
46.0
 40
47.0
 40
47.0
 40
47.0
 40
48.0
 40
48.0
 40
48.0
 40
49.0
 40
49.0
 40
49.0
 40
50.0
 40
50.0
 40
50.0
 40
51.0
 40
51.0
 40
51.0
 40
52.0
 40
52.0
 40
52.0
 40
53.0
 40
53.0
 40
53.0
 40
54.0
 40
54.0
 40
54.0
 40
55.0
 40
55.0
 40
55.0
 40
56.0
 40
56.0
 40
56.0
 40
57.0
 40
57.0
 40
57.0
 40
58.0
 40
58.0
 40
58.0
 40
59.0
 40
59.0
 40
59.0
 40
60.0
 40
60.0
 40
60.0
 40
61.0
 40
61.0
 40
61.0
 40
62.0
 40
62.0
 40
62.0
 40
63.0
 40
63.0
 40
63.0
 40
64.0
 40
64.0
 40
64.0
 40
65.0
 40
65.0
 40
65.0
 40
66.0
 40
66.0
 40
66.0
 40
67.0
 40
67.0
 40
67.0
 40
68.0
 40
68.0
 40
68.0
 40
69.0
 40
69.0
 40
69.0
 40
70.0
 40
70.0
 40
70.0
 40
71.0
 40
71.0
 40
71.0
 40
72.0
 40
72.0
 40
72.0
 40
73.0
 40
73.0
 40
73.0
 40
74.0
 40
74.0
 40
74.0
 40
75.0
 40
75.0
 40
75.0
 40
76.0
 40
76.0
 40
76.0
 40
77.0
 40
77.0
 40
77.0
 40
78.0
 40
78.0
 40
78.0
 40
79.0
 40
79.0
 40
79.0
 40
79.0
 10
90.78894583233749
 20
-150.3529242245645
 10
90.78894583233749
 20
-150.3529242245645
 10
90.53521454984885
 20
-150.3529242245645
 10
90.53521454984885
 20
-150.3529242245645
 10
90.53521454984885
 20
-150.3529242245645
 10
90.2580566180605
 20
-150.3529242245645
 10
90.2580566180605
 20
-150.3529242245645
 10
90.2580566180605
 20
-150.3529242245645
 10
90.38500838669195
 20
-150.3952988990331
 10
90.38500838669195
 20
-150.3952988990331
 10
90.39551592792196
 20
-150.3994330136154
 10
90.40826278121739
 20
-150.4059786950374
 10
90.40826278121739
 20
-150.4187255483328
 10
90.40826278121739
 20
-150.4397406307928
 10
90.37656790275308
 20
-150.4459418026663
 10
90.3553805655188
 20
-150.4504204267971
 10
90.34470076951452
 20
-150.4735025665483
 10
90.31507294834138
 20
-150.5393038903165
 10
90.2961249231725
 20
-150.5837456220763
 10
90.2961249231725
 20
-150.5837456220763
 10
90.56690942831314
 20
-150.5837456220763
 10
90.56690942831314
 20
-150.5837456220763
 10
90.65785994912372
 20
-150.5837456220763
 10
90.85457490133149
 20
-150.5792669979454
 10
90.99634058054952
 20
-150.5709987687808
 10
90.99634058054952
 20
-150.5709987687808
 10
90.99634058054952
 20
-150.7487656958197
 10
90.99634058054952
 20
-150.7487656958197
 10
90.9138305436778
 20
-150.7442870716889
 10
90.89264320644351
 20
-150.7442870716889
 10
90.71280922211347
 20
-150.7401529571066
 10
90.68111434364917
 20
-150.8944932348458
 10
90.63667261188944
 20
-150.9751084692006
 10
90.59223088012972
 20
-151.0446993980027
 10
90.71280922211347
 20
-151.103955040349
 10
90.81857365351064
 20
-151.1718234214084
 10
90.92227102761667
 20
-151.2541612035059
 10
90.92227102761667
 20
-151.2541612035059
 10
90.80375974292406
 20
-151.4212483345405
 10
90.80375974292406
 20
-151.4212483345405
 10
90.78050534839864
 20
-151.4023003093717
 10
90.76793074987746
 20
-151.3936875706585
 10
90.6557928918326
 20
-151.3092827312699
 10
90.60704479071629
 20
-151.2710421713836
 10
90.54778914836999
 20
-151.235213178337
 10
90.46751842356368
 20
-151.1907714465773
 10
90.25598956076933
 20
-151.3768066027808
 10
90.05066186984846
 20
-151.4002332520805
 10
89.76092933953893
 20
-151.4298610732536
 10
89.76092933953893
 20
-151.4298610732536
 10
89.65723196543292
 20
-151.2500270889236
 10
89.65723196543292
 20
-151.2500270889236
 10
89.97452525962442
 20
-151.2458929743413
 10
90.15005287459791
 20
-151.2203992677504
 10
90.3024983498202
 20
-151.110500721771
 10
90.18398706512762
 20
-151.0595133085893
 10
90.09510360160817
 20
-151.0319525447073
 10
90.05910235378731
 20
-151.0195502009604
 10
90.04015432861844
 20
-151.0467664552938
 10
90.02534041803185
 20
-151.0660589900112
 10
89.99777965414986
 20
-151.0998209257667
 10
89.99777965414986
 20
-151.0998209257667
 10
89.80106470194209
 20
-151.0171386341207
 10
89.80106470194209
 20
-151.0171386341207
 10
89.88357473881384
 20
-150.9368679093144
 10
89.94489743845127
 20
-150.8417832739215
 10
90.00208602350642
 20
-150.7401529571066
 10
89.81157224317211
 20
-150.7442870716889
 10
89.79055716071208
 20
-150.7442870716889
 10
89.70804712384035
 20
-150.7487656958197
 10
89.70804712384035
 20
-150.7487656958197
 10
89.70804712384035
 20
-150.5709987687808
 10
89.70804712384035
 20
-150.5709987687808
 10
89.84757349099297
 20
-150.5771999406543
 10
90.05703529649617
 20
-150.5813340552366
 10
90.08235674831274
 20
-150.5813340552366
 10
90.09940997096473
 20
-150.5475721194811
 10
90.15435924395447
 20
-150.4269937774974
 10
90.1734795238976
 20
-150.3529242245645
 10
90.15435924395447
 20
-150.3529242245645
 10
89.97659231691557
 20
-150.3594699059865
 10
89.78194442199896
 20
-150.3722167592819
 10
89.78194442199896
 20
-150.3722167592819
 10
89.78194442199896
 20
-150.5051974450126
 10
89.78194442199896
 20
-150.5051974450126
 10
89.73336857565694
 20
-150.5306911516034
 10
89.67411293331064
 20
-150.5623860300677
 10
89.54078773803146
 20
-150.628187353836
 10
89.54078773803146
 20
-150.628187353836
 10
89.54078773803146
 20
-150.7739148928621
 10
89.54078773803146
 20
-150.7739148928621
 10
89.54078773803146
 20
-150.7739148928621
 10
89.54078773803146
 20
-151.2414143502105
 10
89.54078773803146
 20
-151.2414143502105
 10
89.54078773803146
 20
-151.3685383736162
 10
89.50495874498487
 20
-151.4277940159625
 10
89.22142738654882
 20
-151.4191812772494
 10
89.22142738654882
 20
-151.4191812772494
 10
89.11773001244279
 20
-151.2117865290373
 10
89.11773001244279
 20
-151.2117865290373
 10
89.18129202414565
 20
-151.2245333823327
 10
89.22986787048769
 20
-151.228667496915
 10
89.27000323289083
 20
-151.228667496915
 10
89.34631209788912
 20
-151.228667496915
 10
89.35681963911914
 20
-151.2055853571639
 10
89.35681963911914
 20
-151.1401285429441
 10
89.35681963911914
 20
-151.1401285429441
 10
89.35681963911914
 20
-150.7105251359335
 10
89.35681963911914
 20
-150.7105251359335
 10
89.25949569166084
 20
-150.7508327531109
 10
89.2426147237831
 20
-150.7570339249843
 10
89.19610593473223
 20
-150.7759819501532
 10
89.19179956537567
 20
-150.7973415421617
 10
89.18749319601911
 20
-150.8269693633349
 10
89.16854517085022
 20
-150.8269693633349
 10
89.16010468691137
 20
-150.8269693633349
 10
89.1494248909071
 20
-150.8228352487526
 10
89.14322371903365
 20
-150.7994085994529
 10
89.14322371903365
 20
-150.7994085994529
 10
89.09034150333505
 20
-150.6068277618274
 10
89.09034150333505
 20
-150.6068277618274
 10
89.23624129713539
 20
-150.5603189727766
 10
89.3018703661294
 20
-150.5372368330254
 10
89.35681963911914
 20
-150.5158772410169
 10
89.35681963911914
 20
-150.5158772410169
 10
89.35681963911914
 20
-150.1034993114324
 10
89.35681963911914
 20
-150.1034993114324
 10
89.35681963911914
 20
-150.1034993114324
 10
89.30393742342054
 20
-150.1034993114324
 10
89.30393742342054
 20
-150.1034993114324
 10
89.30393742342054
 20
-150.1034993114324
 10
89.22573375590538
 20
-150.1034993114324
 10
89.22573375590538
 20
-150.1034993114324
 10
89.15803762962021
 20
-150.1034993114324
 10
89.1494248909071
 20
-150.1034993114324
 10
89.1135958978605
 20
-150.1097004833059
 10
89.1135958978605
 20
-150.1097004833059
 10
89.1135958978605
 20
-149.9150525883893
 10
89.1135958978605
 20
-149.9150525883893
 10
89.14098440696823
 20
-149.9215982698113
 10
89.1494248909071
 20
-149.9215982698113
 10
89.21936032925767
 20
-149.9215982698113
 10
89.21936032925767
 20
-149.9215982698113
 10
89.35251326976256
 20
-149.9215982698113
 10
89.35251326976256
 20
-149.9215982698113
 10
89.35251326976256
 20
-149.8516628314607
 10
89.35251326976256
 20
-149.7689805398147
 10
89.35044621247142
 20
-149.7648464252324
 10
89.34200572853255
 20
-149.5850124409024
 10
89.34200572853255
 20
-149.5660644157335
 10
89.33993867124142
 20
-149.5195556266826
 10
89.33993867124142
 20
-149.5195556266826
 10
89.55560164861806
 20
-149.5278238558472
 10
89.55560164861806
 20
-149.5278238558472
 10
89.56628144462232
 20
-149.5278238558472
 10
89.58746878185662
 20
-149.5302354226869
 10
89.58746878185662
 20
-149.5471163905646
 10
89.58746878185662
 20
-149.5660644157335
 10
89.57265487127003
 20
-149.5767442117378
 10
89.54716116467919
 20
-149.5956922369066
 10
89.54716116467919
 20
-149.6463351405398
 10
89.54078773803146
 20
-149.8747449712118
 10
89.54302705009688
 20
-149.9215982698113
 10
89.67204587601949
 20
-149.9215982698113
 10
89.68479272931492
 20
-149.9215982698113
 10
89.78194442199896
 20
-149.9129855310981
 10
89.78194442199896
 20
-149.9129855310981
 10
89.78194442199896
 20
-150.1076334260147
 10
89.78194442199896
 20
-150.1076334260147
 10
89.74387611688696
 20
-150.1055663687236
 10
89.67617999060179
 20
-150.1014322541413
 10
89.54078773803146
 20
-150.1034993114324
 10
89.54078773803146
 20
-150.1034993114324
 10
89.54078773803146
 20
-150.441807688084
 10
89.54078773803146
 20
-150.441807688084
 10
89.59590926579547
 20
-150.4187255483328
 10
89.66136608001521
 20
-150.3911647844508
 10
89.7101141811315
 20
-150.3677381351511
 10
89.7101141811315
 20
-150.3677381351511
 10
89.7101141811315
 20
-150.1899712081122
 10
89.7101141811315
 20
-150.1899712081122
 10
89.82431909646754
 20
-150.2027180614076
 10
89.94283038116014
 20
-150.2027180614076
 10
90.05910235378731
 20
-150.2027180614076
 10
90.03584795926187
 20
-150.1076334260147
 10
90.00845945015413
 20
-150.0249511343687
 10
89.94489743845127
 20
-149.8919704486381
 10
89.90045570669156
 20
-149.8940375059293
 10
89.81794566981982
 20
-149.8981716205115
 10
89.77987736470781
 20
-149.9002386778027
 10
89.77987736470781
 20
-149.9002386778027
 10
89.77987736470781
 20
-149.7204046934727
 10
89.77987736470781
 20
-149.7204046934727
 10
89.90476207604812
 20
-149.7290174321858
 10
90.07822263373045
 20
-149.7331515467681
 10
90.16073267060219
 20
-149.7331515467681
 10
90.16073267060219
 20
-149.7331515467681
 10
90.2432427074739
 20
-149.7331515467681
 10
90.2432427074739
 20
-149.7331515467681
 10
90.2432427074739
 20
-149.5701985303158
 10
90.2432427074739
 20
-149.55986324386
 10
90.24117565018277
 20
-149.504741716096
 10
90.24117565018277
 20
-149.504741716096
 10
90.46527911149826
 20
-149.5302354226869
 10
90.46527911149826
 20
-149.5302354226869
 10
90.46958548085482
 20
-149.5302354226869
 10
90.4907728180891
 20
-149.532302479978
 10
90.4907728180891
 20
-149.5491834478557
 10
90.4907728180891
 20
-149.5639973584423
 10
90.48009302208484
 20
-149.5722655876069
 10
90.4527045129771
 20
-149.5870794981935
 10
90.4463310863294
 20
-149.6528808219618
 10
90.44426402903823
 20
-149.6738959044218
 10
90.44426402903823
 20
-149.7331515467681
 10
90.44426402903823
 20
-149.7331515467681
 10
90.53934866443114
 20
-149.7331515467681
 10
90.53934866443114
 20
-149.7331515467681
 10
90.62185870130287
 20
-149.7331515467681
 10
90.79531925898519
 20
-149.7290174321858
 10
90.9202039703255
 20
-149.7204046934727
 10
90.9202039703255
 20
-149.7204046934727
 10
90.9202039703255
 20
-149.9002386778027
 10
90.9202039703255
 20
-149.9002386778027
 10
90.89057614915237
 20
-149.8981716205115
 10
90.77206486445977
 20
-149.8940375059293
 10
90.7319295020566
 20
-149.8919704486381
 10
90.71711559147003
 20
-149.9426133522713
 10
90.68318140094032
 20
-150.0545789555419
 10
90.61772458672058
 20
-150.194449832243
 10
90.65992700641489
 20
-150.194449832243
 10
90.93708493820322
 20
-150.1751572975256
 10
90.99840763784069
 20
-150.1730902402345
 10
90.99840763784069
 20
-150.1730902402345
 10
90.99840763784069
 20
-150.3574028486954
 10
90.99840763784069
 20
-150.3574028486954
 10
90.96877981666754
 20
-150.3574028486954
 10
90.95189884878982
 20
-150.3529242245645
 10
90.78894583233749
 20
-150.3529242245645
 97
        0
 97
        1
330
139
 75
     2
 76
     1
 98
        1
 10
0.0
 20
0.0
450
        0
451
        0
460
0.0
461
0.0
452
        0
462
0.0
453
        0
470

  0
SPLINE
  5
13B
330
133
100
AcDbEntity
  8
レイヤー 1
100
AcDbSpline
210
0.0
220
0.0
230
1.0
 70
    11
 71
     3
 72
    17
 73
    13
 74
     0
 42
0.0000000001
 43
0.0000000001
 40
0.0
 40
0.0
 40
0.0
 40
0.0
 40
1.0
 40
1.0
 40
1.0
 40
2.0
 40
2.0
 40
2.0
 40
3.0
 40
3.0
 40
3.0
 40
4.0
 40
4.0
 40
4.0
 40
4.0
 10
92.64550778933863
 20
-151.152530886691
 30
0.0
 10
92.64550778933863
 20
-151.152530886691
 30
0.0
 10
91.93891870531388
 20
-151.152530886691
 30
0.0
 10
91.93891870531388
 20
-151.152530886691
 30
0.0
 10
91.93891870531388
 20
-151.152530886691
 30
0.0
 10
91.93891870531388
 20
-151.2669080568013
 30
0.0
 10
91.93891870531388
 20
-151.2669080568013
 30
0.0
 10
91.93891870531388
 20
-151.2669080568013
 30
0.0
 10
92.64550778933863
 20
-151.2669080568013
 30
0.0
 10
92.64550778933863
 20
-151.2669080568013
 30
0.0
 10
92.64550778933863
 20
-151.2669080568013
 30
0.0
 10
92.64550778933863
 20
-151.152530886691
 30
0.0
 10
92.64550778933863
 20
-151.152530886691
 30
0.0
  0
SPLINE
  5
13C
330
133
100
AcDbEntity
  8
レイヤー 1
100
AcDbSpline
210
0.0
220
0.0
230
1.0
 70
    11
 71
     3
 72
    17
 73
    13
 74
     0
 42
0.0000000001
 43
0.0000000001
 40
0.0
 40
0.0
 40
0.0
 40
0.0
 40
1.0
 40
1.0
 40
1.0
 40
2.0
 40
2.0
 40
2.0
 40
3.0
 40
3.0
 40
3.0
 40
4.0
 40
4.0
 40
4.0
 40
4.0
 10
92.64550778933863
 20
-150.9093071454324
 30
0.0
 10
92.64550778933863
 20
-150.9093071454324
 30
0.0
 10
91.93891870531388
 20
-150.9093071454324
 30
0.0
 10
91.93891870531388
 20
-150.9093071454324
 30
0.0
 10
91.93891870531388
 20
-150.9093071454324
 30
0.0
 10
91.93891870531388
 20
-151.0236843155427
 30
0.0
 10
91.93891870531388
 20
-151.0236843155427
 30
0.0
 10
91.93891870531388
 20
-151.0236843155427
 30
0.0
 10
92.64550778933863
 20
-151.0236843155427
 30
0.0
 10
92.64550778933863
 20
-151.0236843155427
 30
0.0
 10
92.64550778933863
 20
-151.0236843155427
 30
0.0
 10
92.64550778933863
 20
-150.9093071454324
 30
0.0
 10
92.64550778933863
 20
-150.9093071454324
 30
0.0
  0
SPLINE
  5
13D
330
133
100
AcDbEntity
  8
レイヤー 1
100
AcDbSpline
210
0.0
220
0.0
230
1.0
 70
    11
 71
     3
 72
    17
 73
    13
 74
     0
 42
0.0000000001
 43
0.0000000001
 40
0.0
 40
0.0
 40
0.0
 40
0.0
 40
1.0
 40
1.0
 40
1.0
 40
2.0
 40
2.0
 40
2.0
 40
3.0
 40
3.0
 40
3.0
 40
4.0
 40
4.0
 40
4.0
 40
4.0
 10
92.64550778933863
 20
-150.676763200178
 30
0.0
 10
92.64550778933863
 20
-150.676763200178
 30
0.0
 10
91.93891870531388
 20
-150.676763200178
 30
0.0
 10
91.93891870531388
 20
-150.676763200178
 30
0.0
 10
91.93891870531388
 20
-150.676763200178
 30
0.0
 10
91.93891870531388
 20
-150.7845946888663
 30
0.0
 10
91.93891870531388
 20
-150.7845946888663
 30
0.0
 10
91.93891870531388
 20
-150.7845946888663
 30
0.0
 10
92.64550778933863
 20
-150.7845946888663
 30
0.0
 10
92.64550778933863
 20
-150.7845946888663
 30
0.0
 10
92.64550778933863
 20
-150.7845946888663
 30
0.0
 10
92.64550778933863
 20
-150.676763200178
 30
0.0
 10
92.64550778933863
 20
-150.676763200178
 30
0.0
  0
SPLINE
  5
13E
330
133
100
AcDbEntity
  8
レイヤー 1
100
AcDbSpline
210
0.0
220
0.0
230
1.0
 70
     9
 71
     3
 72
   203
 73
   199
 74
     0
 42
0.0000000001
 43
0.0000000001
 40
0.0
 40
0.0
 40
0.0
 40
0.0
 40
1.0
 40
1.0
 40
1.0
 40
2.0
 40
2.0
 40
2.0
 40
3.0
 40
3.0
 40
3.0
 40
4.0
 40
4.0
 40
4.0
 40
5.0
 40
5.0
 40
5.0
 40
6.0
 40
6.0
 40
6.0
 40
7.0
 40
7.0
 40
7.0
 40
8.0
 40
8.0
 40
8.0
 40
9.0
 40
9.0
 40
9.0
 40
10.0
 40
10.0
 40
10.0
 40
11.0
 40
11.0
 40
11.0
 40
12.0
 40
12.0
 40
12.0
 40
13.0
 40
13.0
 40
13.0
 40
14.0
 40
14.0
 40
14.0
 40
15.0
 40
15.0
 40
15.0
 40
16.0
 40
16.0
 40
16.0
 40
17.0
 40
17.0
 40
17.0
 40
18.0
 40
18.0
 40
18.0
 40
19.0
 40
19.0
 40
19.0
 40
20.0
 40
20.0
 40
20.0
 40
21.0
 40
21.0
 40
21.0
 40
22.0
 40
22.0
 40
22.0
 40
23.0
 40
23.0
 40
23.0
 40
24.0
 40
24.0
 40
24.0
 40
25.0
 40
25.0
 40
25.0
 40
26.0
 40
26.0
 40
26.0
 40
27.0
 40
27.0
 40
27.0
 40
28.0
 40
28.0
 40
28.0
 40
29.0
 40
29.0
 40
29.0
 40
30.0
 40
30.0
 40
30.0
 40
31.0
 40
31.0
 40
31.0
 40
32.0
 40
32.0
 40
32.0
 40
33.0
 40
33.0
 40
33.0
 40
34.0
 40
34.0
 40
34.0
 40
35.0
 40
35.0
 40
35.0
 40
36.0
 40
36.0
 40
36.0
 40
37.0
 40
37.0
 40
37.0
 40
38.0
 40
38.0
 40
38.0
 40
39.0
 40
39.0
 40
39.0
 40
40.0
 40
40.0
 40
40.0
 40
41.0
 40
41.0
 40
41.0
 40
42.0
 40
42.0
 40
42.0
 40
43.0
 40
43.0
 40
43.0
 40
44.0
 40
44.0
 40
44.0
 40
45.0
 40
45.0
 40
45.0
 40
46.0
 40
46.0
 40
46.0
 40
47.0
 40
47.0
 40
47.0
 40
48.0
 40
48.0
 40
48.0
 40
49.0
 40
49.0
 40
49.0
 40
50.0
 40
50.0
 40
50.0
 40
51.0
 40
51.0
 40
51.0
 40
52.0
 40
52.0
 40
52.0
 40
53.0
 40
53.0
 40
53.0
 40
54.0
 40
54.0
 40
54.0
 40
55.0
 40
55.0
 40
55.0
 40
56.0
 40
56.0
 40
56.0
 40
57.0
 40
57.0
 40
57.0
 40
58.0
 40
58.0
 40
58.0
 40
59.0
 40
59.0
 40
59.0
 40
60.0
 40
60.0
 40
60.0
 40
61.0
 40
61.0
 40
61.0
 40
62.0
 40
62.0
 40
62.0
 40
63.0
 40
63.0
 40
63.0
 40
64.0
 40
64.0
 40
64.0
 40
65.0
 40
65.0
 40
65.0
 40
66.0
 40
66.0
 40
66.0
 40
66.0
 10
92.48048771559515
 20
-150.4207926056239
 30
0.0
 10
92.48048771559515
 20
-150.4207926056239
 30
0.0
 10
91.92203773743615
 20
-150.4207926056239
 30
0.0
 10
91.92203773743615
 20
-150.4207926056239
 30
0.0
 10
91.91135794143189
 20
-150.4652343373837
 30
0.0
 10
91.90291745749302
 20
-150.496929215848
 30
0.0
 10
91.89017060419761
 20
-150.5348252661857
 30
0.0
 10
91.91566431078845
 20
-150.5348252661857
 30
0.0
 10
91.93047822137502
 20
-150.5372368330254
 30
0.0
 10
91.93685164802273
 20
-150.5372368330254
 30
0.0
 10
91.93685164802273
 20
-150.5372368330254
 30
0.0
 10
92.12512611629163
 20
-150.5372368330254
 30
0.0
 10
92.12512611629163
 20
-150.5372368330254
 30
0.0
 10
92.12512611629163
 20
-150.5372368330254
 30
0.0
 10
92.49943574076402
 20
-150.5372368330254
 30
0.0
 10
92.49943574076402
 20
-150.5372368330254
 30
0.0
 10
92.55025089917147
 20
-150.5372368330254
 30
0.0
 10
92.83378225760753
 20
-150.52448997973
 30
0.0
 10
92.86547713607182
 20
-150.52448997973
 30
0.0
 10
92.86341007878068
 20
-150.552050743612
 30
0.0
 10
92.86117076671526
 20
-150.5709987687808
 30
0.0
 10
92.86117076671526
 20
-150.600626589954
 30
0.0
 10
92.85910370942412
 20
-150.6323214684183
 30
0.0
 10
92.85910370942412
 20
-150.7677137209886
 30
0.0
 10
92.85910370942412
 20
-150.7952744848706
 30
0.0
 10
92.85910370942412
 20
-150.7952744848706
 30
0.0
 10
92.85910370942412
 20
-151.0405652834204
 30
0.0
 10
92.85910370942412
 20
-151.0405652834204
 30
0.0
 10
92.85910370942412
 20
-151.0850070151801
 30
0.0
 10
92.86341007878068
 20
-151.2817219673879
 30
0.0
 10
92.86754419336297
 20
-151.4339951878359
 30
0.0
 10
92.86754419336297
 20
-151.4339951878359
 30
0.0
 10
92.64120141998207
 20
-151.4339951878359
 30
0.0
 10
92.64120141998207
 20
-151.4339951878359
 30
0.0
 10
92.64120141998207
 20
-151.4339951878359
 30
0.0
 10
92.64344073204748
 20
-151.4002332520805
 30
0.0
 10
92.64344073204748
 20
-151.4002332520805
 30
0.0
 10
92.64344073204748
 20
-151.4002332520805
 30
0.0
 10
91.94098576260504
 20
-151.4002332520805
 30
0.0
 10
91.94098576260504
 20
-151.4002332520805
 30
0.0
 10
91.94098576260504
 20
-151.4002332520805
 30
0.0
 10
91.94305281989619
 20
-151.4339951878359
 30
0.0
 10
91.94305281989619
 20
-151.4339951878359
 30
0.0
 10
91.94305281989619
 20
-151.4339951878359
 30
0.0
 10
91.72515053045414
 20
-151.4339951878359
 30
0.0
 10
91.72515053045414
 20
-151.4339951878359
 30
0.0
 10
91.72945689981069
 20
-151.3788736600719
 30
0.0
 10
91.72945689981069
 20
-151.366471316325
 30
0.0
 10
91.73583032645842
 20
-151.2520941462147
 30
0.0
 10
91.73789738374955
 20
-151.2245333823327
 30
0.0
 10
91.73996444104071
 20
-151.0912081870536
 30
0.0
 10
91.73996444104071
 20
-151.0722601618847
 30
0.0
 10
91.73996444104071
 20
-151.0722601618847
 30
0.0
 10
91.73996444104071
 20
-150.8693440378035
 30
0.0
 10
91.73996444104071
 20
-150.8693440378035
 30
0.0
 10
91.60043807388808
 20
-151.1187689509356
 30
0.0
 10
91.43111163078806
 20
-151.2500270889236
 30
0.0
 10
91.32534719939089
 20
-151.3154839031433
 30
0.0
 10
91.32534719939089
 20
-151.3154839031433
 30
0.0
 10
91.15188664170856
 20
-151.1759575359907
 30
0.0
 10
91.15188664170856
 20
-151.1759575359907
 30
0.0
 10
91.24077010522801
 20
-151.1253146323575
 30
0.0
 10
91.38460284173719
 20
-151.0384982261292
 30
0.0
 10
91.52206215159866
 20
-150.8438503312126
 30
0.0
 10
91.61318492718351
 20
-150.7167263078069
 30
0.0
 10
91.67864174140325
 20
-150.573065826072
 30
0.0
 10
91.71257593193297
 20
-150.4207926056239
 30
0.0
 10
91.48399384648664
 20
-150.4228596629151
 30
0.0
 10
91.30415986215661
 20
-150.4290608347885
 30
0.0
 10
91.2090752267637
 20
-150.4311278920797
 30
0.0
 10
91.2090752267637
 20
-150.4311278920797
 30
0.0
 10
91.2090752267637
 20
-150.2537054745893
 30
0.0
 10
91.2090752267637
 20
-150.2537054745893
 30
0.0
 10
91.40579017897147
 20
-150.2599066464628
 30
0.0
 10
91.68932153740753
 20
-150.2640407610451
 30
0.0
 10
91.83952770056443
 20
-150.2640407610451
 30
0.0
 10
91.83952770056443
 20
-150.2640407610451
 30
0.0
 10
92.05312362064992
 20
-150.2640407610451
 30
0.0
 10
92.05312362064992
 20
-150.2640407610451
 30
0.0
 10
92.05312362064992
 20
-150.2640407610451
 30
0.0
 10
92.05312362064992
 20
-150.1562092723568
 30
0.0
 10
92.05312362064992
 20
-150.1562092723568
 30
0.0
 10
92.05312362064992
 20
-150.1562092723568
 30
0.0
 10
91.90722382684958
 20
-150.1562092723568
 30
0.0
 10
91.90722382684958
 20
-150.1562092723568
 30
0.0
 10
91.73789738374955
 20
-150.1562092723568
 30
0.0
 10
91.5687431954238
 20
-150.1603433869391
 30
0.0
 10
91.40148380961491
 20
-150.166889068361
 30
0.0
 10
91.40148380961491
 20
-150.166889068361
 30
0.0
 10
91.40148380961491
 20
-149.9956678227441
 30
0.0
 10
91.40148380961491
 20
-149.9956678227441
 30
0.0
 10
91.55599634212837
 20
-150.0060031091999
 30
0.0
 10
91.74220375310612
 20
-150.0060031091999
 30
0.0
 10
91.90722382684958
 20
-150.0060031091999
 30
0.0
 10
91.90722382684958
 20
-150.0060031091999
 30
0.0
 10
92.05312362064992
 20
-150.0060031091999
 30
0.0
 10
92.05312362064992
 20
-150.0060031091999
 30
0.0
 10
92.05312362064992
 20
-150.0060031091999
 30
0.0
 10
92.05312362064992
 20
-149.8874918245073
 30
0.0
 10
92.05312362064992
 20
-149.8874918245073
 30
0.0
 10
92.05312362064992
 20
-149.8874918245073
 30
0.0
 10
91.92203773743615
 20
-149.8874918245073
 30
0.0
 10
91.92203773743615
 20
-149.8874918245073
 30
0.0
 10
91.87535669361102
 20
-149.8874918245073
 30
0.0
 10
91.67226831475554
 20
-149.8961045632204
 30
0.0
 10
91.63006589506123
 20
-149.8961045632204
 30
0.0
 10
91.42697751620575
 20
-149.9002386778027
 30
0.0
 10
91.35084090598175
 20
-149.9023057350939
 30
0.0
 10
91.27246498369229
 20
-149.904372792385
 30
0.0
 10
91.27246498369229
 20
-149.904372792385
 30
0.0
 10
91.27246498369229
 20
-149.7204046934727
 30
0.0
 10
91.27246498369229
 20
-149.7204046934727
 30
0.0
 10
91.38666989902834
 20
-149.7290174321858
 30
0.0
 10
91.43111163078806
 20
-149.7290174321858
 30
0.0
 10
91.81403399397359
 20
-149.7372856613504
 30
0.0
 10
91.75064423704498
 20
-149.6422010259575
 30
0.0
 10
91.72308347316299
 20
-149.6146402620755
 30
0.0
 10
91.68708222534212
 20
-149.5788112690289
 30
0.0
 10
91.68708222534212
 20
-149.5788112690289
 30
0.0
 10
91.86278209508987
 20
-149.4961289773829
 30
0.0
 10
91.86278209508987
 20
-149.4961289773829
 30
0.0
 10
91.90291745749302
 20
-149.532302479978
 30
0.0
 10
91.94735918925275
 20
-149.5746771544466
 30
0.0
 10
92.02142874218562
 20
-149.6845757004261
 30
0.0
 10
92.02142874218562
 20
-149.6845757004261
 30
0.0
 10
91.90722382684958
 20
-149.7396972281901
 30
0.0
 10
91.90722382684958
 20
-149.7396972281901
 30
0.0
 10
91.90722382684958
 20
-149.7396972281901
 30
0.0
 10
91.9177313680796
 20
-149.7396972281901
 30
0.0
 10
91.9177313680796
 20
-149.7396972281901
 30
0.0
 10
91.9177313680796
 20
-149.7396972281901
 30
0.0
 10
92.44018009841774
 20
-149.7396972281901
 30
0.0
 10
92.44018009841774
 20
-149.7396972281901
 30
0.0
 10
92.44018009841774
 20
-149.7396972281901
 30
0.0
 10
92.34509546302485
 20
-149.6952554964303
 30
0.0
 10
92.34509546302485
 20
-149.6952554964303
 30
0.0
 10
92.37265622690683
 20
-149.6570149365441
 30
0.0
 10
92.42967255718772
 20
-149.5767442117378
 30
0.0
 10
92.4444864677743
 20
-149.5026746588049
 30
0.0
 10
92.4444864677743
 20
-149.5026746588049
 30
0.0
 10
92.65808238785979
 20
-149.5660644157335
 30
0.0
 10
92.65808238785979
 20
-149.5660644157335
 30
0.0
 10
92.66669512657292
 20
-149.5681314730246
 30
0.0
 10
92.68771020903294
 20
-149.5788112690289
 30
0.0
 10
92.68771020903294
 20
-149.5998263514889
 30
0.0
 10
92.68771020903294
 20
-149.6380669113752
 30
0.0
 10
92.62225339481318
 20
-149.6380669113752
 30
0.0
 10
92.60313311487005
 20
-149.6380669113752
 30
0.0
 10
92.59262557364005
 20
-149.6570149365441
 30
0.0
 10
92.5693711791146
 20
-149.6973225537215
 30
0.0
 10
92.53974335794145
 20
-149.7372856613504
 30
0.0
 10
92.9395466890047
 20
-149.7310844894769
 30
0.0
 10
92.96917451017785
 20
-149.7290174321858
 30
0.0
 10
93.04531112040187
 20
-149.7224717507638
 30
0.0
 10
93.04531112040187
 20
-149.7224717507638
 30
0.0
 10
93.04531112040187
 20
-149.904372792385
 30
0.0
 10
93.04531112040187
 20
-149.904372792385
 30
0.0
 10
93.02619084045874
 20
-149.904372792385
 30
0.0
 10
93.00086938864215
 20
-149.9023057350939
 30
0.0
 10
92.78090004190895
 20
-149.8940375059293
 30
0.0
 10
92.7300848835015
 20
-149.8919704486381
 30
0.0
 10
92.5101155367683
 20
-149.8874918245073
 30
0.0
 10
92.46567380500859
 20
-149.8874918245073
 30
0.0
 10
92.46567380500859
 20
-149.8874918245073
 30
0.0
 10
92.24983857285769
 20
-149.8874918245073
 30
0.0
 10
92.24983857285769
 20
-149.8874918245073
 30
0.0
 10
92.24983857285769
 20
-149.8874918245073
 30
0.0
 10
92.24983857285769
 20
-150.0060031091999
 30
0.0
 10
92.24983857285769
 20
-150.0060031091999
 30
0.0
 10
92.24983857285769
 20
-150.0060031091999
 30
0.0
 10
92.42329913054001
 20
-150.0060031091999
 30
0.0
 10
92.42329913054001
 20
-150.0060031091999
 30
0.0
 10
92.58625214699234
 20
-150.0060031091999
 30
0.0
 10
92.77659367255237
 20
-150.0060031091999
 30
0.0
 10
92.93317326235699
 20
-149.9956678227441
 30
0.0
 10
92.93317326235699
 20
-149.9956678227441
 30
0.0
 10
92.93317326235699
 20
-150.166889068361
 30
0.0
 10
92.93317326235699
 20
-150.166889068361
 30
0.0
 10
92.72371145685379
 20
-150.1582763296479
 30
0.0
 10
92.52699650464604
 20
-150.1562092723568
 30
0.0
 10
92.42329913054001
 20
-150.1562092723568
 30
0.0
 10
92.42329913054001
 20
-150.1562092723568
 30
0.0
 10
92.24983857285769
 20
-150.1562092723568
 30
0.0
 10
92.24983857285769
 20
-150.1562092723568
 30
0.0
 10
92.24983857285769
 20
-150.1562092723568
 30
0.0
 10
92.24983857285769
 20
-150.2640407610451
 30
0.0
 10
92.24983857285769
 20
-150.2640407610451
 30
0.0
 10
92.24983857285769
 20
-150.2640407610451
 30
0.0
 10
92.48048771559515
 20
-150.2640407610451
 30
0.0
 10
92.48048771559515
 20
-150.2640407610451
 30
0.0
 10
92.61381291087433
 20
-150.2640407610451
 30
0.0
 10
92.9014783838927
 20
-150.2599066464628
 30
0.0
 10
93.11094018939588
 20
-150.2537054745893
 30
0.0
 10
93.11094018939588
 20
-150.2537054745893
 30
0.0
 10
93.11094018939588
 20
-150.4311278920797
 30
0.0
 10
93.11094018939588
 20
-150.4311278920797
 30
0.0
 10
92.91835935177042
 20
-150.4249267202063
 30
0.0
 10
92.60520017216121
 20
-150.4207926056239
 30
0.0
 10
92.48048771559515
 20
-150.4207926056239
 30
0.0
  0
HATCH
  5
13F
330
133
100
AcDbEntity
  8
レイヤー 1
 62
    18
420
        0
440
 33554687
100
AcDbHatch
 10
0.0
 20
0.0
 30
0.0
210
0.0
220
0.0
230
1.0
  2
SOLID
 70
     1
 71
     1
 91
        4
 92
        1
 93
        1
 72
     4
 94
        3
 73
     0
 74
     0
 95
       17
 96
       13
 40
0.0
 40
0.0
 40
0.0
 40
0.0
 40
1.0
 40
1.0
 40
1.0
 40
2.0
 40
2.0
 40
2.0
 40
3.0
 40
3.0
 40
3.0
 40
4.0
 40
4.0
 40
4.0
 40
4.0
 10
92.64550778933863
 20
-151.152530886691
 10
92.64550778933863
 20
-151.152530886691
 10
91.93891870531388
 20
-151.152530886691
 10
91.93891870531388
 20
-151.152530886691
 10
91.93891870531388
 20
-151.152530886691
 10
91.93891870531388
 20
-151.2669080568013
 10
91.93891870531388
 20
-151.2669080568013
 10
91.93891870531388
 20
-151.2669080568013
 10
92.64550778933863
 20
-151.2669080568013
 10
92.64550778933863
 20
-151.2669080568013
 10
92.64550778933863
 20
-151.2669080568013
 10
92.64550778933863
 20
-151.152530886691
 10
92.64550778933863
 20
-151.152530886691
 97
        0
 97
        1
330
13B
 92
        1
 93
        1
 72
     4
 94
        3
 73
     0
 74
     0
 95
       17
 96
       13
 40
0.0
 40
0.0
 40
0.0
 40
0.0
 40
1.0
 40
1.0
 40
1.0
 40
2.0
 40
2.0
 40
2.0
 40
3.0
 40
3.0
 40
3.0
 40
4.0
 40
4.0
 40
4.0
 40
4.0
 10
92.64550778933863
 20
-150.9093071454324
 10
92.64550778933863
 20
-150.9093071454324
 10
91.93891870531388
 20
-150.9093071454324
 10
91.93891870531388
 20
-150.9093071454324
 10
91.93891870531388
 20
-150.9093071454324
 10
91.93891870531388
 20
-151.0236843155427
 10
91.93891870531388
 20
-151.0236843155427
 10
91.93891870531388
 20
-151.0236843155427
 10
92.64550778933863
 20
-151.0236843155427
 10
92.64550778933863
 20
-151.0236843155427
 10
92.64550778933863
 20
-151.0236843155427
 10
92.64550778933863
 20
-150.9093071454324
 10
92.64550778933863
 20
-150.9093071454324
 97
        0
 97
        1
330
13C
 92
        1
 93
        1
 72
     4
 94
        3
 73
     0
 74
     0
 95
       17
 96
       13
 40
0.0
 40
0.0
 40
0.0
 40
0.0
 40
1.0
 40
1.0
 40
1.0
 40
2.0
 40
2.0
 40
2.0
 40
3.0
 40
3.0
 40
3.0
 40
4.0
 40
4.0
 40
4.0
 40
4.0
 10
92.64550778933863
 20
-150.676763200178
 10
92.64550778933863
 20
-150.676763200178
 10
91.93891870531388
 20
-150.676763200178
 10
91.93891870531388
 20
-150.676763200178
 10
91.93891870531388
 20
-150.676763200178
 10
91.93891870531388
 20
-150.7845946888663
 10
91.93891870531388
 20
-150.7845946888663
 10
91.93891870531388
 20
-150.7845946888663
 10
92.64550778933863
 20
-150.7845946888663
 10
92.64550778933863
 20
-150.7845946888663
 10
92.64550778933863
 20
-150.7845946888663
 10
92.64550778933863
 20
-150.676763200178
 10
92.64550778933863
 20
-150.676763200178
 97
        0
 97
        1
330
13D
 92
        1
 93
        1
 72
     4
 94
        3
 73
     0
 74
     0
 95
      203
 96
      199
 40
0.0
 40
0.0
 40
0.0
 40
0.0
 40
1.0
 40
1.0
 40
1.0
 40
2.0
 40
2.0
 40
2.0
 40
3.0
 40
3.0
 40
3.0
 40
4.0
 40
4.0
 40
4.0
 40
5.0
 40
5.0
 40
5.0
 40
6.0
 40
6.0
 40
6.0
 40
7.0
 40
7.0
 40
7.0
 40
8.0
 40
8.0
 40
8.0
 40
9.0
 40
9.0
 40
9.0
 40
10.0
 40
10.0
 40
10.0
 40
11.0
 40
11.0
 40
11.0
 40
12.0
 40
12.0
 40
12.0
 40
13.0
 40
13.0
 40
13.0
 40
14.0
 40
14.0
 40
14.0
 40
15.0
 40
15.0
 40
15.0
 40
16.0
 40
16.0
 40
16.0
 40
17.0
 40
17.0
 40
17.0
 40
18.0
 40
18.0
 40
18.0
 40
19.0
 40
19.0
 40
19.0
 40
20.0
 40
20.0
 40
20.0
 40
21.0
 40
21.0
 40
21.0
 40
22.0
 40
22.0
 40
22.0
 40
23.0
 40
23.0
 40
23.0
 40
24.0
 40
24.0
 40
24.0
 40
25.0
 40
25.0
 40
25.0
 40
26.0
 40
26.0
 40
26.0
 40
27.0
 40
27.0
 40
27.0
 40
28.0
 40
28.0
 40
28.0
 40
29.0
 40
29.0
 40
29.0
 40
30.0
 40
30.0
 40
30.0
 40
31.0
 40
31.0
 40
31.0
 40
32.0
 40
32.0
 40
32.0
 40
33.0
 40
33.0
 40
33.0
 40
34.0
 40
34.0
 40
34.0
 40
35.0
 40
35.0
 40
35.0
 40
36.0
 40
36.0
 40
36.0
 40
37.0
 40
37.0
 40
37.0
 40
38.0
 40
38.0
 40
38.0
 40
39.0
 40
39.0
 40
39.0
 40
40.0
 40
40.0
 40
40.0
 40
41.0
 40
41.0
 40
41.0
 40
42.0
 40
42.0
 40
42.0
 40
43.0
 40
43.0
 40
43.0
 40
44.0
 40
44.0
 40
44.0
 40
45.0
 40
45.0
 40
45.0
 40
46.0
 40
46.0
 40
46.0
 40
47.0
 40
47.0
 40
47.0
 40
48.0
 40
48.0
 40
48.0
 40
49.0
 40
49.0
 40
49.0
 40
50.0
 40
50.0
 40
50.0
 40
51.0
 40
51.0
 40
51.0
 40
52.0
 40
52.0
 40
52.0
 40
53.0
 40
53.0
 40
53.0
 40
54.0
 40
54.0
 40
54.0
 40
55.0
 40
55.0
 40
55.0
 40
56.0
 40
56.0
 40
56.0
 40
57.0
 40
57.0
 40
57.0
 40
58.0
 40
58.0
 40
58.0
 40
59.0
 40
59.0
 40
59.0
 40
60.0
 40
60.0
 40
60.0
 40
61.0
 40
61.0
 40
61.0
 40
62.0
 40
62.0
 40
62.0
 40
63.0
 40
63.0
 40
63.0
 40
64.0
 40
64.0
 40
64.0
 40
65.0
 40
65.0
 40
65.0
 40
66.0
 40
66.0
 40
66.0
 40
66.0
 10
92.48048771559515
 20
-150.4207926056239
 10
92.48048771559515
 20
-150.4207926056239
 10
91.92203773743615
 20
-150.4207926056239
 10
91.92203773743615
 20
-150.4207926056239
 10
91.91135794143189
 20
-150.4652343373837
 10
91.90291745749302
 20
-150.496929215848
 10
91.89017060419761
 20
-150.5348252661857
 10
91.91566431078845
 20
-150.5348252661857
 10
91.93047822137502
 20
-150.5372368330254
 10
91.93685164802273
 20
-150.5372368330254
 10
91.93685164802273
 20
-150.5372368330254
 10
92.12512611629163
 20
-150.5372368330254
 10
92.12512611629163
 20
-150.5372368330254
 10
92.12512611629163
 20
-150.5372368330254
 10
92.49943574076402
 20
-150.5372368330254
 10
92.49943574076402
 20
-150.5372368330254
 10
92.55025089917147
 20
-150.5372368330254
 10
92.83378225760753
 20
-150.52448997973
 10
92.86547713607182
 20
-150.52448997973
 10
92.86341007878068
 20
-150.552050743612
 10
92.86117076671526
 20
-150.5709987687808
 10
92.86117076671526
 20
-150.600626589954
 10
92.85910370942412
 20
-150.6323214684183
 10
92.85910370942412
 20
-150.7677137209886
 10
92.85910370942412
 20
-150.7952744848706
 10
92.85910370942412
 20
-150.7952744848706
 10
92.85910370942412
 20
-151.0405652834204
 10
92.85910370942412
 20
-151.0405652834204
 10
92.85910370942412
 20
-151.0850070151801
 10
92.86341007878068
 20
-151.2817219673879
 10
92.86754419336297
 20
-151.4339951878359
 10
92.86754419336297
 20
-151.4339951878359
 10
92.64120141998207
 20
-151.4339951878359
 10
92.64120141998207
 20
-151.4339951878359
 10
92.64120141998207
 20
-151.4339951878359
 10
92.64344073204748
 20
-151.4002332520805
 10
92.64344073204748
 20
-151.4002332520805
 10
92.64344073204748
 20
-151.4002332520805
 10
91.94098576260504
 20
-151.4002332520805
 10
91.94098576260504
 20
-151.4002332520805
 10
91.94098576260504
 20
-151.4002332520805
 10
91.94305281989619
 20
-151.4339951878359
 10
91.94305281989619
 20
-151.4339951878359
 10
91.94305281989619
 20
-151.4339951878359
 10
91.72515053045414
 20
-151.4339951878359
 10
91.72515053045414
 20
-151.4339951878359
 10
91.72945689981069
 20
-151.3788736600719
 10
91.72945689981069
 20
-151.366471316325
 10
91.73583032645842
 20
-151.2520941462147
 10
91.73789738374955
 20
-151.2245333823327
 10
91.73996444104071
 20
-151.0912081870536
 10
91.73996444104071
 20
-151.0722601618847
 10
91.73996444104071
 20
-151.0722601618847
 10
91.73996444104071
 20
-150.8693440378035
 10
91.73996444104071
 20
-150.8693440378035
 10
91.60043807388808
 20
-151.1187689509356
 10
91.43111163078806
 20
-151.2500270889236
 10
91.32534719939089
 20
-151.3154839031433
 10
91.32534719939089
 20
-151.3154839031433
 10
91.15188664170856
 20
-151.1759575359907
 10
91.15188664170856
 20
-151.1759575359907
 10
91.24077010522801
 20
-151.1253146323575
 10
91.38460284173719
 20
-151.0384982261292
 10
91.52206215159866
 20
-150.8438503312126
 10
91.61318492718351
 20
-150.7167263078069
 10
91.67864174140325
 20
-150.573065826072
 10
91.71257593193297
 20
-150.4207926056239
 10
91.48399384648664
 20
-150.4228596629151
 10
91.30415986215661
 20
-150.4290608347885
 10
91.2090752267637
 20
-150.4311278920797
 10
91.2090752267637
 20
-150.4311278920797
 10
91.2090752267637
 20
-150.2537054745893
 10
91.2090752267637
 20
-150.2537054745893
 10
91.40579017897147
 20
-150.2599066464628
 10
91.68932153740753
 20
-150.2640407610451
 10
91.83952770056443
 20
-150.2640407610451
 10
91.83952770056443
 20
-150.2640407610451
 10
92.05312362064992
 20
-150.2640407610451
 10
92.05312362064992
 20
-150.2640407610451
 10
92.05312362064992
 20
-150.2640407610451
 10
92.05312362064992
 20
-150.1562092723568
 10
92.05312362064992
 20
-150.1562092723568
 10
92.05312362064992
 20
-150.1562092723568
 10
91.90722382684958
 20
-150.1562092723568
 10
91.90722382684958
 20
-150.1562092723568
 10
91.73789738374955
 20
-150.1562092723568
 10
91.5687431954238
 20
-150.1603433869391
 10
91.40148380961491
 20
-150.166889068361
 10
91.40148380961491
 20
-150.166889068361
 10
91.40148380961491
 20
-149.9956678227441
 10
91.40148380961491
 20
-149.9956678227441
 10
91.55599634212837
 20
-150.0060031091999
 10
91.74220375310612
 20
-150.0060031091999
 10
91.90722382684958
 20
-150.0060031091999
 10
91.90722382684958
 20
-150.0060031091999
 10
92.05312362064992
 20
-150.0060031091999
 10
92.05312362064992
 20
-150.0060031091999
 10
92.05312362064992
 20
-150.0060031091999
 10
92.05312362064992
 20
-149.8874918245073
 10
92.05312362064992
 20
-149.8874918245073
 10
92.05312362064992
 20
-149.8874918245073
 10
91.92203773743615
 20
-149.8874918245073
 10
91.92203773743615
 20
-149.8874918245073
 10
91.87535669361102
 20
-149.8874918245073
 10
91.67226831475554
 20
-149.8961045632204
 10
91.63006589506123
 20
-149.8961045632204
 10
91.42697751620575
 20
-149.9002386778027
 10
91.35084090598175
 20
-149.9023057350939
 10
91.27246498369229
 20
-149.904372792385
 10
91.27246498369229
 20
-149.904372792385
 10
91.27246498369229
 20
-149.7204046934727
 10
91.27246498369229
 20
-149.7204046934727
 10
91.38666989902834
 20
-149.7290174321858
 10
91.43111163078806
 20
-149.7290174321858
 10
91.81403399397359
 20
-149.7372856613504
 10
91.75064423704498
 20
-149.6422010259575
 10
91.72308347316299
 20
-149.6146402620755
 10
91.68708222534212
 20
-149.5788112690289
 10
91.68708222534212
 20
-149.5788112690289
 10
91.86278209508987
 20
-149.4961289773829
 10
91.86278209508987
 20
-149.4961289773829
 10
91.90291745749302
 20
-149.532302479978
 10
91.94735918925275
 20
-149.5746771544466
 10
92.02142874218562
 20
-149.6845757004261
 10
92.02142874218562
 20
-149.6845757004261
 10
91.90722382684958
 20
-149.7396972281901
 10
91.90722382684958
 20
-149.7396972281901
 10
91.90722382684958
 20
-149.7396972281901
 10
91.9177313680796
 20
-149.7396972281901
 10
91.9177313680796
 20
-149.7396972281901
 10
91.9177313680796
 20
-149.7396972281901
 10
92.44018009841774
 20
-149.7396972281901
 10
92.44018009841774
 20
-149.7396972281901
 10
92.44018009841774
 20
-149.7396972281901
 10
92.34509546302485
 20
-149.6952554964303
 10
92.34509546302485
 20
-149.6952554964303
 10
92.37265622690683
 20
-149.6570149365441
 10
92.42967255718772
 20
-149.5767442117378
 10
92.4444864677743
 20
-149.5026746588049
 10
92.4444864677743
 20
-149.5026746588049
 10
92.65808238785979
 20
-149.5660644157335
 10
92.65808238785979
 20
-149.5660644157335
 10
92.66669512657292
 20
-149.5681314730246
 10
92.68771020903294
 20
-149.5788112690289
 10
92.68771020903294
 20
-149.5998263514889
 10
92.68771020903294
 20
-149.6380669113752
 10
92.62225339481318
 20
-149.6380669113752
 10
92.60313311487005
 20
-149.6380669113752
 10
92.59262557364005
 20
-149.6570149365441
 10
92.5693711791146
 20
-149.6973225537215
 10
92.53974335794145
 20
-149.7372856613504
 10
92.9395466890047
 20
-149.7310844894769
 10
92.96917451017785
 20
-149.7290174321858
 10
93.04531112040187
 20
-149.7224717507638
 10
93.04531112040187
 20
-149.7224717507638
 10
93.04531112040187
 20
-149.904372792385
 10
93.04531112040187
 20
-149.904372792385
 10
93.02619084045874
 20
-149.904372792385
 10
93.00086938864215
 20
-149.9023057350939
 10
92.78090004190895
 20
-149.8940375059293
 10
92.7300848835015
 20
-149.8919704486381
 10
92.5101155367683
 20
-149.8874918245073
 10
92.46567380500859
 20
-149.8874918245073
 10
92.46567380500859
 20
-149.8874918245073
 10
92.24983857285769
 20
-149.8874918245073
 10
92.24983857285769
 20
-149.8874918245073
 10
92.24983857285769
 20
-149.8874918245073
 10
92.24983857285769
 20
-150.0060031091999
 10
92.24983857285769
 20
-150.0060031091999
 10
92.24983857285769
 20
-150.0060031091999
 10
92.42329913054001
 20
-150.0060031091999
 10
92.42329913054001
 20
-150.0060031091999
 10
92.58625214699234
 20
-150.0060031091999
 10
92.77659367255237
 20
-150.0060031091999
 10
92.93317326235699
 20
-149.9956678227441
 10
92.93317326235699
 20
-149.9956678227441
 10
92.93317326235699
 20
-150.166889068361
 10
92.93317326235699
 20
-150.166889068361
 10
92.72371145685379
 20
-150.1582763296479
 10
92.52699650464604
 20
-150.1562092723568
 10
92.42329913054001
 20
-150.1562092723568
 10
92.42329913054001
 20
-150.1562092723568
 10
92.24983857285769
 20
-150.1562092723568
 10
92.24983857285769
 20
-150.1562092723568
 10
92.24983857285769
 20
-150.1562092723568
 10
92.24983857285769
 20
-150.2640407610451
 10
92.24983857285769
 20
-150.2640407610451
 10
92.24983857285769
 20
-150.2640407610451
 10
92.48048771559515
 20
-150.2640407610451
 10
92.48048771559515
 20
-150.2640407610451
 10
92.61381291087433
 20
-150.2640407610451
 10
92.9014783838927
 20
-150.2599066464628
 10
93.11094018939588
 20
-150.2537054745893
 10
93.11094018939588
 20
-150.2537054745893
 10
93.11094018939588
 20
-150.4311278920797
 10
93.11094018939588
 20
-150.4311278920797
 10
92.91835935177042
 20
-150.4249267202063
 10
92.60520017216121
 20
-150.4207926056239
 10
92.48048771559515
 20
-150.4207926056239
 97
        0
 97
        1
330
13E
 75
     2
 76
     1
 98
        1
 10
0.0
 20
0.0
450
        0
451
        0
460
0.0
461
0.0
452
        0
462
0.0
453
        0
470

  0
SPLINE
  5
140
330
133
100
AcDbEntity
  8
レイヤー 1
100
AcDbSpline
210
0.0
220
0.0
230
1.0
 70
     9
 71
     3
 72
    29
 73
    25
 74
     0
 42
0.0000000001
 43
0.0000000001
 40
0.0
 40
0.0
 40
0.0
 40
0.0
 40
1.0
 40
1.0
 40
1.0
 40
2.0
 40
2.0
 40
2.0
 40
3.0
 40
3.0
 40
3.0
 40
4.0
 40
4.0
 40
4.0
 40
5.0
 40
5.0
 40
5.0
 40
6.0
 40
6.0
 40
6.0
 40
7.0
 40
7.0
 40
7.0
 40
8.0
 40
8.0
 40
8.0
 40
8.0
 10
94.35599769776517
 20
-149.8685437993384
 30
0.0
 10
94.35599769776517
 20
-149.8685437993384
 30
0.0
 10
94.0027031557528
 20
-149.8685437993384
 30
0.0
 10
94.0027031557528
 20
-149.8685437993384
 30
0.0
 10
93.89056529770792
 20
-149.8685437993384
 30
0.0
 10
93.75086667578104
 20
-149.8747449712118
 30
0.0
 10
93.64303518709272
 20
-149.8874918245073
 30
0.0
 10
93.64303518709272
 20
-149.8874918245073
 30
0.0
 10
93.64303518709272
 20
-149.6528808219618
 30
0.0
 10
93.64303518709272
 20
-149.6528808219618
 30
0.0
 10
93.7615464717853
 20
-149.6676947325483
 30
0.0
 10
93.94551457069765
 20
-149.6718288471306
 30
0.0
 10
94.0027031557528
 20
-149.6718288471306
 30
0.0
 10
94.0027031557528
 20
-149.6718288471306
 30
0.0
 10
94.35599769776517
 20
-149.6718288471306
 30
0.0
 10
94.35599769776517
 20
-149.6718288471306
 30
0.0
 10
94.37494572293404
 20
-149.6718288471306
 30
0.0
 10
94.57803410178952
 20
-149.6718288471306
 30
0.0
 10
94.71979978100755
 20
-149.6528808219618
 30
0.0
 10
94.71979978100755
 20
-149.6528808219618
 30
0.0
 10
94.71979978100755
 20
-149.8874918245073
 30
0.0
 10
94.71979978100755
 20
-149.8874918245073
 30
0.0
 10
94.56322019120294
 20
-149.8685437993384
 30
0.0
 10
94.3728786656429
 20
-149.8685437993384
 30
0.0
 10
94.35599769776517
 20
-149.8685437993384
 30
0.0
  0
SPLINE
  5
141
330
133
100
AcDbEntity
  8
レイヤー 1
100
AcDbSpline
210
0.0
220
0.0
230
1.0
 70
     9
 71
     3
 72
    47
 73
    43
 74
     0
 42
0.0000000001
 43
0.0000000001
 40
0.0
 40
0.0
 40
0.0
 40
0.0
 40
1.0
 40
1.0
 40
1.0
 40
2.0
 40
2.0
 40
2.0
 40
3.0
 40
3.0
 40
3.0
 40
4.0
 40
4.0
 40
4.0
 40
5.0
 40
5.0
 40
5.0
 40
6.0
 40
6.0
 40
6.0
 40
7.0
 40
7.0
 40
7.0
 40
8.0
 40
8.0
 40
8.0
 40
9.0
 40
9.0
 40
9.0
 40
10.0
 40
10.0
 40
10.0
 40
11.0
 40
11.0
 40
11.0
 40
12.0
 40
12.0
 40
12.0
 40
13.0
 40
13.0
 40
13.0
 40
14.0
 40
14.0
 40
14.0
 40
14.0
 10
94.45745575980579
 20
-150.3973659563243
 30
0.0
 10
94.45745575980579
 20
-150.3973659563243
 30
0.0
 10
94.35599769776517
 20
-150.3973659563243
 30
0.0
 10
94.35599769776517
 20
-150.3973659563243
 30
0.0
 10
94.35599769776517
 20
-150.4841823625525
 30
0.0
 10
94.33481036053088
 20
-150.8734781523858
 30
0.0
 10
94.13809540832312
 20
-151.0936197538933
 30
0.0
 10
93.98564993310081
 20
-151.262773942219
 30
0.0
 10
93.77842743966303
 20
-151.332364871021
 30
0.0
 10
93.69385034550015
 20
-151.3599256349031
 30
0.0
 10
93.69385034550015
 20
-151.3599256349031
 30
0.0
 10
93.49920245058354
 20
-151.1928385038684
 30
0.0
 10
93.49920245058354
 20
-151.1928385038684
 30
0.0
 10
93.59652639804185
 20
-151.180091650573
 30
0.0
 10
93.77205401301532
 20
-151.1570095108218
 30
0.0
 10
93.96032848128422
 20
-150.9685627877787
 30
0.0
 10
94.0343980342171
 20
-150.8965602921369
 30
0.0
 10
94.13809540832312
 20
-150.7570339249843
 30
0.0
 10
94.13809540832312
 20
-150.3973659563243
 30
0.0
 10
94.13809540832312
 20
-150.3973659563243
 30
0.0
 10
93.90744626558564
 20
-150.3973659563243
 30
0.0
 10
93.90744626558564
 20
-150.3973659563243
 30
0.0
 10
93.72123885460789
 20
-150.3973659563243
 30
0.0
 10
93.53503144363013
 20
-150.4018445804551
 30
0.0
 10
93.34899628742665
 20
-150.4163139814931
 30
0.0
 10
93.34899628742665
 20
-150.4163139814931
 30
0.0
 10
93.34899628742665
 20
-150.1965168895342
 30
0.0
 10
93.34899628742665
 20
-150.1965168895342
 30
0.0
 10
93.53727075569555
 20
-150.2113308001208
 30
0.0
 10
93.82286917142275
 20
-150.2154649147031
 30
0.0
 10
93.90744626558564
 20
-150.2154649147031
 30
0.0
 10
93.90744626558564
 20
-150.2154649147031
 30
0.0
 10
94.45745575980579
 20
-150.2154649147031
 30
0.0
 10
94.45745575980579
 20
-150.2154649147031
 30
0.0
 10
94.47657603974892
 20
-150.2154649147031
 30
0.0
 10
94.79386933394042
 20
-150.2154649147031
 30
0.0
 10
95.02227916461249
 20
-150.1965168895342
 30
0.0
 10
95.02227916461249
 20
-150.1965168895342
 30
0.0
 10
95.02227916461249
 20
-150.4163139814931
 30
0.0
 10
95.02227916461249
 20
-150.4163139814931
 30
0.0
 10
94.83400469634359
 20
-150.4018445804551
 30
0.0
 10
94.64573022807469
 20
-150.3973659563243
 30
0.0
 10
94.45745575980579
 20
-150.3973659563243
 30
0.0
  0
HATCH
  5
142
330
133
100
AcDbEntity
  8
レイヤー 1
 62
    18
420
        0
440
 33554687
100
AcDbHatch
 10
0.0
 20
0.0
 30
0.0
210
0.0
220
0.0
230
1.0
  2
SOLID
 70
     1
 71
     1
 91
        2
 92
        1
 93
        1
 72
     4
 94
        3
 73
     0
 74
     0
 95
       29
 96
       25
 40
0.0
 40
0.0
 40
0.0
 40
0.0
 40
1.0
 40
1.0
 40
1.0
 40
2.0
 40
2.0
 40
2.0
 40
3.0
 40
3.0
 40
3.0
 40
4.0
 40
4.0
 40
4.0
 40
5.0
 40
5.0
 40
5.0
 40
6.0
 40
6.0
 40
6.0
 40
7.0
 40
7.0
 40
7.0
 40
8.0
 40
8.0
 40
8.0
 40
8.0
 10
94.35599769776517
 20
-149.8685437993384
 10
94.35599769776517
 20
-149.8685437993384
 10
94.0027031557528
 20
-149.8685437993384
 10
94.0027031557528
 20
-149.8685437993384
 10
93.89056529770792
 20
-149.8685437993384
 10
93.75086667578104
 20
-149.8747449712118
 10
93.64303518709272
 20
-149.8874918245073
 10
93.64303518709272
 20
-149.8874918245073
 10
93.64303518709272
 20
-149.6528808219618
 10
93.64303518709272
 20
-149.6528808219618
 10
93.7615464717853
 20
-149.6676947325483
 10
93.94551457069765
 20
-149.6718288471306
 10
94.0027031557528
 20
-149.6718288471306
 10
94.0027031557528
 20
-149.6718288471306
 10
94.35599769776517
 20
-149.6718288471306
 10
94.35599769776517
 20
-149.6718288471306
 10
94.37494572293404
 20
-149.6718288471306
 10
94.57803410178952
 20
-149.6718288471306
 10
94.71979978100755
 20
-149.6528808219618
 10
94.71979978100755
 20
-149.6528808219618
 10
94.71979978100755
 20
-149.8874918245073
 10
94.71979978100755
 20
-149.8874918245073
 10
94.56322019120294
 20
-149.8685437993384
 10
94.3728786656429
 20
-149.8685437993384
 10
94.35599769776517
 20
-149.8685437993384
 97
        0
 97
        1
330
140
 92
        1
 93
        1
 72
     4
 94
        3
 73
     0
 74
     0
 95
       47
 96
       43
 40
0.0
 40
0.0
 40
0.0
 40
0.0
 40
1.0
 40
1.0
 40
1.0
 40
2.0
 40
2.0
 40
2.0
 40
3.0
 40
3.0
 40
3.0
 40
4.0
 40
4.0
 40
4.0
 40
5.0
 40
5.0
 40
5.0
 40
6.0
 40
6.0
 40
6.0
 40
7.0
 40
7.0
 40
7.0
 40
8.0
 40
8.0
 40
8.0
 40
9.0
 40
9.0
 40
9.0
 40
10.0
 40
10.0
 40
10.0
 40
11.0
 40
11.0
 40
11.0
 40
12.0
 40
12.0
 40
12.0
 40
13.0
 40
13.0
 40
13.0
 40
14.0
 40
14.0
 40
14.0
 40
14.0
 10
94.45745575980579
 20
-150.3973659563243
 10
94.45745575980579
 20
-150.3973659563243
 10
94.35599769776517
 20
-150.3973659563243
 10
94.35599769776517
 20
-150.3973659563243
 10
94.35599769776517
 20
-150.4841823625525
 10
94.33481036053088
 20
-150.8734781523858
 10
94.13809540832312
 20
-151.0936197538933
 10
93.98564993310081
 20
-151.262773942219
 10
93.77842743966303
 20
-151.332364871021
 10
93.69385034550015
 20
-151.3599256349031
 10
93.69385034550015
 20
-151.3599256349031
 10
93.49920245058354
 20
-151.1928385038684
 10
93.49920245058354
 20
-151.1928385038684
 10
93.59652639804185
 20
-151.180091650573
 10
93.77205401301532
 20
-151.1570095108218
 10
93.96032848128422
 20
-150.9685627877787
 10
94.0343980342171
 20
-150.8965602921369
 10
94.13809540832312
 20
-150.7570339249843
 10
94.13809540832312
 20
-150.3973659563243
 10
94.13809540832312
 20
-150.3973659563243
 10
93.90744626558564
 20
-150.3973659563243
 10
93.90744626558564
 20
-150.3973659563243
 10
93.72123885460789
 20
-150.3973659563243
 10
93.53503144363013
 20
-150.4018445804551
 10
93.34899628742665
 20
-150.4163139814931
 10
93.34899628742665
 20
-150.4163139814931
 10
93.34899628742665
 20
-150.1965168895342
 10
93.34899628742665
 20
-150.1965168895342
 10
93.53727075569555
 20
-150.2113308001208
 10
93.82286917142275
 20
-150.2154649147031
 10
93.90744626558564
 20
-150.2154649147031
 10
93.90744626558564
 20
-150.2154649147031
 10
94.45745575980579
 20
-150.2154649147031
 10
94.45745575980579
 20
-150.2154649147031
 10
94.47657603974892
 20
-150.2154649147031
 10
94.79386933394042
 20
-150.2154649147031
 10
95.02227916461249
 20
-150.1965168895342
 10
95.02227916461249
 20
-150.1965168895342
 10
95.02227916461249
 20
-150.4163139814931
 10
95.02227916461249
 20
-150.4163139814931
 10
94.83400469634359
 20
-150.4018445804551
 10
94.64573022807469
 20
-150.3973659563243
 10
94.45745575980579
 20
-150.3973659563243
 97
        0
 97
        1
330
141
 75
     2
 76
     1
 98
        1
 10
0.0
 20
0.0
450
        0
451
        0
460
0.0
461
0.0
452
        0
462
0.0
453
        0
470

  0
SPLINE
  5
143
330
133
100
AcDbEntity
  8
レイヤー 1
100
AcDbSpline
210
0.0
220
0.0
230
1.0
 70
     9
 71
     3
 72
    29
 73
    25
 74
     0
 42
0.0000000001
 43
0.0000000001
 40
0.0
 40
0.0
 40
0.0
 40
0.0
 40
1.0
 40
1.0
 40
1.0
 40
2.0
 40
2.0
 40
2.0
 40
3.0
 40
3.0
 40
3.0
 40
4.0
 40
4.0
 40
4.0
 40
5.0
 40
5.0
 40
5.0
 40
6.0
 40
6.0
 40
6.0
 40
7.0
 40
7.0
 40
7.0
 40
8.0
 40
8.0
 40
8.0
 40
8.0
 10
96.30316566602838
 20
-150.5603189727766
 30
0.0
 10
96.30316566602838
 20
-150.5603189727766
 30
0.0
 10
95.81878524080226
 20
-150.5603189727766
 30
0.0
 10
95.81878524080226
 20
-150.5603189727766
 30
0.0
 10
95.79122447692025
 20
-150.5603189727766
 30
0.0
 10
95.47393118272875
 20
-150.5603189727766
 30
0.0
 10
95.2624023199344
 20
-150.5858126793674
 30
0.0
 10
95.2624023199344
 20
-150.5858126793674
 30
0.0
 10
95.2624023199344
 20
-150.3549912818557
 30
0.0
 10
95.2624023199344
 20
-150.3549912818557
 30
0.0
 10
95.42104896703015
 20
-150.3784179311554
 30
0.0
 10
95.61139049259022
 20
-150.3804849884465
 30
0.0
 10
95.81878524080226
 20
-150.3804849884465
 30
0.0
 10
95.81878524080226
 20
-150.3804849884465
 30
0.0
 10
96.30316566602838
 20
-150.3804849884465
 30
0.0
 10
96.30316566602838
 20
-150.3804849884465
 30
0.0
 10
96.48937307700613
 20
-150.3804849884465
 30
0.0
 10
96.6755804879839
 20
-150.3784179311554
 30
0.0
 10
96.85954858689623
 20
-150.3549912818557
 30
0.0
 10
96.85954858689623
 20
-150.3549912818557
 30
0.0
 10
96.85954858689623
 20
-150.5858126793674
 30
0.0
 10
96.85954858689623
 20
-150.5858126793674
 30
0.0
 10
96.6755804879839
 20
-150.5623860300677
 30
0.0
 10
96.4280503773687
 20
-150.5603189727766
 30
0.0
 10
96.30316566602838
 20
-150.5603189727766
 30
0.0
  0
HATCH
  5
144
330
133
100
AcDbEntity
  8
レイヤー 1
 62
    18
420
        0
440
 33554687
100
AcDbHatch
 10
0.0
 20
0.0
 30
0.0
210
0.0
220
0.0
230
1.0
  2
SOLID
 70
     1
 71
     1
 91
        1
 92
        1
 93
        1
 72
     4
 94
        3
 73
     0
 74
     0
 95
       29
 96
       25
 40
0.0
 40
0.0
 40
0.0
 40
0.0
 40
1.0
 40
1.0
 40
1.0
 40
2.0
 40
2.0
 40
2.0
 40
3.0
 40
3.0
 40
3.0
 40
4.0
 40
4.0
 40
4.0
 40
5.0
 40
5.0
 40
5.0
 40
6.0
 40
6.0
 40
6.0
 40
7.0
 40
7.0
 40
7.0
 40
8.0
 40
8.0
 40
8.0
 40
8.0
 10
96.30316566602838
 20
-150.5603189727766
 10
96.30316566602838
 20
-150.5603189727766
 10
95.81878524080226
 20
-150.5603189727766
 10
95.81878524080226
 20
-150.5603189727766
 10
95.79122447692025
 20
-150.5603189727766
 10
95.47393118272875
 20
-150.5603189727766
 10
95.2624023199344
 20
-150.5858126793674
 10
95.2624023199344
 20
-150.5858126793674
 10
95.2624023199344
 20
-150.3549912818557
 10
95.2624023199344
 20
-150.3549912818557
 10
95.42104896703015
 20
-150.3784179311554
 10
95.61139049259022
 20
-150.3804849884465
 10
95.81878524080226
 20
-150.3804849884465
 10
95.81878524080226
 20
-150.3804849884465
 10
96.30316566602838
 20
-150.3804849884465
 10
96.30316566602838
 20
-150.3804849884465
 10
96.48937307700613
 20
-150.3804849884465
 10
96.6755804879839
 20
-150.3784179311554
 10
96.85954858689623
 20
-150.3549912818557
 10
96.85954858689623
 20
-150.3549912818557
 10
96.85954858689623
 20
-150.5858126793674
 10
96.85954858689623
 20
-150.5858126793674
 10
96.6755804879839
 20
-150.5623860300677
 10
96.4280503773687
 20
-150.5603189727766
 10
96.30316566602838
 20
-150.5603189727766
 97
        0
 97
        1
330
143
 75
     2
 76
     1
 98
        1
 10
0.0
 20
0.0
450
        0
451
        0
460
0.0
461
0.0
452
        0
462
0.0
453
        0
470

  0
SPLINE
  5
145
330
133
100
AcDbEntity
  8
レイヤー 1
100
AcDbSpline
210
0.0
220
0.0
230
1.0
 70
     9
 71
     3
 72
    47
 73
    43
 74
     0
 42
0.0000000001
 43
0.0000000001
 40
0.0
 40
0.0
 40
0.0
 40
0.0
 40
1.0
 40
1.0
 40
1.0
 40
2.0
 40
2.0
 40
2.0
 40
3.0
 40
3.0
 40
3.0
 40
4.0
 40
4.0
 40
4.0
 40
5.0
 40
5.0
 40
5.0
 40
6.0
 40
6.0
 40
6.0
 40
7.0
 40
7.0
 40
7.0
 40
8.0
 40
8.0
 40
8.0
 40
9.0
 40
9.0
 40
9.0
 40
10.0
 40
10.0
 40
10.0
 40
11.0
 40
11.0
 40
11.0
 40
12.0
 40
12.0
 40
12.0
 40
13.0
 40
13.0
 40
13.0
 40
14.0
 40
14.0
 40
14.0
 40
14.0
 10
98.52335745149764
 20
-149.966040001571
 30
0.0
 10
98.45359426792134
 20
-150.2450927358762
 30
0.0
 10
98.37745765769732
 20
-150.5496391767723
 30
0.0
 10
98.06429847808809
 20
-150.8817463815504
 30
0.0
 10
97.82744816347717
 20
-151.131515804231
 30
0.0
 10
97.58198511015311
 20
-151.2310790637547
 30
0.0
 10
97.47622067875596
 20
-151.2731092286748
 30
0.0
 10
97.47622067875596
 20
-151.2731092286748
 30
0.0
 10
97.28157278383934
 20
-151.0912081870536
 30
0.0
 10
97.28157278383934
 20
-151.0912081870536
 30
0.0
 10
97.46778019481709
 20
-151.0446993980027
 30
0.0
 10
97.82951522076832
 20
-150.951681819901
 30
0.0
 10
98.12562117772555
 20
-150.4566215986706
 30
0.0
 10
98.28650713688672
 20
-150.1899712081122
 30
0.0
 10
98.29908173540786
 20
-150.0166829052041
 30
0.0
 10
98.307694474121
 20
-149.9257323843935
 30
0.0
 10
98.307694474121
 20
-149.9257323843935
 30
0.0
 10
97.80195445688633
 20
-149.9257323843935
 30
0.0
 10
97.80195445688633
 20
-149.9257323843935
 30
0.0
 10
97.683615426968
 20
-149.9257323843935
 30
0.0
 10
97.26262475867045
 20
-149.9446804095624
 30
0.0
 10
97.11017928344816
 20
-149.9553602055667
 30
0.0
 10
97.11017928344816
 20
-149.9553602055667
 30
0.0
 10
97.11017928344816
 20
-149.7458984000635
 30
0.0
 10
97.11017928344816
 20
-149.7458984000635
 30
0.0
 10
97.25194496266619
 20
-149.7586452533589
 30
0.0
 10
97.52910289445454
 20
-149.7627793679412
 30
0.0
 10
97.64554712185599
 20
-149.7627793679412
 30
0.0
 10
97.64554712185599
 20
-149.7627793679412
 30
0.0
 10
98.00090872115951
 20
-149.7627793679412
 30
0.0
 10
98.00090872115951
 20
-149.7627793679412
 30
0.0
 10
98.02829723026725
 20
-149.7627793679412
 30
0.0
 10
98.18918318942841
 20
-149.7607123106501
 30
0.0
 10
98.29908173540786
 20
-149.7458984000635
 30
0.0
 10
98.35627032046303
 20
-149.7396972281901
 30
0.0
 10
98.37315128834076
 20
-149.7204046934727
 30
0.0
 10
98.39640568286618
 20
-149.6973225537215
 30
0.0
 10
98.39640568286618
 20
-149.6973225537215
 30
0.0
 10
98.58468015113508
 20
-149.8475287168784
 30
0.0
 10
98.58468015113508
 20
-149.8475287168784
 30
0.0
 10
98.56986624054851
 20
-149.8771565380515
 30
0.0
 10
98.55935869931849
 20
-149.8961045632204
 30
0.0
 10
98.52335745149764
 20
-149.966040001571
 30
0.0
  0
HATCH
  5
146
330
133
100
AcDbEntity
  8
レイヤー 1
 62
    18
420
        0
440
 33554687
100
AcDbHatch
 10
0.0
 20
0.0
 30
0.0
210
0.0
220
0.0
230
1.0
  2
SOLID
 70
     1
 71
     1
 91
        1
 92
        1
 93
        1
 72
     4
 94
        3
 73
     0
 74
     0
 95
       47
 96
       43
 40
0.0
 40
0.0
 40
0.0
 40
0.0
 40
1.0
 40
1.0
 40
1.0
 40
2.0
 40
2.0
 40
2.0
 40
3.0
 40
3.0
 40
3.0
 40
4.0
 40
4.0
 40
4.0
 40
5.0
 40
5.0
 40
5.0
 40
6.0
 40
6.0
 40
6.0
 40
7.0
 40
7.0
 40
7.0
 40
8.0
 40
8.0
 40
8.0
 40
9.0
 40
9.0
 40
9.0
 40
10.0
 40
10.0
 40
10.0
 40
11.0
 40
11.0
 40
11.0
 40
12.0
 40
12.0
 40
12.0
 40
13.0
 40
13.0
 40
13.0
 40
14.0
 40
14.0
 40
14.0
 40
14.0
 10
98.52335745149764
 20
-149.966040001571
 10
98.45359426792134
 20
-150.2450927358762
 10
98.37745765769732
 20
-150.5496391767723
 10
98.06429847808809
 20
-150.8817463815504
 10
97.82744816347717
 20
-151.131515804231
 10
97.58198511015311
 20
-151.2310790637547
 10
97.47622067875596
 20
-151.2731092286748
 10
97.47622067875596
 20
-151.2731092286748
 10
97.28157278383934
 20
-151.0912081870536
 10
97.28157278383934
 20
-151.0912081870536
 10
97.46778019481709
 20
-151.0446993980027
 10
97.82951522076832
 20
-150.951681819901
 10
98.12562117772555
 20
-150.4566215986706
 10
98.28650713688672
 20
-150.1899712081122
 10
98.29908173540786
 20
-150.0166829052041
 10
98.307694474121
 20
-149.9257323843935
 10
98.307694474121
 20
-149.9257323843935
 10
97.80195445688633
 20
-149.9257323843935
 10
97.80195445688633
 20
-149.9257323843935
 10
97.683615426968
 20
-149.9257323843935
 10
97.26262475867045
 20
-149.9446804095624
 10
97.11017928344816
 20
-149.9553602055667
 10
97.11017928344816
 20
-149.9553602055667
 10
97.11017928344816
 20
-149.7458984000635
 10
97.11017928344816
 20
-149.7458984000635
 10
97.25194496266619
 20
-149.7586452533589
 10
97.52910289445454
 20
-149.7627793679412
 10
97.64554712185599
 20
-149.7627793679412
 10
97.64554712185599
 20
-149.7627793679412
 10
98.00090872115951
 20
-149.7627793679412
 10
98.00090872115951
 20
-149.7627793679412
 10
98.02829723026725
 20
-149.7627793679412
 10
98.18918318942841
 20
-149.7607123106501
 10
98.29908173540786
 20
-149.7458984000635
 10
98.35627032046303
 20
-149.7396972281901
 10
98.37315128834076
 20
-149.7204046934727
 10
98.39640568286618
 20
-149.6973225537215
 10
98.39640568286618
 20
-149.6973225537215
 10
98.58468015113508
 20
-149.8475287168784
 10
98.58468015113508
 20
-149.8475287168784
 10
98.56986624054851
 20
-149.8771565380515
 10
98.55935869931849
 20
-149.8961045632204
 10
98.52335745149764
 20
-149.966040001571
 97
        0
 97
        1
330
145
 75
     2
 76
     1
 98
        1
 10
0.0
 20
0.0
450
        0
451
        0
460
0.0
461
0.0
452
        0
462
0.0
453
        0
470

  0
SPLINE
  5
147
330
133
100
AcDbEntity
  8
レイヤー 1
100
AcDbSpline
210
0.0
220
0.0
230
1.0
 70
    11
 71
     3
 72
    17
 73
    13
 74
     0
 42
0.0000000001
 43
0.0000000001
 40
0.0
 40
0.0
 40
0.0
 40
0.0
 40
1.0
 40
1.0
 40
1.0
 40
2.0
 40
2.0
 40
2.0
 40
3.0
 40
3.0
 40
3.0
 40
4.0
 40
4.0
 40
4.0
 40
4.0
 10
98.91368676997645
 20
-149.7479654573547
 30
0.0
 10
98.91368676997645
 20
-149.8072210997009
 30
0.0
 10
98.96019555902732
 20
-149.8537298887518
 30
0.0
 10
99.01945120137362
 20
-149.8537298887518
 30
0.0
 10
99.07870684371992
 20
-149.8537298887518
 30
0.0
 10
99.12728269006194
 20
-149.8072210997009
 30
0.0
 10
99.12728269006194
 20
-149.7479654573547
 30
0.0
 10
99.12728269006194
 20
-149.6887098150084
 30
0.0
 10
99.07870684371992
 20
-149.6401339686663
 30
0.0
 10
99.01945120137362
 20
-149.6401339686663
 30
0.0
 10
98.96019555902732
 20
-149.6401339686663
 30
0.0
 10
98.91368676997645
 20
-149.6887098150084
 30
0.0
 10
98.91368676997645
 20
-149.7479654573547
 30
0.0
  0
SPLINE
  5
148
330
133
100
AcDbEntity
  8
レイヤー 1
100
AcDbSpline
210
0.0
220
0.0
230
1.0
 70
     9
 71
     3
 72
    17
 73
    13
 74
     0
 42
0.0000000001
 43
0.0000000001
 40
0.0
 40
0.0
 40
0.0
 40
0.0
 40
1.0
 40
1.0
 40
1.0
 40
2.0
 40
2.0
 40
2.0
 40
3.0
 40
3.0
 40
3.0
 40
4.0
 40
4.0
 40
4.0
 40
4.0
 10
99.2289130068768
 20
-149.7479654573547
 30
0.0
 10
99.2289130068768
 20
-149.862342627465
 30
0.0
 10
99.13572317400081
 20
-149.9574272628578
 30
0.0
 10
99.01945120137362
 20
-149.9574272628578
 30
0.0
 10
98.90524628603758
 20
-149.9574272628578
 30
0.0
 10
98.80998939587042
 20
-149.862342627465
 30
0.0
 10
98.80998939587042
 20
-149.7479654573547
 30
0.0
 10
98.80998939587042
 20
-149.6315212299532
 30
0.0
 10
98.90524628603758
 20
-149.5385036518515
 30
0.0
 10
99.01945120137362
 20
-149.5385036518515
 30
0.0
 10
99.13365611670965
 20
-149.5385036518515
 30
0.0
 10
99.2289130068768
 20
-149.6315212299532
 30
0.0
 10
99.2289130068768
 20
-149.7479654573547
 30
0.0
  0
HATCH
  5
149
330
133
100
AcDbEntity
  8
レイヤー 1
 62
    18
420
        0
440
 33554687
100
AcDbHatch
 10
0.0
 20
0.0
 30
0.0
210
0.0
220
0.0
230
1.0
  2
SOLID
 70
     1
 71
     1
 91
        2
 92
        1
 93
        1
 72
     4
 94
        3
 73
     0
 74
     0
 95
       17
 96
       13
 40
0.0
 40
0.0
 40
0.0
 40
0.0
 40
1.0
 40
1.0
 40
1.0
 40
2.0
 40
2.0
 40
2.0
 40
3.0
 40
3.0
 40
3.0
 40
4.0
 40
4.0
 40
4.0
 40
4.0
 10
98.91368676997645
 20
-149.7479654573547
 10
98.91368676997645
 20
-149.8072210997009
 10
98.96019555902732
 20
-149.8537298887518
 10
99.01945120137362
 20
-149.8537298887518
 10
99.07870684371992
 20
-149.8537298887518
 10
99.12728269006194
 20
-149.8072210997009
 10
99.12728269006194
 20
-149.7479654573547
 10
99.12728269006194
 20
-149.6887098150084
 10
99.07870684371992
 20
-149.6401339686663
 10
99.01945120137362
 20
-149.6401339686663
 10
98.96019555902732
 20
-149.6401339686663
 10
98.91368676997645
 20
-149.6887098150084
 10
98.91368676997645
 20
-149.7479654573547
 97
        0
 97
        1
330
147
 92
        1
 93
        1
 72
     4
 94
        3
 73
     0
 74
     0
 95
       17
 96
       13
 40
0.0
 40
0.0
 40
0.0
 40
0.0
 40
1.0
 40
1.0
 40
1.0
 40
2.0
 40
2.0
 40
2.0
 40
3.0
 40
3.0
 40
3.0
 40
4.0
 40
4.0
 40
4.0
 40
4.0
 10
99.2289130068768
 20
-149.7479654573547
 10
99.2289130068768
 20
-149.862342627465
 10
99.13572317400081
 20
-149.9574272628578
 10
99.01945120137362
 20
-149.9574272628578
 10
98.90524628603758
 20
-149.9574272628578
 10
98.80998939587042
 20
-149.862342627465
 10
98.80998939587042
 20
-149.7479654573547
 10
98.80998939587042
 20
-149.6315212299532
 10
98.90524628603758
 20
-149.5385036518515
 10
99.01945120137362
 20
-149.5385036518515
 10
99.13365611670965
 20
-149.5385036518515
 10
99.2289130068768
 20
-149.6315212299532
 10
99.2289130068768
 20
-149.7479654573547
 97
        0
 97
        1
330
148
 75
     2
 76
     1
 98
        1
 10
0.0
 20
0.0
450
        0
451
        0
460
0.0
461
0.0
452
        0
462
0.0
453
        0
470

  0
ENDBLK
  5
136
330
133
100
AcDbEntity
  8
0
100
AcDbBlockEnd
  0
ENDSEC
  0
SECTION
  2
ENTITIES
  0
INSERT
  5
7A
330
70
100
AcDbEntity
  8
レイヤー 1
100
AcDbBlockReference
  2
Block_0
 10
0.0
 20
0.0
 30
0.0
  0
ENDSEC
  0
SECTION
  2
OBJECTS
  0
DICTIONARY
  5
C
330
0
100
AcDbDictionary
281
     1
  3
ACAD_COLOR
350
63
  3
ACAD_DETAILVIEWSTYLE
350
6A
  3
ACAD_GROUP
350
D
  3
ACAD_LAYOUT
350
62
  3
ACAD_MATERIAL
350
10
  3
ACAD_MLEADERSTYLE
350
66
  3
ACAD_MLINESTYLE
350
5F
  3
ACAD_PLOTSETTINGS
350
61
  3
ACAD_PLOTSTYLENAME
350
E
  3
ACAD_SCALELIST
350
42
  3
ACAD_SECTIONVIEWSTYLE
350
68
  3
ACAD_TABLESTYLE
350
64
  3
ACAD_VISUALSTYLE
350
29
  3
ACDB_RECOMPOSE_DATA
350
152
  3
AcDbVariableDictionary
350
14A
  0
DICTIONARY
  5
63
102
{ACAD_REACTORS
330
C
102
}
330
C
100
AcDbDictionary
281
     1
  0
DICTIONARY
  5
6A
102
{ACAD_REACTORS
330
C
102
}
330
C
100
AcDbDictionary
281
     1
  3
Imperial24
350
6B
  0
DICTIONARY
  5
D
102
{ACAD_REACTORS
330
C
102
}
330
C
100
AcDbDictionary
281
     1
  0
DICTIONARY
  5
62
102
{ACAD_REACTORS
330
C
102
}
330
C
100
AcDbDictionary
281
     1
  3
Layout1
350
6F
  3
Layout2
350
77
  3
Model
350
73
  0
DICTIONARY
  5
10
102
{ACAD_REACTORS
330
C
102
}
330
C
100
AcDbDictionary
281
     1
  3
ByBlock
350
19
  3
ByLayer
350
11
  3
Global
350
21
  0
DICTIONARY
  5
66
102
{ACAD_REACTORS
330
C
102
}
330
C
100
AcDbDictionary
281
     1
  3
Standard
350
67
  0
DICTIONARY
  5
5F
102
{ACAD_REACTORS
330
C
102
}
330
C
100
AcDbDictionary
281
     1
  3
Standard
350
60
  0
DICTIONARY
  5
61
102
{ACAD_REACTORS
330
C
102
}
330
C
100
AcDbDictionary
281
     1
  0
ACDBDICTIONARYWDFLT
  5
E
102
{ACAD_REACTORS
330
C
102
}
330
C
100
AcDbDictionary
281
     1
  3
Normal
350
F
100
AcDbDictionaryWithDefault
340
F
  0
DICTIONARY
  5
42
102
{ACAD_REACTORS
330
C
102
}
330
C
100
AcDbDictionary
281
     1
  3
A0
350
43
  3
A1
350
44
  3
A2
350
45
  3
A3
350
46
  3
A4
350
47
  3
A5
350
48
  3
A6
350
49
  3
A7
350
4A
  3
A8
350
4B
  3
A9
350
4C
  3
B0
350
4D
  3
B1
350
4E
  3
B2
350
4F
  3
B3
350
50
  3
B4
350
51
  3
B5
350
52
  3
B6
350
53
  0
DICTIONARY
  5
68
102
{ACAD_REACTORS
330
C
102
}
330
C
100
AcDbDictionary
281
     1
  3
Imperial24
350
69
  0
DICTIONARY
  5
64
102
{ACAD_REACTORS
330
C
102
}
330
C
100
AcDbDictionary
281
     1
  3
Standard
350
65
  0
DICTIONARY
  5
29
102
{ACAD_REACTORS
330
C
102
}
330
C
100
AcDbDictionary
281
     1
  3
2dWireframe
350
2F
  3
Basic
350
2E
  3
Brighten
350
35
  3
ColorChange
350
39
  3
Conceptual
350
32
  3
Dim
350
34
  3
EdgeColorOff
350
41
  3
Facepattern
350
38
  3
Flat
350
2A
  3
FlatWithEdges
350
2B
  3
Gouraud
350
2C
  3
GouraudWithEdges
350
2D
  3
Hidden
350
31
  3
JitterOff
350
3F
  3
Linepattern
350
37
  3
OverhangOff
350
40
  3
Realistic
350
33
  3
Shaded
350
3E
  3
Shaded with edges
350
3D
  3
Shades of Gray
350
3A
  3
Sketchy
350
3B
  3
Thicken
350
36
  3
Wireframe
350
30
  3
X-Ray
350
3C
  0
XRECORD
  5
152
102
{ACAD_REACTORS
330
C
102
}
330
C
100
AcDbXrecord
280
     1
 90
        1
330
65
  0
DICTIONARY
  5
14A
102
{ACAD_REACTORS
330
C
102
}
330
C
100
AcDbDictionary
281
     1
  3
CANNOSCALE
350
14F
  3
CMLEADERSTYLE
350
14C
  3
CTABLESTYLE
350
14B
  3
CVIEWDETAILSTYLE
350
14D
  3
CVIEWSECTIONSTYLE
350
14E
  0
ACDBDETAILVIEWSTYLE
  5
6B
102
{ACAD_XDICTIONARY
360
187
102
}
102
{ACAD_REACTORS
330
6A
102
}
330
6A
100
AcDbModelDocViewStyle
 70
     0
  3
Imperial24
290
     0
100
AcDbDetailViewStyle
 70
     0
 71
     0
 90
        3
 71
     1
340
55
 62
   256
 40
0.24
340
0
 62
   256
 40
0.24
300

 40
0.36
280
     3
 71
     2
340
5D
 90
       25
 62
   256
 71
     3
340
55
 62
   256
 40
0.24
 90
        1
 40
0.75
 90
        1
300
%<\AcVar ViewType \f "%tc1">% %<\AcVar ViewDetailId>%\PSCALE %<\AcVar ViewScale \f "%sn">%
 71
     4
340
5D
 90
       25
 62
   256
340
5D
 90
       25
 62
   256
280
     0
  0
LAYOUT
  5
6F
102
{ACAD_REACTORS
330
62
102
}
330
62
100
AcDbPlotSettings
  1

  2

  4

  6

 40
0.0
 41
0.0
 42
0.0
 43
0.0
 44
0.0
 45
0.0
 46
0.0
 47
0.0
 48
0.0
 49
0.0
140
0.0
141
0.0
142
1.0
143
1.0
 70
   688
 72
     0
 73
     0
 74
     5
  7

 75
    16
147
1.0
 76
     0
 77
     2
 78
   300
148
0.0
149
0.0
100
AcDbLayout
  1
Layout1
 70
     1
 71
     1
 10
0.0
 20
0.0
 11
12.0
 21
9.0
 12
0.0
 22
0.0
 32
0.0
 14
0.0
 24
0.0
 34
0.0
 15
0.0
 25
0.0
 35
0.0
146
0.0
 13
0.0
 23
0.0
 33
0.0
 16
1.0
 26
0.0
 36
0.0
 17
0.0
 27
1.0
 37
0.0
 76
     0
330
6C
  0
LAYOUT
  5
77
102
{ACAD_REACTORS
330
62
102
}
330
62
100
AcDbPlotSettings
  1

  2

  4

  6

 40
0.0
 41
0.0
 42
0.0
 43
0.0
 44
0.0
 45
0.0
 46
0.0
 47
0.0
 48
0.0
 49
0.0
140
0.0
141
0.0
142
1.0
143
1.0
 70
   688
 72
     0
 73
     0
 74
     5
  7

 75
    16
147
1.0
 76
     0
 77
     2
 78
   300
148
0.0
149
0.0
100
AcDbLayout
  1
Layout2
 70
     1
 71
     2
 10
0.0
 20
0.0
 11
12.0
 21
9.0
 12
0.0
 22
0.0
 32
0.0
 14
0.0
 24
0.0
 34
0.0
 15
0.0
 25
0.0
 35
0.0
146
0.0
 13
0.0
 23
0.0
 33
0.0
 16
1.0
 26
0.0
 36
0.0
 17
0.0
 27
1.0
 37
0.0
 76
     0
330
74
  0
LAYOUT
  5
73
102
{ACAD_REACTORS
330
62
102
}
330
62
100
AcDbPlotSettings
  1

  2

  4

  6

 40
0.0
 41
0.0
 42
0.0
 43
0.0
 44
0.0
 45
0.0
 46
0.0
 47
0.0
 48
0.0
 49
0.0
140
0.0
141
0.0
142
1.0
143
1.0
 70
  1712
 72
     0
 73
     0
 74
     0
  7

 75
     0
147
1.0
 76
     0
 77
     2
 78
   300
148
0.0
149
0.0
100
AcDbLayout
  1
Model
 70
     1
 71
     0
 10
0.0
 20
0.0
 11
12.0
 21
9.0
 12
0.0
 22
0.0
 32
0.0
 14
0.0
 24
0.0
 34
0.0
 15
0.0
 25
0.0
 35
0.0
146
0.0
 13
0.0
 23
0.0
 33
0.0
 16
1.0
 26
0.0
 36
0.0
 17
0.0
 27
1.0
 37
0.0
 76
     0
330
70
  0
MATERIAL
  5
19
102
{ACAD_XDICTIONARY
360
1A
102
}
102
{ACAD_REACTORS
330
10
102
}
330
10
100
AcDbMaterial
  1
ByBlock
 72
     0
 43
0.0208333333333333
 43
0.0
 43
0.0
 43
0.0
 43
0.0
 43
0.0208333333333333
 43
0.0
 43
0.0
 43
0.0
 43
0.0
 43
1.0
 43
0.0
 43
0.0
 43
0.0
 43
0.0
 43
1.0
 77
     0
 47
0.0208333333333333
 47
0.0
 47
0.0
 47
0.0
 47
0.0
 47
0.0208333333333333
 47
0.0
 47
0.0
 47
0.0
 47
0.0
 47
1.0
 47
0.0
 47
0.0
 47
0.0
 47
0.0
 47
1.0
171
     0
 49
0.0208333333333333
 49
0.0
 49
0.0
 49
0.0
 49
0.0
 49
0.0208333333333333
 49
0.0
 49
0.0
 49
0.0
 49
0.0
 49
1.0
 49
0.0
 49
0.0
 49
0.0
 49
0.0
 49
1.0
175
     0
142
0.0208333333333333
142
0.0
142
0.0
142
0.0
142
0.0
142
0.0208333333333333
142
0.0
142
0.0
142
0.0
142
0.0
142
1.0
142
0.0
142
0.0
142
0.0
142
0.0
142
1.0
179
     0
144
0.0208333333333333
144
0.0
144
0.0
144
0.0
144
0.0
144
0.0208333333333333
144
0.0
144
0.0
144
0.0
144
0.0
144
1.0
144
0.0
144
0.0
144
0.0
144
0.0
144
1.0
147
0.0208333333333333
147
0.0
147
0.0
147
0.0
147
0.0
147
0.0208333333333333
147
0.0
147
0.0
147
0.0
147
0.0
147
1.0
147
0.0
147
0.0
147
0.0
147
0.0
147
1.0
  0
MATERIAL
  5
11
102
{ACAD_XDICTIONARY
360
12
102
}
102
{ACAD_REACTORS
330
10
102
}
330
10
100
AcDbMaterial
  1
ByLayer
 72
     0
 43
0.0208333333333333
 43
0.0
 43
0.0
 43
0.0
 43
0.0
 43
0.0208333333333333
 43
0.0
 43
0.0
 43
0.0
 43
0.0
 43
1.0
 43
0.0
 43
0.0
 43
0.0
 43
0.0
 43
1.0
 77
     0
 47
0.0208333333333333
 47
0.0
 47
0.0
 47
0.0
 47
0.0
 47
0.0208333333333333
 47
0.0
 47
0.0
 47
0.0
 47
0.0
 47
1.0
 47
0.0
 47
0.0
 47
0.0
 47
0.0
 47
1.0
171
     0
 49
0.0208333333333333
 49
0.0
 49
0.0
 49
0.0
 49
0.0
 49
0.0208333333333333
 49
0.0
 49
0.0
 49
0.0
 49
0.0
 49
1.0
 49
0.0
 49
0.0
 49
0.0
 49
0.0
 49
1.0
175
     0
142
0.0208333333333333
142
0.0
142
0.0
142
0.0
142
0.0
142
0.0208333333333333
142
0.0
142
0.0
142
0.0
142
0.0
142
1.0
142
0.0
142
0.0
142
0.0
142
0.0
142
1.0
179
     0
144
0.0208333333333333
144
0.0
144
0.0
144
0.0
144
0.0
144
0.0208333333333333
144
0.0
144
0.0
144
0.0
144
0.0
144
1.0
144
0.0
144
0.0
144
0.0
144
0.0
144
1.0
147
0.0208333333333333
147
0.0
147
0.0
147
0.0
147
0.0
147
0.0208333333333333
147
0.0
147
0.0
147
0.0
147
0.0
147
1.0
147
0.0
147
0.0
147
0.0
147
0.0
147
1.0
  0
MATERIAL
  5
21
102
{ACAD_XDICTIONARY
360
22
102
}
102
{ACAD_REACTORS
330
10
102
}
330
10
100
AcDbMaterial
  1
Global
 72
     0
 43
0.0208333333333333
 43
0.0
 43
0.0
 43
0.0
 43
0.0
 43
0.0208333333333333
 43
0.0
 43
0.0
 43
0.0
 43
0.0
 43
1.0
 43
0.0
 43
0.0
 43
0.0
 43
0.0
 43
1.0
 77
     0
 47
0.0208333333333333
 47
0.0
 47
0.0
 47
0.0
 47
0.0
 47
0.0208333333333333
 47
0.0
 47
0.0
 47
0.0
 47
0.0
 47
1.0
 47
0.0
 47
0.0
 47
0.0
 47
0.0
 47
1.0
171
     0
 49
0.0208333333333333
 49
0.0
 49
0.0
 49
0.0
 49
0.0
 49
0.0208333333333333
 49
0.0
 49
0.0
 49
0.0
 49
0.0
 49
1.0
 49
0.0
 49
0.0
 49
0.0
 49
0.0
 49
1.0
175
     0
142
0.0208333333333333
142
0.0
142
0.0
142
0.0
142
0.0
142
0.0208333333333333
142
0.0
142
0.0
142
0.0
142
0.0
142
1.0
142
0.0
142
0.0
142
0.0
142
0.0
142
1.0
179
     0
144
0.0208333333333333
144
0.0
144
0.0
144
0.0
144
0.0
144
0.0208333333333333
144
0.0
144
0.0
144
0.0
144
0.0
144
1.0
144
0.0
144
0.0
144
0.0
144
0.0
144
1.0
147
0.0208333333333333
147
0.0
147
0.0
147
0.0
147
0.0
147
0.0208333333333333
147
0.0
147
0.0
147
0.0
147
0.0
147
1.0
147
0.0
147
0.0
147
0.0
147
0.0
147
1.0
  0
MLEADERSTYLE
  5
67
102
{ACAD_XDICTIONARY
360
183
102
}
102
{ACAD_REACTORS
330
66
102
}
330
66
100
AcDbMLeaderStyle
179
     2
170
     2
171
     1
172
     0
 90
        2
 40
0.0
 41
0.0
173
     1
 91
-1056964608
340
5B
 92
       -2
290
     1
 42
0.09
291
     1
 43
0.36
  3
Standard
 44
0.18
300

342
55
174
     1
178
     6
175
     1
176
     0
 93
-1056964608
 45
0.18
292
     0
297
     0
 46
0.18
 94
-1056964608
 47
1.0
 49
1.0
140
1.0
293
     1
141
0.0
294
     1
177
     0
142
1.0
295
     0
296
     0
143
0.125
271
     0
272
     9
273
     9
  0
MLINESTYLE
  5
60
102
{ACAD_REACTORS
330
5F
102
}
330
5F
100
AcDbMlineStyle
  2
STANDARD
 70
     0
  3

 62
   256
 51
90.0
 52
90.0
 71
     2
 49
0.5
 62
   256
  6
BYLAYER
 49
-0.5
 62
   256
  6
BYLAYER
  0
ACDBPLACEHOLDER
  5
F
102
{ACAD_REACTORS
330
E
102
}
330
E
  0
SCALE
  5
43
102
{ACAD_REACTORS
330
42
102
}
330
42
100
AcDbScale
 70
     0
300
1:1
140
1.0
141
1.0
290
     1
  0
SCALE
  5
44
102
{ACAD_REACTORS
330
42
102
}
330
42
100
AcDbScale
 70
     0
300
1/128" = 1'-0"
140
0.0078125
141
12.0
290
     0
  0
SCALE
  5
45
102
{ACAD_REACTORS
330
42
102
}
330
42
100
AcDbScale
 70
     0
300
1/64" = 1'-0"
140
0.015625
141
12.0
290
     0
  0
SCALE
  5
46
102
{ACAD_REACTORS
330
42
102
}
330
42
100
AcDbScale
 70
     0
300
1/32" = 1'-0"
140
0.03125
141
12.0
290
     0
  0
SCALE
  5
47
102
{ACAD_REACTORS
330
42
102
}
330
42
100
AcDbScale
 70
     0
300
1/16" = 1'-0"
140
0.0625
141
12.0
290
     0
  0
SCALE
  5
48
102
{ACAD_REACTORS
330
42
102
}
330
42
100
AcDbScale
 70
     0
300
3/32" = 1'-0"
140
0.09375
141
12.0
290
     0
  0
SCALE
  5
49
102
{ACAD_REACTORS
330
42
102
}
330
42
100
AcDbScale
 70
     0
300
1/8" = 1'-0"
140
0.125
141
12.0
290
     0
  0
SCALE
  5
4A
102
{ACAD_REACTORS
330
42
102
}
330
42
100
AcDbScale
 70
     0
300
3/16" = 1'-0"
140
0.1875
141
12.0
290
     0
  0
SCALE
  5
4B
102
{ACAD_REACTORS
330
42
102
}
330
42
100
AcDbScale
 70
     0
300
1/4" = 1'-0"
140
0.25
141
12.0
290
     0
  0
SCALE
  5
4C
102
{ACAD_REACTORS
330
42
102
}
330
42
100
AcDbScale
 70
     0
300
3/8" = 1'-0"
140
0.375
141
12.0
290
     0
  0
SCALE
  5
4D
102
{ACAD_REACTORS
330
42
102
}
330
42
100
AcDbScale
 70
     0
300
1/2" = 1'-0"
140
0.5
141
12.0
290
     0
  0
SCALE
  5
4E
102
{ACAD_REACTORS
330
42
102
}
330
42
100
AcDbScale
 70
     0
300
3/4" = 1'-0"
140
0.75
141
12.0
290
     0
  0
SCALE
  5
4F
102
{ACAD_REACTORS
330
42
102
}
330
42
100
AcDbScale
 70
     0
300
1" = 1'-0"
140
1.0
141
12.0
290
     0
  0
SCALE
  5
50
102
{ACAD_REACTORS
330
42
102
}
330
42
100
AcDbScale
 70
     0
300
1-1/2" = 1'-0"
140
1.5
141
12.0
290
     0
  0
SCALE
  5
51
102
{ACAD_REACTORS
330
42
102
}
330
42
100
AcDbScale
 70
     0
300
3" = 1'-0"
140
3.0
141
12.0
290
     0
  0
SCALE
  5
52
102
{ACAD_REACTORS
330
42
102
}
330
42
100
AcDbScale
 70
     0
300
6" = 1'-0"
140
6.0
141
12.0
290
     0
  0
SCALE
  5
53
102
{ACAD_REACTORS
330
42
102
}
330
42
100
AcDbScale
 70
     0
300
1'-0" = 1'-0"
140
12.0
141
12.0
290
     0
  0
ACDBSECTIONVIEWSTYLE
  5
69
102
{ACAD_XDICTIONARY
360
185
102
}
102
{ACAD_REACTORS
330
68
102
}
330
68
100
AcDbModelDocViewStyle
 70
     0
  3
Imperial24
290
     0
100
AcDbSectionViewStyle
 70
     0
 71
     0
 90
       78
 71
     1
340
55
 62
   256
 40
0.24
340
0
340
0
 62
   256
 40
0.24
300
I, O, Q, S, X, Z
 40
0.48
 90
        3
 40
0.18
 90
        1
 71
     2
340
5D
 90
       25
 62
   256
340
5D
 90
       50
 62
   256
 40
0.24
 40
0.0
 40
0.24
 71
     3
340
55
 62
   256
 40
0.24
 90
        1
 40
0.75
 90
        1
300
%<\AcVar ViewType \f "%tc1">% %<\AcVar ViewSectionStartId>%-%<\AcVar ViewSectionEndId>%\PSCALE %<\AcVar ViewScale \f "%sn">%
 71
     4
 62
   256
 62
   257
300
ANSI31
 40
1.0
 90
        0
290
     0
290
     0
 90
        6
 40
0.0
 40
1.570796326794896
 40
0.2617993877991494
 40
1.308996938995747
 40
-0.2617993877991494
 40
1.832595714594046
  0
TABLESTYLE
  5
65
102
{ACAD_XDICTIONARY
360
150
102
}
102
{ACAD_REACTORS
330
64
102
}
330
64
100
AcDbTableStyle
280
     0
  3
Standard
 70
     0
 71
     0
 40
0.06
 41
0.06
280
     0
281
     0
  7
Standard
140
0.18
170
     2
 62
     0
 63
     7
283
     0
 90
      512
 91
        0
  1

274
    -2
284
     1
 64
     0
275
    -2
285
     1
 65
     0
276
    -2
286
     1
 66
     0
277
    -2
287
     1
 67
     0
278
    -2
288
     1
 68
     0
279
    -2
289
     1
 69
     0
  7
Standard
140
0.25
170
     5
 62
     0
 63
     7
283
     0
 90
      512
 91
        0
  1

274
    -2
284
     1
 64
     0
275
    -2
285
     1
 65
     0
276
    -2
286
     1
 66
     0
277
    -2
287
     1
 67
     0
278
    -2
288
     1
 68
     0
279
    -2
289
     1
 69
     0
  7
Standard
140
0.18
170
     5
 62
     0
 63
     7
283
     0
 90
      512
 91
        0
  1

274
    -2
284
     1
 64
     0
275
    -2
285
     1
 65
     0
276
    -2
286
     1
 66
     0
277
    -2
287
     1
 67
     0
278
    -2
288
     1
 68
     0
279
    -2
289
     1
 69
     0
  0
VISUALSTYLE
  5
2F
102
{ACAD_XDICTIONARY
360
15D
102
}
102
{ACAD_REACTORS
330
29
102
}
330
29
100
AcDbVisualStyle
  2
2dWireframe
 70
     4
177
     2
291
     0
 71
     0
176
     1
 72
     2
176
     1
 73
     0
176
     1
 90
        0
176
     1
 40
0.6
176
     1
 41
30.0
176
     1
 63
     7
421
 16777215
176
     1
 74
     1
176
     1
 91
        4
176
     1
 64
     7
176
     1
 65
   257
176
     1
 75
     1
176
     1
175
     1
176
     1
 42
1.0
176
     1
 92
        0
176
     1
 66
   257
176
     1
 43
1.0
176
     1
 76
     1
176
     1
 77
     6
176
     1
 78
     2
176
     1
 67
     7
176
     1
 79
     5
176
     1
170
     0
176
     1
171
     0
176
     1
290
     0
176
     1
 93
        1
176
     1
 44
0.0
176
     1
173
     0
176
     1
1001
ACAD
1000
AcDbSavedByObjectVersion
1070
     0
  0
VISUALSTYLE
  5
2E
102
{ACAD_XDICTIONARY
360
15B
102
}
102
{ACAD_REACTORS
330
29
102
}
330
29
100
AcDbVisualStyle
  2
Basic
 70
     7
177
     2
291
     1
 71
     1
176
     1
 72
     0
176
     1
 73
     1
176
     1
 90
        0
176
     1
 40
0.6
176
     1
 41
30.0
176
     1
 63
     7
421
 16777215
176
     1
 74
     0
176
     1
 91
        4
176
     1
 64
     7
176
     1
 65
   257
176
     1
 75
     1
176
     1
175
     1
176
     1
 42
1.0
176
     1
 92
        8
176
     1
 66
     7
176
     1
 43
1.0
176
     1
 76
     1
176
     1
 77
     6
176
     1
 78
     2
176
     1
 67
     7
176
     1
 79
     5
176
     1
170
     0
176
     1
171
     0
176
     1
290
     0
176
     1
 93
        1
176
     1
 44
0.0
176
     1
173
     0
176
     1
1001
ACAD
1000
AcDbSavedByObjectVersion
1070
     0
  0
VISUALSTYLE
  5
35
102
{ACAD_XDICTIONARY
360
169
102
}
102
{ACAD_REACTORS
330
29
102
}
330
29
100
AcDbVisualStyle
  2
Brighten
 70
    12
177
     2
291
     1
 71
     2
176
     1
 72
     2
176
     1
 73
     0
176
     1
 90
        0
176
     1
 40
0.6
176
     1
 41
30.0
176
     1
 63
     7
421
 16777215
176
     1
 74
     1
176
     1
 91
        4
176
     1
 64
     7
176
     1
 65
   257
176
     1
 75
     1
176
     1
175
     1
176
     1
 42
1.0
176
     1
 92
        8
176
     1
 66
     7
176
     1
 43
1.0
176
     1
 76
     1
176
     1
 77
     6
176
     1
 78
     2
176
     1
 67
     7
176
     1
 79
     5
176
     1
170
     0
176
     1
171
     0
176
     1
290
     0
176
     1
 93
        1
176
     1
 44
50.0
176
     1
173
     0
176
     1
1001
ACAD
1000
AcDbSavedByObjectVersion
1070
     0
  0
VISUALSTYLE
  5
39
102
{ACAD_XDICTIONARY
360
171
102
}
102
{ACAD_REACTORS
330
29
102
}
330
29
100
AcDbVisualStyle
  2
ColorChange
 70
    16
177
     2
291
     1
 71
     2
176
     1
 72
     2
176
     1
 73
     3
176
     1
 90
        0
176
     1
 40
0.6
176
     1
 41
30.0
176
     1
 63
     8
421
  8421504
176
     1
 74
     1
176
     1
 91
        4
176
     1
 64
     7
176
     1
 65
   257
176
     1
 75
     1
176
     1
175
     1
176
     1
 42
1.0
176
     1
 92
        8
176
     1
 66
     8
424
  8421504
176
     1
 43
1.0
176
     1
 76
     1
176
     1
 77
     6
176
     1
 78
     2
176
     1
 67
     7
176
     1
 79
     5
176
     1
170
     0
176
     1
171
     0
176
     1
290
     0
176
     1
 93
        1
176
     1
 44
0.0
176
     1
173
     0
176
     1
1001
ACAD
1000
AcDbSavedByObjectVersion
1070
     0
  0
VISUALSTYLE
  5
32
102
{ACAD_XDICTIONARY
360
163
102
}
102
{ACAD_REACTORS
330
29
102
}
330
29
100
AcDbVisualStyle
  2
Conceptual
 70
     9
177
     2
291
     0
 71
     3
176
     1
 72
     2
176
     1
 73
     0
176
     1
 90
        0
176
     1
 40
0.6
176
     1
 41
30.0
176
     1
 63
     7
421
 16777215
176
     1
 74
     2
176
     1
 91
        2
176
     1
 64
     7
176
     1
 65
   257
176
     1
 75
     1
176
     1
175
     1
176
     1
 42
179.0
176
     1
 92
        8
176
     1
 66
     7
176
     1
 43
1.0
176
     1
 76
     1
176
     1
 77
     6
176
     1
 78
     2
176
     1
 67
     7
176
     1
 79
     3
176
     1
170
     0
176
     1
171
     0
176
     1
290
     0
176
     1
 93
        1
176
     1
 44
0.0
176
     1
173
     0
176
     1
1001
ACAD
1000
AcDbSavedByObjectVersion
1070
     0
  0
VISUALSTYLE
  5
34
102
{ACAD_XDICTIONARY
360
167
102
}
102
{ACAD_REACTORS
330
29
102
}
330
29
100
AcDbVisualStyle
  2
Dim
 70
    11
177
     2
291
     1
 71
     2
176
     1
 72
     2
176
     1
 73
     0
176
     1
 90
        0
176
     1
 40
0.6
176
     1
 41
30.0
176
     1
 63
     7
421
 16777215
176
     1
 74
     1
176
     1
 91
        4
176
     1
 64
     7
176
     1
 65
   257
176
     1
 75
     1
176
     1
175
     1
176
     1
 42
1.0
176
     1
 92
        8
176
     1
 66
     7
176
     1
 43
1.0
176
     1
 76
     1
176
     1
 77
     6
176
     1
 78
     2
176
     1
 67
     7
176
     1
 79
     5
176
     1
170
     0
176
     1
171
     0
176
     1
290
     0
176
     1
 93
        1
176
     1
 44
-50.0
176
     1
173
     0
176
     1
1001
ACAD
1000
AcDbSavedByObjectVersion
1070
     0
  0
VISUALSTYLE
  5
41
102
{ACAD_XDICTIONARY
360
181
102
}
102
{ACAD_REACTORS
330
29
102
}
330
29
100
AcDbVisualStyle
  2
EdgeColorOff
 70
    22
177
     2
291
     1
 71
     2
176
     0
 72
     2
176
     0
 73
     0
176
     0
 90
        0
176
     0
 40
0.6
176
     0
 41
30.0
176
     0
 63
     7
421
 16777215
176
     0
 74
     1
176
     0
 91
        4
176
     0
 64
     7
176
     0
 65
   257
176
     0
 75
     1
176
     0
175
     1
176
     0
 42
1.0
176
     0
 92
        8
176
     2
 66
     7
176
     0
 43
1.0
176
     0
 76
     1
176
     0
 77
     6
176
     0
 78
     2
176
     0
 67
     7
176
     0
 79
     5
176
     0
170
     0
176
     0
171
     0
176
     0
290
     0
176
     0
 93
        1
176
     0
 44
0.0
176
     0
173
     0
176
     0
1001
ACAD
1000
AcDbSavedByObjectVersion
1070
     0
  0
VISUALSTYLE
  5
38
102
{ACAD_XDICTIONARY
360
16F
102
}
102
{ACAD_REACTORS
330
29
102
}
330
29
100
AcDbVisualStyle
  2
Facepattern
 70
    15
177
     2
291
     1
 71
     2
176
     1
 72
     2
176
     1
 73
     0
176
     1
 90
        0
176
     1
 40
0.6
176
     1
 41
30.0
176
     1
 63
     7
421
 16777215
176
     1
 74
     1
176
     1
 91
        4
176
     1
 64
     7
176
     1
 65
   257
176
     1
 75
     1
176
     1
175
     1
176
     1
 42
1.0
176
     1
 92
        8
176
     1
 66
     7
176
     1
 43
1.0
176
     1
 76
     1
176
     1
 77
     6
176
     1
 78
     2
176
     1
 67
     7
176
     1
 79
     5
176
     1
170
     0
176
     1
171
     0
176
     1
290
     0
176
     1
 93
        1
176
     1
 44
0.0
176
     1
173
     0
176
     1
1001
ACAD
1000
AcDbSavedByObjectVersion
1070
     0
  0
VISUALSTYLE
  5
2A
102
{ACAD_XDICTIONARY
360
153
102
}
102
{ACAD_REACTORS
330
29
102
}
330
29
100
AcDbVisualStyle
  2
Flat
 70
     0
177
     2
291
     1
 71
     2
176
     1
 72
     1
176
     1
 73
     1
176
     1
 90
        2
176
     1
 40
0.6
176
     1
 41
30.0
176
     1
 63
     7
421
 16777215
176
     1
 74
     0
176
     1
 91
        0
176
     1
 64
     7
176
     1
 65
   257
176
     1
 75
     1
176
     1
175
     1
176
     1
 42
1.0
176
     1
 92
        8
176
     1
 66
     7
176
     1
 43
1.0
176
     1
 76
     1
176
     1
 77
     6
176
     1
 78
     2
176
     1
 67
     7
176
     1
 79
     5
176
     1
170
     0
176
     1
171
     0
176
     1
290
     0
176
     1
 93
       13
176
     1
 44
0.0
176
     1
173
     0
176
     1
1001
ACAD
1000
AcDbSavedByObjectVersion
1070
     0
  0
VISUALSTYLE
  5
2B
102
{ACAD_XDICTIONARY
360
155
102
}
102
{ACAD_REACTORS
330
29
102
}
330
29
100
AcDbVisualStyle
  2
FlatWithEdges
 70
     1
177
     2
291
     1
 71
     2
176
     1
 72
     1
176
     1
 73
     1
176
     1
 90
        2
176
     1
 40
0.6
176
     1
 41
30.0
176
     1
 63
     7
421
 16777215
176
     1
 74
     1
176
     1
 91
        0
176
     1
 64
     7
176
     1
 65
   257
176
     1
 75
     1
176
     1
175
     1
176
     1
 42
1.0
176
     1
 92
        0
176
     1
 66
   257
176
     1
 43
1.0
176
     1
 76
     1
176
     1
 77
     6
176
     1
 78
     2
176
     1
 67
     7
176
     1
 79
     5
176
     1
170
     0
176
     1
171
     0
176
     1
290
     0
176
     1
 93
       13
176
     1
 44
0.0
176
     1
173
     0
176
     1
1001
ACAD
1000
AcDbSavedByObjectVersion
1070
     0
  0
VISUALSTYLE
  5
2C
102
{ACAD_XDICTIONARY
360
157
102
}
102
{ACAD_REACTORS
330
29
102
}
330
29
100
AcDbVisualStyle
  2
Gouraud
 70
     2
177
     2
291
     1
 71
     2
176
     1
 72
     2
176
     1
 73
     1
176
     1
 90
        2
176
     1
 40
0.6
176
     1
 41
30.0
176
     1
 63
     7
421
 16777215
176
     1
 74
     0
176
     1
 91
        0
176
     1
 64
     7
176
     1
 65
   257
176
     1
 75
     1
176
     1
175
     1
176
     1
 42
1.0
176
     1
 92
        0
176
     1
 66
     7
176
     1
 43
1.0
176
     1
 76
     1
176
     1
 77
     6
176
     1
 78
     2
176
     1
 67
     7
176
     1
 79
     5
176
     1
170
     0
176
     1
171
     0
176
     1
290
     0
176
     1
 93
       13
176
     1
 44
0.0
176
     1
173
     0
176
     1
1001
ACAD
1000
AcDbSavedByObjectVersion
1070
     0
  0
VISUALSTYLE
  5
2D
102
{ACAD_XDICTIONARY
360
159
102
}
102
{ACAD_REACTORS
330
29
102
}
330
29
100
AcDbVisualStyle
  2
GouraudWithEdges
 70
     3
177
     2
291
     1
 71
     2
176
     1
 72
     2
176
     1
 73
     1
176
     1
 90
        2
176
     1
 40
0.6
176
     1
 41
30.0
176
     1
 63
     7
421
 16777215
176
     1
 74
     1
176
     1
 91
        0
176
     1
 64
     7
176
     1
 65
   257
176
     1
 75
     1
176
     1
175
     1
176
     1
 42
1.0
176
     1
 92
        0
176
     1
 66
   257
176
     1
 43
1.0
176
     1
 76
     1
176
     1
 77
     6
176
     1
 78
     2
176
     1
 67
     7
176
     1
 79
     5
176
     1
170
     0
176
     1
171
     0
176
     1
290
     0
176
     1
 93
       13
176
     1
 44
0.0
176
     1
173
     0
176
     1
1001
ACAD
1000
AcDbSavedByObjectVersion
1070
     0
  0
VISUALSTYLE
  5
31
102
{ACAD_XDICTIONARY
360
161
102
}
102
{ACAD_REACTORS
330
29
102
}
330
29
100
AcDbVisualStyle
  2
Hidden
 70
     6
177
     2
291
     0
 71
     1
176
     1
 72
     2
176
     1
 73
     2
176
     1
 90
        0
176
     1
 40
0.6
176
     1
 41
30.0
176
     1
 63
     7
421
 16777215
176
     1
 74
     2
176
     1
 91
        2
176
     1
 64
     7
176
     1
 65
   257
176
     1
 75
     2
176
     1
175
     1
176
     1
 42
40.0
176
     1
 92
        0
176
     1
 66
   257
176
     1
 43
1.0
176
     1
 76
     1
176
     1
 77
     6
176
     1
 78
     2
176
     1
 67
     7
176
     1
 79
     3
176
     1
170
     0
176
     1
171
     0
176
     1
290
     0
176
     1
 93
        1
176
     1
 44
0.0
176
     1
173
     0
176
     1
1001
ACAD
1000
AcDbSavedByObjectVersion
1070
     0
  0
VISUALSTYLE
  5
3F
102
{ACAD_XDICTIONARY
360
17D
102
}
102
{ACAD_REACTORS
330
29
102
}
330
29
100
AcDbVisualStyle
  2
JitterOff
 70
    20
177
     2
291
     1
 71
     2
176
     0
 72
     2
176
     0
 73
     0
176
     0
 90
        0
176
     0
 40
0.6
176
     0
 41
30.0
176
     0
 63
     7
421
 16777215
176
     0
 74
     1
176
     0
 91
        4
176
     0
 64
     7
176
     0
 65
   257
176
     0
 75
     1
176
     0
175
     1
176
     0
 42
1.0
176
     0
 92
       10
176
     2
 66
     7
176
     0
 43
1.0
176
     0
 76
     1
176
     0
 77
     6
176
     0
 78
     2
176
     0
 67
     7
176
     0
 79
     5
176
     0
170
     0
176
     0
171
     0
176
     0
290
     0
176
     0
 93
        1
176
     0
 44
0.0
176
     0
173
     0
176
     0
1001
ACAD
1000
AcDbSavedByObjectVersion
1070
     0
  0
VISUALSTYLE
  5
37
102
{ACAD_XDICTIONARY
360
16D
102
}
102
{ACAD_REACTORS
330
29
102
}
330
29
100
AcDbVisualStyle
  2
Linepattern
 70
    14
177
     2
291
     1
 71
     2
176
     1
 72
     2
176
     1
 73
     0
176
     1
 90
        0
176
     1
 40
0.6
176
     1
 41
30.0
176
     1
 63
     7
421
 16777215
176
     1
 74
     1
176
     1
 91
        4
176
     1
 64
     7
176
     1
 65
   257
176
     1
 75
     7
176
     1
175
     7
176
     1
 42
1.0
176
     1
 92
        8
176
     1
 66
     7
176
     1
 43
1.0
176
     1
 76
     1
176
     1
 77
     6
176
     1
 78
     2
176
     1
 67
     7
176
     1
 79
     5
176
     1
170
     0
176
     1
171
     0
176
     1
290
     0
176
     1
 93
        1
176
     1
 44
0.0
176
     1
173
     0
176
     1
1001
ACAD
1000
AcDbSavedByObjectVersion
1070
     0
  0
VISUALSTYLE
  5
40
102
{ACAD_XDICTIONARY
360
17F
102
}
102
{ACAD_REACTORS
330
29
102
}
330
29
100
AcDbVisualStyle
  2
OverhangOff
 70
    21
177
     2
291
     1
 71
     2
176
     0
 72
     2
176
     0
 73
     0
176
     0
 90
        0
176
     0
 40
0.6
176
     0
 41
30.0
176
     0
 63
     7
421
 16777215
176
     0
 74
     1
176
     0
 91
        4
176
     0
 64
     7
176
     0
 65
   257
176
     0
 75
     1
176
     0
175
     1
176
     0
 42
1.0
176
     0
 92
        9
176
     2
 66
     7
176
     0
 43
1.0
176
     0
 76
     1
176
     0
 77
     6
176
     0
 78
     2
176
     0
 67
     7
176
     0
 79
     5
176
     0
170
     0
176
     0
171
     0
176
     0
290
     0
176
     0
 93
        1
176
     0
 44
0.0
176
     0
173
     0
176
     0
1001
ACAD
1000
AcDbSavedByObjectVersion
1070
     0
  0
VISUALSTYLE
  5
33
102
{ACAD_XDICTIONARY
360
165
102
}
102
{ACAD_REACTORS
330
29
102
}
330
29
100
AcDbVisualStyle
  2
Realistic
 70
     8
177
     2
291
     0
 71
     2
176
     1
 72
     3
176
     1
 73
     0
176
     1
 90
        2
176
     1
 40
0.6
176
     1
 41
30.0
176
     1
 63
     7
421
 16777215
176
     1
 74
     0
176
     1
 91
        0
176
     1
 64
     7
176
     1
 65
   257
176
     1
 75
     1
176
     1
175
     1
176
     1
 42
1.0
176
     1
 92
        8
176
     1
 66
   257
176
     1
 43
1.0
176
     1
 76
     1
176
     1
 77
     6
176
     1
 78
     2
176
     1
 67
     7
176
     1
 79
     3
176
     1
170
     0
176
     1
171
     0
176
     1
290
     0
176
     1
 93
       13
176
     1
 44
0.0
176
     1
173
     0
176
     1
1001
ACAD
1000
AcDbSavedByObjectVersion
1070
     0
  0
VISUALSTYLE
  5
3E
102
{ACAD_XDICTIONARY
360
17B
102
}
102
{ACAD_REACTORS
330
29
102
}
330
29
100
AcDbVisualStyle
  2
Shaded
 70
    27
177
     2
291
     0
 71
     2
176
     1
 72
     2
176
     1
 73
     1
176
     1
 90
        2
176
     1
 40
0.6
176
     1
 41
30.0
176
     1
 63
     7
421
 16777215
176
     1
 74
     0
176
     1
 91
        4
176
     1
 64
     7
176
     1
 65
   257
176
     1
 75
     1
176
     1
175
     1
176
     1
 42
1.0
176
     1
 92
        8
176
     1
 66
   257
176
     1
 43
1.0
176
     1
 76
     1
176
     1
 77
     6
176
     1
 78
     2
176
     1
 67
     8
425
  7895160
176
     1
 79
     3
176
     1
170
     0
176
     1
171
     0
176
     1
290
     0
176
     1
 93
        5
176
     1
 44
0.0
176
     1
173
     0
176
     1
1001
ACAD
1000
AcDbSavedByObjectVersion
1070
     0
  0
VISUALSTYLE
  5
3D
102
{ACAD_XDICTIONARY
360
179
102
}
102
{ACAD_REACTORS
330
29
102
}
330
29
100
AcDbVisualStyle
  2
Shaded with edges
 70
    26
177
     2
291
     0
 71
     2
176
     1
 72
     2
176
     1
 73
     1
176
     1
 90
        2
176
     1
 40
0.6
176
     1
 41
30.0
176
     1
 63
     7
421
 16777215
176
     1
 74
     1
176
     1
 91
        2
176
     1
 64
     7
176
     1
 65
   257
176
     1
 75
     2
176
     1
175
     1
176
     1
 42
1.0
176
     1
 92
        8
176
     1
 66
   257
176
     1
 43
1.0
176
     1
 76
     1
176
     1
 77
     6
176
     1
 78
     2
176
     1
 67
     7
176
     1
 79
     3
176
     1
170
     0
176
     1
171
     0
176
     1
290
     0
176
     1
 93
        5
176
     1
 44
0.0
176
     1
173
     0
176
     1
1001
ACAD
1000
AcDbSavedByObjectVersion
1070
     0
  0
VISUALSTYLE
  5
3A
102
{ACAD_XDICTIONARY
360
173
102
}
102
{ACAD_REACTORS
330
29
102
}
330
29
100
AcDbVisualStyle
  2
Shades of Gray
 70
    23
177
     2
291
     0
 71
     2
176
     1
 72
     2
176
     1
 73
     3
176
     1
 90
        0
176
     1
 40
0.6
176
     1
 41
30.0
176
     1
 63
     7
421
 16777215
176
     1
 74
     2
176
     1
 91
        2
176
     1
 64
     7
176
     1
 65
     7
176
     1
 75
     1
176
     1
175
     1
176
     1
 42
40.0
176
     1
 92
        8
176
     1
 66
     7
176
     1
 43
1.0
176
     1
 76
     1
176
     1
 77
     6
176
     1
 78
     2
176
     1
 67
     7
176
     1
 79
     3
176
     1
170
     0
176
     1
171
     0
176
     1
290
     0
176
     1
 93
        1
176
     1
 44
0.0
176
     1
173
     0
176
     1
1001
ACAD
1000
AcDbSavedByObjectVersion
1070
     0
  0
VISUALSTYLE
  5
3B
102
{ACAD_XDICTIONARY
360
175
102
}
102
{ACAD_REACTORS
330
29
102
}
330
29
100
AcDbVisualStyle
  2
Sketchy
 70
    24
177
     2
291
     0
 71
     1
176
     1
 72
     2
176
     1
 73
     2
176
     1
 90
        0
176
     1
 40
0.6
176
     1
 41
30.0
176
     1
 63
     7
421
 16777215
176
     1
 74
     2
176
     1
 91
        2
176
     1
 64
     7
176
     1
 65
     7
176
     1
 75
     1
176
     1
175
     1
176
     1
 42
40.0
176
     1
 92
       11
176
     1
 66
     7
176
     1
 43
1.0
176
     1
 76
     1
176
     1
 77
     6
176
     1
 78
     2
176
     1
 67
     7
176
     1
 79
     6
176
     1
170
     0
176
     1
171
     0
176
     1
290
     0
176
     1
 93
        1
176
     1
 44
0.0
176
     1
173
     0
176
     1
1001
ACAD
1000
AcDbSavedByObjectVersion
1070
     0
  0
VISUALSTYLE
  5
36
102
{ACAD_XDICTIONARY
360
16B
102
}
102
{ACAD_REACTORS
330
29
102
}
330
29
100
AcDbVisualStyle
  2
Thicken
 70
    13
177
     2
291
     1
 71
     2
176
     1
 72
     2
176
     1
 73
     0
176
     1
 90
        0
176
     1
 40
0.6
176
     1
 41
30.0
176
     1
 63
     7
421
 16777215
176
     1
 74
     1
176
     1
 91
        4
176
     1
 64
     7
176
     1
 65
   257
176
     1
 75
     1
176
     1
175
     1
176
     1
 42
1.0
176
     1
 92
       12
176
     1
 66
     7
176
     1
 43
1.0
176
     1
 76
     1
176
     1
 77
     6
176
     1
 78
     2
176
     1
 67
     7
176
     1
 79
     5
176
     1
170
     0
176
     1
171
     0
176
     1
290
     0
176
     1
 93
        1
176
     1
 44
0.0
176
     1
173
     0
176
     1
1001
ACAD
1000
AcDbSavedByObjectVersion
1070
     0
  0
VISUALSTYLE
  5
30
102
{ACAD_XDICTIONARY
360
15F
102
}
102
{ACAD_REACTORS
330
29
102
}
330
29
100
AcDbVisualStyle
  2
Wireframe
 70
     5
177
     2
291
     0
 71
     0
176
     1
 72
     2
176
     1
 73
     0
176
     1
 90
        0
176
     1
 40
0.6
176
     1
 41
30.0
176
     1
 63
     7
421
 16777215
176
     1
 74
     1
176
     1
 91
        4
176
     1
 64
     7
176
     1
 65
   257
176
     1
 75
     1
176
     1
175
     1
176
     1
 42
1.0
176
     1
 92
        0
176
     1
 66
   257
176
     1
 43
1.0
176
     1
 76
     1
176
     1
 77
     6
176
     1
 78
     2
176
     1
 67
     7
176
     1
 79
     3
176
     1
170
     0
176
     1
171
     0
176
     1
290
     0
176
     1
 93
        1
176
     1
 44
0.0
176
     1
173
     0
176
     1
1001
ACAD
1000
AcDbSavedByObjectVersion
1070
     0
  0
VISUALSTYLE
  5
3C
102
{ACAD_XDICTIONARY
360
177
102
}
102
{ACAD_REACTORS
330
29
102
}
330
29
100
AcDbVisualStyle
  2
X-Ray
 70
    25
177
     2
291
     0
 71
     2
176
     1
 72
     2
176
     1
 73
     1
176
     1
 90
        1
176
     1
 40
0.5
176
     1
 41
30.0
176
     1
 63
     7
421
 16777215
176
     1
 74
     1
176
     1
 91
        0
176
     1
 64
     7
176
     1
 65
   257
176
     1
 75
     1
176
     1
175
     1
176
     1
 42
1.0
176
     1
 92
        8
176
     1
 66
     7
176
     1
 43
1.0
176
     1
 76
     1
176
     1
 77
     6
176
     1
 78
     2
176
     1
 67
     7
176
     1
 79
     3
176
     1
170
     0
176
     1
171
     0
176
     1
290
     0
176
     1
 93
       13
176
     1
 44
0.0
176
     1
173
     0
176
     1
1001
ACAD
1000
AcDbSavedByObjectVersion
1070
     0
  0
DICTIONARYVAR
  5
14F
102
{ACAD_REACTORS
330
14A
102
}
330
14A
100
DictionaryVariables
280
     0
  1
1:1
  0
DICTIONARYVAR
  5
14C
102
{ACAD_REACTORS
330
14A
102
}
330
14A
100
DictionaryVariables
280
     0
  1
STANDARD
  0
DICTIONARYVAR
  5
14B
102
{ACAD_REACTORS
330
14A
102
}
330
14A
100
DictionaryVariables
280
     0
  1
STANDARD
  0
DICTIONARYVAR
  5
14D
102
{ACAD_REACTORS
330
14A
102
}
330
14A
100
DictionaryVariables
280
     0
  1
Imperial24
  0
DICTIONARYVAR
  5
14E
102
{ACAD_REACTORS
330
14A
102
}
330
14A
100
DictionaryVariables
280
     0
  1
Imperial24
  0
DICTIONARY
  5
187
330
6B
100
AcDbDictionary
280
     1
281
     1
  3
ACAD_XREC_ROUNDTRIP
360
188
  0
DICTIONARY
  5
1A
330
19
100
AcDbDictionary
280
     1
281
     1
  3
BUMPTILE
360
1C
  3
DIFFUSETILE
360
1B
  3
OPACITYTILE
360
1F
  3
REFLECTIONTILE
360
1E
  3
REFRACTIONTILE
360
20
  3
SPECULARTILE
360
1D
  0
DICTIONARY
  5
12
330
11
100
AcDbDictionary
280
     1
281
     1
  3
BUMPTILE
360
14
  3
DIFFUSETILE
360
13
  3
OPACITYTILE
360
17
  3
REFLECTIONTILE
360
16
  3
REFRACTIONTILE
360
18
  3
SPECULARTILE
360
15
  0
DICTIONARY
  5
22
330
21
100
AcDbDictionary
280
     1
281
     1
  3
BUMPTILE
360
24
  3
DIFFUSETILE
360
23
  3
OPACITYTILE
360
27
  3
REFLECTIONTILE
360
26
  3
REFRACTIONTILE
360
28
  3
SPECULARTILE
360
25
  0
DICTIONARY
  5
183
330
67
100
AcDbDictionary
280
     1
281
     1
  3
ACAD_XREC_ROUNDTRIP
360
184
  0
DICTIONARY
  5
185
330
69
100
AcDbDictionary
280
     1
281
     1
  3
ACAD_XREC_ROUNDTRIP
360
186
  0
DICTIONARY
  5
150
330
65
100
AcDbDictionary
280
     1
281
     1
  3
ACAD_ROUNDTRIP_2008_TABLESTYLE_CELLSTYLEMAP
360
151
  0
DICTIONARY
  5
15D
330
2F
100
AcDbDictionary
280
     1
281
     1
  3
ACAD_XREC_ROUNDTRIP
360
15E
  0
DICTIONARY
  5
15B
330
2E
100
AcDbDictionary
280
     1
281
     1
  3
ACAD_XREC_ROUNDTRIP
360
15C
  0
DICTIONARY
  5
169
330
35
100
AcDbDictionary
280
     1
281
     1
  3
ACAD_XREC_ROUNDTRIP
360
16A
  0
DICTIONARY
  5
171
330
39
100
AcDbDictionary
280
     1
281
     1
  3
ACAD_XREC_ROUNDTRIP
360
172
  0
DICTIONARY
  5
163
330
32
100
AcDbDictionary
280
     1
281
     1
  3
ACAD_XREC_ROUNDTRIP
360
164
  0
DICTIONARY
  5
167
330
34
100
AcDbDictionary
280
     1
281
     1
  3
ACAD_XREC_ROUNDTRIP
360
168
  0
DICTIONARY
  5
181
330
41
100
AcDbDictionary
280
     1
281
     1
  3
ACAD_XREC_ROUNDTRIP
360
182
  0
DICTIONARY
  5
16F
330
38
100
AcDbDictionary
280
     1
281
     1
  3
ACAD_XREC_ROUNDTRIP
360
170
  0
DICTIONARY
  5
153
330
2A
100
AcDbDictionary
280
     1
281
     1
  3
ACAD_XREC_ROUNDTRIP
360
154
  0
DICTIONARY
  5
155
330
2B
100
AcDbDictionary
280
     1
281
     1
  3
ACAD_XREC_ROUNDTRIP
360
156
  0
DICTIONARY
  5
157
330
2C
100
AcDbDictionary
280
     1
281
     1
  3
ACAD_XREC_ROUNDTRIP
360
158
  0
DICTIONARY
  5
159
330
2D
100
AcDbDictionary
280
     1
281
     1
  3
ACAD_XREC_ROUNDTRIP
360
15A
  0
DICTIONARY
  5
161
330
31
100
AcDbDictionary
280
     1
281
     1
  3
ACAD_XREC_ROUNDTRIP
360
162
  0
DICTIONARY
  5
17D
330
3F
100
AcDbDictionary
280
     1
281
     1
  3
ACAD_XREC_ROUNDTRIP
360
17E
  0
DICTIONARY
  5
16D
330
37
100
AcDbDictionary
280
     1
281
     1
  3
ACAD_XREC_ROUNDTRIP
360
16E
  0
DICTIONARY
  5
17F
330
40
100
AcDbDictionary
280
     1
281
     1
  3
ACAD_XREC_ROUNDTRIP
360
180
  0
DICTIONARY
  5
165
330
33
100
AcDbDictionary
280
     1
281
     1
  3
ACAD_XREC_ROUNDTRIP
360
166
  0
DICTIONARY
  5
17B
330
3E
100
AcDbDictionary
280
     1
281
     1
  3
ACAD_XREC_ROUNDTRIP
360
17C
  0
DICTIONARY
  5
179
330
3D
100
AcDbDictionary
280
     1
281
     1
  3
ACAD_XREC_ROUNDTRIP
360
17A
  0
DICTIONARY
  5
173
330
3A
100
AcDbDictionary
280
     1
281
     1
  3
ACAD_XREC_ROUNDTRIP
360
174
  0
DICTIONARY
  5
175
330
3B
100
AcDbDictionary
280
     1
281
     1
  3
ACAD_XREC_ROUNDTRIP
360
176
  0
DICTIONARY
  5
16B
330
36
100
AcDbDictionary
280
     1
281
     1
  3
ACAD_XREC_ROUNDTRIP
360
16C
  0
DICTIONARY
  5
15F
330
30
100
AcDbDictionary
280
     1
281
     1
  3
ACAD_XREC_ROUNDTRIP
360
160
  0
DICTIONARY
  5
177
330
3C
100
AcDbDictionary
280
     1
281
     1
  3
ACAD_XREC_ROUNDTRIP
360
178
  0
XRECORD
  5
188
102
{ACAD_REACTORS
330
187
102
}
330
187
100
AcDbXrecord
280
     1
102
DISPLAYNAME
  1
Imperial24
102
FLAGS
 90
        0
  0
XRECORD
  5
1C
102
{ACAD_REACTORS
330
1A
102
}
330
1A
100
AcDbXrecord
280
     1
270
     1
271
     1
  0
XRECORD
  5
1B
102
{ACAD_REACTORS
330
1A
102
}
330
1A
100
AcDbXrecord
280
     1
270
     1
271
     1
  0
XRECORD
  5
1F
102
{ACAD_REACTORS
330
1A
102
}
330
1A
100
AcDbXrecord
280
     1
270
     1
271
     1
  0
XRECORD
  5
1E
102
{ACAD_REACTORS
330
1A
102
}
330
1A
100
AcDbXrecord
280
     1
270
     1
271
     1
  0
XRECORD
  5
20
102
{ACAD_REACTORS
330
1A
102
}
330
1A
100
AcDbXrecord
280
     1
270
     1
271
     1
  0
XRECORD
  5
1D
102
{ACAD_REACTORS
330
1A
102
}
330
1A
100
AcDbXrecord
280
     1
270
     1
271
     1
  0
XRECORD
  5
14
102
{ACAD_REACTORS
330
12
102
}
330
12
100
AcDbXrecord
280
     1
270
     1
271
     1
  0
XRECORD
  5
13
102
{ACAD_REACTORS
330
12
102
}
330
12
100
AcDbXrecord
280
     1
270
     1
271
     1
  0
XRECORD
  5
17
102
{ACAD_REACTORS
330
12
102
}
330
12
100
AcDbXrecord
280
     1
270
     1
271
     1
  0
XRECORD
  5
16
102
{ACAD_REACTORS
330
12
102
}
330
12
100
AcDbXrecord
280
     1
270
     1
271
     1
  0
XRECORD
  5
18
102
{ACAD_REACTORS
330
12
102
}
330
12
100
AcDbXrecord
280
     1
270
     1
271
     1
  0
XRECORD
  5
15
102
{ACAD_REACTORS
330
12
102
}
330
12
100
AcDbXrecord
280
     1
270
     1
271
     1
  0
XRECORD
  5
24
102
{ACAD_REACTORS
330
22
102
}
330
22
100
AcDbXrecord
280
     1
270
     1
271
     1
  0
XRECORD
  5
23
102
{ACAD_REACTORS
330
22
102
}
330
22
100
AcDbXrecord
280
     1
270
     1
271
     1
  0
XRECORD
  5
27
102
{ACAD_REACTORS
330
22
102
}
330
22
100
AcDbXrecord
280
     1
270
     1
271
     1
  0
XRECORD
  5
26
102
{ACAD_REACTORS
330
22
102
}
330
22
100
AcDbXrecord
280
     1
270
     1
271
     1
  0
XRECORD
  5
28
102
{ACAD_REACTORS
330
22
102
}
330
22
100
AcDbXrecord
280
     1
270
     1
271
     1
  0
XRECORD
  5
25
102
{ACAD_REACTORS
330
22
102
}
330
22
100
AcDbXrecord
280
     1
270
     1
271
     1
  0
XRECORD
  5
184
102
{ACAD_REACTORS
330
183
102
}
330
183
100
AcDbXrecord
280
     1
102
ACAD_ROUNDTRIP_2012_MLEADER_STYLE
298
     1
  0
XRECORD
  5
186
102
{ACAD_REACTORS
330
185
102
}
330
185
100
AcDbXrecord
280
     1
102
DISPLAYNAME
  1
Imperial24
102
FLAGS
 90
        0
  0
CELLSTYLEMAP
  5
151
102
{ACAD_REACTORS
330
150
102
}
330
150
100
AcDbCellStyleMap
 90
        3
300
CELLSTYLE
  1
TABLEFORMAT_BEGIN
 90
        5
170
     1
 91
        0
 92
    32768
 62
   257
 93
        1
300
CONTENTFORMAT
  1
CONTENTFORMAT_BEGIN
 90
        0
 91
        0
 92
      512
 93
        0
300

 40
0.0
140
1.0
 94
        5
 62
     0
340
55
144
0.25
309
CONTENTFORMAT_END
171
     0
 94
        0
309
TABLEFORMAT_END
  1
CELLSTYLE_BEGIN
 90
        1
 91
        1
300
_TITLE
309
CELLSTYLE_END
300
CELLSTYLE
  1
TABLEFORMAT_BEGIN
 90
        5
170
     1
 91
        0
 92
        0
 62
   257
 93
        1
300
CONTENTFORMAT
  1
CONTENTFORMAT_BEGIN
 90
        0
 91
        0
 92
      512
 93
        0
300

 40
0.0
140
1.0
 94
        5
 62
     0
340
55
144
0.18
309
CONTENTFORMAT_END
171
     0
 94
        0
309
TABLEFORMAT_END
  1
CELLSTYLE_BEGIN
 90
        2
 91
        1
300
_HEADER
309
CELLSTYLE_END
300
CELLSTYLE
  1
TABLEFORMAT_BEGIN
 90
        5
170
     1
 91
        0
 92
        0
 62
   257
 93
        1
300
CONTENTFORMAT
  1
CONTENTFORMAT_BEGIN
 90
        0
 91
        0
 92
      512
 93
        0
300

 40
0.0
140
1.0
 94
        2
 62
     0
340
55
144
0.18
309
CONTENTFORMAT_END
171
     0
 94
        0
309
TABLEFORMAT_END
  1
CELLSTYLE_BEGIN
 90
        3
 91
        2
300
_DATA
309
CELLSTYLE_END
  0
XRECORD
  5
15E
102
{ACAD_REACTORS
330
15D
102
}
330
15D
100
AcDbXrecord
280
     1
102
RTVSPost2010Prop28
280
     1
102
RTVSPost2010PropOp28
 70
     1
102
RTVSPost2010Prop29
280
     1
102
RTVSPost2010PropOp29
 70
     1
102
RTVSPost2010Prop30
280
     0
102
RTVSPost2010PropOp30
 70
     1
102
RTVSPost2010Prop31
280
     0
102
RTVSPost2010PropOp31
 70
     1
102
RTVSPost2010Prop32
280
     0
102
RTVSPost2010PropOp32
 70
     1
102
RTVSPost2010Prop33
280
     0
102
RTVSPost2010PropOp33
 70
     1
102
RTVSPost2010Prop34
280
     0
102
RTVSPost2010PropOp34
 70
     1
102
RTVSPost2010Prop35
280
     0
102
RTVSPost2010PropOp35
 70
     1
102
RTVSPost2010Prop36
280
     0
102
RTVSPost2010PropOp36
 70
     1
102
RTVSPost2010Prop37
 90
       50
102
RTVSPost2010PropOp37
 70
     1
102
RTVSPost2010Prop38
140
0.0
102
RTVSPost2010PropOp38
 70
     1
102
RTVSPost2010Prop39
140
1.0
102
RTVSPost2010PropOp39
 70
     1
102
RTVSPost2010Prop40
 90
        0
102
RTVSPost2010PropOp40
 70
     1
102
RTVSPost2010Prop41ColorIndex
 90
       18
102
RTVSPost2010Prop41ColorRGB
 90
        0
102
RTVSPost2010PropOp41
 70
     1
102
RTVSPost2010Prop42
 90
       50
102
RTVSPost2010PropOp42
 70
     1
102
RTVSPost2010Prop43
 90
        3
102
RTVSPost2010PropOp43
 70
     1
102
RTVSPost2010Prop44ColorIndex
 90
        5
102
RTVSPost2010Prop44ColorRGB
 90
      255
102
RTVSPost2010PropOp44
 70
     1
102
RTVSPost2010Prop45
280
     0
102
RTVSPost2010PropOp45
 70
     1
102
RTVSPost2010Prop46
 90
       50
102
RTVSPost2010PropOp46
 70
     1
102
RTVSPost2010Prop47
 90
       50
102
RTVSPost2010PropOp47
 70
     1
102
RTVSPost2010Prop48
 90
       50
102
RTVSPost2010PropOp48
 70
     1
102
RTVSPost2010Prop49
280
     0
102
RTVSPost2010PropOp49
 70
     1
102
RTVSPost2010Prop50
 90
       50
102
RTVSPost2010PropOp50
 70
     1
102
RTVSPost2010Prop51ColorIndex
 90
      256
102
RTVSPost2010Prop51ColorRGB
 90
-16777216
102
RTVSPost2010PropOp51
 70
     0
102
RTVSPost2010Prop52
140
1.0
102
RTVSPost2010PropOp52
 70
     0
102
RTVSPost2010Prop53
 90
        2
102
RTVSPost2010PropOp53
 70
     1
102
RTVSPost2010Prop54
  1
strokes_ogs.tif
102
RTVSPost2010PropOp54
 70
     1
102
RTVSPost2010Prop55
280
     0
102
RTVSPost2010PropOp55
 70
     1
102
RTVSPost2010Prop56
140
1.0
102
RTVSPost2010PropOp56
 70
     1
102
RTVSPost2010Prop57
140
1.0
102
RTVSPost2010PropOp57
 70
     1
  0
XRECORD
  5
15C
102
{ACAD_REACTORS
330
15B
102
}
330
15B
100
AcDbXrecord
280
     1
102
RTVSPost2010Prop28
280
     0
102
RTVSPost2010PropOp28
 70
     1
102
RTVSPost2010Prop29
280
     1
102
RTVSPost2010PropOp29
 70
     1
102
RTVSPost2010Prop30
280
     1
102
RTVSPost2010PropOp30
 70
     1
102
RTVSPost2010Prop31
280
     0
102
RTVSPost2010PropOp31
 70
     1
102
RTVSPost2010Prop32
280
     0
102
RTVSPost2010PropOp32
 70
     1
102
RTVSPost2010Prop33
280
     0
102
RTVSPost2010PropOp33
 70
     1
102
RTVSPost2010Prop34
280
     0
102
RTVSPost2010PropOp34
 70
     1
102
RTVSPost2010Prop35
280
     0
102
RTVSPost2010PropOp35
 70
     1
102
RTVSPost2010Prop36
280
     0
102
RTVSPost2010PropOp36
 70
     1
102
RTVSPost2010Prop37
 90
       50
102
RTVSPost2010PropOp37
 70
     1
102
RTVSPost2010Prop38
140
0.0
102
RTVSPost2010PropOp38
 70
     1
102
RTVSPost2010Prop39
140
1.0
102
RTVSPost2010PropOp39
 70
     1
102
RTVSPost2010Prop40
 90
        0
102
RTVSPost2010PropOp40
 70
     1
102
RTVSPost2010Prop41ColorIndex
 90
       18
102
RTVSPost2010Prop41ColorRGB
 90
        0
102
RTVSPost2010PropOp41
 70
     1
102
RTVSPost2010Prop42
 90
       50
102
RTVSPost2010PropOp42
 70
     1
102
RTVSPost2010Prop43
 90
        3
102
RTVSPost2010PropOp43
 70
     1
102
RTVSPost2010Prop44ColorIndex
 90
        5
102
RTVSPost2010Prop44ColorRGB
 90
      255
102
RTVSPost2010PropOp44
 70
     1
102
RTVSPost2010Prop45
280
     0
102
RTVSPost2010PropOp45
 70
     1
102
RTVSPost2010Prop46
 90
       50
102
RTVSPost2010PropOp46
 70
     1
102
RTVSPost2010Prop47
 90
       50
102
RTVSPost2010PropOp47
 70
     1
102
RTVSPost2010Prop48
 90
       50
102
RTVSPost2010PropOp48
 70
     1
102
RTVSPost2010Prop49
280
     0
102
RTVSPost2010PropOp49
 70
     1
102
RTVSPost2010Prop50
 90
       50
102
RTVSPost2010PropOp50
 70
     1
102
RTVSPost2010Prop51ColorIndex
 90
      256
102
RTVSPost2010Prop51ColorRGB
 90
-16777216
102
RTVSPost2010PropOp51
 70
     0
102
RTVSPost2010Prop52
140
1.0
102
RTVSPost2010PropOp52
 70
     0
102
RTVSPost2010Prop53
 90
        2
102
RTVSPost2010PropOp53
 70
     1
102
RTVSPost2010Prop54
  1
strokes_ogs.tif
102
RTVSPost2010PropOp54
 70
     1
102
RTVSPost2010Prop55
280
     0
102
RTVSPost2010PropOp55
 70
     1
102
RTVSPost2010Prop56
140
1.0
102
RTVSPost2010PropOp56
 70
     1
102
RTVSPost2010Prop57
140
1.0
102
RTVSPost2010PropOp57
 70
     1
  0
XRECORD
  5
16A
102
{ACAD_REACTORS
330
169
102
}
330
169
100
AcDbXrecord
280
     1
102
RTVSPost2010Prop28
280
     0
102
RTVSPost2010PropOp28
 70
     1
102
RTVSPost2010Prop29
280
     1
102
RTVSPost2010PropOp29
 70
     1
102
RTVSPost2010Prop30
280
     1
102
RTVSPost2010PropOp30
 70
     1
102
RTVSPost2010Prop31
280
     0
102
RTVSPost2010PropOp31
 70
     1
102
RTVSPost2010Prop32
280
     0
102
RTVSPost2010PropOp32
 70
     1
102
RTVSPost2010Prop33
280
     0
102
RTVSPost2010PropOp33
 70
     1
102
RTVSPost2010Prop34
280
     0
102
RTVSPost2010PropOp34
 70
     1
102
RTVSPost2010Prop35
280
     0
102
RTVSPost2010PropOp35
 70
     1
102
RTVSPost2010Prop36
280
     0
102
RTVSPost2010PropOp36
 70
     1
102
RTVSPost2010Prop37
 90
       50
102
RTVSPost2010PropOp37
 70
     1
102
RTVSPost2010Prop38
140
0.0
102
RTVSPost2010PropOp38
 70
     1
102
RTVSPost2010Prop39
140
1.0
102
RTVSPost2010PropOp39
 70
     1
102
RTVSPost2010Prop40
 90
        0
102
RTVSPost2010PropOp40
 70
     1
102
RTVSPost2010Prop41ColorIndex
 90
       18
102
RTVSPost2010Prop41ColorRGB
 90
        0
102
RTVSPost2010PropOp41
 70
     1
102
RTVSPost2010Prop42
 90
       50
102
RTVSPost2010PropOp42
 70
     1
102
RTVSPost2010Prop43
 90
        3
102
RTVSPost2010PropOp43
 70
     1
102
RTVSPost2010Prop44ColorIndex
 90
        5
102
RTVSPost2010Prop44ColorRGB
 90
      255
102
RTVSPost2010PropOp44
 70
     1
102
RTVSPost2010Prop45
280
     0
102
RTVSPost2010PropOp45
 70
     1
102
RTVSPost2010Prop46
 90
       50
102
RTVSPost2010PropOp46
 70
     1
102
RTVSPost2010Prop47
 90
       50
102
RTVSPost2010PropOp47
 70
     1
102
RTVSPost2010Prop48
 90
       50
102
RTVSPost2010PropOp48
 70
     1
102
RTVSPost2010Prop49
280
     0
102
RTVSPost2010PropOp49
 70
     1
102
RTVSPost2010Prop50
 90
       50
102
RTVSPost2010PropOp50
 70
     1
102
RTVSPost2010Prop51ColorIndex
 90
      256
102
RTVSPost2010Prop51ColorRGB
 90
-16777216
102
RTVSPost2010PropOp51
 70
     0
102
RTVSPost2010Prop52
140
1.0
102
RTVSPost2010PropOp52
 70
     0
102
RTVSPost2010Prop53
 90
        2
102
RTVSPost2010PropOp53
 70
     1
102
RTVSPost2010Prop54
  1
strokes_ogs.tif
102
RTVSPost2010PropOp54
 70
     1
102
RTVSPost2010Prop55
280
     0
102
RTVSPost2010PropOp55
 70
     1
102
RTVSPost2010Prop56
140
1.0
102
RTVSPost2010PropOp56
 70
     1
102
RTVSPost2010Prop57
140
1.0
102
RTVSPost2010PropOp57
 70
     1
  0
XRECORD
  5
172
102
{ACAD_REACTORS
330
171
102
}
330
171
100
AcDbXrecord
280
     1
102
RTVSPost2010Prop28
280
     0
102
RTVSPost2010PropOp28
 70
     1
102
RTVSPost2010Prop29
280
     1
102
RTVSPost2010PropOp29
 70
     1
102
RTVSPost2010Prop30
280
     1
102
RTVSPost2010PropOp30
 70
     1
102
RTVSPost2010Prop31
280
     0
102
RTVSPost2010PropOp31
 70
     1
102
RTVSPost2010Prop32
280
     0
102
RTVSPost2010PropOp32
 70
     1
102
RTVSPost2010Prop33
280
     0
102
RTVSPost2010PropOp33
 70
     1
102
RTVSPost2010Prop34
280
     0
102
RTVSPost2010PropOp34
 70
     1
102
RTVSPost2010Prop35
280
     0
102
RTVSPost2010PropOp35
 70
     1
102
RTVSPost2010Prop36
280
     0
102
RTVSPost2010PropOp36
 70
     1
102
RTVSPost2010Prop37
 90
       50
102
RTVSPost2010PropOp37
 70
     1
102
RTVSPost2010Prop38
140
0.0
102
RTVSPost2010PropOp38
 70
     1
102
RTVSPost2010Prop39
140
1.0
102
RTVSPost2010PropOp39
 70
     1
102
RTVSPost2010Prop40
 90
        0
102
RTVSPost2010PropOp40
 70
     1
102
RTVSPost2010Prop41ColorIndex
 90
       18
102
RTVSPost2010Prop41ColorRGB
 90
        0
102
RTVSPost2010PropOp41
 70
     1
102
RTVSPost2010Prop42
 90
       50
102
RTVSPost2010PropOp42
 70
     1
102
RTVSPost2010Prop43
 90
        3
102
RTVSPost2010PropOp43
 70
     1
102
RTVSPost2010Prop44ColorIndex
 90
        5
102
RTVSPost2010Prop44ColorRGB
 90
      255
102
RTVSPost2010PropOp44
 70
     1
102
RTVSPost2010Prop45
280
     0
102
RTVSPost2010PropOp45
 70
     1
102
RTVSPost2010Prop46
 90
       50
102
RTVSPost2010PropOp46
 70
     1
102
RTVSPost2010Prop47
 90
       50
102
RTVSPost2010PropOp47
 70
     1
102
RTVSPost2010Prop48
 90
       50
102
RTVSPost2010PropOp48
 70
     1
102
RTVSPost2010Prop49
280
     0
102
RTVSPost2010PropOp49
 70
     1
102
RTVSPost2010Prop50
 90
       50
102
RTVSPost2010PropOp50
 70
     1
102
RTVSPost2010Prop51ColorIndex
 90
      256
102
RTVSPost2010Prop51ColorRGB
 90
-16777216
102
RTVSPost2010PropOp51
 70
     0
102
RTVSPost2010Prop52
140
1.0
102
RTVSPost2010PropOp52
 70
     0
102
RTVSPost2010Prop53
 90
        2
102
RTVSPost2010PropOp53
 70
     1
102
RTVSPost2010Prop54
  1
strokes_ogs.tif
102
RTVSPost2010PropOp54
 70
     1
102
RTVSPost2010Prop55
280
     0
102
RTVSPost2010PropOp55
 70
     1
102
RTVSPost2010Prop56
140
1.0
102
RTVSPost2010PropOp56
 70
     1
102
RTVSPost2010Prop57
140
1.0
102
RTVSPost2010PropOp57
 70
     1
  0
XRECORD
  5
164
102
{ACAD_REACTORS
330
163
102
}
330
163
100
AcDbXrecord
280
     1
102
RTVSPost2010Prop28
280
     0
102
RTVSPost2010PropOp28
 70
     1
102
RTVSPost2010Prop29
280
     1
102
RTVSPost2010PropOp29
 70
     1
102
RTVSPost2010Prop30
280
     1
102
RTVSPost2010PropOp30
 70
     1
102
RTVSPost2010Prop31
280
     0
102
RTVSPost2010PropOp31
 70
     1
102
RTVSPost2010Prop32
280
     0
102
RTVSPost2010PropOp32
 70
     1
102
RTVSPost2010Prop33
280
     0
102
RTVSPost2010PropOp33
 70
     1
102
RTVSPost2010Prop34
280
     0
102
RTVSPost2010PropOp34
 70
     1
102
RTVSPost2010Prop35
280
     0
102
RTVSPost2010PropOp35
 70
     1
102
RTVSPost2010Prop36
280
     0
102
RTVSPost2010PropOp36
 70
     1
102
RTVSPost2010Prop37
 90
       50
102
RTVSPost2010PropOp37
 70
     1
102
RTVSPost2010Prop38
140
0.0
102
RTVSPost2010PropOp38
 70
     1
102
RTVSPost2010Prop39
140
1.0
102
RTVSPost2010PropOp39
 70
     1
102
RTVSPost2010Prop40
 90
        0
102
RTVSPost2010PropOp40
 70
     1
102
RTVSPost2010Prop41ColorIndex
 90
       18
102
RTVSPost2010Prop41ColorRGB
 90
        0
102
RTVSPost2010PropOp41
 70
     1
102
RTVSPost2010Prop42
 90
       50
102
RTVSPost2010PropOp42
 70
     1
102
RTVSPost2010Prop43
 90
        3
102
RTVSPost2010PropOp43
 70
     1
102
RTVSPost2010Prop44ColorIndex
 90
        5
102
RTVSPost2010Prop44ColorRGB
 90
      255
102
RTVSPost2010PropOp44
 70
     1
102
RTVSPost2010Prop45
280
     0
102
RTVSPost2010PropOp45
 70
     1
102
RTVSPost2010Prop46
 90
       50
102
RTVSPost2010PropOp46
 70
     1
102
RTVSPost2010Prop47
 90
       50
102
RTVSPost2010PropOp47
 70
     1
102
RTVSPost2010Prop48
 90
       50
102
RTVSPost2010PropOp48
 70
     1
102
RTVSPost2010Prop49
280
     0
102
RTVSPost2010PropOp49
 70
     1
102
RTVSPost2010Prop50
 90
       50
102
RTVSPost2010PropOp50
 70
     1
102
RTVSPost2010Prop51ColorIndex
 90
      256
102
RTVSPost2010Prop51ColorRGB
 90
-16777216
102
RTVSPost2010PropOp51
 70
     0
102
RTVSPost2010Prop52
140
1.0
102
RTVSPost2010PropOp52
 70
     0
102
RTVSPost2010Prop53
 90
        2
102
RTVSPost2010PropOp53
 70
     1
102
RTVSPost2010Prop54
  1
strokes_ogs.tif
102
RTVSPost2010PropOp54
 70
     1
102
RTVSPost2010Prop55
280
     0
102
RTVSPost2010PropOp55
 70
     1
102
RTVSPost2010Prop56
140
1.0
102
RTVSPost2010PropOp56
 70
     1
102
RTVSPost2010Prop57
140
1.0
102
RTVSPost2010PropOp57
 70
     1
  0
XRECORD
  5
168
102
{ACAD_REACTORS
330
167
102
}
330
167
100
AcDbXrecord
280
     1
102
RTVSPost2010Prop28
280
     0
102
RTVSPost2010PropOp28
 70
     1
102
RTVSPost2010Prop29
280
     1
102
RTVSPost2010PropOp29
 70
     1
102
RTVSPost2010Prop30
280
     1
102
RTVSPost2010PropOp30
 70
     1
102
RTVSPost2010Prop31
280
     0
102
RTVSPost2010PropOp31
 70
     1
102
RTVSPost2010Prop32
280
     0
102
RTVSPost2010PropOp32
 70
     1
102
RTVSPost2010Prop33
280
     0
102
RTVSPost2010PropOp33
 70
     1
102
RTVSPost2010Prop34
280
     0
102
RTVSPost2010PropOp34
 70
     1
102
RTVSPost2010Prop35
280
     0
102
RTVSPost2010PropOp35
 70
     1
102
RTVSPost2010Prop36
280
     0
102
RTVSPost2010PropOp36
 70
     1
102
RTVSPost2010Prop37
 90
       50
102
RTVSPost2010PropOp37
 70
     1
102
RTVSPost2010Prop38
140
0.0
102
RTVSPost2010PropOp38
 70
     1
102
RTVSPost2010Prop39
140
1.0
102
RTVSPost2010PropOp39
 70
     1
102
RTVSPost2010Prop40
 90
        0
102
RTVSPost2010PropOp40
 70
     1
102
RTVSPost2010Prop41ColorIndex
 90
       18
102
RTVSPost2010Prop41ColorRGB
 90
        0
102
RTVSPost2010PropOp41
 70
     1
102
RTVSPost2010Prop42
 90
       50
102
RTVSPost2010PropOp42
 70
     1
102
RTVSPost2010Prop43
 90
        3
102
RTVSPost2010PropOp43
 70
     1
102
RTVSPost2010Prop44ColorIndex
 90
        5
102
RTVSPost2010Prop44ColorRGB
 90
      255
102
RTVSPost2010PropOp44
 70
     1
102
RTVSPost2010Prop45
280
     0
102
RTVSPost2010PropOp45
 70
     1
102
RTVSPost2010Prop46
 90
       50
102
RTVSPost2010PropOp46
 70
     1
102
RTVSPost2010Prop47
 90
       50
102
RTVSPost2010PropOp47
 70
     1
102
RTVSPost2010Prop48
 90
       50
102
RTVSPost2010PropOp48
 70
     1
102
RTVSPost2010Prop49
280
     0
102
RTVSPost2010PropOp49
 70
     1
102
RTVSPost2010Prop50
 90
       50
102
RTVSPost2010PropOp50
 70
     1
102
RTVSPost2010Prop51ColorIndex
 90
      256
102
RTVSPost2010Prop51ColorRGB
 90
-16777216
102
RTVSPost2010PropOp51
 70
     0
102
RTVSPost2010Prop52
140
1.0
102
RTVSPost2010PropOp52
 70
     0
102
RTVSPost2010Prop53
 90
        2
102
RTVSPost2010PropOp53
 70
     1
102
RTVSPost2010Prop54
  1
strokes_ogs.tif
102
RTVSPost2010PropOp54
 70
     1
102
RTVSPost2010Prop55
280
     0
102
RTVSPost2010PropOp55
 70
     1
102
RTVSPost2010Prop56
140
1.0
102
RTVSPost2010PropOp56
 70
     1
102
RTVSPost2010Prop57
140
1.0
102
RTVSPost2010PropOp57
 70
     1
  0
XRECORD
  5
182
102
{ACAD_REACTORS
330
181
102
}
330
181
100
AcDbXrecord
280
     1
102
RTVSPost2010Prop28
280
     0
102
RTVSPost2010PropOp28
 70
     0
102
RTVSPost2010Prop29
280
     1
102
RTVSPost2010PropOp29
 70
     0
102
RTVSPost2010Prop30
280
     1
102
RTVSPost2010PropOp30
 70
     0
102
RTVSPost2010Prop31
280
     0
102
RTVSPost2010PropOp31
 70
     0
102
RTVSPost2010Prop32
280
     0
102
RTVSPost2010PropOp32
 70
     0
102
RTVSPost2010Prop33
280
     0
102
RTVSPost2010PropOp33
 70
     0
102
RTVSPost2010Prop34
280
     0
102
RTVSPost2010PropOp34
 70
     0
102
RTVSPost2010Prop35
280
     0
102
RTVSPost2010PropOp35
 70
     0
102
RTVSPost2010Prop36
280
     0
102
RTVSPost2010PropOp36
 70
     0
102
RTVSPost2010Prop37
 90
       50
102
RTVSPost2010PropOp37
 70
     0
102
RTVSPost2010Prop38
140
0.0
102
RTVSPost2010PropOp38
 70
     0
102
RTVSPost2010Prop39
140
1.0
102
RTVSPost2010PropOp39
 70
     0
102
RTVSPost2010Prop40
 90
        0
102
RTVSPost2010PropOp40
 70
     0
102
RTVSPost2010Prop41ColorIndex
 90
       18
102
RTVSPost2010Prop41ColorRGB
 90
        0
102
RTVSPost2010PropOp41
 70
     0
102
RTVSPost2010Prop42
 90
       50
102
RTVSPost2010PropOp42
 70
     0
102
RTVSPost2010Prop43
 90
        3
102
RTVSPost2010PropOp43
 70
     0
102
RTVSPost2010Prop44ColorIndex
 90
        5
102
RTVSPost2010Prop44ColorRGB
 90
      255
102
RTVSPost2010PropOp44
 70
     0
102
RTVSPost2010Prop45
280
     0
102
RTVSPost2010PropOp45
 70
     0
102
RTVSPost2010Prop46
 90
       50
102
RTVSPost2010PropOp46
 70
     0
102
RTVSPost2010Prop47
 90
       50
102
RTVSPost2010PropOp47
 70
     0
102
RTVSPost2010Prop48
 90
       50
102
RTVSPost2010PropOp48
 70
     0
102
RTVSPost2010Prop49
280
     0
102
RTVSPost2010PropOp49
 70
     0
102
RTVSPost2010Prop50
 90
       50
102
RTVSPost2010PropOp50
 70
     0
102
RTVSPost2010Prop51ColorIndex
 90
      256
102
RTVSPost2010Prop51ColorRGB
 90
-16777216
102
RTVSPost2010PropOp51
 70
     0
102
RTVSPost2010Prop52
140
1.0
102
RTVSPost2010PropOp52
 70
     0
102
RTVSPost2010Prop53
 90
        2
102
RTVSPost2010PropOp53
 70
     0
102
RTVSPost2010Prop54
  1
strokes_ogs.tif
102
RTVSPost2010PropOp54
 70
     0
102
RTVSPost2010Prop55
280
     0
102
RTVSPost2010PropOp55
 70
     0
102
RTVSPost2010Prop56
140
1.0
102
RTVSPost2010PropOp56
 70
     0
102
RTVSPost2010Prop57
140
1.0
102
RTVSPost2010PropOp57
 70
     0
  0
XRECORD
  5
170
102
{ACAD_REACTORS
330
16F
102
}
330
16F
100
AcDbXrecord
280
     1
102
RTVSPost2010Prop28
280
     0
102
RTVSPost2010PropOp28
 70
     1
102
RTVSPost2010Prop29
280
     1
102
RTVSPost2010PropOp29
 70
     1
102
RTVSPost2010Prop30
280
     1
102
RTVSPost2010PropOp30
 70
     1
102
RTVSPost2010Prop31
280
     0
102
RTVSPost2010PropOp31
 70
     1
102
RTVSPost2010Prop32
280
     0
102
RTVSPost2010PropOp32
 70
     1
102
RTVSPost2010Prop33
280
     0
102
RTVSPost2010PropOp33
 70
     1
102
RTVSPost2010Prop34
280
     0
102
RTVSPost2010PropOp34
 70
     1
102
RTVSPost2010Prop35
280
     0
102
RTVSPost2010PropOp35
 70
     1
102
RTVSPost2010Prop36
280
     0
102
RTVSPost2010PropOp36
 70
     1
102
RTVSPost2010Prop37
 90
       50
102
RTVSPost2010PropOp37
 70
     1
102
RTVSPost2010Prop38
140
0.0
102
RTVSPost2010PropOp38
 70
     1
102
RTVSPost2010Prop39
140
1.0
102
RTVSPost2010PropOp39
 70
     1
102
RTVSPost2010Prop40
 90
        0
102
RTVSPost2010PropOp40
 70
     1
102
RTVSPost2010Prop41ColorIndex
 90
       18
102
RTVSPost2010Prop41ColorRGB
 90
        0
102
RTVSPost2010PropOp41
 70
     1
102
RTVSPost2010Prop42
 90
       50
102
RTVSPost2010PropOp42
 70
     1
102
RTVSPost2010Prop43
 90
        3
102
RTVSPost2010PropOp43
 70
     1
102
RTVSPost2010Prop44ColorIndex
 90
        5
102
RTVSPost2010Prop44ColorRGB
 90
      255
102
RTVSPost2010PropOp44
 70
     1
102
RTVSPost2010Prop45
280
     0
102
RTVSPost2010PropOp45
 70
     1
102
RTVSPost2010Prop46
 90
       50
102
RTVSPost2010PropOp46
 70
     1
102
RTVSPost2010Prop47
 90
       50
102
RTVSPost2010PropOp47
 70
     1
102
RTVSPost2010Prop48
 90
       50
102
RTVSPost2010PropOp48
 70
     1
102
RTVSPost2010Prop49
280
     0
102
RTVSPost2010PropOp49
 70
     1
102
RTVSPost2010Prop50
 90
       50
102
RTVSPost2010PropOp50
 70
     1
102
RTVSPost2010Prop51ColorIndex
 90
      256
102
RTVSPost2010Prop51ColorRGB
 90
-16777216
102
RTVSPost2010PropOp51
 70
     0
102
RTVSPost2010Prop52
140
1.0
102
RTVSPost2010PropOp52
 70
     0
102
RTVSPost2010Prop53
 90
        2
102
RTVSPost2010PropOp53
 70
     1
102
RTVSPost2010Prop54
  1
strokes_ogs.tif
102
RTVSPost2010PropOp54
 70
     1
102
RTVSPost2010Prop55
280
     0
102
RTVSPost2010PropOp55
 70
     1
102
RTVSPost2010Prop56
140
1.0
102
RTVSPost2010PropOp56
 70
     1
102
RTVSPost2010Prop57
140
1.0
102
RTVSPost2010PropOp57
 70
     1
  0
XRECORD
  5
154
102
{ACAD_REACTORS
330
153
102
}
330
153
100
AcDbXrecord
280
     1
102
RTVSPost2010Prop28
280
     0
102
RTVSPost2010PropOp28
 70
     1
102
RTVSPost2010Prop29
280
     1
102
RTVSPost2010PropOp29
 70
     1
102
RTVSPost2010Prop30
280
     1
102
RTVSPost2010PropOp30
 70
     1
102
RTVSPost2010Prop31
280
     0
102
RTVSPost2010PropOp31
 70
     1
102
RTVSPost2010Prop32
280
     0
102
RTVSPost2010PropOp32
 70
     1
102
RTVSPost2010Prop33
280
     0
102
RTVSPost2010PropOp33
 70
     1
102
RTVSPost2010Prop34
280
     0
102
RTVSPost2010PropOp34
 70
     1
102
RTVSPost2010Prop35
280
     0
102
RTVSPost2010PropOp35
 70
     1
102
RTVSPost2010Prop36
280
     0
102
RTVSPost2010PropOp36
 70
     1
102
RTVSPost2010Prop37
 90
       50
102
RTVSPost2010PropOp37
 70
     1
102
RTVSPost2010Prop38
140
0.0
102
RTVSPost2010PropOp38
 70
     1
102
RTVSPost2010Prop39
140
1.0
102
RTVSPost2010PropOp39
 70
     1
102
RTVSPost2010Prop40
 90
        0
102
RTVSPost2010PropOp40
 70
     1
102
RTVSPost2010Prop41ColorIndex
 90
       18
102
RTVSPost2010Prop41ColorRGB
 90
        0
102
RTVSPost2010PropOp41
 70
     1
102
RTVSPost2010Prop42
 90
       50
102
RTVSPost2010PropOp42
 70
     1
102
RTVSPost2010Prop43
 90
        3
102
RTVSPost2010PropOp43
 70
     1
102
RTVSPost2010Prop44ColorIndex
 90
        5
102
RTVSPost2010Prop44ColorRGB
 90
      255
102
RTVSPost2010PropOp44
 70
     1
102
RTVSPost2010Prop45
280
     0
102
RTVSPost2010PropOp45
 70
     1
102
RTVSPost2010Prop46
 90
       50
102
RTVSPost2010PropOp46
 70
     1
102
RTVSPost2010Prop47
 90
       50
102
RTVSPost2010PropOp47
 70
     1
102
RTVSPost2010Prop48
 90
       50
102
RTVSPost2010PropOp48
 70
     1
102
RTVSPost2010Prop49
280
     0
102
RTVSPost2010PropOp49
 70
     1
102
RTVSPost2010Prop50
 90
       50
102
RTVSPost2010PropOp50
 70
     1
102
RTVSPost2010Prop51ColorIndex
 90
      256
102
RTVSPost2010Prop51ColorRGB
 90
-16777216
102
RTVSPost2010PropOp51
 70
     0
102
RTVSPost2010Prop52
140
1.0
102
RTVSPost2010PropOp52
 70
     0
102
RTVSPost2010Prop53
 90
        2
102
RTVSPost2010PropOp53
 70
     1
102
RTVSPost2010Prop54
  1
strokes_ogs.tif
102
RTVSPost2010PropOp54
 70
     1
102
RTVSPost2010Prop55
280
     0
102
RTVSPost2010PropOp55
 70
     1
102
RTVSPost2010Prop56
140
1.0
102
RTVSPost2010PropOp56
 70
     1
102
RTVSPost2010Prop57
140
1.0
102
RTVSPost2010PropOp57
 70
     1
  0
XRECORD
  5
156
102
{ACAD_REACTORS
330
155
102
}
330
155
100
AcDbXrecord
280
     1
102
RTVSPost2010Prop28
280
     0
102
RTVSPost2010PropOp28
 70
     1
102
RTVSPost2010Prop29
280
     1
102
RTVSPost2010PropOp29
 70
     1
102
RTVSPost2010Prop30
280
     1
102
RTVSPost2010PropOp30
 70
     1
102
RTVSPost2010Prop31
280
     0
102
RTVSPost2010PropOp31
 70
     1
102
RTVSPost2010Prop32
280
     0
102
RTVSPost2010PropOp32
 70
     1
102
RTVSPost2010Prop33
280
     0
102
RTVSPost2010PropOp33
 70
     1
102
RTVSPost2010Prop34
280
     0
102
RTVSPost2010PropOp34
 70
     1
102
RTVSPost2010Prop35
280
     0
102
RTVSPost2010PropOp35
 70
     1
102
RTVSPost2010Prop36
280
     0
102
RTVSPost2010PropOp36
 70
     1
102
RTVSPost2010Prop37
 90
       50
102
RTVSPost2010PropOp37
 70
     1
102
RTVSPost2010Prop38
140
0.0
102
RTVSPost2010PropOp38
 70
     1
102
RTVSPost2010Prop39
140
1.0
102
RTVSPost2010PropOp39
 70
     1
102
RTVSPost2010Prop40
 90
        0
102
RTVSPost2010PropOp40
 70
     1
102
RTVSPost2010Prop41ColorIndex
 90
       18
102
RTVSPost2010Prop41ColorRGB
 90
        0
102
RTVSPost2010PropOp41
 70
     1
102
RTVSPost2010Prop42
 90
       50
102
RTVSPost2010PropOp42
 70
     1
102
RTVSPost2010Prop43
 90
        3
102
RTVSPost2010PropOp43
 70
     1
102
RTVSPost2010Prop44ColorIndex
 90
        5
102
RTVSPost2010Prop44ColorRGB
 90
      255
102
RTVSPost2010PropOp44
 70
     1
102
RTVSPost2010Prop45
280
     0
102
RTVSPost2010PropOp45
 70
     1
102
RTVSPost2010Prop46
 90
       50
102
RTVSPost2010PropOp46
 70
     1
102
RTVSPost2010Prop47
 90
       50
102
RTVSPost2010PropOp47
 70
     1
102
RTVSPost2010Prop48
 90
       50
102
RTVSPost2010PropOp48
 70
     1
102
RTVSPost2010Prop49
280
     0
102
RTVSPost2010PropOp49
 70
     1
102
RTVSPost2010Prop50
 90
       50
102
RTVSPost2010PropOp50
 70
     1
102
RTVSPost2010Prop51ColorIndex
 90
      256
102
RTVSPost2010Prop51ColorRGB
 90
-16777216
102
RTVSPost2010PropOp51
 70
     0
102
RTVSPost2010Prop52
140
1.0
102
RTVSPost2010PropOp52
 70
     0
102
RTVSPost2010Prop53
 90
        2
102
RTVSPost2010PropOp53
 70
     1
102
RTVSPost2010Prop54
  1
strokes_ogs.tif
102
RTVSPost2010PropOp54
 70
     1
102
RTVSPost2010Prop55
280
     0
102
RTVSPost2010PropOp55
 70
     1
102
RTVSPost2010Prop56
140
1.0
102
RTVSPost2010PropOp56
 70
     1
102
RTVSPost2010Prop57
140
1.0
102
RTVSPost2010PropOp57
 70
     1
  0
XRECORD
  5
158
102
{ACAD_REACTORS
330
157
102
}
330
157
100
AcDbXrecord
280
     1
102
RTVSPost2010Prop28
280
     0
102
RTVSPost2010PropOp28
 70
     1
102
RTVSPost2010Prop29
280
     1
102
RTVSPost2010PropOp29
 70
     1
102
RTVSPost2010Prop30
280
     1
102
RTVSPost2010PropOp30
 70
     1
102
RTVSPost2010Prop31
280
     0
102
RTVSPost2010PropOp31
 70
     1
102
RTVSPost2010Prop32
280
     0
102
RTVSPost2010PropOp32
 70
     1
102
RTVSPost2010Prop33
280
     0
102
RTVSPost2010PropOp33
 70
     1
102
RTVSPost2010Prop34
280
     0
102
RTVSPost2010PropOp34
 70
     1
102
RTVSPost2010Prop35
280
     0
102
RTVSPost2010PropOp35
 70
     1
102
RTVSPost2010Prop36
280
     0
102
RTVSPost2010PropOp36
 70
     1
102
RTVSPost2010Prop37
 90
       50
102
RTVSPost2010PropOp37
 70
     1
102
RTVSPost2010Prop38
140
0.0
102
RTVSPost2010PropOp38
 70
     1
102
RTVSPost2010Prop39
140
1.0
102
RTVSPost2010PropOp39
 70
     1
102
RTVSPost2010Prop40
 90
        0
102
RTVSPost2010PropOp40
 70
     1
102
RTVSPost2010Prop41ColorIndex
 90
       18
102
RTVSPost2010Prop41ColorRGB
 90
        0
102
RTVSPost2010PropOp41
 70
     1
102
RTVSPost2010Prop42
 90
       50
102
RTVSPost2010PropOp42
 70
     1
102
RTVSPost2010Prop43
 90
        3
102
RTVSPost2010PropOp43
 70
     1
102
RTVSPost2010Prop44ColorIndex
 90
        5
102
RTVSPost2010Prop44ColorRGB
 90
      255
102
RTVSPost2010PropOp44
 70
     1
102
RTVSPost2010Prop45
280
     0
102
RTVSPost2010PropOp45
 70
     1
102
RTVSPost2010Prop46
 90
       50
102
RTVSPost2010PropOp46
 70
     1
102
RTVSPost2010Prop47
 90
       50
102
RTVSPost2010PropOp47
 70
     1
102
RTVSPost2010Prop48
 90
       50
102
RTVSPost2010PropOp48
 70
     1
102
RTVSPost2010Prop49
280
     0
102
RTVSPost2010PropOp49
 70
     1
102
RTVSPost2010Prop50
 90
       50
102
RTVSPost2010PropOp50
 70
     1
102
RTVSPost2010Prop51ColorIndex
 90
      256
102
RTVSPost2010Prop51ColorRGB
 90
-16777216
102
RTVSPost2010PropOp51
 70
     0
102
RTVSPost2010Prop52
140
1.0
102
RTVSPost2010PropOp52
 70
     0
102
RTVSPost2010Prop53
 90
        2
102
RTVSPost2010PropOp53
 70
     1
102
RTVSPost2010Prop54
  1
strokes_ogs.tif
102
RTVSPost2010PropOp54
 70
     1
102
RTVSPost2010Prop55
280
     0
102
RTVSPost2010PropOp55
 70
     1
102
RTVSPost2010Prop56
140
1.0
102
RTVSPost2010PropOp56
 70
     1
102
RTVSPost2010Prop57
140
1.0
102
RTVSPost2010PropOp57
 70
     1
  0
XRECORD
  5
15A
102
{ACAD_REACTORS
330
159
102
}
330
159
100
AcDbXrecord
280
     1
102
RTVSPost2010Prop28
280
     0
102
RTVSPost2010PropOp28
 70
     1
102
RTVSPost2010Prop29
280
     1
102
RTVSPost2010PropOp29
 70
     1
102
RTVSPost2010Prop30
280
     1
102
RTVSPost2010PropOp30
 70
     1
102
RTVSPost2010Prop31
280
     0
102
RTVSPost2010PropOp31
 70
     1
102
RTVSPost2010Prop32
280
     0
102
RTVSPost2010PropOp32
 70
     1
102
RTVSPost2010Prop33
280
     0
102
RTVSPost2010PropOp33
 70
     1
102
RTVSPost2010Prop34
280
     0
102
RTVSPost2010PropOp34
 70
     1
102
RTVSPost2010Prop35
280
     0
102
RTVSPost2010PropOp35
 70
     1
102
RTVSPost2010Prop36
280
     0
102
RTVSPost2010PropOp36
 70
     1
102
RTVSPost2010Prop37
 90
       50
102
RTVSPost2010PropOp37
 70
     1
102
RTVSPost2010Prop38
140
0.0
102
RTVSPost2010PropOp38
 70
     1
102
RTVSPost2010Prop39
140
1.0
102
RTVSPost2010PropOp39
 70
     1
102
RTVSPost2010Prop40
 90
        0
102
RTVSPost2010PropOp40
 70
     1
102
RTVSPost2010Prop41ColorIndex
 90
       18
102
RTVSPost2010Prop41ColorRGB
 90
        0
102
RTVSPost2010PropOp41
 70
     1
102
RTVSPost2010Prop42
 90
       50
102
RTVSPost2010PropOp42
 70
     1
102
RTVSPost2010Prop43
 90
        3
102
RTVSPost2010PropOp43
 70
     1
102
RTVSPost2010Prop44ColorIndex
 90
        5
102
RTVSPost2010Prop44ColorRGB
 90
      255
102
RTVSPost2010PropOp44
 70
     1
102
RTVSPost2010Prop45
280
     0
102
RTVSPost2010PropOp45
 70
     1
102
RTVSPost2010Prop46
 90
       50
102
RTVSPost2010PropOp46
 70
     1
102
RTVSPost2010Prop47
 90
       50
102
RTVSPost2010PropOp47
 70
     1
102
RTVSPost2010Prop48
 90
       50
102
RTVSPost2010PropOp48
 70
     1
102
RTVSPost2010Prop49
280
     0
102
RTVSPost2010PropOp49
 70
     1
102
RTVSPost2010Prop50
 90
       50
102
RTVSPost2010PropOp50
 70
     1
102
RTVSPost2010Prop51ColorIndex
 90
      256
102
RTVSPost2010Prop51ColorRGB
 90
-16777216
102
RTVSPost2010PropOp51
 70
     0
102
RTVSPost2010Prop52
140
1.0
102
RTVSPost2010PropOp52
 70
     0
102
RTVSPost2010Prop53
 90
        2
102
RTVSPost2010PropOp53
 70
     1
102
RTVSPost2010Prop54
  1
strokes_ogs.tif
102
RTVSPost2010PropOp54
 70
     1
102
RTVSPost2010Prop55
280
     0
102
RTVSPost2010PropOp55
 70
     1
102
RTVSPost2010Prop56
140
1.0
102
RTVSPost2010PropOp56
 70
     1
102
RTVSPost2010Prop57
140
1.0
102
RTVSPost2010PropOp57
 70
     1
  0
XRECORD
  5
162
102
{ACAD_REACTORS
330
161
102
}
330
161
100
AcDbXrecord
280
     1
102
RTVSPost2010Prop28
280
     0
102
RTVSPost2010PropOp28
 70
     1
102
RTVSPost2010Prop29
280
     1
102
RTVSPost2010PropOp29
 70
     1
102
RTVSPost2010Prop30
280
     1
102
RTVSPost2010PropOp30
 70
     1
102
RTVSPost2010Prop31
280
     0
102
RTVSPost2010PropOp31
 70
     1
102
RTVSPost2010Prop32
280
     0
102
RTVSPost2010PropOp32
 70
     1
102
RTVSPost2010Prop33
280
     0
102
RTVSPost2010PropOp33
 70
     1
102
RTVSPost2010Prop34
280
     0
102
RTVSPost2010PropOp34
 70
     1
102
RTVSPost2010Prop35
280
     0
102
RTVSPost2010PropOp35
 70
     1
102
RTVSPost2010Prop36
280
     0
102
RTVSPost2010PropOp36
 70
     1
102
RTVSPost2010Prop37
 90
       50
102
RTVSPost2010PropOp37
 70
     1
102
RTVSPost2010Prop38
140
0.0
102
RTVSPost2010PropOp38
 70
     1
102
RTVSPost2010Prop39
140
1.0
102
RTVSPost2010PropOp39
 70
     1
102
RTVSPost2010Prop40
 90
        0
102
RTVSPost2010PropOp40
 70
     1
102
RTVSPost2010Prop41ColorIndex
 90
       18
102
RTVSPost2010Prop41ColorRGB
 90
        0
102
RTVSPost2010PropOp41
 70
     1
102
RTVSPost2010Prop42
 90
       50
102
RTVSPost2010PropOp42
 70
     1
102
RTVSPost2010Prop43
 90
        3
102
RTVSPost2010PropOp43
 70
     1
102
RTVSPost2010Prop44ColorIndex
 90
        5
102
RTVSPost2010Prop44ColorRGB
 90
      255
102
RTVSPost2010PropOp44
 70
     1
102
RTVSPost2010Prop45
280
     0
102
RTVSPost2010PropOp45
 70
     1
102
RTVSPost2010Prop46
 90
       50
102
RTVSPost2010PropOp46
 70
     1
102
RTVSPost2010Prop47
 90
       50
102
RTVSPost2010PropOp47
 70
     1
102
RTVSPost2010Prop48
 90
       50
102
RTVSPost2010PropOp48
 70
     1
102
RTVSPost2010Prop49
280
     0
102
RTVSPost2010PropOp49
 70
     1
102
RTVSPost2010Prop50
 90
       50
102
RTVSPost2010PropOp50
 70
     1
102
RTVSPost2010Prop51ColorIndex
 90
      256
102
RTVSPost2010Prop51ColorRGB
 90
-16777216
102
RTVSPost2010PropOp51
 70
     0
102
RTVSPost2010Prop52
140
1.0
102
RTVSPost2010PropOp52
 70
     0
102
RTVSPost2010Prop53
 90
        2
102
RTVSPost2010PropOp53
 70
     1
102
RTVSPost2010Prop54
  1
strokes_ogs.tif
102
RTVSPost2010PropOp54
 70
     1
102
RTVSPost2010Prop55
280
     0
102
RTVSPost2010PropOp55
 70
     1
102
RTVSPost2010Prop56
140
1.0
102
RTVSPost2010PropOp56
 70
     1
102
RTVSPost2010Prop57
140
1.0
102
RTVSPost2010PropOp57
 70
     1
  0
XRECORD
  5
17E
102
{ACAD_REACTORS
330
17D
102
}
330
17D
100
AcDbXrecord
280
     1
102
RTVSPost2010Prop28
280
     0
102
RTVSPost2010PropOp28
 70
     0
102
RTVSPost2010Prop29
280
     1
102
RTVSPost2010PropOp29
 70
     0
102
RTVSPost2010Prop30
280
     1
102
RTVSPost2010PropOp30
 70
     0
102
RTVSPost2010Prop31
280
     0
102
RTVSPost2010PropOp31
 70
     0
102
RTVSPost2010Prop32
280
     0
102
RTVSPost2010PropOp32
 70
     0
102
RTVSPost2010Prop33
280
     0
102
RTVSPost2010PropOp33
 70
     0
102
RTVSPost2010Prop34
280
     0
102
RTVSPost2010PropOp34
 70
     0
102
RTVSPost2010Prop35
280
     0
102
RTVSPost2010PropOp35
 70
     0
102
RTVSPost2010Prop36
280
     0
102
RTVSPost2010PropOp36
 70
     0
102
RTVSPost2010Prop37
 90
       50
102
RTVSPost2010PropOp37
 70
     0
102
RTVSPost2010Prop38
140
0.0
102
RTVSPost2010PropOp38
 70
     0
102
RTVSPost2010Prop39
140
1.0
102
RTVSPost2010PropOp39
 70
     0
102
RTVSPost2010Prop40
 90
        0
102
RTVSPost2010PropOp40
 70
     0
102
RTVSPost2010Prop41ColorIndex
 90
       18
102
RTVSPost2010Prop41ColorRGB
 90
        0
102
RTVSPost2010PropOp41
 70
     0
102
RTVSPost2010Prop42
 90
       50
102
RTVSPost2010PropOp42
 70
     0
102
RTVSPost2010Prop43
 90
        3
102
RTVSPost2010PropOp43
 70
     0
102
RTVSPost2010Prop44ColorIndex
 90
        5
102
RTVSPost2010Prop44ColorRGB
 90
      255
102
RTVSPost2010PropOp44
 70
     0
102
RTVSPost2010Prop45
280
     0
102
RTVSPost2010PropOp45
 70
     0
102
RTVSPost2010Prop46
 90
       50
102
RTVSPost2010PropOp46
 70
     0
102
RTVSPost2010Prop47
 90
       50
102
RTVSPost2010PropOp47
 70
     0
102
RTVSPost2010Prop48
 90
       50
102
RTVSPost2010PropOp48
 70
     0
102
RTVSPost2010Prop49
280
     0
102
RTVSPost2010PropOp49
 70
     0
102
RTVSPost2010Prop50
 90
       50
102
RTVSPost2010PropOp50
 70
     0
102
RTVSPost2010Prop51ColorIndex
 90
      256
102
RTVSPost2010Prop51ColorRGB
 90
-16777216
102
RTVSPost2010PropOp51
 70
     0
102
RTVSPost2010Prop52
140
1.0
102
RTVSPost2010PropOp52
 70
     0
102
RTVSPost2010Prop53
 90
        2
102
RTVSPost2010PropOp53
 70
     0
102
RTVSPost2010Prop54
  1
strokes_ogs.tif
102
RTVSPost2010PropOp54
 70
     0
102
RTVSPost2010Prop55
280
     0
102
RTVSPost2010PropOp55
 70
     0
102
RTVSPost2010Prop56
140
1.0
102
RTVSPost2010PropOp56
 70
     0
102
RTVSPost2010Prop57
140
1.0
102
RTVSPost2010PropOp57
 70
     0
  0
XRECORD
  5
16E
102
{ACAD_REACTORS
330
16D
102
}
330
16D
100
AcDbXrecord
280
     1
102
RTVSPost2010Prop28
280
     0
102
RTVSPost2010PropOp28
 70
     1
102
RTVSPost2010Prop29
280
     1
102
RTVSPost2010PropOp29
 70
     1
102
RTVSPost2010Prop30
280
     1
102
RTVSPost2010PropOp30
 70
     1
102
RTVSPost2010Prop31
280
     0
102
RTVSPost2010PropOp31
 70
     1
102
RTVSPost2010Prop32
280
     0
102
RTVSPost2010PropOp32
 70
     1
102
RTVSPost2010Prop33
280
     0
102
RTVSPost2010PropOp33
 70
     1
102
RTVSPost2010Prop34
280
     0
102
RTVSPost2010PropOp34
 70
     1
102
RTVSPost2010Prop35
280
     0
102
RTVSPost2010PropOp35
 70
     1
102
RTVSPost2010Prop36
280
     0
102
RTVSPost2010PropOp36
 70
     1
102
RTVSPost2010Prop37
 90
       50
102
RTVSPost2010PropOp37
 70
     1
102
RTVSPost2010Prop38
140
0.0
102
RTVSPost2010PropOp38
 70
     1
102
RTVSPost2010Prop39
140
1.0
102
RTVSPost2010PropOp39
 70
     1
102
RTVSPost2010Prop40
 90
        0
102
RTVSPost2010PropOp40
 70
     1
102
RTVSPost2010Prop41ColorIndex
 90
       18
102
RTVSPost2010Prop41ColorRGB
 90
        0
102
RTVSPost2010PropOp41
 70
     1
102
RTVSPost2010Prop42
 90
       50
102
RTVSPost2010PropOp42
 70
     1
102
RTVSPost2010Prop43
 90
        3
102
RTVSPost2010PropOp43
 70
     1
102
RTVSPost2010Prop44ColorIndex
 90
        5
102
RTVSPost2010Prop44ColorRGB
 90
      255
102
RTVSPost2010PropOp44
 70
     1
102
RTVSPost2010Prop45
280
     0
102
RTVSPost2010PropOp45
 70
     1
102
RTVSPost2010Prop46
 90
       50
102
RTVSPost2010PropOp46
 70
     1
102
RTVSPost2010Prop47
 90
       50
102
RTVSPost2010PropOp47
 70
     1
102
RTVSPost2010Prop48
 90
       50
102
RTVSPost2010PropOp48
 70
     1
102
RTVSPost2010Prop49
280
     0
102
RTVSPost2010PropOp49
 70
     1
102
RTVSPost2010Prop50
 90
       50
102
RTVSPost2010PropOp50
 70
     1
102
RTVSPost2010Prop51ColorIndex
 90
      256
102
RTVSPost2010Prop51ColorRGB
 90
-16777216
102
RTVSPost2010PropOp51
 70
     0
102
RTVSPost2010Prop52
140
1.0
102
RTVSPost2010PropOp52
 70
     0
102
RTVSPost2010Prop53
 90
        2
102
RTVSPost2010PropOp53
 70
     1
102
RTVSPost2010Prop54
  1
strokes_ogs.tif
102
RTVSPost2010PropOp54
 70
     1
102
RTVSPost2010Prop55
280
     0
102
RTVSPost2010PropOp55
 70
     1
102
RTVSPost2010Prop56
140
1.0
102
RTVSPost2010PropOp56
 70
     1
102
RTVSPost2010Prop57
140
1.0
102
RTVSPost2010PropOp57
 70
     1
  0
XRECORD
  5
180
102
{ACAD_REACTORS
330
17F
102
}
330
17F
100
AcDbXrecord
280
     1
102
RTVSPost2010Prop28
280
     0
102
RTVSPost2010PropOp28
 70
     0
102
RTVSPost2010Prop29
280
     1
102
RTVSPost2010PropOp29
 70
     0
102
RTVSPost2010Prop30
280
     1
102
RTVSPost2010PropOp30
 70
     0
102
RTVSPost2010Prop31
280
     0
102
RTVSPost2010PropOp31
 70
     0
102
RTVSPost2010Prop32
280
     0
102
RTVSPost2010PropOp32
 70
     0
102
RTVSPost2010Prop33
280
     0
102
RTVSPost2010PropOp33
 70
     0
102
RTVSPost2010Prop34
280
     0
102
RTVSPost2010PropOp34
 70
     0
102
RTVSPost2010Prop35
280
     0
102
RTVSPost2010PropOp35
 70
     0
102
RTVSPost2010Prop36
280
     0
102
RTVSPost2010PropOp36
 70
     0
102
RTVSPost2010Prop37
 90
       50
102
RTVSPost2010PropOp37
 70
     0
102
RTVSPost2010Prop38
140
0.0
102
RTVSPost2010PropOp38
 70
     0
102
RTVSPost2010Prop39
140
1.0
102
RTVSPost2010PropOp39
 70
     0
102
RTVSPost2010Prop40
 90
        0
102
RTVSPost2010PropOp40
 70
     0
102
RTVSPost2010Prop41ColorIndex
 90
       18
102
RTVSPost2010Prop41ColorRGB
 90
        0
102
RTVSPost2010PropOp41
 70
     0
102
RTVSPost2010Prop42
 90
       50
102
RTVSPost2010PropOp42
 70
     0
102
RTVSPost2010Prop43
 90
        3
102
RTVSPost2010PropOp43
 70
     0
102
RTVSPost2010Prop44ColorIndex
 90
        5
102
RTVSPost2010Prop44ColorRGB
 90
      255
102
RTVSPost2010PropOp44
 70
     0
102
RTVSPost2010Prop45
280
     0
102
RTVSPost2010PropOp45
 70
     0
102
RTVSPost2010Prop46
 90
       50
102
RTVSPost2010PropOp46
 70
     0
102
RTVSPost2010Prop47
 90
       50
102
RTVSPost2010PropOp47
 70
     0
102
RTVSPost2010Prop48
 90
       50
102
RTVSPost2010PropOp48
 70
     0
102
RTVSPost2010Prop49
280
     0
102
RTVSPost2010PropOp49
 70
     0
102
RTVSPost2010Prop50
 90
       50
102
RTVSPost2010PropOp50
 70
     0
102
RTVSPost2010Prop51ColorIndex
 90
      256
102
RTVSPost2010Prop51ColorRGB
 90
-16777216
102
RTVSPost2010PropOp51
 70
     0
102
RTVSPost2010Prop52
140
1.0
102
RTVSPost2010PropOp52
 70
     0
102
RTVSPost2010Prop53
 90
        2
102
RTVSPost2010PropOp53
 70
     0
102
RTVSPost2010Prop54
  1
strokes_ogs.tif
102
RTVSPost2010PropOp54
 70
     0
102
RTVSPost2010Prop55
280
     0
102
RTVSPost2010PropOp55
 70
     0
102
RTVSPost2010Prop56
140
1.0
102
RTVSPost2010PropOp56
 70
     0
102
RTVSPost2010Prop57
140
1.0
102
RTVSPost2010PropOp57
 70
     0
  0
XRECORD
  5
166
102
{ACAD_REACTORS
330
165
102
}
330
165
100
AcDbXrecord
280
     1
102
RTVSPost2010Prop28
280
     0
102
RTVSPost2010PropOp28
 70
     1
102
RTVSPost2010Prop29
280
     1
102
RTVSPost2010PropOp29
 70
     1
102
RTVSPost2010Prop30
280
     1
102
RTVSPost2010PropOp30
 70
     1
102
RTVSPost2010Prop31
280
     0
102
RTVSPost2010PropOp31
 70
     1
102
RTVSPost2010Prop32
280
     0
102
RTVSPost2010PropOp32
 70
     1
102
RTVSPost2010Prop33
280
     0
102
RTVSPost2010PropOp33
 70
     1
102
RTVSPost2010Prop34
280
     0
102
RTVSPost2010PropOp34
 70
     1
102
RTVSPost2010Prop35
280
     0
102
RTVSPost2010PropOp35
 70
     1
102
RTVSPost2010Prop36
280
     0
102
RTVSPost2010PropOp36
 70
     1
102
RTVSPost2010Prop37
 90
       50
102
RTVSPost2010PropOp37
 70
     1
102
RTVSPost2010Prop38
140
0.0
102
RTVSPost2010PropOp38
 70
     1
102
RTVSPost2010Prop39
140
1.0
102
RTVSPost2010PropOp39
 70
     1
102
RTVSPost2010Prop40
 90
        0
102
RTVSPost2010PropOp40
 70
     1
102
RTVSPost2010Prop41ColorIndex
 90
       18
102
RTVSPost2010Prop41ColorRGB
 90
        0
102
RTVSPost2010PropOp41
 70
     1
102
RTVSPost2010Prop42
 90
       50
102
RTVSPost2010PropOp42
 70
     1
102
RTVSPost2010Prop43
 90
        3
102
RTVSPost2010PropOp43
 70
     1
102
RTVSPost2010Prop44ColorIndex
 90
        5
102
RTVSPost2010Prop44ColorRGB
 90
      255
102
RTVSPost2010PropOp44
 70
     1
102
RTVSPost2010Prop45
280
     0
102
RTVSPost2010PropOp45
 70
     1
102
RTVSPost2010Prop46
 90
       50
102
RTVSPost2010PropOp46
 70
     1
102
RTVSPost2010Prop47
 90
       50
102
RTVSPost2010PropOp47
 70
     1
102
RTVSPost2010Prop48
 90
       50
102
RTVSPost2010PropOp48
 70
     1
102
RTVSPost2010Prop49
280
     0
102
RTVSPost2010PropOp49
 70
     1
102
RTVSPost2010Prop50
 90
       50
102
RTVSPost2010PropOp50
 70
     1
102
RTVSPost2010Prop51ColorIndex
 90
      256
102
RTVSPost2010Prop51ColorRGB
 90
-16777216
102
RTVSPost2010PropOp51
 70
     0
102
RTVSPost2010Prop52
140
1.0
102
RTVSPost2010PropOp52
 70
     0
102
RTVSPost2010Prop53
 90
        2
102
RTVSPost2010PropOp53
 70
     1
102
RTVSPost2010Prop54
  1
strokes_ogs.tif
102
RTVSPost2010PropOp54
 70
     1
102
RTVSPost2010Prop55
280
     0
102
RTVSPost2010PropOp55
 70
     1
102
RTVSPost2010Prop56
140
1.0
102
RTVSPost2010PropOp56
 70
     1
102
RTVSPost2010Prop57
140
1.0
102
RTVSPost2010PropOp57
 70
     1
  0
XRECORD
  5
17C
102
{ACAD_REACTORS
330
17B
102
}
330
17B
100
AcDbXrecord
280
     1
102
RTVSPost2010Prop28
280
     0
102
RTVSPost2010PropOp28
 70
     1
102
RTVSPost2010Prop29
280
     1
102
RTVSPost2010PropOp29
 70
     1
102
RTVSPost2010Prop30
280
     1
102
RTVSPost2010PropOp30
 70
     1
102
RTVSPost2010Prop31
280
     0
102
RTVSPost2010PropOp31
 70
     1
102
RTVSPost2010Prop32
280
     0
102
RTVSPost2010PropOp32
 70
     1
102
RTVSPost2010Prop33
280
     0
102
RTVSPost2010PropOp33
 70
     1
102
RTVSPost2010Prop34
280
     0
102
RTVSPost2010PropOp34
 70
     1
102
RTVSPost2010Prop35
280
     0
102
RTVSPost2010PropOp35
 70
     1
102
RTVSPost2010Prop36
280
     0
102
RTVSPost2010PropOp36
 70
     1
102
RTVSPost2010Prop37
 90
       50
102
RTVSPost2010PropOp37
 70
     1
102
RTVSPost2010Prop38
140
0.0
102
RTVSPost2010PropOp38
 70
     1
102
RTVSPost2010Prop39
140
1.0
102
RTVSPost2010PropOp39
 70
     1
102
RTVSPost2010Prop40
 90
        0
102
RTVSPost2010PropOp40
 70
     1
102
RTVSPost2010Prop41ColorIndex
 90
       18
102
RTVSPost2010Prop41ColorRGB
 90
        0
102
RTVSPost2010PropOp41
 70
     1
102
RTVSPost2010Prop42
 90
       50
102
RTVSPost2010PropOp42
 70
     1
102
RTVSPost2010Prop43
 90
        3
102
RTVSPost2010PropOp43
 70
     1
102
RTVSPost2010Prop44ColorIndex
 90
        5
102
RTVSPost2010Prop44ColorRGB
 90
      255
102
RTVSPost2010PropOp44
 70
     1
102
RTVSPost2010Prop45
280
     0
102
RTVSPost2010PropOp45
 70
     1
102
RTVSPost2010Prop46
 90
       50
102
RTVSPost2010PropOp46
 70
     1
102
RTVSPost2010Prop47
 90
       50
102
RTVSPost2010PropOp47
 70
     1
102
RTVSPost2010Prop48
 90
       50
102
RTVSPost2010PropOp48
 70
     1
102
RTVSPost2010Prop49
280
     0
102
RTVSPost2010PropOp49
 70
     1
102
RTVSPost2010Prop50
 90
       50
102
RTVSPost2010PropOp50
 70
     1
102
RTVSPost2010Prop51ColorIndex
 90
      256
102
RTVSPost2010Prop51ColorRGB
 90
-16777216
102
RTVSPost2010PropOp51
 70
     0
102
RTVSPost2010Prop52
140
1.0
102
RTVSPost2010PropOp52
 70
     0
102
RTVSPost2010Prop53
 90
        2
102
RTVSPost2010PropOp53
 70
     1
102
RTVSPost2010Prop54
  1
strokes_ogs.tif
102
RTVSPost2010PropOp54
 70
     1
102
RTVSPost2010Prop55
280
     0
102
RTVSPost2010PropOp55
 70
     1
102
RTVSPost2010Prop56
140
1.0
102
RTVSPost2010PropOp56
 70
     1
102
RTVSPost2010Prop57
140
1.0
102
RTVSPost2010PropOp57
 70
     1
  0
XRECORD
  5
17A
102
{ACAD_REACTORS
330
179
102
}
330
179
100
AcDbXrecord
280
     1
102
RTVSPost2010Prop28
280
     0
102
RTVSPost2010PropOp28
 70
     1
102
RTVSPost2010Prop29
280
     1
102
RTVSPost2010PropOp29
 70
     1
102
RTVSPost2010Prop30
280
     1
102
RTVSPost2010PropOp30
 70
     1
102
RTVSPost2010Prop31
280
     0
102
RTVSPost2010PropOp31
 70
     1
102
RTVSPost2010Prop32
280
     0
102
RTVSPost2010PropOp32
 70
     1
102
RTVSPost2010Prop33
280
     0
102
RTVSPost2010PropOp33
 70
     1
102
RTVSPost2010Prop34
280
     0
102
RTVSPost2010PropOp34
 70
     1
102
RTVSPost2010Prop35
280
     0
102
RTVSPost2010PropOp35
 70
     1
102
RTVSPost2010Prop36
280
     0
102
RTVSPost2010PropOp36
 70
     1
102
RTVSPost2010Prop37
 90
       50
102
RTVSPost2010PropOp37
 70
     1
102
RTVSPost2010Prop38
140
0.0
102
RTVSPost2010PropOp38
 70
     1
102
RTVSPost2010Prop39
140
1.0
102
RTVSPost2010PropOp39
 70
     1
102
RTVSPost2010Prop40
 90
        0
102
RTVSPost2010PropOp40
 70
     1
102
RTVSPost2010Prop41ColorIndex
 90
       18
102
RTVSPost2010Prop41ColorRGB
 90
        0
102
RTVSPost2010PropOp41
 70
     1
102
RTVSPost2010Prop42
 90
       50
102
RTVSPost2010PropOp42
 70
     1
102
RTVSPost2010Prop43
 90
        3
102
RTVSPost2010PropOp43
 70
     1
102
RTVSPost2010Prop44ColorIndex
 90
        5
102
RTVSPost2010Prop44ColorRGB
 90
      255
102
RTVSPost2010PropOp44
 70
     1
102
RTVSPost2010Prop45
280
     0
102
RTVSPost2010PropOp45
 70
     1
102
RTVSPost2010Prop46
 90
       50
102
RTVSPost2010PropOp46
 70
     1
102
RTVSPost2010Prop47
 90
       50
102
RTVSPost2010PropOp47
 70
     1
102
RTVSPost2010Prop48
 90
       50
102
RTVSPost2010PropOp48
 70
     1
102
RTVSPost2010Prop49
280
     0
102
RTVSPost2010PropOp49
 70
     1
102
RTVSPost2010Prop50
 90
       50
102
RTVSPost2010PropOp50
 70
     1
102
RTVSPost2010Prop51ColorIndex
 90
      256
102
RTVSPost2010Prop51ColorRGB
 90
-16777216
102
RTVSPost2010PropOp51
 70
     0
102
RTVSPost2010Prop52
140
1.0
102
RTVSPost2010PropOp52
 70
     0
102
RTVSPost2010Prop53
 90
        2
102
RTVSPost2010PropOp53
 70
     1
102
RTVSPost2010Prop54
  1
strokes_ogs.tif
102
RTVSPost2010PropOp54
 70
     1
102
RTVSPost2010Prop55
280
     0
102
RTVSPost2010PropOp55
 70
     1
102
RTVSPost2010Prop56
140
1.0
102
RTVSPost2010PropOp56
 70
     1
102
RTVSPost2010Prop57
140
1.0
102
RTVSPost2010PropOp57
 70
     1
  0
XRECORD
  5
174
102
{ACAD_REACTORS
330
173
102
}
330
173
100
AcDbXrecord
280
     1
102
RTVSPost2010Prop28
280
     0
102
RTVSPost2010PropOp28
 70
     1
102
RTVSPost2010Prop29
280
     1
102
RTVSPost2010PropOp29
 70
     1
102
RTVSPost2010Prop30
280
     1
102
RTVSPost2010PropOp30
 70
     1
102
RTVSPost2010Prop31
280
     0
102
RTVSPost2010PropOp31
 70
     1
102
RTVSPost2010Prop32
280
     0
102
RTVSPost2010PropOp32
 70
     1
102
RTVSPost2010Prop33
280
     0
102
RTVSPost2010PropOp33
 70
     1
102
RTVSPost2010Prop34
280
     0
102
RTVSPost2010PropOp34
 70
     1
102
RTVSPost2010Prop35
280
     0
102
RTVSPost2010PropOp35
 70
     1
102
RTVSPost2010Prop36
280
     0
102
RTVSPost2010PropOp36
 70
     1
102
RTVSPost2010Prop37
 90
       50
102
RTVSPost2010PropOp37
 70
     1
102
RTVSPost2010Prop38
140
0.0
102
RTVSPost2010PropOp38
 70
     1
102
RTVSPost2010Prop39
140
1.0
102
RTVSPost2010PropOp39
 70
     1
102
RTVSPost2010Prop40
 90
        0
102
RTVSPost2010PropOp40
 70
     1
102
RTVSPost2010Prop41ColorIndex
 90
       18
102
RTVSPost2010Prop41ColorRGB
 90
        0
102
RTVSPost2010PropOp41
 70
     1
102
RTVSPost2010Prop42
 90
       50
102
RTVSPost2010PropOp42
 70
     1
102
RTVSPost2010Prop43
 90
        3
102
RTVSPost2010PropOp43
 70
     1
102
RTVSPost2010Prop44ColorIndex
 90
        5
102
RTVSPost2010Prop44ColorRGB
 90
      255
102
RTVSPost2010PropOp44
 70
     1
102
RTVSPost2010Prop45
280
     0
102
RTVSPost2010PropOp45
 70
     1
102
RTVSPost2010Prop46
 90
       50
102
RTVSPost2010PropOp46
 70
     1
102
RTVSPost2010Prop47
 90
       50
102
RTVSPost2010PropOp47
 70
     1
102
RTVSPost2010Prop48
 90
       50
102
RTVSPost2010PropOp48
 70
     1
102
RTVSPost2010Prop49
280
     0
102
RTVSPost2010PropOp49
 70
     1
102
RTVSPost2010Prop50
 90
       50
102
RTVSPost2010PropOp50
 70
     1
102
RTVSPost2010Prop51ColorIndex
 90
      256
102
RTVSPost2010Prop51ColorRGB
 90
-16777216
102
RTVSPost2010PropOp51
 70
     0
102
RTVSPost2010Prop52
140
1.0
102
RTVSPost2010PropOp52
 70
     0
102
RTVSPost2010Prop53
 90
        2
102
RTVSPost2010PropOp53
 70
     1
102
RTVSPost2010Prop54
  1
strokes_ogs.tif
102
RTVSPost2010PropOp54
 70
     1
102
RTVSPost2010Prop55
280
     0
102
RTVSPost2010PropOp55
 70
     1
102
RTVSPost2010Prop56
140
1.0
102
RTVSPost2010PropOp56
 70
     1
102
RTVSPost2010Prop57
140
1.0
102
RTVSPost2010PropOp57
 70
     1
  0
XRECORD
  5
176
102
{ACAD_REACTORS
330
175
102
}
330
175
100
AcDbXrecord
280
     1
102
RTVSPost2010Prop28
280
     0
102
RTVSPost2010PropOp28
 70
     1
102
RTVSPost2010Prop29
280
     1
102
RTVSPost2010PropOp29
 70
     1
102
RTVSPost2010Prop30
280
     1
102
RTVSPost2010PropOp30
 70
     1
102
RTVSPost2010Prop31
280
     0
102
RTVSPost2010PropOp31
 70
     1
102
RTVSPost2010Prop32
280
     0
102
RTVSPost2010PropOp32
 70
     1
102
RTVSPost2010Prop33
280
     0
102
RTVSPost2010PropOp33
 70
     1
102
RTVSPost2010Prop34
280
     0
102
RTVSPost2010PropOp34
 70
     1
102
RTVSPost2010Prop35
280
     0
102
RTVSPost2010PropOp35
 70
     1
102
RTVSPost2010Prop36
280
     0
102
RTVSPost2010PropOp36
 70
     1
102
RTVSPost2010Prop37
 90
       50
102
RTVSPost2010PropOp37
 70
     1
102
RTVSPost2010Prop38
140
0.0
102
RTVSPost2010PropOp38
 70
     1
102
RTVSPost2010Prop39
140
1.0
102
RTVSPost2010PropOp39
 70
     1
102
RTVSPost2010Prop40
 90
        0
102
RTVSPost2010PropOp40
 70
     1
102
RTVSPost2010Prop41ColorIndex
 90
       18
102
RTVSPost2010Prop41ColorRGB
 90
        0
102
RTVSPost2010PropOp41
 70
     1
102
RTVSPost2010Prop42
 90
       50
102
RTVSPost2010PropOp42
 70
     1
102
RTVSPost2010Prop43
 90
        3
102
RTVSPost2010PropOp43
 70
     1
102
RTVSPost2010Prop44ColorIndex
 90
        5
102
RTVSPost2010Prop44ColorRGB
 90
      255
102
RTVSPost2010PropOp44
 70
     1
102
RTVSPost2010Prop45
280
     0
102
RTVSPost2010PropOp45
 70
     1
102
RTVSPost2010Prop46
 90
       50
102
RTVSPost2010PropOp46
 70
     1
102
RTVSPost2010Prop47
 90
       50
102
RTVSPost2010PropOp47
 70
     1
102
RTVSPost2010Prop48
 90
       50
102
RTVSPost2010PropOp48
 70
     1
102
RTVSPost2010Prop49
280
     0
102
RTVSPost2010PropOp49
 70
     1
102
RTVSPost2010Prop50
 90
       50
102
RTVSPost2010PropOp50
 70
     1
102
RTVSPost2010Prop51ColorIndex
 90
      256
102
RTVSPost2010Prop51ColorRGB
 90
-16777216
102
RTVSPost2010PropOp51
 70
     0
102
RTVSPost2010Prop52
140
1.0
102
RTVSPost2010PropOp52
 70
     0
102
RTVSPost2010Prop53
 90
        2
102
RTVSPost2010PropOp53
 70
     1
102
RTVSPost2010Prop54
  1
strokes_ogs.tif
102
RTVSPost2010PropOp54
 70
     1
102
RTVSPost2010Prop55
280
     0
102
RTVSPost2010PropOp55
 70
     1
102
RTVSPost2010Prop56
140
1.0
102
RTVSPost2010PropOp56
 70
     1
102
RTVSPost2010Prop57
140
1.0
102
RTVSPost2010PropOp57
 70
     1
  0
XRECORD
  5
16C
102
{ACAD_REACTORS
330
16B
102
}
330
16B
100
AcDbXrecord
280
     1
102
RTVSPost2010Prop28
280
     0
102
RTVSPost2010PropOp28
 70
     1
102
RTVSPost2010Prop29
280
     1
102
RTVSPost2010PropOp29
 70
     1
102
RTVSPost2010Prop30
280
     1
102
RTVSPost2010PropOp30
 70
     1
102
RTVSPost2010Prop31
280
     0
102
RTVSPost2010PropOp31
 70
     1
102
RTVSPost2010Prop32
280
     0
102
RTVSPost2010PropOp32
 70
     1
102
RTVSPost2010Prop33
280
     0
102
RTVSPost2010PropOp33
 70
     1
102
RTVSPost2010Prop34
280
     0
102
RTVSPost2010PropOp34
 70
     1
102
RTVSPost2010Prop35
280
     0
102
RTVSPost2010PropOp35
 70
     1
102
RTVSPost2010Prop36
280
     0
102
RTVSPost2010PropOp36
 70
     1
102
RTVSPost2010Prop37
 90
       50
102
RTVSPost2010PropOp37
 70
     1
102
RTVSPost2010Prop38
140
0.0
102
RTVSPost2010PropOp38
 70
     1
102
RTVSPost2010Prop39
140
1.0
102
RTVSPost2010PropOp39
 70
     1
102
RTVSPost2010Prop40
 90
        0
102
RTVSPost2010PropOp40
 70
     1
102
RTVSPost2010Prop41ColorIndex
 90
       18
102
RTVSPost2010Prop41ColorRGB
 90
        0
102
RTVSPost2010PropOp41
 70
     1
102
RTVSPost2010Prop42
 90
       50
102
RTVSPost2010PropOp42
 70
     1
102
RTVSPost2010Prop43
 90
        3
102
RTVSPost2010PropOp43
 70
     1
102
RTVSPost2010Prop44ColorIndex
 90
        5
102
RTVSPost2010Prop44ColorRGB
 90
      255
102
RTVSPost2010PropOp44
 70
     1
102
RTVSPost2010Prop45
280
     0
102
RTVSPost2010PropOp45
 70
     1
102
RTVSPost2010Prop46
 90
       50
102
RTVSPost2010PropOp46
 70
     1
102
RTVSPost2010Prop47
 90
       50
102
RTVSPost2010PropOp47
 70
     1
102
RTVSPost2010Prop48
 90
       50
102
RTVSPost2010PropOp48
 70
     1
102
RTVSPost2010Prop49
280
     0
102
RTVSPost2010PropOp49
 70
     1
102
RTVSPost2010Prop50
 90
       50
102
RTVSPost2010PropOp50
 70
     1
102
RTVSPost2010Prop51ColorIndex
 90
      256
102
RTVSPost2010Prop51ColorRGB
 90
-16777216
102
RTVSPost2010PropOp51
 70
     0
102
RTVSPost2010Prop52
140
1.0
102
RTVSPost2010PropOp52
 70
     0
102
RTVSPost2010Prop53
 90
        2
102
RTVSPost2010PropOp53
 70
     1
102
RTVSPost2010Prop54
  1
strokes_ogs.tif
102
RTVSPost2010PropOp54
 70
     1
102
RTVSPost2010Prop55
280
     0
102
RTVSPost2010PropOp55
 70
     1
102
RTVSPost2010Prop56
140
1.0
102
RTVSPost2010PropOp56
 70
     1
102
RTVSPost2010Prop57
140
1.0
102
RTVSPost2010PropOp57
 70
     1
  0
XRECORD
  5
160
102
{ACAD_REACTORS
330
15F
102
}
330
15F
100
AcDbXrecord
280
     1
102
RTVSPost2010Prop28
280
     0
102
RTVSPost2010PropOp28
 70
     1
102
RTVSPost2010Prop29
280
     1
102
RTVSPost2010PropOp29
 70
     1
102
RTVSPost2010Prop30
280
     1
102
RTVSPost2010PropOp30
 70
     1
102
RTVSPost2010Prop31
280
     0
102
RTVSPost2010PropOp31
 70
     1
102
RTVSPost2010Prop32
280
     0
102
RTVSPost2010PropOp32
 70
     1
102
RTVSPost2010Prop33
280
     0
102
RTVSPost2010PropOp33
 70
     1
102
RTVSPost2010Prop34
280
     0
102
RTVSPost2010PropOp34
 70
     1
102
RTVSPost2010Prop35
280
     0
102
RTVSPost2010PropOp35
 70
     1
102
RTVSPost2010Prop36
280
     0
102
RTVSPost2010PropOp36
 70
     1
102
RTVSPost2010Prop37
 90
       50
102
RTVSPost2010PropOp37
 70
     1
102
RTVSPost2010Prop38
140
0.0
102
RTVSPost2010PropOp38
 70
     1
102
RTVSPost2010Prop39
140
1.0
102
RTVSPost2010PropOp39
 70
     1
102
RTVSPost2010Prop40
 90
        0
102
RTVSPost2010PropOp40
 70
     1
102
RTVSPost2010Prop41ColorIndex
 90
       18
102
RTVSPost2010Prop41ColorRGB
 90
        0
102
RTVSPost2010PropOp41
 70
     1
102
RTVSPost2010Prop42
 90
       50
102
RTVSPost2010PropOp42
 70
     1
102
RTVSPost2010Prop43
 90
        3
102
RTVSPost2010PropOp43
 70
     1
102
RTVSPost2010Prop44ColorIndex
 90
        5
102
RTVSPost2010Prop44ColorRGB
 90
      255
102
RTVSPost2010PropOp44
 70
     1
102
RTVSPost2010Prop45
280
     0
102
RTVSPost2010PropOp45
 70
     1
102
RTVSPost2010Prop46
 90
       50
102
RTVSPost2010PropOp46
 70
     1
102
RTVSPost2010Prop47
 90
       50
102
RTVSPost2010PropOp47
 70
     1
102
RTVSPost2010Prop48
 90
       50
102
RTVSPost2010PropOp48
 70
     1
102
RTVSPost2010Prop49
280
     0
102
RTVSPost2010PropOp49
 70
     1
102
RTVSPost2010Prop50
 90
       50
102
RTVSPost2010PropOp50
 70
     1
102
RTVSPost2010Prop51ColorIndex
 90
      256
102
RTVSPost2010Prop51ColorRGB
 90
-16777216
102
RTVSPost2010PropOp51
 70
     0
102
RTVSPost2010Prop52
140
1.0
102
RTVSPost2010PropOp52
 70
     0
102
RTVSPost2010Prop53
 90
        2
102
RTVSPost2010PropOp53
 70
     1
102
RTVSPost2010Prop54
  1
strokes_ogs.tif
102
RTVSPost2010PropOp54
 70
     1
102
RTVSPost2010Prop55
280
     0
102
RTVSPost2010PropOp55
 70
     1
102
RTVSPost2010Prop56
140
1.0
102
RTVSPost2010PropOp56
 70
     1
102
RTVSPost2010Prop57
140
1.0
102
RTVSPost2010PropOp57
 70
     1
  0
XRECORD
  5
178
102
{ACAD_REACTORS
330
177
102
}
330
177
100
AcDbXrecord
280
     1
102
RTVSPost2010Prop28
280
     0
102
RTVSPost2010PropOp28
 70
     1
102
RTVSPost2010Prop29
280
     1
102
RTVSPost2010PropOp29
 70
     1
102
RTVSPost2010Prop30
280
     1
102
RTVSPost2010PropOp30
 70
     1
102
RTVSPost2010Prop31
280
     0
102
RTVSPost2010PropOp31
 70
     1
102
RTVSPost2010Prop32
280
     0
102
RTVSPost2010PropOp32
 70
     1
102
RTVSPost2010Prop33
280
     0
102
RTVSPost2010PropOp33
 70
     1
102
RTVSPost2010Prop34
280
     0
102
RTVSPost2010PropOp34
 70
     1
102
RTVSPost2010Prop35
280
     0
102
RTVSPost2010PropOp35
 70
     1
102
RTVSPost2010Prop36
280
     0
102
RTVSPost2010PropOp36
 70
     1
102
RTVSPost2010Prop37
 90
       50
102
RTVSPost2010PropOp37
 70
     1
102
RTVSPost2010Prop38
140
0.0
102
RTVSPost2010PropOp38
 70
     1
102
RTVSPost2010Prop39
140
1.0
102
RTVSPost2010PropOp39
 70
     1
102
RTVSPost2010Prop40
 90
        0
102
RTVSPost2010PropOp40
 70
     1
102
RTVSPost2010Prop41ColorIndex
 90
       18
102
RTVSPost2010Prop41ColorRGB
 90
        0
102
RTVSPost2010PropOp41
 70
     1
102
RTVSPost2010Prop42
 90
       50
102
RTVSPost2010PropOp42
 70
     1
102
RTVSPost2010Prop43
 90
        3
102
RTVSPost2010PropOp43
 70
     1
102
RTVSPost2010Prop44ColorIndex
 90
        5
102
RTVSPost2010Prop44ColorRGB
 90
      255
102
RTVSPost2010PropOp44
 70
     1
102
RTVSPost2010Prop45
280
     0
102
RTVSPost2010PropOp45
 70
     1
102
RTVSPost2010Prop46
 90
       50
102
RTVSPost2010PropOp46
 70
     1
102
RTVSPost2010Prop47
 90
       50
102
RTVSPost2010PropOp47
 70
     1
102
RTVSPost2010Prop48
 90
       50
102
RTVSPost2010PropOp48
 70
     1
102
RTVSPost2010Prop49
280
     0
102
RTVSPost2010PropOp49
 70
     1
102
RTVSPost2010Prop50
 90
       50
102
RTVSPost2010PropOp50
 70
     1
102
RTVSPost2010Prop51ColorIndex
 90
      256
102
RTVSPost2010Prop51ColorRGB
 90
-16777216
102
RTVSPost2010PropOp51
 70
     0
102
RTVSPost2010Prop52
140
1.0
102
RTVSPost2010PropOp52
 70
     0
102
RTVSPost2010Prop53
 90
        2
102
RTVSPost2010PropOp53
 70
     1
102
RTVSPost2010Prop54
  1
strokes_ogs.tif
102
RTVSPost2010PropOp54
 70
     1
102
RTVSPost2010Prop55
280
     0
102
RTVSPost2010PropOp55
 70
     1
102
RTVSPost2010Prop56
140
1.0
102
RTVSPost2010PropOp56
 70
     1
102
RTVSPost2010Prop57
140
1.0
102
RTVSPost2010PropOp57
 70
     1
  0
ENDSEC
  0
EOF
