  0
SECTION
  2
HEADER
  9
$ACADVER
  1
AC1024
  9
$ACADMAINTVER
 70
   226
  9
$DWGCODEPAGE
  3
ANSI_932
  9
$INSBASE
 10
0.0
 20
0.0
 30
0.0
  9
$EXTMIN
 10
1.000000000000000E+20
 20
1.000000000000000E+20
 30
1.000000000000000E+20
  9
$EXTMAX
 10
-1.000000000000000E+20
 20
-1.000000000000000E+20
 30
-1.000000000000000E+20
  9
$LIMMIN
 10
0.0
 20
0.0
  9
$LIMMAX
 10
12.0
 20
9.0
  9
$ORTHOMODE
 70
     0
  9
$REGENMODE
 70
     1
  9
$FILLMODE
 70
     1
  9
$QTEXTMODE
 70
     0
  9
$MIRRTEXT
 70
     0
  9
$LTSCALE
 40
1.0
  9
$ATTMODE
 70
     1
  9
$TEXTSIZE
 40
0.2
  9
$TRACEWID
 40
0.05
  9
$TEXTSTYLE
  7
Standard
  9
$CLAYER
  8
0
  9
$CELTYPE
  6
ByLayer
  9
$CECOLOR
 62
   256
  9
$CELTSCALE
 40
1.0
  9
$DISPSILH
 70
     0
  9
$DIMSCALE
 40
1.0
  9
$DIMASZ
 40
0.18
  9
$DIMEXO
 40
0.0625
  9
$DIMDLI
 40
0.38
  9
$DIMRND
 40
0.0
  9
$DIMDLE
 40
0.0
  9
$DIMEXE
 40
0.18
  9
$DIMTP
 40
0.0
  9
$DIMTM
 40
0.0
  9
$DIMTXT
 40
0.18
  9
$DIMCEN
 40
0.09
  9
$DIMTSZ
 40
0.0
  9
$DIMTOL
 70
     0
  9
$DIMLIM
 70
     0
  9
$DIMTIH
 70
     1
  9
$DIMTOH
 70
     1
  9
$DIMSE1
 70
     0
  9
$DIMSE2
 70
     0
  9
$DIMTAD
 70
     0
  9
$DIMZIN
 70
     0
  9
$DIMBLK
  1

  9
$DIMASO
 70
     1
  9
$DIMSHO
 70
     1
  9
$DIMPOST
  1

  9
$DIMAPOST
  1

  9
$DIMALT
 70
     0
  9
$DIMALTD
 70
     2
  9
$DIMALTF
 40
25.4
  9
$DIMLFAC
 40
1.0
  9
$DIMTOFL
 70
     0
  9
$DIMTVP
 40
0.0
  9
$DIMTIX
 70
     0
  9
$DIMSOXD
 70
     0
  9
$DIMSAH
 70
     0
  9
$DIMBLK1
  1

  9
$DIMBLK2
  1

  9
$DIMSTYLE
  2
Standard
  9
$DIMCLRD
 70
     0
  9
$DIMCLRE
 70
     0
  9
$DIMCLRT
 70
     0
  9
$DIMTFAC
 40
1.0
  9
$DIMGAP
 40
0.09
  9
$DIMJUST
 70
     0
  9
$DIMSD1
 70
     0
  9
$DIMSD2
 70
     0
  9
$DIMTOLJ
 70
     1
  9
$DIMTZIN
 70
     0
  9
$DIMALTZ
 70
     0
  9
$DIMALTTZ
 70
     0
  9
$DIMUPT
 70
     0
  9
$DIMDEC
 70
     4
  9
$DIMTDEC
 70
     4
  9
$DIMALTU
 70
     2
  9
$DIMALTTD
 70
     2
  9
$DIMTXSTY
  7
Standard
  9
$DIMAUNIT
 70
     0
  9
$DIMADEC
 70
     0
  9
$DIMALTRND
 40
0.0
  9
$DIMAZIN
 70
     0
  9
$DIMDSEP
 70
    46
  9
$DIMATFIT
 70
     3
  9
$DIMFRAC
 70
     0
  9
$DIMLDRBLK
  1

  9
$DIMLUNIT
 70
     2
  9
$DIMLWD
 70
    -2
  9
$DIMLWE
 70
    -2
  9
$DIMTMOVE
 70
     0
  9
$DIMFXL
 40
1.0
  9
$DIMFXLON
 70
     0
  9
$DIMJOGANG
 40
0.7853981633974483
  9
$DIMTFILL
 70
     0
  9
$DIMTFILLCLR
 70
     0
  9
$DIMARCSYM
 70
     0
  9
$DIMLTYPE
  6

  9
$DIMLTEX1
  6

  9
$DIMLTEX2
  6

  9
$DIMTXTDIRECTION
 70
     0
  9
$LUNITS
 70
     2
  9
$LUPREC
 70
     4
  9
$SKETCHINC
 40
0.1
  9
$FILLETRAD
 40
0.0
  9
$AUNITS
 70
     0
  9
$AUPREC
 70
     0
  9
$MENU
  1
.
  9
$ELEVATION
 40
0.0
  9
$PELEVATION
 40
0.0
  9
$THICKNESS
 40
0.0
  9
$LIMCHECK
 70
     0
  9
$CHAMFERA
 40
0.0
  9
$CHAMFERB
 40
0.0
  9
$CHAMFERC
 40
0.0
  9
$CHAMFERD
 40
0.0
  9
$SKPOLY
 70
     0
  9
$TDCREATE
 40
2459569.503553240
  9
$TDUCREATE
 40
2459569.128553241
  9
$TDUPDATE
 40
2459569.503553240
  9
$TDUUPDATE
 40
2459569.128553241
  9
$TDINDWG
 40
0.0000000000
  9
$TDUSRTIMER
 40
0.0000000000
  9
$USRTIMER
 70
     1
  9
$ANGBASE
 50
0.0
  9
$ANGDIR
 70
     0
  9
$PDMODE
 70
     0
  9
$PDSIZE
 40
0.0
  9
$PLINEWID
 40
0.0
  9
$SPLFRAME
 70
     0
  9
$SPLINETYPE
 70
     6
  9
$SPLINESEGS
 70
     8
  9
$HANDSEED
  5
161
  9
$SURFTAB1
 70
     6
  9
$SURFTAB2
 70
     6
  9
$SURFTYPE
 70
     6
  9
$SURFU
 70
     6
  9
$SURFV
 70
     6
  9
$UCSBASE
  2

  9
$UCSNAME
  2

  9
$UCSORG
 10
0.0
 20
0.0
 30
0.0
  9
$UCSXDIR
 10
1.0
 20
0.0
 30
0.0
  9
$UCSYDIR
 10
0.0
 20
1.0
 30
0.0
  9
$UCSORTHOREF
  2

  9
$UCSORTHOVIEW
 70
     0
  9
$UCSORGTOP
 10
0.0
 20
0.0
 30
0.0
  9
$UCSORGBOTTOM
 10
0.0
 20
0.0
 30
0.0
  9
$UCSORGLEFT
 10
0.0
 20
0.0
 30
0.0
  9
$UCSORGRIGHT
 10
0.0
 20
0.0
 30
0.0
  9
$UCSORGFRONT
 10
0.0
 20
0.0
 30
0.0
  9
$UCSORGBACK
 10
0.0
 20
0.0
 30
0.0
  9
$PUCSBASE
  2

  9
$PUCSNAME
  2

  9
$PUCSORG
 10
0.0
 20
0.0
 30
0.0
  9
$PUCSXDIR
 10
1.0
 20
0.0
 30
0.0
  9
$PUCSYDIR
 10
0.0
 20
1.0
 30
0.0
  9
$PUCSORTHOREF
  2

  9
$PUCSORTHOVIEW
 70
     0
  9
$PUCSORGTOP
 10
0.0
 20
0.0
 30
0.0
  9
$PUCSORGBOTTOM
 10
0.0
 20
0.0
 30
0.0
  9
$PUCSORGLEFT
 10
0.0
 20
0.0
 30
0.0
  9
$PUCSORGRIGHT
 10
0.0
 20
0.0
 30
0.0
  9
$PUCSORGFRONT
 10
0.0
 20
0.0
 30
0.0
  9
$PUCSORGBACK
 10
0.0
 20
0.0
 30
0.0
  9
$USERI1
 70
     0
  9
$USERI2
 70
     0
  9
$USERI3
 70
     0
  9
$USERI4
 70
     0
  9
$USERI5
 70
     0
  9
$USERR1
 40
0.0
  9
$USERR2
 40
0.0
  9
$USERR3
 40
0.0
  9
$USERR4
 40
0.0
  9
$USERR5
 40
0.0
  9
$WORLDVIEW
 70
     1
  9
$SHADEDGE
 70
     3
  9
$SHADEDIF
 70
    70
  9
$TILEMODE
 70
     1
  9
$MAXACTVP
 70
    64
  9
$PINSBASE
 10
0.0
 20
0.0
 30
0.0
  9
$PLIMCHECK
 70
     0
  9
$PEXTMIN
 10
1.000000000000000E+20
 20
1.000000000000000E+20
 30
1.000000000000000E+20
  9
$PEXTMAX
 10
-1.000000000000000E+20
 20
-1.000000000000000E+20
 30
-1.000000000000000E+20
  9
$PLIMMIN
 10
0.0
 20
0.0
  9
$PLIMMAX
 10
12.0
 20
9.0
  9
$UNITMODE
 70
     0
  9
$VISRETAIN
 70
     1
  9
$PLINEGEN
 70
     0
  9
$PSLTSCALE
 70
     1
  9
$TREEDEPTH
 70
  3020
  9
$CMLSTYLE
  2
Standard
  9
$CMLJUST
 70
     0
  9
$CMLSCALE
 40
1.0
  9
$PROXYGRAPHICS
 70
     1
  9
$MEASUREMENT
 70
     0
  9
$CELWEIGHT
370
    -1
  9
$ENDCAPS
280
     0
  9
$JOINSTYLE
280
     0
  9
$LWDISPLAY
290
     1
  9
$INSUNITS
 70
     4
  9
$HYPERLINKBASE
  1

  9
$STYLESHEET
  1

  9
$XEDIT
290
     1
  9
$CEPSNTYPE
380
     0
  9
$PSTYLEMODE
290
     1
  9
$FINGERPRINTGUID
  2
{67F9D0E2-E83F-B042-B3B8-751F31F90A09}
  9
$VERSIONGUID
  2
{42B00073-4C35-6D46-94C7-C1DEBE66167C}
  9
$EXTNAMES
290
     1
  9
$PSVPSCALE
 40
0.0
  9
$OLESTARTUP
290
     0
  9
$SORTENTS
280
   127
  9
$INDEXCTL
280
     0
  9
$HIDETEXT
280
     1
  9
$XCLIPFRAME
280
     2
  9
$HALOGAP
280
     0
  9
$OBSCOLOR
 70
   257
  9
$OBSLTYPE
280
     0
  9
$INTERSECTIONDISPLAY
280
     0
  9
$INTERSECTIONCOLOR
 70
   257
  9
$DIMASSOC
280
     2
  9
$PROJECTNAME
  1

  9
$CAMERADISPLAY
290
     0
  9
$LENSLENGTH
 40
50.0
  9
$CAMERAHEIGHT
 40
0.0
  9
$STEPSPERSEC
 40
2.0
  9
$STEPSIZE
 40
6.0
  9
$3DDWFPREC
 40
2.0
  9
$PSOLWIDTH
 40
0.25
  9
$PSOLHEIGHT
 40
4.0
  9
$LOFTANG1
 40
1.570796326794896
  9
$LOFTANG2
 40
1.570796326794896
  9
$LOFTMAG1
 40
0.0
  9
$LOFTMAG2
 40
0.0
  9
$LOFTPARAM
 70
     7
  9
$LOFTNORMALS
280
     1
  9
$LATITUDE
 40
37.795
  9
$LONGITUDE
 40
-122.394
  9
$NORTHDIRECTION
 40
0.0
  9
$TIMEZONE
 70
 -8000
  9
$LIGHTGLYPHDISPLAY
280
     1
  9
$TILEMODELIGHTSYNCH
280
     1
  9
$CMATERIAL
347
11
  9
$SOLIDHIST
280
     0
  9
$SHOWHIST
280
     1
  9
$DWFFRAME
280
     2
  9
$DGNFRAME
280
     0
  9
$REALWORLDSCALE
290
     1
  9
$INTERFERECOLOR
 62
     1
  9
$INTERFEREOBJVS
345
33
  9
$INTERFEREVPVS
346
30
  9
$CSHADOW
280
     0
  9
$SHADOWPLANELOCATION
 40
0.0
  0
ENDSEC
  0
SECTION
  2
CLASSES
  0
CLASS
  1
ACDBDICTIONARYWDFLT
  2
AcDbDictionaryWithDefault
  3
ObjectDBX Classes
 90
        0
 91
        1
280
     0
281
     0
  0
CLASS
  1
MATERIAL
  2
AcDbMaterial
  3
ObjectDBX Classes
 90
     1153
 91
        3
280
     0
281
     0
  0
CLASS
  1
VISUALSTYLE
  2
AcDbVisualStyle
  3
ObjectDBX Classes
 90
     4095
 91
       24
280
     0
281
     0
  0
CLASS
  1
SCALE
  2
AcDbScale
  3
ObjectDBX Classes
 90
     1153
 91
       17
280
     0
281
     0
  0
CLASS
  1
TABLESTYLE
  2
AcDbTableStyle
  3
ObjectDBX Classes
 90
     4095
 91
        1
280
     0
281
     0
  0
CLASS
  1
MLEADERSTYLE
  2
AcDbMLeaderStyle
  3
ACDB_MLEADERSTYLE_CLASS
 90
     4095
 91
        1
280
     0
281
     0
  0
CLASS
  1
ACDBSECTIONVIEWSTYLE
  2
AcDbSectionViewStyle
  3
ObjectDBX Classes
 90
     1025
 91
        1
280
     0
281
     0
  0
CLASS
  1
ACDBDETAILVIEWSTYLE
  2
AcDbDetailViewStyle
  3
ObjectDBX Classes
 90
     1025
 91
        1
280
     0
281
     0
  0
CLASS
  1
DICTIONARYVAR
  2
AcDbDictionaryVar
  3
ObjectDBX Classes
 90
        0
 91
        5
280
     0
281
     0
  0
CLASS
  1
CELLSTYLEMAP
  2
AcDbCellStyleMap
  3
ObjectDBX Classes
 90
     1152
 91
        1
280
     0
281
     0
  0
ENDSEC
  0
SECTION
  2
TABLES
  0
TABLE
  2
VPORT
  5
8
330
0
100
AcDbSymbolTable
 70
     1
  0
VPORT
  5
57
330
8
100
AcDbSymbolTableRecord
100
AcDbViewportTableRecord
  2
*Active
 70
     0
 10
0.0
 20
0.0
 11
1.0
 21
1.0
 12
0.0
 22
0.0
 13
0.0
 23
0.0
 14
1.0
 24
1.0
 15
0.0
 25
0.0
 16
0.0
 26
0.0
 36
1.0
 17
104.9999999737534
 27
-148.4999999628701
 37
0.0
 40
302.939999924255
 41
0.7070707070707534
 42
50.0
 43
0.0
 44
0.0
 50
0.0
 51
0.0
 71
     0
 72
   100
 73
     1
 74
     0
 75
     1
 76
     0
 77
     0
 78
     0
281
     0
 65
     1
110
0.0
120
0.0
130
0.0
111
1.0
121
0.0
131
0.0
112
0.0
122
1.0
132
0.0
 79
     0
146
0.0
 60
     3
 61
     5
292
     1
282
     1
141
0.0
142
0.0
 63
   250
421
  3355443
  0
ENDTAB
  0
TABLE
  2
LTYPE
  5
5
330
0
100
AcDbSymbolTable
 70
     2
  0
LTYPE
  5
5B
330
5
100
AcDbSymbolTableRecord
100
AcDbLinetypeTableRecord
  2
ByBlock
 70
     0
  3

 72
    65
 73
     0
 40
0.0
  0
LTYPE
  5
5C
330
5
100
AcDbSymbolTableRecord
100
AcDbLinetypeTableRecord
  2
ByLayer
 70
     0
  3

 72
    65
 73
     0
 40
0.0
  0
LTYPE
  5
5D
330
5
100
AcDbSymbolTableRecord
100
AcDbLinetypeTableRecord
  2
Continuous
 70
     0
  3
Solid line
 72
    65
 73
     0
 40
0.0
  0
LTYPE
  5
FB
330
5
100
AcDbSymbolTableRecord
100
AcDbLinetypeTableRecord
  2
AI-Linetype-0
 70
     0
  3
Adobe Illustrator Linetype No. 0
 72
    65
 73
     2
 40
1.411111110758333
 49
0.7055555553791667
 74
     0
 49
-0.7055555553791667
 74
     0
  0
ENDTAB
  0
TABLE
  2
LAYER
  5
2
330
0
100
AcDbSymbolTable
 70
     2
  0
LAYER
  5
54
330
2
100
AcDbSymbolTableRecord
100
AcDbLayerTableRecord
  2
0
 70
     0
 62
     7
  6
Continuous
370
    -3
390
F
347
21
  0
LAYER
  5
78
330
2
100
AcDbSymbolTableRecord
100
AcDbLayerTableRecord
  2
レイヤー 1
 70
     0
 62
     7
  6
Continuous
370
     0
390
F
347
21
  0
ENDTAB
  0
TABLE
  2
STYLE
  5
3
330
0
100
AcDbSymbolTable
 70
     2
  0
STYLE
  5
55
330
3
100
AcDbSymbolTableRecord
100
AcDbTextStyleTableRecord
  2
Standard
 70
     0
 40
0.0
 41
1.0
 50
0.0
 71
     0
 42
0.2
  3
txt
  4

  0
STYLE
  5
5A
330
3
100
AcDbSymbolTableRecord
100
AcDbTextStyleTableRecord
  2
Annotative
 70
     0
 40
0.0
 41
1.0
 50
0.0
 71
     0
 42
0.2
  3
txt
  4

1001
AcadAnnotative
1000
AnnotativeData
1002
{
1070
     1
1070
     1
1002
}
  0
ENDTAB
  0
TABLE
  2
VIEW
  5
6
330
0
100
AcDbSymbolTable
 70
     0
  0
ENDTAB
  0
TABLE
  2
UCS
  5
7
330
0
100
AcDbSymbolTable
 70
     0
  0
ENDTAB
  0
TABLE
  2
APPID
  5
9
330
0
100
AcDbSymbolTable
 70
     2
  0
APPID
  5
56
330
9
100
AcDbSymbolTableRecord
100
AcDbRegAppTableRecord
  2
ACAD
 70
     0
  0
APPID
  5
5E
330
9
100
AcDbSymbolTableRecord
100
AcDbRegAppTableRecord
  2
AcadAnnotative
 70
     0
  0
ENDTAB
  0
TABLE
  2
DIMSTYLE
  5
A
330
0
100
AcDbSymbolTable
 70
     2
100
AcDbDimStyleTable
 71
     0
  0
DIMSTYLE
105
58
330
A
100
AcDbSymbolTableRecord
100
AcDbDimStyleTableRecord
  2
Standard
 70
     0
340
55
  0
DIMSTYLE
105
59
330
A
100
AcDbSymbolTableRecord
100
AcDbDimStyleTableRecord
  2
Annotative
 70
     0
340
55
1001
AcadAnnotative
1000
AnnotativeData
1002
{
1070
     1
1070
     1
1002
}
  0
ENDTAB
  0
TABLE
  2
BLOCK_RECORD
  5
1
330
0
100
AcDbSymbolTable
 70
    13
  0
BLOCK_RECORD
  5
70
330
1
100
AcDbSymbolTableRecord
100
AcDbBlockTableRecord
  2
*Model_Space
340
73
 70
     0
280
     1
281
     0
  0
BLOCK_RECORD
  5
6C
330
1
100
AcDbSymbolTableRecord
100
AcDbBlockTableRecord
  2
*Paper_Space
340
6F
 70
     0
280
     1
281
     0
  0
BLOCK_RECORD
  5
74
330
1
100
AcDbSymbolTableRecord
100
AcDbBlockTableRecord
  2
*Paper_Space0
340
77
 70
     0
280
     1
281
     0
  0
BLOCK_RECORD
  5
B4
330
1
100
AcDbSymbolTableRecord
100
AcDbBlockTableRecord
  2
Block_0
340
0
102
{BLKREFS
331
B5
102
}
 70
     0
280
     1
281
     0
  0
BLOCK_RECORD
  5
B8
330
1
100
AcDbSymbolTableRecord
100
AcDbBlockTableRecord
  2
Block_1
340
0
102
{BLKREFS
331
B9
102
}
 70
     0
280
     1
281
     0
  0
BLOCK_RECORD
  5
C5
330
1
100
AcDbSymbolTableRecord
100
AcDbBlockTableRecord
  2
Block_2
340
0
102
{BLKREFS
331
C6
102
}
 70
     0
280
     1
281
     0
  0
BLOCK_RECORD
  5
C9
330
1
100
AcDbSymbolTableRecord
100
AcDbBlockTableRecord
  2
Block_3
340
0
102
{BLKREFS
331
CA
102
}
 70
     0
280
     1
281
     0
  0
BLOCK_RECORD
  5
D3
330
1
100
AcDbSymbolTableRecord
100
AcDbBlockTableRecord
  2
Block_4
340
0
102
{BLKREFS
331
D4
102
}
 70
     0
280
     1
281
     0
  0
BLOCK_RECORD
  5
DE
330
1
100
AcDbSymbolTableRecord
100
AcDbBlockTableRecord
  2
Block_5
340
0
102
{BLKREFS
331
DF
102
}
 70
     0
280
     1
281
     0
  0
BLOCK_RECORD
  5
EA
330
1
100
AcDbSymbolTableRecord
100
AcDbBlockTableRecord
  2
Block_6
340
0
102
{BLKREFS
331
EB
102
}
 70
     0
280
     1
281
     0
  0
BLOCK_RECORD
  5
F4
330
1
100
AcDbSymbolTableRecord
100
AcDbBlockTableRecord
  2
Block_7
340
0
102
{BLKREFS
331
F5
102
}
 70
     0
280
     1
281
     0
  0
BLOCK_RECORD
  5
FC
330
1
100
AcDbSymbolTableRecord
100
AcDbBlockTableRecord
  2
Block_8
340
0
102
{BLKREFS
331
FD
102
}
 70
     0
280
     1
281
     0
  0
BLOCK_RECORD
  5
100
330
1
100
AcDbSymbolTableRecord
100
AcDbBlockTableRecord
  2
Block_9
340
0
102
{BLKREFS
331
101
102
}
 70
     0
280
     1
281
     0
  0
BLOCK_RECORD
  5
107
330
1
100
AcDbSymbolTableRecord
100
AcDbBlockTableRecord
  2
Block_10
340
0
102
{BLKREFS
331
108
102
}
 70
     0
280
     1
281
     0
  0
BLOCK_RECORD
  5
10B
330
1
100
AcDbSymbolTableRecord
100
AcDbBlockTableRecord
  2
Block_11
340
0
102
{BLKREFS
331
10C
102
}
 70
     0
280
     1
281
     0
  0
ENDTAB
  0
ENDSEC
  0
SECTION
  2
BLOCKS
  0
BLOCK
  5
71
330
70
100
AcDbEntity
  8
0
100
AcDbBlockBegin
  2
*Model_Space
 70
     0
 10
0.0
 20
0.0
 30
0.0
  3
*Model_Space
  1

  0
ENDBLK
  5
72
330
70
100
AcDbEntity
  8
0
100
AcDbBlockEnd
  0
BLOCK
  5
6D
330
6C
100
AcDbEntity
 67
     1
  8
0
100
AcDbBlockBegin
  2
*Paper_Space
 70
     0
 10
0.0
 20
0.0
 30
0.0
  3
*Paper_Space
  1

  0
ENDBLK
  5
6E
330
6C
100
AcDbEntity
 67
     1
  8
0
100
AcDbBlockEnd
  0
BLOCK
  5
75
330
74
100
AcDbEntity
 67
     1
  8
0
100
AcDbBlockBegin
  2
*Paper_Space0
 70
     0
 10
0.0
 20
0.0
 30
0.0
  3
*Paper_Space0
  1

  0
ENDBLK
  5
76
330
74
100
AcDbEntity
 67
     1
  8
0
100
AcDbBlockEnd
  0
BLOCK
  5
B6
330
B4
100
AcDbEntity
  8
0
100
AcDbBlockBegin
  2
Block_0
 70
     0
 10
0.0
 20
0.0
 30
0.0
  3
Block_0
  1

  0
INSERT
  5
B9
330
B4
100
AcDbEntity
  8
レイヤー 1
100
AcDbBlockReference
  2
Block_1
 10
0.0
 20
0.0
 30
0.0
  0
ENDBLK
  5
B7
330
B4
100
AcDbEntity
  8
0
100
AcDbBlockEnd
  0
BLOCK
  5
BA
330
B8
100
AcDbEntity
  8
0
100
AcDbBlockBegin
  2
Block_1
 70
     0
 10
0.0
 20
0.0
 30
0.0
  3
Block_1
  1

  0
SPLINE
  5
BC
330
B8
100
AcDbEntity
  8
レイヤー 1
100
AcDbSpline
210
0.0
220
0.0
230
1.0
 70
     9
 71
     3
 72
    17
 73
    13
 74
     0
 42
0.0000000001
 43
0.0000000001
 40
0.0
 40
0.0
 40
0.0
 40
0.0
 40
1.0
 40
1.0
 40
1.0
 40
2.0
 40
2.0
 40
2.0
 40
3.0
 40
3.0
 40
3.0
 40
4.0
 40
4.0
 40
4.0
 40
4.0
 10
85.53104110274919
 20
-146.7710584485503
 30
0.0
 10
85.53104110274919
 20
-147.0208278712309
 30
0.0
 10
85.814400206411
 20
-147.0673366602818
 30
0.0
 10
86.1592542644845
 20
-147.0673366602818
 30
0.0
 10
86.47878687074141
 20
-147.0673366602818
 30
0.0
 10
86.78763968099406
 20
-147.0311631576866
 30
0.0
 10
86.78763968099406
 20
-146.7710584485503
 30
0.0
 10
86.78763968099406
 20
-146.5233560831608
 30
0.0
 10
86.50617537984915
 20
-146.4747802368188
 30
0.0
 10
86.1592542644845
 20
-146.4747802368188
 30
0.0
 10
85.83989391300184
 20
-146.4747802368188
 30
0.0
 10
85.53104110274919
 20
-146.5130207967051
 30
0.0
 10
85.53104110274919
 20
-146.7710584485503
 30
0.0
  0
SPLINE
  5
BD
330
B8
100
AcDbEntity
  8
レイヤー 1
100
AcDbSpline
210
0.0
220
0.0
230
1.0
 70
     9
 71
     3
 72
    29
 73
    25
 74
     0
 42
0.0000000001
 43
0.0000000001
 40
0.0
 40
0.0
 40
0.0
 40
0.0
 40
1.0
 40
1.0
 40
1.0
 40
2.0
 40
2.0
 40
2.0
 40
3.0
 40
3.0
 40
3.0
 40
4.0
 40
4.0
 40
4.0
 40
5.0
 40
5.0
 40
5.0
 40
6.0
 40
6.0
 40
6.0
 40
7.0
 40
7.0
 40
7.0
 40
8.0
 40
8.0
 40
8.0
 40
8.0
 10
86.75370549046435
 20
-146.3731499200039
 30
0.0
 10
86.96316729596755
 20
-146.4813259182408
 30
0.0
 10
86.98228757591067
 20
-146.6546142211488
 30
0.0
 10
86.98228757591067
 20
-146.7710584485503
 30
0.0
 10
86.98228757591067
 20
-146.9319444077114
 30
0.0
 10
86.93577878685982
 20
-147.0735378321552
 30
0.0
 10
86.75370549046435
 20
-147.1686224675481
 30
0.0
 10
86.559229850322
 20
-147.2723198416541
 30
0.0
 10
86.32220728093681
 20
-147.2916123763715
 30
0.0
 10
86.1592542644845
 20
-147.2916123763715
 30
0.0
 10
86.01542152797533
 20
-147.2916123763715
 30
0.0
 10
85.76375730277781
 20
-147.2743868989453
 30
0.0
 10
85.56480303850463
 20
-147.1686224675481
 30
0.0
 10
85.36171465964915
 20
-147.0607909788598
 30
0.0
 10
85.33846026512373
 20
-146.8999050196986
 30
0.0
 10
85.33846026512373
 20
-146.7710584485503
 30
0.0
 10
85.33846026512373
 20
-146.6122395466802
 30
0.0
 10
85.38290199688345
 20
-146.4685790649453
 30
0.0
 10
85.56480303850463
 20
-146.3731499200039
 30
0.0
 10
85.75738387613011
 20
-146.2739311700287
 30
0.0
 10
85.98579370680218
 20
-146.250504520729
 30
0.0
 10
86.1592542644845
 20
-146.250504520729
 30
0.0
 10
86.33064776487568
 20
-146.250504520729
 30
0.0
 10
86.56129690761316
 20
-146.2718641127376
 30
0.0
 10
86.75370549046435
 20
-146.3731499200039
 30
0.0
  0
HATCH
  5
BE
330
B8
100
AcDbEntity
  8
レイヤー 1
 62
   250
420
  2299925
440
 33554687
100
AcDbHatch
 10
0.0
 20
0.0
 30
0.0
210
0.0
220
0.0
230
1.0
  2
SOLID
 70
     1
 71
     1
 91
        2
 92
        1
 93
        1
 72
     4
 94
        3
 73
     0
 74
     0
 95
       17
 96
       13
 40
0.0
 40
0.0
 40
0.0
 40
0.0
 40
1.0
 40
1.0
 40
1.0
 40
2.0
 40
2.0
 40
2.0
 40
3.0
 40
3.0
 40
3.0
 40
4.0
 40
4.0
 40
4.0
 40
4.0
 10
85.53104110274919
 20
-146.7710584485503
 10
85.53104110274919
 20
-147.0208278712309
 10
85.814400206411
 20
-147.0673366602818
 10
86.1592542644845
 20
-147.0673366602818
 10
86.47878687074141
 20
-147.0673366602818
 10
86.78763968099406
 20
-147.0311631576866
 10
86.78763968099406
 20
-146.7710584485503
 10
86.78763968099406
 20
-146.5233560831608
 10
86.50617537984915
 20
-146.4747802368188
 10
86.1592542644845
 20
-146.4747802368188
 10
85.83989391300184
 20
-146.4747802368188
 10
85.53104110274919
 20
-146.5130207967051
 10
85.53104110274919
 20
-146.7710584485503
 97
        0
 97
        1
330
BC
 92
        1
 93
        1
 72
     4
 94
        3
 73
     0
 74
     0
 95
       29
 96
       25
 40
0.0
 40
0.0
 40
0.0
 40
0.0
 40
1.0
 40
1.0
 40
1.0
 40
2.0
 40
2.0
 40
2.0
 40
3.0
 40
3.0
 40
3.0
 40
4.0
 40
4.0
 40
4.0
 40
5.0
 40
5.0
 40
5.0
 40
6.0
 40
6.0
 40
6.0
 40
7.0
 40
7.0
 40
7.0
 40
8.0
 40
8.0
 40
8.0
 40
8.0
 10
86.75370549046435
 20
-146.3731499200039
 10
86.96316729596755
 20
-146.4813259182408
 10
86.98228757591067
 20
-146.6546142211488
 10
86.98228757591067
 20
-146.7710584485503
 10
86.98228757591067
 20
-146.9319444077114
 10
86.93577878685982
 20
-147.0735378321552
 10
86.75370549046435
 20
-147.1686224675481
 10
86.559229850322
 20
-147.2723198416541
 10
86.32220728093681
 20
-147.2916123763715
 10
86.1592542644845
 20
-147.2916123763715
 10
86.01542152797533
 20
-147.2916123763715
 10
85.76375730277781
 20
-147.2743868989453
 10
85.56480303850463
 20
-147.1686224675481
 10
85.36171465964915
 20
-147.0607909788598
 10
85.33846026512373
 20
-146.8999050196986
 10
85.33846026512373
 20
-146.7710584485503
 10
85.33846026512373
 20
-146.6122395466802
 10
85.38290199688345
 20
-146.4685790649453
 10
85.56480303850463
 20
-146.3731499200039
 10
85.75738387613011
 20
-146.2739311700287
 10
85.98579370680218
 20
-146.250504520729
 10
86.1592542644845
 20
-146.250504520729
 10
86.33064776487568
 20
-146.250504520729
 10
86.56129690761316
 20
-146.2718641127376
 10
86.75370549046435
 20
-146.3731499200039
 97
        0
 97
        1
330
BD
 75
     2
 76
     1
 98
        1
 10
0.0
 20
0.0
450
        0
451
        0
460
0.0
461
0.0
452
        0
462
0.0
453
        0
470

  0
SPLINE
  5
BF
330
B8
100
AcDbEntity
  8
レイヤー 1
100
AcDbSpline
210
0.0
220
0.0
230
1.0
 70
    11
 71
     3
 72
    17
 73
    13
 74
     0
 42
0.0000000001
 43
0.0000000001
 40
0.0
 40
0.0
 40
0.0
 40
0.0
 40
1.0
 40
1.0
 40
1.0
 40
2.0
 40
2.0
 40
2.0
 40
3.0
 40
3.0
 40
3.0
 40
4.0
 40
4.0
 40
4.0
 40
4.0
 10
86.93147241750324
 20
-146.0341525242553
 30
0.0
 10
86.93147241750324
 20
-146.0341525242553
 30
0.0
 10
86.67980819230574
 20
-146.0341525242553
 30
0.0
 10
86.67980819230574
 20
-146.0341525242553
 30
0.0
 10
86.67980819230574
 20
-146.0341525242553
 30
0.0
 10
86.67980819230574
 20
-145.7823160442836
 30
0.0
 10
86.67980819230574
 20
-145.7823160442836
 30
0.0
 10
86.67980819230574
 20
-145.7823160442836
 30
0.0
 10
86.93147241750324
 20
-145.7823160442836
 30
0.0
 10
86.93147241750324
 20
-145.7823160442836
 30
0.0
 10
86.93147241750324
 20
-145.7823160442836
 30
0.0
 10
86.93147241750324
 20
-146.0341525242553
 30
0.0
 10
86.93147241750324
 20
-146.0341525242553
 30
0.0
  0
HATCH
  5
C0
330
B8
100
AcDbEntity
  8
レイヤー 1
 62
   250
420
  2299925
440
 33554687
100
AcDbHatch
 10
0.0
 20
0.0
 30
0.0
210
0.0
220
0.0
230
1.0
  2
SOLID
 70
     1
 71
     1
 91
        1
 92
        1
 93
        1
 72
     4
 94
        3
 73
     0
 74
     0
 95
       17
 96
       13
 40
0.0
 40
0.0
 40
0.0
 40
0.0
 40
1.0
 40
1.0
 40
1.0
 40
2.0
 40
2.0
 40
2.0
 40
3.0
 40
3.0
 40
3.0
 40
4.0
 40
4.0
 40
4.0
 40
4.0
 10
86.93147241750324
 20
-146.0341525242553
 10
86.93147241750324
 20
-146.0341525242553
 10
86.67980819230574
 20
-146.0341525242553
 10
86.67980819230574
 20
-146.0341525242553
 10
86.67980819230574
 20
-146.0341525242553
 10
86.67980819230574
 20
-145.7823160442836
 10
86.67980819230574
 20
-145.7823160442836
 10
86.67980819230574
 20
-145.7823160442836
 10
86.93147241750324
 20
-145.7823160442836
 10
86.93147241750324
 20
-145.7823160442836
 10
86.93147241750324
 20
-145.7823160442836
 10
86.93147241750324
 20
-146.0341525242553
 10
86.93147241750324
 20
-146.0341525242553
 97
        0
 97
        1
330
BF
 75
     2
 76
     1
 98
        1
 10
0.0
 20
0.0
450
        0
451
        0
460
0.0
461
0.0
452
        0
462
0.0
453
        0
470

  0
SPLINE
  5
C1
330
B8
100
AcDbEntity
  8
レイヤー 1
100
AcDbSpline
210
0.0
220
0.0
230
1.0
 70
     9
 71
     3
 72
    53
 73
    49
 74
     0
 42
0.0000000001
 43
0.0000000001
 40
0.0
 40
0.0
 40
0.0
 40
0.0
 40
1.0
 40
1.0
 40
1.0
 40
2.0
 40
2.0
 40
2.0
 40
3.0
 40
3.0
 40
3.0
 40
4.0
 40
4.0
 40
4.0
 40
5.0
 40
5.0
 40
5.0
 40
6.0
 40
6.0
 40
6.0
 40
7.0
 40
7.0
 40
7.0
 40
8.0
 40
8.0
 40
8.0
 40
9.0
 40
9.0
 40
9.0
 40
10.0
 40
10.0
 40
10.0
 40
11.0
 40
11.0
 40
11.0
 40
12.0
 40
12.0
 40
12.0
 40
13.0
 40
13.0
 40
13.0
 40
14.0
 40
14.0
 40
14.0
 40
15.0
 40
15.0
 40
15.0
 40
16.0
 40
16.0
 40
16.0
 40
16.0
 10
86.98228757591067
 20
-145.0650471642545
 30
0.0
 10
86.98228757591067
 20
-145.1432508317697
 30
0.0
 10
86.96540660803297
 20
-145.2448811485846
 30
0.0
 10
86.90184459633009
 20
-145.3465114653995
 30
0.0
 10
86.79177379557636
 20
-145.5197997683075
 30
0.0
 10
86.66068791236261
 20
-145.5411593603161
 30
0.0
 10
86.55285642367429
 20
-145.5601073854849
 30
0.0
 10
86.55285642367429
 20
-145.5601073854849
 30
0.0
 10
86.55285642367429
 20
-145.3378987266864
 30
0.0
 10
86.55285642367429
 20
-145.3378987266864
 30
0.0
 10
86.75163843317319
 20
-145.2831217084709
 30
0.0
 10
86.78126625434634
 20
-145.1559976850652
 30
0.0
 10
86.78126625434634
 20
-145.0629801069634
 30
0.0
 10
86.78126625434634
 20
-144.9234537398108
 30
0.0
 10
86.68187524959689
 20
-144.7711805193627
 30
0.0
 10
86.44915904956826
 20
-144.7711805193627
 30
0.0
 10
86.19318845501421
 20
-144.7711805193627
 30
0.0
 10
86.12342527143789
 20
-144.9510145036928
 30
0.0
 10
86.12342527143789
 20
-145.0715928456765
 30
0.0
 10
86.12342527143789
 20
-145.1032877241408
 30
0.0
 10
86.12342527143789
 20
-145.2448811485846
 30
0.0
 10
86.25244409736051
 20
-145.333764612104
 30
0.0
 10
86.25244409736051
 20
-145.333764612104
 30
0.0
 10
86.23332381741738
 20
-145.5094644818518
 30
0.0
 10
86.23332381741738
 20
-145.5094644818518
 30
0.0
 10
86.23332381741738
 20
-145.5094644818518
 30
0.0
 10
85.38720836623999
 20
-145.388886139868
 30
0.0
 10
85.38720836623999
 20
-145.388886139868
 30
0.0
 10
85.38720836623999
 20
-145.388886139868
 30
0.0
 10
85.38720836623999
 20
-144.6102945602016
 30
0.0
 10
85.38720836623999
 20
-144.6102945602016
 30
0.0
 10
85.38720836623999
 20
-144.6102945602016
 30
0.0
 10
85.58185626115662
 20
-144.6102945602016
 30
0.0
 10
85.58185626115662
 20
-144.6102945602016
 30
0.0
 10
85.58185626115662
 20
-144.6102945602016
 30
0.0
 10
85.58185626115662
 20
-145.2259331234157
 30
0.0
 10
85.58185626115662
 20
-145.2259331234157
 30
0.0
 10
85.58185626115662
 20
-145.2259331234157
 30
0.0
 10
86.00491398674531
 20
-145.2913899376355
 30
0.0
 10
86.00491398674531
 20
-145.2913899376355
 30
0.0
 10
85.97097979621558
 20
-145.230067237998
 30
0.0
 10
85.93084443381242
 20
-145.1477294559006
 30
0.0
 10
85.93084443381242
 20
-145.029218171208
 30
0.0
 10
85.93084443381242
 20
-144.7753146339451
 30
0.0
 10
86.11705184479019
 20
-144.5382920645599
 30
0.0
 10
86.43003876962513
 20
-144.5382920645599
 30
0.0
 10
86.7475043185909
 20
-144.5382920645599
 30
0.0
 10
86.98228757591067
 20
-144.7625677806496
 30
0.0
 10
86.98228757591067
 20
-145.0650471642545
 30
0.0
  0
HATCH
  5
C2
330
B8
100
AcDbEntity
  8
レイヤー 1
 62
   250
420
  2299925
440
 33554687
100
AcDbHatch
 10
0.0
 20
0.0
 30
0.0
210
0.0
220
0.0
230
1.0
  2
SOLID
 70
     1
 71
     1
 91
        1
 92
        1
 93
        1
 72
     4
 94
        3
 73
     0
 74
     0
 95
       53
 96
       49
 40
0.0
 40
0.0
 40
0.0
 40
0.0
 40
1.0
 40
1.0
 40
1.0
 40
2.0
 40
2.0
 40
2.0
 40
3.0
 40
3.0
 40
3.0
 40
4.0
 40
4.0
 40
4.0
 40
5.0
 40
5.0
 40
5.0
 40
6.0
 40
6.0
 40
6.0
 40
7.0
 40
7.0
 40
7.0
 40
8.0
 40
8.0
 40
8.0
 40
9.0
 40
9.0
 40
9.0
 40
10.0
 40
10.0
 40
10.0
 40
11.0
 40
11.0
 40
11.0
 40
12.0
 40
12.0
 40
12.0
 40
13.0
 40
13.0
 40
13.0
 40
14.0
 40
14.0
 40
14.0
 40
15.0
 40
15.0
 40
15.0
 40
16.0
 40
16.0
 40
16.0
 40
16.0
 10
86.98228757591067
 20
-145.0650471642545
 10
86.98228757591067
 20
-145.1432508317697
 10
86.96540660803297
 20
-145.2448811485846
 10
86.90184459633009
 20
-145.3465114653995
 10
86.79177379557636
 20
-145.5197997683075
 10
86.66068791236261
 20
-145.5411593603161
 10
86.55285642367429
 20
-145.5601073854849
 10
86.55285642367429
 20
-145.5601073854849
 10
86.55285642367429
 20
-145.3378987266864
 10
86.55285642367429
 20
-145.3378987266864
 10
86.75163843317319
 20
-145.2831217084709
 10
86.78126625434634
 20
-145.1559976850652
 10
86.78126625434634
 20
-145.0629801069634
 10
86.78126625434634
 20
-144.9234537398108
 10
86.68187524959689
 20
-144.7711805193627
 10
86.44915904956826
 20
-144.7711805193627
 10
86.19318845501421
 20
-144.7711805193627
 10
86.12342527143789
 20
-144.9510145036928
 10
86.12342527143789
 20
-145.0715928456765
 10
86.12342527143789
 20
-145.1032877241408
 10
86.12342527143789
 20
-145.2448811485846
 10
86.25244409736051
 20
-145.333764612104
 10
86.25244409736051
 20
-145.333764612104
 10
86.23332381741738
 20
-145.5094644818518
 10
86.23332381741738
 20
-145.5094644818518
 10
86.23332381741738
 20
-145.5094644818518
 10
85.38720836623999
 20
-145.388886139868
 10
85.38720836623999
 20
-145.388886139868
 10
85.38720836623999
 20
-145.388886139868
 10
85.38720836623999
 20
-144.6102945602016
 10
85.38720836623999
 20
-144.6102945602016
 10
85.38720836623999
 20
-144.6102945602016
 10
85.58185626115662
 20
-144.6102945602016
 10
85.58185626115662
 20
-144.6102945602016
 10
85.58185626115662
 20
-144.6102945602016
 10
85.58185626115662
 20
-145.2259331234157
 10
85.58185626115662
 20
-145.2259331234157
 10
85.58185626115662
 20
-145.2259331234157
 10
86.00491398674531
 20
-145.2913899376355
 10
86.00491398674531
 20
-145.2913899376355
 10
85.97097979621558
 20
-145.230067237998
 10
85.93084443381242
 20
-145.1477294559006
 10
85.93084443381242
 20
-145.029218171208
 10
85.93084443381242
 20
-144.7753146339451
 10
86.11705184479019
 20
-144.5382920645599
 10
86.43003876962513
 20
-144.5382920645599
 10
86.7475043185909
 20
-144.5382920645599
 10
86.98228757591067
 20
-144.7625677806496
 10
86.98228757591067
 20
-145.0650471642545
 97
        0
 97
        1
330
C1
 75
     2
 76
     1
 98
        1
 10
0.0
 20
0.0
450
        0
451
        0
460
0.0
461
0.0
452
        0
462
0.0
453
        0
470

  0
ENDBLK
  5
BB
330
B8
100
AcDbEntity
  8
0
100
AcDbBlockEnd
  0
BLOCK
  5
C7
330
C5
100
AcDbEntity
  8
0
100
AcDbBlockBegin
  2
Block_2
 70
     0
 10
0.0
 20
0.0
 30
0.0
  3
Block_2
  1

  0
INSERT
  5
CA
330
C5
100
AcDbEntity
  8
レイヤー 1
100
AcDbBlockReference
  2
Block_3
 10
0.0
 20
0.0
 30
0.0
  0
ENDBLK
  5
C8
330
C5
100
AcDbEntity
  8
0
100
AcDbBlockEnd
  0
BLOCK
  5
CB
330
C9
100
AcDbEntity
  8
0
100
AcDbBlockBegin
  2
Block_3
 70
     0
 10
0.0
 20
0.0
 30
0.0
  3
Block_3
  1

  0
SPLINE
  5
CD
330
C9
100
AcDbEntity
  8
レイヤー 1
100
AcDbSpline
210
0.0
220
0.0
230
1.0
 70
     9
 71
     3
 72
    44
 73
    40
 74
     0
 42
0.0000000001
 43
0.0000000001
 40
0.0
 40
0.0
 40
0.0
 40
0.0
 40
1.0
 40
1.0
 40
1.0
 40
2.0
 40
2.0
 40
2.0
 40
3.0
 40
3.0
 40
3.0
 40
4.0
 40
4.0
 40
4.0
 40
5.0
 40
5.0
 40
5.0
 40
6.0
 40
6.0
 40
6.0
 40
7.0
 40
7.0
 40
7.0
 40
8.0
 40
8.0
 40
8.0
 40
9.0
 40
9.0
 40
9.0
 40
10.0
 40
10.0
 40
10.0
 40
11.0
 40
11.0
 40
11.0
 40
12.0
 40
12.0
 40
12.0
 40
13.0
 40
13.0
 40
13.0
 40
13.0
 10
102.3801418472348
 20
-139.6014702341968
 30
0.0
 10
102.1622395577927
 20
-139.7601168812926
 30
0.0
 10
102.0690497249167
 20
-139.8341864342255
 30
0.0
 10
102.0204738785747
 20
-139.9780191707346
 30
0.0
 10
102.0204738785747
 20
-139.9780191707346
 30
0.0
 10
102.7988932034669
 20
-139.9780191707346
 30
0.0
 10
102.7988932034669
 20
-139.9780191707346
 30
0.0
 10
102.7988932034669
 20
-139.9780191707346
 30
0.0
 10
102.7988932034669
 20
-140.1831746068813
 30
0.0
 10
102.7988932034669
 20
-140.1831746068813
 30
0.0
 10
102.7988932034669
 20
-140.1831746068813
 30
0.0
 10
101.7708767106684
 20
-140.1831746068813
 30
0.0
 10
101.7708767106684
 20
-140.1831746068813
 30
0.0
 10
101.8025715891327
 20
-139.8255736955123
 30
0.0
 10
101.8680284033524
 20
-139.7473700279972
 30
0.0
 10
102.2531900786033
 20
-139.4490247589745
 30
0.0
 10
102.5091606731574
 20
-139.2502427494756
 30
0.0
 10
102.5746174873771
 20
-139.1825466231905
 30
0.0
 10
102.5746174873771
 20
-139.045087313329
 30
0.0
 10
102.5746174873771
 20
-138.9265760286364
 30
0.0
 10
102.5027872465097
 20
-138.7953178906484
 30
0.0
 10
102.3060722943019
 20
-138.7953178906484
 30
0.0
 10
102.0457953303913
 20
-138.7953178906484
 30
0.0
 10
102.0373548464524
 20
-139.0259670333858
 30
0.0
 10
102.0330484770959
 20
-139.1424112607873
 30
0.0
 10
102.0330484770959
 20
-139.1424112607873
 30
0.0
 10
101.8089450157804
 20
-139.1424112607873
 30
0.0
 10
101.8089450157804
 20
-139.1424112607873
 30
0.0
 10
101.8173854997192
 20
-139.0154594921558
 30
0.0
 10
101.8278930409493
 20
-138.903321634111
 30
0.0
 10
101.9083360205298
 20
-138.7848103494184
 30
0.0
 10
102.0182345665093
 20
-138.6240966450315
 30
0.0
 10
102.2044419774871
 20
-138.5901624545017
 30
0.0
 10
102.3208862048885
 20
-138.5901624545017
 30
0.0
 10
102.5980441366769
 20
-138.5901624545017
 30
0.0
 10
102.8052666301146
 20
-138.7743028081883
 30
0.0
 10
102.8052666301146
 20
-139.0471543706201
 30
0.0
 10
102.8052666301146
 20
-139.2755642012922
 30
0.0
 10
102.6889946574875
 20
-139.3751274608159
 30
0.0
 10
102.3801418472348
 20
-139.6014702341968
 30
0.0
  0
HATCH
  5
CE
330
C9
100
AcDbEntity
  8
レイヤー 1
 62
   250
420
  2299925
440
 33554687
100
AcDbHatch
 10
0.0
 20
0.0
 30
0.0
210
0.0
220
0.0
230
1.0
  2
SOLID
 70
     1
 71
     1
 91
        1
 92
        1
 93
        1
 72
     4
 94
        3
 73
     0
 74
     0
 95
       44
 96
       40
 40
0.0
 40
0.0
 40
0.0
 40
0.0
 40
1.0
 40
1.0
 40
1.0
 40
2.0
 40
2.0
 40
2.0
 40
3.0
 40
3.0
 40
3.0
 40
4.0
 40
4.0
 40
4.0
 40
5.0
 40
5.0
 40
5.0
 40
6.0
 40
6.0
 40
6.0
 40
7.0
 40
7.0
 40
7.0
 40
8.0
 40
8.0
 40
8.0
 40
9.0
 40
9.0
 40
9.0
 40
10.0
 40
10.0
 40
10.0
 40
11.0
 40
11.0
 40
11.0
 40
12.0
 40
12.0
 40
12.0
 40
13.0
 40
13.0
 40
13.0
 40
13.0
 10
102.3801418472348
 20
-139.6014702341968
 10
102.1622395577927
 20
-139.7601168812926
 10
102.0690497249167
 20
-139.8341864342255
 10
102.0204738785747
 20
-139.9780191707346
 10
102.0204738785747
 20
-139.9780191707346
 10
102.7988932034669
 20
-139.9780191707346
 10
102.7988932034669
 20
-139.9780191707346
 10
102.7988932034669
 20
-139.9780191707346
 10
102.7988932034669
 20
-140.1831746068813
 10
102.7988932034669
 20
-140.1831746068813
 10
102.7988932034669
 20
-140.1831746068813
 10
101.7708767106684
 20
-140.1831746068813
 10
101.7708767106684
 20
-140.1831746068813
 10
101.8025715891327
 20
-139.8255736955123
 10
101.8680284033524
 20
-139.7473700279972
 10
102.2531900786033
 20
-139.4490247589745
 10
102.5091606731574
 20
-139.2502427494756
 10
102.5746174873771
 20
-139.1825466231905
 10
102.5746174873771
 20
-139.045087313329
 10
102.5746174873771
 20
-138.9265760286364
 10
102.5027872465097
 20
-138.7953178906484
 10
102.3060722943019
 20
-138.7953178906484
 10
102.0457953303913
 20
-138.7953178906484
 10
102.0373548464524
 20
-139.0259670333858
 10
102.0330484770959
 20
-139.1424112607873
 10
102.0330484770959
 20
-139.1424112607873
 10
101.8089450157804
 20
-139.1424112607873
 10
101.8089450157804
 20
-139.1424112607873
 10
101.8173854997192
 20
-139.0154594921558
 10
101.8278930409493
 20
-138.903321634111
 10
101.9083360205298
 20
-138.7848103494184
 10
102.0182345665093
 20
-138.6240966450315
 10
102.2044419774871
 20
-138.5901624545017
 10
102.3208862048885
 20
-138.5901624545017
 10
102.5980441366769
 20
-138.5901624545017
 10
102.8052666301146
 20
-138.7743028081883
 10
102.8052666301146
 20
-139.0471543706201
 10
102.8052666301146
 20
-139.2755642012922
 10
102.6889946574875
 20
-139.3751274608159
 10
102.3801418472348
 20
-139.6014702341968
 97
        0
 97
        1
330
CD
 75
     2
 76
     1
 98
        1
 10
0.0
 20
0.0
450
        0
451
        0
460
0.0
461
0.0
452
        0
462
0.0
453
        0
470

  0
SPLINE
  5
CF
330
C9
100
AcDbEntity
  8
レイヤー 1
100
AcDbSpline
210
0.0
220
0.0
230
1.0
 70
    11
 71
     3
 72
    26
 73
    22
 74
     0
 42
0.0000000001
 43
0.0000000001
 40
0.0
 40
0.0
 40
0.0
 40
0.0
 40
1.0
 40
1.0
 40
1.0
 40
2.0
 40
2.0
 40
2.0
 40
3.0
 40
3.0
 40
3.0
 40
4.0
 40
4.0
 40
4.0
 40
5.0
 40
5.0
 40
5.0
 40
6.0
 40
6.0
 40
6.0
 40
7.0
 40
7.0
 40
7.0
 40
7.0
 10
103.4152207857781
 20
-140.1831746068813
 30
0.0
 10
103.4152207857781
 20
-140.1831746068813
 30
0.0
 10
103.4152207857781
 20
-139.0788492490844
 30
0.0
 10
103.4152207857781
 20
-139.0788492490844
 30
0.0
 10
103.4152207857781
 20
-139.0788492490844
 30
0.0
 10
103.0851806382912
 20
-139.0788492490844
 30
0.0
 10
103.0851806382912
 20
-139.0788492490844
 30
0.0
 10
103.0851806382912
 20
-139.0788492490844
 30
0.0
 10
103.0851806382912
 20
-138.9307101432187
 30
0.0
 10
103.0851806382912
 20
-138.9307101432187
 30
0.0
 10
103.4172878430693
 20
-138.9160684874064
 30
0.0
 10
103.4637966321201
 20
-138.7531154709541
 30
0.0
 10
103.4934244532933
 20
-138.638910555618
 30
0.0
 10
103.4934244532933
 20
-138.638910555618
 30
0.0
 10
103.6394965018679
 20
-138.638910555618
 30
0.0
 10
103.6394965018679
 20
-138.638910555618
 30
0.0
 10
103.6394965018679
 20
-138.638910555618
 30
0.0
 10
103.6394965018679
 20
-140.1831746068813
 30
0.0
 10
103.6394965018679
 20
-140.1831746068813
 30
0.0
 10
103.6394965018679
 20
-140.1831746068813
 30
0.0
 10
103.4152207857781
 20
-140.1831746068813
 30
0.0
 10
103.4152207857781
 20
-140.1831746068813
 30
0.0
  0
HATCH
  5
D0
330
C9
100
AcDbEntity
  8
レイヤー 1
 62
   250
420
  2299925
440
 33554687
100
AcDbHatch
 10
0.0
 20
0.0
 30
0.0
210
0.0
220
0.0
230
1.0
  2
SOLID
 70
     1
 71
     1
 91
        1
 92
        1
 93
        1
 72
     4
 94
        3
 73
     0
 74
     0
 95
       26
 96
       22
 40
0.0
 40
0.0
 40
0.0
 40
0.0
 40
1.0
 40
1.0
 40
1.0
 40
2.0
 40
2.0
 40
2.0
 40
3.0
 40
3.0
 40
3.0
 40
4.0
 40
4.0
 40
4.0
 40
5.0
 40
5.0
 40
5.0
 40
6.0
 40
6.0
 40
6.0
 40
7.0
 40
7.0
 40
7.0
 40
7.0
 10
103.4152207857781
 20
-140.1831746068813
 10
103.4152207857781
 20
-140.1831746068813
 10
103.4152207857781
 20
-139.0788492490844
 10
103.4152207857781
 20
-139.0788492490844
 10
103.4152207857781
 20
-139.0788492490844
 10
103.0851806382912
 20
-139.0788492490844
 10
103.0851806382912
 20
-139.0788492490844
 10
103.0851806382912
 20
-139.0788492490844
 10
103.0851806382912
 20
-138.9307101432187
 10
103.0851806382912
 20
-138.9307101432187
 10
103.4172878430693
 20
-138.9160684874064
 10
103.4637966321201
 20
-138.7531154709541
 10
103.4934244532933
 20
-138.638910555618
 10
103.4934244532933
 20
-138.638910555618
 10
103.6394965018679
 20
-138.638910555618
 10
103.6394965018679
 20
-138.638910555618
 10
103.6394965018679
 20
-138.638910555618
 10
103.6394965018679
 20
-140.1831746068813
 10
103.6394965018679
 20
-140.1831746068813
 10
103.6394965018679
 20
-140.1831746068813
 10
103.4152207857781
 20
-140.1831746068813
 10
103.4152207857781
 20
-140.1831746068813
 97
        0
 97
        1
330
CF
 75
     2
 76
     1
 98
        1
 10
0.0
 20
0.0
450
        0
451
        0
460
0.0
461
0.0
452
        0
462
0.0
453
        0
470

  0
ENDBLK
  5
CC
330
C9
100
AcDbEntity
  8
0
100
AcDbBlockEnd
  0
BLOCK
  5
D5
330
D3
100
AcDbEntity
  8
0
100
AcDbBlockBegin
  2
Block_4
 70
     0
 10
0.0
 20
0.0
 30
0.0
  3
Block_4
  1

  0
SPLINE
  5
D7
330
D3
100
AcDbEntity
  8
レイヤー 1
100
AcDbSpline
210
0.0
220
0.0
230
1.0
 70
     9
 71
     3
 72
    17
 73
    13
 74
     0
 42
0.0000000001
 43
0.0000000001
 40
0.0
 40
0.0
 40
0.0
 40
0.0
 40
1.0
 40
1.0
 40
1.0
 40
2.0
 40
2.0
 40
2.0
 40
3.0
 40
3.0
 40
3.0
 40
4.0
 40
4.0
 40
4.0
 40
4.0
 10
86.92165389537029
 20
-150.1575873105509
 30
0.0
 10
86.92165389537029
 20
-150.3012477922858
 30
0.0
 10
87.00829804682433
 20
-150.4538655222823
 30
0.0
 10
87.21138642567979
 20
-150.4538655222823
 30
0.0
 10
87.41654186182643
 20
-150.4538655222823
 30
0.0
 10
87.51817217864129
 20
-150.3267414988766
 30
0.0
 10
87.51817217864129
 20
-150.1575873105509
 30
0.0
 10
87.51817217864129
 20
-149.9715521543474
 30
0.0
 10
87.39552677936641
 20
-149.8613090988194
 30
0.0
 10
87.21775985232751
 20
-149.8613090988194
 30
0.0
 10
86.9955511935289
 20
-149.8613090988194
 30
0.0
 10
86.92165389537029
 20
-150.0242621152717
 30
0.0
 10
86.92165389537029
 20
-150.1575873105509
 30
0.0
  0
SPLINE
  5
D8
330
D3
100
AcDbEntity
  8
レイヤー 1
100
AcDbSpline
210
0.0
220
0.0
230
1.0
 70
     9
 71
     3
 72
    17
 73
    13
 74
     0
 42
0.0000000001
 43
0.0000000001
 40
0.0
 40
0.0
 40
0.0
 40
0.0
 40
1.0
 40
1.0
 40
1.0
 40
2.0
 40
2.0
 40
2.0
 40
3.0
 40
3.0
 40
3.0
 40
4.0
 40
4.0
 40
4.0
 40
4.0
 10
86.26157360039641
 20
-150.1575873105509
 30
0.0
 10
86.26157360039641
 20
-150.3226073842943
 30
0.0
 10
86.3566582357893
 20
-150.4073567332315
 30
0.0
 10
86.49205048835963
 20
-150.4073567332315
 30
0.0
 10
86.61486814240879
 20
-150.4073567332315
 30
0.0
 10
86.73337942710139
 20
-150.3353542375897
 30
0.0
 10
86.73337942710139
 20
-150.1575873105509
 30
0.0
 10
86.73337942710139
 20
-149.979820383512
 30
0.0
 10
86.61486814240879
 20
-149.9078178878702
 30
0.0
 10
86.49205048835963
 20
-149.9078178878702
 30
0.0
 10
86.3566582357893
 20
-149.9078178878702
 30
0.0
 10
86.26157360039641
 20
-149.9946342940986
 30
0.0
 10
86.26157360039641
 20
-150.1575873105509
 30
0.0
  0
SPLINE
  5
D9
330
D3
100
AcDbEntity
  8
レイヤー 1
100
AcDbSpline
210
0.0
220
0.0
230
1.0
 70
     9
 71
     3
 72
    29
 73
    25
 74
     0
 42
0.0000000001
 43
0.0000000001
 40
0.0
 40
0.0
 40
0.0
 40
0.0
 40
1.0
 40
1.0
 40
1.0
 40
2.0
 40
2.0
 40
2.0
 40
3.0
 40
3.0
 40
3.0
 40
4.0
 40
4.0
 40
4.0
 40
5.0
 40
5.0
 40
5.0
 40
6.0
 40
6.0
 40
6.0
 40
7.0
 40
7.0
 40
7.0
 40
8.0
 40
8.0
 40
8.0
 40
8.0
 10
87.71282007355791
 20
-150.1575873105509
 30
0.0
 10
87.71282007355791
 20
-150.4242377011092
 30
0.0
 10
87.57518850892218
 20
-150.6781412383721
 30
0.0
 10
87.22620033626638
 20
-150.6781412383721
 30
0.0
 10
86.97022974171231
 20
-150.6781412383721
 30
0.0
 10
86.87497285154515
 20
-150.5362033043798
 30
0.0
 10
86.8136501519077
 20
-150.4304388729827
 30
0.0
 10
86.7543945095614
 20
-150.5551513295487
 30
0.0
 10
86.64018959422538
 20
-150.6312879397727
 30
0.0
 10
86.47947588983846
 20
-150.6312879397727
 30
0.0
 10
86.20438501534128
 20
-150.6312879397727
 30
0.0
 10
86.06899276277095
 20
-150.4325059302738
 30
0.0
 10
86.06899276277095
 20
-150.1575873105509
 30
0.0
 10
86.06899276277095
 20
-149.8740559521148
 30
0.0
 10
86.21282549928013
 20
-149.6835421717805
 30
0.0
 10
86.47947588983846
 20
-149.6835421717805
 30
0.0
 10
86.64018959422538
 20
-149.6835421717805
 30
0.0
 10
86.7543945095614
 20
-149.7620903488442
 30
0.0
 10
86.8136501519077
 20
-149.8868028054102
 30
0.0
 10
86.86446531031513
 20
-149.7979193418908
 30
0.0
 10
86.95972220048229
 20
-149.6391004400208
 30
0.0
 10
87.2218939669098
 20
-149.6391004400208
 30
0.0
 10
87.59637584615646
 20
-149.6391004400208
 30
0.0
 10
87.71282007355791
 20
-149.9184976838745
 30
0.0
 10
87.71282007355791
 20
-150.1575873105509
 30
0.0
  0
HATCH
  5
DA
330
D3
100
AcDbEntity
  8
レイヤー 1
 62
   250
420
  2299925
440
 33554687
100
AcDbHatch
 10
0.0
 20
0.0
 30
0.0
210
0.0
220
0.0
230
1.0
  2
SOLID
 70
     1
 71
     1
 91
        3
 92
        1
 93
        1
 72
     4
 94
        3
 73
     0
 74
     0
 95
       17
 96
       13
 40
0.0
 40
0.0
 40
0.0
 40
0.0
 40
1.0
 40
1.0
 40
1.0
 40
2.0
 40
2.0
 40
2.0
 40
3.0
 40
3.0
 40
3.0
 40
4.0
 40
4.0
 40
4.0
 40
4.0
 10
86.92165389537029
 20
-150.1575873105509
 10
86.92165389537029
 20
-150.3012477922858
 10
87.00829804682433
 20
-150.4538655222823
 10
87.21138642567979
 20
-150.4538655222823
 10
87.41654186182643
 20
-150.4538655222823
 10
87.51817217864129
 20
-150.3267414988766
 10
87.51817217864129
 20
-150.1575873105509
 10
87.51817217864129
 20
-149.9715521543474
 10
87.39552677936641
 20
-149.8613090988194
 10
87.21775985232751
 20
-149.8613090988194
 10
86.9955511935289
 20
-149.8613090988194
 10
86.92165389537029
 20
-150.0242621152717
 10
86.92165389537029
 20
-150.1575873105509
 97
        0
 97
        1
330
D7
 92
        1
 93
        1
 72
     4
 94
        3
 73
     0
 74
     0
 95
       17
 96
       13
 40
0.0
 40
0.0
 40
0.0
 40
0.0
 40
1.0
 40
1.0
 40
1.0
 40
2.0
 40
2.0
 40
2.0
 40
3.0
 40
3.0
 40
3.0
 40
4.0
 40
4.0
 40
4.0
 40
4.0
 10
86.26157360039641
 20
-150.1575873105509
 10
86.26157360039641
 20
-150.3226073842943
 10
86.3566582357893
 20
-150.4073567332315
 10
86.49205048835963
 20
-150.4073567332315
 10
86.61486814240879
 20
-150.4073567332315
 10
86.73337942710139
 20
-150.3353542375897
 10
86.73337942710139
 20
-150.1575873105509
 10
86.73337942710139
 20
-149.979820383512
 10
86.61486814240879
 20
-149.9078178878702
 10
86.49205048835963
 20
-149.9078178878702
 10
86.3566582357893
 20
-149.9078178878702
 10
86.26157360039641
 20
-149.9946342940986
 10
86.26157360039641
 20
-150.1575873105509
 97
        0
 97
        1
330
D8
 92
        1
 93
        1
 72
     4
 94
        3
 73
     0
 74
     0
 95
       29
 96
       25
 40
0.0
 40
0.0
 40
0.0
 40
0.0
 40
1.0
 40
1.0
 40
1.0
 40
2.0
 40
2.0
 40
2.0
 40
3.0
 40
3.0
 40
3.0
 40
4.0
 40
4.0
 40
4.0
 40
5.0
 40
5.0
 40
5.0
 40
6.0
 40
6.0
 40
6.0
 40
7.0
 40
7.0
 40
7.0
 40
8.0
 40
8.0
 40
8.0
 40
8.0
 10
87.71282007355791
 20
-150.1575873105509
 10
87.71282007355791
 20
-150.4242377011092
 10
87.57518850892218
 20
-150.6781412383721
 10
87.22620033626638
 20
-150.6781412383721
 10
86.97022974171231
 20
-150.6781412383721
 10
86.87497285154515
 20
-150.5362033043798
 10
86.8136501519077
 20
-150.4304388729827
 10
86.7543945095614
 20
-150.5551513295487
 10
86.64018959422538
 20
-150.6312879397727
 10
86.47947588983846
 20
-150.6312879397727
 10
86.20438501534128
 20
-150.6312879397727
 10
86.06899276277095
 20
-150.4325059302738
 10
86.06899276277095
 20
-150.1575873105509
 10
86.06899276277095
 20
-149.8740559521148
 10
86.21282549928013
 20
-149.6835421717805
 10
86.47947588983846
 20
-149.6835421717805
 10
86.64018959422538
 20
-149.6835421717805
 10
86.7543945095614
 20
-149.7620903488442
 10
86.8136501519077
 20
-149.8868028054102
 10
86.86446531031513
 20
-149.7979193418908
 10
86.95972220048229
 20
-149.6391004400208
 10
87.2218939669098
 20
-149.6391004400208
 10
87.59637584615646
 20
-149.6391004400208
 10
87.71282007355791
 20
-149.9184976838745
 10
87.71282007355791
 20
-150.1575873105509
 97
        0
 97
        1
330
D9
 75
     2
 76
     1
 98
        1
 10
0.0
 20
0.0
450
        0
451
        0
460
0.0
461
0.0
452
        0
462
0.0
453
        0
470

  0
ENDBLK
  5
D6
330
D3
100
AcDbEntity
  8
0
100
AcDbBlockEnd
  0
BLOCK
  5
E0
330
DE
100
AcDbEntity
  8
0
100
AcDbBlockBegin
  2
Block_5
 70
     0
 10
0.0
 20
0.0
 30
0.0
  3
Block_5
  1

  0
SPLINE
  5
E2
330
DE
100
AcDbEntity
  8
レイヤー 1
100
AcDbSpline
210
0.0
220
0.0
230
1.0
 70
     9
 71
     3
 72
    17
 73
    13
 74
     0
 42
0.0000000001
 43
0.0000000001
 40
0.0
 40
0.0
 40
0.0
 40
0.0
 40
1.0
 40
1.0
 40
1.0
 40
2.0
 40
2.0
 40
2.0
 40
3.0
 40
3.0
 40
3.0
 40
4.0
 40
4.0
 40
4.0
 40
4.0
 10
116.3973741028451
 20
-139.3742661869446
 30
0.0
 10
116.1352023364176
 20
-139.3742661869446
 30
0.0
 10
116.0969617765313
 20
-139.585795049739
 30
0.0
 10
116.0969617765313
 20
-139.7020670223661
 30
0.0
 10
116.0969617765313
 20
-139.8777668921139
 30
0.0
 10
116.1923909214727
 20
-140.0405476537919
 30
0.0
 10
116.3763590203851
 20
-140.0405476537919
 30
0.0
 10
116.4969373623688
 20
-140.0405476537919
 30
0.0
 10
116.6726372321166
 20
-139.9812920114456
 30
0.0
 10
116.6726372321166
 20
-139.6956935957184
 30
0.0
 10
116.6726372321166
 20
-139.4715901344029
 30
0.0
 10
116.5327663554154
 20
-139.3742661869446
 30
0.0
 10
116.3973741028451
 20
-139.3742661869446
 30
0.0
  0
SPLINE
  5
E3
330
DE
100
AcDbEntity
  8
レイヤー 1
100
AcDbSpline
210
0.0
220
0.0
230
1.0
 70
     9
 71
     3
 72
    32
 73
    28
 74
     0
 42
0.0000000001
 43
0.0000000001
 40
0.0
 40
0.0
 40
0.0
 40
0.0
 40
1.0
 40
1.0
 40
1.0
 40
2.0
 40
2.0
 40
2.0
 40
3.0
 40
3.0
 40
3.0
 40
4.0
 40
4.0
 40
4.0
 40
5.0
 40
5.0
 40
5.0
 40
6.0
 40
6.0
 40
6.0
 40
7.0
 40
7.0
 40
7.0
 40
8.0
 40
8.0
 40
8.0
 40
9.0
 40
9.0
 40
9.0
 40
9.0
 10
116.3804931349674
 20
-140.2331284914174
 30
0.0
 10
115.8644178312769
 20
-140.2331284914174
 30
0.0
 10
115.8558050925638
 20
-139.6788126278407
 30
0.0
 10
115.8558050925638
 20
-139.4652167077552
 30
0.0
 10
115.8558050925638
 20
-139.2345675650177
 30
0.0
 10
115.8750976272812
 20
-138.5872341233393
 30
0.0
 10
116.4187336948536
 20
-138.5872341233393
 30
0.0
 10
116.5920219977617
 20
-138.5872341233393
 30
0.0
 10
116.83765730586
 20
-138.6569973069156
 30
0.0
 10
116.8755533561978
 20
-138.9891045116937
 30
0.0
 10
116.8755533561978
 20
-138.9891045116937
 30
0.0
 10
116.6619574361123
 20
-138.9891045116937
 30
0.0
 10
116.6619574361123
 20
-138.9891045116937
 30
0.0
 10
116.651277640108
 20
-138.9320881814128
 30
0.0
 10
116.6195827616437
 20
-138.783949075547
 30
0.0
 10
116.4166666375625
 20
-138.783949075547
 30
0.0
 10
116.1245225404133
 20
-138.783949075547
 30
0.0
 10
116.0845594327844
 20
-139.1119221657428
 30
0.0
 10
116.071812579489
 20
-139.3170776018894
 30
0.0
 10
116.1648301575907
 20
-139.2388739343743
 30
0.0
 10
116.2326985386501
 20
-139.179618292028
 30
0.0
 10
116.4145995802713
 20
-139.179618292028
 30
0.0
 10
116.5944335646014
 20
-139.179618292028
 30
0.0
 10
116.8969129482063
 20
-139.2874497807163
 30
0.0
 10
116.8969129482063
 20
-139.6936265384272
 30
0.0
 10
116.8969129482063
 20
-140.0131591446842
 30
0.0
 10
116.6977864291589
 20
-140.2331284914174
 30
0.0
 10
116.3804931349674
 20
-140.2331284914174
 30
0.0
  0
HATCH
  5
E4
330
DE
100
AcDbEntity
  8
レイヤー 1
 62
   250
420
  2299925
440
 33554687
100
AcDbHatch
 10
0.0
 20
0.0
 30
0.0
210
0.0
220
0.0
230
1.0
  2
SOLID
 70
     1
 71
     1
 91
        2
 92
        1
 93
        1
 72
     4
 94
        3
 73
     0
 74
     0
 95
       17
 96
       13
 40
0.0
 40
0.0
 40
0.0
 40
0.0
 40
1.0
 40
1.0
 40
1.0
 40
2.0
 40
2.0
 40
2.0
 40
3.0
 40
3.0
 40
3.0
 40
4.0
 40
4.0
 40
4.0
 40
4.0
 10
116.3973741028451
 20
-139.3742661869446
 10
116.1352023364176
 20
-139.3742661869446
 10
116.0969617765313
 20
-139.585795049739
 10
116.0969617765313
 20
-139.7020670223661
 10
116.0969617765313
 20
-139.8777668921139
 10
116.1923909214727
 20
-140.0405476537919
 10
116.3763590203851
 20
-140.0405476537919
 10
116.4969373623688
 20
-140.0405476537919
 10
116.6726372321166
 20
-139.9812920114456
 10
116.6726372321166
 20
-139.6956935957184
 10
116.6726372321166
 20
-139.4715901344029
 10
116.5327663554154
 20
-139.3742661869446
 10
116.3973741028451
 20
-139.3742661869446
 97
        0
 97
        1
330
E2
 92
        1
 93
        1
 72
     4
 94
        3
 73
     0
 74
     0
 95
       32
 96
       28
 40
0.0
 40
0.0
 40
0.0
 40
0.0
 40
1.0
 40
1.0
 40
1.0
 40
2.0
 40
2.0
 40
2.0
 40
3.0
 40
3.0
 40
3.0
 40
4.0
 40
4.0
 40
4.0
 40
5.0
 40
5.0
 40
5.0
 40
6.0
 40
6.0
 40
6.0
 40
7.0
 40
7.0
 40
7.0
 40
8.0
 40
8.0
 40
8.0
 40
9.0
 40
9.0
 40
9.0
 40
9.0
 10
116.3804931349674
 20
-140.2331284914174
 10
115.8644178312769
 20
-140.2331284914174
 10
115.8558050925638
 20
-139.6788126278407
 10
115.8558050925638
 20
-139.4652167077552
 10
115.8558050925638
 20
-139.2345675650177
 10
115.8750976272812
 20
-138.5872341233393
 10
116.4187336948536
 20
-138.5872341233393
 10
116.5920219977617
 20
-138.5872341233393
 10
116.83765730586
 20
-138.6569973069156
 10
116.8755533561978
 20
-138.9891045116937
 10
116.8755533561978
 20
-138.9891045116937
 10
116.6619574361123
 20
-138.9891045116937
 10
116.6619574361123
 20
-138.9891045116937
 10
116.651277640108
 20
-138.9320881814128
 10
116.6195827616437
 20
-138.783949075547
 10
116.4166666375625
 20
-138.783949075547
 10
116.1245225404133
 20
-138.783949075547
 10
116.0845594327844
 20
-139.1119221657428
 10
116.071812579489
 20
-139.3170776018894
 10
116.1648301575907
 20
-139.2388739343743
 10
116.2326985386501
 20
-139.179618292028
 10
116.4145995802713
 20
-139.179618292028
 10
116.5944335646014
 20
-139.179618292028
 10
116.8969129482063
 20
-139.2874497807163
 10
116.8969129482063
 20
-139.6936265384272
 10
116.8969129482063
 20
-140.0131591446842
 10
116.6977864291589
 20
-140.2331284914174
 10
116.3804931349674
 20
-140.2331284914174
 97
        0
 97
        1
330
E3
 75
     2
 76
     1
 98
        1
 10
0.0
 20
0.0
450
        0
451
        0
460
0.0
461
0.0
452
        0
462
0.0
453
        0
470

  0
ENDBLK
  5
E1
330
DE
100
AcDbEntity
  8
0
100
AcDbBlockEnd
  0
BLOCK
  5
EC
330
EA
100
AcDbEntity
  8
0
100
AcDbBlockBegin
  2
Block_6
 70
     0
 10
0.0
 20
0.0
 30
0.0
  3
Block_6
  1

  0
SPLINE
  5
EE
330
EA
100
AcDbEntity
  8
レイヤー 1
100
AcDbSpline
210
0.0
220
0.0
230
1.0
 70
     9
 71
     3
 72
    17
 73
    13
 74
     0
 42
0.0000000001
 43
0.0000000001
 40
0.0
 40
0.0
 40
0.0
 40
0.0
 40
1.0
 40
1.0
 40
1.0
 40
2.0
 40
2.0
 40
2.0
 40
3.0
 40
3.0
 40
3.0
 40
4.0
 40
4.0
 40
4.0
 40
4.0
 10
116.3763590203851
 20
-156.1585991363076
 30
0.0
 10
116.2113389466416
 20
-156.1585991363076
 30
0.0
 10
116.1265895977044
 20
-156.2536837717004
 30
0.0
 10
116.1265895977044
 20
-156.3890760242708
 30
0.0
 10
116.1265895977044
 20
-156.5117214235456
 30
0.0
 10
116.1985920933462
 20
-156.6302327082382
 30
0.0
 10
116.3763590203851
 20
-156.6302327082382
 30
0.0
 10
116.554125947424
 20
-156.6302327082382
 30
0.0
 10
116.6261284430657
 20
-156.5117214235456
 30
0.0
 10
116.6261284430657
 20
-156.3890760242708
 30
0.0
 10
116.6261284430657
 20
-156.2536837717004
 30
0.0
 10
116.5393120368374
 20
-156.1585991363076
 30
0.0
 10
116.3763590203851
 20
-156.1585991363076
 30
0.0
  0
SPLINE
  5
EF
330
EA
100
AcDbEntity
  8
レイヤー 1
100
AcDbSpline
210
0.0
220
0.0
230
1.0
 70
     9
 71
     3
 72
    17
 73
    13
 74
     0
 42
0.0000000001
 43
0.0000000001
 40
0.0
 40
0.0
 40
0.0
 40
0.0
 40
1.0
 40
1.0
 40
1.0
 40
2.0
 40
2.0
 40
2.0
 40
3.0
 40
3.0
 40
3.0
 40
4.0
 40
4.0
 40
4.0
 40
4.0
 10
116.3763590203851
 20
-156.8186794312814
 30
0.0
 10
116.2326985386501
 20
-156.8186794312814
 30
0.0
 10
116.0800808086536
 20
-156.9054958375097
 30
0.0
 10
116.0800808086536
 20
-157.1084119615909
 30
0.0
 10
116.0800808086536
 20
-157.3137396525118
 30
0.0
 10
116.2072048320593
 20
-157.4150254597782
 30
0.0
 10
116.3763590203851
 20
-157.4150254597782
 30
0.0
 10
116.5623941765886
 20
-157.4150254597782
 30
0.0
 10
116.6726372321166
 20
-157.2923800605033
 30
0.0
 10
116.6726372321166
 20
-157.1146131334644
 30
0.0
 10
116.6726372321166
 20
-156.8927489842143
 30
0.0
 10
116.5096842156642
 20
-156.8186794312814
 30
0.0
 10
116.3763590203851
 20
-156.8186794312814
 30
0.0
  0
SPLINE
  5
F0
330
EA
100
AcDbEntity
  8
レイヤー 1
100
AcDbSpline
210
0.0
220
0.0
230
1.0
 70
     9
 71
     3
 72
    29
 73
    25
 74
     0
 42
0.0000000001
 43
0.0000000001
 40
0.0
 40
0.0
 40
0.0
 40
0.0
 40
1.0
 40
1.0
 40
1.0
 40
2.0
 40
2.0
 40
2.0
 40
3.0
 40
3.0
 40
3.0
 40
4.0
 40
4.0
 40
4.0
 40
5.0
 40
5.0
 40
5.0
 40
6.0
 40
6.0
 40
6.0
 40
7.0
 40
7.0
 40
7.0
 40
8.0
 40
8.0
 40
8.0
 40
8.0
 10
116.3763590203851
 20
-157.6096733546948
 30
0.0
 10
116.1097086298267
 20
-157.6096733546948
 30
0.0
 10
115.8558050925638
 20
-157.4722140448333
 30
0.0
 10
115.8558050925638
 20
-157.1232258721775
 30
0.0
 10
115.8558050925638
 20
-156.8672552776235
 30
0.0
 10
115.9977430265561
 20
-156.7721706422306
 30
0.0
 10
116.1035074579533
 20
-156.7108479425931
 30
0.0
 10
115.9787950013872
 20
-156.6515923002468
 30
0.0
 10
115.9026583911632
 20
-156.5372151301365
 30
0.0
 10
115.9026583911632
 20
-156.3763291709753
 30
0.0
 10
115.9026583911632
 20
-156.1014105512524
 30
0.0
 10
116.1014404006621
 20
-155.9660182986821
 30
0.0
 10
116.3763590203851
 20
-155.9660182986821
 30
0.0
 10
116.6598903788211
 20
-155.9660182986821
 30
0.0
 10
116.8504041591554
 20
-156.1100232899655
 30
0.0
 10
116.8504041591554
 20
-156.3763291709753
 30
0.0
 10
116.8504041591554
 20
-156.5372151301365
 30
0.0
 10
116.7718559820917
 20
-156.6515923002468
 30
0.0
 10
116.6471435255257
 20
-156.7108479425931
 30
0.0
 10
116.7360269890451
 20
-156.7614908462263
 30
0.0
 10
116.8948458909152
 20
-156.8565754816192
 30
0.0
 10
116.8948458909152
 20
-157.1190917575952
 30
0.0
 10
116.8948458909152
 20
-157.4935736368419
 30
0.0
 10
116.6154486470614
 20
-157.6096733546948
 30
0.0
 10
116.3763590203851
 20
-157.6096733546948
 30
0.0
  0
HATCH
  5
F1
330
EA
100
AcDbEntity
  8
レイヤー 1
 62
   250
420
  2299925
440
 33554687
100
AcDbHatch
 10
0.0
 20
0.0
 30
0.0
210
0.0
220
0.0
230
1.0
  2
SOLID
 70
     1
 71
     1
 91
        3
 92
        1
 93
        1
 72
     4
 94
        3
 73
     0
 74
     0
 95
       17
 96
       13
 40
0.0
 40
0.0
 40
0.0
 40
0.0
 40
1.0
 40
1.0
 40
1.0
 40
2.0
 40
2.0
 40
2.0
 40
3.0
 40
3.0
 40
3.0
 40
4.0
 40
4.0
 40
4.0
 40
4.0
 10
116.3763590203851
 20
-156.1585991363076
 10
116.2113389466416
 20
-156.1585991363076
 10
116.1265895977044
 20
-156.2536837717004
 10
116.1265895977044
 20
-156.3890760242708
 10
116.1265895977044
 20
-156.5117214235456
 10
116.1985920933462
 20
-156.6302327082382
 10
116.3763590203851
 20
-156.6302327082382
 10
116.554125947424
 20
-156.6302327082382
 10
116.6261284430657
 20
-156.5117214235456
 10
116.6261284430657
 20
-156.3890760242708
 10
116.6261284430657
 20
-156.2536837717004
 10
116.5393120368374
 20
-156.1585991363076
 10
116.3763590203851
 20
-156.1585991363076
 97
        0
 97
        1
330
EE
 92
        1
 93
        1
 72
     4
 94
        3
 73
     0
 74
     0
 95
       17
 96
       13
 40
0.0
 40
0.0
 40
0.0
 40
0.0
 40
1.0
 40
1.0
 40
1.0
 40
2.0
 40
2.0
 40
2.0
 40
3.0
 40
3.0
 40
3.0
 40
4.0
 40
4.0
 40
4.0
 40
4.0
 10
116.3763590203851
 20
-156.8186794312814
 10
116.2326985386501
 20
-156.8186794312814
 10
116.0800808086536
 20
-156.9054958375097
 10
116.0800808086536
 20
-157.1084119615909
 10
116.0800808086536
 20
-157.3137396525118
 10
116.2072048320593
 20
-157.4150254597782
 10
116.3763590203851
 20
-157.4150254597782
 10
116.5623941765886
 20
-157.4150254597782
 10
116.6726372321166
 20
-157.2923800605033
 10
116.6726372321166
 20
-157.1146131334644
 10
116.6726372321166
 20
-156.8927489842143
 10
116.5096842156642
 20
-156.8186794312814
 10
116.3763590203851
 20
-156.8186794312814
 97
        0
 97
        1
330
EF
 92
        1
 93
        1
 72
     4
 94
        3
 73
     0
 74
     0
 95
       29
 96
       25
 40
0.0
 40
0.0
 40
0.0
 40
0.0
 40
1.0
 40
1.0
 40
1.0
 40
2.0
 40
2.0
 40
2.0
 40
3.0
 40
3.0
 40
3.0
 40
4.0
 40
4.0
 40
4.0
 40
5.0
 40
5.0
 40
5.0
 40
6.0
 40
6.0
 40
6.0
 40
7.0
 40
7.0
 40
7.0
 40
8.0
 40
8.0
 40
8.0
 40
8.0
 10
116.3763590203851
 20
-157.6096733546948
 10
116.1097086298267
 20
-157.6096733546948
 10
115.8558050925638
 20
-157.4722140448333
 10
115.8558050925638
 20
-157.1232258721775
 10
115.8558050925638
 20
-156.8672552776235
 10
115.9977430265561
 20
-156.7721706422306
 10
116.1035074579533
 20
-156.7108479425931
 10
115.9787950013872
 20
-156.6515923002468
 10
115.9026583911632
 20
-156.5372151301365
 10
115.9026583911632
 20
-156.3763291709753
 10
115.9026583911632
 20
-156.1014105512524
 10
116.1014404006621
 20
-155.9660182986821
 10
116.3763590203851
 20
-155.9660182986821
 10
116.6598903788211
 20
-155.9660182986821
 10
116.8504041591554
 20
-156.1100232899655
 10
116.8504041591554
 20
-156.3763291709753
 10
116.8504041591554
 20
-156.5372151301365
 10
116.7718559820917
 20
-156.6515923002468
 10
116.6471435255257
 20
-156.7108479425931
 10
116.7360269890451
 20
-156.7614908462263
 10
116.8948458909152
 20
-156.8565754816192
 10
116.8948458909152
 20
-157.1190917575952
 10
116.8948458909152
 20
-157.4935736368419
 10
116.6154486470614
 20
-157.6096733546948
 10
116.3763590203851
 20
-157.6096733546948
 97
        0
 97
        1
330
F0
 75
     2
 76
     1
 98
        1
 10
0.0
 20
0.0
450
        0
451
        0
460
0.0
461
0.0
452
        0
462
0.0
453
        0
470

  0
ENDBLK
  5
ED
330
EA
100
AcDbEntity
  8
0
100
AcDbBlockEnd
  0
BLOCK
  5
F6
330
F4
100
AcDbEntity
  8
0
100
AcDbBlockBegin
  2
Block_7
 70
     0
 10
0.0
 20
0.0
 30
0.0
  3
Block_7
  1

  0
SPLINE
  5
F8
330
F4
100
AcDbEntity
  8
レイヤー 1
100
AcDbSpline
210
0.0
220
0.0
230
1.0
 70
    11
 71
     3
 72
    26
 73
    22
 74
     0
 42
0.0000000001
 43
0.0000000001
 40
0.0
 40
0.0
 40
0.0
 40
0.0
 40
1.0
 40
1.0
 40
1.0
 40
2.0
 40
2.0
 40
2.0
 40
3.0
 40
3.0
 40
3.0
 40
4.0
 40
4.0
 40
4.0
 40
5.0
 40
5.0
 40
5.0
 40
6.0
 40
6.0
 40
6.0
 40
7.0
 40
7.0
 40
7.0
 40
7.0
 10
122.2784966057151
 20
-149.5357475754633
 30
0.0
 10
122.2784966057151
 20
-149.5357475754633
 30
0.0
 10
122.2784966057151
 20
-148.4315944724407
 30
0.0
 10
122.2784966057151
 20
-148.4315944724407
 30
0.0
 10
122.2784966057151
 20
-148.4315944724407
 30
0.0
 10
121.9484564582281
 20
-148.4315944724407
 30
0.0
 10
121.9484564582281
 20
-148.4315944724407
 30
0.0
 10
121.9484564582281
 20
-148.4315944724407
 30
0.0
 10
121.9484564582281
 20
-148.2834553665749
 30
0.0
 10
121.9484564582281
 20
-148.2834553665749
 30
0.0
 10
122.2805636630062
 20
-148.2688137107626
 30
0.0
 10
122.3270724520571
 20
-148.1058606943103
 30
0.0
 10
122.3567002732302
 20
-147.9916557789743
 30
0.0
 10
122.3567002732302
 20
-147.9916557789743
 30
0.0
 10
122.5027723218048
 20
-147.9916557789743
 30
0.0
 10
122.5027723218048
 20
-147.9916557789743
 30
0.0
 10
122.5027723218048
 20
-147.9916557789743
 30
0.0
 10
122.5027723218048
 20
-149.5357475754633
 30
0.0
 10
122.5027723218048
 20
-149.5357475754633
 30
0.0
 10
122.5027723218048
 20
-149.5357475754633
 30
0.0
 10
122.2784966057151
 20
-149.5357475754633
 30
0.0
 10
122.2784966057151
 20
-149.5357475754633
 30
0.0
  0
HATCH
  5
F9
330
F4
100
AcDbEntity
  8
レイヤー 1
 62
   250
420
  2299925
440
 33554687
100
AcDbHatch
 10
0.0
 20
0.0
 30
0.0
210
0.0
220
0.0
230
1.0
  2
SOLID
 70
     1
 71
     1
 91
        1
 92
        1
 93
        1
 72
     4
 94
        3
 73
     0
 74
     0
 95
       26
 96
       22
 40
0.0
 40
0.0
 40
0.0
 40
0.0
 40
1.0
 40
1.0
 40
1.0
 40
2.0
 40
2.0
 40
2.0
 40
3.0
 40
3.0
 40
3.0
 40
4.0
 40
4.0
 40
4.0
 40
5.0
 40
5.0
 40
5.0
 40
6.0
 40
6.0
 40
6.0
 40
7.0
 40
7.0
 40
7.0
 40
7.0
 10
122.2784966057151
 20
-149.5357475754633
 10
122.2784966057151
 20
-149.5357475754633
 10
122.2784966057151
 20
-148.4315944724407
 10
122.2784966057151
 20
-148.4315944724407
 10
122.2784966057151
 20
-148.4315944724407
 10
121.9484564582281
 20
-148.4315944724407
 10
121.9484564582281
 20
-148.4315944724407
 10
121.9484564582281
 20
-148.4315944724407
 10
121.9484564582281
 20
-148.2834553665749
 10
121.9484564582281
 20
-148.2834553665749
 10
122.2805636630062
 20
-148.2688137107626
 10
122.3270724520571
 20
-148.1058606943103
 10
122.3567002732302
 20
-147.9916557789743
 10
122.3567002732302
 20
-147.9916557789743
 10
122.5027723218048
 20
-147.9916557789743
 10
122.5027723218048
 20
-147.9916557789743
 10
122.5027723218048
 20
-147.9916557789743
 10
122.5027723218048
 20
-149.5357475754633
 10
122.5027723218048
 20
-149.5357475754633
 10
122.5027723218048
 20
-149.5357475754633
 10
122.2784966057151
 20
-149.5357475754633
 10
122.2784966057151
 20
-149.5357475754633
 97
        0
 97
        1
330
F8
 75
     2
 76
     1
 98
        1
 10
0.0
 20
0.0
450
        0
451
        0
460
0.0
461
0.0
452
        0
462
0.0
453
        0
470

  0
ENDBLK
  5
F7
330
F4
100
AcDbEntity
  8
0
100
AcDbBlockEnd
  0
BLOCK
  5
FE
330
FC
100
AcDbEntity
  8
0
100
AcDbBlockBegin
  2
Block_8
 70
     0
 10
0.0
 20
0.0
 30
0.0
  3
Block_8
  1

  0
INSERT
  5
101
330
FC
100
AcDbEntity
  8
レイヤー 1
100
AcDbBlockReference
  2
Block_9
 10
0.0
 20
0.0
 30
0.0
  0
INSERT
  5
108
330
FC
100
AcDbEntity
  8
レイヤー 1
100
AcDbBlockReference
  2
Block_10
 10
0.0
 20
0.0
 30
0.0
  0
ENDBLK
  5
FF
330
FC
100
AcDbEntity
  8
0
100
AcDbBlockEnd
  0
BLOCK
  5
102
330
100
100
AcDbEntity
  8
0
100
AcDbBlockBegin
  2
Block_9
 70
     0
 10
0.0
 20
0.0
 30
0.0
  3
Block_9
  1

  0
LINE
  5
104
330
100
100
AcDbEntity
  8
レイヤー 1
 62
    18
420
        0
370
     9
100
AcDbLine
 10
96.63258390482816
 20
-147.1613374676713
 30
0.0
 11
97.44390221746305
 21
-147.7463135786361
 31
0.0
  0
LINE
  5
105
330
100
100
AcDbEntity
  8
レイヤー 1
 62
    18
420
        0
370
     9
100
AcDbLine
 10
96.63258390482816
 20
-147.1613374676713
 30
0.0
 11
99.21018995017908
 21
-150.3184516335487
 31
0.0
  0
LINE
  5
106
330
100
100
AcDbEntity
  8
レイヤー 1
 62
    18
420
        0
370
     9
100
AcDbLine
 10
96.63258390482816
 20
-147.1613374676713
 30
0.0
 11
97.04289972769315
 21
-148.0736208007769
 31
0.0
  0
ENDBLK
  5
103
330
100
100
AcDbEntity
  8
0
100
AcDbBlockEnd
  0
BLOCK
  5
109
330
107
100
AcDbEntity
  8
0
100
AcDbBlockBegin
  2
Block_10
 70
     0
 10
0.0
 20
0.0
 30
0.0
  3
Block_10
  1

  0
INSERT
  5
10C
330
107
100
AcDbEntity
  8
レイヤー 1
100
AcDbBlockReference
  2
Block_11
 10
0.0
 20
0.0
 30
0.0
  0
ENDBLK
  5
10A
330
107
100
AcDbEntity
  8
0
100
AcDbBlockEnd
  0
BLOCK
  5
10D
330
10B
100
AcDbEntity
  8
0
100
AcDbBlockBegin
  2
Block_11
 70
     0
 10
0.0
 20
0.0
 30
0.0
  3
Block_11
  1

  0
SPLINE
  5
10F
330
10B
100
AcDbEntity
  8
レイヤー 1
100
AcDbSpline
210
0.0
220
0.0
230
1.0
 70
     9
 71
     3
 72
    17
 73
    13
 74
     0
 42
0.0000000001
 43
0.0000000001
 40
0.0
 40
0.0
 40
0.0
 40
0.0
 40
1.0
 40
1.0
 40
1.0
 40
2.0
 40
2.0
 40
2.0
 40
3.0
 40
3.0
 40
3.0
 40
4.0
 40
4.0
 40
4.0
 40
4.0
 10
100.8765299226975
 20
-150.7663356827945
 30
0.0
 10
100.8596489548198
 20
-150.7959635039676
 30
0.0
 10
100.8088337964123
 20
-150.8889810820694
 30
0.0
 10
100.7983262551823
 20
-150.9079291072383
 30
0.0
 10
100.9886677807424
 20
-150.9671847495846
 30
0.0
 10
101.0098551179767
 20
-150.9737304310065
 30
0.0
 10
101.0818576136184
 20
-151.00094668534
 30
0.0
 10
101.1368068866081
 20
-150.9144747886602
 30
0.0
 10
101.1600612811336
 20
-150.8404052357274
 30
0.0
 10
101.1748751917201
 20
-150.7663356827945
 30
0.0
 10
101.1748751917201
 20
-150.7663356827945
 30
0.0
 10
100.8765299226975
 20
-150.7663356827945
 30
0.0
 10
100.8765299226975
 20
-150.7663356827945
 30
0.0
  0
SPLINE
  5
110
330
10B
100
AcDbEntity
  8
レイヤー 1
100
AcDbSpline
210
0.0
220
0.0
230
1.0
 70
    11
 71
     3
 72
    20
 73
    16
 74
     0
 42
0.0000000001
 43
0.0000000001
 40
0.0
 40
0.0
 40
0.0
 40
0.0
 40
1.0
 40
1.0
 40
1.0
 40
2.0
 40
2.0
 40
2.0
 40
3.0
 40
3.0
 40
3.0
 40
4.0
 40
4.0
 40
4.0
 40
5.0
 40
5.0
 40
5.0
 40
5.0
 10
100.8131401657689
 20
-149.9157416074863
 30
0.0
 10
100.8131401657689
 20
-149.9157416074863
 30
0.0
 10
100.7814452873046
 20
-149.9157416074863
 30
0.0
 10
100.7814452873046
 20
-149.9157416074863
 30
0.0
 10
100.8279540763555
 20
-150.01530486701
 30
0.0
 10
100.8596489548198
 20
-150.0955755918164
 30
0.0
 10
100.8935831453495
 20
-150.2226996152221
 30
0.0
 10
100.8935831453495
 20
-150.2226996152221
 30
0.0
 10
101.1008056387873
 20
-150.2226996152221
 30
0.0
 10
101.1008056387873
 20
-150.2226996152221
 30
0.0
 10
101.1325005172516
 20
-150.1296820371203
 30
0.0
 10
101.155754911777
 20
-150.0449326881832
 30
0.0
 10
101.1790093063025
 20
-149.9157416074863
 30
0.0
 10
101.1790093063025
 20
-149.9157416074863
 30
0.0
 10
100.8131401657689
 20
-149.9157416074863
 30
0.0
 10
100.8131401657689
 20
-149.9157416074863
 30
0.0
  0
SPLINE
  5
111
330
10B
100
AcDbEntity
  8
レイヤー 1
100
AcDbSpline
210
0.0
220
0.0
230
1.0
 70
     9
 71
     3
 72
   242
 73
   238
 74
     0
 42
0.0000000001
 43
0.0000000001
 40
0.0
 40
0.0
 40
0.0
 40
0.0
 40
1.0
 40
1.0
 40
1.0
 40
2.0
 40
2.0
 40
2.0
 40
3.0
 40
3.0
 40
3.0
 40
4.0
 40
4.0
 40
4.0
 40
5.0
 40
5.0
 40
5.0
 40
6.0
 40
6.0
 40
6.0
 40
7.0
 40
7.0
 40
7.0
 40
8.0
 40
8.0
 40
8.0
 40
9.0
 40
9.0
 40
9.0
 40
10.0
 40
10.0
 40
10.0
 40
11.0
 40
11.0
 40
11.0
 40
12.0
 40
12.0
 40
12.0
 40
13.0
 40
13.0
 40
13.0
 40
14.0
 40
14.0
 40
14.0
 40
15.0
 40
15.0
 40
15.0
 40
16.0
 40
16.0
 40
16.0
 40
17.0
 40
17.0
 40
17.0
 40
18.0
 40
18.0
 40
18.0
 40
19.0
 40
19.0
 40
19.0
 40
20.0
 40
20.0
 40
20.0
 40
21.0
 40
21.0
 40
21.0
 40
22.0
 40
22.0
 40
22.0
 40
23.0
 40
23.0
 40
23.0
 40
24.0
 40
24.0
 40
24.0
 40
25.0
 40
25.0
 40
25.0
 40
26.0
 40
26.0
 40
26.0
 40
27.0
 40
27.0
 40
27.0
 40
28.0
 40
28.0
 40
28.0
 40
29.0
 40
29.0
 40
29.0
 40
30.0
 40
30.0
 40
30.0
 40
31.0
 40
31.0
 40
31.0
 40
32.0
 40
32.0
 40
32.0
 40
33.0
 40
33.0
 40
33.0
 40
34.0
 40
34.0
 40
34.0
 40
35.0
 40
35.0
 40
35.0
 40
36.0
 40
36.0
 40
36.0
 40
37.0
 40
37.0
 40
37.0
 40
38.0
 40
38.0
 40
38.0
 40
39.0
 40
39.0
 40
39.0
 40
40.0
 40
40.0
 40
40.0
 40
41.0
 40
41.0
 40
41.0
 40
42.0
 40
42.0
 40
42.0
 40
43.0
 40
43.0
 40
43.0
 40
44.0
 40
44.0
 40
44.0
 40
45.0
 40
45.0
 40
45.0
 40
46.0
 40
46.0
 40
46.0
 40
47.0
 40
47.0
 40
47.0
 40
48.0
 40
48.0
 40
48.0
 40
49.0
 40
49.0
 40
49.0
 40
50.0
 40
50.0
 40
50.0
 40
51.0
 40
51.0
 40
51.0
 40
52.0
 40
52.0
 40
52.0
 40
53.0
 40
53.0
 40
53.0
 40
54.0
 40
54.0
 40
54.0
 40
55.0
 40
55.0
 40
55.0
 40
56.0
 40
56.0
 40
56.0
 40
57.0
 40
57.0
 40
57.0
 40
58.0
 40
58.0
 40
58.0
 40
59.0
 40
59.0
 40
59.0
 40
60.0
 40
60.0
 40
60.0
 40
61.0
 40
61.0
 40
61.0
 40
62.0
 40
62.0
 40
62.0
 40
63.0
 40
63.0
 40
63.0
 40
64.0
 40
64.0
 40
64.0
 40
65.0
 40
65.0
 40
65.0
 40
66.0
 40
66.0
 40
66.0
 40
67.0
 40
67.0
 40
67.0
 40
68.0
 40
68.0
 40
68.0
 40
69.0
 40
69.0
 40
69.0
 40
70.0
 40
70.0
 40
70.0
 40
71.0
 40
71.0
 40
71.0
 40
72.0
 40
72.0
 40
72.0
 40
73.0
 40
73.0
 40
73.0
 40
74.0
 40
74.0
 40
74.0
 40
75.0
 40
75.0
 40
75.0
 40
76.0
 40
76.0
 40
76.0
 40
77.0
 40
77.0
 40
77.0
 40
78.0
 40
78.0
 40
78.0
 40
79.0
 40
79.0
 40
79.0
 40
79.0
 10
101.4413533275042
 20
-150.3811740075436
 30
0.0
 10
101.4413533275042
 20
-150.3811740075436
 30
0.0
 10
101.1876220450156
 20
-150.3811740075436
 30
0.0
 10
101.1876220450156
 20
-150.3811740075436
 30
0.0
 10
101.1876220450156
 20
-150.3811740075436
 30
0.0
 10
100.9104641132272
 20
-150.3811740075436
 30
0.0
 10
100.9104641132272
 20
-150.3811740075436
 30
0.0
 10
100.9104641132272
 20
-150.3811740075436
 30
0.0
 10
101.0374158818587
 20
-150.4235486820121
 30
0.0
 10
101.0374158818587
 20
-150.4235486820121
 30
0.0
 10
101.0479234230887
 20
-150.4276827965944
 30
0.0
 10
101.0606702763841
 20
-150.4342284780164
 30
0.0
 10
101.0606702763841
 20
-150.4469753313119
 30
0.0
 10
101.0606702763841
 20
-150.4679904137719
 30
0.0
 10
101.0289753979198
 20
-150.4741915856453
 30
0.0
 10
101.0077880606855
 20
-150.4786702097761
 30
0.0
 10
100.9971082646813
 20
-150.5017523495273
 30
0.0
 10
100.9674804435081
 20
-150.5675536732956
 30
0.0
 10
100.9485324183392
 20
-150.6119954050553
 30
0.0
 10
100.9485324183392
 20
-150.6119954050553
 30
0.0
 10
101.2193169234799
 20
-150.6119954050553
 30
0.0
 10
101.2193169234799
 20
-150.6119954050553
 30
0.0
 10
101.3102674442905
 20
-150.6119954050553
 30
0.0
 10
101.5069823964982
 20
-150.6075167809245
 30
0.0
 10
101.6487480757163
 20
-150.5992485517599
 30
0.0
 10
101.6487480757163
 20
-150.5992485517599
 30
0.0
 10
101.6487480757163
 20
-150.7770154787988
 30
0.0
 10
101.6487480757163
 20
-150.7770154787988
 30
0.0
 10
101.5662380388445
 20
-150.772536854668
 30
0.0
 10
101.5450507016102
 20
-150.772536854668
 30
0.0
 10
101.3652167172802
 20
-150.7684027400857
 30
0.0
 10
101.3335218388159
 20
-150.9227430178248
 30
0.0
 10
101.2890801070562
 20
-151.0033582521797
 30
0.0
 10
101.2446383752965
 20
-151.0729491809818
 30
0.0
 10
101.3652167172802
 20
-151.1322048233281
 30
0.0
 10
101.4709811486774
 20
-151.2000732043875
 30
0.0
 10
101.5746785227834
 20
-151.2824109864849
 30
0.0
 10
101.5746785227834
 20
-151.2824109864849
 30
0.0
 10
101.4561672380908
 20
-151.4494981175196
 30
0.0
 10
101.4561672380908
 20
-151.4494981175196
 30
0.0
 10
101.4329128435654
 20
-151.4305500923507
 30
0.0
 10
101.4203382450442
 20
-151.4219373536375
 30
0.0
 10
101.3082003869993
 20
-151.3375325142489
 30
0.0
 10
101.259452285883
 20
-151.2992919543626
 30
0.0
 10
101.2001966435367
 20
-151.2634629613161
 30
0.0
 10
101.1199259187304
 20
-151.2190212295563
 30
0.0
 10
100.9082248011618
 20
-151.4050563857598
 30
0.0
 10
100.7030693650152
 20
-151.4284830350595
 30
0.0
 10
100.4133368347057
 20
-151.4581108562327
 30
0.0
 10
100.4133368347057
 20
-151.4581108562327
 30
0.0
 10
100.3096394605996
 20
-151.2782768719026
 30
0.0
 10
100.3096394605996
 20
-151.2782768719026
 30
0.0
 10
100.6269327547911
 20
-151.2741427573203
 30
0.0
 10
100.8024603697647
 20
-151.2486490507295
 30
0.0
 10
100.9549058449869
 20
-151.13875050475
 30
0.0
 10
100.8363945602944
 20
-151.0877630915683
 30
0.0
 10
100.7475110967749
 20
-151.0602023276863
 30
0.0
 10
100.711509848954
 20
-151.0477999839394
 30
0.0
 10
100.6925618237852
 20
-151.0750162382729
 30
0.0
 10
100.6777479131986
 20
-151.0943087729903
 30
0.0
 10
100.6501871493166
 20
-151.1280707087457
 30
0.0
 10
100.6501871493166
 20
-151.1280707087457
 30
0.0
 10
100.4534721971088
 20
-151.0453884170997
 30
0.0
 10
100.4534721971088
 20
-151.0453884170997
 30
0.0
 10
100.5359822339806
 20
-150.9651176922934
 30
0.0
 10
100.597304933618
 20
-150.8700330569005
 30
0.0
 10
100.6544935186732
 20
-150.7684027400857
 30
0.0
 10
100.4639797383388
 20
-150.772536854668
 30
0.0
 10
100.4429646558788
 20
-150.772536854668
 30
0.0
 10
100.3604546190071
 20
-150.7770154787988
 30
0.0
 10
100.3604546190071
 20
-150.7770154787988
 30
0.0
 10
100.3604546190071
 20
-150.5992485517599
 30
0.0
 10
100.3604546190071
 20
-150.5992485517599
 30
0.0
 10
100.4999809861597
 20
-150.6054497236333
 30
0.0
 10
100.7094427916629
 20
-150.6095838382156
 30
0.0
 10
100.7347642434795
 20
-150.6095838382156
 30
0.0
 10
100.7518174661315
 20
-150.5758219024602
 30
0.0
 10
100.8067667391212
 20
-150.4552435604765
 30
0.0
 10
100.8258870190643
 20
-150.3811740075436
 30
0.0
 10
100.8067667391212
 20
-150.3811740075436
 30
0.0
 10
100.6289998120823
 20
-150.3877196889655
 30
0.0
 10
100.43452417194
 20
-150.400466542261
 30
0.0
 10
100.43452417194
 20
-150.400466542261
 30
0.0
 10
100.43452417194
 20
-150.5334472279916
 30
0.0
 10
100.43452417194
 20
-150.5334472279916
 30
0.0
 10
100.3857760708237
 20
-150.5589409345825
 30
0.0
 10
100.3265204284774
 20
-150.5906358130468
 30
0.0
 10
100.1931952331982
 20
-150.656437136815
 30
0.0
 10
100.1931952331982
 20
-150.656437136815
 30
0.0
 10
100.1931952331982
 20
-150.8021646758411
 30
0.0
 10
100.1931952331982
 20
-150.8021646758411
 30
0.0
 10
100.1931952331982
 20
-150.8021646758411
 30
0.0
 10
100.1931952331982
 20
-151.2696641331895
 30
0.0
 10
100.1931952331982
 20
-151.2696641331895
 30
0.0
 10
100.1931952331982
 20
-151.3967881565952
 30
0.0
 10
100.1573662401516
 20
-151.4560437989415
 30
0.0
 10
99.87383488171557
 20
-151.4474310602284
 30
0.0
 10
99.87383488171557
 20
-151.4474310602284
 30
0.0
 10
99.77013750760955
 20
-151.2400363120164
 30
0.0
 10
99.77013750760955
 20
-151.2400363120164
 30
0.0
 10
99.83369951931242
 20
-151.2527831653118
 30
0.0
 10
99.88227536565444
 20
-151.2569172798941
 30
0.0
 10
99.92241072805761
 20
-151.2569172798941
 30
0.0
 10
99.99871959305588
 20
-151.2569172798941
 30
0.0
 10
100.0092271342859
 20
-151.2338351401429
 30
0.0
 10
100.0092271342859
 20
-151.1683783259232
 30
0.0
 10
100.0092271342859
 20
-151.1683783259232
 30
0.0
 10
100.0092271342859
 20
-150.7387749189125
 30
0.0
 10
100.0092271342859
 20
-150.7387749189125
 30
0.0
 10
99.91190318682759
 20
-150.7790825360899
 30
0.0
 10
99.89502221894987
 20
-150.7852837079634
 30
0.0
 10
99.84851342989898
 20
-150.8042317331322
 30
0.0
 10
99.84420706054244
 20
-150.8255913251408
 30
0.0
 10
99.83990069118586
 20
-150.8552191463139
 30
0.0
 10
99.82095266601699
 20
-150.8552191463139
 30
0.0
 10
99.81251218207813
 20
-150.8552191463139
 30
0.0
 10
99.80183238607386
 20
-150.8510850317317
 30
0.0
 10
99.7956312142004
 20
-150.827658382432
 30
0.0
 10
99.7956312142004
 20
-150.827658382432
 30
0.0
 10
99.74274899850183
 20
-150.6350775448065
 30
0.0
 10
99.74274899850183
 20
-150.6350775448065
 30
0.0
 10
99.88864879230215
 20
-150.5885687557556
 30
0.0
 10
99.95427786129617
 20
-150.5654866160045
 30
0.0
 10
100.0092271342859
 20
-150.5441270239959
 30
0.0
 10
100.0092271342859
 20
-150.5441270239959
 30
0.0
 10
100.0092271342859
 20
-150.1317490944115
 30
0.0
 10
100.0092271342859
 20
-150.1317490944115
 30
0.0
 10
100.0092271342859
 20
-150.1317490944115
 30
0.0
 10
99.9563449185873
 20
-150.1317490944115
 30
0.0
 10
99.9563449185873
 20
-150.1317490944115
 30
0.0
 10
99.9563449185873
 20
-150.1317490944115
 30
0.0
 10
99.87814125107213
 20
-150.1317490944115
 30
0.0
 10
99.87814125107213
 20
-150.1317490944115
 30
0.0
 10
99.81044512478698
 20
-150.1317490944115
 30
0.0
 10
99.80183238607386
 20
-150.1317490944115
 30
0.0
 10
99.76600339302725
 20
-150.137950266285
 30
0.0
 10
99.76600339302725
 20
-150.137950266285
 30
0.0
 10
99.76600339302725
 20
-149.9433023713683
 30
0.0
 10
99.76600339302725
 20
-149.9433023713683
 30
0.0
 10
99.79339190213499
 20
-149.9498480527903
 30
0.0
 10
99.80183238607386
 20
-149.9498480527903
 30
0.0
 10
99.87176782442443
 20
-149.9498480527903
 30
0.0
 10
99.87176782442443
 20
-149.9498480527903
 30
0.0
 10
100.0049207649293
 20
-149.9498480527903
 30
0.0
 10
100.0049207649293
 20
-149.9498480527903
 30
0.0
 10
100.0049207649293
 20
-149.8799126144397
 30
0.0
 10
100.0049207649293
 20
-149.7972303227937
 30
0.0
 10
100.0028537076381
 20
-149.7930962082114
 30
0.0
 10
99.99441322369932
 20
-149.6132622238814
 30
0.0
 10
99.99441322369932
 20
-149.5943141987125
 30
0.0
 10
99.99234616640817
 20
-149.5478054096616
 30
0.0
 10
99.99234616640817
 20
-149.5478054096616
 30
0.0
 10
100.2080091437848
 20
-149.5560736388262
 30
0.0
 10
100.2080091437848
 20
-149.5560736388262
 30
0.0
 10
100.2186889397891
 20
-149.5560736388262
 30
0.0
 10
100.2398762770233
 20
-149.5584852056659
 30
0.0
 10
100.2398762770233
 20
-149.5753661735436
 30
0.0
 10
100.2398762770233
 20
-149.5943141987125
 30
0.0
 10
100.2250623664368
 20
-149.6049939947168
 30
0.0
 10
100.1995686598459
 20
-149.6239420198856
 30
0.0
 10
100.1995686598459
 20
-149.6745849235188
 30
0.0
 10
100.1931952331982
 20
-149.9029947541909
 30
0.0
 10
100.1954345452636
 20
-149.9498480527903
 30
0.0
 10
100.3244533711862
 20
-149.9498480527903
 30
0.0
 10
100.3372002244816
 20
-149.9498480527903
 30
0.0
 10
100.43452417194
 20
-149.9412353140772
 30
0.0
 10
100.43452417194
 20
-149.9412353140772
 30
0.0
 10
100.43452417194
 20
-150.1358832089938
 30
0.0
 10
100.43452417194
 20
-150.1358832089938
 30
0.0
 10
100.3962836120537
 20
-150.1338161517026
 30
0.0
 10
100.3285874857685
 20
-150.1296820371203
 30
0.0
 10
100.1931952331982
 20
-150.1317490944115
 30
0.0
 10
100.1931952331982
 20
-150.1317490944115
 30
0.0
 10
100.1931952331982
 20
-150.470057471063
 30
0.0
 10
100.1931952331982
 20
-150.470057471063
 30
0.0
 10
100.2483167609622
 20
-150.4469753313119
 30
0.0
 10
100.313773575182
 20
-150.4194145674298
 30
0.0
 10
100.3625216762982
 20
-150.3959879181302
 30
0.0
 10
100.3625216762982
 20
-150.3959879181302
 30
0.0
 10
100.3625216762982
 20
-150.2182209910913
 30
0.0
 10
100.3625216762982
 20
-150.2182209910913
 30
0.0
 10
100.4767265916343
 20
-150.2309678443867
 30
0.0
 10
100.5952378763269
 20
-150.2309678443867
 30
0.0
 10
100.711509848954
 20
-150.2309678443867
 30
0.0
 10
100.6882554544286
 20
-150.1358832089938
 30
0.0
 10
100.6608669453209
 20
-150.0532009173478
 30
0.0
 10
100.597304933618
 20
-149.9202202316172
 30
0.0
 10
100.5528632018583
 20
-149.9222872889083
 30
0.0
 10
100.4703531649866
 20
-149.9264214034906
 30
0.0
 10
100.4322848598745
 20
-149.9284884607817
 30
0.0
 10
100.4322848598745
 20
-149.9284884607817
 30
0.0
 10
100.4322848598745
 20
-149.7486544764517
 30
0.0
 10
100.4322848598745
 20
-149.7486544764517
 30
0.0
 10
100.5571695712148
 20
-149.7572672151648
 30
0.0
 10
100.7306301288972
 20
-149.7614013297471
 30
0.0
 10
100.8131401657689
 20
-149.7614013297471
 30
0.0
 10
100.8131401657689
 20
-149.7614013297471
 30
0.0
 10
100.8956502026407
 20
-149.7614013297471
 30
0.0
 10
100.8956502026407
 20
-149.7614013297471
 30
0.0
 10
100.8956502026407
 20
-149.5984483132948
 30
0.0
 10
100.8956502026407
 20
-149.5881130268391
 30
0.0
 10
100.8935831453495
 20
-149.5329914990751
 30
0.0
 10
100.8935831453495
 20
-149.5329914990751
 30
0.0
 10
101.117686606665
 20
-149.5584852056659
 30
0.0
 10
101.117686606665
 20
-149.5584852056659
 30
0.0
 10
101.1219929760216
 20
-149.5584852056659
 30
0.0
 10
101.1431803132559
 20
-149.5605522629571
 30
0.0
 10
101.1431803132559
 20
-149.5774332308348
 30
0.0
 10
101.1431803132559
 20
-149.5922471414214
 30
0.0
 10
101.1325005172516
 20
-149.600515370586
 30
0.0
 10
101.1051120081438
 20
-149.6153292811725
 30
0.0
 10
101.0987385814961
 20
-149.6811306049408
 30
0.0
 10
101.096671524205
 20
-149.7021456874009
 30
0.0
 10
101.096671524205
 20
-149.7614013297471
 30
0.0
 10
101.096671524205
 20
-149.7614013297471
 30
0.0
 10
101.1917561595979
 20
-149.7614013297471
 30
0.0
 10
101.1917561595979
 20
-149.7614013297471
 30
0.0
 10
101.2742661964696
 20
-149.7614013297471
 30
0.0
 10
101.4477267541519
 20
-149.7572672151648
 30
0.0
 10
101.5726114654923
 20
-149.7486544764517
 30
0.0
 10
101.5726114654923
 20
-149.7486544764517
 30
0.0
 10
101.5726114654923
 20
-149.9284884607817
 30
0.0
 10
101.5726114654923
 20
-149.9284884607817
 30
0.0
 10
101.5429836443191
 20
-149.9264214034906
 30
0.0
 10
101.4244723596265
 20
-149.9222872889083
 30
0.0
 10
101.3843369972234
 20
-149.9202202316172
 30
0.0
 10
101.3695230866368
 20
-149.9708631352503
 30
0.0
 10
101.335588896107
 20
-150.0828287385209
 30
0.0
 10
101.2701320818873
 20
-150.2226996152221
 30
0.0
 10
101.3123345015816
 20
-150.2226996152221
 30
0.0
 10
101.58949243337
 20
-150.2034070805047
 30
0.0
 10
101.6508151330074
 20
-150.2013400232135
 30
0.0
 10
101.6508151330074
 20
-150.2013400232135
 30
0.0
 10
101.6508151330074
 20
-150.3856526316744
 30
0.0
 10
101.6508151330074
 20
-150.3856526316744
 30
0.0
 10
101.6211873118343
 20
-150.3856526316744
 30
0.0
 10
101.6043063439565
 20
-150.3811740075436
 30
0.0
 10
101.4413533275042
 20
-150.3811740075436
 30
0.0
  0
HATCH
  5
112
330
10B
100
AcDbEntity
  8
レイヤー 1
 62
    18
420
        0
440
 33554687
100
AcDbHatch
 10
0.0
 20
0.0
 30
0.0
210
0.0
220
0.0
230
1.0
  2
SOLID
 70
     1
 71
     1
 91
        3
 92
        1
 93
        1
 72
     4
 94
        3
 73
     0
 74
     0
 95
       17
 96
       13
 40
0.0
 40
0.0
 40
0.0
 40
0.0
 40
1.0
 40
1.0
 40
1.0
 40
2.0
 40
2.0
 40
2.0
 40
3.0
 40
3.0
 40
3.0
 40
4.0
 40
4.0
 40
4.0
 40
4.0
 10
100.8765299226975
 20
-150.7663356827945
 10
100.8596489548198
 20
-150.7959635039676
 10
100.8088337964123
 20
-150.8889810820694
 10
100.7983262551823
 20
-150.9079291072383
 10
100.9886677807424
 20
-150.9671847495846
 10
101.0098551179767
 20
-150.9737304310065
 10
101.0818576136184
 20
-151.00094668534
 10
101.1368068866081
 20
-150.9144747886602
 10
101.1600612811336
 20
-150.8404052357274
 10
101.1748751917201
 20
-150.7663356827945
 10
101.1748751917201
 20
-150.7663356827945
 10
100.8765299226975
 20
-150.7663356827945
 10
100.8765299226975
 20
-150.7663356827945
 97
        0
 97
        1
330
10F
 92
        1
 93
        1
 72
     4
 94
        3
 73
     0
 74
     0
 95
       20
 96
       16
 40
0.0
 40
0.0
 40
0.0
 40
0.0
 40
1.0
 40
1.0
 40
1.0
 40
2.0
 40
2.0
 40
2.0
 40
3.0
 40
3.0
 40
3.0
 40
4.0
 40
4.0
 40
4.0
 40
5.0
 40
5.0
 40
5.0
 40
5.0
 10
100.8131401657689
 20
-149.9157416074863
 10
100.8131401657689
 20
-149.9157416074863
 10
100.7814452873046
 20
-149.9157416074863
 10
100.7814452873046
 20
-149.9157416074863
 10
100.8279540763555
 20
-150.01530486701
 10
100.8596489548198
 20
-150.0955755918164
 10
100.8935831453495
 20
-150.2226996152221
 10
100.8935831453495
 20
-150.2226996152221
 10
101.1008056387873
 20
-150.2226996152221
 10
101.1008056387873
 20
-150.2226996152221
 10
101.1325005172516
 20
-150.1296820371203
 10
101.155754911777
 20
-150.0449326881832
 10
101.1790093063025
 20
-149.9157416074863
 10
101.1790093063025
 20
-149.9157416074863
 10
100.8131401657689
 20
-149.9157416074863
 10
100.8131401657689
 20
-149.9157416074863
 97
        0
 97
        1
330
110
 92
        1
 93
        1
 72
     4
 94
        3
 73
     0
 74
     0
 95
      242
 96
      238
 40
0.0
 40
0.0
 40
0.0
 40
0.0
 40
1.0
 40
1.0
 40
1.0
 40
2.0
 40
2.0
 40
2.0
 40
3.0
 40
3.0
 40
3.0
 40
4.0
 40
4.0
 40
4.0
 40
5.0
 40
5.0
 40
5.0
 40
6.0
 40
6.0
 40
6.0
 40
7.0
 40
7.0
 40
7.0
 40
8.0
 40
8.0
 40
8.0
 40
9.0
 40
9.0
 40
9.0
 40
10.0
 40
10.0
 40
10.0
 40
11.0
 40
11.0
 40
11.0
 40
12.0
 40
12.0
 40
12.0
 40
13.0
 40
13.0
 40
13.0
 40
14.0
 40
14.0
 40
14.0
 40
15.0
 40
15.0
 40
15.0
 40
16.0
 40
16.0
 40
16.0
 40
17.0
 40
17.0
 40
17.0
 40
18.0
 40
18.0
 40
18.0
 40
19.0
 40
19.0
 40
19.0
 40
20.0
 40
20.0
 40
20.0
 40
21.0
 40
21.0
 40
21.0
 40
22.0
 40
22.0
 40
22.0
 40
23.0
 40
23.0
 40
23.0
 40
24.0
 40
24.0
 40
24.0
 40
25.0
 40
25.0
 40
25.0
 40
26.0
 40
26.0
 40
26.0
 40
27.0
 40
27.0
 40
27.0
 40
28.0
 40
28.0
 40
28.0
 40
29.0
 40
29.0
 40
29.0
 40
30.0
 40
30.0
 40
30.0
 40
31.0
 40
31.0
 40
31.0
 40
32.0
 40
32.0
 40
32.0
 40
33.0
 40
33.0
 40
33.0
 40
34.0
 40
34.0
 40
34.0
 40
35.0
 40
35.0
 40
35.0
 40
36.0
 40
36.0
 40
36.0
 40
37.0
 40
37.0
 40
37.0
 40
38.0
 40
38.0
 40
38.0
 40
39.0
 40
39.0
 40
39.0
 40
40.0
 40
40.0
 40
40.0
 40
41.0
 40
41.0
 40
41.0
 40
42.0
 40
42.0
 40
42.0
 40
43.0
 40
43.0
 40
43.0
 40
44.0
 40
44.0
 40
44.0
 40
45.0
 40
45.0
 40
45.0
 40
46.0
 40
46.0
 40
46.0
 40
47.0
 40
47.0
 40
47.0
 40
48.0
 40
48.0
 40
48.0
 40
49.0
 40
49.0
 40
49.0
 40
50.0
 40
50.0
 40
50.0
 40
51.0
 40
51.0
 40
51.0
 40
52.0
 40
52.0
 40
52.0
 40
53.0
 40
53.0
 40
53.0
 40
54.0
 40
54.0
 40
54.0
 40
55.0
 40
55.0
 40
55.0
 40
56.0
 40
56.0
 40
56.0
 40
57.0
 40
57.0
 40
57.0
 40
58.0
 40
58.0
 40
58.0
 40
59.0
 40
59.0
 40
59.0
 40
60.0
 40
60.0
 40
60.0
 40
61.0
 40
61.0
 40
61.0
 40
62.0
 40
62.0
 40
62.0
 40
63.0
 40
63.0
 40
63.0
 40
64.0
 40
64.0
 40
64.0
 40
65.0
 40
65.0
 40
65.0
 40
66.0
 40
66.0
 40
66.0
 40
67.0
 40
67.0
 40
67.0
 40
68.0
 40
68.0
 40
68.0
 40
69.0
 40
69.0
 40
69.0
 40
70.0
 40
70.0
 40
70.0
 40
71.0
 40
71.0
 40
71.0
 40
72.0
 40
72.0
 40
72.0
 40
73.0
 40
73.0
 40
73.0
 40
74.0
 40
74.0
 40
74.0
 40
75.0
 40
75.0
 40
75.0
 40
76.0
 40
76.0
 40
76.0
 40
77.0
 40
77.0
 40
77.0
 40
78.0
 40
78.0
 40
78.0
 40
79.0
 40
79.0
 40
79.0
 40
79.0
 10
101.4413533275042
 20
-150.3811740075436
 10
101.4413533275042
 20
-150.3811740075436
 10
101.1876220450156
 20
-150.3811740075436
 10
101.1876220450156
 20
-150.3811740075436
 10
101.1876220450156
 20
-150.3811740075436
 10
100.9104641132272
 20
-150.3811740075436
 10
100.9104641132272
 20
-150.3811740075436
 10
100.9104641132272
 20
-150.3811740075436
 10
101.0374158818587
 20
-150.4235486820121
 10
101.0374158818587
 20
-150.4235486820121
 10
101.0479234230887
 20
-150.4276827965944
 10
101.0606702763841
 20
-150.4342284780164
 10
101.0606702763841
 20
-150.4469753313119
 10
101.0606702763841
 20
-150.4679904137719
 10
101.0289753979198
 20
-150.4741915856453
 10
101.0077880606855
 20
-150.4786702097761
 10
100.9971082646813
 20
-150.5017523495273
 10
100.9674804435081
 20
-150.5675536732956
 10
100.9485324183392
 20
-150.6119954050553
 10
100.9485324183392
 20
-150.6119954050553
 10
101.2193169234799
 20
-150.6119954050553
 10
101.2193169234799
 20
-150.6119954050553
 10
101.3102674442905
 20
-150.6119954050553
 10
101.5069823964982
 20
-150.6075167809245
 10
101.6487480757163
 20
-150.5992485517599
 10
101.6487480757163
 20
-150.5992485517599
 10
101.6487480757163
 20
-150.7770154787988
 10
101.6487480757163
 20
-150.7770154787988
 10
101.5662380388445
 20
-150.772536854668
 10
101.5450507016102
 20
-150.772536854668
 10
101.3652167172802
 20
-150.7684027400857
 10
101.3335218388159
 20
-150.9227430178248
 10
101.2890801070562
 20
-151.0033582521797
 10
101.2446383752965
 20
-151.0729491809818
 10
101.3652167172802
 20
-151.1322048233281
 10
101.4709811486774
 20
-151.2000732043875
 10
101.5746785227834
 20
-151.2824109864849
 10
101.5746785227834
 20
-151.2824109864849
 10
101.4561672380908
 20
-151.4494981175196
 10
101.4561672380908
 20
-151.4494981175196
 10
101.4329128435654
 20
-151.4305500923507
 10
101.4203382450442
 20
-151.4219373536375
 10
101.3082003869993
 20
-151.3375325142489
 10
101.259452285883
 20
-151.2992919543626
 10
101.2001966435367
 20
-151.2634629613161
 10
101.1199259187304
 20
-151.2190212295563
 10
100.9082248011618
 20
-151.4050563857598
 10
100.7030693650152
 20
-151.4284830350595
 10
100.4133368347057
 20
-151.4581108562327
 10
100.4133368347057
 20
-151.4581108562327
 10
100.3096394605996
 20
-151.2782768719026
 10
100.3096394605996
 20
-151.2782768719026
 10
100.6269327547911
 20
-151.2741427573203
 10
100.8024603697647
 20
-151.2486490507295
 10
100.9549058449869
 20
-151.13875050475
 10
100.8363945602944
 20
-151.0877630915683
 10
100.7475110967749
 20
-151.0602023276863
 10
100.711509848954
 20
-151.0477999839394
 10
100.6925618237852
 20
-151.0750162382729
 10
100.6777479131986
 20
-151.0943087729903
 10
100.6501871493166
 20
-151.1280707087457
 10
100.6501871493166
 20
-151.1280707087457
 10
100.4534721971088
 20
-151.0453884170997
 10
100.4534721971088
 20
-151.0453884170997
 10
100.5359822339806
 20
-150.9651176922934
 10
100.597304933618
 20
-150.8700330569005
 10
100.6544935186732
 20
-150.7684027400857
 10
100.4639797383388
 20
-150.772536854668
 10
100.4429646558788
 20
-150.772536854668
 10
100.3604546190071
 20
-150.7770154787988
 10
100.3604546190071
 20
-150.7770154787988
 10
100.3604546190071
 20
-150.5992485517599
 10
100.3604546190071
 20
-150.5992485517599
 10
100.4999809861597
 20
-150.6054497236333
 10
100.7094427916629
 20
-150.6095838382156
 10
100.7347642434795
 20
-150.6095838382156
 10
100.7518174661315
 20
-150.5758219024602
 10
100.8067667391212
 20
-150.4552435604765
 10
100.8258870190643
 20
-150.3811740075436
 10
100.8067667391212
 20
-150.3811740075436
 10
100.6289998120823
 20
-150.3877196889655
 10
100.43452417194
 20
-150.400466542261
 10
100.43452417194
 20
-150.400466542261
 10
100.43452417194
 20
-150.5334472279916
 10
100.43452417194
 20
-150.5334472279916
 10
100.3857760708237
 20
-150.5589409345825
 10
100.3265204284774
 20
-150.5906358130468
 10
100.1931952331982
 20
-150.656437136815
 10
100.1931952331982
 20
-150.656437136815
 10
100.1931952331982
 20
-150.8021646758411
 10
100.1931952331982
 20
-150.8021646758411
 10
100.1931952331982
 20
-150.8021646758411
 10
100.1931952331982
 20
-151.2696641331895
 10
100.1931952331982
 20
-151.2696641331895
 10
100.1931952331982
 20
-151.3967881565952
 10
100.1573662401516
 20
-151.4560437989415
 10
99.87383488171557
 20
-151.4474310602284
 10
99.87383488171557
 20
-151.4474310602284
 10
99.77013750760955
 20
-151.2400363120164
 10
99.77013750760955
 20
-151.2400363120164
 10
99.83369951931242
 20
-151.2527831653118
 10
99.88227536565444
 20
-151.2569172798941
 10
99.92241072805761
 20
-151.2569172798941
 10
99.99871959305588
 20
-151.2569172798941
 10
100.0092271342859
 20
-151.2338351401429
 10
100.0092271342859
 20
-151.1683783259232
 10
100.0092271342859
 20
-151.1683783259232
 10
100.0092271342859
 20
-150.7387749189125
 10
100.0092271342859
 20
-150.7387749189125
 10
99.91190318682759
 20
-150.7790825360899
 10
99.89502221894987
 20
-150.7852837079634
 10
99.84851342989898
 20
-150.8042317331322
 10
99.84420706054244
 20
-150.8255913251408
 10
99.83990069118586
 20
-150.8552191463139
 10
99.82095266601699
 20
-150.8552191463139
 10
99.81251218207813
 20
-150.8552191463139
 10
99.80183238607386
 20
-150.8510850317317
 10
99.7956312142004
 20
-150.827658382432
 10
99.7956312142004
 20
-150.827658382432
 10
99.74274899850183
 20
-150.6350775448065
 10
99.74274899850183
 20
-150.6350775448065
 10
99.88864879230215
 20
-150.5885687557556
 10
99.95427786129617
 20
-150.5654866160045
 10
100.0092271342859
 20
-150.5441270239959
 10
100.0092271342859
 20
-150.5441270239959
 10
100.0092271342859
 20
-150.1317490944115
 10
100.0092271342859
 20
-150.1317490944115
 10
100.0092271342859
 20
-150.1317490944115
 10
99.9563449185873
 20
-150.1317490944115
 10
99.9563449185873
 20
-150.1317490944115
 10
99.9563449185873
 20
-150.1317490944115
 10
99.87814125107213
 20
-150.1317490944115
 10
99.87814125107213
 20
-150.1317490944115
 10
99.81044512478698
 20
-150.1317490944115
 10
99.80183238607386
 20
-150.1317490944115
 10
99.76600339302725
 20
-150.137950266285
 10
99.76600339302725
 20
-150.137950266285
 10
99.76600339302725
 20
-149.9433023713683
 10
99.76600339302725
 20
-149.9433023713683
 10
99.79339190213499
 20
-149.9498480527903
 10
99.80183238607386
 20
-149.9498480527903
 10
99.87176782442443
 20
-149.9498480527903
 10
99.87176782442443
 20
-149.9498480527903
 10
100.0049207649293
 20
-149.9498480527903
 10
100.0049207649293
 20
-149.9498480527903
 10
100.0049207649293
 20
-149.8799126144397
 10
100.0049207649293
 20
-149.7972303227937
 10
100.0028537076381
 20
-149.7930962082114
 10
99.99441322369932
 20
-149.6132622238814
 10
99.99441322369932
 20
-149.5943141987125
 10
99.99234616640817
 20
-149.5478054096616
 10
99.99234616640817
 20
-149.5478054096616
 10
100.2080091437848
 20
-149.5560736388262
 10
100.2080091437848
 20
-149.5560736388262
 10
100.2186889397891
 20
-149.5560736388262
 10
100.2398762770233
 20
-149.5584852056659
 10
100.2398762770233
 20
-149.5753661735436
 10
100.2398762770233
 20
-149.5943141987125
 10
100.2250623664368
 20
-149.6049939947168
 10
100.1995686598459
 20
-149.6239420198856
 10
100.1995686598459
 20
-149.6745849235188
 10
100.1931952331982
 20
-149.9029947541909
 10
100.1954345452636
 20
-149.9498480527903
 10
100.3244533711862
 20
-149.9498480527903
 10
100.3372002244816
 20
-149.9498480527903
 10
100.43452417194
 20
-149.9412353140772
 10
100.43452417194
 20
-149.9412353140772
 10
100.43452417194
 20
-150.1358832089938
 10
100.43452417194
 20
-150.1358832089938
 10
100.3962836120537
 20
-150.1338161517026
 10
100.3285874857685
 20
-150.1296820371203
 10
100.1931952331982
 20
-150.1317490944115
 10
100.1931952331982
 20
-150.1317490944115
 10
100.1931952331982
 20
-150.470057471063
 10
100.1931952331982
 20
-150.470057471063
 10
100.2483167609622
 20
-150.4469753313119
 10
100.313773575182
 20
-150.4194145674298
 10
100.3625216762982
 20
-150.3959879181302
 10
100.3625216762982
 20
-150.3959879181302
 10
100.3625216762982
 20
-150.2182209910913
 10
100.3625216762982
 20
-150.2182209910913
 10
100.4767265916343
 20
-150.2309678443867
 10
100.5952378763269
 20
-150.2309678443867
 10
100.711509848954
 20
-150.2309678443867
 10
100.6882554544286
 20
-150.1358832089938
 10
100.6608669453209
 20
-150.0532009173478
 10
100.597304933618
 20
-149.9202202316172
 10
100.5528632018583
 20
-149.9222872889083
 10
100.4703531649866
 20
-149.9264214034906
 10
100.4322848598745
 20
-149.9284884607817
 10
100.4322848598745
 20
-149.9284884607817
 10
100.4322848598745
 20
-149.7486544764517
 10
100.4322848598745
 20
-149.7486544764517
 10
100.5571695712148
 20
-149.7572672151648
 10
100.7306301288972
 20
-149.7614013297471
 10
100.8131401657689
 20
-149.7614013297471
 10
100.8131401657689
 20
-149.7614013297471
 10
100.8956502026407
 20
-149.7614013297471
 10
100.8956502026407
 20
-149.7614013297471
 10
100.8956502026407
 20
-149.5984483132948
 10
100.8956502026407
 20
-149.5881130268391
 10
100.8935831453495
 20
-149.5329914990751
 10
100.8935831453495
 20
-149.5329914990751
 10
101.117686606665
 20
-149.5584852056659
 10
101.117686606665
 20
-149.5584852056659
 10
101.1219929760216
 20
-149.5584852056659
 10
101.1431803132559
 20
-149.5605522629571
 10
101.1431803132559
 20
-149.5774332308348
 10
101.1431803132559
 20
-149.5922471414214
 10
101.1325005172516
 20
-149.600515370586
 10
101.1051120081438
 20
-149.6153292811725
 10
101.0987385814961
 20
-149.6811306049408
 10
101.096671524205
 20
-149.7021456874009
 10
101.096671524205
 20
-149.7614013297471
 10
101.096671524205
 20
-149.7614013297471
 10
101.1917561595979
 20
-149.7614013297471
 10
101.1917561595979
 20
-149.7614013297471
 10
101.2742661964696
 20
-149.7614013297471
 10
101.4477267541519
 20
-149.7572672151648
 10
101.5726114654923
 20
-149.7486544764517
 10
101.5726114654923
 20
-149.7486544764517
 10
101.5726114654923
 20
-149.9284884607817
 10
101.5726114654923
 20
-149.9284884607817
 10
101.5429836443191
 20
-149.9264214034906
 10
101.4244723596265
 20
-149.9222872889083
 10
101.3843369972234
 20
-149.9202202316172
 10
101.3695230866368
 20
-149.9708631352503
 10
101.335588896107
 20
-150.0828287385209
 10
101.2701320818873
 20
-150.2226996152221
 10
101.3123345015816
 20
-150.2226996152221
 10
101.58949243337
 20
-150.2034070805047
 10
101.6508151330074
 20
-150.2013400232135
 10
101.6508151330074
 20
-150.2013400232135
 10
101.6508151330074
 20
-150.3856526316744
 10
101.6508151330074
 20
-150.3856526316744
 10
101.6211873118343
 20
-150.3856526316744
 10
101.6043063439565
 20
-150.3811740075436
 10
101.4413533275042
 20
-150.3811740075436
 97
        0
 97
        1
330
111
 75
     2
 76
     1
 98
        1
 10
0.0
 20
0.0
450
        0
451
        0
460
0.0
461
0.0
452
        0
462
0.0
453
        0
470

  0
SPLINE
  5
113
330
10B
100
AcDbEntity
  8
レイヤー 1
100
AcDbSpline
210
0.0
220
0.0
230
1.0
 70
    11
 71
     3
 72
    17
 73
    13
 74
     0
 42
0.0000000001
 43
0.0000000001
 40
0.0
 40
0.0
 40
0.0
 40
0.0
 40
1.0
 40
1.0
 40
1.0
 40
2.0
 40
2.0
 40
2.0
 40
3.0
 40
3.0
 40
3.0
 40
4.0
 40
4.0
 40
4.0
 40
4.0
 10
103.2979152845054
 20
-151.1807806696701
 30
0.0
 10
103.2979152845054
 20
-151.1807806696701
 30
0.0
 10
102.5913262004806
 20
-151.1807806696701
 30
0.0
 10
102.5913262004806
 20
-151.1807806696701
 30
0.0
 10
102.5913262004806
 20
-151.1807806696701
 30
0.0
 10
102.5913262004806
 20
-151.2951578397804
 30
0.0
 10
102.5913262004806
 20
-151.2951578397804
 30
0.0
 10
102.5913262004806
 20
-151.2951578397804
 30
0.0
 10
103.2979152845054
 20
-151.2951578397804
 30
0.0
 10
103.2979152845054
 20
-151.2951578397804
 30
0.0
 10
103.2979152845054
 20
-151.2951578397804
 30
0.0
 10
103.2979152845054
 20
-151.1807806696701
 30
0.0
 10
103.2979152845054
 20
-151.1807806696701
 30
0.0
  0
SPLINE
  5
114
330
10B
100
AcDbEntity
  8
レイヤー 1
100
AcDbSpline
210
0.0
220
0.0
230
1.0
 70
    11
 71
     3
 72
    17
 73
    13
 74
     0
 42
0.0000000001
 43
0.0000000001
 40
0.0
 40
0.0
 40
0.0
 40
0.0
 40
1.0
 40
1.0
 40
1.0
 40
2.0
 40
2.0
 40
2.0
 40
3.0
 40
3.0
 40
3.0
 40
4.0
 40
4.0
 40
4.0
 40
4.0
 10
103.2979152845054
 20
-150.9375569284114
 30
0.0
 10
103.2979152845054
 20
-150.9375569284114
 30
0.0
 10
102.5913262004806
 20
-150.9375569284114
 30
0.0
 10
102.5913262004806
 20
-150.9375569284114
 30
0.0
 10
102.5913262004806
 20
-150.9375569284114
 30
0.0
 10
102.5913262004806
 20
-151.0519340985217
 30
0.0
 10
102.5913262004806
 20
-151.0519340985217
 30
0.0
 10
102.5913262004806
 20
-151.0519340985217
 30
0.0
 10
103.2979152845054
 20
-151.0519340985217
 30
0.0
 10
103.2979152845054
 20
-151.0519340985217
 30
0.0
 10
103.2979152845054
 20
-151.0519340985217
 30
0.0
 10
103.2979152845054
 20
-150.9375569284114
 30
0.0
 10
103.2979152845054
 20
-150.9375569284114
 30
0.0
  0
SPLINE
  5
115
330
10B
100
AcDbEntity
  8
レイヤー 1
100
AcDbSpline
210
0.0
220
0.0
230
1.0
 70
    11
 71
     3
 72
    17
 73
    13
 74
     0
 42
0.0000000001
 43
0.0000000001
 40
0.0
 40
0.0
 40
0.0
 40
0.0
 40
1.0
 40
1.0
 40
1.0
 40
2.0
 40
2.0
 40
2.0
 40
3.0
 40
3.0
 40
3.0
 40
4.0
 40
4.0
 40
4.0
 40
4.0
 10
103.2979152845054
 20
-150.7050129831571
 30
0.0
 10
103.2979152845054
 20
-150.7050129831571
 30
0.0
 10
102.5913262004806
 20
-150.7050129831571
 30
0.0
 10
102.5913262004806
 20
-150.7050129831571
 30
0.0
 10
102.5913262004806
 20
-150.7050129831571
 30
0.0
 10
102.5913262004806
 20
-150.8128444718454
 30
0.0
 10
102.5913262004806
 20
-150.8128444718454
 30
0.0
 10
102.5913262004806
 20
-150.8128444718454
 30
0.0
 10
103.2979152845054
 20
-150.8128444718454
 30
0.0
 10
103.2979152845054
 20
-150.8128444718454
 30
0.0
 10
103.2979152845054
 20
-150.8128444718454
 30
0.0
 10
103.2979152845054
 20
-150.7050129831571
 30
0.0
 10
103.2979152845054
 20
-150.7050129831571
 30
0.0
  0
SPLINE
  5
116
330
10B
100
AcDbEntity
  8
レイヤー 1
100
AcDbSpline
210
0.0
220
0.0
230
1.0
 70
     9
 71
     3
 72
   203
 73
   199
 74
     0
 42
0.0000000001
 43
0.0000000001
 40
0.0
 40
0.0
 40
0.0
 40
0.0
 40
1.0
 40
1.0
 40
1.0
 40
2.0
 40
2.0
 40
2.0
 40
3.0
 40
3.0
 40
3.0
 40
4.0
 40
4.0
 40
4.0
 40
5.0
 40
5.0
 40
5.0
 40
6.0
 40
6.0
 40
6.0
 40
7.0
 40
7.0
 40
7.0
 40
8.0
 40
8.0
 40
8.0
 40
9.0
 40
9.0
 40
9.0
 40
10.0
 40
10.0
 40
10.0
 40
11.0
 40
11.0
 40
11.0
 40
12.0
 40
12.0
 40
12.0
 40
13.0
 40
13.0
 40
13.0
 40
14.0
 40
14.0
 40
14.0
 40
15.0
 40
15.0
 40
15.0
 40
16.0
 40
16.0
 40
16.0
 40
17.0
 40
17.0
 40
17.0
 40
18.0
 40
18.0
 40
18.0
 40
19.0
 40
19.0
 40
19.0
 40
20.0
 40
20.0
 40
20.0
 40
21.0
 40
21.0
 40
21.0
 40
22.0
 40
22.0
 40
22.0
 40
23.0
 40
23.0
 40
23.0
 40
24.0
 40
24.0
 40
24.0
 40
25.0
 40
25.0
 40
25.0
 40
26.0
 40
26.0
 40
26.0
 40
27.0
 40
27.0
 40
27.0
 40
28.0
 40
28.0
 40
28.0
 40
29.0
 40
29.0
 40
29.0
 40
30.0
 40
30.0
 40
30.0
 40
31.0
 40
31.0
 40
31.0
 40
32.0
 40
32.0
 40
32.0
 40
33.0
 40
33.0
 40
33.0
 40
34.0
 40
34.0
 40
34.0
 40
35.0
 40
35.0
 40
35.0
 40
36.0
 40
36.0
 40
36.0
 40
37.0
 40
37.0
 40
37.0
 40
38.0
 40
38.0
 40
38.0
 40
39.0
 40
39.0
 40
39.0
 40
40.0
 40
40.0
 40
40.0
 40
41.0
 40
41.0
 40
41.0
 40
42.0
 40
42.0
 40
42.0
 40
43.0
 40
43.0
 40
43.0
 40
44.0
 40
44.0
 40
44.0
 40
45.0
 40
45.0
 40
45.0
 40
46.0
 40
46.0
 40
46.0
 40
47.0
 40
47.0
 40
47.0
 40
48.0
 40
48.0
 40
48.0
 40
49.0
 40
49.0
 40
49.0
 40
50.0
 40
50.0
 40
50.0
 40
51.0
 40
51.0
 40
51.0
 40
52.0
 40
52.0
 40
52.0
 40
53.0
 40
53.0
 40
53.0
 40
54.0
 40
54.0
 40
54.0
 40
55.0
 40
55.0
 40
55.0
 40
56.0
 40
56.0
 40
56.0
 40
57.0
 40
57.0
 40
57.0
 40
58.0
 40
58.0
 40
58.0
 40
59.0
 40
59.0
 40
59.0
 40
60.0
 40
60.0
 40
60.0
 40
61.0
 40
61.0
 40
61.0
 40
62.0
 40
62.0
 40
62.0
 40
63.0
 40
63.0
 40
63.0
 40
64.0
 40
64.0
 40
64.0
 40
65.0
 40
65.0
 40
65.0
 40
66.0
 40
66.0
 40
66.0
 40
66.0
 10
103.1328952107619
 20
-150.449042388603
 30
0.0
 10
103.1328952107619
 20
-150.449042388603
 30
0.0
 10
102.5744452326029
 20
-150.449042388603
 30
0.0
 10
102.5744452326029
 20
-150.449042388603
 30
0.0
 10
102.5637654365986
 20
-150.4934841203627
 30
0.0
 10
102.5553249526598
 20
-150.525178998827
 30
0.0
 10
102.5425780993643
 20
-150.5630750491647
 30
0.0
 10
102.5680718059552
 20
-150.5630750491647
 30
0.0
 10
102.5828857165418
 20
-150.5654866160045
 30
0.0
 10
102.5892591431895
 20
-150.5654866160045
 30
0.0
 10
102.5892591431895
 20
-150.5654866160045
 30
0.0
 10
102.7775336114584
 20
-150.5654866160045
 30
0.0
 10
102.7775336114584
 20
-150.5654866160045
 30
0.0
 10
102.7775336114584
 20
-150.5654866160045
 30
0.0
 10
103.1518432359308
 20
-150.5654866160045
 30
0.0
 10
103.1518432359308
 20
-150.5654866160045
 30
0.0
 10
103.2026583943382
 20
-150.5654866160045
 30
0.0
 10
103.4861897527743
 20
-150.552739762709
 30
0.0
 10
103.5178846312386
 20
-150.552739762709
 30
0.0
 10
103.5158175739474
 20
-150.580300526591
 30
0.0
 10
103.513578261882
 20
-150.5992485517599
 30
0.0
 10
103.513578261882
 20
-150.628876372933
 30
0.0
 10
103.5115112045909
 20
-150.6605712513973
 30
0.0
 10
103.5115112045909
 20
-150.7959635039676
 30
0.0
 10
103.5115112045909
 20
-150.8235242678497
 30
0.0
 10
103.5115112045909
 20
-150.8235242678497
 30
0.0
 10
103.5115112045909
 20
-151.0688150663995
 30
0.0
 10
103.5115112045909
 20
-151.0688150663995
 30
0.0
 10
103.5115112045909
 20
-151.1132567981592
 30
0.0
 10
103.5158175739474
 20
-151.309971750367
 30
0.0
 10
103.5199516885297
 20
-151.462244970815
 30
0.0
 10
103.5199516885297
 20
-151.462244970815
 30
0.0
 10
103.2936089151488
 20
-151.462244970815
 30
0.0
 10
103.2936089151488
 20
-151.462244970815
 30
0.0
 10
103.2936089151488
 20
-151.462244970815
 30
0.0
 10
103.29567597244
 20
-151.4284830350595
 30
0.0
 10
103.29567597244
 20
-151.4284830350595
 30
0.0
 10
103.29567597244
 20
-151.4284830350595
 30
0.0
 10
102.5933932577718
 20
-151.4284830350595
 30
0.0
 10
102.5933932577718
 20
-151.4284830350595
 30
0.0
 10
102.5933932577718
 20
-151.4284830350595
 30
0.0
 10
102.5954603150629
 20
-151.462244970815
 30
0.0
 10
102.5954603150629
 20
-151.462244970815
 30
0.0
 10
102.5954603150629
 20
-151.462244970815
 30
0.0
 10
102.3775580256209
 20
-151.462244970815
 30
0.0
 10
102.3775580256209
 20
-151.462244970815
 30
0.0
 10
102.3818643949774
 20
-151.407123443051
 30
0.0
 10
102.3818643949774
 20
-151.3947210993041
 30
0.0
 10
102.3882378216251
 20
-151.2803439291938
 30
0.0
 10
102.3903048789163
 20
-151.2527831653118
 30
0.0
 10
102.3923719362074
 20
-151.1194579700326
 30
0.0
 10
102.3923719362074
 20
-151.1005099448637
 30
0.0
 10
102.3923719362074
 20
-151.1005099448637
 30
0.0
 10
102.3923719362074
 20
-150.8975938207825
 30
0.0
 10
102.3923719362074
 20
-150.8975938207825
 30
0.0
 10
102.2528455690548
 20
-151.1470187339146
 30
0.0
 10
102.0835191259548
 20
-151.2782768719026
 30
0.0
 10
101.9777546945576
 20
-151.3437336861224
 30
0.0
 10
101.9777546945576
 20
-151.3437336861224
 30
0.0
 10
101.8042941368753
 20
-151.2042073189698
 30
0.0
 10
101.8042941368753
 20
-151.2042073189698
 30
0.0
 10
101.8931776003947
 20
-151.1535644153366
 30
0.0
 10
102.0370103369039
 20
-151.0667480091083
 30
0.0
 10
102.1744696467654
 20
-150.8721001141917
 30
0.0
 10
102.2655924223502
 20
-150.744976090786
 30
0.0
 10
102.33104923657
 20
-150.601315609051
 30
0.0
 10
102.3649834270997
 20
-150.449042388603
 30
0.0
 10
102.1364013416534
 20
-150.4511094458941
 30
0.0
 10
101.9565673573233
 20
-150.4573106177676
 30
0.0
 10
101.8614827219304
 20
-150.4593776750587
 30
0.0
 10
101.8614827219304
 20
-150.4593776750587
 30
0.0
 10
101.8614827219304
 20
-150.2819552575684
 30
0.0
 10
101.8614827219304
 20
-150.2819552575684
 30
0.0
 10
102.0581976741382
 20
-150.2881564294418
 30
0.0
 10
102.3417290325743
 20
-150.2922905440241
 30
0.0
 10
102.4919351957312
 20
-150.2922905440241
 30
0.0
 10
102.4919351957312
 20
-150.2922905440241
 30
0.0
 10
102.7055311158167
 20
-150.2922905440241
 30
0.0
 10
102.7055311158167
 20
-150.2922905440241
 30
0.0
 10
102.7055311158167
 20
-150.2922905440241
 30
0.0
 10
102.7055311158167
 20
-150.1844590553358
 30
0.0
 10
102.7055311158167
 20
-150.1844590553358
 30
0.0
 10
102.7055311158167
 20
-150.1844590553358
 30
0.0
 10
102.5596313220163
 20
-150.1844590553358
 30
0.0
 10
102.5596313220163
 20
-150.1844590553358
 30
0.0
 10
102.3903048789163
 20
-150.1844590553358
 30
0.0
 10
102.2211506905905
 20
-150.1885931699181
 30
0.0
 10
102.0538913047816
 20
-150.1951388513401
 30
0.0
 10
102.0538913047816
 20
-150.1951388513401
 30
0.0
 10
102.0538913047816
 20
-150.0239176057232
 30
0.0
 10
102.0538913047816
 20
-150.0239176057232
 30
0.0
 10
102.2084038372951
 20
-150.0342528921789
 30
0.0
 10
102.3946112482729
 20
-150.0342528921789
 30
0.0
 10
102.5596313220163
 20
-150.0342528921789
 30
0.0
 10
102.5596313220163
 20
-150.0342528921789
 30
0.0
 10
102.7055311158167
 20
-150.0342528921789
 30
0.0
 10
102.7055311158167
 20
-150.0342528921789
 30
0.0
 10
102.7055311158167
 20
-150.0342528921789
 30
0.0
 10
102.7055311158167
 20
-149.9157416074863
 30
0.0
 10
102.7055311158167
 20
-149.9157416074863
 30
0.0
 10
102.7055311158167
 20
-149.9157416074863
 30
0.0
 10
102.5744452326029
 20
-149.9157416074863
 30
0.0
 10
102.5744452326029
 20
-149.9157416074863
 30
0.0
 10
102.5277641887778
 20
-149.9157416074863
 30
0.0
 10
102.3246758099223
 20
-149.9243543461994
 30
0.0
 10
102.282473390228
 20
-149.9243543461994
 30
0.0
 10
102.0793850113725
 20
-149.9284884607817
 30
0.0
 10
102.0032484011485
 20
-149.9305555180729
 30
0.0
 10
101.924872478859
 20
-149.932622575364
 30
0.0
 10
101.924872478859
 20
-149.932622575364
 30
0.0
 10
101.924872478859
 20
-149.7486544764517
 30
0.0
 10
101.924872478859
 20
-149.7486544764517
 30
0.0
 10
102.0390773941951
 20
-149.7572672151648
 30
0.0
 10
102.0835191259548
 20
-149.7572672151648
 30
0.0
 10
102.4664414891403
 20
-149.7655354443294
 30
0.0
 10
102.4030517322117
 20
-149.6704508089365
 30
0.0
 10
102.3754909683297
 20
-149.6428900450545
 30
0.0
 10
102.3394897205089
 20
-149.6070610520079
 30
0.0
 10
102.3394897205089
 20
-149.6070610520079
 30
0.0
 10
102.5151895902566
 20
-149.5243787603619
 30
0.0
 10
102.5151895902566
 20
-149.5243787603619
 30
0.0
 10
102.5553249526598
 20
-149.5605522629571
 30
0.0
 10
102.5997666844195
 20
-149.6029269374256
 30
0.0
 10
102.6738362373524
 20
-149.7128254834051
 30
0.0
 10
102.6738362373524
 20
-149.7128254834051
 30
0.0
 10
102.5596313220163
 20
-149.7679470111691
 30
0.0
 10
102.5596313220163
 20
-149.7679470111691
 30
0.0
 10
102.5596313220163
 20
-149.7679470111691
 30
0.0
 10
102.5701388632463
 20
-149.7679470111691
 30
0.0
 10
102.5701388632463
 20
-149.7679470111691
 30
0.0
 10
102.5701388632463
 20
-149.7679470111691
 30
0.0
 10
103.0927598483587
 20
-149.7679470111691
 30
0.0
 10
103.0927598483587
 20
-149.7679470111691
 30
0.0
 10
103.0927598483587
 20
-149.7679470111691
 30
0.0
 10
102.9975029581916
 20
-149.7235052794094
 30
0.0
 10
102.9975029581916
 20
-149.7235052794094
 30
0.0
 10
103.0248914672993
 20
-149.6852647195231
 30
0.0
 10
103.0820800523545
 20
-149.6049939947168
 30
0.0
 10
103.096893962941
 20
-149.5309244417839
 30
0.0
 10
103.096893962941
 20
-149.5309244417839
 30
0.0
 10
103.3104898830265
 20
-149.5943141987125
 30
0.0
 10
103.3104898830265
 20
-149.5943141987125
 30
0.0
 10
103.3191026217396
 20
-149.5963812560037
 30
0.0
 10
103.3401177041997
 20
-149.6070610520079
 30
0.0
 10
103.3401177041997
 20
-149.628076134468
 30
0.0
 10
103.3401177041997
 20
-149.6663166943542
 30
0.0
 10
103.2746608899799
 20
-149.6663166943542
 30
0.0
 10
103.2555406100368
 20
-149.6663166943542
 30
0.0
 10
103.2450330688068
 20
-149.6852647195231
 30
0.0
 10
103.2217786742813
 20
-149.7255723367005
 30
0.0
 10
103.1921508531082
 20
-149.7655354443294
 30
0.0
 10
103.5919541841714
 20
-149.759334272456
 30
0.0
 10
103.6215820053446
 20
-149.7572672151648
 30
0.0
 10
103.6977186155686
 20
-149.7507215337428
 30
0.0
 10
103.6977186155686
 20
-149.7507215337428
 30
0.0
 10
103.6977186155686
 20
-149.932622575364
 30
0.0
 10
103.6977186155686
 20
-149.932622575364
 30
0.0
 10
103.6785983356255
 20
-149.932622575364
 30
0.0
 10
103.6532768838089
 20
-149.9305555180729
 30
0.0
 10
103.4333075370757
 20
-149.9222872889083
 30
0.0
 10
103.3824923786683
 20
-149.9202202316172
 30
0.0
 10
103.162523031935
 20
-149.9157416074863
 30
0.0
 10
103.1180813001753
 20
-149.9157416074863
 30
0.0
 10
103.1180813001753
 20
-149.9157416074863
 30
0.0
 10
102.9022460680244
 20
-149.9157416074863
 30
0.0
 10
102.9022460680244
 20
-149.9157416074863
 30
0.0
 10
102.9022460680244
 20
-149.9157416074863
 30
0.0
 10
102.9022460680244
 20
-150.0342528921789
 30
0.0
 10
102.9022460680244
 20
-150.0342528921789
 30
0.0
 10
102.9022460680244
 20
-150.0342528921789
 30
0.0
 10
103.0757066257067
 20
-150.0342528921789
 30
0.0
 10
103.0757066257067
 20
-150.0342528921789
 30
0.0
 10
103.2386596421591
 20
-150.0342528921789
 30
0.0
 10
103.4290011677191
 20
-150.0342528921789
 30
0.0
 10
103.5855807575237
 20
-150.0239176057232
 30
0.0
 10
103.5855807575237
 20
-150.0239176057232
 30
0.0
 10
103.5855807575237
 20
-150.1951388513401
 30
0.0
 10
103.5855807575237
 20
-150.1951388513401
 30
0.0
 10
103.3761189520205
 20
-150.1865261126269
 30
0.0
 10
103.1794039998128
 20
-150.1844590553358
 30
0.0
 10
103.0757066257067
 20
-150.1844590553358
 30
0.0
 10
103.0757066257067
 20
-150.1844590553358
 30
0.0
 10
102.9022460680244
 20
-150.1844590553358
 30
0.0
 10
102.9022460680244
 20
-150.1844590553358
 30
0.0
 10
102.9022460680244
 20
-150.1844590553358
 30
0.0
 10
102.9022460680244
 20
-150.2922905440241
 30
0.0
 10
102.9022460680244
 20
-150.2922905440241
 30
0.0
 10
102.9022460680244
 20
-150.2922905440241
 30
0.0
 10
103.1328952107619
 20
-150.2922905440241
 30
0.0
 10
103.1328952107619
 20
-150.2922905440241
 30
0.0
 10
103.2662204060411
 20
-150.2922905440241
 30
0.0
 10
103.5538858790594
 20
-150.2881564294418
 30
0.0
 10
103.7633476845626
 20
-150.2819552575684
 30
0.0
 10
103.7633476845626
 20
-150.2819552575684
 30
0.0
 10
103.7633476845626
 20
-150.4593776750587
 30
0.0
 10
103.7633476845626
 20
-150.4593776750587
 30
0.0
 10
103.5707668469372
 20
-150.4531765031853
 30
0.0
 10
103.2576076673279
 20
-150.449042388603
 30
0.0
 10
103.1328952107619
 20
-150.449042388603
 30
0.0
  0
HATCH
  5
117
330
10B
100
AcDbEntity
  8
レイヤー 1
 62
    18
420
        0
440
 33554687
100
AcDbHatch
 10
0.0
 20
0.0
 30
0.0
210
0.0
220
0.0
230
1.0
  2
SOLID
 70
     1
 71
     1
 91
        4
 92
        1
 93
        1
 72
     4
 94
        3
 73
     0
 74
     0
 95
       17
 96
       13
 40
0.0
 40
0.0
 40
0.0
 40
0.0
 40
1.0
 40
1.0
 40
1.0
 40
2.0
 40
2.0
 40
2.0
 40
3.0
 40
3.0
 40
3.0
 40
4.0
 40
4.0
 40
4.0
 40
4.0
 10
103.2979152845054
 20
-151.1807806696701
 10
103.2979152845054
 20
-151.1807806696701
 10
102.5913262004806
 20
-151.1807806696701
 10
102.5913262004806
 20
-151.1807806696701
 10
102.5913262004806
 20
-151.1807806696701
 10
102.5913262004806
 20
-151.2951578397804
 10
102.5913262004806
 20
-151.2951578397804
 10
102.5913262004806
 20
-151.2951578397804
 10
103.2979152845054
 20
-151.2951578397804
 10
103.2979152845054
 20
-151.2951578397804
 10
103.2979152845054
 20
-151.2951578397804
 10
103.2979152845054
 20
-151.1807806696701
 10
103.2979152845054
 20
-151.1807806696701
 97
        0
 97
        1
330
113
 92
        1
 93
        1
 72
     4
 94
        3
 73
     0
 74
     0
 95
       17
 96
       13
 40
0.0
 40
0.0
 40
0.0
 40
0.0
 40
1.0
 40
1.0
 40
1.0
 40
2.0
 40
2.0
 40
2.0
 40
3.0
 40
3.0
 40
3.0
 40
4.0
 40
4.0
 40
4.0
 40
4.0
 10
103.2979152845054
 20
-150.9375569284114
 10
103.2979152845054
 20
-150.9375569284114
 10
102.5913262004806
 20
-150.9375569284114
 10
102.5913262004806
 20
-150.9375569284114
 10
102.5913262004806
 20
-150.9375569284114
 10
102.5913262004806
 20
-151.0519340985217
 10
102.5913262004806
 20
-151.0519340985217
 10
102.5913262004806
 20
-151.0519340985217
 10
103.2979152845054
 20
-151.0519340985217
 10
103.2979152845054
 20
-151.0519340985217
 10
103.2979152845054
 20
-151.0519340985217
 10
103.2979152845054
 20
-150.9375569284114
 10
103.2979152845054
 20
-150.9375569284114
 97
        0
 97
        1
330
114
 92
        1
 93
        1
 72
     4
 94
        3
 73
     0
 74
     0
 95
       17
 96
       13
 40
0.0
 40
0.0
 40
0.0
 40
0.0
 40
1.0
 40
1.0
 40
1.0
 40
2.0
 40
2.0
 40
2.0
 40
3.0
 40
3.0
 40
3.0
 40
4.0
 40
4.0
 40
4.0
 40
4.0
 10
103.2979152845054
 20
-150.7050129831571
 10
103.2979152845054
 20
-150.7050129831571
 10
102.5913262004806
 20
-150.7050129831571
 10
102.5913262004806
 20
-150.7050129831571
 10
102.5913262004806
 20
-150.7050129831571
 10
102.5913262004806
 20
-150.8128444718454
 10
102.5913262004806
 20
-150.8128444718454
 10
102.5913262004806
 20
-150.8128444718454
 10
103.2979152845054
 20
-150.8128444718454
 10
103.2979152845054
 20
-150.8128444718454
 10
103.2979152845054
 20
-150.8128444718454
 10
103.2979152845054
 20
-150.7050129831571
 10
103.2979152845054
 20
-150.7050129831571
 97
        0
 97
        1
330
115
 92
        1
 93
        1
 72
     4
 94
        3
 73
     0
 74
     0
 95
      203
 96
      199
 40
0.0
 40
0.0
 40
0.0
 40
0.0
 40
1.0
 40
1.0
 40
1.0
 40
2.0
 40
2.0
 40
2.0
 40
3.0
 40
3.0
 40
3.0
 40
4.0
 40
4.0
 40
4.0
 40
5.0
 40
5.0
 40
5.0
 40
6.0
 40
6.0
 40
6.0
 40
7.0
 40
7.0
 40
7.0
 40
8.0
 40
8.0
 40
8.0
 40
9.0
 40
9.0
 40
9.0
 40
10.0
 40
10.0
 40
10.0
 40
11.0
 40
11.0
 40
11.0
 40
12.0
 40
12.0
 40
12.0
 40
13.0
 40
13.0
 40
13.0
 40
14.0
 40
14.0
 40
14.0
 40
15.0
 40
15.0
 40
15.0
 40
16.0
 40
16.0
 40
16.0
 40
17.0
 40
17.0
 40
17.0
 40
18.0
 40
18.0
 40
18.0
 40
19.0
 40
19.0
 40
19.0
 40
20.0
 40
20.0
 40
20.0
 40
21.0
 40
21.0
 40
21.0
 40
22.0
 40
22.0
 40
22.0
 40
23.0
 40
23.0
 40
23.0
 40
24.0
 40
24.0
 40
24.0
 40
25.0
 40
25.0
 40
25.0
 40
26.0
 40
26.0
 40
26.0
 40
27.0
 40
27.0
 40
27.0
 40
28.0
 40
28.0
 40
28.0
 40
29.0
 40
29.0
 40
29.0
 40
30.0
 40
30.0
 40
30.0
 40
31.0
 40
31.0
 40
31.0
 40
32.0
 40
32.0
 40
32.0
 40
33.0
 40
33.0
 40
33.0
 40
34.0
 40
34.0
 40
34.0
 40
35.0
 40
35.0
 40
35.0
 40
36.0
 40
36.0
 40
36.0
 40
37.0
 40
37.0
 40
37.0
 40
38.0
 40
38.0
 40
38.0
 40
39.0
 40
39.0
 40
39.0
 40
40.0
 40
40.0
 40
40.0
 40
41.0
 40
41.0
 40
41.0
 40
42.0
 40
42.0
 40
42.0
 40
43.0
 40
43.0
 40
43.0
 40
44.0
 40
44.0
 40
44.0
 40
45.0
 40
45.0
 40
45.0
 40
46.0
 40
46.0
 40
46.0
 40
47.0
 40
47.0
 40
47.0
 40
48.0
 40
48.0
 40
48.0
 40
49.0
 40
49.0
 40
49.0
 40
50.0
 40
50.0
 40
50.0
 40
51.0
 40
51.0
 40
51.0
 40
52.0
 40
52.0
 40
52.0
 40
53.0
 40
53.0
 40
53.0
 40
54.0
 40
54.0
 40
54.0
 40
55.0
 40
55.0
 40
55.0
 40
56.0
 40
56.0
 40
56.0
 40
57.0
 40
57.0
 40
57.0
 40
58.0
 40
58.0
 40
58.0
 40
59.0
 40
59.0
 40
59.0
 40
60.0
 40
60.0
 40
60.0
 40
61.0
 40
61.0
 40
61.0
 40
62.0
 40
62.0
 40
62.0
 40
63.0
 40
63.0
 40
63.0
 40
64.0
 40
64.0
 40
64.0
 40
65.0
 40
65.0
 40
65.0
 40
66.0
 40
66.0
 40
66.0
 40
66.0
 10
103.1328952107619
 20
-150.449042388603
 10
103.1328952107619
 20
-150.449042388603
 10
102.5744452326029
 20
-150.449042388603
 10
102.5744452326029
 20
-150.449042388603
 10
102.5637654365986
 20
-150.4934841203627
 10
102.5553249526598
 20
-150.525178998827
 10
102.5425780993643
 20
-150.5630750491647
 10
102.5680718059552
 20
-150.5630750491647
 10
102.5828857165418
 20
-150.5654866160045
 10
102.5892591431895
 20
-150.5654866160045
 10
102.5892591431895
 20
-150.5654866160045
 10
102.7775336114584
 20
-150.5654866160045
 10
102.7775336114584
 20
-150.5654866160045
 10
102.7775336114584
 20
-150.5654866160045
 10
103.1518432359308
 20
-150.5654866160045
 10
103.1518432359308
 20
-150.5654866160045
 10
103.2026583943382
 20
-150.5654866160045
 10
103.4861897527743
 20
-150.552739762709
 10
103.5178846312386
 20
-150.552739762709
 10
103.5158175739474
 20
-150.580300526591
 10
103.513578261882
 20
-150.5992485517599
 10
103.513578261882
 20
-150.628876372933
 10
103.5115112045909
 20
-150.6605712513973
 10
103.5115112045909
 20
-150.7959635039676
 10
103.5115112045909
 20
-150.8235242678497
 10
103.5115112045909
 20
-150.8235242678497
 10
103.5115112045909
 20
-151.0688150663995
 10
103.5115112045909
 20
-151.0688150663995
 10
103.5115112045909
 20
-151.1132567981592
 10
103.5158175739474
 20
-151.309971750367
 10
103.5199516885297
 20
-151.462244970815
 10
103.5199516885297
 20
-151.462244970815
 10
103.2936089151488
 20
-151.462244970815
 10
103.2936089151488
 20
-151.462244970815
 10
103.2936089151488
 20
-151.462244970815
 10
103.29567597244
 20
-151.4284830350595
 10
103.29567597244
 20
-151.4284830350595
 10
103.29567597244
 20
-151.4284830350595
 10
102.5933932577718
 20
-151.4284830350595
 10
102.5933932577718
 20
-151.4284830350595
 10
102.5933932577718
 20
-151.4284830350595
 10
102.5954603150629
 20
-151.462244970815
 10
102.5954603150629
 20
-151.462244970815
 10
102.5954603150629
 20
-151.462244970815
 10
102.3775580256209
 20
-151.462244970815
 10
102.3775580256209
 20
-151.462244970815
 10
102.3818643949774
 20
-151.407123443051
 10
102.3818643949774
 20
-151.3947210993041
 10
102.3882378216251
 20
-151.2803439291938
 10
102.3903048789163
 20
-151.2527831653118
 10
102.3923719362074
 20
-151.1194579700326
 10
102.3923719362074
 20
-151.1005099448637
 10
102.3923719362074
 20
-151.1005099448637
 10
102.3923719362074
 20
-150.8975938207825
 10
102.3923719362074
 20
-150.8975938207825
 10
102.2528455690548
 20
-151.1470187339146
 10
102.0835191259548
 20
-151.2782768719026
 10
101.9777546945576
 20
-151.3437336861224
 10
101.9777546945576
 20
-151.3437336861224
 10
101.8042941368753
 20
-151.2042073189698
 10
101.8042941368753
 20
-151.2042073189698
 10
101.8931776003947
 20
-151.1535644153366
 10
102.0370103369039
 20
-151.0667480091083
 10
102.1744696467654
 20
-150.8721001141917
 10
102.2655924223502
 20
-150.744976090786
 10
102.33104923657
 20
-150.601315609051
 10
102.3649834270997
 20
-150.449042388603
 10
102.1364013416534
 20
-150.4511094458941
 10
101.9565673573233
 20
-150.4573106177676
 10
101.8614827219304
 20
-150.4593776750587
 10
101.8614827219304
 20
-150.4593776750587
 10
101.8614827219304
 20
-150.2819552575684
 10
101.8614827219304
 20
-150.2819552575684
 10
102.0581976741382
 20
-150.2881564294418
 10
102.3417290325743
 20
-150.2922905440241
 10
102.4919351957312
 20
-150.2922905440241
 10
102.4919351957312
 20
-150.2922905440241
 10
102.7055311158167
 20
-150.2922905440241
 10
102.7055311158167
 20
-150.2922905440241
 10
102.7055311158167
 20
-150.2922905440241
 10
102.7055311158167
 20
-150.1844590553358
 10
102.7055311158167
 20
-150.1844590553358
 10
102.7055311158167
 20
-150.1844590553358
 10
102.5596313220163
 20
-150.1844590553358
 10
102.5596313220163
 20
-150.1844590553358
 10
102.3903048789163
 20
-150.1844590553358
 10
102.2211506905905
 20
-150.1885931699181
 10
102.0538913047816
 20
-150.1951388513401
 10
102.0538913047816
 20
-150.1951388513401
 10
102.0538913047816
 20
-150.0239176057232
 10
102.0538913047816
 20
-150.0239176057232
 10
102.2084038372951
 20
-150.0342528921789
 10
102.3946112482729
 20
-150.0342528921789
 10
102.5596313220163
 20
-150.0342528921789
 10
102.5596313220163
 20
-150.0342528921789
 10
102.7055311158167
 20
-150.0342528921789
 10
102.7055311158167
 20
-150.0342528921789
 10
102.7055311158167
 20
-150.0342528921789
 10
102.7055311158167
 20
-149.9157416074863
 10
102.7055311158167
 20
-149.9157416074863
 10
102.7055311158167
 20
-149.9157416074863
 10
102.5744452326029
 20
-149.9157416074863
 10
102.5744452326029
 20
-149.9157416074863
 10
102.5277641887778
 20
-149.9157416074863
 10
102.3246758099223
 20
-149.9243543461994
 10
102.282473390228
 20
-149.9243543461994
 10
102.0793850113725
 20
-149.9284884607817
 10
102.0032484011485
 20
-149.9305555180729
 10
101.924872478859
 20
-149.932622575364
 10
101.924872478859
 20
-149.932622575364
 10
101.924872478859
 20
-149.7486544764517
 10
101.924872478859
 20
-149.7486544764517
 10
102.0390773941951
 20
-149.7572672151648
 10
102.0835191259548
 20
-149.7572672151648
 10
102.4664414891403
 20
-149.7655354443294
 10
102.4030517322117
 20
-149.6704508089365
 10
102.3754909683297
 20
-149.6428900450545
 10
102.3394897205089
 20
-149.6070610520079
 10
102.3394897205089
 20
-149.6070610520079
 10
102.5151895902566
 20
-149.5243787603619
 10
102.5151895902566
 20
-149.5243787603619
 10
102.5553249526598
 20
-149.5605522629571
 10
102.5997666844195
 20
-149.6029269374256
 10
102.6738362373524
 20
-149.7128254834051
 10
102.6738362373524
 20
-149.7128254834051
 10
102.5596313220163
 20
-149.7679470111691
 10
102.5596313220163
 20
-149.7679470111691
 10
102.5596313220163
 20
-149.7679470111691
 10
102.5701388632463
 20
-149.7679470111691
 10
102.5701388632463
 20
-149.7679470111691
 10
102.5701388632463
 20
-149.7679470111691
 10
103.0927598483587
 20
-149.7679470111691
 10
103.0927598483587
 20
-149.7679470111691
 10
103.0927598483587
 20
-149.7679470111691
 10
102.9975029581916
 20
-149.7235052794094
 10
102.9975029581916
 20
-149.7235052794094
 10
103.0248914672993
 20
-149.6852647195231
 10
103.0820800523545
 20
-149.6049939947168
 10
103.096893962941
 20
-149.5309244417839
 10
103.096893962941
 20
-149.5309244417839
 10
103.3104898830265
 20
-149.5943141987125
 10
103.3104898830265
 20
-149.5943141987125
 10
103.3191026217396
 20
-149.5963812560037
 10
103.3401177041997
 20
-149.6070610520079
 10
103.3401177041997
 20
-149.628076134468
 10
103.3401177041997
 20
-149.6663166943542
 10
103.2746608899799
 20
-149.6663166943542
 10
103.2555406100368
 20
-149.6663166943542
 10
103.2450330688068
 20
-149.6852647195231
 10
103.2217786742813
 20
-149.7255723367005
 10
103.1921508531082
 20
-149.7655354443294
 10
103.5919541841714
 20
-149.759334272456
 10
103.6215820053446
 20
-149.7572672151648
 10
103.6977186155686
 20
-149.7507215337428
 10
103.6977186155686
 20
-149.7507215337428
 10
103.6977186155686
 20
-149.932622575364
 10
103.6977186155686
 20
-149.932622575364
 10
103.6785983356255
 20
-149.932622575364
 10
103.6532768838089
 20
-149.9305555180729
 10
103.4333075370757
 20
-149.9222872889083
 10
103.3824923786683
 20
-149.9202202316172
 10
103.162523031935
 20
-149.9157416074863
 10
103.1180813001753
 20
-149.9157416074863
 10
103.1180813001753
 20
-149.9157416074863
 10
102.9022460680244
 20
-149.9157416074863
 10
102.9022460680244
 20
-149.9157416074863
 10
102.9022460680244
 20
-149.9157416074863
 10
102.9022460680244
 20
-150.0342528921789
 10
102.9022460680244
 20
-150.0342528921789
 10
102.9022460680244
 20
-150.0342528921789
 10
103.0757066257067
 20
-150.0342528921789
 10
103.0757066257067
 20
-150.0342528921789
 10
103.2386596421591
 20
-150.0342528921789
 10
103.4290011677191
 20
-150.0342528921789
 10
103.5855807575237
 20
-150.0239176057232
 10
103.5855807575237
 20
-150.0239176057232
 10
103.5855807575237
 20
-150.1951388513401
 10
103.5855807575237
 20
-150.1951388513401
 10
103.3761189520205
 20
-150.1865261126269
 10
103.1794039998128
 20
-150.1844590553358
 10
103.0757066257067
 20
-150.1844590553358
 10
103.0757066257067
 20
-150.1844590553358
 10
102.9022460680244
 20
-150.1844590553358
 10
102.9022460680244
 20
-150.1844590553358
 10
102.9022460680244
 20
-150.1844590553358
 10
102.9022460680244
 20
-150.2922905440241
 10
102.9022460680244
 20
-150.2922905440241
 10
102.9022460680244
 20
-150.2922905440241
 10
103.1328952107619
 20
-150.2922905440241
 10
103.1328952107619
 20
-150.2922905440241
 10
103.2662204060411
 20
-150.2922905440241
 10
103.5538858790594
 20
-150.2881564294418
 10
103.7633476845626
 20
-150.2819552575684
 10
103.7633476845626
 20
-150.2819552575684
 10
103.7633476845626
 20
-150.4593776750587
 10
103.7633476845626
 20
-150.4593776750587
 10
103.5707668469372
 20
-150.4531765031853
 10
103.2576076673279
 20
-150.449042388603
 10
103.1328952107619
 20
-150.449042388603
 97
        0
 97
        1
330
116
 75
     2
 76
     1
 98
        1
 10
0.0
 20
0.0
450
        0
451
        0
460
0.0
461
0.0
452
        0
462
0.0
453
        0
470

  0
SPLINE
  5
118
330
10B
100
AcDbEntity
  8
レイヤー 1
100
AcDbSpline
210
0.0
220
0.0
230
1.0
 70
     9
 71
     3
 72
    29
 73
    25
 74
     0
 42
0.0000000001
 43
0.0000000001
 40
0.0
 40
0.0
 40
0.0
 40
0.0
 40
1.0
 40
1.0
 40
1.0
 40
2.0
 40
2.0
 40
2.0
 40
3.0
 40
3.0
 40
3.0
 40
4.0
 40
4.0
 40
4.0
 40
5.0
 40
5.0
 40
5.0
 40
6.0
 40
6.0
 40
6.0
 40
7.0
 40
7.0
 40
7.0
 40
8.0
 40
8.0
 40
8.0
 40
8.0
 10
105.0084051929319
 20
-149.8967935823175
 30
0.0
 10
105.0084051929319
 20
-149.8967935823175
 30
0.0
 10
104.6551106509195
 20
-149.8967935823175
 30
0.0
 10
104.6551106509195
 20
-149.8967935823175
 30
0.0
 10
104.5429727928746
 20
-149.8967935823175
 30
0.0
 10
104.4032741709478
 20
-149.9029947541909
 30
0.0
 10
104.2954426822594
 20
-149.9157416074863
 30
0.0
 10
104.2954426822594
 20
-149.9157416074863
 30
0.0
 10
104.2954426822594
 20
-149.6811306049408
 30
0.0
 10
104.2954426822594
 20
-149.6811306049408
 30
0.0
 10
104.413953966952
 20
-149.6959445155274
 30
0.0
 10
104.5979220658644
 20
-149.7000786301097
 30
0.0
 10
104.6551106509195
 20
-149.7000786301097
 30
0.0
 10
104.6551106509195
 20
-149.7000786301097
 30
0.0
 10
105.0084051929319
 20
-149.7000786301097
 30
0.0
 10
105.0084051929319
 20
-149.7000786301097
 30
0.0
 10
105.0273532181008
 20
-149.7000786301097
 30
0.0
 10
105.2304415969563
 20
-149.7000786301097
 30
0.0
 10
105.3722072761743
 20
-149.6811306049408
 30
0.0
 10
105.3722072761743
 20
-149.6811306049408
 30
0.0
 10
105.3722072761743
 20
-149.9157416074863
 30
0.0
 10
105.3722072761743
 20
-149.9157416074863
 30
0.0
 10
105.2156276863697
 20
-149.8967935823175
 30
0.0
 10
105.0252861608096
 20
-149.8967935823175
 30
0.0
 10
105.0084051929319
 20
-149.8967935823175
 30
0.0
  0
SPLINE
  5
119
330
10B
100
AcDbEntity
  8
レイヤー 1
100
AcDbSpline
210
0.0
220
0.0
230
1.0
 70
     9
 71
     3
 72
    47
 73
    43
 74
     0
 42
0.0000000001
 43
0.0000000001
 40
0.0
 40
0.0
 40
0.0
 40
0.0
 40
1.0
 40
1.0
 40
1.0
 40
2.0
 40
2.0
 40
2.0
 40
3.0
 40
3.0
 40
3.0
 40
4.0
 40
4.0
 40
4.0
 40
5.0
 40
5.0
 40
5.0
 40
6.0
 40
6.0
 40
6.0
 40
7.0
 40
7.0
 40
7.0
 40
8.0
 40
8.0
 40
8.0
 40
9.0
 40
9.0
 40
9.0
 40
10.0
 40
10.0
 40
10.0
 40
11.0
 40
11.0
 40
11.0
 40
12.0
 40
12.0
 40
12.0
 40
13.0
 40
13.0
 40
13.0
 40
14.0
 40
14.0
 40
14.0
 40
14.0
 10
105.1098632549725
 20
-150.4256157393033
 30
0.0
 10
105.1098632549725
 20
-150.4256157393033
 30
0.0
 10
105.0084051929319
 20
-150.4256157393033
 30
0.0
 10
105.0084051929319
 20
-150.4256157393033
 30
0.0
 10
105.0084051929319
 20
-150.5124321455316
 30
0.0
 10
104.9872178556976
 20
-150.9017279353648
 30
0.0
 10
104.7905029034899
 20
-151.1218695368723
 30
0.0
 10
104.6380574282675
 20
-151.291023725198
 30
0.0
 10
104.4308349348298
 20
-151.3606146540001
 30
0.0
 10
104.3462578406669
 20
-151.3881754178821
 30
0.0
 10
104.3462578406669
 20
-151.3881754178821
 30
0.0
 10
104.1516099457503
 20
-151.2210882868475
 30
0.0
 10
104.1516099457503
 20
-151.2210882868475
 30
0.0
 10
104.2489338932086
 20
-151.2083414335521
 30
0.0
 10
104.424461508182
 20
-151.1852592938009
 30
0.0
 10
104.612735976451
 20
-150.9968125707577
 30
0.0
 10
104.6868055293838
 20
-150.924810075116
 30
0.0
 10
104.7905029034899
 20
-150.7852837079634
 30
0.0
 10
104.7905029034899
 20
-150.4256157393033
 30
0.0
 10
104.7905029034899
 20
-150.4256157393033
 30
0.0
 10
104.5598537607524
 20
-150.4256157393033
 30
0.0
 10
104.5598537607524
 20
-150.4256157393033
 30
0.0
 10
104.3736463497746
 20
-150.4256157393033
 30
0.0
 10
104.1874389387969
 20
-150.4300943634341
 30
0.0
 10
104.0014037825934
 20
-150.4445637644722
 30
0.0
 10
104.0014037825934
 20
-150.4445637644722
 30
0.0
 10
104.0014037825934
 20
-150.2247666725132
 30
0.0
 10
104.0014037825934
 20
-150.2247666725132
 30
0.0
 10
104.1896782508623
 20
-150.2395805830998
 30
0.0
 10
104.4752766665895
 20
-150.2437146976821
 30
0.0
 10
104.5598537607524
 20
-150.2437146976821
 30
0.0
 10
104.5598537607524
 20
-150.2437146976821
 30
0.0
 10
105.1098632549725
 20
-150.2437146976821
 30
0.0
 10
105.1098632549725
 20
-150.2437146976821
 30
0.0
 10
105.1289835349157
 20
-150.2437146976821
 30
0.0
 10
105.4462768291072
 20
-150.2437146976821
 30
0.0
 10
105.6748589145535
 20
-150.2247666725132
 30
0.0
 10
105.6748589145535
 20
-150.2247666725132
 30
0.0
 10
105.6748589145535
 20
-150.4445637644722
 30
0.0
 10
105.6748589145535
 20
-150.4445637644722
 30
0.0
 10
105.4864121915103
 20
-150.4300943634341
 30
0.0
 10
105.2981377232414
 20
-150.4256157393033
 30
0.0
 10
105.1098632549725
 20
-150.4256157393033
 30
0.0
  0
HATCH
  5
11A
330
10B
100
AcDbEntity
  8
レイヤー 1
 62
    18
420
        0
440
 33554687
100
AcDbHatch
 10
0.0
 20
0.0
 30
0.0
210
0.0
220
0.0
230
1.0
  2
SOLID
 70
     1
 71
     1
 91
        2
 92
        1
 93
        1
 72
     4
 94
        3
 73
     0
 74
     0
 95
       29
 96
       25
 40
0.0
 40
0.0
 40
0.0
 40
0.0
 40
1.0
 40
1.0
 40
1.0
 40
2.0
 40
2.0
 40
2.0
 40
3.0
 40
3.0
 40
3.0
 40
4.0
 40
4.0
 40
4.0
 40
5.0
 40
5.0
 40
5.0
 40
6.0
 40
6.0
 40
6.0
 40
7.0
 40
7.0
 40
7.0
 40
8.0
 40
8.0
 40
8.0
 40
8.0
 10
105.0084051929319
 20
-149.8967935823175
 10
105.0084051929319
 20
-149.8967935823175
 10
104.6551106509195
 20
-149.8967935823175
 10
104.6551106509195
 20
-149.8967935823175
 10
104.5429727928746
 20
-149.8967935823175
 10
104.4032741709478
 20
-149.9029947541909
 10
104.2954426822594
 20
-149.9157416074863
 10
104.2954426822594
 20
-149.9157416074863
 10
104.2954426822594
 20
-149.6811306049408
 10
104.2954426822594
 20
-149.6811306049408
 10
104.413953966952
 20
-149.6959445155274
 10
104.5979220658644
 20
-149.7000786301097
 10
104.6551106509195
 20
-149.7000786301097
 10
104.6551106509195
 20
-149.7000786301097
 10
105.0084051929319
 20
-149.7000786301097
 10
105.0084051929319
 20
-149.7000786301097
 10
105.0273532181008
 20
-149.7000786301097
 10
105.2304415969563
 20
-149.7000786301097
 10
105.3722072761743
 20
-149.6811306049408
 10
105.3722072761743
 20
-149.6811306049408
 10
105.3722072761743
 20
-149.9157416074863
 10
105.3722072761743
 20
-149.9157416074863
 10
105.2156276863697
 20
-149.8967935823175
 10
105.0252861608096
 20
-149.8967935823175
 10
105.0084051929319
 20
-149.8967935823175
 97
        0
 97
        1
330
118
 92
        1
 93
        1
 72
     4
 94
        3
 73
     0
 74
     0
 95
       47
 96
       43
 40
0.0
 40
0.0
 40
0.0
 40
0.0
 40
1.0
 40
1.0
 40
1.0
 40
2.0
 40
2.0
 40
2.0
 40
3.0
 40
3.0
 40
3.0
 40
4.0
 40
4.0
 40
4.0
 40
5.0
 40
5.0
 40
5.0
 40
6.0
 40
6.0
 40
6.0
 40
7.0
 40
7.0
 40
7.0
 40
8.0
 40
8.0
 40
8.0
 40
9.0
 40
9.0
 40
9.0
 40
10.0
 40
10.0
 40
10.0
 40
11.0
 40
11.0
 40
11.0
 40
12.0
 40
12.0
 40
12.0
 40
13.0
 40
13.0
 40
13.0
 40
14.0
 40
14.0
 40
14.0
 40
14.0
 10
105.1098632549725
 20
-150.4256157393033
 10
105.1098632549725
 20
-150.4256157393033
 10
105.0084051929319
 20
-150.4256157393033
 10
105.0084051929319
 20
-150.4256157393033
 10
105.0084051929319
 20
-150.5124321455316
 10
104.9872178556976
 20
-150.9017279353648
 10
104.7905029034899
 20
-151.1218695368723
 10
104.6380574282675
 20
-151.291023725198
 10
104.4308349348298
 20
-151.3606146540001
 10
104.3462578406669
 20
-151.3881754178821
 10
104.3462578406669
 20
-151.3881754178821
 10
104.1516099457503
 20
-151.2210882868475
 10
104.1516099457503
 20
-151.2210882868475
 10
104.2489338932086
 20
-151.2083414335521
 10
104.424461508182
 20
-151.1852592938009
 10
104.612735976451
 20
-150.9968125707577
 10
104.6868055293838
 20
-150.924810075116
 10
104.7905029034899
 20
-150.7852837079634
 10
104.7905029034899
 20
-150.4256157393033
 10
104.7905029034899
 20
-150.4256157393033
 10
104.5598537607524
 20
-150.4256157393033
 10
104.5598537607524
 20
-150.4256157393033
 10
104.3736463497746
 20
-150.4256157393033
 10
104.1874389387969
 20
-150.4300943634341
 10
104.0014037825934
 20
-150.4445637644722
 10
104.0014037825934
 20
-150.4445637644722
 10
104.0014037825934
 20
-150.2247666725132
 10
104.0014037825934
 20
-150.2247666725132
 10
104.1896782508623
 20
-150.2395805830998
 10
104.4752766665895
 20
-150.2437146976821
 10
104.5598537607524
 20
-150.2437146976821
 10
104.5598537607524
 20
-150.2437146976821
 10
105.1098632549725
 20
-150.2437146976821
 10
105.1098632549725
 20
-150.2437146976821
 10
105.1289835349157
 20
-150.2437146976821
 10
105.4462768291072
 20
-150.2437146976821
 10
105.6748589145535
 20
-150.2247666725132
 10
105.6748589145535
 20
-150.2247666725132
 10
105.6748589145535
 20
-150.4445637644722
 10
105.6748589145535
 20
-150.4445637644722
 10
105.4864121915103
 20
-150.4300943634341
 10
105.2981377232414
 20
-150.4256157393033
 10
105.1098632549725
 20
-150.4256157393033
 97
        0
 97
        1
330
119
 75
     2
 76
     1
 98
        1
 10
0.0
 20
0.0
450
        0
451
        0
460
0.0
461
0.0
452
        0
462
0.0
453
        0
470

  0
SPLINE
  5
11B
330
10B
100
AcDbEntity
  8
レイヤー 1
100
AcDbSpline
210
0.0
220
0.0
230
1.0
 70
     9
 71
     3
 72
    29
 73
    25
 74
     0
 42
0.0000000001
 43
0.0000000001
 40
0.0
 40
0.0
 40
0.0
 40
0.0
 40
1.0
 40
1.0
 40
1.0
 40
2.0
 40
2.0
 40
2.0
 40
3.0
 40
3.0
 40
3.0
 40
4.0
 40
4.0
 40
4.0
 40
5.0
 40
5.0
 40
5.0
 40
6.0
 40
6.0
 40
6.0
 40
7.0
 40
7.0
 40
7.0
 40
8.0
 40
8.0
 40
8.0
 40
8.0
 10
106.9557454159694
 20
-150.5885687557556
 30
0.0
 10
106.9557454159694
 20
-150.5885687557556
 30
0.0
 10
106.4713649907433
 20
-150.5885687557556
 30
0.0
 10
106.4713649907433
 20
-150.5885687557556
 30
0.0
 10
106.4438042268613
 20
-150.5885687557556
 30
0.0
 10
106.1265109326697
 20
-150.5885687557556
 30
0.0
 10
105.9149820698754
 20
-150.6140624623465
 30
0.0
 10
105.9149820698754
 20
-150.6140624623465
 30
0.0
 10
105.9149820698754
 20
-150.3832410648347
 30
0.0
 10
105.9149820698754
 20
-150.3832410648347
 30
0.0
 10
106.0734564621969
 20
-150.4066677141344
 30
0.0
 10
106.2639702425312
 20
-150.4087347714256
 30
0.0
 10
106.4713649907433
 20
-150.4087347714256
 30
0.0
 10
106.4713649907433
 20
-150.4087347714256
 30
0.0
 10
106.9557454159694
 20
-150.4087347714256
 30
0.0
 10
106.9557454159694
 20
-150.4087347714256
 30
0.0
 10
107.1417805721729
 20
-150.4087347714256
 30
0.0
 10
107.3278157283763
 20
-150.4066677141344
 30
0.0
 10
107.5121283368372
 20
-150.3832410648347
 30
0.0
 10
107.5121283368372
 20
-150.3832410648347
 30
0.0
 10
107.5121283368372
 20
-150.6140624623465
 30
0.0
 10
107.5121283368372
 20
-150.6140624623465
 30
0.0
 10
107.3278157283763
 20
-150.5906358130468
 30
0.0
 10
107.0804578725354
 20
-150.5885687557556
 30
0.0
 10
106.9557454159694
 20
-150.5885687557556
 30
0.0
  0
HATCH
  5
11C
330
10B
100
AcDbEntity
  8
レイヤー 1
 62
    18
420
        0
440
 33554687
100
AcDbHatch
 10
0.0
 20
0.0
 30
0.0
210
0.0
220
0.0
230
1.0
  2
SOLID
 70
     1
 71
     1
 91
        1
 92
        1
 93
        1
 72
     4
 94
        3
 73
     0
 74
     0
 95
       29
 96
       25
 40
0.0
 40
0.0
 40
0.0
 40
0.0
 40
1.0
 40
1.0
 40
1.0
 40
2.0
 40
2.0
 40
2.0
 40
3.0
 40
3.0
 40
3.0
 40
4.0
 40
4.0
 40
4.0
 40
5.0
 40
5.0
 40
5.0
 40
6.0
 40
6.0
 40
6.0
 40
7.0
 40
7.0
 40
7.0
 40
8.0
 40
8.0
 40
8.0
 40
8.0
 10
106.9557454159694
 20
-150.5885687557556
 10
106.9557454159694
 20
-150.5885687557556
 10
106.4713649907433
 20
-150.5885687557556
 10
106.4713649907433
 20
-150.5885687557556
 10
106.4438042268613
 20
-150.5885687557556
 10
106.1265109326697
 20
-150.5885687557556
 10
105.9149820698754
 20
-150.6140624623465
 10
105.9149820698754
 20
-150.6140624623465
 10
105.9149820698754
 20
-150.3832410648347
 10
105.9149820698754
 20
-150.3832410648347
 10
106.0734564621969
 20
-150.4066677141344
 10
106.2639702425312
 20
-150.4087347714256
 10
106.4713649907433
 20
-150.4087347714256
 10
106.4713649907433
 20
-150.4087347714256
 10
106.9557454159694
 20
-150.4087347714256
 10
106.9557454159694
 20
-150.4087347714256
 10
107.1417805721729
 20
-150.4087347714256
 10
107.3278157283763
 20
-150.4066677141344
 10
107.5121283368372
 20
-150.3832410648347
 10
107.5121283368372
 20
-150.3832410648347
 10
107.5121283368372
 20
-150.6140624623465
 10
107.5121283368372
 20
-150.6140624623465
 10
107.3278157283763
 20
-150.5906358130468
 10
107.0804578725354
 20
-150.5885687557556
 10
106.9557454159694
 20
-150.5885687557556
 97
        0
 97
        1
330
11B
 75
     2
 76
     1
 98
        1
 10
0.0
 20
0.0
450
        0
451
        0
460
0.0
461
0.0
452
        0
462
0.0
453
        0
470

  0
SPLINE
  5
11D
330
10B
100
AcDbEntity
  8
レイヤー 1
100
AcDbSpline
210
0.0
220
0.0
230
1.0
 70
     9
 71
     3
 72
    47
 73
    43
 74
     0
 42
0.0000000001
 43
0.0000000001
 40
0.0
 40
0.0
 40
0.0
 40
0.0
 40
1.0
 40
1.0
 40
1.0
 40
2.0
 40
2.0
 40
2.0
 40
3.0
 40
3.0
 40
3.0
 40
4.0
 40
4.0
 40
4.0
 40
5.0
 40
5.0
 40
5.0
 40
6.0
 40
6.0
 40
6.0
 40
7.0
 40
7.0
 40
7.0
 40
8.0
 40
8.0
 40
8.0
 40
9.0
 40
9.0
 40
9.0
 40
10.0
 40
10.0
 40
10.0
 40
11.0
 40
11.0
 40
11.0
 40
12.0
 40
12.0
 40
12.0
 40
13.0
 40
13.0
 40
13.0
 40
14.0
 40
14.0
 40
14.0
 40
14.0
 10
109.1757649466644
 20
-149.99428978455
 30
0.0
 10
109.1061740178623
 20
-150.2733425188553
 30
0.0
 10
109.0296928980898
 20
-150.5778889597513
 30
0.0
 10
108.7168782280291
 20
-150.9099961645294
 30
0.0
 10
108.4798556586439
 20
-151.15976558721
 30
0.0
 10
108.2345648600941
 20
-151.2593288467338
 30
0.0
 10
108.1288004286969
 20
-151.3013590116538
 30
0.0
 10
108.1288004286969
 20
-151.3013590116538
 30
0.0
 10
107.9341525337803
 20
-151.1194579700326
 30
0.0
 10
107.9341525337803
 20
-151.1194579700326
 30
0.0
 10
108.1201876899838
 20
-151.0729491809818
 30
0.0
 10
108.4819227159351
 20
-150.97993160288
 30
0.0
 10
108.7782009276665
 20
-150.4848713816496
 30
0.0
 10
108.9387423772792
 20
-150.2182209910913
 30
0.0
 10
108.9514892305746
 20
-150.0449326881832
 30
0.0
 10
108.9601019692877
 20
-149.9539821673726
 30
0.0
 10
108.9601019692877
 20
-149.9539821673726
 30
0.0
 10
108.454361952053
 20
-149.9539821673726
 30
0.0
 10
108.454361952053
 20
-149.9539821673726
 30
0.0
 10
108.3358506673605
 20
-149.9539821673726
 30
0.0
 10
107.9148599990629
 20
-149.9729301925415
 30
0.0
 10
107.7625867786149
 20
-149.9836099885457
 30
0.0
 10
107.7625867786149
 20
-149.9836099885457
 30
0.0
 10
107.7625867786149
 20
-149.7741481830425
 30
0.0
 10
107.7625867786149
 20
-149.7741481830425
 30
0.0
 10
107.9045247126072
 20
-149.786895036338
 30
0.0
 10
108.1815103896213
 20
-149.7910291509203
 30
0.0
 10
108.2979546170227
 20
-149.7910291509203
 30
0.0
 10
108.2979546170227
 20
-149.7910291509203
 30
0.0
 10
108.653143961552
 20
-149.7910291509203
 30
0.0
 10
108.653143961552
 20
-149.7910291509203
 30
0.0
 10
108.680704725434
 20
-149.7910291509203
 30
0.0
 10
108.8415906845951
 20
-149.7889620936291
 30
0.0
 10
108.9514892305746
 20
-149.7741481830425
 30
0.0
 10
109.0086778156297
 20
-149.7679470111691
 30
0.0
 10
109.0255587835075
 20
-149.7486544764517
 30
0.0
 10
109.0489854328072
 20
-149.7255723367005
 30
0.0
 10
109.0489854328072
 20
-149.7255723367005
 30
0.0
 10
109.2370876463018
 20
-149.8757784998574
 30
0.0
 10
109.2370876463018
 20
-149.8757784998574
 30
0.0
 10
109.2222737357152
 20
-149.9054063210306
 30
0.0
 10
109.2119384492595
 20
-149.9243543461994
 30
0.0
 10
109.1757649466644
 20
-149.99428978455
 30
0.0
  0
HATCH
  5
11E
330
10B
100
AcDbEntity
  8
レイヤー 1
 62
    18
420
        0
440
 33554687
100
AcDbHatch
 10
0.0
 20
0.0
 30
0.0
210
0.0
220
0.0
230
1.0
  2
SOLID
 70
     1
 71
     1
 91
        1
 92
        1
 93
        1
 72
     4
 94
        3
 73
     0
 74
     0
 95
       47
 96
       43
 40
0.0
 40
0.0
 40
0.0
 40
0.0
 40
1.0
 40
1.0
 40
1.0
 40
2.0
 40
2.0
 40
2.0
 40
3.0
 40
3.0
 40
3.0
 40
4.0
 40
4.0
 40
4.0
 40
5.0
 40
5.0
 40
5.0
 40
6.0
 40
6.0
 40
6.0
 40
7.0
 40
7.0
 40
7.0
 40
8.0
 40
8.0
 40
8.0
 40
9.0
 40
9.0
 40
9.0
 40
10.0
 40
10.0
 40
10.0
 40
11.0
 40
11.0
 40
11.0
 40
12.0
 40
12.0
 40
12.0
 40
13.0
 40
13.0
 40
13.0
 40
14.0
 40
14.0
 40
14.0
 40
14.0
 10
109.1757649466644
 20
-149.99428978455
 10
109.1061740178623
 20
-150.2733425188553
 10
109.0296928980898
 20
-150.5778889597513
 10
108.7168782280291
 20
-150.9099961645294
 10
108.4798556586439
 20
-151.15976558721
 10
108.2345648600941
 20
-151.2593288467338
 10
108.1288004286969
 20
-151.3013590116538
 10
108.1288004286969
 20
-151.3013590116538
 10
107.9341525337803
 20
-151.1194579700326
 10
107.9341525337803
 20
-151.1194579700326
 10
108.1201876899838
 20
-151.0729491809818
 10
108.4819227159351
 20
-150.97993160288
 10
108.7782009276665
 20
-150.4848713816496
 10
108.9387423772792
 20
-150.2182209910913
 10
108.9514892305746
 20
-150.0449326881832
 10
108.9601019692877
 20
-149.9539821673726
 10
108.9601019692877
 20
-149.9539821673726
 10
108.454361952053
 20
-149.9539821673726
 10
108.454361952053
 20
-149.9539821673726
 10
108.3358506673605
 20
-149.9539821673726
 10
107.9148599990629
 20
-149.9729301925415
 10
107.7625867786149
 20
-149.9836099885457
 10
107.7625867786149
 20
-149.9836099885457
 10
107.7625867786149
 20
-149.7741481830425
 10
107.7625867786149
 20
-149.7741481830425
 10
107.9045247126072
 20
-149.786895036338
 10
108.1815103896213
 20
-149.7910291509203
 10
108.2979546170227
 20
-149.7910291509203
 10
108.2979546170227
 20
-149.7910291509203
 10
108.653143961552
 20
-149.7910291509203
 10
108.653143961552
 20
-149.7910291509203
 10
108.680704725434
 20
-149.7910291509203
 10
108.8415906845951
 20
-149.7889620936291
 10
108.9514892305746
 20
-149.7741481830425
 10
109.0086778156297
 20
-149.7679470111691
 10
109.0255587835075
 20
-149.7486544764517
 10
109.0489854328072
 20
-149.7255723367005
 10
109.0489854328072
 20
-149.7255723367005
 10
109.2370876463018
 20
-149.8757784998574
 10
109.2370876463018
 20
-149.8757784998574
 10
109.2222737357152
 20
-149.9054063210306
 10
109.2119384492595
 20
-149.9243543461994
 10
109.1757649466644
 20
-149.99428978455
 97
        0
 97
        1
330
11D
 75
     2
 76
     1
 98
        1
 10
0.0
 20
0.0
450
        0
451
        0
460
0.0
461
0.0
452
        0
462
0.0
453
        0
470

  0
SPLINE
  5
11F
330
10B
100
AcDbEntity
  8
レイヤー 1
100
AcDbSpline
210
0.0
220
0.0
230
1.0
 70
    11
 71
     3
 72
    17
 73
    13
 74
     0
 42
0.0000000001
 43
0.0000000001
 40
0.0
 40
0.0
 40
0.0
 40
0.0
 40
1.0
 40
1.0
 40
1.0
 40
2.0
 40
2.0
 40
2.0
 40
3.0
 40
3.0
 40
3.0
 40
4.0
 40
4.0
 40
4.0
 40
4.0
 10
109.5660942651432
 20
-149.7762152403337
 30
0.0
 10
109.5660942651432
 20
-149.83547088268
 30
0.0
 10
109.6126030541941
 20
-149.8819796717309
 30
0.0
 10
109.6718586965403
 20
-149.8819796717309
 30
0.0
 10
109.7311143388866
 20
-149.8819796717309
 30
0.0
 10
109.7796901852287
 20
-149.83547088268
 30
0.0
 10
109.7796901852287
 20
-149.7762152403337
 30
0.0
 10
109.7796901852287
 20
-149.7169595979874
 30
0.0
 10
109.7311143388866
 20
-149.6683837516454
 30
0.0
 10
109.6718586965403
 20
-149.6683837516454
 30
0.0
 10
109.6126030541941
 20
-149.6683837516454
 30
0.0
 10
109.5660942651432
 20
-149.7169595979874
 30
0.0
 10
109.5660942651432
 20
-149.7762152403337
 30
0.0
  0
SPLINE
  5
120
330
10B
100
AcDbEntity
  8
レイヤー 1
100
AcDbSpline
210
0.0
220
0.0
230
1.0
 70
     9
 71
     3
 72
    17
 73
    13
 74
     0
 42
0.0000000001
 43
0.0000000001
 40
0.0
 40
0.0
 40
0.0
 40
0.0
 40
1.0
 40
1.0
 40
1.0
 40
2.0
 40
2.0
 40
2.0
 40
3.0
 40
3.0
 40
3.0
 40
4.0
 40
4.0
 40
4.0
 40
4.0
 10
109.8813205020436
 20
-149.7762152403337
 30
0.0
 10
109.8813205020436
 20
-149.890592410444
 30
0.0
 10
109.7883029239418
 20
-149.9856770458369
 30
0.0
 10
109.6718586965403
 20
-149.9856770458369
 30
0.0
 10
109.5574815264301
 20
-149.9856770458369
 30
0.0
 10
109.4623968910372
 20
-149.890592410444
 30
0.0
 10
109.4623968910372
 20
-149.7762152403337
 30
0.0
 10
109.4623968910372
 20
-149.6597710129323
 30
0.0
 10
109.5574815264301
 20
-149.5667534348305
 30
0.0
 10
109.6718586965403
 20
-149.5667534348305
 30
0.0
 10
109.7862358666507
 20
-149.5667534348305
 30
0.0
 10
109.8813205020436
 20
-149.6597710129323
 30
0.0
 10
109.8813205020436
 20
-149.7762152403337
 30
0.0
  0
HATCH
  5
121
330
10B
100
AcDbEntity
  8
レイヤー 1
 62
    18
420
        0
440
 33554687
100
AcDbHatch
 10
0.0
 20
0.0
 30
0.0
210
0.0
220
0.0
230
1.0
  2
SOLID
 70
     1
 71
     1
 91
        2
 92
        1
 93
        1
 72
     4
 94
        3
 73
     0
 74
     0
 95
       17
 96
       13
 40
0.0
 40
0.0
 40
0.0
 40
0.0
 40
1.0
 40
1.0
 40
1.0
 40
2.0
 40
2.0
 40
2.0
 40
3.0
 40
3.0
 40
3.0
 40
4.0
 40
4.0
 40
4.0
 40
4.0
 10
109.5660942651432
 20
-149.7762152403337
 10
109.5660942651432
 20
-149.83547088268
 10
109.6126030541941
 20
-149.8819796717309
 10
109.6718586965403
 20
-149.8819796717309
 10
109.7311143388866
 20
-149.8819796717309
 10
109.7796901852287
 20
-149.83547088268
 10
109.7796901852287
 20
-149.7762152403337
 10
109.7796901852287
 20
-149.7169595979874
 10
109.7311143388866
 20
-149.6683837516454
 10
109.6718586965403
 20
-149.6683837516454
 10
109.6126030541941
 20
-149.6683837516454
 10
109.5660942651432
 20
-149.7169595979874
 10
109.5660942651432
 20
-149.7762152403337
 97
        0
 97
        1
330
11F
 92
        1
 93
        1
 72
     4
 94
        3
 73
     0
 74
     0
 95
       17
 96
       13
 40
0.0
 40
0.0
 40
0.0
 40
0.0
 40
1.0
 40
1.0
 40
1.0
 40
2.0
 40
2.0
 40
2.0
 40
3.0
 40
3.0
 40
3.0
 40
4.0
 40
4.0
 40
4.0
 40
4.0
 10
109.8813205020436
 20
-149.7762152403337
 10
109.8813205020436
 20
-149.890592410444
 10
109.7883029239418
 20
-149.9856770458369
 10
109.6718586965403
 20
-149.9856770458369
 10
109.5574815264301
 20
-149.9856770458369
 10
109.4623968910372
 20
-149.890592410444
 10
109.4623968910372
 20
-149.7762152403337
 10
109.4623968910372
 20
-149.6597710129323
 10
109.5574815264301
 20
-149.5667534348305
 10
109.6718586965403
 20
-149.5667534348305
 10
109.7862358666507
 20
-149.5667534348305
 10
109.8813205020436
 20
-149.6597710129323
 10
109.8813205020436
 20
-149.7762152403337
 97
        0
 97
        1
330
120
 75
     2
 76
     1
 98
        1
 10
0.0
 20
0.0
450
        0
451
        0
460
0.0
461
0.0
452
        0
462
0.0
453
        0
470

  0
ENDBLK
  5
10E
330
10B
100
AcDbEntity
  8
0
100
AcDbBlockEnd
  0
ENDSEC
  0
SECTION
  2
ENTITIES
  0
LINE
  5
79
330
70
100
AcDbEntity
  8
レイヤー 1
 62
   250
420
  2299925
370
    25
100
AcDbLine
 10
120.3770324657238
 20
-154.1569560770339
 30
0.0
 11
112.3771968364833
 21
-154.1569560770339
 31
0.0
  0
LINE
  5
7A
330
70
100
AcDbEntity
  8
レイヤー 1
 62
   250
420
  2299925
370
    25
100
AcDbLine
 10
92.37564984676494
 20
-145.6572341347139
 30
0.0
 11
92.37564984676494
 21
-146.1574377457001
 31
0.0
  0
LINE
  5
7B
330
70
100
AcDbEntity
  8
レイヤー 1
 62
   250
420
  2299925
370
    25
100
AcDbLine
 10
112.3771968364833
 20
-146.1574377457001
 30
0.0
 11
92.37564984676494
 21
-146.1574377457001
 31
0.0
  0
LINE
  5
7C
330
70
100
AcDbEntity
  8
レイヤー 1
 62
   250
420
  2299925
370
    25
100
AcDbLine
 10
92.37564984676494
 20
-145.6572341347139
 30
0.0
 11
92.88964705587366
 21
-146.0392924679519
 31
0.0
  0
LINE
  5
7D
330
70
100
AcDbEntity
  8
レイヤー 1
 62
   250
420
  2299925
370
    25
100
AcDbLine
 10
92.88964705587366
 20
-146.0392924679519
 30
0.0
 11
93.37471648794329
 21
-145.6217446902784
 31
0.0
  0
LINE
  5
7E
330
70
100
AcDbEntity
  8
レイヤー 1
 62
   250
420
  2299925
370
    25
100
AcDbLine
 10
93.88874897482923
 20
-146.0038030235164
 30
0.0
 11
94.37448868465919
 21
-145.5859024680651
 31
0.0
  0
LINE
  5
7F
330
70
100
AcDbEntity
  8
レイヤー 1
 62
   250
420
  2299925
370
    25
100
AcDbLine
 10
93.37471648794329
 20
-145.6217446902784
 30
0.0
 11
93.88874897482923
 21
-146.0038030235164
 31
0.0
  0
LINE
  5
80
330
70
100
AcDbEntity
  8
レイヤー 1
 62
   250
420
  2299925
370
    25
100
AcDbLine
 10
94.37448868465919
 20
-145.5859024680651
 30
0.0
 11
94.88852117154513
 21
-145.9679608013032
 31
0.0
  0
LINE
  5
81
330
70
100
AcDbEntity
  8
レイヤー 1
 62
   250
420
  2299925
370
    25
100
AcDbLine
 10
94.88852117154513
 20
-145.9679608013032
 30
0.0
 11
95.37359060361444
 21
-145.5504130236297
 31
0.0
  0
LINE
  5
82
330
70
100
AcDbEntity
  8
レイヤー 1
 62
   250
420
  2299925
370
    25
100
AcDbLine
 10
95.37359060361444
 20
-145.5504130236297
 30
0.0
 11
95.88758781272348
 21
-145.9321538568674
 31
0.0
  0
LINE
  5
83
330
70
100
AcDbEntity
  8
レイヤー 1
 62
   250
420
  2299925
370
    25
100
AcDbLine
 10
95.88758781272348
 20
-145.9321538568674
 30
0.0
 11
96.37301002256156
 21
-145.5146060791939
 31
0.0
  0
LINE
  5
84
330
70
100
AcDbEntity
  8
レイヤー 1
 62
   250
420
  2299925
370
    25
100
AcDbLine
 10
96.37301002256156
 20
-145.5146060791939
 30
0.0
 11
96.88700723167062
 21
-145.8963116346541
 31
0.0
  0
LINE
  5
85
330
70
100
AcDbEntity
  8
レイヤー 1
 62
   250
420
  2299925
370
    25
100
AcDbLine
 10
96.88700723167062
 20
-145.8963116346541
 30
0.0
 11
97.37242944150869
 21
-145.4787638569807
 31
0.0
  0
LINE
  5
86
330
70
100
AcDbEntity
  8
レイヤー 1
 62
   250
420
  2299925
370
    25
100
AcDbLine
 10
97.37242944150869
 20
-145.4787638569807
 30
0.0
 11
97.88642665061775
 21
-145.8608221902187
 31
0.0
  0
LINE
  5
87
330
70
100
AcDbEntity
  8
レイヤー 1
 62
   250
420
  2299925
370
    25
100
AcDbLine
 10
97.88642665061775
 20
-145.8608221902187
 30
0.0
 11
98.37184886045614
 21
-145.4432744125452
 31
0.0
  0
LINE
  5
88
330
70
100
AcDbEntity
  8
レイヤー 1
 62
   250
420
  2299925
370
    25
100
AcDbLine
 10
98.37184886045614
 20
-145.4432744125452
 30
0.0
 11
98.8854932917961
 21
-145.8253327457832
 31
0.0
  0
LINE
  5
89
330
70
100
AcDbEntity
  8
レイヤー 1
 62
   250
420
  2299925
370
    25
100
AcDbLine
 10
98.8854932917961
 20
-145.8253327457832
 30
0.0
 11
99.37126827940296
 21
-145.4074674681101
 31
0.0
  0
LINE
  5
8A
330
70
100
AcDbEntity
  8
レイヤー 1
 62
   250
420
  2299925
370
    25
100
AcDbLine
 10
99.88526548851201
 20
-145.7895258013475
 30
0.0
 11
100.3703349205819
 21
-145.371978023674
 31
0.0
  0
LINE
  5
8B
330
70
100
AcDbEntity
  8
レイヤー 1
 62
   250
420
  2299925
370
    25
100
AcDbLine
 10
99.37126827940296
 20
-145.4074674681101
 30
0.0
 11
99.88526548851201
 21
-145.7895258013475
 31
0.0
  0
LINE
  5
8C
330
70
100
AcDbEntity
  8
レイヤー 1
 62
   250
420
  2299925
370
    25
100
AcDbLine
 10
100.3703349205819
 20
-145.371978023674
 30
0.0
 11
100.8843674074672
 21
-145.7536835791342
 31
0.0
  0
LINE
  5
8D
330
70
100
AcDbEntity
  8
レイヤー 1
 62
   250
420
  2299925
370
    25
100
AcDbLine
 10
100.8843674074672
 20
-145.7536835791342
 30
0.0
 11
101.3701071172972
 21
-145.3361358014607
 31
0.0
  0
LINE
  5
8E
330
70
100
AcDbEntity
  8
レイヤー 1
 62
   250
420
  2299925
370
    25
100
AcDbLine
 10
101.8841043264062
 20
-145.717841356921
 30
0.0
 11
102.3691737584755
 21
-145.3003288570256
 31
0.0
  0
LINE
  5
8F
330
70
100
AcDbEntity
  8
レイヤー 1
 62
   250
420
  2299925
370
    25
100
AcDbLine
 10
101.3701071172972
 20
-145.3361358014607
 30
0.0
 11
101.8841043264062
 21
-145.717841356921
 31
0.0
  0
LINE
  5
90
330
70
100
AcDbEntity
  8
レイヤー 1
 62
   250
420
  2299925
370
    25
100
AcDbLine
 10
102.8832062453615
 20
-145.682387190263
 30
0.0
 11
103.3689459551918
 21
-145.2648394125901
 31
0.0
  0
LINE
  5
91
330
70
100
AcDbEntity
  8
レイヤー 1
 62
   250
420
  2299925
370
    25
100
AcDbLine
 10
102.3691737584755
 20
-145.3003288570256
 30
0.0
 11
102.8832062453615
 21
-145.682387190263
 31
0.0
  0
LINE
  5
92
330
70
100
AcDbEntity
  8
レイヤー 1
 62
   250
420
  2299925
370
    25
100
AcDbLine
 10
103.3689459551918
 20
-145.2648394125901
 30
0.0
 11
103.8829784420774
 21
-145.6468977458275
 31
0.0
  0
LINE
  5
93
330
70
100
AcDbEntity
  8
レイヤー 1
 62
   250
420
  2299925
370
    25
100
AcDbLine
 10
103.8829784420774
 20
-145.6468977458275
 30
0.0
 11
104.3680478741467
 21
-145.2289971903769
 31
0.0
  0
LINE
  5
94
330
70
100
AcDbEntity
  8
レイヤー 1
 62
   250
420
  2299925
370
    25
100
AcDbLine
 10
104.3680478741467
 20
-145.2289971903769
 30
0.0
 11
104.8820450832557
 21
-145.6110555236143
 31
0.0
  0
LINE
  5
95
330
70
100
AcDbEntity
  8
レイヤー 1
 62
   250
420
  2299925
370
    25
100
AcDbLine
 10
104.8820450832557
 20
-145.6110555236143
 30
0.0
 11
105.367114515325
 21
-145.1935077459408
 31
0.0
  0
LINE
  5
96
330
70
100
AcDbEntity
  8
レイヤー 1
 62
   250
420
  2299925
370
    25
100
AcDbLine
 10
105.367114515325
 20
-145.1935077459408
 30
0.0
 11
105.8811117244344
 21
-145.5752485791792
 31
0.0
  0
LINE
  5
97
330
70
100
AcDbEntity
  8
レイヤー 1
 62
   250
420
  2299925
370
    25
100
AcDbLine
 10
105.8811117244344
 20
-145.5752485791792
 30
0.0
 11
106.3668867120413
 21
-145.1577008015057
 31
0.0
  0
LINE
  5
98
330
70
100
AcDbEntity
  8
レイヤー 1
 62
   250
420
  2299925
370
    25
100
AcDbLine
 10
106.3668867120413
 20
-145.1577008015057
 30
0.0
 11
106.8808839211503
 21
-145.5394063569659
 31
0.0
  0
LINE
  5
99
330
70
100
AcDbEntity
  8
レイヤー 1
 62
   250
420
  2299925
370
    25
100
AcDbLine
 10
106.8808839211503
 20
-145.5394063569659
 30
0.0
 11
107.3659533532196
 21
-145.1218585792924
 31
0.0
  0
LINE
  5
9A
330
70
100
AcDbEntity
  8
レイヤー 1
 62
   250
420
  2299925
370
    25
100
AcDbLine
 10
107.3659533532196
 20
-145.1218585792924
 30
0.0
 11
107.8799505623287
 21
-145.5039169125304
 31
0.0
  0
LINE
  5
9B
330
70
100
AcDbEntity
  8
レイヤー 1
 62
   250
420
  2299925
370
    25
100
AcDbLine
 10
107.8799505623287
 20
-145.5039169125304
 30
0.0
 11
108.3657255499355
 21
-145.0863691348569
 31
0.0
  0
LINE
  5
9C
330
70
100
AcDbEntity
  8
レイヤー 1
 62
   250
420
  2299925
370
    25
100
AcDbLine
 10
108.3657255499355
 20
-145.0863691348569
 30
0.0
 11
108.8797227590446
 21
-145.4684274680943
 31
0.0
  0
LINE
  5
9D
330
70
100
AcDbEntity
  8
レイヤー 1
 62
   250
420
  2299925
370
    25
100
AcDbLine
 10
108.8797227590446
 20
-145.4684274680943
 30
0.0
 11
109.3647921911139
 21
-145.0505269126437
 31
0.0
  0
LINE
  5
9E
330
70
100
AcDbEntity
  8
レイヤー 1
 62
   250
420
  2299925
370
    25
100
AcDbLine
 10
109.3647921911139
 20
-145.0505269126437
 30
0.0
 11
109.8787894002229
 21
-145.4326205236592
 31
0.0
  0
LINE
  5
9F
330
70
100
AcDbEntity
  8
レイヤー 1
 62
   250
420
  2299925
370
    25
100
AcDbLine
 10
109.8787894002229
 20
-145.4326205236592
 30
0.0
 11
110.3645643878298
 21
-145.0150727459857
 31
0.0
  0
LINE
  5
A0
330
70
100
AcDbEntity
  8
レイヤー 1
 62
   250
420
  2299925
370
    25
100
AcDbLine
 10
110.3645643878298
 20
-145.0150727459857
 30
0.0
 11
110.8785615969388
 21
-145.396778301446
 31
0.0
  0
LINE
  5
A1
330
70
100
AcDbEntity
  8
レイヤー 1
 62
   250
420
  2299925
370
    25
100
AcDbLine
 10
110.8785615969388
 20
-145.396778301446
 30
0.0
 11
111.3636310290081
 21
-144.9792305237725
 31
0.0
  0
LINE
  5
A2
330
70
100
AcDbEntity
  8
レイヤー 1
 62
   250
420
  2299925
370
    25
100
AcDbLine
 10
111.3636310290081
 20
-144.9792305237725
 30
0.0
 11
111.8776635158941
 21
-145.3609360792327
 31
0.0
  0
LINE
  5
A3
330
70
100
AcDbEntity
  8
レイヤー 1
 62
   250
420
  2299925
370
    25
100
AcDbLine
 10
111.8776635158941
 20
-145.3609360792327
 30
0.0
 11
112.363403225724
 21
-144.9433883015592
 31
0.0
  0
LINE
  5
A4
330
70
100
AcDbEntity
  8
レイヤー 1
 62
   250
420
  2299925
370
    25
100
AcDbLine
 10
112.4374004349421
 20
-144.8951635793488
 30
0.0
 11
113.3769690331992
 21
-144.8951635793488
 31
0.0
  0
LINE
  5
A5
330
70
100
AcDbEntity
  8
レイヤー 1
 62
   250
420
  2299925
370
    25
100
AcDbLine
 10
113.3769690331992
 20
-144.8951635793488
 30
0.0
 11
113.3769690331992
 21
-153.1571838550613
 31
0.0
  0
LINE
  5
A6
330
70
100
AcDbEntity
  8
レイヤー 1
 62
   250
420
  2299925
370
    25
100
AcDbLine
 10
112.3771968364833
 20
-146.1574377457001
 30
0.0
 11
112.3771968364833
 21
-154.1569560770339
 31
0.0
  0
LINE
  5
A7
330
70
100
AcDbEntity
  8
レイヤー 1
 62
   250
420
  2299925
370
    25
100
AcDbLine
 10
119.3765899912472
 20
-153.1571838550613
 30
0.0
 11
113.3769690331992
 21
-153.1571838550613
 31
0.0
  0
LINE
  5
A8
330
70
100
AcDbEntity
  8
レイヤー 1
 62
   250
420
  2299925
370
    25
100
AcDbLine
 10
119.3765899912472
 20
-144.8951635793488
 30
0.0
 11
119.3765899912472
 21
-153.1571838550613
 31
0.0
  0
LINE
  5
A9
330
70
100
AcDbEntity
  8
レイヤー 1
 62
   250
420
  2299925
370
    25
100
AcDbLine
 10
120.3770324657238
 20
-144.8951635793488
 30
0.0
 11
120.3770324657238
 21
-154.1569560770339
 31
0.0
  0
SPLINE
  5
AA
330
70
100
AcDbEntity
  8
レイヤー 1
 62
   250
420
  2299925
370
     9
100
AcDbSpline
210
0.0
220
0.0
230
1.0
 70
     9
 71
     3
 72
    17
 73
    13
 74
     0
 42
0.0000000001
 43
0.0000000001
 40
0.0
 40
0.0
 40
0.0
 40
0.0
 40
1.0
 40
1.0
 40
1.0
 40
2.0
 40
2.0
 40
2.0
 40
3.0
 40
3.0
 40
3.0
 40
4.0
 40
4.0
 40
4.0
 40
4.0
 10
92.47555651088276
 20
-140.8954044136825
 30
0.0
 10
92.47555651088276
 20
-140.8399477470292
 30
0.0
 10
92.43078901202489
 20
-140.7951449692631
 30
0.0
 10
92.37564984676494
 20
-140.7951449692631
 30
0.0
 10
92.32054595928186
 20
-140.7951449692631
 30
0.0
 10
92.27574318264709
 20
-140.8399477470292
 30
0.0
 10
92.27574318264709
 20
-140.8954044136825
 30
0.0
 10
92.27574318264709
 20
-140.9505435803349
 30
0.0
 10
92.32054595928186
 20
-140.9953110803241
 30
0.0
 10
92.37564984676494
 20
-140.9953110803241
 30
0.0
 10
92.43078901202489
 20
-140.9953110803241
 30
0.0
 10
92.47555651088276
 20
-140.9505435803349
 30
0.0
 10
92.47555651088276
 20
-140.8954044136825
 30
0.0
  0
SPLINE
  5
AB
330
70
100
AcDbEntity
  8
レイヤー 1
 62
   250
420
  2299925
370
     9
100
AcDbSpline
210
0.0
220
0.0
230
1.0
 70
     9
 71
     3
 72
    17
 73
    13
 74
     0
 42
0.0000000001
 43
0.0000000001
 40
0.0
 40
0.0
 40
0.0
 40
0.0
 40
1.0
 40
1.0
 40
1.0
 40
2.0
 40
2.0
 40
2.0
 40
3.0
 40
3.0
 40
3.0
 40
4.0
 40
4.0
 40
4.0
 40
4.0
 10
88.47579744625909
 20
-145.6572341347139
 30
0.0
 10
88.47579744625909
 20
-145.6020949680614
 30
0.0
 10
88.43102994740057
 20
-145.5573274680722
 30
0.0
 10
88.37553800437184
 20
-145.5573274680722
 30
0.0
 10
88.32043411688877
 20
-145.5573274680722
 30
0.0
 10
88.27563134025401
 20
-145.6020949680614
 30
0.0
 10
88.27563134025401
 20
-145.6572341347139
 30
0.0
 10
88.27563134025401
 20
-145.7123380235894
 30
0.0
 10
88.32043411688877
 20
-145.7571408013555
 30
0.0
 10
88.37553800437184
 20
-145.7571408013555
 30
0.0
 10
88.43102994740057
 20
-145.7571408013555
 30
0.0
 10
88.47579744625909
 20
-145.7123380235894
 30
0.0
 10
88.47579744625909
 20
-145.6572341347139
 30
0.0
  0
SPLINE
  5
AC
330
70
100
AcDbEntity
  8
レイヤー 1
 62
   250
420
  2299925
370
     9
100
AcDbSpline
210
0.0
220
0.0
230
1.0
 70
     9
 71
     3
 72
    17
 73
    13
 74
     0
 42
0.0000000001
 43
0.0000000001
 40
0.0
 40
0.0
 40
0.0
 40
0.0
 40
1.0
 40
1.0
 40
1.0
 40
2.0
 40
2.0
 40
2.0
 40
3.0
 40
3.0
 40
3.0
 40
4.0
 40
4.0
 40
4.0
 40
4.0
 10
88.47579744625909
 20
-146.1574377457001
 30
0.0
 10
88.47579744625909
 20
-146.1023338568251
 30
0.0
 10
88.43102994740057
 20
-146.0575310790584
 30
0.0
 10
88.37553800437184
 20
-146.0575310790584
 30
0.0
 10
88.32043411688877
 20
-146.0575310790584
 30
0.0
 10
88.27563134025401
 20
-146.1023338568251
 30
0.0
 10
88.27563134025401
 20
-146.1574377457001
 30
0.0
 10
88.27563134025401
 20
-146.2125769123531
 30
0.0
 10
88.32043411688877
 20
-146.2573444123417
 30
0.0
 10
88.37553800437184
 20
-146.2573444123417
 30
0.0
 10
88.43102994740057
 20
-146.2573444123417
 30
0.0
 10
88.47579744625909
 20
-146.2125769123531
 30
0.0
 10
88.47579744625909
 20
-146.1574377457001
 30
0.0
  0
SPLINE
  5
AD
330
70
100
AcDbEntity
  8
レイヤー 1
 62
   250
420
  2299925
370
     9
100
AcDbSpline
210
0.0
220
0.0
230
1.0
 70
     9
 71
     3
 72
    17
 73
    13
 74
     0
 42
0.0000000001
 43
0.0000000001
 40
0.0
 40
0.0
 40
0.0
 40
0.0
 40
1.0
 40
1.0
 40
1.0
 40
2.0
 40
2.0
 40
2.0
 40
3.0
 40
3.0
 40
3.0
 40
4.0
 40
4.0
 40
4.0
 40
4.0
 10
88.47579744625909
 20
-154.1569560770339
 30
0.0
 10
88.47579744625909
 20
-154.1018521881583
 30
0.0
 10
88.43102994740057
 20
-154.0570494103915
 30
0.0
 10
88.37553800437184
 20
-154.0570494103915
 30
0.0
 10
88.32043411688877
 20
-154.0570494103915
 30
0.0
 10
88.27563134025401
 20
-154.1018521881583
 30
0.0
 10
88.27563134025401
 20
-154.1569560770339
 30
0.0
 10
88.27563134025401
 20
-154.2120952436863
 30
0.0
 10
88.32043411688877
 20
-154.2568627436755
 30
0.0
 10
88.37553800437184
 20
-154.2568627436755
 30
0.0
 10
88.43102994740057
 20
-154.2568627436755
 30
0.0
 10
88.47579744625909
 20
-154.2120952436863
 30
0.0
 10
88.47579744625909
 20
-154.1569560770339
 30
0.0
  0
SPLINE
  5
AE
330
70
100
AcDbEntity
  8
レイヤー 1
 62
   250
420
  2299925
370
     9
100
AcDbSpline
210
0.0
220
0.0
230
1.0
 70
     9
 71
     3
 72
    17
 73
    13
 74
     0
 42
0.0000000001
 43
0.0000000001
 40
0.0
 40
0.0
 40
0.0
 40
0.0
 40
1.0
 40
1.0
 40
1.0
 40
2.0
 40
2.0
 40
2.0
 40
3.0
 40
3.0
 40
3.0
 40
4.0
 40
4.0
 40
4.0
 40
4.0
 10
113.476875697317
 20
-140.8954044136825
 30
0.0
 10
113.476875697317
 20
-140.8399477470292
 30
0.0
 10
113.4320729206822
 20
-140.7951449692631
 30
0.0
 10
113.3769690331992
 20
-140.7951449692631
 30
0.0
 10
113.3218298679392
 20
-140.7951449692631
 30
0.0
 10
113.2770623690813
 20
-140.8399477470292
 30
0.0
 10
113.2770623690813
 20
-140.8954044136825
 30
0.0
 10
113.2770623690813
 20
-140.9505435803349
 30
0.0
 10
113.3218298679392
 20
-140.9953110803241
 30
0.0
 10
113.3769690331992
 20
-140.9953110803241
 30
0.0
 10
113.4320729206822
 20
-140.9953110803241
 30
0.0
 10
113.476875697317
 20
-140.9505435803349
 30
0.0
 10
113.476875697317
 20
-140.8954044136825
 30
0.0
  0
SPLINE
  5
AF
330
70
100
AcDbEntity
  8
レイヤー 1
 62
   250
420
  2299925
370
     9
100
AcDbSpline
210
0.0
220
0.0
230
1.0
 70
     9
 71
     3
 72
    17
 73
    13
 74
     0
 42
0.0000000001
 43
0.0000000001
 40
0.0
 40
0.0
 40
0.0
 40
0.0
 40
1.0
 40
1.0
 40
1.0
 40
2.0
 40
2.0
 40
2.0
 40
3.0
 40
3.0
 40
3.0
 40
4.0
 40
4.0
 40
4.0
 40
4.0
 10
119.476496655365
 20
-140.8954044136825
 30
0.0
 10
119.476496655365
 20
-140.8399477470292
 30
0.0
 10
119.4317291565071
 20
-140.7951449692631
 30
0.0
 10
119.3765899912472
 20
-140.7951449692631
 30
0.0
 10
119.3214861037641
 20
-140.7951449692631
 30
0.0
 10
119.2766833271293
 20
-140.8399477470292
 30
0.0
 10
119.2766833271293
 20
-140.8954044136825
 30
0.0
 10
119.2766833271293
 20
-140.9505435803349
 30
0.0
 10
119.3214861037641
 20
-140.9953110803241
 30
0.0
 10
119.3765899912472
 20
-140.9953110803241
 30
0.0
 10
119.4317291565071
 20
-140.9953110803241
 30
0.0
 10
119.476496655365
 20
-140.9505435803349
 30
0.0
 10
119.476496655365
 20
-140.8954044136825
 30
0.0
  0
LINE
  5
B0
330
70
100
AcDbEntity
  8
レイヤー 1
 62
   250
420
  2299925
370
     9
100
AcDbLine
 10
88.37553800437184
 20
-145.6572341347139
 30
0.0
 11
88.37553800437184
 21
-140.3995046915841
 31
0.0
  0
LINE
  5
B1
330
70
100
AcDbEntity
  8
レイヤー 1
 62
   250
420
  2299925
370
     9
100
AcDbLine
 10
88.37553800437184
 20
-145.6572341347139
 30
0.0
 11
88.37553800437184
 21
-146.1574377457001
 31
0.0
  0
LINE
  5
B2
330
70
100
AcDbEntity
  8
レイヤー 1
 62
   250
420
  2299925
370
     9
100
AcDbLine
 10
89.83557935601197
 20
-145.6572341347139
 30
0.0
 11
87.37544830766402
 21
-145.6572341347139
 31
0.0
  0
LINE
  5
B3
330
70
100
AcDbEntity
  8
レイヤー 1
 62
   250
420
  2299925
370
     9
100
AcDbLine
 10
89.83557935601197
 20
-146.1574377457001
 30
0.0
 11
87.37544830766402
 21
-146.1574377457001
 31
0.0
  0
INSERT
  5
B5
330
70
100
AcDbEntity
  8
レイヤー 1
100
AcDbBlockReference
  2
Block_0
 10
0.0
 20
0.0
 30
0.0
  0
LINE
  5
C3
330
70
100
AcDbEntity
  8
レイヤー 1
 62
   250
420
  2299925
370
     9
100
AcDbLine
 10
92.37564984676494
 20
-140.8954044136825
 30
0.0
 11
113.3769690331992
 21
-140.8954044136825
 31
0.0
  0
LINE
  5
C4
330
70
100
AcDbEntity
  8
レイヤー 1
 62
   250
420
  2299925
370
     9
100
AcDbLine
 10
92.37564984676494
 20
-143.1175163575713
 30
0.0
 11
92.37564984676494
 21
-139.8954910805989
 31
0.0
  0
INSERT
  5
C6
330
70
100
AcDbEntity
  8
レイヤー 1
100
AcDbBlockReference
  2
Block_2
 10
0.0
 20
0.0
 30
0.0
  0
LINE
  5
D1
330
70
100
AcDbEntity
  8
レイヤー 1
 62
   250
420
  2299925
370
     9
100
AcDbLine
 10
88.37553800437184
 20
-146.1574377457001
 30
0.0
 11
88.37553800437184
 21
-154.1569560770339
 31
0.0
  0
LINE
  5
D2
330
70
100
AcDbEntity
  8
レイヤー 1
 62
   250
420
  2299925
370
     9
100
AcDbLine
 10
109.8374791234991
 20
-154.1569560770339
 30
0.0
 11
87.37544830766402
 21
-154.1569560770339
 31
0.0
  0
INSERT
  5
D4
330
70
100
AcDbEntity
  8
レイヤー 1
100
AcDbBlockReference
  2
Block_4
 10
0.0
 20
0.0
 30
0.0
  0
LINE
  5
DB
330
70
100
AcDbEntity
  8
レイヤー 1
 62
   250
420
  2299925
370
     9
100
AcDbLine
 10
113.3769690331992
 20
-140.8954044136825
 30
0.0
 11
119.3765899912472
 21
-140.8954044136825
 31
0.0
  0
LINE
  5
DC
330
70
100
AcDbEntity
  8
レイヤー 1
 62
   250
420
  2299925
370
     9
100
AcDbLine
 10
113.3769690331992
 20
-142.3554458022062
 30
0.0
 11
113.3769690331992
 21
-139.8954910805989
 31
0.0
  0
LINE
  5
DD
330
70
100
AcDbEntity
  8
レイヤー 1
 62
   250
420
  2299925
370
     9
100
AcDbLine
 10
119.3765899912472
 20
-142.3554458022062
 30
0.0
 11
119.3765899912472
 21
-139.8954910805989
 31
0.0
  0
INSERT
  5
DF
330
70
100
AcDbEntity
  8
レイヤー 1
100
AcDbBlockReference
  2
Block_5
 10
0.0
 20
0.0
 30
0.0
  0
SPLINE
  5
E5
330
70
100
AcDbEntity
  8
レイヤー 1
 62
   250
420
  2299925
370
     9
100
AcDbSpline
210
0.0
220
0.0
230
1.0
 70
     9
 71
     3
 72
    17
 73
    13
 74
     0
 42
0.0000000001
 43
0.0000000001
 40
0.0
 40
0.0
 40
0.0
 40
0.0
 40
1.0
 40
1.0
 40
1.0
 40
2.0
 40
2.0
 40
2.0
 40
3.0
 40
3.0
 40
3.0
 40
4.0
 40
4.0
 40
4.0
 40
4.0
 10
112.4771035006011
 20
-158.2704155204494
 30
0.0
 10
112.4771035006011
 20
-158.2152763537969
 30
0.0
 10
112.4316331331574
 20
-158.1705088538077
 30
0.0
 10
112.3764912809457
 20
-158.1705088538077
 30
0.0
 10
112.3213873934626
 20
-158.1705088538077
 30
0.0
 10
112.2765846168279
 20
-158.2152763537969
 30
0.0
 10
112.2765846168279
 20
-158.2704155204494
 30
0.0
 10
112.2765846168279
 20
-158.3255194093249
 30
0.0
 10
112.3213873934626
 20
-158.3703221870916
 30
0.0
 10
112.3764912809457
 20
-158.3703221870916
 30
0.0
 10
112.4316331331574
 20
-158.3703221870916
 30
0.0
 10
112.4771035006011
 20
-158.3255194093249
 30
0.0
 10
112.4771035006011
 20
-158.2704155204494
 30
0.0
  0
CIRCLE
  5
E6
330
70
100
AcDbEntity
  8
レイヤー 1
 62
   250
420
  2299925
370
     9
100
AcDbCircle
 10
120.3770324657238
 20
-158.2704155204495
 30
0.0
 40
0.0999066653798167
  0
LINE
  5
E7
330
70
100
AcDbEntity
  8
レイヤー 1
 62
   250
420
  2299925
370
     9
100
AcDbLine
 10
120.3770324657238
 20
-158.2704155204494
 30
0.0
 11
112.3764912809457
 21
-158.2704155204494
 31
0.0
  0
LINE
  5
E8
330
70
100
AcDbEntity
  8
レイヤー 1
 62
   250
420
  2299925
370
     9
100
AcDbLine
 10
120.3770324657238
 20
-156.8103741319256
 30
0.0
 11
120.3770324657238
 21
-159.2708580201993
 31
0.0
  0
LINE
  5
E9
330
70
100
AcDbEntity
  8
レイヤー 1
 62
   250
420
  2299925
370
     9
100
AcDbLine
 10
112.3764912809457
 20
-156.8103741319256
 30
0.0
 11
112.3764912809457
 21
-159.2708580201993
 31
0.0
  0
INSERT
  5
EB
330
70
100
AcDbEntity
  8
レイヤー 1
100
AcDbBlockReference
  2
Block_6
 10
0.0
 20
0.0
 30
0.0
  0
LINE
  5
F2
330
70
100
AcDbEntity
  8
レイヤー 1
 62
   250
420
  2299925
370
    25
100
AcDbLine
 10
120.3770324657238
 20
-144.8951635793488
 30
0.0
 11
119.3765899912472
 21
-144.8951635793488
 31
0.0
  0
LINE
  5
F3
330
70
100
AcDbEntity
  8
レイヤー 1
 62
   250
420
  2299925
370
     9
100
AcDbLine
 10
117.3184844881983
 20
-150.3025766335527
 30
0.0
 11
125.3187081729845
 21
-150.3025766335527
 31
0.0
  0
INSERT
  5
F5
330
70
100
AcDbEntity
  8
レイヤー 1
100
AcDbBlockReference
  2
Block_7
 10
0.0
 20
0.0
 30
0.0
  0
LINE
  5
FA
330
70
100
AcDbEntity
  8
レイヤー 1
  6
AI-Linetype-0
 62
   154
420
    23468
370
    25
100
AcDbLine
 10
92.37564984676494
 20
-147.0328558010367
 30
0.0
 11
102.375382647206
 21
-147.0328558010367
 31
0.0
  0
INSERT
  5
FD
330
70
100
AcDbEntity
  8
レイヤー 1
100
AcDbBlockReference
  2
Block_8
 10
0.0
 20
0.0
 30
0.0
  0
ENDSEC
  0
SECTION
  2
OBJECTS
  0
DICTIONARY
  5
C
330
0
100
AcDbDictionary
281
     1
  3
ACAD_COLOR
350
63
  3
ACAD_DETAILVIEWSTYLE
350
6A
  3
ACAD_GROUP
350
D
  3
ACAD_LAYOUT
350
62
  3
ACAD_MATERIAL
350
10
  3
ACAD_MLEADERSTYLE
350
66
  3
ACAD_MLINESTYLE
350
5F
  3
ACAD_PLOTSETTINGS
350
61
  3
ACAD_PLOTSTYLENAME
350
E
  3
ACAD_SCALELIST
350
42
  3
ACAD_SECTIONVIEWSTYLE
350
68
  3
ACAD_TABLESTYLE
350
64
  3
ACAD_VISUALSTYLE
350
29
  3
ACDB_RECOMPOSE_DATA
350
12A
  3
AcDbVariableDictionary
350
122
  0
DICTIONARY
  5
63
102
{ACAD_REACTORS
330
C
102
}
330
C
100
AcDbDictionary
281
     1
  0
DICTIONARY
  5
6A
102
{ACAD_REACTORS
330
C
102
}
330
C
100
AcDbDictionary
281
     1
  3
Imperial24
350
6B
  0
DICTIONARY
  5
D
102
{ACAD_REACTORS
330
C
102
}
330
C
100
AcDbDictionary
281
     1
  0
DICTIONARY
  5
62
102
{ACAD_REACTORS
330
C
102
}
330
C
100
AcDbDictionary
281
     1
  3
Layout1
350
6F
  3
Layout2
350
77
  3
Model
350
73
  0
DICTIONARY
  5
10
102
{ACAD_REACTORS
330
C
102
}
330
C
100
AcDbDictionary
281
     1
  3
ByBlock
350
19
  3
ByLayer
350
11
  3
Global
350
21
  0
DICTIONARY
  5
66
102
{ACAD_REACTORS
330
C
102
}
330
C
100
AcDbDictionary
281
     1
  3
Standard
350
67
  0
DICTIONARY
  5
5F
102
{ACAD_REACTORS
330
C
102
}
330
C
100
AcDbDictionary
281
     1
  3
Standard
350
60
  0
DICTIONARY
  5
61
102
{ACAD_REACTORS
330
C
102
}
330
C
100
AcDbDictionary
281
     1
  0
ACDBDICTIONARYWDFLT
  5
E
102
{ACAD_REACTORS
330
C
102
}
330
C
100
AcDbDictionary
281
     1
  3
Normal
350
F
100
AcDbDictionaryWithDefault
340
F
  0
DICTIONARY
  5
42
102
{ACAD_REACTORS
330
C
102
}
330
C
100
AcDbDictionary
281
     1
  3
A0
350
43
  3
A1
350
44
  3
A2
350
45
  3
A3
350
46
  3
A4
350
47
  3
A5
350
48
  3
A6
350
49
  3
A7
350
4A
  3
A8
350
4B
  3
A9
350
4C
  3
B0
350
4D
  3
B1
350
4E
  3
B2
350
4F
  3
B3
350
50
  3
B4
350
51
  3
B5
350
52
  3
B6
350
53
  0
DICTIONARY
  5
68
102
{ACAD_REACTORS
330
C
102
}
330
C
100
AcDbDictionary
281
     1
  3
Imperial24
350
69
  0
DICTIONARY
  5
64
102
{ACAD_REACTORS
330
C
102
}
330
C
100
AcDbDictionary
281
     1
  3
Standard
350
65
  0
DICTIONARY
  5
29
102
{ACAD_REACTORS
330
C
102
}
330
C
100
AcDbDictionary
281
     1
  3
2dWireframe
350
2F
  3
Basic
350
2E
  3
Brighten
350
35
  3
ColorChange
350
39
  3
Conceptual
350
32
  3
Dim
350
34
  3
EdgeColorOff
350
41
  3
Facepattern
350
38
  3
Flat
350
2A
  3
FlatWithEdges
350
2B
  3
Gouraud
350
2C
  3
GouraudWithEdges
350
2D
  3
Hidden
350
31
  3
JitterOff
350
3F
  3
Linepattern
350
37
  3
OverhangOff
350
40
  3
Realistic
350
33
  3
Shaded
350
3E
  3
Shaded with edges
350
3D
  3
Shades of Gray
350
3A
  3
Sketchy
350
3B
  3
Thicken
350
36
  3
Wireframe
350
30
  3
X-Ray
350
3C
  0
XRECORD
  5
12A
102
{ACAD_REACTORS
330
C
102
}
330
C
100
AcDbXrecord
280
     1
 90
        1
330
65
  0
DICTIONARY
  5
122
102
{ACAD_REACTORS
330
C
102
}
330
C
100
AcDbDictionary
281
     1
  3
CANNOSCALE
350
127
  3
CMLEADERSTYLE
350
124
  3
CTABLESTYLE
350
123
  3
CVIEWDETAILSTYLE
350
125
  3
CVIEWSECTIONSTYLE
350
126
  0
ACDBDETAILVIEWSTYLE
  5
6B
102
{ACAD_XDICTIONARY
360
15F
102
}
102
{ACAD_REACTORS
330
6A
102
}
330
6A
100
AcDbModelDocViewStyle
 70
     0
  3
Imperial24
290
     0
100
AcDbDetailViewStyle
 70
     0
 71
     0
 90
        3
 71
     1
340
55
 62
   256
 40
0.24
340
0
 62
   256
 40
0.24
300

 40
0.36
280
     3
 71
     2
340
5D
 90
       25
 62
   256
 71
     3
340
55
 62
   256
 40
0.24
 90
        1
 40
0.75
 90
        1
300
%<\AcVar ViewType \f "%tc1">% %<\AcVar ViewDetailId>%\PSCALE %<\AcVar ViewScale \f "%sn">%
 71
     4
340
5D
 90
       25
 62
   256
340
5D
 90
       25
 62
   256
280
     0
  0
LAYOUT
  5
6F
102
{ACAD_REACTORS
330
62
102
}
330
62
100
AcDbPlotSettings
  1

  2

  4

  6

 40
0.0
 41
0.0
 42
0.0
 43
0.0
 44
0.0
 45
0.0
 46
0.0
 47
0.0
 48
0.0
 49
0.0
140
0.0
141
0.0
142
1.0
143
1.0
 70
   688
 72
     0
 73
     0
 74
     5
  7

 75
    16
147
1.0
 76
     0
 77
     2
 78
   300
148
0.0
149
0.0
100
AcDbLayout
  1
Layout1
 70
     1
 71
     1
 10
0.0
 20
0.0
 11
12.0
 21
9.0
 12
0.0
 22
0.0
 32
0.0
 14
0.0
 24
0.0
 34
0.0
 15
0.0
 25
0.0
 35
0.0
146
0.0
 13
0.0
 23
0.0
 33
0.0
 16
1.0
 26
0.0
 36
0.0
 17
0.0
 27
1.0
 37
0.0
 76
     0
330
6C
  0
LAYOUT
  5
77
102
{ACAD_REACTORS
330
62
102
}
330
62
100
AcDbPlotSettings
  1

  2

  4

  6

 40
0.0
 41
0.0
 42
0.0
 43
0.0
 44
0.0
 45
0.0
 46
0.0
 47
0.0
 48
0.0
 49
0.0
140
0.0
141
0.0
142
1.0
143
1.0
 70
   688
 72
     0
 73
     0
 74
     5
  7

 75
    16
147
1.0
 76
     0
 77
     2
 78
   300
148
0.0
149
0.0
100
AcDbLayout
  1
Layout2
 70
     1
 71
     2
 10
0.0
 20
0.0
 11
12.0
 21
9.0
 12
0.0
 22
0.0
 32
0.0
 14
0.0
 24
0.0
 34
0.0
 15
0.0
 25
0.0
 35
0.0
146
0.0
 13
0.0
 23
0.0
 33
0.0
 16
1.0
 26
0.0
 36
0.0
 17
0.0
 27
1.0
 37
0.0
 76
     0
330
74
  0
LAYOUT
  5
73
102
{ACAD_REACTORS
330
62
102
}
330
62
100
AcDbPlotSettings
  1

  2

  4

  6

 40
0.0
 41
0.0
 42
0.0
 43
0.0
 44
0.0
 45
0.0
 46
0.0
 47
0.0
 48
0.0
 49
0.0
140
0.0
141
0.0
142
1.0
143
1.0
 70
  1712
 72
     0
 73
     0
 74
     0
  7

 75
     0
147
1.0
 76
     0
 77
     2
 78
   300
148
0.0
149
0.0
100
AcDbLayout
  1
Model
 70
     1
 71
     0
 10
0.0
 20
0.0
 11
12.0
 21
9.0
 12
0.0
 22
0.0
 32
0.0
 14
0.0
 24
0.0
 34
0.0
 15
0.0
 25
0.0
 35
0.0
146
0.0
 13
0.0
 23
0.0
 33
0.0
 16
1.0
 26
0.0
 36
0.0
 17
0.0
 27
1.0
 37
0.0
 76
     0
330
70
  0
MATERIAL
  5
19
102
{ACAD_XDICTIONARY
360
1A
102
}
102
{ACAD_REACTORS
330
10
102
}
330
10
100
AcDbMaterial
  1
ByBlock
 72
     0
 43
0.0208333333333333
 43
0.0
 43
0.0
 43
0.0
 43
0.0
 43
0.0208333333333333
 43
0.0
 43
0.0
 43
0.0
 43
0.0
 43
1.0
 43
0.0
 43
0.0
 43
0.0
 43
0.0
 43
1.0
 77
     0
 47
0.0208333333333333
 47
0.0
 47
0.0
 47
0.0
 47
0.0
 47
0.0208333333333333
 47
0.0
 47
0.0
 47
0.0
 47
0.0
 47
1.0
 47
0.0
 47
0.0
 47
0.0
 47
0.0
 47
1.0
171
     0
 49
0.0208333333333333
 49
0.0
 49
0.0
 49
0.0
 49
0.0
 49
0.0208333333333333
 49
0.0
 49
0.0
 49
0.0
 49
0.0
 49
1.0
 49
0.0
 49
0.0
 49
0.0
 49
0.0
 49
1.0
175
     0
142
0.0208333333333333
142
0.0
142
0.0
142
0.0
142
0.0
142
0.0208333333333333
142
0.0
142
0.0
142
0.0
142
0.0
142
1.0
142
0.0
142
0.0
142
0.0
142
0.0
142
1.0
179
     0
144
0.0208333333333333
144
0.0
144
0.0
144
0.0
144
0.0
144
0.0208333333333333
144
0.0
144
0.0
144
0.0
144
0.0
144
1.0
144
0.0
144
0.0
144
0.0
144
0.0
144
1.0
147
0.0208333333333333
147
0.0
147
0.0
147
0.0
147
0.0
147
0.0208333333333333
147
0.0
147
0.0
147
0.0
147
0.0
147
1.0
147
0.0
147
0.0
147
0.0
147
0.0
147
1.0
  0
MATERIAL
  5
11
102
{ACAD_XDICTIONARY
360
12
102
}
102
{ACAD_REACTORS
330
10
102
}
330
10
100
AcDbMaterial
  1
ByLayer
 72
     0
 43
0.0208333333333333
 43
0.0
 43
0.0
 43
0.0
 43
0.0
 43
0.0208333333333333
 43
0.0
 43
0.0
 43
0.0
 43
0.0
 43
1.0
 43
0.0
 43
0.0
 43
0.0
 43
0.0
 43
1.0
 77
     0
 47
0.0208333333333333
 47
0.0
 47
0.0
 47
0.0
 47
0.0
 47
0.0208333333333333
 47
0.0
 47
0.0
 47
0.0
 47
0.0
 47
1.0
 47
0.0
 47
0.0
 47
0.0
 47
0.0
 47
1.0
171
     0
 49
0.0208333333333333
 49
0.0
 49
0.0
 49
0.0
 49
0.0
 49
0.0208333333333333
 49
0.0
 49
0.0
 49
0.0
 49
0.0
 49
1.0
 49
0.0
 49
0.0
 49
0.0
 49
0.0
 49
1.0
175
     0
142
0.0208333333333333
142
0.0
142
0.0
142
0.0
142
0.0
142
0.0208333333333333
142
0.0
142
0.0
142
0.0
142
0.0
142
1.0
142
0.0
142
0.0
142
0.0
142
0.0
142
1.0
179
     0
144
0.0208333333333333
144
0.0
144
0.0
144
0.0
144
0.0
144
0.0208333333333333
144
0.0
144
0.0
144
0.0
144
0.0
144
1.0
144
0.0
144
0.0
144
0.0
144
0.0
144
1.0
147
0.0208333333333333
147
0.0
147
0.0
147
0.0
147
0.0
147
0.0208333333333333
147
0.0
147
0.0
147
0.0
147
0.0
147
1.0
147
0.0
147
0.0
147
0.0
147
0.0
147
1.0
  0
MATERIAL
  5
21
102
{ACAD_XDICTIONARY
360
22
102
}
102
{ACAD_REACTORS
330
10
102
}
330
10
100
AcDbMaterial
  1
Global
 72
     0
 43
0.0208333333333333
 43
0.0
 43
0.0
 43
0.0
 43
0.0
 43
0.0208333333333333
 43
0.0
 43
0.0
 43
0.0
 43
0.0
 43
1.0
 43
0.0
 43
0.0
 43
0.0
 43
0.0
 43
1.0
 77
     0
 47
0.0208333333333333
 47
0.0
 47
0.0
 47
0.0
 47
0.0
 47
0.0208333333333333
 47
0.0
 47
0.0
 47
0.0
 47
0.0
 47
1.0
 47
0.0
 47
0.0
 47
0.0
 47
0.0
 47
1.0
171
     0
 49
0.0208333333333333
 49
0.0
 49
0.0
 49
0.0
 49
0.0
 49
0.0208333333333333
 49
0.0
 49
0.0
 49
0.0
 49
0.0
 49
1.0
 49
0.0
 49
0.0
 49
0.0
 49
0.0
 49
1.0
175
     0
142
0.0208333333333333
142
0.0
142
0.0
142
0.0
142
0.0
142
0.0208333333333333
142
0.0
142
0.0
142
0.0
142
0.0
142
1.0
142
0.0
142
0.0
142
0.0
142
0.0
142
1.0
179
     0
144
0.0208333333333333
144
0.0
144
0.0
144
0.0
144
0.0
144
0.0208333333333333
144
0.0
144
0.0
144
0.0
144
0.0
144
1.0
144
0.0
144
0.0
144
0.0
144
0.0
144
1.0
147
0.0208333333333333
147
0.0
147
0.0
147
0.0
147
0.0
147
0.0208333333333333
147
0.0
147
0.0
147
0.0
147
0.0
147
1.0
147
0.0
147
0.0
147
0.0
147
0.0
147
1.0
  0
MLEADERSTYLE
  5
67
102
{ACAD_XDICTIONARY
360
15B
102
}
102
{ACAD_REACTORS
330
66
102
}
330
66
100
AcDbMLeaderStyle
179
     2
170
     2
171
     1
172
     0
 90
        2
 40
0.0
 41
0.0
173
     1
 91
-1056964608
340
5B
 92
       -2
290
     1
 42
0.09
291
     1
 43
0.36
  3
Standard
 44
0.18
300

342
55
174
     1
178
     6
175
     1
176
     0
 93
-1056964608
 45
0.18
292
     0
297
     0
 46
0.18
 94
-1056964608
 47
1.0
 49
1.0
140
1.0
293
     1
141
0.0
294
     1
177
     0
142
1.0
295
     0
296
     0
143
0.125
271
     0
272
     9
273
     9
  0
MLINESTYLE
  5
60
102
{ACAD_REACTORS
330
5F
102
}
330
5F
100
AcDbMlineStyle
  2
STANDARD
 70
     0
  3

 62
   256
 51
90.0
 52
90.0
 71
     2
 49
0.5
 62
   256
  6
BYLAYER
 49
-0.5
 62
   256
  6
BYLAYER
  0
ACDBPLACEHOLDER
  5
F
102
{ACAD_REACTORS
330
E
102
}
330
E
  0
SCALE
  5
43
102
{ACAD_REACTORS
330
42
102
}
330
42
100
AcDbScale
 70
     0
300
1:1
140
1.0
141
1.0
290
     1
  0
SCALE
  5
44
102
{ACAD_REACTORS
330
42
102
}
330
42
100
AcDbScale
 70
     0
300
1/128" = 1'-0"
140
0.0078125
141
12.0
290
     0
  0
SCALE
  5
45
102
{ACAD_REACTORS
330
42
102
}
330
42
100
AcDbScale
 70
     0
300
1/64" = 1'-0"
140
0.015625
141
12.0
290
     0
  0
SCALE
  5
46
102
{ACAD_REACTORS
330
42
102
}
330
42
100
AcDbScale
 70
     0
300
1/32" = 1'-0"
140
0.03125
141
12.0
290
     0
  0
SCALE
  5
47
102
{ACAD_REACTORS
330
42
102
}
330
42
100
AcDbScale
 70
     0
300
1/16" = 1'-0"
140
0.0625
141
12.0
290
     0
  0
SCALE
  5
48
102
{ACAD_REACTORS
330
42
102
}
330
42
100
AcDbScale
 70
     0
300
3/32" = 1'-0"
140
0.09375
141
12.0
290
     0
  0
SCALE
  5
49
102
{ACAD_REACTORS
330
42
102
}
330
42
100
AcDbScale
 70
     0
300
1/8" = 1'-0"
140
0.125
141
12.0
290
     0
  0
SCALE
  5
4A
102
{ACAD_REACTORS
330
42
102
}
330
42
100
AcDbScale
 70
     0
300
3/16" = 1'-0"
140
0.1875
141
12.0
290
     0
  0
SCALE
  5
4B
102
{ACAD_REACTORS
330
42
102
}
330
42
100
AcDbScale
 70
     0
300
1/4" = 1'-0"
140
0.25
141
12.0
290
     0
  0
SCALE
  5
4C
102
{ACAD_REACTORS
330
42
102
}
330
42
100
AcDbScale
 70
     0
300
3/8" = 1'-0"
140
0.375
141
12.0
290
     0
  0
SCALE
  5
4D
102
{ACAD_REACTORS
330
42
102
}
330
42
100
AcDbScale
 70
     0
300
1/2" = 1'-0"
140
0.5
141
12.0
290
     0
  0
SCALE
  5
4E
102
{ACAD_REACTORS
330
42
102
}
330
42
100
AcDbScale
 70
     0
300
3/4" = 1'-0"
140
0.75
141
12.0
290
     0
  0
SCALE
  5
4F
102
{ACAD_REACTORS
330
42
102
}
330
42
100
AcDbScale
 70
     0
300
1" = 1'-0"
140
1.0
141
12.0
290
     0
  0
SCALE
  5
50
102
{ACAD_REACTORS
330
42
102
}
330
42
100
AcDbScale
 70
     0
300
1-1/2" = 1'-0"
140
1.5
141
12.0
290
     0
  0
SCALE
  5
51
102
{ACAD_REACTORS
330
42
102
}
330
42
100
AcDbScale
 70
     0
300
3" = 1'-0"
140
3.0
141
12.0
290
     0
  0
SCALE
  5
52
102
{ACAD_REACTORS
330
42
102
}
330
42
100
AcDbScale
 70
     0
300
6" = 1'-0"
140
6.0
141
12.0
290
     0
  0
SCALE
  5
53
102
{ACAD_REACTORS
330
42
102
}
330
42
100
AcDbScale
 70
     0
300
1'-0" = 1'-0"
140
12.0
141
12.0
290
     0
  0
ACDBSECTIONVIEWSTYLE
  5
69
102
{ACAD_XDICTIONARY
360
15D
102
}
102
{ACAD_REACTORS
330
68
102
}
330
68
100
AcDbModelDocViewStyle
 70
     0
  3
Imperial24
290
     0
100
AcDbSectionViewStyle
 70
     0
 71
     0
 90
       78
 71
     1
340
55
 62
   256
 40
0.24
340
0
340
0
 62
   256
 40
0.24
300
I, O, Q, S, X, Z
 40
0.48
 90
        3
 40
0.18
 90
        1
 71
     2
340
5D
 90
       25
 62
   256
340
5D
 90
       50
 62
   256
 40
0.24
 40
0.0
 40
0.24
 71
     3
340
55
 62
   256
 40
0.24
 90
        1
 40
0.75
 90
        1
300
%<\AcVar ViewType \f "%tc1">% %<\AcVar ViewSectionStartId>%-%<\AcVar ViewSectionEndId>%\PSCALE %<\AcVar ViewScale \f "%sn">%
 71
     4
 62
   256
 62
   257
300
ANSI31
 40
1.0
 90
        0
290
     0
290
     0
 90
        6
 40
0.0
 40
1.570796326794896
 40
0.2617993877991494
 40
1.308996938995747
 40
-0.2617993877991494
 40
1.832595714594046
  0
TABLESTYLE
  5
65
102
{ACAD_XDICTIONARY
360
128
102
}
102
{ACAD_REACTORS
330
64
102
}
330
64
100
AcDbTableStyle
280
     0
  3
Standard
 70
     0
 71
     0
 40
0.06
 41
0.06
280
     0
281
     0
  7
Standard
140
0.18
170
     2
 62
     0
 63
     7
283
     0
 90
      512
 91
        0
  1

274
    -2
284
     1
 64
     0
275
    -2
285
     1
 65
     0
276
    -2
286
     1
 66
     0
277
    -2
287
     1
 67
     0
278
    -2
288
     1
 68
     0
279
    -2
289
     1
 69
     0
  7
Standard
140
0.25
170
     5
 62
     0
 63
     7
283
     0
 90
      512
 91
        0
  1

274
    -2
284
     1
 64
     0
275
    -2
285
     1
 65
     0
276
    -2
286
     1
 66
     0
277
    -2
287
     1
 67
     0
278
    -2
288
     1
 68
     0
279
    -2
289
     1
 69
     0
  7
Standard
140
0.18
170
     5
 62
     0
 63
     7
283
     0
 90
      512
 91
        0
  1

274
    -2
284
     1
 64
     0
275
    -2
285
     1
 65
     0
276
    -2
286
     1
 66
     0
277
    -2
287
     1
 67
     0
278
    -2
288
     1
 68
     0
279
    -2
289
     1
 69
     0
  0
VISUALSTYLE
  5
2F
102
{ACAD_XDICTIONARY
360
135
102
}
102
{ACAD_REACTORS
330
29
102
}
330
29
100
AcDbVisualStyle
  2
2dWireframe
 70
     4
177
     2
291
     0
 71
     0
176
     1
 72
     2
176
     1
 73
     0
176
     1
 90
        0
176
     1
 40
0.6
176
     1
 41
30.0
176
     1
 63
     7
421
 16777215
176
     1
 74
     1
176
     1
 91
        4
176
     1
 64
     7
176
     1
 65
   257
176
     1
 75
     1
176
     1
175
     1
176
     1
 42
1.0
176
     1
 92
        0
176
     1
 66
   257
176
     1
 43
1.0
176
     1
 76
     1
176
     1
 77
     6
176
     1
 78
     2
176
     1
 67
     7
176
     1
 79
     5
176
     1
170
     0
176
     1
171
     0
176
     1
290
     0
176
     1
 93
        1
176
     1
 44
0.0
176
     1
173
     0
176
     1
1001
ACAD
1000
AcDbSavedByObjectVersion
1070
     0
  0
VISUALSTYLE
  5
2E
102
{ACAD_XDICTIONARY
360
133
102
}
102
{ACAD_REACTORS
330
29
102
}
330
29
100
AcDbVisualStyle
  2
Basic
 70
     7
177
     2
291
     1
 71
     1
176
     1
 72
     0
176
     1
 73
     1
176
     1
 90
        0
176
     1
 40
0.6
176
     1
 41
30.0
176
     1
 63
     7
421
 16777215
176
     1
 74
     0
176
     1
 91
        4
176
     1
 64
     7
176
     1
 65
   257
176
     1
 75
     1
176
     1
175
     1
176
     1
 42
1.0
176
     1
 92
        8
176
     1
 66
     7
176
     1
 43
1.0
176
     1
 76
     1
176
     1
 77
     6
176
     1
 78
     2
176
     1
 67
     7
176
     1
 79
     5
176
     1
170
     0
176
     1
171
     0
176
     1
290
     0
176
     1
 93
        1
176
     1
 44
0.0
176
     1
173
     0
176
     1
1001
ACAD
1000
AcDbSavedByObjectVersion
1070
     0
  0
VISUALSTYLE
  5
35
102
{ACAD_XDICTIONARY
360
141
102
}
102
{ACAD_REACTORS
330
29
102
}
330
29
100
AcDbVisualStyle
  2
Brighten
 70
    12
177
     2
291
     1
 71
     2
176
     1
 72
     2
176
     1
 73
     0
176
     1
 90
        0
176
     1
 40
0.6
176
     1
 41
30.0
176
     1
 63
     7
421
 16777215
176
     1
 74
     1
176
     1
 91
        4
176
     1
 64
     7
176
     1
 65
   257
176
     1
 75
     1
176
     1
175
     1
176
     1
 42
1.0
176
     1
 92
        8
176
     1
 66
     7
176
     1
 43
1.0
176
     1
 76
     1
176
     1
 77
     6
176
     1
 78
     2
176
     1
 67
     7
176
     1
 79
     5
176
     1
170
     0
176
     1
171
     0
176
     1
290
     0
176
     1
 93
        1
176
     1
 44
50.0
176
     1
173
     0
176
     1
1001
ACAD
1000
AcDbSavedByObjectVersion
1070
     0
  0
VISUALSTYLE
  5
39
102
{ACAD_XDICTIONARY
360
149
102
}
102
{ACAD_REACTORS
330
29
102
}
330
29
100
AcDbVisualStyle
  2
ColorChange
 70
    16
177
     2
291
     1
 71
     2
176
     1
 72
     2
176
     1
 73
     3
176
     1
 90
        0
176
     1
 40
0.6
176
     1
 41
30.0
176
     1
 63
     8
421
  8421504
176
     1
 74
     1
176
     1
 91
        4
176
     1
 64
     7
176
     1
 65
   257
176
     1
 75
     1
176
     1
175
     1
176
     1
 42
1.0
176
     1
 92
        8
176
     1
 66
     8
424
  8421504
176
     1
 43
1.0
176
     1
 76
     1
176
     1
 77
     6
176
     1
 78
     2
176
     1
 67
     7
176
     1
 79
     5
176
     1
170
     0
176
     1
171
     0
176
     1
290
     0
176
     1
 93
        1
176
     1
 44
0.0
176
     1
173
     0
176
     1
1001
ACAD
1000
AcDbSavedByObjectVersion
1070
     0
  0
VISUALSTYLE
  5
32
102
{ACAD_XDICTIONARY
360
13B
102
}
102
{ACAD_REACTORS
330
29
102
}
330
29
100
AcDbVisualStyle
  2
Conceptual
 70
     9
177
     2
291
     0
 71
     3
176
     1
 72
     2
176
     1
 73
     0
176
     1
 90
        0
176
     1
 40
0.6
176
     1
 41
30.0
176
     1
 63
     7
421
 16777215
176
     1
 74
     2
176
     1
 91
        2
176
     1
 64
     7
176
     1
 65
   257
176
     1
 75
     1
176
     1
175
     1
176
     1
 42
179.0
176
     1
 92
        8
176
     1
 66
     7
176
     1
 43
1.0
176
     1
 76
     1
176
     1
 77
     6
176
     1
 78
     2
176
     1
 67
     7
176
     1
 79
     3
176
     1
170
     0
176
     1
171
     0
176
     1
290
     0
176
     1
 93
        1
176
     1
 44
0.0
176
     1
173
     0
176
     1
1001
ACAD
1000
AcDbSavedByObjectVersion
1070
     0
  0
VISUALSTYLE
  5
34
102
{ACAD_XDICTIONARY
360
13F
102
}
102
{ACAD_REACTORS
330
29
102
}
330
29
100
AcDbVisualStyle
  2
Dim
 70
    11
177
     2
291
     1
 71
     2
176
     1
 72
     2
176
     1
 73
     0
176
     1
 90
        0
176
     1
 40
0.6
176
     1
 41
30.0
176
     1
 63
     7
421
 16777215
176
     1
 74
     1
176
     1
 91
        4
176
     1
 64
     7
176
     1
 65
   257
176
     1
 75
     1
176
     1
175
     1
176
     1
 42
1.0
176
     1
 92
        8
176
     1
 66
     7
176
     1
 43
1.0
176
     1
 76
     1
176
     1
 77
     6
176
     1
 78
     2
176
     1
 67
     7
176
     1
 79
     5
176
     1
170
     0
176
     1
171
     0
176
     1
290
     0
176
     1
 93
        1
176
     1
 44
-50.0
176
     1
173
     0
176
     1
1001
ACAD
1000
AcDbSavedByObjectVersion
1070
     0
  0
VISUALSTYLE
  5
41
102
{ACAD_XDICTIONARY
360
159
102
}
102
{ACAD_REACTORS
330
29
102
}
330
29
100
AcDbVisualStyle
  2
EdgeColorOff
 70
    22
177
     2
291
     1
 71
     2
176
     0
 72
     2
176
     0
 73
     0
176
     0
 90
        0
176
     0
 40
0.6
176
     0
 41
30.0
176
     0
 63
     7
421
 16777215
176
     0
 74
     1
176
     0
 91
        4
176
     0
 64
     7
176
     0
 65
   257
176
     0
 75
     1
176
     0
175
     1
176
     0
 42
1.0
176
     0
 92
        8
176
     2
 66
     7
176
     0
 43
1.0
176
     0
 76
     1
176
     0
 77
     6
176
     0
 78
     2
176
     0
 67
     7
176
     0
 79
     5
176
     0
170
     0
176
     0
171
     0
176
     0
290
     0
176
     0
 93
        1
176
     0
 44
0.0
176
     0
173
     0
176
     0
1001
ACAD
1000
AcDbSavedByObjectVersion
1070
     0
  0
VISUALSTYLE
  5
38
102
{ACAD_XDICTIONARY
360
147
102
}
102
{ACAD_REACTORS
330
29
102
}
330
29
100
AcDbVisualStyle
  2
Facepattern
 70
    15
177
     2
291
     1
 71
     2
176
     1
 72
     2
176
     1
 73
     0
176
     1
 90
        0
176
     1
 40
0.6
176
     1
 41
30.0
176
     1
 63
     7
421
 16777215
176
     1
 74
     1
176
     1
 91
        4
176
     1
 64
     7
176
     1
 65
   257
176
     1
 75
     1
176
     1
175
     1
176
     1
 42
1.0
176
     1
 92
        8
176
     1
 66
     7
176
     1
 43
1.0
176
     1
 76
     1
176
     1
 77
     6
176
     1
 78
     2
176
     1
 67
     7
176
     1
 79
     5
176
     1
170
     0
176
     1
171
     0
176
     1
290
     0
176
     1
 93
        1
176
     1
 44
0.0
176
     1
173
     0
176
     1
1001
ACAD
1000
AcDbSavedByObjectVersion
1070
     0
  0
VISUALSTYLE
  5
2A
102
{ACAD_XDICTIONARY
360
12B
102
}
102
{ACAD_REACTORS
330
29
102
}
330
29
100
AcDbVisualStyle
  2
Flat
 70
     0
177
     2
291
     1
 71
     2
176
     1
 72
     1
176
     1
 73
     1
176
     1
 90
        2
176
     1
 40
0.6
176
     1
 41
30.0
176
     1
 63
     7
421
 16777215
176
     1
 74
     0
176
     1
 91
        0
176
     1
 64
     7
176
     1
 65
   257
176
     1
 75
     1
176
     1
175
     1
176
     1
 42
1.0
176
     1
 92
        8
176
     1
 66
     7
176
     1
 43
1.0
176
     1
 76
     1
176
     1
 77
     6
176
     1
 78
     2
176
     1
 67
     7
176
     1
 79
     5
176
     1
170
     0
176
     1
171
     0
176
     1
290
     0
176
     1
 93
       13
176
     1
 44
0.0
176
     1
173
     0
176
     1
1001
ACAD
1000
AcDbSavedByObjectVersion
1070
     0
  0
VISUALSTYLE
  5
2B
102
{ACAD_XDICTIONARY
360
12D
102
}
102
{ACAD_REACTORS
330
29
102
}
330
29
100
AcDbVisualStyle
  2
FlatWithEdges
 70
     1
177
     2
291
     1
 71
     2
176
     1
 72
     1
176
     1
 73
     1
176
     1
 90
        2
176
     1
 40
0.6
176
     1
 41
30.0
176
     1
 63
     7
421
 16777215
176
     1
 74
     1
176
     1
 91
        0
176
     1
 64
     7
176
     1
 65
   257
176
     1
 75
     1
176
     1
175
     1
176
     1
 42
1.0
176
     1
 92
        0
176
     1
 66
   257
176
     1
 43
1.0
176
     1
 76
     1
176
     1
 77
     6
176
     1
 78
     2
176
     1
 67
     7
176
     1
 79
     5
176
     1
170
     0
176
     1
171
     0
176
     1
290
     0
176
     1
 93
       13
176
     1
 44
0.0
176
     1
173
     0
176
     1
1001
ACAD
1000
AcDbSavedByObjectVersion
1070
     0
  0
VISUALSTYLE
  5
2C
102
{ACAD_XDICTIONARY
360
12F
102
}
102
{ACAD_REACTORS
330
29
102
}
330
29
100
AcDbVisualStyle
  2
Gouraud
 70
     2
177
     2
291
     1
 71
     2
176
     1
 72
     2
176
     1
 73
     1
176
     1
 90
        2
176
     1
 40
0.6
176
     1
 41
30.0
176
     1
 63
     7
421
 16777215
176
     1
 74
     0
176
     1
 91
        0
176
     1
 64
     7
176
     1
 65
   257
176
     1
 75
     1
176
     1
175
     1
176
     1
 42
1.0
176
     1
 92
        0
176
     1
 66
     7
176
     1
 43
1.0
176
     1
 76
     1
176
     1
 77
     6
176
     1
 78
     2
176
     1
 67
     7
176
     1
 79
     5
176
     1
170
     0
176
     1
171
     0
176
     1
290
     0
176
     1
 93
       13
176
     1
 44
0.0
176
     1
173
     0
176
     1
1001
ACAD
1000
AcDbSavedByObjectVersion
1070
     0
  0
VISUALSTYLE
  5
2D
102
{ACAD_XDICTIONARY
360
131
102
}
102
{ACAD_REACTORS
330
29
102
}
330
29
100
AcDbVisualStyle
  2
GouraudWithEdges
 70
     3
177
     2
291
     1
 71
     2
176
     1
 72
     2
176
     1
 73
     1
176
     1
 90
        2
176
     1
 40
0.6
176
     1
 41
30.0
176
     1
 63
     7
421
 16777215
176
     1
 74
     1
176
     1
 91
        0
176
     1
 64
     7
176
     1
 65
   257
176
     1
 75
     1
176
     1
175
     1
176
     1
 42
1.0
176
     1
 92
        0
176
     1
 66
   257
176
     1
 43
1.0
176
     1
 76
     1
176
     1
 77
     6
176
     1
 78
     2
176
     1
 67
     7
176
     1
 79
     5
176
     1
170
     0
176
     1
171
     0
176
     1
290
     0
176
     1
 93
       13
176
     1
 44
0.0
176
     1
173
     0
176
     1
1001
ACAD
1000
AcDbSavedByObjectVersion
1070
     0
  0
VISUALSTYLE
  5
31
102
{ACAD_XDICTIONARY
360
139
102
}
102
{ACAD_REACTORS
330
29
102
}
330
29
100
AcDbVisualStyle
  2
Hidden
 70
     6
177
     2
291
     0
 71
     1
176
     1
 72
     2
176
     1
 73
     2
176
     1
 90
        0
176
     1
 40
0.6
176
     1
 41
30.0
176
     1
 63
     7
421
 16777215
176
     1
 74
     2
176
     1
 91
        2
176
     1
 64
     7
176
     1
 65
   257
176
     1
 75
     2
176
     1
175
     1
176
     1
 42
40.0
176
     1
 92
        0
176
     1
 66
   257
176
     1
 43
1.0
176
     1
 76
     1
176
     1
 77
     6
176
     1
 78
     2
176
     1
 67
     7
176
     1
 79
     3
176
     1
170
     0
176
     1
171
     0
176
     1
290
     0
176
     1
 93
        1
176
     1
 44
0.0
176
     1
173
     0
176
     1
1001
ACAD
1000
AcDbSavedByObjectVersion
1070
     0
  0
VISUALSTYLE
  5
3F
102
{ACAD_XDICTIONARY
360
155
102
}
102
{ACAD_REACTORS
330
29
102
}
330
29
100
AcDbVisualStyle
  2
JitterOff
 70
    20
177
     2
291
     1
 71
     2
176
     0
 72
     2
176
     0
 73
     0
176
     0
 90
        0
176
     0
 40
0.6
176
     0
 41
30.0
176
     0
 63
     7
421
 16777215
176
     0
 74
     1
176
     0
 91
        4
176
     0
 64
     7
176
     0
 65
   257
176
     0
 75
     1
176
     0
175
     1
176
     0
 42
1.0
176
     0
 92
       10
176
     2
 66
     7
176
     0
 43
1.0
176
     0
 76
     1
176
     0
 77
     6
176
     0
 78
     2
176
     0
 67
     7
176
     0
 79
     5
176
     0
170
     0
176
     0
171
     0
176
     0
290
     0
176
     0
 93
        1
176
     0
 44
0.0
176
     0
173
     0
176
     0
1001
ACAD
1000
AcDbSavedByObjectVersion
1070
     0
  0
VISUALSTYLE
  5
37
102
{ACAD_XDICTIONARY
360
145
102
}
102
{ACAD_REACTORS
330
29
102
}
330
29
100
AcDbVisualStyle
  2
Linepattern
 70
    14
177
     2
291
     1
 71
     2
176
     1
 72
     2
176
     1
 73
     0
176
     1
 90
        0
176
     1
 40
0.6
176
     1
 41
30.0
176
     1
 63
     7
421
 16777215
176
     1
 74
     1
176
     1
 91
        4
176
     1
 64
     7
176
     1
 65
   257
176
     1
 75
     7
176
     1
175
     7
176
     1
 42
1.0
176
     1
 92
        8
176
     1
 66
     7
176
     1
 43
1.0
176
     1
 76
     1
176
     1
 77
     6
176
     1
 78
     2
176
     1
 67
     7
176
     1
 79
     5
176
     1
170
     0
176
     1
171
     0
176
     1
290
     0
176
     1
 93
        1
176
     1
 44
0.0
176
     1
173
     0
176
     1
1001
ACAD
1000
AcDbSavedByObjectVersion
1070
     0
  0
VISUALSTYLE
  5
40
102
{ACAD_XDICTIONARY
360
157
102
}
102
{ACAD_REACTORS
330
29
102
}
330
29
100
AcDbVisualStyle
  2
OverhangOff
 70
    21
177
     2
291
     1
 71
     2
176
     0
 72
     2
176
     0
 73
     0
176
     0
 90
        0
176
     0
 40
0.6
176
     0
 41
30.0
176
     0
 63
     7
421
 16777215
176
     0
 74
     1
176
     0
 91
        4
176
     0
 64
     7
176
     0
 65
   257
176
     0
 75
     1
176
     0
175
     1
176
     0
 42
1.0
176
     0
 92
        9
176
     2
 66
     7
176
     0
 43
1.0
176
     0
 76
     1
176
     0
 77
     6
176
     0
 78
     2
176
     0
 67
     7
176
     0
 79
     5
176
     0
170
     0
176
     0
171
     0
176
     0
290
     0
176
     0
 93
        1
176
     0
 44
0.0
176
     0
173
     0
176
     0
1001
ACAD
1000
AcDbSavedByObjectVersion
1070
     0
  0
VISUALSTYLE
  5
33
102
{ACAD_XDICTIONARY
360
13D
102
}
102
{ACAD_REACTORS
330
29
102
}
330
29
100
AcDbVisualStyle
  2
Realistic
 70
     8
177
     2
291
     0
 71
     2
176
     1
 72
     3
176
     1
 73
     0
176
     1
 90
        2
176
     1
 40
0.6
176
     1
 41
30.0
176
     1
 63
     7
421
 16777215
176
     1
 74
     0
176
     1
 91
        0
176
     1
 64
     7
176
     1
 65
   257
176
     1
 75
     1
176
     1
175
     1
176
     1
 42
1.0
176
     1
 92
        8
176
     1
 66
   257
176
     1
 43
1.0
176
     1
 76
     1
176
     1
 77
     6
176
     1
 78
     2
176
     1
 67
     7
176
     1
 79
     3
176
     1
170
     0
176
     1
171
     0
176
     1
290
     0
176
     1
 93
       13
176
     1
 44
0.0
176
     1
173
     0
176
     1
1001
ACAD
1000
AcDbSavedByObjectVersion
1070
     0
  0
VISUALSTYLE
  5
3E
102
{ACAD_XDICTIONARY
360
153
102
}
102
{ACAD_REACTORS
330
29
102
}
330
29
100
AcDbVisualStyle
  2
Shaded
 70
    27
177
     2
291
     0
 71
     2
176
     1
 72
     2
176
     1
 73
     1
176
     1
 90
        2
176
     1
 40
0.6
176
     1
 41
30.0
176
     1
 63
     7
421
 16777215
176
     1
 74
     0
176
     1
 91
        4
176
     1
 64
     7
176
     1
 65
   257
176
     1
 75
     1
176
     1
175
     1
176
     1
 42
1.0
176
     1
 92
        8
176
     1
 66
   257
176
     1
 43
1.0
176
     1
 76
     1
176
     1
 77
     6
176
     1
 78
     2
176
     1
 67
     8
425
  7895160
176
     1
 79
     3
176
     1
170
     0
176
     1
171
     0
176
     1
290
     0
176
     1
 93
        5
176
     1
 44
0.0
176
     1
173
     0
176
     1
1001
ACAD
1000
AcDbSavedByObjectVersion
1070
     0
  0
VISUALSTYLE
  5
3D
102
{ACAD_XDICTIONARY
360
151
102
}
102
{ACAD_REACTORS
330
29
102
}
330
29
100
AcDbVisualStyle
  2
Shaded with edges
 70
    26
177
     2
291
     0
 71
     2
176
     1
 72
     2
176
     1
 73
     1
176
     1
 90
        2
176
     1
 40
0.6
176
     1
 41
30.0
176
     1
 63
     7
421
 16777215
176
     1
 74
     1
176
     1
 91
        2
176
     1
 64
     7
176
     1
 65
   257
176
     1
 75
     2
176
     1
175
     1
176
     1
 42
1.0
176
     1
 92
        8
176
     1
 66
   257
176
     1
 43
1.0
176
     1
 76
     1
176
     1
 77
     6
176
     1
 78
     2
176
     1
 67
     7
176
     1
 79
     3
176
     1
170
     0
176
     1
171
     0
176
     1
290
     0
176
     1
 93
        5
176
     1
 44
0.0
176
     1
173
     0
176
     1
1001
ACAD
1000
AcDbSavedByObjectVersion
1070
     0
  0
VISUALSTYLE
  5
3A
102
{ACAD_XDICTIONARY
360
14B
102
}
102
{ACAD_REACTORS
330
29
102
}
330
29
100
AcDbVisualStyle
  2
Shades of Gray
 70
    23
177
     2
291
     0
 71
     2
176
     1
 72
     2
176
     1
 73
     3
176
     1
 90
        0
176
     1
 40
0.6
176
     1
 41
30.0
176
     1
 63
     7
421
 16777215
176
     1
 74
     2
176
     1
 91
        2
176
     1
 64
     7
176
     1
 65
     7
176
     1
 75
     1
176
     1
175
     1
176
     1
 42
40.0
176
     1
 92
        8
176
     1
 66
     7
176
     1
 43
1.0
176
     1
 76
     1
176
     1
 77
     6
176
     1
 78
     2
176
     1
 67
     7
176
     1
 79
     3
176
     1
170
     0
176
     1
171
     0
176
     1
290
     0
176
     1
 93
        1
176
     1
 44
0.0
176
     1
173
     0
176
     1
1001
ACAD
1000
AcDbSavedByObjectVersion
1070
     0
  0
VISUALSTYLE
  5
3B
102
{ACAD_XDICTIONARY
360
14D
102
}
102
{ACAD_REACTORS
330
29
102
}
330
29
100
AcDbVisualStyle
  2
Sketchy
 70
    24
177
     2
291
     0
 71
     1
176
     1
 72
     2
176
     1
 73
     2
176
     1
 90
        0
176
     1
 40
0.6
176
     1
 41
30.0
176
     1
 63
     7
421
 16777215
176
     1
 74
     2
176
     1
 91
        2
176
     1
 64
     7
176
     1
 65
     7
176
     1
 75
     1
176
     1
175
     1
176
     1
 42
40.0
176
     1
 92
       11
176
     1
 66
     7
176
     1
 43
1.0
176
     1
 76
     1
176
     1
 77
     6
176
     1
 78
     2
176
     1
 67
     7
176
     1
 79
     6
176
     1
170
     0
176
     1
171
     0
176
     1
290
     0
176
     1
 93
        1
176
     1
 44
0.0
176
     1
173
     0
176
     1
1001
ACAD
1000
AcDbSavedByObjectVersion
1070
     0
  0
VISUALSTYLE
  5
36
102
{ACAD_XDICTIONARY
360
143
102
}
102
{ACAD_REACTORS
330
29
102
}
330
29
100
AcDbVisualStyle
  2
Thicken
 70
    13
177
     2
291
     1
 71
     2
176
     1
 72
     2
176
     1
 73
     0
176
     1
 90
        0
176
     1
 40
0.6
176
     1
 41
30.0
176
     1
 63
     7
421
 16777215
176
     1
 74
     1
176
     1
 91
        4
176
     1
 64
     7
176
     1
 65
   257
176
     1
 75
     1
176
     1
175
     1
176
     1
 42
1.0
176
     1
 92
       12
176
     1
 66
     7
176
     1
 43
1.0
176
     1
 76
     1
176
     1
 77
     6
176
     1
 78
     2
176
     1
 67
     7
176
     1
 79
     5
176
     1
170
     0
176
     1
171
     0
176
     1
290
     0
176
     1
 93
        1
176
     1
 44
0.0
176
     1
173
     0
176
     1
1001
ACAD
1000
AcDbSavedByObjectVersion
1070
     0
  0
VISUALSTYLE
  5
30
102
{ACAD_XDICTIONARY
360
137
102
}
102
{ACAD_REACTORS
330
29
102
}
330
29
100
AcDbVisualStyle
  2
Wireframe
 70
     5
177
     2
291
     0
 71
     0
176
     1
 72
     2
176
     1
 73
     0
176
     1
 90
        0
176
     1
 40
0.6
176
     1
 41
30.0
176
     1
 63
     7
421
 16777215
176
     1
 74
     1
176
     1
 91
        4
176
     1
 64
     7
176
     1
 65
   257
176
     1
 75
     1
176
     1
175
     1
176
     1
 42
1.0
176
     1
 92
        0
176
     1
 66
   257
176
     1
 43
1.0
176
     1
 76
     1
176
     1
 77
     6
176
     1
 78
     2
176
     1
 67
     7
176
     1
 79
     3
176
     1
170
     0
176
     1
171
     0
176
     1
290
     0
176
     1
 93
        1
176
     1
 44
0.0
176
     1
173
     0
176
     1
1001
ACAD
1000
AcDbSavedByObjectVersion
1070
     0
  0
VISUALSTYLE
  5
3C
102
{ACAD_XDICTIONARY
360
14F
102
}
102
{ACAD_REACTORS
330
29
102
}
330
29
100
AcDbVisualStyle
  2
X-Ray
 70
    25
177
     2
291
     0
 71
     2
176
     1
 72
     2
176
     1
 73
     1
176
     1
 90
        1
176
     1
 40
0.5
176
     1
 41
30.0
176
     1
 63
     7
421
 16777215
176
     1
 74
     1
176
     1
 91
        0
176
     1
 64
     7
176
     1
 65
   257
176
     1
 75
     1
176
     1
175
     1
176
     1
 42
1.0
176
     1
 92
        8
176
     1
 66
     7
176
     1
 43
1.0
176
     1
 76
     1
176
     1
 77
     6
176
     1
 78
     2
176
     1
 67
     7
176
     1
 79
     3
176
     1
170
     0
176
     1
171
     0
176
     1
290
     0
176
     1
 93
       13
176
     1
 44
0.0
176
     1
173
     0
176
     1
1001
ACAD
1000
AcDbSavedByObjectVersion
1070
     0
  0
DICTIONARYVAR
  5
127
102
{ACAD_REACTORS
330
122
102
}
330
122
100
DictionaryVariables
280
     0
  1
1:1
  0
DICTIONARYVAR
  5
124
102
{ACAD_REACTORS
330
122
102
}
330
122
100
DictionaryVariables
280
     0
  1
STANDARD
  0
DICTIONARYVAR
  5
123
102
{ACAD_REACTORS
330
122
102
}
330
122
100
DictionaryVariables
280
     0
  1
STANDARD
  0
DICTIONARYVAR
  5
125
102
{ACAD_REACTORS
330
122
102
}
330
122
100
DictionaryVariables
280
     0
  1
Imperial24
  0
DICTIONARYVAR
  5
126
102
{ACAD_REACTORS
330
122
102
}
330
122
100
DictionaryVariables
280
     0
  1
Imperial24
  0
DICTIONARY
  5
15F
330
6B
100
AcDbDictionary
280
     1
281
     1
  3
ACAD_XREC_ROUNDTRIP
360
160
  0
DICTIONARY
  5
1A
330
19
100
AcDbDictionary
280
     1
281
     1
  3
BUMPTILE
360
1C
  3
DIFFUSETILE
360
1B
  3
OPACITYTILE
360
1F
  3
REFLECTIONTILE
360
1E
  3
REFRACTIONTILE
360
20
  3
SPECULARTILE
360
1D
  0
DICTIONARY
  5
12
330
11
100
AcDbDictionary
280
     1
281
     1
  3
BUMPTILE
360
14
  3
DIFFUSETILE
360
13
  3
OPACITYTILE
360
17
  3
REFLECTIONTILE
360
16
  3
REFRACTIONTILE
360
18
  3
SPECULARTILE
360
15
  0
DICTIONARY
  5
22
330
21
100
AcDbDictionary
280
     1
281
     1
  3
BUMPTILE
360
24
  3
DIFFUSETILE
360
23
  3
OPACITYTILE
360
27
  3
REFLECTIONTILE
360
26
  3
REFRACTIONTILE
360
28
  3
SPECULARTILE
360
25
  0
DICTIONARY
  5
15B
330
67
100
AcDbDictionary
280
     1
281
     1
  3
ACAD_XREC_ROUNDTRIP
360
15C
  0
DICTIONARY
  5
15D
330
69
100
AcDbDictionary
280
     1
281
     1
  3
ACAD_XREC_ROUNDTRIP
360
15E
  0
DICTIONARY
  5
128
330
65
100
AcDbDictionary
280
     1
281
     1
  3
ACAD_ROUNDTRIP_2008_TABLESTYLE_CELLSTYLEMAP
360
129
  0
DICTIONARY
  5
135
330
2F
100
AcDbDictionary
280
     1
281
     1
  3
ACAD_XREC_ROUNDTRIP
360
136
  0
DICTIONARY
  5
133
330
2E
100
AcDbDictionary
280
     1
281
     1
  3
ACAD_XREC_ROUNDTRIP
360
134
  0
DICTIONARY
  5
141
330
35
100
AcDbDictionary
280
     1
281
     1
  3
ACAD_XREC_ROUNDTRIP
360
142
  0
DICTIONARY
  5
149
330
39
100
AcDbDictionary
280
     1
281
     1
  3
ACAD_XREC_ROUNDTRIP
360
14A
  0
DICTIONARY
  5
13B
330
32
100
AcDbDictionary
280
     1
281
     1
  3
ACAD_XREC_ROUNDTRIP
360
13C
  0
DICTIONARY
  5
13F
330
34
100
AcDbDictionary
280
     1
281
     1
  3
ACAD_XREC_ROUNDTRIP
360
140
  0
DICTIONARY
  5
159
330
41
100
AcDbDictionary
280
     1
281
     1
  3
ACAD_XREC_ROUNDTRIP
360
15A
  0
DICTIONARY
  5
147
330
38
100
AcDbDictionary
280
     1
281
     1
  3
ACAD_XREC_ROUNDTRIP
360
148
  0
DICTIONARY
  5
12B
330
2A
100
AcDbDictionary
280
     1
281
     1
  3
ACAD_XREC_ROUNDTRIP
360
12C
  0
DICTIONARY
  5
12D
330
2B
100
AcDbDictionary
280
     1
281
     1
  3
ACAD_XREC_ROUNDTRIP
360
12E
  0
DICTIONARY
  5
12F
330
2C
100
AcDbDictionary
280
     1
281
     1
  3
ACAD_XREC_ROUNDTRIP
360
130
  0
DICTIONARY
  5
131
330
2D
100
AcDbDictionary
280
     1
281
     1
  3
ACAD_XREC_ROUNDTRIP
360
132
  0
DICTIONARY
  5
139
330
31
100
AcDbDictionary
280
     1
281
     1
  3
ACAD_XREC_ROUNDTRIP
360
13A
  0
DICTIONARY
  5
155
330
3F
100
AcDbDictionary
280
     1
281
     1
  3
ACAD_XREC_ROUNDTRIP
360
156
  0
DICTIONARY
  5
145
330
37
100
AcDbDictionary
280
     1
281
     1
  3
ACAD_XREC_ROUNDTRIP
360
146
  0
DICTIONARY
  5
157
330
40
100
AcDbDictionary
280
     1
281
     1
  3
ACAD_XREC_ROUNDTRIP
360
158
  0
DICTIONARY
  5
13D
330
33
100
AcDbDictionary
280
     1
281
     1
  3
ACAD_XREC_ROUNDTRIP
360
13E
  0
DICTIONARY
  5
153
330
3E
100
AcDbDictionary
280
     1
281
     1
  3
ACAD_XREC_ROUNDTRIP
360
154
  0
DICTIONARY
  5
151
330
3D
100
AcDbDictionary
280
     1
281
     1
  3
ACAD_XREC_ROUNDTRIP
360
152
  0
DICTIONARY
  5
14B
330
3A
100
AcDbDictionary
280
     1
281
     1
  3
ACAD_XREC_ROUNDTRIP
360
14C
  0
DICTIONARY
  5
14D
330
3B
100
AcDbDictionary
280
     1
281
     1
  3
ACAD_XREC_ROUNDTRIP
360
14E
  0
DICTIONARY
  5
143
330
36
100
AcDbDictionary
280
     1
281
     1
  3
ACAD_XREC_ROUNDTRIP
360
144
  0
DICTIONARY
  5
137
330
30
100
AcDbDictionary
280
     1
281
     1
  3
ACAD_XREC_ROUNDTRIP
360
138
  0
DICTIONARY
  5
14F
330
3C
100
AcDbDictionary
280
     1
281
     1
  3
ACAD_XREC_ROUNDTRIP
360
150
  0
XRECORD
  5
160
102
{ACAD_REACTORS
330
15F
102
}
330
15F
100
AcDbXrecord
280
     1
102
DISPLAYNAME
  1
Imperial24
102
FLAGS
 90
        0
  0
XRECORD
  5
1C
102
{ACAD_REACTORS
330
1A
102
}
330
1A
100
AcDbXrecord
280
     1
270
     1
271
     1
  0
XRECORD
  5
1B
102
{ACAD_REACTORS
330
1A
102
}
330
1A
100
AcDbXrecord
280
     1
270
     1
271
     1
  0
XRECORD
  5
1F
102
{ACAD_REACTORS
330
1A
102
}
330
1A
100
AcDbXrecord
280
     1
270
     1
271
     1
  0
XRECORD
  5
1E
102
{ACAD_REACTORS
330
1A
102
}
330
1A
100
AcDbXrecord
280
     1
270
     1
271
     1
  0
XRECORD
  5
20
102
{ACAD_REACTORS
330
1A
102
}
330
1A
100
AcDbXrecord
280
     1
270
     1
271
     1
  0
XRECORD
  5
1D
102
{ACAD_REACTORS
330
1A
102
}
330
1A
100
AcDbXrecord
280
     1
270
     1
271
     1
  0
XRECORD
  5
14
102
{ACAD_REACTORS
330
12
102
}
330
12
100
AcDbXrecord
280
     1
270
     1
271
     1
  0
XRECORD
  5
13
102
{ACAD_REACTORS
330
12
102
}
330
12
100
AcDbXrecord
280
     1
270
     1
271
     1
  0
XRECORD
  5
17
102
{ACAD_REACTORS
330
12
102
}
330
12
100
AcDbXrecord
280
     1
270
     1
271
     1
  0
XRECORD
  5
16
102
{ACAD_REACTORS
330
12
102
}
330
12
100
AcDbXrecord
280
     1
270
     1
271
     1
  0
XRECORD
  5
18
102
{ACAD_REACTORS
330
12
102
}
330
12
100
AcDbXrecord
280
     1
270
     1
271
     1
  0
XRECORD
  5
15
102
{ACAD_REACTORS
330
12
102
}
330
12
100
AcDbXrecord
280
     1
270
     1
271
     1
  0
XRECORD
  5
24
102
{ACAD_REACTORS
330
22
102
}
330
22
100
AcDbXrecord
280
     1
270
     1
271
     1
  0
XRECORD
  5
23
102
{ACAD_REACTORS
330
22
102
}
330
22
100
AcDbXrecord
280
     1
270
     1
271
     1
  0
XRECORD
  5
27
102
{ACAD_REACTORS
330
22
102
}
330
22
100
AcDbXrecord
280
     1
270
     1
271
     1
  0
XRECORD
  5
26
102
{ACAD_REACTORS
330
22
102
}
330
22
100
AcDbXrecord
280
     1
270
     1
271
     1
  0
XRECORD
  5
28
102
{ACAD_REACTORS
330
22
102
}
330
22
100
AcDbXrecord
280
     1
270
     1
271
     1
  0
XRECORD
  5
25
102
{ACAD_REACTORS
330
22
102
}
330
22
100
AcDbXrecord
280
     1
270
     1
271
     1
  0
XRECORD
  5
15C
102
{ACAD_REACTORS
330
15B
102
}
330
15B
100
AcDbXrecord
280
     1
102
ACAD_ROUNDTRIP_2012_MLEADER_STYLE
298
     1
  0
XRECORD
  5
15E
102
{ACAD_REACTORS
330
15D
102
}
330
15D
100
AcDbXrecord
280
     1
102
DISPLAYNAME
  1
Imperial24
102
FLAGS
 90
        0
  0
CELLSTYLEMAP
  5
129
102
{ACAD_REACTORS
330
128
102
}
330
128
100
AcDbCellStyleMap
 90
        3
300
CELLSTYLE
  1
TABLEFORMAT_BEGIN
 90
        5
170
     1
 91
        0
 92
    32768
 62
   257
 93
        1
300
CONTENTFORMAT
  1
CONTENTFORMAT_BEGIN
 90
        0
 91
        0
 92
      512
 93
        0
300

 40
0.0
140
1.0
 94
        5
 62
     0
340
55
144
0.25
309
CONTENTFORMAT_END
171
     0
 94
        0
309
TABLEFORMAT_END
  1
CELLSTYLE_BEGIN
 90
        1
 91
        1
300
_TITLE
309
CELLSTYLE_END
300
CELLSTYLE
  1
TABLEFORMAT_BEGIN
 90
        5
170
     1
 91
        0
 92
        0
 62
   257
 93
        1
300
CONTENTFORMAT
  1
CONTENTFORMAT_BEGIN
 90
        0
 91
        0
 92
      512
 93
        0
300

 40
0.0
140
1.0
 94
        5
 62
     0
340
55
144
0.18
309
CONTENTFORMAT_END
171
     0
 94
        0
309
TABLEFORMAT_END
  1
CELLSTYLE_BEGIN
 90
        2
 91
        1
300
_HEADER
309
CELLSTYLE_END
300
CELLSTYLE
  1
TABLEFORMAT_BEGIN
 90
        5
170
     1
 91
        0
 92
        0
 62
   257
 93
        1
300
CONTENTFORMAT
  1
CONTENTFORMAT_BEGIN
 90
        0
 91
        0
 92
      512
 93
        0
300

 40
0.0
140
1.0
 94
        2
 62
     0
340
55
144
0.18
309
CONTENTFORMAT_END
171
     0
 94
        0
309
TABLEFORMAT_END
  1
CELLSTYLE_BEGIN
 90
        3
 91
        2
300
_DATA
309
CELLSTYLE_END
  0
XRECORD
  5
136
102
{ACAD_REACTORS
330
135
102
}
330
135
100
AcDbXrecord
280
     1
102
RTVSPost2010Prop28
280
     1
102
RTVSPost2010PropOp28
 70
     1
102
RTVSPost2010Prop29
280
     1
102
RTVSPost2010PropOp29
 70
     1
102
RTVSPost2010Prop30
280
     0
102
RTVSPost2010PropOp30
 70
     1
102
RTVSPost2010Prop31
280
     0
102
RTVSPost2010PropOp31
 70
     1
102
RTVSPost2010Prop32
280
     0
102
RTVSPost2010PropOp32
 70
     1
102
RTVSPost2010Prop33
280
     0
102
RTVSPost2010PropOp33
 70
     1
102
RTVSPost2010Prop34
280
     0
102
RTVSPost2010PropOp34
 70
     1
102
RTVSPost2010Prop35
280
     0
102
RTVSPost2010PropOp35
 70
     1
102
RTVSPost2010Prop36
280
     0
102
RTVSPost2010PropOp36
 70
     1
102
RTVSPost2010Prop37
 90
       50
102
RTVSPost2010PropOp37
 70
     1
102
RTVSPost2010Prop38
140
0.0
102
RTVSPost2010PropOp38
 70
     1
102
RTVSPost2010Prop39
140
1.0
102
RTVSPost2010PropOp39
 70
     1
102
RTVSPost2010Prop40
 90
        0
102
RTVSPost2010PropOp40
 70
     1
102
RTVSPost2010Prop41ColorIndex
 90
       18
102
RTVSPost2010Prop41ColorRGB
 90
        0
102
RTVSPost2010PropOp41
 70
     1
102
RTVSPost2010Prop42
 90
       50
102
RTVSPost2010PropOp42
 70
     1
102
RTVSPost2010Prop43
 90
        3
102
RTVSPost2010PropOp43
 70
     1
102
RTVSPost2010Prop44ColorIndex
 90
        5
102
RTVSPost2010Prop44ColorRGB
 90
      255
102
RTVSPost2010PropOp44
 70
     1
102
RTVSPost2010Prop45
280
     0
102
RTVSPost2010PropOp45
 70
     1
102
RTVSPost2010Prop46
 90
       50
102
RTVSPost2010PropOp46
 70
     1
102
RTVSPost2010Prop47
 90
       50
102
RTVSPost2010PropOp47
 70
     1
102
RTVSPost2010Prop48
 90
       50
102
RTVSPost2010PropOp48
 70
     1
102
RTVSPost2010Prop49
280
     0
102
RTVSPost2010PropOp49
 70
     1
102
RTVSPost2010Prop50
 90
       50
102
RTVSPost2010PropOp50
 70
     1
102
RTVSPost2010Prop51ColorIndex
 90
      256
102
RTVSPost2010Prop51ColorRGB
 90
-16777216
102
RTVSPost2010PropOp51
 70
     0
102
RTVSPost2010Prop52
140
1.0
102
RTVSPost2010PropOp52
 70
     0
102
RTVSPost2010Prop53
 90
        2
102
RTVSPost2010PropOp53
 70
     1
102
RTVSPost2010Prop54
  1
strokes_ogs.tif
102
RTVSPost2010PropOp54
 70
     1
102
RTVSPost2010Prop55
280
     0
102
RTVSPost2010PropOp55
 70
     1
102
RTVSPost2010Prop56
140
1.0
102
RTVSPost2010PropOp56
 70
     1
102
RTVSPost2010Prop57
140
1.0
102
RTVSPost2010PropOp57
 70
     1
  0
XRECORD
  5
134
102
{ACAD_REACTORS
330
133
102
}
330
133
100
AcDbXrecord
280
     1
102
RTVSPost2010Prop28
280
     0
102
RTVSPost2010PropOp28
 70
     1
102
RTVSPost2010Prop29
280
     1
102
RTVSPost2010PropOp29
 70
     1
102
RTVSPost2010Prop30
280
     1
102
RTVSPost2010PropOp30
 70
     1
102
RTVSPost2010Prop31
280
     0
102
RTVSPost2010PropOp31
 70
     1
102
RTVSPost2010Prop32
280
     0
102
RTVSPost2010PropOp32
 70
     1
102
RTVSPost2010Prop33
280
     0
102
RTVSPost2010PropOp33
 70
     1
102
RTVSPost2010Prop34
280
     0
102
RTVSPost2010PropOp34
 70
     1
102
RTVSPost2010Prop35
280
     0
102
RTVSPost2010PropOp35
 70
     1
102
RTVSPost2010Prop36
280
     0
102
RTVSPost2010PropOp36
 70
     1
102
RTVSPost2010Prop37
 90
       50
102
RTVSPost2010PropOp37
 70
     1
102
RTVSPost2010Prop38
140
0.0
102
RTVSPost2010PropOp38
 70
     1
102
RTVSPost2010Prop39
140
1.0
102
RTVSPost2010PropOp39
 70
     1
102
RTVSPost2010Prop40
 90
        0
102
RTVSPost2010PropOp40
 70
     1
102
RTVSPost2010Prop41ColorIndex
 90
       18
102
RTVSPost2010Prop41ColorRGB
 90
        0
102
RTVSPost2010PropOp41
 70
     1
102
RTVSPost2010Prop42
 90
       50
102
RTVSPost2010PropOp42
 70
     1
102
RTVSPost2010Prop43
 90
        3
102
RTVSPost2010PropOp43
 70
     1
102
RTVSPost2010Prop44ColorIndex
 90
        5
102
RTVSPost2010Prop44ColorRGB
 90
      255
102
RTVSPost2010PropOp44
 70
     1
102
RTVSPost2010Prop45
280
     0
102
RTVSPost2010PropOp45
 70
     1
102
RTVSPost2010Prop46
 90
       50
102
RTVSPost2010PropOp46
 70
     1
102
RTVSPost2010Prop47
 90
       50
102
RTVSPost2010PropOp47
 70
     1
102
RTVSPost2010Prop48
 90
       50
102
RTVSPost2010PropOp48
 70
     1
102
RTVSPost2010Prop49
280
     0
102
RTVSPost2010PropOp49
 70
     1
102
RTVSPost2010Prop50
 90
       50
102
RTVSPost2010PropOp50
 70
     1
102
RTVSPost2010Prop51ColorIndex
 90
      256
102
RTVSPost2010Prop51ColorRGB
 90
-16777216
102
RTVSPost2010PropOp51
 70
     0
102
RTVSPost2010Prop52
140
1.0
102
RTVSPost2010PropOp52
 70
     0
102
RTVSPost2010Prop53
 90
        2
102
RTVSPost2010PropOp53
 70
     1
102
RTVSPost2010Prop54
  1
strokes_ogs.tif
102
RTVSPost2010PropOp54
 70
     1
102
RTVSPost2010Prop55
280
     0
102
RTVSPost2010PropOp55
 70
     1
102
RTVSPost2010Prop56
140
1.0
102
RTVSPost2010PropOp56
 70
     1
102
RTVSPost2010Prop57
140
1.0
102
RTVSPost2010PropOp57
 70
     1
  0
XRECORD
  5
142
102
{ACAD_REACTORS
330
141
102
}
330
141
100
AcDbXrecord
280
     1
102
RTVSPost2010Prop28
280
     0
102
RTVSPost2010PropOp28
 70
     1
102
RTVSPost2010Prop29
280
     1
102
RTVSPost2010PropOp29
 70
     1
102
RTVSPost2010Prop30
280
     1
102
RTVSPost2010PropOp30
 70
     1
102
RTVSPost2010Prop31
280
     0
102
RTVSPost2010PropOp31
 70
     1
102
RTVSPost2010Prop32
280
     0
102
RTVSPost2010PropOp32
 70
     1
102
RTVSPost2010Prop33
280
     0
102
RTVSPost2010PropOp33
 70
     1
102
RTVSPost2010Prop34
280
     0
102
RTVSPost2010PropOp34
 70
     1
102
RTVSPost2010Prop35
280
     0
102
RTVSPost2010PropOp35
 70
     1
102
RTVSPost2010Prop36
280
     0
102
RTVSPost2010PropOp36
 70
     1
102
RTVSPost2010Prop37
 90
       50
102
RTVSPost2010PropOp37
 70
     1
102
RTVSPost2010Prop38
140
0.0
102
RTVSPost2010PropOp38
 70
     1
102
RTVSPost2010Prop39
140
1.0
102
RTVSPost2010PropOp39
 70
     1
102
RTVSPost2010Prop40
 90
        0
102
RTVSPost2010PropOp40
 70
     1
102
RTVSPost2010Prop41ColorIndex
 90
       18
102
RTVSPost2010Prop41ColorRGB
 90
        0
102
RTVSPost2010PropOp41
 70
     1
102
RTVSPost2010Prop42
 90
       50
102
RTVSPost2010PropOp42
 70
     1
102
RTVSPost2010Prop43
 90
        3
102
RTVSPost2010PropOp43
 70
     1
102
RTVSPost2010Prop44ColorIndex
 90
        5
102
RTVSPost2010Prop44ColorRGB
 90
      255
102
RTVSPost2010PropOp44
 70
     1
102
RTVSPost2010Prop45
280
     0
102
RTVSPost2010PropOp45
 70
     1
102
RTVSPost2010Prop46
 90
       50
102
RTVSPost2010PropOp46
 70
     1
102
RTVSPost2010Prop47
 90
       50
102
RTVSPost2010PropOp47
 70
     1
102
RTVSPost2010Prop48
 90
       50
102
RTVSPost2010PropOp48
 70
     1
102
RTVSPost2010Prop49
280
     0
102
RTVSPost2010PropOp49
 70
     1
102
RTVSPost2010Prop50
 90
       50
102
RTVSPost2010PropOp50
 70
     1
102
RTVSPost2010Prop51ColorIndex
 90
      256
102
RTVSPost2010Prop51ColorRGB
 90
-16777216
102
RTVSPost2010PropOp51
 70
     0
102
RTVSPost2010Prop52
140
1.0
102
RTVSPost2010PropOp52
 70
     0
102
RTVSPost2010Prop53
 90
        2
102
RTVSPost2010PropOp53
 70
     1
102
RTVSPost2010Prop54
  1
strokes_ogs.tif
102
RTVSPost2010PropOp54
 70
     1
102
RTVSPost2010Prop55
280
     0
102
RTVSPost2010PropOp55
 70
     1
102
RTVSPost2010Prop56
140
1.0
102
RTVSPost2010PropOp56
 70
     1
102
RTVSPost2010Prop57
140
1.0
102
RTVSPost2010PropOp57
 70
     1
  0
XRECORD
  5
14A
102
{ACAD_REACTORS
330
149
102
}
330
149
100
AcDbXrecord
280
     1
102
RTVSPost2010Prop28
280
     0
102
RTVSPost2010PropOp28
 70
     1
102
RTVSPost2010Prop29
280
     1
102
RTVSPost2010PropOp29
 70
     1
102
RTVSPost2010Prop30
280
     1
102
RTVSPost2010PropOp30
 70
     1
102
RTVSPost2010Prop31
280
     0
102
RTVSPost2010PropOp31
 70
     1
102
RTVSPost2010Prop32
280
     0
102
RTVSPost2010PropOp32
 70
     1
102
RTVSPost2010Prop33
280
     0
102
RTVSPost2010PropOp33
 70
     1
102
RTVSPost2010Prop34
280
     0
102
RTVSPost2010PropOp34
 70
     1
102
RTVSPost2010Prop35
280
     0
102
RTVSPost2010PropOp35
 70
     1
102
RTVSPost2010Prop36
280
     0
102
RTVSPost2010PropOp36
 70
     1
102
RTVSPost2010Prop37
 90
       50
102
RTVSPost2010PropOp37
 70
     1
102
RTVSPost2010Prop38
140
0.0
102
RTVSPost2010PropOp38
 70
     1
102
RTVSPost2010Prop39
140
1.0
102
RTVSPost2010PropOp39
 70
     1
102
RTVSPost2010Prop40
 90
        0
102
RTVSPost2010PropOp40
 70
     1
102
RTVSPost2010Prop41ColorIndex
 90
       18
102
RTVSPost2010Prop41ColorRGB
 90
        0
102
RTVSPost2010PropOp41
 70
     1
102
RTVSPost2010Prop42
 90
       50
102
RTVSPost2010PropOp42
 70
     1
102
RTVSPost2010Prop43
 90
        3
102
RTVSPost2010PropOp43
 70
     1
102
RTVSPost2010Prop44ColorIndex
 90
        5
102
RTVSPost2010Prop44ColorRGB
 90
      255
102
RTVSPost2010PropOp44
 70
     1
102
RTVSPost2010Prop45
280
     0
102
RTVSPost2010PropOp45
 70
     1
102
RTVSPost2010Prop46
 90
       50
102
RTVSPost2010PropOp46
 70
     1
102
RTVSPost2010Prop47
 90
       50
102
RTVSPost2010PropOp47
 70
     1
102
RTVSPost2010Prop48
 90
       50
102
RTVSPost2010PropOp48
 70
     1
102
RTVSPost2010Prop49
280
     0
102
RTVSPost2010PropOp49
 70
     1
102
RTVSPost2010Prop50
 90
       50
102
RTVSPost2010PropOp50
 70
     1
102
RTVSPost2010Prop51ColorIndex
 90
      256
102
RTVSPost2010Prop51ColorRGB
 90
-16777216
102
RTVSPost2010PropOp51
 70
     0
102
RTVSPost2010Prop52
140
1.0
102
RTVSPost2010PropOp52
 70
     0
102
RTVSPost2010Prop53
 90
        2
102
RTVSPost2010PropOp53
 70
     1
102
RTVSPost2010Prop54
  1
strokes_ogs.tif
102
RTVSPost2010PropOp54
 70
     1
102
RTVSPost2010Prop55
280
     0
102
RTVSPost2010PropOp55
 70
     1
102
RTVSPost2010Prop56
140
1.0
102
RTVSPost2010PropOp56
 70
     1
102
RTVSPost2010Prop57
140
1.0
102
RTVSPost2010PropOp57
 70
     1
  0
XRECORD
  5
13C
102
{ACAD_REACTORS
330
13B
102
}
330
13B
100
AcDbXrecord
280
     1
102
RTVSPost2010Prop28
280
     0
102
RTVSPost2010PropOp28
 70
     1
102
RTVSPost2010Prop29
280
     1
102
RTVSPost2010PropOp29
 70
     1
102
RTVSPost2010Prop30
280
     1
102
RTVSPost2010PropOp30
 70
     1
102
RTVSPost2010Prop31
280
     0
102
RTVSPost2010PropOp31
 70
     1
102
RTVSPost2010Prop32
280
     0
102
RTVSPost2010PropOp32
 70
     1
102
RTVSPost2010Prop33
280
     0
102
RTVSPost2010PropOp33
 70
     1
102
RTVSPost2010Prop34
280
     0
102
RTVSPost2010PropOp34
 70
     1
102
RTVSPost2010Prop35
280
     0
102
RTVSPost2010PropOp35
 70
     1
102
RTVSPost2010Prop36
280
     0
102
RTVSPost2010PropOp36
 70
     1
102
RTVSPost2010Prop37
 90
       50
102
RTVSPost2010PropOp37
 70
     1
102
RTVSPost2010Prop38
140
0.0
102
RTVSPost2010PropOp38
 70
     1
102
RTVSPost2010Prop39
140
1.0
102
RTVSPost2010PropOp39
 70
     1
102
RTVSPost2010Prop40
 90
        0
102
RTVSPost2010PropOp40
 70
     1
102
RTVSPost2010Prop41ColorIndex
 90
       18
102
RTVSPost2010Prop41ColorRGB
 90
        0
102
RTVSPost2010PropOp41
 70
     1
102
RTVSPost2010Prop42
 90
       50
102
RTVSPost2010PropOp42
 70
     1
102
RTVSPost2010Prop43
 90
        3
102
RTVSPost2010PropOp43
 70
     1
102
RTVSPost2010Prop44ColorIndex
 90
        5
102
RTVSPost2010Prop44ColorRGB
 90
      255
102
RTVSPost2010PropOp44
 70
     1
102
RTVSPost2010Prop45
280
     0
102
RTVSPost2010PropOp45
 70
     1
102
RTVSPost2010Prop46
 90
       50
102
RTVSPost2010PropOp46
 70
     1
102
RTVSPost2010Prop47
 90
       50
102
RTVSPost2010PropOp47
 70
     1
102
RTVSPost2010Prop48
 90
       50
102
RTVSPost2010PropOp48
 70
     1
102
RTVSPost2010Prop49
280
     0
102
RTVSPost2010PropOp49
 70
     1
102
RTVSPost2010Prop50
 90
       50
102
RTVSPost2010PropOp50
 70
     1
102
RTVSPost2010Prop51ColorIndex
 90
      256
102
RTVSPost2010Prop51ColorRGB
 90
-16777216
102
RTVSPost2010PropOp51
 70
     0
102
RTVSPost2010Prop52
140
1.0
102
RTVSPost2010PropOp52
 70
     0
102
RTVSPost2010Prop53
 90
        2
102
RTVSPost2010PropOp53
 70
     1
102
RTVSPost2010Prop54
  1
strokes_ogs.tif
102
RTVSPost2010PropOp54
 70
     1
102
RTVSPost2010Prop55
280
     0
102
RTVSPost2010PropOp55
 70
     1
102
RTVSPost2010Prop56
140
1.0
102
RTVSPost2010PropOp56
 70
     1
102
RTVSPost2010Prop57
140
1.0
102
RTVSPost2010PropOp57
 70
     1
  0
XRECORD
  5
140
102
{ACAD_REACTORS
330
13F
102
}
330
13F
100
AcDbXrecord
280
     1
102
RTVSPost2010Prop28
280
     0
102
RTVSPost2010PropOp28
 70
     1
102
RTVSPost2010Prop29
280
     1
102
RTVSPost2010PropOp29
 70
     1
102
RTVSPost2010Prop30
280
     1
102
RTVSPost2010PropOp30
 70
     1
102
RTVSPost2010Prop31
280
     0
102
RTVSPost2010PropOp31
 70
     1
102
RTVSPost2010Prop32
280
     0
102
RTVSPost2010PropOp32
 70
     1
102
RTVSPost2010Prop33
280
     0
102
RTVSPost2010PropOp33
 70
     1
102
RTVSPost2010Prop34
280
     0
102
RTVSPost2010PropOp34
 70
     1
102
RTVSPost2010Prop35
280
     0
102
RTVSPost2010PropOp35
 70
     1
102
RTVSPost2010Prop36
280
     0
102
RTVSPost2010PropOp36
 70
     1
102
RTVSPost2010Prop37
 90
       50
102
RTVSPost2010PropOp37
 70
     1
102
RTVSPost2010Prop38
140
0.0
102
RTVSPost2010PropOp38
 70
     1
102
RTVSPost2010Prop39
140
1.0
102
RTVSPost2010PropOp39
 70
     1
102
RTVSPost2010Prop40
 90
        0
102
RTVSPost2010PropOp40
 70
     1
102
RTVSPost2010Prop41ColorIndex
 90
       18
102
RTVSPost2010Prop41ColorRGB
 90
        0
102
RTVSPost2010PropOp41
 70
     1
102
RTVSPost2010Prop42
 90
       50
102
RTVSPost2010PropOp42
 70
     1
102
RTVSPost2010Prop43
 90
        3
102
RTVSPost2010PropOp43
 70
     1
102
RTVSPost2010Prop44ColorIndex
 90
        5
102
RTVSPost2010Prop44ColorRGB
 90
      255
102
RTVSPost2010PropOp44
 70
     1
102
RTVSPost2010Prop45
280
     0
102
RTVSPost2010PropOp45
 70
     1
102
RTVSPost2010Prop46
 90
       50
102
RTVSPost2010PropOp46
 70
     1
102
RTVSPost2010Prop47
 90
       50
102
RTVSPost2010PropOp47
 70
     1
102
RTVSPost2010Prop48
 90
       50
102
RTVSPost2010PropOp48
 70
     1
102
RTVSPost2010Prop49
280
     0
102
RTVSPost2010PropOp49
 70
     1
102
RTVSPost2010Prop50
 90
       50
102
RTVSPost2010PropOp50
 70
     1
102
RTVSPost2010Prop51ColorIndex
 90
      256
102
RTVSPost2010Prop51ColorRGB
 90
-16777216
102
RTVSPost2010PropOp51
 70
     0
102
RTVSPost2010Prop52
140
1.0
102
RTVSPost2010PropOp52
 70
     0
102
RTVSPost2010Prop53
 90
        2
102
RTVSPost2010PropOp53
 70
     1
102
RTVSPost2010Prop54
  1
strokes_ogs.tif
102
RTVSPost2010PropOp54
 70
     1
102
RTVSPost2010Prop55
280
     0
102
RTVSPost2010PropOp55
 70
     1
102
RTVSPost2010Prop56
140
1.0
102
RTVSPost2010PropOp56
 70
     1
102
RTVSPost2010Prop57
140
1.0
102
RTVSPost2010PropOp57
 70
     1
  0
XRECORD
  5
15A
102
{ACAD_REACTORS
330
159
102
}
330
159
100
AcDbXrecord
280
     1
102
RTVSPost2010Prop28
280
     0
102
RTVSPost2010PropOp28
 70
     0
102
RTVSPost2010Prop29
280
     1
102
RTVSPost2010PropOp29
 70
     0
102
RTVSPost2010Prop30
280
     1
102
RTVSPost2010PropOp30
 70
     0
102
RTVSPost2010Prop31
280
     0
102
RTVSPost2010PropOp31
 70
     0
102
RTVSPost2010Prop32
280
     0
102
RTVSPost2010PropOp32
 70
     0
102
RTVSPost2010Prop33
280
     0
102
RTVSPost2010PropOp33
 70
     0
102
RTVSPost2010Prop34
280
     0
102
RTVSPost2010PropOp34
 70
     0
102
RTVSPost2010Prop35
280
     0
102
RTVSPost2010PropOp35
 70
     0
102
RTVSPost2010Prop36
280
     0
102
RTVSPost2010PropOp36
 70
     0
102
RTVSPost2010Prop37
 90
       50
102
RTVSPost2010PropOp37
 70
     0
102
RTVSPost2010Prop38
140
0.0
102
RTVSPost2010PropOp38
 70
     0
102
RTVSPost2010Prop39
140
1.0
102
RTVSPost2010PropOp39
 70
     0
102
RTVSPost2010Prop40
 90
        0
102
RTVSPost2010PropOp40
 70
     0
102
RTVSPost2010Prop41ColorIndex
 90
       18
102
RTVSPost2010Prop41ColorRGB
 90
        0
102
RTVSPost2010PropOp41
 70
     0
102
RTVSPost2010Prop42
 90
       50
102
RTVSPost2010PropOp42
 70
     0
102
RTVSPost2010Prop43
 90
        3
102
RTVSPost2010PropOp43
 70
     0
102
RTVSPost2010Prop44ColorIndex
 90
        5
102
RTVSPost2010Prop44ColorRGB
 90
      255
102
RTVSPost2010PropOp44
 70
     0
102
RTVSPost2010Prop45
280
     0
102
RTVSPost2010PropOp45
 70
     0
102
RTVSPost2010Prop46
 90
       50
102
RTVSPost2010PropOp46
 70
     0
102
RTVSPost2010Prop47
 90
       50
102
RTVSPost2010PropOp47
 70
     0
102
RTVSPost2010Prop48
 90
       50
102
RTVSPost2010PropOp48
 70
     0
102
RTVSPost2010Prop49
280
     0
102
RTVSPost2010PropOp49
 70
     0
102
RTVSPost2010Prop50
 90
       50
102
RTVSPost2010PropOp50
 70
     0
102
RTVSPost2010Prop51ColorIndex
 90
      256
102
RTVSPost2010Prop51ColorRGB
 90
-16777216
102
RTVSPost2010PropOp51
 70
     0
102
RTVSPost2010Prop52
140
1.0
102
RTVSPost2010PropOp52
 70
     0
102
RTVSPost2010Prop53
 90
        2
102
RTVSPost2010PropOp53
 70
     0
102
RTVSPost2010Prop54
  1
strokes_ogs.tif
102
RTVSPost2010PropOp54
 70
     0
102
RTVSPost2010Prop55
280
     0
102
RTVSPost2010PropOp55
 70
     0
102
RTVSPost2010Prop56
140
1.0
102
RTVSPost2010PropOp56
 70
     0
102
RTVSPost2010Prop57
140
1.0
102
RTVSPost2010PropOp57
 70
     0
  0
XRECORD
  5
148
102
{ACAD_REACTORS
330
147
102
}
330
147
100
AcDbXrecord
280
     1
102
RTVSPost2010Prop28
280
     0
102
RTVSPost2010PropOp28
 70
     1
102
RTVSPost2010Prop29
280
     1
102
RTVSPost2010PropOp29
 70
     1
102
RTVSPost2010Prop30
280
     1
102
RTVSPost2010PropOp30
 70
     1
102
RTVSPost2010Prop31
280
     0
102
RTVSPost2010PropOp31
 70
     1
102
RTVSPost2010Prop32
280
     0
102
RTVSPost2010PropOp32
 70
     1
102
RTVSPost2010Prop33
280
     0
102
RTVSPost2010PropOp33
 70
     1
102
RTVSPost2010Prop34
280
     0
102
RTVSPost2010PropOp34
 70
     1
102
RTVSPost2010Prop35
280
     0
102
RTVSPost2010PropOp35
 70
     1
102
RTVSPost2010Prop36
280
     0
102
RTVSPost2010PropOp36
 70
     1
102
RTVSPost2010Prop37
 90
       50
102
RTVSPost2010PropOp37
 70
     1
102
RTVSPost2010Prop38
140
0.0
102
RTVSPost2010PropOp38
 70
     1
102
RTVSPost2010Prop39
140
1.0
102
RTVSPost2010PropOp39
 70
     1
102
RTVSPost2010Prop40
 90
        0
102
RTVSPost2010PropOp40
 70
     1
102
RTVSPost2010Prop41ColorIndex
 90
       18
102
RTVSPost2010Prop41ColorRGB
 90
        0
102
RTVSPost2010PropOp41
 70
     1
102
RTVSPost2010Prop42
 90
       50
102
RTVSPost2010PropOp42
 70
     1
102
RTVSPost2010Prop43
 90
        3
102
RTVSPost2010PropOp43
 70
     1
102
RTVSPost2010Prop44ColorIndex
 90
        5
102
RTVSPost2010Prop44ColorRGB
 90
      255
102
RTVSPost2010PropOp44
 70
     1
102
RTVSPost2010Prop45
280
     0
102
RTVSPost2010PropOp45
 70
     1
102
RTVSPost2010Prop46
 90
       50
102
RTVSPost2010PropOp46
 70
     1
102
RTVSPost2010Prop47
 90
       50
102
RTVSPost2010PropOp47
 70
     1
102
RTVSPost2010Prop48
 90
       50
102
RTVSPost2010PropOp48
 70
     1
102
RTVSPost2010Prop49
280
     0
102
RTVSPost2010PropOp49
 70
     1
102
RTVSPost2010Prop50
 90
       50
102
RTVSPost2010PropOp50
 70
     1
102
RTVSPost2010Prop51ColorIndex
 90
      256
102
RTVSPost2010Prop51ColorRGB
 90
-16777216
102
RTVSPost2010PropOp51
 70
     0
102
RTVSPost2010Prop52
140
1.0
102
RTVSPost2010PropOp52
 70
     0
102
RTVSPost2010Prop53
 90
        2
102
RTVSPost2010PropOp53
 70
     1
102
RTVSPost2010Prop54
  1
strokes_ogs.tif
102
RTVSPost2010PropOp54
 70
     1
102
RTVSPost2010Prop55
280
     0
102
RTVSPost2010PropOp55
 70
     1
102
RTVSPost2010Prop56
140
1.0
102
RTVSPost2010PropOp56
 70
     1
102
RTVSPost2010Prop57
140
1.0
102
RTVSPost2010PropOp57
 70
     1
  0
XRECORD
  5
12C
102
{ACAD_REACTORS
330
12B
102
}
330
12B
100
AcDbXrecord
280
     1
102
RTVSPost2010Prop28
280
     0
102
RTVSPost2010PropOp28
 70
     1
102
RTVSPost2010Prop29
280
     1
102
RTVSPost2010PropOp29
 70
     1
102
RTVSPost2010Prop30
280
     1
102
RTVSPost2010PropOp30
 70
     1
102
RTVSPost2010Prop31
280
     0
102
RTVSPost2010PropOp31
 70
     1
102
RTVSPost2010Prop32
280
     0
102
RTVSPost2010PropOp32
 70
     1
102
RTVSPost2010Prop33
280
     0
102
RTVSPost2010PropOp33
 70
     1
102
RTVSPost2010Prop34
280
     0
102
RTVSPost2010PropOp34
 70
     1
102
RTVSPost2010Prop35
280
     0
102
RTVSPost2010PropOp35
 70
     1
102
RTVSPost2010Prop36
280
     0
102
RTVSPost2010PropOp36
 70
     1
102
RTVSPost2010Prop37
 90
       50
102
RTVSPost2010PropOp37
 70
     1
102
RTVSPost2010Prop38
140
0.0
102
RTVSPost2010PropOp38
 70
     1
102
RTVSPost2010Prop39
140
1.0
102
RTVSPost2010PropOp39
 70
     1
102
RTVSPost2010Prop40
 90
        0
102
RTVSPost2010PropOp40
 70
     1
102
RTVSPost2010Prop41ColorIndex
 90
       18
102
RTVSPost2010Prop41ColorRGB
 90
        0
102
RTVSPost2010PropOp41
 70
     1
102
RTVSPost2010Prop42
 90
       50
102
RTVSPost2010PropOp42
 70
     1
102
RTVSPost2010Prop43
 90
        3
102
RTVSPost2010PropOp43
 70
     1
102
RTVSPost2010Prop44ColorIndex
 90
        5
102
RTVSPost2010Prop44ColorRGB
 90
      255
102
RTVSPost2010PropOp44
 70
     1
102
RTVSPost2010Prop45
280
     0
102
RTVSPost2010PropOp45
 70
     1
102
RTVSPost2010Prop46
 90
       50
102
RTVSPost2010PropOp46
 70
     1
102
RTVSPost2010Prop47
 90
       50
102
RTVSPost2010PropOp47
 70
     1
102
RTVSPost2010Prop48
 90
       50
102
RTVSPost2010PropOp48
 70
     1
102
RTVSPost2010Prop49
280
     0
102
RTVSPost2010PropOp49
 70
     1
102
RTVSPost2010Prop50
 90
       50
102
RTVSPost2010PropOp50
 70
     1
102
RTVSPost2010Prop51ColorIndex
 90
      256
102
RTVSPost2010Prop51ColorRGB
 90
-16777216
102
RTVSPost2010PropOp51
 70
     0
102
RTVSPost2010Prop52
140
1.0
102
RTVSPost2010PropOp52
 70
     0
102
RTVSPost2010Prop53
 90
        2
102
RTVSPost2010PropOp53
 70
     1
102
RTVSPost2010Prop54
  1
strokes_ogs.tif
102
RTVSPost2010PropOp54
 70
     1
102
RTVSPost2010Prop55
280
     0
102
RTVSPost2010PropOp55
 70
     1
102
RTVSPost2010Prop56
140
1.0
102
RTVSPost2010PropOp56
 70
     1
102
RTVSPost2010Prop57
140
1.0
102
RTVSPost2010PropOp57
 70
     1
  0
XRECORD
  5
12E
102
{ACAD_REACTORS
330
12D
102
}
330
12D
100
AcDbXrecord
280
     1
102
RTVSPost2010Prop28
280
     0
102
RTVSPost2010PropOp28
 70
     1
102
RTVSPost2010Prop29
280
     1
102
RTVSPost2010PropOp29
 70
     1
102
RTVSPost2010Prop30
280
     1
102
RTVSPost2010PropOp30
 70
     1
102
RTVSPost2010Prop31
280
     0
102
RTVSPost2010PropOp31
 70
     1
102
RTVSPost2010Prop32
280
     0
102
RTVSPost2010PropOp32
 70
     1
102
RTVSPost2010Prop33
280
     0
102
RTVSPost2010PropOp33
 70
     1
102
RTVSPost2010Prop34
280
     0
102
RTVSPost2010PropOp34
 70
     1
102
RTVSPost2010Prop35
280
     0
102
RTVSPost2010PropOp35
 70
     1
102
RTVSPost2010Prop36
280
     0
102
RTVSPost2010PropOp36
 70
     1
102
RTVSPost2010Prop37
 90
       50
102
RTVSPost2010PropOp37
 70
     1
102
RTVSPost2010Prop38
140
0.0
102
RTVSPost2010PropOp38
 70
     1
102
RTVSPost2010Prop39
140
1.0
102
RTVSPost2010PropOp39
 70
     1
102
RTVSPost2010Prop40
 90
        0
102
RTVSPost2010PropOp40
 70
     1
102
RTVSPost2010Prop41ColorIndex
 90
       18
102
RTVSPost2010Prop41ColorRGB
 90
        0
102
RTVSPost2010PropOp41
 70
     1
102
RTVSPost2010Prop42
 90
       50
102
RTVSPost2010PropOp42
 70
     1
102
RTVSPost2010Prop43
 90
        3
102
RTVSPost2010PropOp43
 70
     1
102
RTVSPost2010Prop44ColorIndex
 90
        5
102
RTVSPost2010Prop44ColorRGB
 90
      255
102
RTVSPost2010PropOp44
 70
     1
102
RTVSPost2010Prop45
280
     0
102
RTVSPost2010PropOp45
 70
     1
102
RTVSPost2010Prop46
 90
       50
102
RTVSPost2010PropOp46
 70
     1
102
RTVSPost2010Prop47
 90
       50
102
RTVSPost2010PropOp47
 70
     1
102
RTVSPost2010Prop48
 90
       50
102
RTVSPost2010PropOp48
 70
     1
102
RTVSPost2010Prop49
280
     0
102
RTVSPost2010PropOp49
 70
     1
102
RTVSPost2010Prop50
 90
       50
102
RTVSPost2010PropOp50
 70
     1
102
RTVSPost2010Prop51ColorIndex
 90
      256
102
RTVSPost2010Prop51ColorRGB
 90
-16777216
102
RTVSPost2010PropOp51
 70
     0
102
RTVSPost2010Prop52
140
1.0
102
RTVSPost2010PropOp52
 70
     0
102
RTVSPost2010Prop53
 90
        2
102
RTVSPost2010PropOp53
 70
     1
102
RTVSPost2010Prop54
  1
strokes_ogs.tif
102
RTVSPost2010PropOp54
 70
     1
102
RTVSPost2010Prop55
280
     0
102
RTVSPost2010PropOp55
 70
     1
102
RTVSPost2010Prop56
140
1.0
102
RTVSPost2010PropOp56
 70
     1
102
RTVSPost2010Prop57
140
1.0
102
RTVSPost2010PropOp57
 70
     1
  0
XRECORD
  5
130
102
{ACAD_REACTORS
330
12F
102
}
330
12F
100
AcDbXrecord
280
     1
102
RTVSPost2010Prop28
280
     0
102
RTVSPost2010PropOp28
 70
     1
102
RTVSPost2010Prop29
280
     1
102
RTVSPost2010PropOp29
 70
     1
102
RTVSPost2010Prop30
280
     1
102
RTVSPost2010PropOp30
 70
     1
102
RTVSPost2010Prop31
280
     0
102
RTVSPost2010PropOp31
 70
     1
102
RTVSPost2010Prop32
280
     0
102
RTVSPost2010PropOp32
 70
     1
102
RTVSPost2010Prop33
280
     0
102
RTVSPost2010PropOp33
 70
     1
102
RTVSPost2010Prop34
280
     0
102
RTVSPost2010PropOp34
 70
     1
102
RTVSPost2010Prop35
280
     0
102
RTVSPost2010PropOp35
 70
     1
102
RTVSPost2010Prop36
280
     0
102
RTVSPost2010PropOp36
 70
     1
102
RTVSPost2010Prop37
 90
       50
102
RTVSPost2010PropOp37
 70
     1
102
RTVSPost2010Prop38
140
0.0
102
RTVSPost2010PropOp38
 70
     1
102
RTVSPost2010Prop39
140
1.0
102
RTVSPost2010PropOp39
 70
     1
102
RTVSPost2010Prop40
 90
        0
102
RTVSPost2010PropOp40
 70
     1
102
RTVSPost2010Prop41ColorIndex
 90
       18
102
RTVSPost2010Prop41ColorRGB
 90
        0
102
RTVSPost2010PropOp41
 70
     1
102
RTVSPost2010Prop42
 90
       50
102
RTVSPost2010PropOp42
 70
     1
102
RTVSPost2010Prop43
 90
        3
102
RTVSPost2010PropOp43
 70
     1
102
RTVSPost2010Prop44ColorIndex
 90
        5
102
RTVSPost2010Prop44ColorRGB
 90
      255
102
RTVSPost2010PropOp44
 70
     1
102
RTVSPost2010Prop45
280
     0
102
RTVSPost2010PropOp45
 70
     1
102
RTVSPost2010Prop46
 90
       50
102
RTVSPost2010PropOp46
 70
     1
102
RTVSPost2010Prop47
 90
       50
102
RTVSPost2010PropOp47
 70
     1
102
RTVSPost2010Prop48
 90
       50
102
RTVSPost2010PropOp48
 70
     1
102
RTVSPost2010Prop49
280
     0
102
RTVSPost2010PropOp49
 70
     1
102
RTVSPost2010Prop50
 90
       50
102
RTVSPost2010PropOp50
 70
     1
102
RTVSPost2010Prop51ColorIndex
 90
      256
102
RTVSPost2010Prop51ColorRGB
 90
-16777216
102
RTVSPost2010PropOp51
 70
     0
102
RTVSPost2010Prop52
140
1.0
102
RTVSPost2010PropOp52
 70
     0
102
RTVSPost2010Prop53
 90
        2
102
RTVSPost2010PropOp53
 70
     1
102
RTVSPost2010Prop54
  1
strokes_ogs.tif
102
RTVSPost2010PropOp54
 70
     1
102
RTVSPost2010Prop55
280
     0
102
RTVSPost2010PropOp55
 70
     1
102
RTVSPost2010Prop56
140
1.0
102
RTVSPost2010PropOp56
 70
     1
102
RTVSPost2010Prop57
140
1.0
102
RTVSPost2010PropOp57
 70
     1
  0
XRECORD
  5
132
102
{ACAD_REACTORS
330
131
102
}
330
131
100
AcDbXrecord
280
     1
102
RTVSPost2010Prop28
280
     0
102
RTVSPost2010PropOp28
 70
     1
102
RTVSPost2010Prop29
280
     1
102
RTVSPost2010PropOp29
 70
     1
102
RTVSPost2010Prop30
280
     1
102
RTVSPost2010PropOp30
 70
     1
102
RTVSPost2010Prop31
280
     0
102
RTVSPost2010PropOp31
 70
     1
102
RTVSPost2010Prop32
280
     0
102
RTVSPost2010PropOp32
 70
     1
102
RTVSPost2010Prop33
280
     0
102
RTVSPost2010PropOp33
 70
     1
102
RTVSPost2010Prop34
280
     0
102
RTVSPost2010PropOp34
 70
     1
102
RTVSPost2010Prop35
280
     0
102
RTVSPost2010PropOp35
 70
     1
102
RTVSPost2010Prop36
280
     0
102
RTVSPost2010PropOp36
 70
     1
102
RTVSPost2010Prop37
 90
       50
102
RTVSPost2010PropOp37
 70
     1
102
RTVSPost2010Prop38
140
0.0
102
RTVSPost2010PropOp38
 70
     1
102
RTVSPost2010Prop39
140
1.0
102
RTVSPost2010PropOp39
 70
     1
102
RTVSPost2010Prop40
 90
        0
102
RTVSPost2010PropOp40
 70
     1
102
RTVSPost2010Prop41ColorIndex
 90
       18
102
RTVSPost2010Prop41ColorRGB
 90
        0
102
RTVSPost2010PropOp41
 70
     1
102
RTVSPost2010Prop42
 90
       50
102
RTVSPost2010PropOp42
 70
     1
102
RTVSPost2010Prop43
 90
        3
102
RTVSPost2010PropOp43
 70
     1
102
RTVSPost2010Prop44ColorIndex
 90
        5
102
RTVSPost2010Prop44ColorRGB
 90
      255
102
RTVSPost2010PropOp44
 70
     1
102
RTVSPost2010Prop45
280
     0
102
RTVSPost2010PropOp45
 70
     1
102
RTVSPost2010Prop46
 90
       50
102
RTVSPost2010PropOp46
 70
     1
102
RTVSPost2010Prop47
 90
       50
102
RTVSPost2010PropOp47
 70
     1
102
RTVSPost2010Prop48
 90
       50
102
RTVSPost2010PropOp48
 70
     1
102
RTVSPost2010Prop49
280
     0
102
RTVSPost2010PropOp49
 70
     1
102
RTVSPost2010Prop50
 90
       50
102
RTVSPost2010PropOp50
 70
     1
102
RTVSPost2010Prop51ColorIndex
 90
      256
102
RTVSPost2010Prop51ColorRGB
 90
-16777216
102
RTVSPost2010PropOp51
 70
     0
102
RTVSPost2010Prop52
140
1.0
102
RTVSPost2010PropOp52
 70
     0
102
RTVSPost2010Prop53
 90
        2
102
RTVSPost2010PropOp53
 70
     1
102
RTVSPost2010Prop54
  1
strokes_ogs.tif
102
RTVSPost2010PropOp54
 70
     1
102
RTVSPost2010Prop55
280
     0
102
RTVSPost2010PropOp55
 70
     1
102
RTVSPost2010Prop56
140
1.0
102
RTVSPost2010PropOp56
 70
     1
102
RTVSPost2010Prop57
140
1.0
102
RTVSPost2010PropOp57
 70
     1
  0
XRECORD
  5
13A
102
{ACAD_REACTORS
330
139
102
}
330
139
100
AcDbXrecord
280
     1
102
RTVSPost2010Prop28
280
     0
102
RTVSPost2010PropOp28
 70
     1
102
RTVSPost2010Prop29
280
     1
102
RTVSPost2010PropOp29
 70
     1
102
RTVSPost2010Prop30
280
     1
102
RTVSPost2010PropOp30
 70
     1
102
RTVSPost2010Prop31
280
     0
102
RTVSPost2010PropOp31
 70
     1
102
RTVSPost2010Prop32
280
     0
102
RTVSPost2010PropOp32
 70
     1
102
RTVSPost2010Prop33
280
     0
102
RTVSPost2010PropOp33
 70
     1
102
RTVSPost2010Prop34
280
     0
102
RTVSPost2010PropOp34
 70
     1
102
RTVSPost2010Prop35
280
     0
102
RTVSPost2010PropOp35
 70
     1
102
RTVSPost2010Prop36
280
     0
102
RTVSPost2010PropOp36
 70
     1
102
RTVSPost2010Prop37
 90
       50
102
RTVSPost2010PropOp37
 70
     1
102
RTVSPost2010Prop38
140
0.0
102
RTVSPost2010PropOp38
 70
     1
102
RTVSPost2010Prop39
140
1.0
102
RTVSPost2010PropOp39
 70
     1
102
RTVSPost2010Prop40
 90
        0
102
RTVSPost2010PropOp40
 70
     1
102
RTVSPost2010Prop41ColorIndex
 90
       18
102
RTVSPost2010Prop41ColorRGB
 90
        0
102
RTVSPost2010PropOp41
 70
     1
102
RTVSPost2010Prop42
 90
       50
102
RTVSPost2010PropOp42
 70
     1
102
RTVSPost2010Prop43
 90
        3
102
RTVSPost2010PropOp43
 70
     1
102
RTVSPost2010Prop44ColorIndex
 90
        5
102
RTVSPost2010Prop44ColorRGB
 90
      255
102
RTVSPost2010PropOp44
 70
     1
102
RTVSPost2010Prop45
280
     0
102
RTVSPost2010PropOp45
 70
     1
102
RTVSPost2010Prop46
 90
       50
102
RTVSPost2010PropOp46
 70
     1
102
RTVSPost2010Prop47
 90
       50
102
RTVSPost2010PropOp47
 70
     1
102
RTVSPost2010Prop48
 90
       50
102
RTVSPost2010PropOp48
 70
     1
102
RTVSPost2010Prop49
280
     0
102
RTVSPost2010PropOp49
 70
     1
102
RTVSPost2010Prop50
 90
       50
102
RTVSPost2010PropOp50
 70
     1
102
RTVSPost2010Prop51ColorIndex
 90
      256
102
RTVSPost2010Prop51ColorRGB
 90
-16777216
102
RTVSPost2010PropOp51
 70
     0
102
RTVSPost2010Prop52
140
1.0
102
RTVSPost2010PropOp52
 70
     0
102
RTVSPost2010Prop53
 90
        2
102
RTVSPost2010PropOp53
 70
     1
102
RTVSPost2010Prop54
  1
strokes_ogs.tif
102
RTVSPost2010PropOp54
 70
     1
102
RTVSPost2010Prop55
280
     0
102
RTVSPost2010PropOp55
 70
     1
102
RTVSPost2010Prop56
140
1.0
102
RTVSPost2010PropOp56
 70
     1
102
RTVSPost2010Prop57
140
1.0
102
RTVSPost2010PropOp57
 70
     1
  0
XRECORD
  5
156
102
{ACAD_REACTORS
330
155
102
}
330
155
100
AcDbXrecord
280
     1
102
RTVSPost2010Prop28
280
     0
102
RTVSPost2010PropOp28
 70
     0
102
RTVSPost2010Prop29
280
     1
102
RTVSPost2010PropOp29
 70
     0
102
RTVSPost2010Prop30
280
     1
102
RTVSPost2010PropOp30
 70
     0
102
RTVSPost2010Prop31
280
     0
102
RTVSPost2010PropOp31
 70
     0
102
RTVSPost2010Prop32
280
     0
102
RTVSPost2010PropOp32
 70
     0
102
RTVSPost2010Prop33
280
     0
102
RTVSPost2010PropOp33
 70
     0
102
RTVSPost2010Prop34
280
     0
102
RTVSPost2010PropOp34
 70
     0
102
RTVSPost2010Prop35
280
     0
102
RTVSPost2010PropOp35
 70
     0
102
RTVSPost2010Prop36
280
     0
102
RTVSPost2010PropOp36
 70
     0
102
RTVSPost2010Prop37
 90
       50
102
RTVSPost2010PropOp37
 70
     0
102
RTVSPost2010Prop38
140
0.0
102
RTVSPost2010PropOp38
 70
     0
102
RTVSPost2010Prop39
140
1.0
102
RTVSPost2010PropOp39
 70
     0
102
RTVSPost2010Prop40
 90
        0
102
RTVSPost2010PropOp40
 70
     0
102
RTVSPost2010Prop41ColorIndex
 90
       18
102
RTVSPost2010Prop41ColorRGB
 90
        0
102
RTVSPost2010PropOp41
 70
     0
102
RTVSPost2010Prop42
 90
       50
102
RTVSPost2010PropOp42
 70
     0
102
RTVSPost2010Prop43
 90
        3
102
RTVSPost2010PropOp43
 70
     0
102
RTVSPost2010Prop44ColorIndex
 90
        5
102
RTVSPost2010Prop44ColorRGB
 90
      255
102
RTVSPost2010PropOp44
 70
     0
102
RTVSPost2010Prop45
280
     0
102
RTVSPost2010PropOp45
 70
     0
102
RTVSPost2010Prop46
 90
       50
102
RTVSPost2010PropOp46
 70
     0
102
RTVSPost2010Prop47
 90
       50
102
RTVSPost2010PropOp47
 70
     0
102
RTVSPost2010Prop48
 90
       50
102
RTVSPost2010PropOp48
 70
     0
102
RTVSPost2010Prop49
280
     0
102
RTVSPost2010PropOp49
 70
     0
102
RTVSPost2010Prop50
 90
       50
102
RTVSPost2010PropOp50
 70
     0
102
RTVSPost2010Prop51ColorIndex
 90
      256
102
RTVSPost2010Prop51ColorRGB
 90
-16777216
102
RTVSPost2010PropOp51
 70
     0
102
RTVSPost2010Prop52
140
1.0
102
RTVSPost2010PropOp52
 70
     0
102
RTVSPost2010Prop53
 90
        2
102
RTVSPost2010PropOp53
 70
     0
102
RTVSPost2010Prop54
  1
strokes_ogs.tif
102
RTVSPost2010PropOp54
 70
     0
102
RTVSPost2010Prop55
280
     0
102
RTVSPost2010PropOp55
 70
     0
102
RTVSPost2010Prop56
140
1.0
102
RTVSPost2010PropOp56
 70
     0
102
RTVSPost2010Prop57
140
1.0
102
RTVSPost2010PropOp57
 70
     0
  0
XRECORD
  5
146
102
{ACAD_REACTORS
330
145
102
}
330
145
100
AcDbXrecord
280
     1
102
RTVSPost2010Prop28
280
     0
102
RTVSPost2010PropOp28
 70
     1
102
RTVSPost2010Prop29
280
     1
102
RTVSPost2010PropOp29
 70
     1
102
RTVSPost2010Prop30
280
     1
102
RTVSPost2010PropOp30
 70
     1
102
RTVSPost2010Prop31
280
     0
102
RTVSPost2010PropOp31
 70
     1
102
RTVSPost2010Prop32
280
     0
102
RTVSPost2010PropOp32
 70
     1
102
RTVSPost2010Prop33
280
     0
102
RTVSPost2010PropOp33
 70
     1
102
RTVSPost2010Prop34
280
     0
102
RTVSPost2010PropOp34
 70
     1
102
RTVSPost2010Prop35
280
     0
102
RTVSPost2010PropOp35
 70
     1
102
RTVSPost2010Prop36
280
     0
102
RTVSPost2010PropOp36
 70
     1
102
RTVSPost2010Prop37
 90
       50
102
RTVSPost2010PropOp37
 70
     1
102
RTVSPost2010Prop38
140
0.0
102
RTVSPost2010PropOp38
 70
     1
102
RTVSPost2010Prop39
140
1.0
102
RTVSPost2010PropOp39
 70
     1
102
RTVSPost2010Prop40
 90
        0
102
RTVSPost2010PropOp40
 70
     1
102
RTVSPost2010Prop41ColorIndex
 90
       18
102
RTVSPost2010Prop41ColorRGB
 90
        0
102
RTVSPost2010PropOp41
 70
     1
102
RTVSPost2010Prop42
 90
       50
102
RTVSPost2010PropOp42
 70
     1
102
RTVSPost2010Prop43
 90
        3
102
RTVSPost2010PropOp43
 70
     1
102
RTVSPost2010Prop44ColorIndex
 90
        5
102
RTVSPost2010Prop44ColorRGB
 90
      255
102
RTVSPost2010PropOp44
 70
     1
102
RTVSPost2010Prop45
280
     0
102
RTVSPost2010PropOp45
 70
     1
102
RTVSPost2010Prop46
 90
       50
102
RTVSPost2010PropOp46
 70
     1
102
RTVSPost2010Prop47
 90
       50
102
RTVSPost2010PropOp47
 70
     1
102
RTVSPost2010Prop48
 90
       50
102
RTVSPost2010PropOp48
 70
     1
102
RTVSPost2010Prop49
280
     0
102
RTVSPost2010PropOp49
 70
     1
102
RTVSPost2010Prop50
 90
       50
102
RTVSPost2010PropOp50
 70
     1
102
RTVSPost2010Prop51ColorIndex
 90
      256
102
RTVSPost2010Prop51ColorRGB
 90
-16777216
102
RTVSPost2010PropOp51
 70
     0
102
RTVSPost2010Prop52
140
1.0
102
RTVSPost2010PropOp52
 70
     0
102
RTVSPost2010Prop53
 90
        2
102
RTVSPost2010PropOp53
 70
     1
102
RTVSPost2010Prop54
  1
strokes_ogs.tif
102
RTVSPost2010PropOp54
 70
     1
102
RTVSPost2010Prop55
280
     0
102
RTVSPost2010PropOp55
 70
     1
102
RTVSPost2010Prop56
140
1.0
102
RTVSPost2010PropOp56
 70
     1
102
RTVSPost2010Prop57
140
1.0
102
RTVSPost2010PropOp57
 70
     1
  0
XRECORD
  5
158
102
{ACAD_REACTORS
330
157
102
}
330
157
100
AcDbXrecord
280
     1
102
RTVSPost2010Prop28
280
     0
102
RTVSPost2010PropOp28
 70
     0
102
RTVSPost2010Prop29
280
     1
102
RTVSPost2010PropOp29
 70
     0
102
RTVSPost2010Prop30
280
     1
102
RTVSPost2010PropOp30
 70
     0
102
RTVSPost2010Prop31
280
     0
102
RTVSPost2010PropOp31
 70
     0
102
RTVSPost2010Prop32
280
     0
102
RTVSPost2010PropOp32
 70
     0
102
RTVSPost2010Prop33
280
     0
102
RTVSPost2010PropOp33
 70
     0
102
RTVSPost2010Prop34
280
     0
102
RTVSPost2010PropOp34
 70
     0
102
RTVSPost2010Prop35
280
     0
102
RTVSPost2010PropOp35
 70
     0
102
RTVSPost2010Prop36
280
     0
102
RTVSPost2010PropOp36
 70
     0
102
RTVSPost2010Prop37
 90
       50
102
RTVSPost2010PropOp37
 70
     0
102
RTVSPost2010Prop38
140
0.0
102
RTVSPost2010PropOp38
 70
     0
102
RTVSPost2010Prop39
140
1.0
102
RTVSPost2010PropOp39
 70
     0
102
RTVSPost2010Prop40
 90
        0
102
RTVSPost2010PropOp40
 70
     0
102
RTVSPost2010Prop41ColorIndex
 90
       18
102
RTVSPost2010Prop41ColorRGB
 90
        0
102
RTVSPost2010PropOp41
 70
     0
102
RTVSPost2010Prop42
 90
       50
102
RTVSPost2010PropOp42
 70
     0
102
RTVSPost2010Prop43
 90
        3
102
RTVSPost2010PropOp43
 70
     0
102
RTVSPost2010Prop44ColorIndex
 90
        5
102
RTVSPost2010Prop44ColorRGB
 90
      255
102
RTVSPost2010PropOp44
 70
     0
102
RTVSPost2010Prop45
280
     0
102
RTVSPost2010PropOp45
 70
     0
102
RTVSPost2010Prop46
 90
       50
102
RTVSPost2010PropOp46
 70
     0
102
RTVSPost2010Prop47
 90
       50
102
RTVSPost2010PropOp47
 70
     0
102
RTVSPost2010Prop48
 90
       50
102
RTVSPost2010PropOp48
 70
     0
102
RTVSPost2010Prop49
280
     0
102
RTVSPost2010PropOp49
 70
     0
102
RTVSPost2010Prop50
 90
       50
102
RTVSPost2010PropOp50
 70
     0
102
RTVSPost2010Prop51ColorIndex
 90
      256
102
RTVSPost2010Prop51ColorRGB
 90
-16777216
102
RTVSPost2010PropOp51
 70
     0
102
RTVSPost2010Prop52
140
1.0
102
RTVSPost2010PropOp52
 70
     0
102
RTVSPost2010Prop53
 90
        2
102
RTVSPost2010PropOp53
 70
     0
102
RTVSPost2010Prop54
  1
strokes_ogs.tif
102
RTVSPost2010PropOp54
 70
     0
102
RTVSPost2010Prop55
280
     0
102
RTVSPost2010PropOp55
 70
     0
102
RTVSPost2010Prop56
140
1.0
102
RTVSPost2010PropOp56
 70
     0
102
RTVSPost2010Prop57
140
1.0
102
RTVSPost2010PropOp57
 70
     0
  0
XRECORD
  5
13E
102
{ACAD_REACTORS
330
13D
102
}
330
13D
100
AcDbXrecord
280
     1
102
RTVSPost2010Prop28
280
     0
102
RTVSPost2010PropOp28
 70
     1
102
RTVSPost2010Prop29
280
     1
102
RTVSPost2010PropOp29
 70
     1
102
RTVSPost2010Prop30
280
     1
102
RTVSPost2010PropOp30
 70
     1
102
RTVSPost2010Prop31
280
     0
102
RTVSPost2010PropOp31
 70
     1
102
RTVSPost2010Prop32
280
     0
102
RTVSPost2010PropOp32
 70
     1
102
RTVSPost2010Prop33
280
     0
102
RTVSPost2010PropOp33
 70
     1
102
RTVSPost2010Prop34
280
     0
102
RTVSPost2010PropOp34
 70
     1
102
RTVSPost2010Prop35
280
     0
102
RTVSPost2010PropOp35
 70
     1
102
RTVSPost2010Prop36
280
     0
102
RTVSPost2010PropOp36
 70
     1
102
RTVSPost2010Prop37
 90
       50
102
RTVSPost2010PropOp37
 70
     1
102
RTVSPost2010Prop38
140
0.0
102
RTVSPost2010PropOp38
 70
     1
102
RTVSPost2010Prop39
140
1.0
102
RTVSPost2010PropOp39
 70
     1
102
RTVSPost2010Prop40
 90
        0
102
RTVSPost2010PropOp40
 70
     1
102
RTVSPost2010Prop41ColorIndex
 90
       18
102
RTVSPost2010Prop41ColorRGB
 90
        0
102
RTVSPost2010PropOp41
 70
     1
102
RTVSPost2010Prop42
 90
       50
102
RTVSPost2010PropOp42
 70
     1
102
RTVSPost2010Prop43
 90
        3
102
RTVSPost2010PropOp43
 70
     1
102
RTVSPost2010Prop44ColorIndex
 90
        5
102
RTVSPost2010Prop44ColorRGB
 90
      255
102
RTVSPost2010PropOp44
 70
     1
102
RTVSPost2010Prop45
280
     0
102
RTVSPost2010PropOp45
 70
     1
102
RTVSPost2010Prop46
 90
       50
102
RTVSPost2010PropOp46
 70
     1
102
RTVSPost2010Prop47
 90
       50
102
RTVSPost2010PropOp47
 70
     1
102
RTVSPost2010Prop48
 90
       50
102
RTVSPost2010PropOp48
 70
     1
102
RTVSPost2010Prop49
280
     0
102
RTVSPost2010PropOp49
 70
     1
102
RTVSPost2010Prop50
 90
       50
102
RTVSPost2010PropOp50
 70
     1
102
RTVSPost2010Prop51ColorIndex
 90
      256
102
RTVSPost2010Prop51ColorRGB
 90
-16777216
102
RTVSPost2010PropOp51
 70
     0
102
RTVSPost2010Prop52
140
1.0
102
RTVSPost2010PropOp52
 70
     0
102
RTVSPost2010Prop53
 90
        2
102
RTVSPost2010PropOp53
 70
     1
102
RTVSPost2010Prop54
  1
strokes_ogs.tif
102
RTVSPost2010PropOp54
 70
     1
102
RTVSPost2010Prop55
280
     0
102
RTVSPost2010PropOp55
 70
     1
102
RTVSPost2010Prop56
140
1.0
102
RTVSPost2010PropOp56
 70
     1
102
RTVSPost2010Prop57
140
1.0
102
RTVSPost2010PropOp57
 70
     1
  0
XRECORD
  5
154
102
{ACAD_REACTORS
330
153
102
}
330
153
100
AcDbXrecord
280
     1
102
RTVSPost2010Prop28
280
     0
102
RTVSPost2010PropOp28
 70
     1
102
RTVSPost2010Prop29
280
     1
102
RTVSPost2010PropOp29
 70
     1
102
RTVSPost2010Prop30
280
     1
102
RTVSPost2010PropOp30
 70
     1
102
RTVSPost2010Prop31
280
     0
102
RTVSPost2010PropOp31
 70
     1
102
RTVSPost2010Prop32
280
     0
102
RTVSPost2010PropOp32
 70
     1
102
RTVSPost2010Prop33
280
     0
102
RTVSPost2010PropOp33
 70
     1
102
RTVSPost2010Prop34
280
     0
102
RTVSPost2010PropOp34
 70
     1
102
RTVSPost2010Prop35
280
     0
102
RTVSPost2010PropOp35
 70
     1
102
RTVSPost2010Prop36
280
     0
102
RTVSPost2010PropOp36
 70
     1
102
RTVSPost2010Prop37
 90
       50
102
RTVSPost2010PropOp37
 70
     1
102
RTVSPost2010Prop38
140
0.0
102
RTVSPost2010PropOp38
 70
     1
102
RTVSPost2010Prop39
140
1.0
102
RTVSPost2010PropOp39
 70
     1
102
RTVSPost2010Prop40
 90
        0
102
RTVSPost2010PropOp40
 70
     1
102
RTVSPost2010Prop41ColorIndex
 90
       18
102
RTVSPost2010Prop41ColorRGB
 90
        0
102
RTVSPost2010PropOp41
 70
     1
102
RTVSPost2010Prop42
 90
       50
102
RTVSPost2010PropOp42
 70
     1
102
RTVSPost2010Prop43
 90
        3
102
RTVSPost2010PropOp43
 70
     1
102
RTVSPost2010Prop44ColorIndex
 90
        5
102
RTVSPost2010Prop44ColorRGB
 90
      255
102
RTVSPost2010PropOp44
 70
     1
102
RTVSPost2010Prop45
280
     0
102
RTVSPost2010PropOp45
 70
     1
102
RTVSPost2010Prop46
 90
       50
102
RTVSPost2010PropOp46
 70
     1
102
RTVSPost2010Prop47
 90
       50
102
RTVSPost2010PropOp47
 70
     1
102
RTVSPost2010Prop48
 90
       50
102
RTVSPost2010PropOp48
 70
     1
102
RTVSPost2010Prop49
280
     0
102
RTVSPost2010PropOp49
 70
     1
102
RTVSPost2010Prop50
 90
       50
102
RTVSPost2010PropOp50
 70
     1
102
RTVSPost2010Prop51ColorIndex
 90
      256
102
RTVSPost2010Prop51ColorRGB
 90
-16777216
102
RTVSPost2010PropOp51
 70
     0
102
RTVSPost2010Prop52
140
1.0
102
RTVSPost2010PropOp52
 70
     0
102
RTVSPost2010Prop53
 90
        2
102
RTVSPost2010PropOp53
 70
     1
102
RTVSPost2010Prop54
  1
strokes_ogs.tif
102
RTVSPost2010PropOp54
 70
     1
102
RTVSPost2010Prop55
280
     0
102
RTVSPost2010PropOp55
 70
     1
102
RTVSPost2010Prop56
140
1.0
102
RTVSPost2010PropOp56
 70
     1
102
RTVSPost2010Prop57
140
1.0
102
RTVSPost2010PropOp57
 70
     1
  0
XRECORD
  5
152
102
{ACAD_REACTORS
330
151
102
}
330
151
100
AcDbXrecord
280
     1
102
RTVSPost2010Prop28
280
     0
102
RTVSPost2010PropOp28
 70
     1
102
RTVSPost2010Prop29
280
     1
102
RTVSPost2010PropOp29
 70
     1
102
RTVSPost2010Prop30
280
     1
102
RTVSPost2010PropOp30
 70
     1
102
RTVSPost2010Prop31
280
     0
102
RTVSPost2010PropOp31
 70
     1
102
RTVSPost2010Prop32
280
     0
102
RTVSPost2010PropOp32
 70
     1
102
RTVSPost2010Prop33
280
     0
102
RTVSPost2010PropOp33
 70
     1
102
RTVSPost2010Prop34
280
     0
102
RTVSPost2010PropOp34
 70
     1
102
RTVSPost2010Prop35
280
     0
102
RTVSPost2010PropOp35
 70
     1
102
RTVSPost2010Prop36
280
     0
102
RTVSPost2010PropOp36
 70
     1
102
RTVSPost2010Prop37
 90
       50
102
RTVSPost2010PropOp37
 70
     1
102
RTVSPost2010Prop38
140
0.0
102
RTVSPost2010PropOp38
 70
     1
102
RTVSPost2010Prop39
140
1.0
102
RTVSPost2010PropOp39
 70
     1
102
RTVSPost2010Prop40
 90
        0
102
RTVSPost2010PropOp40
 70
     1
102
RTVSPost2010Prop41ColorIndex
 90
       18
102
RTVSPost2010Prop41ColorRGB
 90
        0
102
RTVSPost2010PropOp41
 70
     1
102
RTVSPost2010Prop42
 90
       50
102
RTVSPost2010PropOp42
 70
     1
102
RTVSPost2010Prop43
 90
        3
102
RTVSPost2010PropOp43
 70
     1
102
RTVSPost2010Prop44ColorIndex
 90
        5
102
RTVSPost2010Prop44ColorRGB
 90
      255
102
RTVSPost2010PropOp44
 70
     1
102
RTVSPost2010Prop45
280
     0
102
RTVSPost2010PropOp45
 70
     1
102
RTVSPost2010Prop46
 90
       50
102
RTVSPost2010PropOp46
 70
     1
102
RTVSPost2010Prop47
 90
       50
102
RTVSPost2010PropOp47
 70
     1
102
RTVSPost2010Prop48
 90
       50
102
RTVSPost2010PropOp48
 70
     1
102
RTVSPost2010Prop49
280
     0
102
RTVSPost2010PropOp49
 70
     1
102
RTVSPost2010Prop50
 90
       50
102
RTVSPost2010PropOp50
 70
     1
102
RTVSPost2010Prop51ColorIndex
 90
      256
102
RTVSPost2010Prop51ColorRGB
 90
-16777216
102
RTVSPost2010PropOp51
 70
     0
102
RTVSPost2010Prop52
140
1.0
102
RTVSPost2010PropOp52
 70
     0
102
RTVSPost2010Prop53
 90
        2
102
RTVSPost2010PropOp53
 70
     1
102
RTVSPost2010Prop54
  1
strokes_ogs.tif
102
RTVSPost2010PropOp54
 70
     1
102
RTVSPost2010Prop55
280
     0
102
RTVSPost2010PropOp55
 70
     1
102
RTVSPost2010Prop56
140
1.0
102
RTVSPost2010PropOp56
 70
     1
102
RTVSPost2010Prop57
140
1.0
102
RTVSPost2010PropOp57
 70
     1
  0
XRECORD
  5
14C
102
{ACAD_REACTORS
330
14B
102
}
330
14B
100
AcDbXrecord
280
     1
102
RTVSPost2010Prop28
280
     0
102
RTVSPost2010PropOp28
 70
     1
102
RTVSPost2010Prop29
280
     1
102
RTVSPost2010PropOp29
 70
     1
102
RTVSPost2010Prop30
280
     1
102
RTVSPost2010PropOp30
 70
     1
102
RTVSPost2010Prop31
280
     0
102
RTVSPost2010PropOp31
 70
     1
102
RTVSPost2010Prop32
280
     0
102
RTVSPost2010PropOp32
 70
     1
102
RTVSPost2010Prop33
280
     0
102
RTVSPost2010PropOp33
 70
     1
102
RTVSPost2010Prop34
280
     0
102
RTVSPost2010PropOp34
 70
     1
102
RTVSPost2010Prop35
280
     0
102
RTVSPost2010PropOp35
 70
     1
102
RTVSPost2010Prop36
280
     0
102
RTVSPost2010PropOp36
 70
     1
102
RTVSPost2010Prop37
 90
       50
102
RTVSPost2010PropOp37
 70
     1
102
RTVSPost2010Prop38
140
0.0
102
RTVSPost2010PropOp38
 70
     1
102
RTVSPost2010Prop39
140
1.0
102
RTVSPost2010PropOp39
 70
     1
102
RTVSPost2010Prop40
 90
        0
102
RTVSPost2010PropOp40
 70
     1
102
RTVSPost2010Prop41ColorIndex
 90
       18
102
RTVSPost2010Prop41ColorRGB
 90
        0
102
RTVSPost2010PropOp41
 70
     1
102
RTVSPost2010Prop42
 90
       50
102
RTVSPost2010PropOp42
 70
     1
102
RTVSPost2010Prop43
 90
        3
102
RTVSPost2010PropOp43
 70
     1
102
RTVSPost2010Prop44ColorIndex
 90
        5
102
RTVSPost2010Prop44ColorRGB
 90
      255
102
RTVSPost2010PropOp44
 70
     1
102
RTVSPost2010Prop45
280
     0
102
RTVSPost2010PropOp45
 70
     1
102
RTVSPost2010Prop46
 90
       50
102
RTVSPost2010PropOp46
 70
     1
102
RTVSPost2010Prop47
 90
       50
102
RTVSPost2010PropOp47
 70
     1
102
RTVSPost2010Prop48
 90
       50
102
RTVSPost2010PropOp48
 70
     1
102
RTVSPost2010Prop49
280
     0
102
RTVSPost2010PropOp49
 70
     1
102
RTVSPost2010Prop50
 90
       50
102
RTVSPost2010PropOp50
 70
     1
102
RTVSPost2010Prop51ColorIndex
 90
      256
102
RTVSPost2010Prop51ColorRGB
 90
-16777216
102
RTVSPost2010PropOp51
 70
     0
102
RTVSPost2010Prop52
140
1.0
102
RTVSPost2010PropOp52
 70
     0
102
RTVSPost2010Prop53
 90
        2
102
RTVSPost2010PropOp53
 70
     1
102
RTVSPost2010Prop54
  1
strokes_ogs.tif
102
RTVSPost2010PropOp54
 70
     1
102
RTVSPost2010Prop55
280
     0
102
RTVSPost2010PropOp55
 70
     1
102
RTVSPost2010Prop56
140
1.0
102
RTVSPost2010PropOp56
 70
     1
102
RTVSPost2010Prop57
140
1.0
102
RTVSPost2010PropOp57
 70
     1
  0
XRECORD
  5
14E
102
{ACAD_REACTORS
330
14D
102
}
330
14D
100
AcDbXrecord
280
     1
102
RTVSPost2010Prop28
280
     0
102
RTVSPost2010PropOp28
 70
     1
102
RTVSPost2010Prop29
280
     1
102
RTVSPost2010PropOp29
 70
     1
102
RTVSPost2010Prop30
280
     1
102
RTVSPost2010PropOp30
 70
     1
102
RTVSPost2010Prop31
280
     0
102
RTVSPost2010PropOp31
 70
     1
102
RTVSPost2010Prop32
280
     0
102
RTVSPost2010PropOp32
 70
     1
102
RTVSPost2010Prop33
280
     0
102
RTVSPost2010PropOp33
 70
     1
102
RTVSPost2010Prop34
280
     0
102
RTVSPost2010PropOp34
 70
     1
102
RTVSPost2010Prop35
280
     0
102
RTVSPost2010PropOp35
 70
     1
102
RTVSPost2010Prop36
280
     0
102
RTVSPost2010PropOp36
 70
     1
102
RTVSPost2010Prop37
 90
       50
102
RTVSPost2010PropOp37
 70
     1
102
RTVSPost2010Prop38
140
0.0
102
RTVSPost2010PropOp38
 70
     1
102
RTVSPost2010Prop39
140
1.0
102
RTVSPost2010PropOp39
 70
     1
102
RTVSPost2010Prop40
 90
        0
102
RTVSPost2010PropOp40
 70
     1
102
RTVSPost2010Prop41ColorIndex
 90
       18
102
RTVSPost2010Prop41ColorRGB
 90
        0
102
RTVSPost2010PropOp41
 70
     1
102
RTVSPost2010Prop42
 90
       50
102
RTVSPost2010PropOp42
 70
     1
102
RTVSPost2010Prop43
 90
        3
102
RTVSPost2010PropOp43
 70
     1
102
RTVSPost2010Prop44ColorIndex
 90
        5
102
RTVSPost2010Prop44ColorRGB
 90
      255
102
RTVSPost2010PropOp44
 70
     1
102
RTVSPost2010Prop45
280
     0
102
RTVSPost2010PropOp45
 70
     1
102
RTVSPost2010Prop46
 90
       50
102
RTVSPost2010PropOp46
 70
     1
102
RTVSPost2010Prop47
 90
       50
102
RTVSPost2010PropOp47
 70
     1
102
RTVSPost2010Prop48
 90
       50
102
RTVSPost2010PropOp48
 70
     1
102
RTVSPost2010Prop49
280
     0
102
RTVSPost2010PropOp49
 70
     1
102
RTVSPost2010Prop50
 90
       50
102
RTVSPost2010PropOp50
 70
     1
102
RTVSPost2010Prop51ColorIndex
 90
      256
102
RTVSPost2010Prop51ColorRGB
 90
-16777216
102
RTVSPost2010PropOp51
 70
     0
102
RTVSPost2010Prop52
140
1.0
102
RTVSPost2010PropOp52
 70
     0
102
RTVSPost2010Prop53
 90
        2
102
RTVSPost2010PropOp53
 70
     1
102
RTVSPost2010Prop54
  1
strokes_ogs.tif
102
RTVSPost2010PropOp54
 70
     1
102
RTVSPost2010Prop55
280
     0
102
RTVSPost2010PropOp55
 70
     1
102
RTVSPost2010Prop56
140
1.0
102
RTVSPost2010PropOp56
 70
     1
102
RTVSPost2010Prop57
140
1.0
102
RTVSPost2010PropOp57
 70
     1
  0
XRECORD
  5
144
102
{ACAD_REACTORS
330
143
102
}
330
143
100
AcDbXrecord
280
     1
102
RTVSPost2010Prop28
280
     0
102
RTVSPost2010PropOp28
 70
     1
102
RTVSPost2010Prop29
280
     1
102
RTVSPost2010PropOp29
 70
     1
102
RTVSPost2010Prop30
280
     1
102
RTVSPost2010PropOp30
 70
     1
102
RTVSPost2010Prop31
280
     0
102
RTVSPost2010PropOp31
 70
     1
102
RTVSPost2010Prop32
280
     0
102
RTVSPost2010PropOp32
 70
     1
102
RTVSPost2010Prop33
280
     0
102
RTVSPost2010PropOp33
 70
     1
102
RTVSPost2010Prop34
280
     0
102
RTVSPost2010PropOp34
 70
     1
102
RTVSPost2010Prop35
280
     0
102
RTVSPost2010PropOp35
 70
     1
102
RTVSPost2010Prop36
280
     0
102
RTVSPost2010PropOp36
 70
     1
102
RTVSPost2010Prop37
 90
       50
102
RTVSPost2010PropOp37
 70
     1
102
RTVSPost2010Prop38
140
0.0
102
RTVSPost2010PropOp38
 70
     1
102
RTVSPost2010Prop39
140
1.0
102
RTVSPost2010PropOp39
 70
     1
102
RTVSPost2010Prop40
 90
        0
102
RTVSPost2010PropOp40
 70
     1
102
RTVSPost2010Prop41ColorIndex
 90
       18
102
RTVSPost2010Prop41ColorRGB
 90
        0
102
RTVSPost2010PropOp41
 70
     1
102
RTVSPost2010Prop42
 90
       50
102
RTVSPost2010PropOp42
 70
     1
102
RTVSPost2010Prop43
 90
        3
102
RTVSPost2010PropOp43
 70
     1
102
RTVSPost2010Prop44ColorIndex
 90
        5
102
RTVSPost2010Prop44ColorRGB
 90
      255
102
RTVSPost2010PropOp44
 70
     1
102
RTVSPost2010Prop45
280
     0
102
RTVSPost2010PropOp45
 70
     1
102
RTVSPost2010Prop46
 90
       50
102
RTVSPost2010PropOp46
 70
     1
102
RTVSPost2010Prop47
 90
       50
102
RTVSPost2010PropOp47
 70
     1
102
RTVSPost2010Prop48
 90
       50
102
RTVSPost2010PropOp48
 70
     1
102
RTVSPost2010Prop49
280
     0
102
RTVSPost2010PropOp49
 70
     1
102
RTVSPost2010Prop50
 90
       50
102
RTVSPost2010PropOp50
 70
     1
102
RTVSPost2010Prop51ColorIndex
 90
      256
102
RTVSPost2010Prop51ColorRGB
 90
-16777216
102
RTVSPost2010PropOp51
 70
     0
102
RTVSPost2010Prop52
140
1.0
102
RTVSPost2010PropOp52
 70
     0
102
RTVSPost2010Prop53
 90
        2
102
RTVSPost2010PropOp53
 70
     1
102
RTVSPost2010Prop54
  1
strokes_ogs.tif
102
RTVSPost2010PropOp54
 70
     1
102
RTVSPost2010Prop55
280
     0
102
RTVSPost2010PropOp55
 70
     1
102
RTVSPost2010Prop56
140
1.0
102
RTVSPost2010PropOp56
 70
     1
102
RTVSPost2010Prop57
140
1.0
102
RTVSPost2010PropOp57
 70
     1
  0
XRECORD
  5
138
102
{ACAD_REACTORS
330
137
102
}
330
137
100
AcDbXrecord
280
     1
102
RTVSPost2010Prop28
280
     0
102
RTVSPost2010PropOp28
 70
     1
102
RTVSPost2010Prop29
280
     1
102
RTVSPost2010PropOp29
 70
     1
102
RTVSPost2010Prop30
280
     1
102
RTVSPost2010PropOp30
 70
     1
102
RTVSPost2010Prop31
280
     0
102
RTVSPost2010PropOp31
 70
     1
102
RTVSPost2010Prop32
280
     0
102
RTVSPost2010PropOp32
 70
     1
102
RTVSPost2010Prop33
280
     0
102
RTVSPost2010PropOp33
 70
     1
102
RTVSPost2010Prop34
280
     0
102
RTVSPost2010PropOp34
 70
     1
102
RTVSPost2010Prop35
280
     0
102
RTVSPost2010PropOp35
 70
     1
102
RTVSPost2010Prop36
280
     0
102
RTVSPost2010PropOp36
 70
     1
102
RTVSPost2010Prop37
 90
       50
102
RTVSPost2010PropOp37
 70
     1
102
RTVSPost2010Prop38
140
0.0
102
RTVSPost2010PropOp38
 70
     1
102
RTVSPost2010Prop39
140
1.0
102
RTVSPost2010PropOp39
 70
     1
102
RTVSPost2010Prop40
 90
        0
102
RTVSPost2010PropOp40
 70
     1
102
RTVSPost2010Prop41ColorIndex
 90
       18
102
RTVSPost2010Prop41ColorRGB
 90
        0
102
RTVSPost2010PropOp41
 70
     1
102
RTVSPost2010Prop42
 90
       50
102
RTVSPost2010PropOp42
 70
     1
102
RTVSPost2010Prop43
 90
        3
102
RTVSPost2010PropOp43
 70
     1
102
RTVSPost2010Prop44ColorIndex
 90
        5
102
RTVSPost2010Prop44ColorRGB
 90
      255
102
RTVSPost2010PropOp44
 70
     1
102
RTVSPost2010Prop45
280
     0
102
RTVSPost2010PropOp45
 70
     1
102
RTVSPost2010Prop46
 90
       50
102
RTVSPost2010PropOp46
 70
     1
102
RTVSPost2010Prop47
 90
       50
102
RTVSPost2010PropOp47
 70
     1
102
RTVSPost2010Prop48
 90
       50
102
RTVSPost2010PropOp48
 70
     1
102
RTVSPost2010Prop49
280
     0
102
RTVSPost2010PropOp49
 70
     1
102
RTVSPost2010Prop50
 90
       50
102
RTVSPost2010PropOp50
 70
     1
102
RTVSPost2010Prop51ColorIndex
 90
      256
102
RTVSPost2010Prop51ColorRGB
 90
-16777216
102
RTVSPost2010PropOp51
 70
     0
102
RTVSPost2010Prop52
140
1.0
102
RTVSPost2010PropOp52
 70
     0
102
RTVSPost2010Prop53
 90
        2
102
RTVSPost2010PropOp53
 70
     1
102
RTVSPost2010Prop54
  1
strokes_ogs.tif
102
RTVSPost2010PropOp54
 70
     1
102
RTVSPost2010Prop55
280
     0
102
RTVSPost2010PropOp55
 70
     1
102
RTVSPost2010Prop56
140
1.0
102
RTVSPost2010PropOp56
 70
     1
102
RTVSPost2010Prop57
140
1.0
102
RTVSPost2010PropOp57
 70
     1
  0
XRECORD
  5
150
102
{ACAD_REACTORS
330
14F
102
}
330
14F
100
AcDbXrecord
280
     1
102
RTVSPost2010Prop28
280
     0
102
RTVSPost2010PropOp28
 70
     1
102
RTVSPost2010Prop29
280
     1
102
RTVSPost2010PropOp29
 70
     1
102
RTVSPost2010Prop30
280
     1
102
RTVSPost2010PropOp30
 70
     1
102
RTVSPost2010Prop31
280
     0
102
RTVSPost2010PropOp31
 70
     1
102
RTVSPost2010Prop32
280
     0
102
RTVSPost2010PropOp32
 70
     1
102
RTVSPost2010Prop33
280
     0
102
RTVSPost2010PropOp33
 70
     1
102
RTVSPost2010Prop34
280
     0
102
RTVSPost2010PropOp34
 70
     1
102
RTVSPost2010Prop35
280
     0
102
RTVSPost2010PropOp35
 70
     1
102
RTVSPost2010Prop36
280
     0
102
RTVSPost2010PropOp36
 70
     1
102
RTVSPost2010Prop37
 90
       50
102
RTVSPost2010PropOp37
 70
     1
102
RTVSPost2010Prop38
140
0.0
102
RTVSPost2010PropOp38
 70
     1
102
RTVSPost2010Prop39
140
1.0
102
RTVSPost2010PropOp39
 70
     1
102
RTVSPost2010Prop40
 90
        0
102
RTVSPost2010PropOp40
 70
     1
102
RTVSPost2010Prop41ColorIndex
 90
       18
102
RTVSPost2010Prop41ColorRGB
 90
        0
102
RTVSPost2010PropOp41
 70
     1
102
RTVSPost2010Prop42
 90
       50
102
RTVSPost2010PropOp42
 70
     1
102
RTVSPost2010Prop43
 90
        3
102
RTVSPost2010PropOp43
 70
     1
102
RTVSPost2010Prop44ColorIndex
 90
        5
102
RTVSPost2010Prop44ColorRGB
 90
      255
102
RTVSPost2010PropOp44
 70
     1
102
RTVSPost2010Prop45
280
     0
102
RTVSPost2010PropOp45
 70
     1
102
RTVSPost2010Prop46
 90
       50
102
RTVSPost2010PropOp46
 70
     1
102
RTVSPost2010Prop47
 90
       50
102
RTVSPost2010PropOp47
 70
     1
102
RTVSPost2010Prop48
 90
       50
102
RTVSPost2010PropOp48
 70
     1
102
RTVSPost2010Prop49
280
     0
102
RTVSPost2010PropOp49
 70
     1
102
RTVSPost2010Prop50
 90
       50
102
RTVSPost2010PropOp50
 70
     1
102
RTVSPost2010Prop51ColorIndex
 90
      256
102
RTVSPost2010Prop51ColorRGB
 90
-16777216
102
RTVSPost2010PropOp51
 70
     0
102
RTVSPost2010Prop52
140
1.0
102
RTVSPost2010PropOp52
 70
     0
102
RTVSPost2010Prop53
 90
        2
102
RTVSPost2010PropOp53
 70
     1
102
RTVSPost2010Prop54
  1
strokes_ogs.tif
102
RTVSPost2010PropOp54
 70
     1
102
RTVSPost2010Prop55
280
     0
102
RTVSPost2010PropOp55
 70
     1
102
RTVSPost2010Prop56
140
1.0
102
RTVSPost2010PropOp56
 70
     1
102
RTVSPost2010Prop57
140
1.0
102
RTVSPost2010PropOp57
 70
     1
  0
ENDSEC
  0
EOF
