  0
SECTION
  2
HEADER
  9
$ACADVER
  1
AC1024
  9
$ACADMAINTVER
 70
     6
  9
$DWGCODEPAGE
  3
UNDEFINED
  9
$INSBASE
 10
0.0
 20
0.0
 30
0.0
  9
$EXTMIN
 10
1.000000000000000E+20
 20
1.000000000000000E+20
 30
1.000000000000000E+20
  9
$EXTMAX
 10
-1.000000000000000E+20
 20
-1.000000000000000E+20
 30
-1.000000000000000E+20
  9
$LIMMIN
 10
0.0
 20
0.0
  9
$LIMMAX
 10
12.0
 20
9.0
  9
$ORTHOMODE
 70
     0
  9
$REGENMODE
 70
     1
  9
$FILLMODE
 70
     1
  9
$QTEXTMODE
 70
     0
  9
$MIRRTEXT
 70
     1
  9
$LTSCALE
 40
1.0
  9
$ATTMODE
 70
     1
  9
$TEXTSIZE
 40
0.2
  9
$TRACEWID
 40
0.05
  9
$TEXTSTYLE
  7
Standard
  9
$CLAYER
  8
0
  9
$CELTYPE
  6
ByLayer
  9
$CECOLOR
 62
   256
  9
$CELTSCALE
 40
1.0
  9
$DISPSILH
 70
     0
  9
$DIMSCALE
 40
1.0
  9
$DIMASZ
 40
0.18
  9
$DIMEXO
 40
0.0625
  9
$DIMDLI
 40
0.38
  9
$DIMRND
 40
0.0
  9
$DIMDLE
 40
0.0
  9
$DIMEXE
 40
0.18
  9
$DIMTP
 40
0.0
  9
$DIMTM
 40
0.0
  9
$DIMTXT
 40
0.18
  9
$DIMCEN
 40
0.09
  9
$DIMTSZ
 40
0.0
  9
$DIMTOL
 70
     0
  9
$DIMLIM
 70
     0
  9
$DIMTIH
 70
     1
  9
$DIMTOH
 70
     1
  9
$DIMSE1
 70
     0
  9
$DIMSE2
 70
     0
  9
$DIMTAD
 70
     0
  9
$DIMZIN
 70
     0
  9
$DIMBLK
  1

  9
$DIMASO
 70
     1
  9
$DIMSHO
 70
     1
  9
$DIMPOST
  1

  9
$DIMAPOST
  1

  9
$DIMALT
 70
     0
  9
$DIMALTD
 70
     2
  9
$DIMALTF
 40
25.4
  9
$DIMLFAC
 40
1.0
  9
$DIMTOFL
 70
     0
  9
$DIMTVP
 40
0.0
  9
$DIMTIX
 70
     0
  9
$DIMSOXD
 70
     0
  9
$DIMSAH
 70
     0
  9
$DIMBLK1
  1

  9
$DIMBLK2
  1

  9
$DIMSTYLE
  2
Standard
  9
$DIMCLRD
 70
     0
  9
$DIMCLRE
 70
     0
  9
$DIMCLRT
 70
     0
  9
$DIMTFAC
 40
1.0
  9
$DIMGAP
 40
0.09
  9
$DIMJUST
 70
     0
  9
$DIMSD1
 70
     0
  9
$DIMSD2
 70
     0
  9
$DIMTOLJ
 70
     1
  9
$DIMTZIN
 70
     0
  9
$DIMALTZ
 70
     0
  9
$DIMALTTZ
 70
     0
  9
$DIMUPT
 70
     0
  9
$DIMDEC
 70
     4
  9
$DIMTDEC
 70
     4
  9
$DIMALTU
 70
     2
  9
$DIMALTTD
 70
     2
  9
$DIMTXSTY
  7
Standard
  9
$DIMAUNIT
 70
     0
  9
$DIMADEC
 70
     0
  9
$DIMALTRND
 40
0.0
  9
$DIMAZIN
 70
     0
  9
$DIMDSEP
 70
    46
  9
$DIMATFIT
 70
     3
  9
$DIMFRAC
 70
     0
  9
$DIMLDRBLK
  1

  9
$DIMLUNIT
 70
     2
  9
$DIMLWD
 70
    -2
  9
$DIMLWE
 70
    -2
  9
$DIMTMOVE
 70
     0
  9
$DIMFXL
 40
1.0
  9
$DIMFXLON
 70
     0
  9
$DIMJOGANG
 40
0.7853981633974483
  9
$DIMTFILL
 70
     0
  9
$DIMTFILLCLR
 70
     0
  9
$DIMARCSYM
 70
     0
  9
$DIMLTYPE
  6

  9
$DIMLTEX1
  6

  9
$DIMLTEX2
  6

  9
$DIMTXTDIRECTION
 70
     0
  9
$LUNITS
 70
     2
  9
$LUPREC
 70
     4
  9
$SKETCHINC
 40
0.1
  9
$FILLETRAD
 40
0.5
  9
$AUNITS
 70
     0
  9
$AUPREC
 70
     0
  9
$MENU
  1
.
  9
$ELEVATION
 40
0.0
  9
$PELEVATION
 40
0.0
  9
$THICKNESS
 40
0.0
  9
$LIMCHECK
 70
     0
  9
$CHAMFERA
 40
0.5
  9
$CHAMFERB
 40
0.5
  9
$CHAMFERC
 40
1.0
  9
$CHAMFERD
 40
0.0
  9
$SKPOLY
 70
     0
  9
$TDCREATE
 40
2457917.600196748
  9
$TDUCREATE
 40
2457917.225196759
  9
$TDUPDATE
 40
2457917.600208322
  9
$TDUUPDATE
 40
2457917.225208333
  9
$TDINDWG
 40
0.0000000116
  9
$TDUSRTIMER
 40
0.0000000116
  9
$USRTIMER
 70
     1
  9
$ANGBASE
 50
0.0
  9
$ANGDIR
 70
     0
  9
$PDMODE
 70
     0
  9
$PDSIZE
 40
0.0
  9
$PLINEWID
 40
0.0
  9
$SPLFRAME
 70
     0
  9
$SPLINETYPE
 70
     6
  9
$SPLINESEGS
 70
     8
  9
$HANDSEED
  5
FA
  9
$SURFTAB1
 70
     6
  9
$SURFTAB2
 70
     6
  9
$SURFTYPE
 70
     6
  9
$SURFU
 70
     6
  9
$SURFV
 70
     6
  9
$UCSBASE
  2

  9
$UCSNAME
  2

  9
$UCSORG
 10
0.0
 20
0.0
 30
0.0
  9
$UCSXDIR
 10
1.0
 20
0.0
 30
0.0
  9
$UCSYDIR
 10
0.0
 20
1.0
 30
0.0
  9
$UCSORTHOREF
  2

  9
$UCSORTHOVIEW
 70
     0
  9
$UCSORGTOP
 10
0.0
 20
0.0
 30
0.0
  9
$UCSORGBOTTOM
 10
0.0
 20
0.0
 30
0.0
  9
$UCSORGLEFT
 10
0.0
 20
0.0
 30
0.0
  9
$UCSORGRIGHT
 10
0.0
 20
0.0
 30
0.0
  9
$UCSORGFRONT
 10
0.0
 20
0.0
 30
0.0
  9
$UCSORGBACK
 10
0.0
 20
0.0
 30
0.0
  9
$PUCSBASE
  2

  9
$PUCSNAME
  2

  9
$PUCSORG
 10
0.0
 20
0.0
 30
0.0
  9
$PUCSXDIR
 10
1.0
 20
0.0
 30
0.0
  9
$PUCSYDIR
 10
0.0
 20
1.0
 30
0.0
  9
$PUCSORTHOREF
  2

  9
$PUCSORTHOVIEW
 70
     0
  9
$PUCSORGTOP
 10
0.0
 20
0.0
 30
0.0
  9
$PUCSORGBOTTOM
 10
0.0
 20
0.0
 30
0.0
  9
$PUCSORGLEFT
 10
0.0
 20
0.0
 30
0.0
  9
$PUCSORGRIGHT
 10
0.0
 20
0.0
 30
0.0
  9
$PUCSORGFRONT
 10
0.0
 20
0.0
 30
0.0
  9
$PUCSORGBACK
 10
0.0
 20
0.0
 30
0.0
  9
$USERI1
 70
     0
  9
$USERI2
 70
     0
  9
$USERI3
 70
     0
  9
$USERI4
 70
     0
  9
$USERI5
 70
     0
  9
$USERR1
 40
0.0
  9
$USERR2
 40
0.0
  9
$USERR3
 40
0.0
  9
$USERR4
 40
0.0
  9
$USERR5
 40
0.0
  9
$WORLDVIEW
 70
     1
  9
$SHADEDGE
 70
     3
  9
$SHADEDIF
 70
    70
  9
$TILEMODE
 70
     1
  9
$MAXACTVP
 70
    64
  9
$PINSBASE
 10
0.0
 20
0.0
 30
0.0
  9
$PLIMCHECK
 70
     0
  9
$PEXTMIN
 10
1.000000000000000E+20
 20
1.000000000000000E+20
 30
1.000000000000000E+20
  9
$PEXTMAX
 10
-1.000000000000000E+20
 20
-1.000000000000000E+20
 30
-1.000000000000000E+20
  9
$PLIMMIN
 10
0.0
 20
0.0
  9
$PLIMMAX
 10
12.0
 20
9.0
  9
$UNITMODE
 70
     0
  9
$VISRETAIN
 70
     1
  9
$PLINEGEN
 70
     0
  9
$PSLTSCALE
 70
     1
  9
$TREEDEPTH
 70
  3020
  9
$CMLSTYLE
  2
Standard
  9
$CMLJUST
 70
     0
  9
$CMLSCALE
 40
1.0
  9
$PROXYGRAPHICS
 70
     1
  9
$MEASUREMENT
 70
     0
  9
$CELWEIGHT
370
    -1
  9
$ENDCAPS
280
     0
  9
$JOINSTYLE
280
     0
  9
$LWDISPLAY
290
     1
  9
$INSUNITS
 70
     1
  9
$HYPERLINKBASE
  1

  9
$STYLESHEET
  1

  9
$XEDIT
290
     1
  9
$CEPSNTYPE
380
     0
  9
$PSTYLEMODE
290
     1
  9
$FINGERPRINTGUID
  2
{08568001-D69A-6A48-AB7F-7BBC31E71592}
  9
$VERSIONGUID
  2
{FAEB1C32-E019-11D5-929B-00C0DF256EC4}
  9
$EXTNAMES
290
     1
  9
$PSVPSCALE
 40
0.0
  9
$OLESTARTUP
290
     0
  9
$SORTENTS
280
   127
  9
$INDEXCTL
280
     0
  9
$HIDETEXT
280
     1
  9
$XCLIPFRAME
280
     2
  9
$HALOGAP
280
     0
  9
$OBSCOLOR
 70
   257
  9
$OBSLTYPE
280
     0
  9
$INTERSECTIONDISPLAY
280
     0
  9
$INTERSECTIONCOLOR
 70
   257
  9
$DIMASSOC
280
     2
  9
$PROJECTNAME
  1

  9
$CAMERADISPLAY
290
     0
  9
$LENSLENGTH
 40
50.0
  9
$CAMERAHEIGHT
 40
0.0
  9
$STEPSPERSEC
 40
2.0
  9
$STEPSIZE
 40
6.0
  9
$3DDWFPREC
 40
2.0
  9
$PSOLWIDTH
 40
0.25
  9
$PSOLHEIGHT
 40
4.0
  9
$LOFTANG1
 40
1.570796326794897
  9
$LOFTANG2
 40
1.570796326794897
  9
$LOFTMAG1
 40
0.0
  9
$LOFTMAG2
 40
0.0
  9
$LOFTPARAM
 70
     7
  9
$LOFTNORMALS
280
     1
  9
$LATITUDE
 40
37.795
  9
$LONGITUDE
 40
-122.394
  9
$NORTHDIRECTION
 40
0.0
  9
$TIMEZONE
 70
 -8000
  9
$LIGHTGLYPHDISPLAY
280
     1
  9
$TILEMODELIGHTSYNCH
280
     1
  9
$CMATERIAL
347
3C
  9
$SOLIDHIST
280
     1
  9
$SHOWHIST
280
     1
  9
$DWFFRAME
280
     2
  9
$DGNFRAME
280
     2
  9
$REALWORLDSCALE
290
     1
  9
$INTERFERECOLOR
 62
   256
  9
$CSHADOW
280
     0
  9
$SHADOWPLANELOCATION
 40
0.0
  0
ENDSEC
  0
SECTION
  2
CLASSES
  0
CLASS
  1
ACDBDICTIONARYWDFLT
  2
AcDbDictionaryWithDefault
  3
ObjectDBX Classes
 90
        0
 91
        4
280
     0
281
     0
  0
CLASS
  1
VISUALSTYLE
  2
AcDbVisualStyle
  3
ObjectDBX Classes
 90
     4095
 91
        4
280
     0
281
     0
  0
CLASS
  1
MATERIAL
  2
AcDbMaterial
  3
ObjectDBX Classes
 90
     1153
 91
        4
280
     0
281
     0
  0
CLASS
  1
SUN
  2
AcDbSun
  3
SCENEOE
 90
     1024
 91
        4
280
     0
281
     0
  0
ENDSEC
  0
SECTION
  2
TABLES
  0
TABLE
  2
VPORT
  5
8
330
0
100
AcDbSymbolTable
 70
     1
  0
VPORT
  5
29
330
8
100
AcDbSymbolTableRecord
100
AcDbViewportTableRecord
  2
*Active
 70
     0
 10
0.0
 20
0.0
 11
1.0
 21
1.0
 12
0.0
 22
0.0
 13
0.0
 23
0.0
 14
0.5
 24
0.5
 15
0.5
 25
0.5
 16
0.0
 26
0.0
 36
1.0
 17
91.00082462281999
 27
-128.4993055234307
 37
0.0
 40
256.9986110468615
 41
0.7081814508812795
 42
50.0
 43
0.0
 44
0.0
 50
0.0
 51
0.0
 71
     0
 72
   100
 73
     1
 74
     3
 75
     0
 76
     0
 77
     0
 78
     0
281
     0
 65
     1
110
0.0
120
0.0
130
0.0
111
1.0
121
0.0
131
0.0
112
0.0
122
1.0
132
0.0
 79
     0
146
0.0
 60
     3
 61
     5
292
     1
282
     1
141
0.0
142
0.0
 63
   250
361
3F
  0
ENDTAB
  0
TABLE
  2
LTYPE
  5
5
330
0
100
AcDbSymbolTable
 70
     1
  0
LTYPE
  5
14
330
5
100
AcDbSymbolTableRecord
100
AcDbLinetypeTableRecord
  2
ByBlock
 70
     0
  3

 72
    65
 73
     0
 40
0.0
  0
LTYPE
  5
15
330
5
100
AcDbSymbolTableRecord
100
AcDbLinetypeTableRecord
  2
ByLayer
 70
     0
  3

 72
    65
 73
     0
 40
0.0
  0
LTYPE
  5
16
330
5
100
AcDbSymbolTableRecord
100
AcDbLinetypeTableRecord
  2
Continuous
 70
     0
  3
Solid line
 72
    65
 73
     0
 40
0.0
  0
ENDTAB
  0
TABLE
  2
LAYER
  5
2
330
0
100
AcDbSymbolTable
 70
     2
  0
LAYER
  5
10
330
2
100
AcDbSymbolTableRecord
100
AcDbLayerTableRecord
  2
0
 70
     0
 62
     7
  6
Continuous
370
    -3
390
F
347
3E
  0
LAYER
  5
40
330
2
100
AcDbSymbolTableRecord
100
AcDbLayerTableRecord
  2
_U+30EC_U+30A4_U+30E4_U+30FC 1
 70
     0
 62
     7
  6
Continuous
370
    -3
390
F
347
3E
  0
ENDTAB
  0
TABLE
  2
STYLE
  5
3
330
0
100
AcDbSymbolTable
 70
     1
  0
STYLE
  5
11
330
3
100
AcDbSymbolTableRecord
100
AcDbTextStyleTableRecord
  2
Standard
 70
     0
 40
0.0
 41
1.0
 50
0.0
 71
     0
 42
0.2
  3
txt
  4

  0
ENDTAB
  0
TABLE
  2
VIEW
  5
6
330
0
100
AcDbSymbolTable
 70
     0
  0
ENDTAB
  0
TABLE
  2
UCS
  5
7
330
0
100
AcDbSymbolTable
 70
     0
  0
ENDTAB
  0
TABLE
  2
APPID
  5
9
330
0
100
AcDbSymbolTable
 70
     1
  0
APPID
  5
12
330
9
100
AcDbSymbolTableRecord
100
AcDbRegAppTableRecord
  2
ACAD
 70
     0
  0
ENDTAB
  0
TABLE
  2
DIMSTYLE
  5
A
330
0
100
AcDbSymbolTable
 70
     1
100
AcDbDimStyleTable
  0
DIMSTYLE
105
27
330
A
100
AcDbSymbolTableRecord
100
AcDbDimStyleTableRecord
  2
Standard
 70
     0
178
     0
340
11
  0
ENDTAB
  0
TABLE
  2
BLOCK_RECORD
  5
1
330
0
100
AcDbSymbolTable
 70
     7
  0
BLOCK_RECORD
  5
1F
330
1
100
AcDbSymbolTableRecord
100
AcDbBlockTableRecord
  2
*Model_Space
340
22
 70
     0
280
     1
281
     0
  0
BLOCK_RECORD
  5
1B
330
1
100
AcDbSymbolTableRecord
100
AcDbBlockTableRecord
  2
*Paper_Space
340
1E
 70
     0
280
     1
281
     0
  0
BLOCK_RECORD
  5
23
330
1
100
AcDbSymbolTableRecord
100
AcDbBlockTableRecord
  2
*Paper_Space0
340
26
 70
     0
280
     1
281
     0
  0
BLOCK_RECORD
  5
5C
330
1
100
AcDbSymbolTableRecord
100
AcDbBlockTableRecord
  2
block 2
340
0
102
{BLKREFS
331
5D
102
}
 70
     0
280
     1
281
     0
  0
BLOCK_RECORD
  5
63
330
1
100
AcDbSymbolTableRecord
100
AcDbBlockTableRecord
  2
block 3
340
0
102
{BLKREFS
331
64
102
}
 70
     0
280
     1
281
     0
  0
BLOCK_RECORD
  5
69
330
1
100
AcDbSymbolTableRecord
100
AcDbBlockTableRecord
  2
block 4
340
0
102
{BLKREFS
331
6A
102
}
 70
     0
280
     1
281
     0
  0
BLOCK_RECORD
  5
7F
330
1
100
AcDbSymbolTableRecord
100
AcDbBlockTableRecord
  2
block 5
340
0
102
{BLKREFS
331
80
102
}
 70
     0
280
     1
281
     0
  0
BLOCK_RECORD
  5
91
330
1
100
AcDbSymbolTableRecord
100
AcDbBlockTableRecord
  2
block 6
340
0
102
{BLKREFS
331
92
102
}
 70
     0
280
     1
281
     0
  0
BLOCK_RECORD
  5
F2
330
1
100
AcDbSymbolTableRecord
100
AcDbBlockTableRecord
  2
block 7
340
0
102
{BLKREFS
331
F3
102
}
 70
     0
280
     1
281
     0
  0
ENDTAB
  0
ENDSEC
  0
SECTION
  2
BLOCKS
  0
BLOCK
  5
20
330
1F
100
AcDbEntity
  8
0
100
AcDbBlockBegin
  2
*Model_Space
 70
     0
 10
0.0
 20
0.0
 30
0.0
  3
*Model_Space
  1

  0
ENDBLK
  5
21
330
1F
100
AcDbEntity
  8
0
100
AcDbBlockEnd
  0
BLOCK
  5
1C
330
1B
100
AcDbEntity
 67
     1
  8
0
100
AcDbBlockBegin
  2
*Paper_Space
 70
     0
 10
0.0
 20
0.0
 30
0.0
  3
*Paper_Space
  1

  0
ENDBLK
  5
1D
330
1B
100
AcDbEntity
 67
     1
  8
0
100
AcDbBlockEnd
  0
BLOCK
  5
24
330
23
100
AcDbEntity
  8
0
100
AcDbBlockBegin
  2
*Paper_Space0
 70
     0
 10
0.0
 20
0.0
 30
0.0
  3
*Paper_Space0
  1

  0
ENDBLK
  5
25
330
23
100
AcDbEntity
  8
0
100
AcDbBlockEnd
  0
BLOCK
  5
5E
330
5C
100
AcDbEntity
  8
0
100
AcDbBlockBegin
  2
block 2
 70
     0
 10
0.0
 20
0.0
 30
0.0
  3
block 2
  1

  0
SPLINE
  5
60
330
5C
100
AcDbEntity
  8
_U+30EC_U+30A4_U+30E4_U+30FC 1
370
     0
100
AcDbSpline
210
0.0
220
0.0
230
1.0
 70
    11
 71
     3
 72
    32
 73
    28
 74
     0
 42
0.0000000001
 43
0.0000000001
 12
1.0
 22
0.0
 32
0.0
 13
1.0
 23
0.0
 33
0.0
 40
0.0
 40
0.0
 40
0.0
 40
0.0
 40
1.0
 40
1.0
 40
1.0
 40
2.0
 40
2.0
 40
2.0
 40
3.0
 40
3.0
 40
3.0
 40
4.0
 40
4.0
 40
4.0
 40
5.0
 40
5.0
 40
5.0
 40
6.0
 40
6.0
 40
6.0
 40
7.0
 40
7.0
 40
7.0
 40
8.0
 40
8.0
 40
8.0
 40
9.0
 40
9.0
 40
9.0
 40
9.0
 10
88.15999346754334
 20
-120.7640326303993
 30
0.0
 10
87.60808917080631
 20
-120.7640326303993
 30
0.0
 10
87.59913192254467
 20
-120.2100612763711
 30
0.0
 10
87.59913192254467
 20
-119.9961208467371
 30
0.0
 10
87.59913192254467
 20
-119.7656439587739
 30
0.0
 10
87.61945798590764
 20
-119.1183105170954
 30
0.0
 10
88.20064559426929
 20
-119.1183105170954
 30
0.0
 10
88.38599173137573
 20
-119.1183105170954
 30
0.0
 10
88.64816349780324
 20
-119.188245955446
 30
0.0
 10
88.68881562452918
 20
-119.5203531602241
 30
0.0
 10
88.68881562452918
 20
-119.5203531602241
 30
0.0
 10
88.46040579385712
 20
-119.5203531602241
 30
0.0
 10
88.46040579385712
 20
-119.5203531602241
 30
0.0
 10
88.44938148830433
 20
-119.4631645751689
 30
0.0
 10
88.41527504300035
 20
-119.3150254693032
 30
0.0
 10
88.1982340274296
 20
-119.3150254693032
 30
0.0
 10
87.88610837646598
 20
-119.3150254693032
 30
0.0
 10
87.84338919244888
 20
-119.642998559499
 30
0.0
 10
87.82960881050788
 20
-119.8479817408713
 30
0.0
 10
87.9291720700316
 20
-119.7697780733562
 30
0.0
 10
88.00151907522185
 20
-119.7105224310099
 30
0.0
 10
88.19582246058994
 20
-119.7105224310099
 30
0.0
 10
88.38805878866688
 20
-119.7105224310099
 30
0.0
 10
88.71155325473184
 20
-119.8186984292467
 30
0.0
 10
88.71155325473184
 20
-120.2248751869577
 30
0.0
 10
88.71155325473184
 20
-120.5442355384403
 30
0.0
 10
88.49899086329192
 20
-120.7640326303993
 30
0.0
 10
88.15999346754334
 20
-120.7640326303993
 30
0.0
  0
SPLINE
  5
61
330
5C
100
AcDbEntity
  8
_U+30EC_U+30A4_U+30E4_U+30FC 1
370
     0
100
AcDbSpline
210
0.0
220
0.0
230
1.0
 70
    11
 71
     3
 72
    17
 73
    13
 74
     0
 42
0.0000000001
 43
0.0000000001
 12
1.0
 22
0.0
 32
0.0
 13
1.0
 23
0.0
 33
0.0
 40
0.0
 40
0.0
 40
0.0
 40
0.0
 40
1.0
 40
1.0
 40
1.0
 40
2.0
 40
2.0
 40
2.0
 40
3.0
 40
3.0
 40
3.0
 40
4.0
 40
4.0
 40
4.0
 40
4.0
 10
88.17790796406663
 20
-119.9051703259265
 30
0.0
 10
87.8974771915673
 20
-119.9051703259265
 30
0.0
 10
87.85682506484136
 20
-120.1166991887208
 30
0.0
 10
87.85682506484136
 20
-120.2331434161223
 30
0.0
 10
87.85682506484136
 20
-120.40884328587
 30
0.0
 10
87.95845538165622
 20
-120.5717963023223
 30
0.0
 10
88.15517033386399
 20
-120.5717963023223
 30
0.0
 10
88.28401690501234
 20
-120.5717963023223
 30
0.0
 10
88.47177460895846
 20
-120.512540659976
 30
0.0
 10
88.47177460895846
 20
-120.2269422442488
 30
0.0
 10
88.47177460895846
 20
-120.0026665281591
 30
0.0
 10
88.32260197444712
 20
-119.9051703259265
 30
0.0
 10
88.17790796406663
 20
-119.9051703259265
 30
0.0
  0
HATCH
  5
62
330
5C
100
AcDbEntity
  8
_U+30EC_U+30A4_U+30E4_U+30FC 1
 62
   179
420
  2234388
100
AcDbHatch
 10
0.0
 20
0.0
 30
0.0
210
0.0
220
0.0
230
1.0
  2
SOLID
 70
     1
 71
     0
 91
        2
 92
        1
 93
        1
 72
     4
 94
        3
 73
     0
 74
     1
 95
       32
 96
       28
 40
0.0
 40
0.0
 40
0.0
 40
0.0
 40
1.0
 40
1.0
 40
1.0
 40
2.0
 40
2.0
 40
2.0
 40
3.0
 40
3.0
 40
3.0
 40
4.0
 40
4.0
 40
4.0
 40
5.0
 40
5.0
 40
5.0
 40
6.0
 40
6.0
 40
6.0
 40
7.0
 40
7.0
 40
7.0
 40
8.0
 40
8.0
 40
8.0
 40
9.0
 40
9.0
 40
9.0
 40
9.0
 10
88.15999346754334
 20
-120.7640326303993
 10
87.60808917080631
 20
-120.7640326303993
 10
87.59913192254467
 20
-120.2100612763711
 10
87.59913192254467
 20
-119.9961208467371
 10
87.59913192254467
 20
-119.7656439587739
 10
87.61945798590764
 20
-119.1183105170954
 10
88.20064559426929
 20
-119.1183105170954
 10
88.38599173137573
 20
-119.1183105170954
 10
88.64816349780324
 20
-119.188245955446
 10
88.68881562452918
 20
-119.5203531602241
 10
88.68881562452918
 20
-119.5203531602241
 10
88.46040579385712
 20
-119.5203531602241
 10
88.46040579385712
 20
-119.5203531602241
 10
88.44938148830433
 20
-119.4631645751689
 10
88.41527504300035
 20
-119.3150254693032
 10
88.1982340274296
 20
-119.3150254693032
 10
87.88610837646598
 20
-119.3150254693032
 10
87.84338919244888
 20
-119.642998559499
 10
87.82960881050788
 20
-119.8479817408713
 10
87.9291720700316
 20
-119.7697780733562
 10
88.00151907522185
 20
-119.7105224310099
 10
88.19582246058994
 20
-119.7105224310099
 10
88.38805878866688
 20
-119.7105224310099
 10
88.71155325473184
 20
-119.8186984292467
 10
88.71155325473184
 20
-120.2248751869577
 10
88.71155325473184
 20
-120.5442355384403
 10
88.49899086329192
 20
-120.7640326303993
 10
88.15999346754334
 20
-120.7640326303993
 97
        0
 97
        0
 92
        1
 93
        1
 72
     4
 94
        3
 73
     0
 74
     1
 95
       17
 96
       13
 40
0.0
 40
0.0
 40
0.0
 40
0.0
 40
1.0
 40
1.0
 40
1.0
 40
2.0
 40
2.0
 40
2.0
 40
3.0
 40
3.0
 40
3.0
 40
4.0
 40
4.0
 40
4.0
 40
4.0
 10
88.17790796406663
 20
-119.9051703259265
 10
87.8974771915673
 20
-119.9051703259265
 10
87.85682506484136
 20
-120.1166991887208
 10
87.85682506484136
 20
-120.2331434161223
 10
87.85682506484136
 20
-120.40884328587
 10
87.95845538165622
 20
-120.5717963023223
 10
88.15517033386399
 20
-120.5717963023223
 10
88.28401690501234
 20
-120.5717963023223
 10
88.47177460895846
 20
-120.512540659976
 10
88.47177460895846
 20
-120.2269422442488
 10
88.47177460895846
 20
-120.0026665281591
 10
88.32260197444712
 20
-119.9051703259265
 10
88.17790796406663
 20
-119.9051703259265
 97
        0
 97
        0
 75
     2
 76
     1
 98
        0
  0
ENDBLK
  5
5F
330
5C
100
AcDbEntity
  8
0
100
AcDbBlockEnd
  0
BLOCK
  5
65
330
63
100
AcDbEntity
  8
0
100
AcDbBlockBegin
  2
block 3
 70
     0
 10
0.0
 20
0.0
 30
0.0
  3
block 3
  1

  0
SPLINE
  5
67
330
63
100
AcDbEntity
  8
_U+30EC_U+30A4_U+30E4_U+30FC 1
370
     0
100
AcDbSpline
210
0.0
220
0.0
230
1.0
 70
    11
 71
     3
 72
    26
 73
    22
 74
     0
 42
0.0000000001
 43
0.0000000001
 12
1.0
 22
0.0
 32
0.0
 13
1.0
 23
0.0
 33
0.0
 40
0.0
 40
0.0
 40
0.0
 40
0.0
 40
1.0
 40
1.0
 40
1.0
 40
2.0
 40
2.0
 40
2.0
 40
3.0
 40
3.0
 40
3.0
 40
4.0
 40
4.0
 40
4.0
 40
5.0
 40
5.0
 40
5.0
 40
6.0
 40
6.0
 40
6.0
 40
7.0
 40
7.0
 40
7.0
 40
7.0
 10
81.62361380337882
 20
-120.7133897267661
 30
0.0
 10
81.62361380337882
 20
-120.7133897267661
 30
0.0
 10
81.37039928521295
 20
-120.7133897267661
 30
0.0
 10
81.37039928521295
 20
-120.7133897267661
 30
0.0
 10
81.39727102999791
 20
-120.4043646617392
 30
0.0
 10
81.60328774001584
 20
-119.8862223007576
 30
0.0
 10
82.03736977115733
 20
-119.3804822835229
 30
0.0
 10
82.03736977115733
 20
-119.3804822835229
 30
0.0
 10
81.14198945454089
 20
-119.3804822835229
 30
0.0
 10
81.14198945454089
 20
-119.3804822835229
 30
0.0
 10
81.14198945454089
 20
-119.3804822835229
 30
0.0
 10
81.14198945454089
 20
-119.1689534207286
 30
0.0
 10
81.14198945454089
 20
-119.1689534207286
 30
0.0
 10
81.14198945454089
 20
-119.1689534207286
 30
0.0
 10
82.29058428932319
 20
-119.1689534207286
 30
0.0
 10
82.29058428932319
 20
-119.1689534207286
 30
0.0
 10
82.29058428932319
 20
-119.1689534207286
 30
0.0
 10
82.29058428932319
 20
-119.3804822835229
 30
0.0
 10
82.29058428932319
 20
-119.3804822835229
 30
0.0
 10
81.9446967026041
 20
-119.670559323381
 30
0.0
 10
81.65978730597395
 20
-120.2627712372954
 30
0.0
 10
81.62361380337882
 20
-120.7133897267661
 30
0.0
  0
HATCH
  5
68
330
63
100
AcDbEntity
  8
_U+30EC_U+30A4_U+30E4_U+30FC 1
 62
   179
420
  2234388
100
AcDbHatch
 10
0.0
 20
0.0
 30
0.0
210
0.0
220
0.0
230
1.0
  2
SOLID
 70
     1
 71
     0
 91
        1
 92
        1
 93
        1
 72
     4
 94
        3
 73
     0
 74
     1
 95
       26
 96
       22
 40
0.0
 40
0.0
 40
0.0
 40
0.0
 40
1.0
 40
1.0
 40
1.0
 40
2.0
 40
2.0
 40
2.0
 40
3.0
 40
3.0
 40
3.0
 40
4.0
 40
4.0
 40
4.0
 40
5.0
 40
5.0
 40
5.0
 40
6.0
 40
6.0
 40
6.0
 40
7.0
 40
7.0
 40
7.0
 40
7.0
 10
81.62361380337882
 20
-120.7133897267661
 10
81.62361380337882
 20
-120.7133897267661
 10
81.37039928521295
 20
-120.7133897267661
 10
81.37039928521295
 20
-120.7133897267661
 10
81.39727102999791
 20
-120.4043646617392
 10
81.60328774001584
 20
-119.8862223007576
 10
82.03736977115733
 20
-119.3804822835229
 10
82.03736977115733
 20
-119.3804822835229
 10
81.14198945454089
 20
-119.3804822835229
 10
81.14198945454089
 20
-119.3804822835229
 10
81.14198945454089
 20
-119.3804822835229
 10
81.14198945454089
 20
-119.1689534207286
 10
81.14198945454089
 20
-119.1689534207286
 10
81.14198945454089
 20
-119.1689534207286
 10
82.29058428932319
 20
-119.1689534207286
 10
82.29058428932319
 20
-119.1689534207286
 10
82.29058428932319
 20
-119.1689534207286
 10
82.29058428932319
 20
-119.3804822835229
 10
82.29058428932319
 20
-119.3804822835229
 10
81.9446967026041
 20
-119.670559323381
 10
81.65978730597395
 20
-120.2627712372954
 10
81.62361380337882
 20
-120.7133897267661
 97
        0
 97
        0
 75
     2
 76
     1
 98
        0
  0
ENDBLK
  5
66
330
63
100
AcDbEntity
  8
0
100
AcDbBlockEnd
  0
BLOCK
  5
6B
330
69
100
AcDbEntity
  8
0
100
AcDbBlockBegin
  2
block 4
 70
     0
 10
0.0
 20
0.0
 30
0.0
  3
block 4
  1

  0
SPLINE
  5
6D
330
69
100
AcDbEntity
  8
_U+30EC_U+30A4_U+30E4_U+30FC 1
370
     0
100
AcDbSpline
210
0.0
220
0.0
230
1.0
 70
    11
 71
     3
 72
    26
 73
    22
 74
     0
 42
0.0000000001
 43
0.0000000001
 12
1.0
 22
0.0
 32
0.0
 13
1.0
 23
0.0
 33
0.0
 40
0.0
 40
0.0
 40
0.0
 40
0.0
 40
1.0
 40
1.0
 40
1.0
 40
2.0
 40
2.0
 40
2.0
 40
3.0
 40
3.0
 40
3.0
 40
4.0
 40
4.0
 40
4.0
 40
5.0
 40
5.0
 40
5.0
 40
6.0
 40
6.0
 40
6.0
 40
7.0
 40
7.0
 40
7.0
 40
7.0
 10
94.34359535401828
 20
-120.7133897267661
 30
0.0
 10
94.34359535401828
 20
-120.7133897267661
 30
0.0
 10
94.09038083585241
 20
-120.7133897267661
 30
0.0
 10
94.09038083585241
 20
-120.7133897267661
 30
0.0
 10
94.11725258063736
 20
-120.4043646617392
 30
0.0
 10
94.3232692906553
 20
-119.8862223007576
 30
0.0
 10
94.75735132179678
 20
-119.3804822835229
 30
0.0
 10
94.75735132179678
 20
-119.3804822835229
 30
0.0
 10
93.86197100518035
 20
-119.3804822835229
 30
0.0
 10
93.86197100518035
 20
-119.3804822835229
 30
0.0
 10
93.86197100518035
 20
-119.3804822835229
 30
0.0
 10
93.86197100518035
 20
-119.1689534207286
 30
0.0
 10
93.86197100518035
 20
-119.1689534207286
 30
0.0
 10
93.86197100518035
 20
-119.1689534207286
 30
0.0
 10
95.01056583996264
 20
-119.1689534207286
 30
0.0
 10
95.01056583996264
 20
-119.1689534207286
 30
0.0
 10
95.01056583996264
 20
-119.1689534207286
 30
0.0
 10
95.01056583996264
 20
-119.3804822835229
 30
0.0
 10
95.01056583996264
 20
-119.3804822835229
 30
0.0
 10
94.66467825324355
 20
-119.670559323381
 30
0.0
 10
94.3797688566134
 20
-120.2627712372954
 30
0.0
 10
94.34359535401828
 20
-120.7133897267661
 30
0.0
  0
HATCH
  5
6E
330
69
100
AcDbEntity
  8
_U+30EC_U+30A4_U+30E4_U+30FC 1
 62
   179
420
  2234388
100
AcDbHatch
 10
0.0
 20
0.0
 30
0.0
210
0.0
220
0.0
230
1.0
  2
SOLID
 70
     1
 71
     0
 91
        1
 92
        1
 93
        1
 72
     4
 94
        3
 73
     0
 74
     1
 95
       26
 96
       22
 40
0.0
 40
0.0
 40
0.0
 40
0.0
 40
1.0
 40
1.0
 40
1.0
 40
2.0
 40
2.0
 40
2.0
 40
3.0
 40
3.0
 40
3.0
 40
4.0
 40
4.0
 40
4.0
 40
5.0
 40
5.0
 40
5.0
 40
6.0
 40
6.0
 40
6.0
 40
7.0
 40
7.0
 40
7.0
 40
7.0
 10
94.34359535401828
 20
-120.7133897267661
 10
94.34359535401828
 20
-120.7133897267661
 10
94.09038083585241
 20
-120.7133897267661
 10
94.09038083585241
 20
-120.7133897267661
 10
94.11725258063736
 20
-120.4043646617392
 10
94.3232692906553
 20
-119.8862223007576
 10
94.75735132179678
 20
-119.3804822835229
 10
94.75735132179678
 20
-119.3804822835229
 10
93.86197100518035
 20
-119.3804822835229
 10
93.86197100518035
 20
-119.3804822835229
 10
93.86197100518035
 20
-119.3804822835229
 10
93.86197100518035
 20
-119.1689534207286
 10
93.86197100518035
 20
-119.1689534207286
 10
93.86197100518035
 20
-119.1689534207286
 10
95.01056583996264
 20
-119.1689534207286
 10
95.01056583996264
 20
-119.1689534207286
 10
95.01056583996264
 20
-119.1689534207286
 10
95.01056583996264
 20
-119.3804822835229
 10
95.01056583996264
 20
-119.3804822835229
 10
94.66467825324355
 20
-119.670559323381
 10
94.3797688566134
 20
-120.2627712372954
 10
94.34359535401828
 20
-120.7133897267661
 97
        0
 97
        0
 75
     2
 76
     1
 98
        0
  0
ENDBLK
  5
6C
330
69
100
AcDbEntity
  8
0
100
AcDbBlockEnd
  0
BLOCK
  5
81
330
7F
100
AcDbEntity
  8
0
100
AcDbBlockBegin
  2
block 5
 70
     0
 10
0.0
 20
0.0
 30
0.0
  3
block 5
  1

  0
SPLINE
  5
83
330
7F
100
AcDbEntity
  8
_U+30EC_U+30A4_U+30E4_U+30FC 1
370
     0
100
AcDbSpline
210
0.0
220
0.0
230
1.0
 70
    11
 71
     3
 72
    26
 73
    22
 74
     0
 42
0.0000000001
 43
0.0000000001
 12
1.0
 22
0.0
 32
0.0
 13
1.0
 23
0.0
 33
0.0
 40
0.0
 40
0.0
 40
0.0
 40
0.0
 40
1.0
 40
1.0
 40
1.0
 40
2.0
 40
2.0
 40
2.0
 40
3.0
 40
3.0
 40
3.0
 40
4.0
 40
4.0
 40
4.0
 40
5.0
 40
5.0
 40
5.0
 40
6.0
 40
6.0
 40
6.0
 40
7.0
 40
7.0
 40
7.0
 40
7.0
 10
101.8876654476184
 20
-134.1351372277509
 30
0.0
 10
101.8876654476184
 20
-134.1351372277509
 30
0.0
 10
100.7835123445958
 20
-134.1351372277509
 30
0.0
 10
100.7835123445958
 20
-134.1351372277509
 30
0.0
 10
100.7835123445958
 20
-134.1351372277509
 30
0.0
 10
100.7835123445958
 20
-134.487570495892
 30
0.0
 10
100.7835123445958
 20
-134.487570495892
 30
0.0
 10
100.7835123445958
 20
-134.487570495892
 30
0.0
 10
100.6353732387301
 20
-134.487570495892
 30
0.0
 10
100.6353732387301
 20
-134.487570495892
 30
0.0
 10
100.6205593281435
 20
-134.1327256609113
 30
0.0
 10
100.4576063116912
 20
-134.0831162859237
 30
0.0
 10
100.3432291415809
 20
-134.0514214074594
 30
0.0
 10
100.3432291415809
 20
-134.0514214074594
 30
0.0
 10
100.3432291415809
 20
-133.8953585819775
 30
0.0
 10
100.3432291415809
 20
-133.8953585819775
 30
0.0
 10
100.3432291415809
 20
-133.8953585819775
 30
0.0
 10
101.8876654476184
 20
-133.8953585819775
 30
0.0
 10
101.8876654476184
 20
-133.8953585819775
 30
0.0
 10
101.8876654476184
 20
-133.8953585819775
 30
0.0
 10
101.8876654476184
 20
-134.1351372277509
 30
0.0
 10
101.8876654476184
 20
-134.1351372277509
 30
0.0
  0
HATCH
  5
84
330
7F
100
AcDbEntity
  8
_U+30EC_U+30A4_U+30E4_U+30FC 1
 62
   179
420
  2234388
100
AcDbHatch
 10
0.0
 20
0.0
 30
0.0
210
0.0
220
0.0
230
1.0
  2
SOLID
 70
     1
 71
     0
 91
        1
 92
        1
 93
        1
 72
     4
 94
        3
 73
     0
 74
     1
 95
       26
 96
       22
 40
0.0
 40
0.0
 40
0.0
 40
0.0
 40
1.0
 40
1.0
 40
1.0
 40
2.0
 40
2.0
 40
2.0
 40
3.0
 40
3.0
 40
3.0
 40
4.0
 40
4.0
 40
4.0
 40
5.0
 40
5.0
 40
5.0
 40
6.0
 40
6.0
 40
6.0
 40
7.0
 40
7.0
 40
7.0
 40
7.0
 10
101.8876654476184
 20
-134.1351372277509
 10
101.8876654476184
 20
-134.1351372277509
 10
100.7835123445958
 20
-134.1351372277509
 10
100.7835123445958
 20
-134.1351372277509
 10
100.7835123445958
 20
-134.1351372277509
 10
100.7835123445958
 20
-134.487570495892
 10
100.7835123445958
 20
-134.487570495892
 10
100.7835123445958
 20
-134.487570495892
 10
100.6353732387301
 20
-134.487570495892
 10
100.6353732387301
 20
-134.487570495892
 10
100.6205593281435
 20
-134.1327256609113
 10
100.4576063116912
 20
-134.0831162859237
 10
100.3432291415809
 20
-134.0514214074594
 10
100.3432291415809
 20
-134.0514214074594
 10
100.3432291415809
 20
-133.8953585819775
 10
100.3432291415809
 20
-133.8953585819775
 10
100.3432291415809
 20
-133.8953585819775
 10
101.8876654476184
 20
-133.8953585819775
 10
101.8876654476184
 20
-133.8953585819775
 10
101.8876654476184
 20
-133.8953585819775
 10
101.8876654476184
 20
-134.1351372277509
 10
101.8876654476184
 20
-134.1351372277509
 97
        0
 97
        0
 75
     2
 76
     1
 98
        0
  0
SPLINE
  5
85
330
7F
100
AcDbEntity
  8
_U+30EC_U+30A4_U+30E4_U+30FC 1
370
     0
100
AcDbSpline
210
0.0
220
0.0
230
1.0
 70
    11
 71
     3
 72
    44
 73
    40
 74
     0
 42
0.0000000001
 43
0.0000000001
 12
1.0
 22
0.0
 32
0.0
 13
1.0
 23
0.0
 33
0.0
 40
0.0
 40
0.0
 40
0.0
 40
0.0
 40
1.0
 40
1.0
 40
1.0
 40
2.0
 40
2.0
 40
2.0
 40
3.0
 40
3.0
 40
3.0
 40
4.0
 40
4.0
 40
4.0
 40
5.0
 40
5.0
 40
5.0
 40
6.0
 40
6.0
 40
6.0
 40
7.0
 40
7.0
 40
7.0
 40
8.0
 40
8.0
 40
8.0
 40
9.0
 40
9.0
 40
9.0
 40
10.0
 40
10.0
 40
10.0
 40
11.0
 40
11.0
 40
11.0
 40
12.0
 40
12.0
 40
12.0
 40
13.0
 40
13.0
 40
13.0
 40
13.0
 10
101.3057888201597
 20
-132.7257486647352
 30
0.0
 10
101.4646077220297
 20
-132.9586371195381
 30
0.0
 10
101.5386772749626
 20
-133.0582003790618
 30
0.0
 10
101.682682266246
 20
-133.1098768113406
 30
0.0
 10
101.682682266246
 20
-133.1098768113406
 30
0.0
 10
101.682682266246
 20
-132.2782307612013
 30
0.0
 10
101.682682266246
 20
-132.2782307612013
 30
0.0
 10
101.682682266246
 20
-132.2782307612013
 30
0.0
 10
101.8876654476184
 20
-132.2782307612013
 30
0.0
 10
101.8876654476184
 20
-132.2782307612013
 30
0.0
 10
101.8876654476184
 20
-132.2782307612013
 30
0.0
 10
101.8876654476184
 20
-133.3768717114474
 30
0.0
 10
101.8876654476184
 20
-133.3768717114474
 30
0.0
 10
101.5300645362494
 20
-133.3427652661435
 30
0.0
 10
101.4518608687343
 20
-133.2728298277929
 30
0.0
 10
101.1535155997116
 20
-132.8614854268541
 30
0.0
 10
100.9547335902127
 20
-132.5879448453252
 30
0.0
 10
100.8868652091533
 20
-132.5176648974262
 30
0.0
 10
100.7497504088403
 20
-132.5176648974262
 30
0.0
 10
100.6312391241478
 20
-132.5176648974262
 30
0.0
 10
100.4999809861597
 20
-132.5944905267472
 30
0.0
 10
100.4999809861597
 20
-132.804985860896
 30
0.0
 10
100.4999809861597
 20
-133.0830050665556
 30
0.0
 10
100.7304578741229
 20
-133.0919623148173
 30
0.0
 10
100.8469021015244
 20
-133.0964409389481
 30
0.0
 10
100.8469021015244
 20
-133.0964409389481
 30
0.0
 10
100.8469021015244
 20
-133.3362195847215
 30
0.0
 10
100.8469021015244
 20
-133.3362195847215
 30
0.0
 10
100.7201225876672
 20
-133.3269178269113
 30
0.0
 10
100.607812474848
 20
-133.3158935213585
 30
0.0
 10
100.4893011901555
 20
-133.2297661342273
 30
0.0
 10
100.3287597405428
 20
-133.1122883781803
 30
0.0
 10
100.2946532952388
 20
-132.9135063686813
 30
0.0
 10
100.2946532952388
 20
-132.7891384216638
 30
0.0
 10
100.2946532952388
 20
-132.4928602099324
 30
0.0
 10
100.4789659036997
 20
-132.2713405702308
 30
0.0
 10
100.7518174661315
 20
-132.2713405702308
 30
0.0
 10
100.979882787255
 20
-132.2713405702308
 30
0.0
 10
101.0797905563273
 20
-132.3957085172483
 30
0.0
 10
101.3057888201597
 20
-132.7257486647352
 30
0.0
  0
HATCH
  5
86
330
7F
100
AcDbEntity
  8
_U+30EC_U+30A4_U+30E4_U+30FC 1
 62
   179
420
  2234388
100
AcDbHatch
 10
0.0
 20
0.0
 30
0.0
210
0.0
220
0.0
230
1.0
  2
SOLID
 70
     1
 71
     0
 91
        1
 92
        1
 93
        1
 72
     4
 94
        3
 73
     0
 74
     1
 95
       44
 96
       40
 40
0.0
 40
0.0
 40
0.0
 40
0.0
 40
1.0
 40
1.0
 40
1.0
 40
2.0
 40
2.0
 40
2.0
 40
3.0
 40
3.0
 40
3.0
 40
4.0
 40
4.0
 40
4.0
 40
5.0
 40
5.0
 40
5.0
 40
6.0
 40
6.0
 40
6.0
 40
7.0
 40
7.0
 40
7.0
 40
8.0
 40
8.0
 40
8.0
 40
9.0
 40
9.0
 40
9.0
 40
10.0
 40
10.0
 40
10.0
 40
11.0
 40
11.0
 40
11.0
 40
12.0
 40
12.0
 40
12.0
 40
13.0
 40
13.0
 40
13.0
 40
13.0
 10
101.3057888201597
 20
-132.7257486647352
 10
101.4646077220297
 20
-132.9586371195381
 10
101.5386772749626
 20
-133.0582003790618
 10
101.682682266246
 20
-133.1098768113406
 10
101.682682266246
 20
-133.1098768113406
 10
101.682682266246
 20
-132.2782307612013
 10
101.682682266246
 20
-132.2782307612013
 10
101.682682266246
 20
-132.2782307612013
 10
101.8876654476184
 20
-132.2782307612013
 10
101.8876654476184
 20
-132.2782307612013
 10
101.8876654476184
 20
-132.2782307612013
 10
101.8876654476184
 20
-133.3768717114474
 10
101.8876654476184
 20
-133.3768717114474
 10
101.5300645362494
 20
-133.3427652661435
 10
101.4518608687343
 20
-133.2728298277929
 10
101.1535155997116
 20
-132.8614854268541
 10
100.9547335902127
 20
-132.5879448453252
 10
100.8868652091533
 20
-132.5176648974262
 10
100.7497504088403
 20
-132.5176648974262
 10
100.6312391241478
 20
-132.5176648974262
 10
100.4999809861597
 20
-132.5944905267472
 10
100.4999809861597
 20
-132.804985860896
 10
100.4999809861597
 20
-133.0830050665556
 10
100.7304578741229
 20
-133.0919623148173
 10
100.8469021015244
 20
-133.0964409389481
 10
100.8469021015244
 20
-133.0964409389481
 10
100.8469021015244
 20
-133.3362195847215
 10
100.8469021015244
 20
-133.3362195847215
 10
100.7201225876672
 20
-133.3269178269113
 10
100.607812474848
 20
-133.3158935213585
 10
100.4893011901555
 20
-133.2297661342273
 10
100.3287597405428
 20
-133.1122883781803
 10
100.2946532952388
 20
-132.9135063686813
 10
100.2946532952388
 20
-132.7891384216638
 10
100.2946532952388
 20
-132.4928602099324
 10
100.4789659036997
 20
-132.2713405702308
 10
100.7518174661315
 20
-132.2713405702308
 10
100.979882787255
 20
-132.2713405702308
 10
101.0797905563273
 20
-132.3957085172483
 10
101.3057888201597
 20
-132.7257486647352
 97
        0
 97
        0
 75
     2
 76
     1
 98
        0
  0
POLYLINE
  5
87
330
7F
100
AcDbEntity
  8
_U+30EC_U+30A4_U+30E4_U+30FC 1
370
     0
100
AcDb2dPolyline
 66
     1
 10
0.0
 20
0.0
 30
0.0
  0
VERTEX
  5
88
330
87
100
AcDbEntity
  8
_U+30EC_U+30A4_U+30E4_U+30FC 1
370
     0
100
AcDbVertex
100
AcDb2dVertex
 10
101.8876654476184
 20
-132.0377630963308
 30
0.0
  0
VERTEX
  5
89
330
87
100
AcDbEntity
  8
_U+30EC_U+30A4_U+30E4_U+30FC 1
370
     0
100
AcDbVertex
100
AcDb2dVertex
 10
101.6358289676466
 20
-132.0377630963308
 30
0.0
  0
VERTEX
  5
8A
330
87
100
AcDbEntity
  8
_U+30EC_U+30A4_U+30E4_U+30FC 1
370
     0
100
AcDbVertex
100
AcDb2dVertex
 10
101.6358289676466
 20
-131.7687011389328
 30
0.0
  0
VERTEX
  5
8B
330
87
100
AcDbEntity
  8
_U+30EC_U+30A4_U+30E4_U+30FC 1
370
     0
100
AcDbVertex
100
AcDb2dVertex
 10
101.8876654476184
 20
-131.7687011389328
 30
0.0
  0
VERTEX
  5
8C
330
87
100
AcDbEntity
  8
_U+30EC_U+30A4_U+30E4_U+30FC 1
370
     0
100
AcDbVertex
100
AcDb2dVertex
 10
101.8876654476184
 20
-132.0377630963308
 30
0.0
  0
SEQEND
  5
8D
330
87
100
AcDbEntity
  8
_U+30EC_U+30A4_U+30E4_U+30FC 1
370
     0
  0
HATCH
  5
8E
330
7F
100
AcDbEntity
  8
_U+30EC_U+30A4_U+30E4_U+30FC 1
 62
   179
420
  2234388
100
AcDbHatch
 10
0.0
 20
0.0
 30
0.0
210
0.0
220
0.0
230
1.0
  2
SOLID
 70
     1
 71
     0
 91
        1
 92
        1
 93
        4
 72
     1
 10
101.8876654476184
 20
-132.0377630963308
 11
101.6358289676466
 21
-132.0377630963308
 72
     1
 10
101.6358289676466
 20
-132.0377630963308
 11
101.6358289676466
 21
-131.7687011389328
 72
     1
 10
101.6358289676466
 20
-131.7687011389328
 11
101.8876654476184
 21
-131.7687011389328
 72
     1
 10
101.8876654476184
 20
-131.7687011389328
 11
101.8876654476184
 21
-132.0377630963308
 97
        0
 75
     2
 76
     1
 98
        0
  0
SPLINE
  5
8F
330
7F
100
AcDbEntity
  8
_U+30EC_U+30A4_U+30E4_U+30FC 1
370
     0
100
AcDbSpline
210
0.0
220
0.0
230
1.0
 70
    11
 71
     3
 72
    53
 73
    49
 74
     0
 42
0.0000000001
 43
0.0000000001
 12
1.0
 22
0.0
 32
0.0
 13
1.0
 23
0.0
 33
0.0
 40
0.0
 40
0.0
 40
0.0
 40
0.0
 40
1.0
 40
1.0
 40
1.0
 40
2.0
 40
2.0
 40
2.0
 40
3.0
 40
3.0
 40
3.0
 40
4.0
 40
4.0
 40
4.0
 40
5.0
 40
5.0
 40
5.0
 40
6.0
 40
6.0
 40
6.0
 40
7.0
 40
7.0
 40
7.0
 40
8.0
 40
8.0
 40
8.0
 40
9.0
 40
9.0
 40
9.0
 40
10.0
 40
10.0
 40
10.0
 40
11.0
 40
11.0
 40
11.0
 40
12.0
 40
12.0
 40
12.0
 40
13.0
 40
13.0
 40
13.0
 40
14.0
 40
14.0
 40
14.0
 40
15.0
 40
15.0
 40
15.0
 40
16.0
 40
16.0
 40
16.0
 40
16.0
 10
101.9383083512515
 20
-131.0018228839162
 30
0.0
 10
101.9383083512515
 20
-131.0855387042078
 30
0.0
 10
101.9214273833738
 20
-131.1937147024446
 30
0.0
 10
101.8580376264452
 20
-131.3025797197785
 30
0.0
 10
101.7481390804657
 20
-131.487925856885
 30
0.0
 10
101.6168809424777
 20
-131.5103189775391
 30
0.0
 10
101.5090494537894
 20
-131.5306450409021
 30
0.0
 10
101.5090494537894
 20
-131.5306450409021
 30
0.0
 10
101.5090494537894
 20
-131.2932779619684
 30
0.0
 10
101.5090494537894
 20
-131.2932779619684
 30
0.0
 10
101.7078314632883
 20
-131.2347113387191
 30
0.0
 10
101.7374592844615
 20
-131.0989745766003
 30
0.0
 10
101.7374592844615
 20
-130.9994113170766
 30
0.0
 10
101.7374592844615
 20
-130.8502386825652
 30
0.0
 10
101.6378960249378
 20
-130.6872856661129
 30
0.0
 10
101.4053520796834
 20
-130.6872856661129
 30
0.0
 10
101.1493814851293
 20
-130.6872856661129
 30
0.0
 10
101.0797905563273
 20
-130.8795219941898
 30
0.0
 10
101.0797905563273
 20
-131.0083685653382
 30
0.0
 10
101.0797905563273
 20
-131.0424750106422
 30
0.0
 10
101.0797905563273
 20
-131.1937147024446
 30
0.0
 10
101.2086371274756
 20
-131.2887993378375
 30
0.0
 10
101.2086371274756
 20
-131.2887993378375
 30
0.0
 10
101.1893445927582
 20
-131.4765570417836
 30
0.0
 10
101.1893445927582
 20
-131.4765570417836
 30
0.0
 10
101.1893445927582
 20
-131.4765570417836
 30
0.0
 10
100.3432291415809
 20
-131.3477104706353
 30
0.0
 10
100.3432291415809
 20
-131.3477104706353
 30
0.0
 10
100.3432291415809
 20
-131.3477104706353
 30
0.0
 10
100.3432291415809
 20
-130.5157199109475
 30
0.0
 10
100.3432291415809
 20
-130.5157199109475
 30
0.0
 10
100.3432291415809
 20
-130.5157199109475
 30
0.0
 10
100.538221546046
 20
-130.5157199109475
 30
0.0
 10
100.538221546046
 20
-130.5157199109475
 30
0.0
 10
100.538221546046
 20
-130.5157199109475
 30
0.0
 10
100.538221546046
 20
-131.1733886390817
 30
0.0
 10
100.538221546046
 20
-131.1733886390817
 30
0.0
 10
100.538221546046
 20
-131.1733886390817
 30
0.0
 10
100.9612792716347
 20
-131.2436685869808
 30
0.0
 10
100.9612792716347
 20
-131.2436685869808
 30
0.0
 10
100.9271728263307
 20
-131.178211772761
 30
0.0
 10
100.8868652091533
 20
-131.0900173283386
 30
0.0
 10
100.8868652091533
 20
-130.9632378144814
 30
0.0
 10
100.8868652091533
 20
-130.6921087997923
 30
0.0
 10
101.0732448749053
 20
-130.4388942816264
 30
0.0
 10
101.3864040545145
 20
-130.4388942816264
 30
0.0
 10
101.703697348706
 20
-130.4388942816264
 30
0.0
 10
101.9383083512515
 20
-130.6783284178512
 30
0.0
 10
101.9383083512515
 20
-131.0018228839162
 30
0.0
  0
HATCH
  5
90
330
7F
100
AcDbEntity
  8
_U+30EC_U+30A4_U+30E4_U+30FC 1
 62
   179
420
  2234388
100
AcDbHatch
 10
0.0
 20
0.0
 30
0.0
210
0.0
220
0.0
230
1.0
  2
SOLID
 70
     1
 71
     0
 91
        1
 92
        1
 93
        1
 72
     4
 94
        3
 73
     0
 74
     1
 95
       53
 96
       49
 40
0.0
 40
0.0
 40
0.0
 40
0.0
 40
1.0
 40
1.0
 40
1.0
 40
2.0
 40
2.0
 40
2.0
 40
3.0
 40
3.0
 40
3.0
 40
4.0
 40
4.0
 40
4.0
 40
5.0
 40
5.0
 40
5.0
 40
6.0
 40
6.0
 40
6.0
 40
7.0
 40
7.0
 40
7.0
 40
8.0
 40
8.0
 40
8.0
 40
9.0
 40
9.0
 40
9.0
 40
10.0
 40
10.0
 40
10.0
 40
11.0
 40
11.0
 40
11.0
 40
12.0
 40
12.0
 40
12.0
 40
13.0
 40
13.0
 40
13.0
 40
14.0
 40
14.0
 40
14.0
 40
15.0
 40
15.0
 40
15.0
 40
16.0
 40
16.0
 40
16.0
 40
16.0
 10
101.9383083512515
 20
-131.0018228839162
 10
101.9383083512515
 20
-131.0855387042078
 10
101.9214273833738
 20
-131.1937147024446
 10
101.8580376264452
 20
-131.3025797197785
 10
101.7481390804657
 20
-131.487925856885
 10
101.6168809424777
 20
-131.5103189775391
 10
101.5090494537894
 20
-131.5306450409021
 10
101.5090494537894
 20
-131.5306450409021
 10
101.5090494537894
 20
-131.2932779619684
 10
101.5090494537894
 20
-131.2932779619684
 10
101.7078314632883
 20
-131.2347113387191
 10
101.7374592844615
 20
-131.0989745766003
 10
101.7374592844615
 20
-130.9994113170766
 10
101.7374592844615
 20
-130.8502386825652
 10
101.6378960249378
 20
-130.6872856661129
 10
101.4053520796834
 20
-130.6872856661129
 10
101.1493814851293
 20
-130.6872856661129
 10
101.0797905563273
 20
-130.8795219941898
 10
101.0797905563273
 20
-131.0083685653382
 10
101.0797905563273
 20
-131.0424750106422
 10
101.0797905563273
 20
-131.1937147024446
 10
101.2086371274756
 20
-131.2887993378375
 10
101.2086371274756
 20
-131.2887993378375
 10
101.1893445927582
 20
-131.4765570417836
 10
101.1893445927582
 20
-131.4765570417836
 10
101.1893445927582
 20
-131.4765570417836
 10
100.3432291415809
 20
-131.3477104706353
 10
100.3432291415809
 20
-131.3477104706353
 10
100.3432291415809
 20
-131.3477104706353
 10
100.3432291415809
 20
-130.5157199109475
 10
100.3432291415809
 20
-130.5157199109475
 10
100.3432291415809
 20
-130.5157199109475
 10
100.538221546046
 20
-130.5157199109475
 10
100.538221546046
 20
-130.5157199109475
 10
100.538221546046
 20
-130.5157199109475
 10
100.538221546046
 20
-131.1733886390817
 10
100.538221546046
 20
-131.1733886390817
 10
100.538221546046
 20
-131.1733886390817
 10
100.9612792716347
 20
-131.2436685869808
 10
100.9612792716347
 20
-131.2436685869808
 10
100.9271728263307
 20
-131.178211772761
 10
100.8868652091533
 20
-131.0900173283386
 10
100.8868652091533
 20
-130.9632378144814
 10
100.8868652091533
 20
-130.6921087997923
 10
101.0732448749053
 20
-130.4388942816264
 10
101.3864040545145
 20
-130.4388942816264
 10
101.703697348706
 20
-130.4388942816264
 10
101.9383083512515
 20
-130.6783284178512
 10
101.9383083512515
 20
-131.0018228839162
 97
        0
 97
        0
 75
     2
 76
     1
 98
        0
  0
ENDBLK
  5
82
330
7F
100
AcDbEntity
  8
0
100
AcDbBlockEnd
  0
BLOCK
  5
93
330
91
100
AcDbEntity
  8
0
100
AcDbBlockBegin
  2
block 6
 70
     0
 10
0.0
 20
0.0
 30
0.0
  3
block 6
  1

  0
SPLINE
  5
95
330
91
100
AcDbEntity
  8
_U+30EC_U+30A4_U+30E4_U+30FC 1
370
     0
100
AcDbSpline
210
0.0
220
0.0
230
1.0
 70
    11
 71
     3
 72
    26
 73
    22
 74
     0
 42
0.0000000001
 43
0.0000000001
 12
1.0
 22
0.0
 32
0.0
 13
1.0
 23
0.0
 33
0.0
 40
0.0
 40
0.0
 40
0.0
 40
0.0
 40
1.0
 40
1.0
 40
1.0
 40
2.0
 40
2.0
 40
2.0
 40
3.0
 40
3.0
 40
3.0
 40
4.0
 40
4.0
 40
4.0
 40
5.0
 40
5.0
 40
5.0
 40
6.0
 40
6.0
 40
6.0
 40
7.0
 40
7.0
 40
7.0
 40
7.0
 10
101.9073024918843
 20
-123.2410562842939
 30
0.0
 10
101.9073024918843
 20
-123.2410562842939
 30
0.0
 10
100.8031493888617
 20
-123.2410562842939
 30
0.0
 10
100.8031493888617
 20
-123.2410562842939
 30
0.0
 10
100.8031493888617
 20
-123.2410562842939
 30
0.0
 10
100.8031493888617
 20
-123.593489552435
 30
0.0
 10
100.8031493888617
 20
-123.593489552435
 30
0.0
 10
100.8031493888617
 20
-123.593489552435
 30
0.0
 10
100.655010282996
 20
-123.593489552435
 30
0.0
 10
100.655010282996
 20
-123.593489552435
 30
0.0
 10
100.6401963724094
 20
-123.2386447174542
 30
0.0
 10
100.4772433559571
 20
-123.1890353424666
 30
0.0
 10
100.3632106953953
 20
-123.1573404640023
 30
0.0
 10
100.3632106953953
 20
-123.1573404640023
 30
0.0
 10
100.3632106953953
 20
-123.0012776385205
 30
0.0
 10
100.3632106953953
 20
-123.0012776385205
 30
0.0
 10
100.3632106953953
 20
-123.0012776385205
 30
0.0
 10
101.9073024918843
 20
-123.0012776385205
 30
0.0
 10
101.9073024918843
 20
-123.0012776385205
 30
0.0
 10
101.9073024918843
 20
-123.0012776385205
 30
0.0
 10
101.9073024918843
 20
-123.2410562842939
 30
0.0
 10
101.9073024918843
 20
-123.2410562842939
 30
0.0
  0
HATCH
  5
96
330
91
100
AcDbEntity
  8
_U+30EC_U+30A4_U+30E4_U+30FC 1
 62
   179
420
  2234388
100
AcDbHatch
 10
0.0
 20
0.0
 30
0.0
210
0.0
220
0.0
230
1.0
  2
SOLID
 70
     1
 71
     0
 91
        1
 92
        1
 93
        1
 72
     4
 94
        3
 73
     0
 74
     1
 95
       26
 96
       22
 40
0.0
 40
0.0
 40
0.0
 40
0.0
 40
1.0
 40
1.0
 40
1.0
 40
2.0
 40
2.0
 40
2.0
 40
3.0
 40
3.0
 40
3.0
 40
4.0
 40
4.0
 40
4.0
 40
5.0
 40
5.0
 40
5.0
 40
6.0
 40
6.0
 40
6.0
 40
7.0
 40
7.0
 40
7.0
 40
7.0
 10
101.9073024918843
 20
-123.2410562842939
 10
101.9073024918843
 20
-123.2410562842939
 10
100.8031493888617
 20
-123.2410562842939
 10
100.8031493888617
 20
-123.2410562842939
 10
100.8031493888617
 20
-123.2410562842939
 10
100.8031493888617
 20
-123.593489552435
 10
100.8031493888617
 20
-123.593489552435
 10
100.8031493888617
 20
-123.593489552435
 10
100.655010282996
 20
-123.593489552435
 10
100.655010282996
 20
-123.593489552435
 10
100.6401963724094
 20
-123.2386447174542
 10
100.4772433559571
 20
-123.1890353424666
 10
100.3632106953953
 20
-123.1573404640023
 10
100.3632106953953
 20
-123.1573404640023
 10
100.3632106953953
 20
-123.0012776385205
 10
100.3632106953953
 20
-123.0012776385205
 10
100.3632106953953
 20
-123.0012776385205
 10
101.9073024918843
 20
-123.0012776385205
 10
101.9073024918843
 20
-123.0012776385205
 10
101.9073024918843
 20
-123.0012776385205
 10
101.9073024918843
 20
-123.2410562842939
 10
101.9073024918843
 20
-123.2410562842939
 97
        0
 97
        0
 75
     2
 76
     1
 98
        0
  0
POLYLINE
  5
97
330
91
100
AcDbEntity
  8
_U+30EC_U+30A4_U+30E4_U+30FC 1
370
     0
100
AcDb2dPolyline
 66
     1
 10
0.0
 20
0.0
 30
0.0
  0
VERTEX
  5
98
330
97
100
AcDbEntity
  8
_U+30EC_U+30A4_U+30E4_U+30FC 1
370
     0
100
AcDbVertex
100
AcDb2dVertex
 10
101.9073024918843
 20
-122.4014865145385
 30
0.0
  0
VERTEX
  5
99
330
97
100
AcDbEntity
  8
_U+30EC_U+30A4_U+30E4_U+30FC 1
370
     0
100
AcDbVertex
100
AcDb2dVertex
 10
101.655810521461
 20
-122.4014865145385
 30
0.0
  0
VERTEX
  5
9A
330
97
100
AcDbEntity
  8
_U+30EC_U+30A4_U+30E4_U+30FC 1
370
     0
100
AcDbVertex
100
AcDb2dVertex
 10
101.655810521461
 20
-122.1324245571405
 30
0.0
  0
VERTEX
  5
9B
330
97
100
AcDbEntity
  8
_U+30EC_U+30A4_U+30E4_U+30FC 1
370
     0
100
AcDbVertex
100
AcDb2dVertex
 10
101.9073024918843
 20
-122.1324245571405
 30
0.0
  0
VERTEX
  5
9C
330
97
100
AcDbEntity
  8
_U+30EC_U+30A4_U+30E4_U+30FC 1
370
     0
100
AcDbVertex
100
AcDb2dVertex
 10
101.9073024918843
 20
-122.4014865145385
 30
0.0
  0
SEQEND
  5
9D
330
97
100
AcDbEntity
  8
_U+30EC_U+30A4_U+30E4_U+30FC 1
370
     0
  0
HATCH
  5
9E
330
91
100
AcDbEntity
  8
_U+30EC_U+30A4_U+30E4_U+30FC 1
 62
   179
420
  2234388
100
AcDbHatch
 10
0.0
 20
0.0
 30
0.0
210
0.0
220
0.0
230
1.0
  2
SOLID
 70
     1
 71
     0
 91
        1
 92
        1
 93
        4
 72
     1
 10
101.9073024918843
 20
-122.4014865145385
 11
101.655810521461
 21
-122.4014865145385
 72
     1
 10
101.655810521461
 20
-122.4014865145385
 11
101.655810521461
 21
-122.1324245571405
 72
     1
 10
101.655810521461
 20
-122.1324245571405
 11
101.9073024918843
 21
-122.1324245571405
 72
     1
 10
101.9073024918843
 20
-122.1324245571405
 11
101.9073024918843
 21
-122.4014865145385
 97
        0
 75
     2
 76
     1
 98
        0
  0
SPLINE
  5
9F
330
91
100
AcDbEntity
  8
_U+30EC_U+30A4_U+30E4_U+30FC 1
370
     0
100
AcDbSpline
210
0.0
220
0.0
230
1.0
 70
    11
 71
     3
 72
    53
 73
    49
 74
     0
 42
0.0000000001
 43
0.0000000001
 12
1.0
 22
0.0
 32
0.0
 13
1.0
 23
0.0
 33
0.0
 40
0.0
 40
0.0
 40
0.0
 40
0.0
 40
1.0
 40
1.0
 40
1.0
 40
2.0
 40
2.0
 40
2.0
 40
3.0
 40
3.0
 40
3.0
 40
4.0
 40
4.0
 40
4.0
 40
5.0
 40
5.0
 40
5.0
 40
6.0
 40
6.0
 40
6.0
 40
7.0
 40
7.0
 40
7.0
 40
8.0
 40
8.0
 40
8.0
 40
9.0
 40
9.0
 40
9.0
 40
10.0
 40
10.0
 40
10.0
 40
11.0
 40
11.0
 40
11.0
 40
12.0
 40
12.0
 40
12.0
 40
13.0
 40
13.0
 40
13.0
 40
14.0
 40
14.0
 40
14.0
 40
15.0
 40
15.0
 40
15.0
 40
16.0
 40
16.0
 40
16.0
 40
16.0
 10
101.958289905066
 20
-121.3655463021239
 30
0.0
 10
101.958289905066
 20
-121.4489176128669
 30
0.0
 10
101.9410644276397
 20
-121.5577826302008
 30
0.0
 10
101.8776746707111
 20
-121.6659586284377
 30
0.0
 10
101.7677761247317
 20
-121.8516492750927
 30
0.0
 10
101.6365179867437
 20
-121.8740423957468
 30
0.0
 10
101.5286864980553
 20
-121.8943684591097
 30
0.0
 10
101.5286864980553
 20
-121.8943684591097
 30
0.0
 10
101.5286864980553
 20
-121.657001380176
 30
0.0
 10
101.5286864980553
 20
-121.657001380176
 30
0.0
 10
101.7274685075542
 20
-121.5984347569268
 30
0.0
 10
101.7570963287274
 20
-121.4626979948079
 30
0.0
 10
101.7570963287274
 20
-121.3631347352842
 30
0.0
 10
101.7570963287274
 20
-121.2139621007729
 30
0.0
 10
101.6578775787522
 20
-121.0513535938691
 30
0.0
 10
101.4249891239493
 20
-121.0513535938691
 30
0.0
 10
101.1690185293952
 20
-121.0513535938691
 30
0.0
 10
101.0994276005932
 20
-121.2432454123975
 30
0.0
 10
101.0994276005932
 20
-121.3720919835459
 30
0.0
 10
101.0994276005932
 20
-121.4061984288498
 30
0.0
 10
101.0994276005932
 20
-121.5577826302008
 30
0.0
 10
101.2282741717415
 20
-121.6525227560452
 30
0.0
 10
101.2282741717415
 20
-121.6525227560452
 30
0.0
 10
101.2093261465727
 20
-121.8402804599913
 30
0.0
 10
101.2093261465727
 20
-121.8402804599913
 30
0.0
 10
101.2093261465727
 20
-121.8402804599913
 30
0.0
 10
100.3632106953953
 20
-121.711433888843
 30
0.0
 10
100.3632106953953
 20
-121.711433888843
 30
0.0
 10
100.3632106953953
 20
-121.711433888843
 30
0.0
 10
100.3632106953953
 20
-120.8794433291552
 30
0.0
 10
100.3632106953953
 20
-120.8794433291552
 30
0.0
 10
100.3632106953953
 20
-120.8794433291552
 30
0.0
 10
100.5578585903119
 20
-120.8794433291552
 30
0.0
 10
100.5578585903119
 20
-120.8794433291552
 30
0.0
 10
100.5578585903119
 20
-120.8794433291552
 30
0.0
 10
100.5578585903119
 20
-121.5371120572893
 30
0.0
 10
100.5578585903119
 20
-121.5371120572893
 30
0.0
 10
100.5578585903119
 20
-121.5371120572893
 30
0.0
 10
100.9809163159006
 20
-121.6073920051884
 30
0.0
 10
100.9809163159006
 20
-121.6073920051884
 30
0.0
 10
100.9468098705966
 20
-121.5419351909687
 30
0.0
 10
100.9068467629677
 20
-121.4537407465463
 30
0.0
 10
100.9068467629677
 20
-121.3269612326891
 30
0.0
 10
100.9068467629677
 20
-121.0558322179999
 30
0.0
 10
101.0928819191712
 20
-120.8026176998341
 30
0.0
 10
101.4060410987804
 20
-120.8026176998341
 30
0.0
 10
101.7233343929719
 20
-120.8026176998341
 30
0.0
 10
101.958289905066
 20
-121.0420518360589
 30
0.0
 10
101.958289905066
 20
-121.3655463021239
 30
0.0
  0
HATCH
  5
A0
330
91
100
AcDbEntity
  8
_U+30EC_U+30A4_U+30E4_U+30FC 1
 62
   179
420
  2234388
100
AcDbHatch
 10
0.0
 20
0.0
 30
0.0
210
0.0
220
0.0
230
1.0
  2
SOLID
 70
     1
 71
     0
 91
        1
 92
        1
 93
        1
 72
     4
 94
        3
 73
     0
 74
     1
 95
       53
 96
       49
 40
0.0
 40
0.0
 40
0.0
 40
0.0
 40
1.0
 40
1.0
 40
1.0
 40
2.0
 40
2.0
 40
2.0
 40
3.0
 40
3.0
 40
3.0
 40
4.0
 40
4.0
 40
4.0
 40
5.0
 40
5.0
 40
5.0
 40
6.0
 40
6.0
 40
6.0
 40
7.0
 40
7.0
 40
7.0
 40
8.0
 40
8.0
 40
8.0
 40
9.0
 40
9.0
 40
9.0
 40
10.0
 40
10.0
 40
10.0
 40
11.0
 40
11.0
 40
11.0
 40
12.0
 40
12.0
 40
12.0
 40
13.0
 40
13.0
 40
13.0
 40
14.0
 40
14.0
 40
14.0
 40
15.0
 40
15.0
 40
15.0
 40
16.0
 40
16.0
 40
16.0
 40
16.0
 10
101.958289905066
 20
-121.3655463021239
 10
101.958289905066
 20
-121.4489176128669
 10
101.9410644276397
 20
-121.5577826302008
 10
101.8776746707111
 20
-121.6659586284377
 10
101.7677761247317
 20
-121.8516492750927
 10
101.6365179867437
 20
-121.8740423957468
 10
101.5286864980553
 20
-121.8943684591097
 10
101.5286864980553
 20
-121.8943684591097
 10
101.5286864980553
 20
-121.657001380176
 10
101.5286864980553
 20
-121.657001380176
 10
101.7274685075542
 20
-121.5984347569268
 10
101.7570963287274
 20
-121.4626979948079
 10
101.7570963287274
 20
-121.3631347352842
 10
101.7570963287274
 20
-121.2139621007729
 10
101.6578775787522
 20
-121.0513535938691
 10
101.4249891239493
 20
-121.0513535938691
 10
101.1690185293952
 20
-121.0513535938691
 10
101.0994276005932
 20
-121.2432454123975
 10
101.0994276005932
 20
-121.3720919835459
 10
101.0994276005932
 20
-121.4061984288498
 10
101.0994276005932
 20
-121.5577826302008
 10
101.2282741717415
 20
-121.6525227560452
 10
101.2282741717415
 20
-121.6525227560452
 10
101.2093261465727
 20
-121.8402804599913
 10
101.2093261465727
 20
-121.8402804599913
 10
101.2093261465727
 20
-121.8402804599913
 10
100.3632106953953
 20
-121.711433888843
 10
100.3632106953953
 20
-121.711433888843
 10
100.3632106953953
 20
-121.711433888843
 10
100.3632106953953
 20
-120.8794433291552
 10
100.3632106953953
 20
-120.8794433291552
 10
100.3632106953953
 20
-120.8794433291552
 10
100.5578585903119
 20
-120.8794433291552
 10
100.5578585903119
 20
-120.8794433291552
 10
100.5578585903119
 20
-120.8794433291552
 10
100.5578585903119
 20
-121.5371120572893
 10
100.5578585903119
 20
-121.5371120572893
 10
100.5578585903119
 20
-121.5371120572893
 10
100.9809163159006
 20
-121.6073920051884
 10
100.9809163159006
 20
-121.6073920051884
 10
100.9468098705966
 20
-121.5419351909687
 10
100.9068467629677
 20
-121.4537407465463
 10
100.9068467629677
 20
-121.3269612326891
 10
100.9068467629677
 20
-121.0558322179999
 10
101.0928819191712
 20
-120.8026176998341
 10
101.4060410987804
 20
-120.8026176998341
 10
101.7233343929719
 20
-120.8026176998341
 10
101.958289905066
 20
-121.0420518360589
 10
101.958289905066
 20
-121.3655463021239
 97
        0
 97
        0
 75
     2
 76
     1
 98
        0
  0
ENDBLK
  5
94
330
91
100
AcDbEntity
  8
0
100
AcDbBlockEnd
  0
BLOCK
  5
F4
330
F2
100
AcDbEntity
  8
0
100
AcDbBlockBegin
  2
block 7
 70
     0
 10
0.0
 20
0.0
 30
0.0
  3
block 7
  1

  0
SPLINE
  5
F6
330
F2
100
AcDbEntity
  8
_U+30EC_U+30A4_U+30E4_U+30FC 1
370
     0
100
AcDbSpline
210
0.0
220
0.0
230
1.0
 70
    11
 71
     3
 72
    26
 73
    22
 74
     0
 42
0.0000000001
 43
0.0000000001
 12
1.0
 22
0.0
 32
0.0
 13
1.0
 23
0.0
 33
0.0
 40
0.0
 40
0.0
 40
0.0
 40
0.0
 40
1.0
 40
1.0
 40
1.0
 40
2.0
 40
2.0
 40
2.0
 40
3.0
 40
3.0
 40
3.0
 40
4.0
 40
4.0
 40
4.0
 40
5.0
 40
5.0
 40
5.0
 40
6.0
 40
6.0
 40
6.0
 40
7.0
 40
7.0
 40
7.0
 40
7.0
 10
86.3172118924832
 20
-126.1228786577054
 30
0.0
 10
86.3172118924832
 20
-126.1228786577054
 30
0.0
 10
86.3172118924832
 20
-125.0187255546828
 30
0.0
 10
86.3172118924832
 20
-125.0187255546828
 30
0.0
 10
86.3172118924832
 20
-125.0187255546828
 30
0.0
 10
85.96477862434215
 20
-125.0187255546828
 30
0.0
 10
85.96477862434215
 20
-125.0187255546828
 30
0.0
 10
85.96477862434215
 20
-125.0187255546828
 30
0.0
 10
85.96477862434215
 20
-124.8705864488171
 30
0.0
 10
85.96477862434215
 20
-124.8705864488171
 30
0.0
 10
86.31962345932287
 20
-124.8557725382305
 30
0.0
 10
86.36923283431048
 20
-124.6928195217782
 30
0.0
 10
86.40092771277477
 20
-124.5784423516679
 30
0.0
 10
86.40092771277477
 20
-124.5784423516679
 30
0.0
 10
86.55699053825658
 20
-124.5784423516679
 30
0.0
 10
86.55699053825658
 20
-124.5784423516679
 30
0.0
 10
86.55699053825658
 20
-124.5784423516679
 30
0.0
 10
86.55699053825658
 20
-126.1228786577054
 30
0.0
 10
86.55699053825658
 20
-126.1228786577054
 30
0.0
 10
86.55699053825658
 20
-126.1228786577054
 30
0.0
 10
86.3172118924832
 20
-126.1228786577054
 30
0.0
 10
86.3172118924832
 20
-126.1228786577054
 30
0.0
  0
HATCH
  5
F7
330
F2
100
AcDbEntity
  8
_U+30EC_U+30A4_U+30E4_U+30FC 1
 62
   179
420
  2234388
100
AcDbHatch
 10
0.0
 20
0.0
 30
0.0
210
0.0
220
0.0
230
1.0
  2
SOLID
 70
     1
 71
     0
 91
        1
 92
        1
 93
        1
 72
     4
 94
        3
 73
     0
 74
     1
 95
       26
 96
       22
 40
0.0
 40
0.0
 40
0.0
 40
0.0
 40
1.0
 40
1.0
 40
1.0
 40
2.0
 40
2.0
 40
2.0
 40
3.0
 40
3.0
 40
3.0
 40
4.0
 40
4.0
 40
4.0
 40
5.0
 40
5.0
 40
5.0
 40
6.0
 40
6.0
 40
6.0
 40
7.0
 40
7.0
 40
7.0
 40
7.0
 10
86.3172118924832
 20
-126.1228786577054
 10
86.3172118924832
 20
-126.1228786577054
 10
86.3172118924832
 20
-125.0187255546828
 10
86.3172118924832
 20
-125.0187255546828
 10
86.3172118924832
 20
-125.0187255546828
 10
85.96477862434215
 20
-125.0187255546828
 10
85.96477862434215
 20
-125.0187255546828
 10
85.96477862434215
 20
-125.0187255546828
 10
85.96477862434215
 20
-124.8705864488171
 10
85.96477862434215
 20
-124.8705864488171
 10
86.31962345932287
 20
-124.8557725382305
 10
86.36923283431048
 20
-124.6928195217782
 10
86.40092771277477
 20
-124.5784423516679
 10
86.40092771277477
 20
-124.5784423516679
 10
86.55699053825658
 20
-124.5784423516679
 10
86.55699053825658
 20
-124.5784423516679
 10
86.55699053825658
 20
-124.5784423516679
 10
86.55699053825658
 20
-126.1228786577054
 10
86.55699053825658
 20
-126.1228786577054
 10
86.55699053825658
 20
-126.1228786577054
 10
86.3172118924832
 20
-126.1228786577054
 10
86.3172118924832
 20
-126.1228786577054
 97
        0
 97
        0
 75
     2
 76
     1
 98
        0
  0
ENDBLK
  5
F5
330
F2
100
AcDbEntity
  8
0
100
AcDbBlockEnd
  0
ENDSEC
  0
SECTION
  2
ENTITIES
  0
SPLINE
  5
41
330
1F
100
AcDbEntity
  8
_U+30EC_U+30A4_U+30E4_U+30FC 1
 62
   179
420
  2234388
370
     9
100
AcDbSpline
210
0.0
220
0.0
230
1.0
 70
    11
 71
     3
 72
    17
 73
    13
 74
     0
 42
0.0000000001
 43
0.0000000001
 12
1.0
 22
0.0
 32
0.0
 13
1.0
 23
0.0
 33
0.0
 40
0.0
 40
0.0
 40
0.0
 40
0.0
 40
1.0
 40
1.0
 40
1.0
 40
2.0
 40
2.0
 40
2.0
 40
3.0
 40
3.0
 40
3.0
 40
4.0
 40
4.0
 40
4.0
 40
4.0
 10
98.28893110355158
 20
-121.4258288585324
 30
0.0
 10
98.28893110355158
 20
-121.3707249696572
 30
0.0
 10
98.24412832691681
 20
-121.3259221918908
 30
0.0
 10
98.18902443943374
 20
-121.3259221918908
 30
0.0
 10
98.13388527417379
 20
-121.3259221918908
 30
0.0
 10
98.0891177753159
 20
-121.3707249696572
 30
0.0
 10
98.0891177753159
 20
-121.4258288585324
 30
0.0
 10
98.0891177753159
 20
-121.4809680251852
 30
0.0
 10
98.13388527417379
 20
-121.5257355251741
 30
0.0
 10
98.18902443943374
 20
-121.5257355251741
 30
0.0
 10
98.24412832691681
 20
-121.5257355251741
 30
0.0
 10
98.28893110355158
 20
-121.4809680251852
 30
0.0
 10
98.28893110355158
 20
-121.4258288585324
 30
0.0
  0
SPLINE
  5
42
330
1F
100
AcDbEntity
  8
_U+30EC_U+30A4_U+30E4_U+30FC 1
 62
   179
420
  2234388
370
     9
100
AcDbSpline
210
0.0
220
0.0
230
1.0
 70
    11
 71
     3
 72
    17
 73
    13
 74
     0
 42
0.0000000001
 43
0.0000000001
 12
1.0
 22
0.0
 32
0.0
 13
1.0
 23
0.0
 33
0.0
 40
0.0
 40
0.0
 40
0.0
 40
0.0
 40
1.0
 40
1.0
 40
1.0
 40
2.0
 40
2.0
 40
2.0
 40
3.0
 40
3.0
 40
3.0
 40
4.0
 40
4.0
 40
4.0
 40
4.0
 10
102.4602459971325
 20
-138.3395477431927
 30
0.0
 10
102.4602459971325
 20
-138.2837382987622
 30
0.0
 10
102.4154432204977
 20
-138.2396410765511
 30
0.0
 10
102.3603393330146
 20
-138.2396410765511
 30
0.0
 10
102.3048499744236
 20
-138.2396410765511
 30
0.0
 10
102.260079891128
 20
-138.2837382987622
 30
0.0
 10
102.260079891128
 20
-138.3395477431927
 30
0.0
 10
102.260079891128
 20
-138.3946516320682
 30
0.0
 10
102.3048499744236
 20
-138.4394544098343
 30
0.0
 10
102.3603393330146
 20
-138.4394544098343
 30
0.0
 10
102.4154432204977
 20
-138.4394544098343
 30
0.0
 10
102.4602459971325
 20
-138.3946516320682
 30
0.0
 10
102.4602459971325
 20
-138.3395477431927
 30
0.0
  0
SPLINE
  5
43
330
1F
100
AcDbEntity
  8
_U+30EC_U+30A4_U+30E4_U+30FC 1
 62
   179
420
  2234388
370
     9
100
AcDbSpline
210
0.0
220
0.0
230
1.0
 70
    11
 71
     3
 72
    17
 73
    13
 74
     0
 42
0.0000000001
 43
0.0000000001
 12
1.0
 22
0.0
 32
0.0
 13
1.0
 23
0.0
 33
0.0
 40
0.0
 40
0.0
 40
0.0
 40
0.0
 40
1.0
 40
1.0
 40
1.0
 40
2.0
 40
2.0
 40
2.0
 40
3.0
 40
3.0
 40
3.0
 40
4.0
 40
4.0
 40
4.0
 40
4.0
 10
102.4602459971325
 20
-125.8396785796512
 30
0.0
 10
102.4602459971325
 20
-125.7838691352208
 30
0.0
 10
102.4154432204977
 20
-125.7397719130096
 30
0.0
 10
102.3603393330146
 20
-125.7397719130096
 30
0.0
 10
102.3048499744236
 20
-125.7397719130096
 30
0.0
 10
102.260079891128
 20
-125.7838691352208
 30
0.0
 10
102.260079891128
 20
-125.8396785796512
 30
0.0
 10
102.260079891128
 20
-125.894817746304
 30
0.0
 10
102.3048499744236
 20
-125.9395852462929
 30
0.0
 10
102.3603393330146
 20
-125.9395852462929
 30
0.0
 10
102.4154432204977
 20
-125.9395852462929
 30
0.0
 10
102.4602459971325
 20
-125.894817746304
 30
0.0
 10
102.4602459971325
 20
-125.8396785796512
 30
0.0
  0
SPLINE
  5
44
330
1F
100
AcDbEntity
  8
_U+30EC_U+30A4_U+30E4_U+30FC 1
 62
   179
420
  2234388
370
     9
100
AcDbSpline
210
0.0
220
0.0
230
1.0
 70
    11
 71
     3
 72
    17
 73
    13
 74
     0
 42
0.0000000001
 43
0.0000000001
 12
1.0
 22
0.0
 32
0.0
 13
1.0
 23
0.0
 33
0.0
 40
0.0
 40
0.0
 40
0.0
 40
0.0
 40
1.0
 40
1.0
 40
1.0
 40
2.0
 40
2.0
 40
2.0
 40
3.0
 40
3.0
 40
3.0
 40
4.0
 40
4.0
 40
4.0
 40
4.0
 10
78.28875994713178
 20
-121.4258288585324
 30
0.0
 10
78.28875994713178
 20
-121.3707249696572
 30
0.0
 10
78.24395717049701
 20
-121.3259221918908
 30
0.0
 10
78.18885328301394
 20
-121.3259221918908
 30
0.0
 10
78.133714117754
 20
-121.3259221918908
 30
0.0
 10
78.08894661889612
 20
-121.3707249696572
 30
0.0
 10
78.08894661889612
 20
-121.4258288585324
 30
0.0
 10
78.08894661889612
 20
-121.4809680251852
 30
0.0
 10
78.133714117754
 20
-121.5257355251741
 30
0.0
 10
78.18885328301394
 20
-121.5257355251741
 30
0.0
 10
78.24395717049701
 20
-121.5257355251741
 30
0.0
 10
78.28875994713178
 20
-121.4809680251852
 30
0.0
 10
78.28875994713178
 20
-121.4258288585324
 30
0.0
  0
SPLINE
  5
45
330
1F
100
AcDbEntity
  8
_U+30EC_U+30A4_U+30E4_U+30FC 1
 62
   179
420
  2234388
370
     9
100
AcDbSpline
210
0.0
220
0.0
230
1.0
 70
    11
 71
     3
 72
    17
 73
    13
 74
     0
 42
0.0000000001
 43
0.0000000001
 12
1.0
 22
0.0
 32
0.0
 13
1.0
 23
0.0
 33
0.0
 40
0.0
 40
0.0
 40
0.0
 40
0.0
 40
1.0
 40
1.0
 40
1.0
 40
2.0
 40
2.0
 40
2.0
 40
3.0
 40
3.0
 40
3.0
 40
4.0
 40
4.0
 40
4.0
 40
4.0
 10
102.4602459971325
 20
-124.3713821911296
 30
0.0
 10
102.4602459971325
 20
-124.3155727466988
 30
0.0
 10
102.4154432204977
 20
-124.2708052467102
 30
0.0
 10
102.3603393330146
 20
-124.2708052467102
 30
0.0
 10
102.3048499744236
 20
-124.2708052467102
 30
0.0
 10
102.260079891128
 20
-124.3155727466988
 30
0.0
 10
102.260079891128
 20
-124.3713821911296
 30
0.0
 10
102.260079891128
 20
-124.4265213577823
 30
0.0
 10
102.3048499744236
 20
-124.4712888577712
 30
0.0
 10
102.3603393330146
 20
-124.4712888577712
 30
0.0
 10
102.4154432204977
 20
-124.4712888577712
 30
0.0
 10
102.4602459971325
 20
-124.4265213577823
 30
0.0
 10
102.4602459971325
 20
-124.3713821911296
 30
0.0
  0
POLYLINE
  5
46
330
1F
100
AcDbEntity
  8
_U+30EC_U+30A4_U+30E4_U+30FC 1
 62
   179
420
  2234388
370
     9
100
AcDb2dPolyline
 66
     1
 10
0.0
 20
0.0
 30
0.0
  0
VERTEX
  5
47
330
46
100
AcDbEntity
  8
_U+30EC_U+30A4_U+30E4_U+30FC 1
 62
   179
420
  2234388
370
     9
100
AcDbVertex
100
AcDb2dVertex
 10
78.18885328301394
 20
-121.4258288585324
 30
0.0
  0
VERTEX
  5
48
330
46
100
AcDbEntity
  8
_U+30EC_U+30A4_U+30E4_U+30FC 1
 62
   179
420
  2234388
370
     9
100
AcDbVertex
100
AcDb2dVertex
 10
98.18902443943374
 20
-121.4258288585324
 30
0.0
  0
SEQEND
  5
49
330
46
100
AcDbEntity
  8
_U+30EC_U+30A4_U+30E4_U+30FC 1
 62
   179
420
  2234388
370
     9
  0
POLYLINE
  5
4A
330
1F
100
AcDbEntity
  8
_U+30EC_U+30A4_U+30E4_U+30FC 1
 62
   179
420
  2234388
370
     9
100
AcDb2dPolyline
 66
     1
 10
0.0
 20
0.0
 30
0.0
  0
VERTEX
  5
4B
330
4A
100
AcDbEntity
  8
_U+30EC_U+30A4_U+30E4_U+30FC 1
 62
   179
420
  2234388
370
     9
100
AcDbVertex
100
AcDb2dVertex
 10
78.18885328301394
 20
-119.1661813590972
 30
0.0
  0
VERTEX
  5
4C
330
4A
100
AcDbEntity
  8
_U+30EC_U+30A4_U+30E4_U+30FC 1
 62
   179
420
  2234388
370
     9
100
AcDbVertex
100
AcDb2dVertex
 10
78.18885328301394
 20
-122.4256010805047
 30
0.0
  0
SEQEND
  5
4D
330
4A
100
AcDbEntity
  8
_U+30EC_U+30A4_U+30E4_U+30FC 1
 62
   179
420
  2234388
370
     9
  0
SPLINE
  5
4E
330
1F
100
AcDbEntity
  8
_U+30EC_U+30A4_U+30E4_U+30FC 1
 62
   179
420
  2234388
370
     9
100
AcDbSpline
210
0.0
220
0.0
230
1.0
 70
    11
 71
     3
 72
    17
 73
    13
 74
     0
 42
0.0000000001
 43
0.0000000001
 12
1.0
 22
0.0
 32
0.0
 13
1.0
 23
0.0
 33
0.0
 40
0.0
 40
0.0
 40
0.0
 40
0.0
 40
1.0
 40
1.0
 40
1.0
 40
2.0
 40
2.0
 40
2.0
 40
3.0
 40
3.0
 40
3.0
 40
4.0
 40
4.0
 40
4.0
 40
4.0
 10
85.28885865743327
 20
-121.4258288585324
 30
0.0
 10
85.28885865743327
 20
-121.3707249696572
 30
0.0
 10
85.24405588079851
 20
-121.3259221918908
 30
0.0
 10
85.18895199331544
 20
-121.3259221918908
 30
0.0
 10
85.13381282805548
 20
-121.3259221918908
 30
0.0
 10
85.0890453291976
 20
-121.3707249696572
 30
0.0
 10
85.0890453291976
 20
-121.4258288585324
 30
0.0
 10
85.0890453291976
 20
-121.4809680251852
 30
0.0
 10
85.13381282805548
 20
-121.5257355251741
 30
0.0
 10
85.18895199331544
 20
-121.5257355251741
 30
0.0
 10
85.24405588079851
 20
-121.5257355251741
 30
0.0
 10
85.28885865743327
 20
-121.4809680251852
 30
0.0
 10
85.28885865743327
 20
-121.4258288585324
 30
0.0
  0
POLYLINE
  5
4F
330
1F
100
AcDbEntity
  8
_U+30EC_U+30A4_U+30E4_U+30FC 1
 62
   179
420
  2234388
370
     9
100
AcDb2dPolyline
 66
     1
 10
0.0
 20
0.0
 30
0.0
  0
VERTEX
  5
50
330
4F
100
AcDbEntity
  8
_U+30EC_U+30A4_U+30E4_U+30FC 1
 62
   179
420
  2234388
370
     9
100
AcDbVertex
100
AcDb2dVertex
 10
85.18895199331544
 20
-119.1661813590972
 30
0.0
  0
VERTEX
  5
51
330
4F
100
AcDbEntity
  8
_U+30EC_U+30A4_U+30E4_U+30FC 1
 62
   179
420
  2234388
370
     9
100
AcDbVertex
100
AcDb2dVertex
 10
85.18895199331544
 20
-122.4256010805047
 30
0.0
  0
SEQEND
  5
52
330
4F
100
AcDbEntity
  8
_U+30EC_U+30A4_U+30E4_U+30FC 1
 62
   179
420
  2234388
370
     9
  0
SPLINE
  5
53
330
1F
100
AcDbEntity
  8
_U+30EC_U+30A4_U+30E4_U+30FC 1
 62
   179
420
  2234388
370
     9
100
AcDbSpline
210
0.0
220
0.0
230
1.0
 70
    11
 71
     3
 72
    17
 73
    13
 74
     0
 42
0.0000000001
 43
0.0000000001
 12
1.0
 22
0.0
 32
0.0
 13
1.0
 23
0.0
 33
0.0
 40
0.0
 40
0.0
 40
0.0
 40
0.0
 40
1.0
 40
1.0
 40
1.0
 40
2.0
 40
2.0
 40
2.0
 40
3.0
 40
3.0
 40
3.0
 40
4.0
 40
4.0
 40
4.0
 40
4.0
 10
91.28883239325008
 20
-121.4258288585324
 30
0.0
 10
91.28883239325008
 20
-121.3707249696572
 30
0.0
 10
91.24402961661532
 20
-121.3259221918908
 30
0.0
 10
91.18892572913225
 20
-121.3259221918908
 30
0.0
 10
91.13378886610556
 20
-121.3259221918908
 30
0.0
 10
91.08901906501441
 20
-121.3707249696572
 30
0.0
 10
91.08901906501441
 20
-121.4258288585324
 30
0.0
 10
91.08901906501441
 20
-121.4809680251852
 30
0.0
 10
91.13378886610556
 20
-121.5257355251741
 30
0.0
 10
91.18892572913225
 20
-121.5257355251741
 30
0.0
 10
91.24402961661532
 20
-121.5257355251741
 30
0.0
 10
91.28883239325008
 20
-121.4809680251852
 30
0.0
 10
91.28883239325008
 20
-121.4258288585324
 30
0.0
  0
POLYLINE
  5
54
330
1F
100
AcDbEntity
  8
_U+30EC_U+30A4_U+30E4_U+30FC 1
 62
   179
420
  2234388
370
     9
100
AcDb2dPolyline
 66
     1
 10
0.0
 20
0.0
 30
0.0
  0
VERTEX
  5
55
330
54
100
AcDbEntity
  8
_U+30EC_U+30A4_U+30E4_U+30FC 1
 62
   179
420
  2234388
370
     9
100
AcDbVertex
100
AcDb2dVertex
 10
91.18892572913225
 20
-119.1661813590972
 30
0.0
  0
VERTEX
  5
56
330
54
100
AcDbEntity
  8
_U+30EC_U+30A4_U+30E4_U+30FC 1
 62
   179
420
  2234388
370
     9
100
AcDbVertex
100
AcDb2dVertex
 10
91.18892572913225
 20
-122.4256010805047
 30
0.0
  0
SEQEND
  5
57
330
54
100
AcDbEntity
  8
_U+30EC_U+30A4_U+30E4_U+30FC 1
 62
   179
420
  2234388
370
     9
  0
POLYLINE
  5
58
330
1F
100
AcDbEntity
  8
_U+30EC_U+30A4_U+30E4_U+30FC 1
 62
   179
420
  2234388
370
     9
100
AcDb2dPolyline
 66
     1
 10
0.0
 20
0.0
 30
0.0
  0
VERTEX
  5
59
330
58
100
AcDbEntity
  8
_U+30EC_U+30A4_U+30E4_U+30FC 1
 62
   179
420
  2234388
370
     9
100
AcDbVertex
100
AcDb2dVertex
 10
98.18902443943374
 20
-119.4659366368003
 30
0.0
  0
VERTEX
  5
5A
330
58
100
AcDbEntity
  8
_U+30EC_U+30A4_U+30E4_U+30FC 1
 62
   179
420
  2234388
370
     9
100
AcDbVertex
100
AcDb2dVertex
 10
98.18902443943374
 20
-122.4256010805047
 30
0.0
  0
SEQEND
  5
5B
330
58
100
AcDbEntity
  8
_U+30EC_U+30A4_U+30E4_U+30FC 1
 62
   179
420
  2234388
370
     9
  0
INSERT
  5
5D
330
1F
100
AcDbEntity
  8
_U+30EC_U+30A4_U+30E4_U+30FC 1
100
AcDbBlockReference
  2
block 2
 10
0.0
 20
0.0
 30
0.0
  0
INSERT
  5
64
330
1F
100
AcDbEntity
  8
_U+30EC_U+30A4_U+30E4_U+30FC 1
100
AcDbBlockReference
  2
block 3
 10
0.0
 20
0.0
 30
0.0
  0
INSERT
  5
6A
330
1F
100
AcDbEntity
  8
_U+30EC_U+30A4_U+30E4_U+30FC 1
100
AcDbBlockReference
  2
block 4
 10
0.0
 20
0.0
 30
0.0
  0
POLYLINE
  5
6F
330
1F
100
AcDbEntity
  8
_U+30EC_U+30A4_U+30E4_U+30FC 1
 62
   179
420
  2234388
370
     9
100
AcDb2dPolyline
 66
     1
 10
0.0
 20
0.0
 30
0.0
  0
VERTEX
  5
70
330
6F
100
AcDbEntity
  8
_U+30EC_U+30A4_U+30E4_U+30FC 1
 62
   179
420
  2234388
370
     9
100
AcDbVertex
100
AcDb2dVertex
 10
102.3603393330146
 20
-120.7960852475787
 30
0.0
  0
VERTEX
  5
71
330
6F
100
AcDbEntity
  8
_U+30EC_U+30A4_U+30E4_U+30FC 1
 62
   179
420
  2234388
370
     9
100
AcDbVertex
100
AcDb2dVertex
 10
102.3603393330146
 20
-138.3395477431927
 30
0.0
  0
SEQEND
  5
72
330
6F
100
AcDbEntity
  8
_U+30EC_U+30A4_U+30E4_U+30FC 1
 62
   179
420
  2234388
370
     9
  0
POLYLINE
  5
73
330
1F
100
AcDbEntity
  8
_U+30EC_U+30A4_U+30E4_U+30FC 1
 62
   179
420
  2234388
370
     9
100
AcDb2dPolyline
 66
     1
 10
0.0
 20
0.0
 30
0.0
  0
VERTEX
  5
74
330
73
100
AcDbEntity
  8
_U+30EC_U+30A4_U+30E4_U+30FC 1
 62
   179
420
  2234388
370
     9
100
AcDbVertex
100
AcDb2dVertex
 10
103.3277265305567
 20
-124.3397027466928
 30
0.0
  0
VERTEX
  5
75
330
73
100
AcDbEntity
  8
_U+30EC_U+30A4_U+30E4_U+30FC 1
 62
   179
420
  2234388
370
     9
100
AcDbVertex
100
AcDb2dVertex
 10
100.3680268838428
 20
-124.3397027466928
 30
0.0
  0
SEQEND
  5
76
330
73
100
AcDbEntity
  8
_U+30EC_U+30A4_U+30E4_U+30FC 1
 62
   179
420
  2234388
370
     9
  0
POLYLINE
  5
77
330
1F
100
AcDbEntity
  8
_U+30EC_U+30A4_U+30E4_U+30FC 1
 62
   179
420
  2234388
370
     9
100
AcDb2dPolyline
 66
     1
 10
0.0
 20
0.0
 30
0.0
  0
VERTEX
  5
78
330
77
100
AcDbEntity
  8
_U+30EC_U+30A4_U+30E4_U+30FC 1
 62
   179
420
  2234388
370
     9
100
AcDbVertex
100
AcDb2dVertex
 10
103.3277265305567
 20
-138.3395477431927
 30
0.0
  0
VERTEX
  5
79
330
77
100
AcDbEntity
  8
_U+30EC_U+30A4_U+30E4_U+30FC 1
 62
   179
420
  2234388
370
     9
100
AcDbVertex
100
AcDb2dVertex
 10
97.18854668718028
 20
-138.3395477431927
 30
0.0
  0
SEQEND
  5
7A
330
77
100
AcDbEntity
  8
_U+30EC_U+30A4_U+30E4_U+30FC 1
 62
   179
420
  2234388
370
     9
  0
POLYLINE
  5
7B
330
1F
100
AcDbEntity
  8
_U+30EC_U+30A4_U+30E4_U+30FC 1
 62
   179
420
  2234388
370
     9
100
AcDb2dPolyline
 66
     1
 10
0.0
 20
0.0
 30
0.0
  0
VERTEX
  5
7C
330
7B
100
AcDbEntity
  8
_U+30EC_U+30A4_U+30E4_U+30FC 1
 62
   179
420
  2234388
370
     9
100
AcDbVertex
100
AcDb2dVertex
 10
103.3277265305567
 20
-125.8396785796512
 30
0.0
  0
VERTEX
  5
7D
330
7B
100
AcDbEntity
  8
_U+30EC_U+30A4_U+30E4_U+30FC 1
 62
   179
420
  2234388
370
     9
100
AcDbVertex
100
AcDb2dVertex
 10
100.3680268838428
 20
-125.8396785796512
 30
0.0
  0
SEQEND
  5
7E
330
7B
100
AcDbEntity
  8
_U+30EC_U+30A4_U+30E4_U+30FC 1
 62
   179
420
  2234388
370
     9
  0
INSERT
  5
80
330
1F
100
AcDbEntity
  8
_U+30EC_U+30A4_U+30E4_U+30FC 1
100
AcDbBlockReference
  2
block 5
 10
0.0
 20
0.0
 30
0.0
  0
INSERT
  5
92
330
1F
100
AcDbEntity
  8
_U+30EC_U+30A4_U+30E4_U+30FC 1
100
AcDbBlockReference
  2
block 6
 10
0.0
 20
0.0
 30
0.0
  0
POLYLINE
  5
A1
330
1F
100
AcDbEntity
  8
_U+30EC_U+30A4_U+30E4_U+30FC 1
 62
   179
420
  2234388
370
    25
100
AcDb2dPolyline
 66
     1
 10
0.0
 20
0.0
 30
0.0
  0
VERTEX
  5
A2
330
A1
100
AcDbEntity
  8
_U+30EC_U+30A4_U+30E4_U+30FC 1
 62
   179
420
  2234388
370
    25
100
AcDbVertex
100
AcDb2dVertex
 10
91.18892572913225
 20
-124.2708052467102
 30
0.0
  0
VERTEX
  5
A3
330
A1
100
AcDbEntity
  8
_U+30EC_U+30A4_U+30E4_U+30FC 1
 62
   179
420
  2234388
370
    25
100
AcDbVertex
100
AcDb2dVertex
 10
97.18889946494905
 20
-124.2708052467102
 30
0.0
  0
SEQEND
  5
A4
330
A1
100
AcDbEntity
  8
_U+30EC_U+30A4_U+30E4_U+30FC 1
 62
   179
420
  2234388
370
    25
  0
POLYLINE
  5
A5
330
1F
100
AcDbEntity
  8
_U+30EC_U+30A4_U+30E4_U+30FC 1
 62
   179
420
  2234388
370
    25
100
AcDb2dPolyline
 66
     1
 10
0.0
 20
0.0
 30
0.0
  0
VERTEX
  5
A6
330
A5
100
AcDbEntity
  8
_U+30EC_U+30A4_U+30E4_U+30FC 1
 62
   179
420
  2234388
370
    25
100
AcDbVertex
100
AcDb2dVertex
 10
85.18895199331544
 20
-137.2711955212378
 30
0.0
  0
VERTEX
  5
A7
330
A5
100
AcDbEntity
  8
_U+30EC_U+30A4_U+30E4_U+30FC 1
 62
   179
420
  2234388
370
    25
100
AcDbVertex
100
AcDb2dVertex
 10
87.88921886887033
 20
-137.2711955212378
 30
0.0
  0
VERTEX
  5
A8
330
A5
100
AcDbEntity
  8
_U+30EC_U+30A4_U+30E4_U+30FC 1
 62
   179
420
  2234388
370
    25
100
AcDbVertex
100
AcDb2dVertex
 10
88.18893886122385
 20
-137.5709155211627
 30
0.0
  0
VERTEX
  5
A9
330
A5
100
AcDbEntity
  8
_U+30EC_U+30A4_U+30E4_U+30FC 1
 62
   179
420
  2234388
370
    25
100
AcDbVertex
100
AcDb2dVertex
 10
88.48901386676665
 20
-137.2711955212378
 30
0.0
  0
VERTEX
  5
AA
330
A5
100
AcDbEntity
  8
_U+30EC_U+30A4_U+30E4_U+30FC 1
 62
   179
420
  2234388
370
    25
100
AcDbVertex
100
AcDb2dVertex
 10
91.18892572913225
 20
-137.2711955212378
 30
0.0
  0
SEQEND
  5
AB
330
A5
100
AcDbEntity
  8
_U+30EC_U+30A4_U+30E4_U+30FC 1
 62
   179
420
  2234388
370
    25
  0
POLYLINE
  5
AC
330
1F
100
AcDbEntity
  8
_U+30EC_U+30A4_U+30E4_U+30FC 1
 62
   179
420
  2234388
370
    25
100
AcDb2dPolyline
 66
     1
 10
0.0
 20
0.0
 30
0.0
  0
VERTEX
  5
AD
330
AC
100
AcDbEntity
  8
_U+30EC_U+30A4_U+30E4_U+30FC 1
 62
   179
420
  2234388
370
    25
100
AcDbVertex
100
AcDb2dVertex
 10
84.18917979659953
 20
-138.2709677432097
 30
0.0
  0
VERTEX
  5
AE
330
AC
100
AcDbEntity
  8
_U+30EC_U+30A4_U+30E4_U+30FC 1
 62
   179
420
  2234388
370
    25
100
AcDbVertex
100
AcDb2dVertex
 10
92.18901542584005
 20
-138.2709677432097
 30
0.0
  0
SEQEND
  5
AF
330
AC
100
AcDbEntity
  8
_U+30EC_U+30A4_U+30E4_U+30FC 1
 62
   179
420
  2234388
370
    25
  0
POLYLINE
  5
B0
330
1F
100
AcDbEntity
  8
_U+30EC_U+30A4_U+30E4_U+30FC 1
 62
   179
420
  2234388
370
    25
100
AcDb2dPolyline
 66
     1
 10
0.0
 20
0.0
 30
0.0
  0
VERTEX
  5
B1
330
B0
100
AcDbEntity
  8
_U+30EC_U+30A4_U+30E4_U+30FC 1
 62
   179
420
  2234388
370
    25
100
AcDbVertex
100
AcDb2dVertex
 10
92.18901542584005
 20
-125.2708949686824
 30
0.0
  0
VERTEX
  5
B2
330
B0
100
AcDbEntity
  8
_U+30EC_U+30A4_U+30E4_U+30FC 1
 62
   179
420
  2234388
370
    25
100
AcDbVertex
100
AcDb2dVertex
 10
96.68866058882232
 20
-125.2708949686824
 30
0.0
  0
SEQEND
  5
B3
330
B0
100
AcDbEntity
  8
_U+30EC_U+30A4_U+30E4_U+30FC 1
 62
   179
420
  2234388
370
    25
  0
POLYLINE
  5
B4
330
1F
100
AcDbEntity
  8
_U+30EC_U+30A4_U+30E4_U+30FC 1
 62
   179
420
  2234388
370
    25
100
AcDb2dPolyline
 66
     1
 10
0.0
 20
0.0
 30
0.0
  0
VERTEX
  5
B5
330
B4
100
AcDbEntity
  8
_U+30EC_U+30A4_U+30E4_U+30FC 1
 62
   179
420
  2234388
370
    25
100
AcDbVertex
100
AcDb2dVertex
 10
97.18889946494905
 20
-125.7707810796683
 30
0.0
  0
VERTEX
  5
B6
330
B4
100
AcDbEntity
  8
_U+30EC_U+30A4_U+30E4_U+30FC 1
 62
   179
420
  2234388
370
    25
100
AcDbVertex
100
AcDb2dVertex
 10
98.18902443943374
 20
-125.7707810796683
 30
0.0
  0
SEQEND
  5
B7
330
B4
100
AcDbEntity
  8
_U+30EC_U+30A4_U+30E4_U+30FC 1
 62
   179
420
  2234388
370
    25
  0
POLYLINE
  5
B8
330
1F
100
AcDbEntity
  8
_U+30EC_U+30A4_U+30E4_U+30FC 1
 62
   179
420
  2234388
370
    25
100
AcDb2dPolyline
 66
     1
 10
0.0
 20
0.0
 30
0.0
  0
VERTEX
  5
B9
330
B8
100
AcDbEntity
  8
_U+30EC_U+30A4_U+30E4_U+30FC 1
 62
   179
420
  2234388
370
    25
100
AcDbVertex
100
AcDb2dVertex
 10
97.18889946494905
 20
-124.2708052467102
 30
0.0
  0
VERTEX
  5
BA
330
B8
100
AcDbEntity
  8
_U+30EC_U+30A4_U+30E4_U+30FC 1
 62
   179
420
  2234388
370
    25
100
AcDbVertex
100
AcDb2dVertex
 10
98.18902443943374
 20
-125.2708949686824
 30
0.0
  0
SEQEND
  5
BB
330
B8
100
AcDbEntity
  8
_U+30EC_U+30A4_U+30E4_U+30FC 1
 62
   179
420
  2234388
370
    25
  0
POLYLINE
  5
BC
330
1F
100
AcDbEntity
  8
_U+30EC_U+30A4_U+30E4_U+30FC 1
 62
   179
420
  2234388
370
    25
100
AcDb2dPolyline
 66
     1
 10
0.0
 20
0.0
 30
0.0
  0
VERTEX
  5
BD
330
BC
100
AcDbEntity
  8
_U+30EC_U+30A4_U+30E4_U+30FC 1
 62
   179
420
  2234388
370
    25
100
AcDbVertex
100
AcDb2dVertex
 10
96.68866058882232
 20
-125.2708949686824
 30
0.0
  0
VERTEX
  5
BE
330
BC
100
AcDbEntity
  8
_U+30EC_U+30A4_U+30E4_U+30FC 1
 62
   179
420
  2234388
370
    25
100
AcDbVertex
100
AcDb2dVertex
 10
97.18889946494905
 20
-125.7707810796683
 30
0.0
  0
SEQEND
  5
BF
330
BC
100
AcDbEntity
  8
_U+30EC_U+30A4_U+30E4_U+30FC 1
 62
   179
420
  2234388
370
    25
  0
POLYLINE
  5
C0
330
1F
100
AcDbEntity
  8
_U+30EC_U+30A4_U+30E4_U+30FC 1
 62
   179
420
  2234388
370
    25
100
AcDb2dPolyline
 66
     1
 10
0.0
 20
0.0
 30
0.0
  0
VERTEX
  5
C1
330
C0
100
AcDbEntity
  8
_U+30EC_U+30A4_U+30E4_U+30FC 1
 62
   179
420
  2234388
370
    25
100
AcDbVertex
100
AcDb2dVertex
 10
98.18902443943374
 20
-125.2708949686824
 30
0.0
  0
VERTEX
  5
C2
330
C0
100
AcDbEntity
  8
_U+30EC_U+30A4_U+30E4_U+30FC 1
 62
   179
420
  2234388
370
    25
100
AcDbVertex
100
AcDb2dVertex
 10
98.18902443943374
 20
-125.7707810796683
 30
0.0
  0
SEQEND
  5
C3
330
C0
100
AcDbEntity
  8
_U+30EC_U+30A4_U+30E4_U+30FC 1
 62
   179
420
  2234388
370
    25
  0
POLYLINE
  5
C4
330
1F
100
AcDbEntity
  8
_U+30EC_U+30A4_U+30E4_U+30FC 1
 62
   179
420
  2234388
370
    25
100
AcDb2dPolyline
 66
     1
 10
0.0
 20
0.0
 30
0.0
  0
VERTEX
  5
C5
330
C4
100
AcDbEntity
  8
_U+30EC_U+30A4_U+30E4_U+30FC 1
 62
   179
420
  2234388
370
    25
100
AcDbVertex
100
AcDb2dVertex
 10
92.18901542584005
 20
-125.2708949686824
 30
0.0
  0
VERTEX
  5
C6
330
C4
100
AcDbEntity
  8
_U+30EC_U+30A4_U+30E4_U+30FC 1
 62
   179
420
  2234388
370
    25
100
AcDbVertex
100
AcDb2dVertex
 10
92.18901542584005
 20
-138.2709677432097
 30
0.0
  0
SEQEND
  5
C7
330
C4
100
AcDbEntity
  8
_U+30EC_U+30A4_U+30E4_U+30FC 1
 62
   179
420
  2234388
370
    25
  0
POLYLINE
  5
C8
330
1F
100
AcDbEntity
  8
_U+30EC_U+30A4_U+30E4_U+30FC 1
 62
   179
420
  2234388
370
    25
100
AcDb2dPolyline
 66
     1
 10
0.0
 20
0.0
 30
0.0
  0
VERTEX
  5
C9
330
C8
100
AcDbEntity
  8
_U+30EC_U+30A4_U+30E4_U+30FC 1
 62
   179
420
  2234388
370
    25
100
AcDbVertex
100
AcDb2dVertex
 10
91.18892572913225
 20
-124.2708052467102
 30
0.0
  0
VERTEX
  5
CA
330
C8
100
AcDbEntity
  8
_U+30EC_U+30A4_U+30E4_U+30FC 1
 62
   179
420
  2234388
370
    25
100
AcDbVertex
100
AcDb2dVertex
 10
91.18892572913225
 20
-137.2711955212378
 30
0.0
  0
SEQEND
  5
CB
330
C8
100
AcDbEntity
  8
_U+30EC_U+30A4_U+30E4_U+30FC 1
 62
   179
420
  2234388
370
    25
  0
POLYLINE
  5
CC
330
1F
100
AcDbEntity
  8
_U+30EC_U+30A4_U+30E4_U+30FC 1
 62
   179
420
  2234388
370
    25
100
AcDb2dPolyline
 66
     1
 10
0.0
 20
0.0
 30
0.0
  0
VERTEX
  5
CD
330
CC
100
AcDbEntity
  8
_U+30EC_U+30A4_U+30E4_U+30FC 1
 62
   179
420
  2234388
370
    25
100
AcDbVertex
100
AcDb2dVertex
 10
85.18895199331544
 20
-124.2708052467102
 30
0.0
  0
VERTEX
  5
CE
330
CC
100
AcDbEntity
  8
_U+30EC_U+30A4_U+30E4_U+30FC 1
 62
   179
420
  2234388
370
    25
100
AcDbVertex
100
AcDb2dVertex
 10
79.18897825749863
 20
-124.2708052467102
 30
0.0
  0
SEQEND
  5
CF
330
CC
100
AcDbEntity
  8
_U+30EC_U+30A4_U+30E4_U+30FC 1
 62
   179
420
  2234388
370
    25
  0
POLYLINE
  5
D0
330
1F
100
AcDbEntity
  8
_U+30EC_U+30A4_U+30E4_U+30FC 1
 62
   179
420
  2234388
370
    25
100
AcDb2dPolyline
 66
     1
 10
0.0
 20
0.0
 30
0.0
  0
VERTEX
  5
D1
330
D0
100
AcDbEntity
  8
_U+30EC_U+30A4_U+30E4_U+30FC 1
 62
   179
420
  2234388
370
    25
100
AcDbVertex
100
AcDb2dVertex
 10
84.18882701883075
 20
-125.2708949686824
 30
0.0
  0
VERTEX
  5
D2
330
D0
100
AcDbEntity
  8
_U+30EC_U+30A4_U+30E4_U+30FC 1
 62
   179
420
  2234388
370
    25
100
AcDbVertex
100
AcDb2dVertex
 10
79.68918185584849
 20
-125.2708949686824
 30
0.0
  0
SEQEND
  5
D3
330
D0
100
AcDbEntity
  8
_U+30EC_U+30A4_U+30E4_U+30FC 1
 62
   179
420
  2234388
370
    25
  0
POLYLINE
  5
D4
330
1F
100
AcDbEntity
  8
_U+30EC_U+30A4_U+30E4_U+30FC 1
 62
   179
420
  2234388
370
    25
100
AcDb2dPolyline
 66
     1
 10
0.0
 20
0.0
 30
0.0
  0
VERTEX
  5
D5
330
D4
100
AcDbEntity
  8
_U+30EC_U+30A4_U+30E4_U+30FC 1
 62
   179
420
  2234388
370
    25
100
AcDbVertex
100
AcDb2dVertex
 10
79.18897825749863
 20
-125.7707810796683
 30
0.0
  0
VERTEX
  5
D6
330
D4
100
AcDbEntity
  8
_U+30EC_U+30A4_U+30E4_U+30FC 1
 62
   179
420
  2234388
370
    25
100
AcDbVertex
100
AcDb2dVertex
 10
78.18885328301394
 20
-125.7707810796683
 30
0.0
  0
SEQEND
  5
D7
330
D4
100
AcDbEntity
  8
_U+30EC_U+30A4_U+30E4_U+30FC 1
 62
   179
420
  2234388
370
    25
  0
POLYLINE
  5
D8
330
1F
100
AcDbEntity
  8
_U+30EC_U+30A4_U+30E4_U+30FC 1
 62
   179
420
  2234388
370
    25
100
AcDb2dPolyline
 66
     1
 10
0.0
 20
0.0
 30
0.0
  0
VERTEX
  5
D9
330
D8
100
AcDbEntity
  8
_U+30EC_U+30A4_U+30E4_U+30FC 1
 62
   179
420
  2234388
370
    25
100
AcDbVertex
100
AcDb2dVertex
 10
79.18897825749863
 20
-124.2708052467102
 30
0.0
  0
VERTEX
  5
DA
330
D8
100
AcDbEntity
  8
_U+30EC_U+30A4_U+30E4_U+30FC 1
 62
   179
420
  2234388
370
    25
100
AcDbVertex
100
AcDb2dVertex
 10
78.18885328301394
 20
-125.2708949686824
 30
0.0
  0
SEQEND
  5
DB
330
D8
100
AcDbEntity
  8
_U+30EC_U+30A4_U+30E4_U+30FC 1
 62
   179
420
  2234388
370
    25
  0
POLYLINE
  5
DC
330
1F
100
AcDbEntity
  8
_U+30EC_U+30A4_U+30E4_U+30FC 1
 62
   179
420
  2234388
370
    25
100
AcDb2dPolyline
 66
     1
 10
0.0
 20
0.0
 30
0.0
  0
VERTEX
  5
DD
330
DC
100
AcDbEntity
  8
_U+30EC_U+30A4_U+30E4_U+30FC 1
 62
   179
420
  2234388
370
    25
100
AcDbVertex
100
AcDb2dVertex
 10
79.68918185584849
 20
-125.2708949686824
 30
0.0
  0
VERTEX
  5
DE
330
DC
100
AcDbEntity
  8
_U+30EC_U+30A4_U+30E4_U+30FC 1
 62
   179
420
  2234388
370
    25
100
AcDbVertex
100
AcDb2dVertex
 10
79.18897825749863
 20
-125.7707810796683
 30
0.0
  0
SEQEND
  5
DF
330
DC
100
AcDbEntity
  8
_U+30EC_U+30A4_U+30E4_U+30FC 1
 62
   179
420
  2234388
370
    25
  0
POLYLINE
  5
E0
330
1F
100
AcDbEntity
  8
_U+30EC_U+30A4_U+30E4_U+30FC 1
 62
   179
420
  2234388
370
    25
100
AcDb2dPolyline
 66
     1
 10
0.0
 20
0.0
 30
0.0
  0
VERTEX
  5
E1
330
E0
100
AcDbEntity
  8
_U+30EC_U+30A4_U+30E4_U+30FC 1
 62
   179
420
  2234388
370
    25
100
AcDbVertex
100
AcDb2dVertex
 10
78.18885328301394
 20
-125.2708949686824
 30
0.0
  0
VERTEX
  5
E2
330
E0
100
AcDbEntity
  8
_U+30EC_U+30A4_U+30E4_U+30FC 1
 62
   179
420
  2234388
370
    25
100
AcDbVertex
100
AcDb2dVertex
 10
78.18885328301394
 20
-125.7707810796683
 30
0.0
  0
SEQEND
  5
E3
330
E0
100
AcDbEntity
  8
_U+30EC_U+30A4_U+30E4_U+30FC 1
 62
   179
420
  2234388
370
    25
  0
POLYLINE
  5
E4
330
1F
100
AcDbEntity
  8
_U+30EC_U+30A4_U+30E4_U+30FC 1
 62
   179
420
  2234388
370
    25
100
AcDb2dPolyline
 66
     1
 10
0.0
 20
0.0
 30
0.0
  0
VERTEX
  5
E5
330
E4
100
AcDbEntity
  8
_U+30EC_U+30A4_U+30E4_U+30FC 1
 62
   179
420
  2234388
370
    25
100
AcDbVertex
100
AcDb2dVertex
 10
84.18882701883075
 20
-125.2708949686824
 30
0.0
  0
VERTEX
  5
E6
330
E4
100
AcDbEntity
  8
_U+30EC_U+30A4_U+30E4_U+30FC 1
 62
   179
420
  2234388
370
    25
100
AcDbVertex
100
AcDb2dVertex
 10
84.18882701883075
 20
-138.2709677432097
 30
0.0
  0
SEQEND
  5
E7
330
E4
100
AcDbEntity
  8
_U+30EC_U+30A4_U+30E4_U+30FC 1
 62
   179
420
  2234388
370
    25
  0
POLYLINE
  5
E8
330
1F
100
AcDbEntity
  8
_U+30EC_U+30A4_U+30E4_U+30FC 1
 62
   179
420
  2234388
370
    25
100
AcDb2dPolyline
 66
     1
 10
0.0
 20
0.0
 30
0.0
  0
VERTEX
  5
E9
330
E8
100
AcDbEntity
  8
_U+30EC_U+30A4_U+30E4_U+30FC 1
 62
   179
420
  2234388
370
    25
100
AcDbVertex
100
AcDb2dVertex
 10
85.18895199331544
 20
-124.2708052467102
 30
0.0
  0
VERTEX
  5
EA
330
E8
100
AcDbEntity
  8
_U+30EC_U+30A4_U+30E4_U+30FC 1
 62
   179
420
  2234388
370
    25
100
AcDbVertex
100
AcDb2dVertex
 10
85.18895199331544
 20
-137.2711955212378
 30
0.0
  0
SEQEND
  5
EB
330
E8
100
AcDbEntity
  8
_U+30EC_U+30A4_U+30E4_U+30FC 1
 62
   179
420
  2234388
370
    25
  0
POLYLINE
  5
EC
330
1F
100
AcDbEntity
  8
_U+30EC_U+30A4_U+30E4_U+30FC 1
 62
   179
420
  2234388
370
     9
100
AcDb2dPolyline
 66
     1
 10
0.0
 20
0.0
 30
0.0
  0
VERTEX
  5
ED
330
EC
100
AcDbEntity
  8
_U+30EC_U+30A4_U+30E4_U+30FC 1
 62
   179
420
  2234388
370
     9
100
AcDbVertex
100
AcDb2dVertex
 10
86.7792036194114
 20
-126.4756663572701
 30
0.0
  0
VERTEX
  5
EE
330
EC
100
AcDbEntity
  8
_U+30EC_U+30A4_U+30E4_U+30FC 1
 62
   179
420
  2234388
370
     9
100
AcDbVertex
100
AcDb2dVertex
 10
83.37853176172533
 20
-126.4756663572701
 30
0.0
  0
SEQEND
  5
EF
330
EC
100
AcDbEntity
  8
_U+30EC_U+30A4_U+30E4_U+30FC 1
 62
   179
420
  2234388
370
     9
  0
SPLINE
  5
F0
330
1F
100
AcDbEntity
  8
_U+30EC_U+30A4_U+30E4_U+30FC 1
 62
   179
420
  2234388
370
     9
100
AcDbSpline
210
0.0
220
0.0
230
1.0
 70
    11
 71
     3
 72
    17
 73
    13
 74
     0
 42
0.0000000001
 43
0.0000000001
 12
1.0
 22
0.0
 32
0.0
 13
1.0
 23
0.0
 33
0.0
 40
0.0
 40
0.0
 40
0.0
 40
0.0
 40
1.0
 40
1.0
 40
1.0
 40
2.0
 40
2.0
 40
2.0
 40
3.0
 40
3.0
 40
3.0
 40
4.0
 40
4.0
 40
4.0
 40
4.0
 10
84.28908646071737
 20
-126.4756663572701
 30
0.0
 10
84.28908646071737
 20
-126.4198569128394
 30
0.0
 10
84.2442836840826
 20
-126.3757596906282
 30
0.0
 10
84.18917979659953
 20
-126.3757596906282
 30
0.0
 10
84.1333703535789
 20
-126.3757596906282
 30
0.0
 10
84.08856757694414
 20
-126.4198569128394
 30
0.0
 10
84.08856757694414
 20
-126.4756663572701
 30
0.0
 10
84.08856757694414
 20
-126.530770246145
 30
0.0
 10
84.1333703535789
 20
-126.5755730239118
 30
0.0
 10
84.18917979659953
 20
-126.5755730239118
 30
0.0
 10
84.2442836840826
 20
-126.5755730239118
 30
0.0
 10
84.28908646071737
 20
-126.530770246145
 30
0.0
 10
84.28908646071737
 20
-126.4756663572701
 30
0.0
  0
SPLINE
  5
F1
330
1F
100
AcDbEntity
  8
_U+30EC_U+30A4_U+30E4_U+30FC 1
 62
   179
420
  2234388
370
     9
100
AcDbSpline
210
0.0
220
0.0
230
1.0
 70
    11
 71
     3
 72
    17
 73
    13
 74
     0
 42
0.0000000001
 43
0.0000000001
 12
1.0
 22
0.0
 32
0.0
 13
1.0
 23
0.0
 33
0.0
 40
0.0
 40
0.0
 40
0.0
 40
0.0
 40
1.0
 40
1.0
 40
1.0
 40
2.0
 40
2.0
 40
2.0
 40
3.0
 40
3.0
 40
3.0
 40
4.0
 40
4.0
 40
4.0
 40
4.0
 10
85.28885865743327
 20
-126.4756663572701
 30
0.0
 10
85.28885865743327
 20
-126.4198569128394
 30
0.0
 10
85.24405588079851
 20
-126.3757596906282
 30
0.0
 10
85.18895199331544
 20
-126.3757596906282
 30
0.0
 10
85.13381282805548
 20
-126.3757596906282
 30
0.0
 10
85.0890453291976
 20
-126.4198569128394
 30
0.0
 10
85.0890453291976
 20
-126.4756663572701
 30
0.0
 10
85.0890453291976
 20
-126.530770246145
 30
0.0
 10
85.13381282805548
 20
-126.5755730239118
 30
0.0
 10
85.18895199331544
 20
-126.5755730239118
 30
0.0
 10
85.24405588079851
 20
-126.5755730239118
 30
0.0
 10
85.28885865743327
 20
-126.530770246145
 30
0.0
 10
85.28885865743327
 20
-126.4756663572701
 30
0.0
  0
INSERT
  5
F3
330
1F
100
AcDbEntity
  8
_U+30EC_U+30A4_U+30E4_U+30FC 1
100
AcDbBlockReference
  2
block 7
 10
0.0
 20
0.0
 30
0.0
  0
ENDSEC
  0
SECTION
  2
OBJECTS
  0
DICTIONARY
  5
C
330
0
100
AcDbDictionary
281
     1
  3
ACAD_GROUP
350
D
  3
ACAD_LAYOUT
350
1A
  3
ACAD_MATERIAL
350
3B
  3
ACAD_MLEADERSTYLE
350
F9
  3
ACAD_MLINESTYLE
350
17
  3
ACAD_PLOTSETTINGS
350
19
  3
ACAD_PLOTSTYLENAME
350
E
  3
ACAD_TABLESTYLE
350
F8
  3
ACAD_VISUALSTYLE
350
2A
  0
SUN
  5
3F
330
29
100
AcDbSun
 90
        1
290
     0
 63
     7
421
 16777215
 40
1.0
291
     1
 91
  2455826
 92
 54000000
292
     0
 70
     2
 71
   256
280
     1
  0
DICTIONARY
  5
D
102
{ACAD_REACTORS
330
C
102
}
330
C
100
AcDbDictionary
281
     1
  0
DICTIONARY
  5
1A
102
{ACAD_REACTORS
330
C
102
}
330
C
100
AcDbDictionary
281
     1
  3
Layout1
350
1E
  3
Layout2
350
26
  3
Model
350
22
  0
DICTIONARY
  5
3B
102
{ACAD_REACTORS
330
C
102
}
330
C
100
AcDbDictionary
281
     1
  3
ByBlock
350
3D
  3
ByLayer
350
3C
  3
Global
350
3E
  0
DICTIONARY
  5
F9
102
{ACAD_REACTORS
330
C
102
}
330
C
100
AcDbDictionary
281
     1
  0
DICTIONARY
  5
17
102
{ACAD_REACTORS
330
C
102
}
330
C
100
AcDbDictionary
281
     1
  3
Standard
350
18
  0
DICTIONARY
  5
19
102
{ACAD_REACTORS
330
C
102
}
330
C
100
AcDbDictionary
281
     1
  0
ACDBDICTIONARYWDFLT
  5
E
102
{ACAD_REACTORS
330
C
102
}
330
C
100
AcDbDictionary
281
     1
  3
Normal
350
F
100
AcDbDictionaryWithDefault
340
F
  0
DICTIONARY
  5
F8
102
{ACAD_REACTORS
330
C
102
}
330
C
100
AcDbDictionary
281
     1
  0
DICTIONARY
  5
2A
102
{ACAD_REACTORS
330
C
102
}
330
C
100
AcDbDictionary
281
     1
  3
2dWireframe
350
2F
  3
3D Hidden
350
31
  3
3dWireframe
350
30
  3
Basic
350
32
  3
Brighten
350
36
  3
ColorChange
350
3A
  3
Conceptual
350
34
  3
Dim
350
35
  3
Facepattern
350
39
  3
Flat
350
2B
  3
FlatWithEdges
350
2C
  3
Gouraud
350
2D
  3
GouraudWithEdges
350
2E
  3
Linepattern
350
38
  3
Realistic
350
33
  3
Thicken
350
37
  0
LAYOUT
  5
1E
102
{ACAD_REACTORS
330
1A
102
}
330
1A
100
AcDbPlotSettings
  1

  2
none_device
  4

  6

 40
0.0
 41
0.0
 42
0.0
 43
0.0
 44
0.0
 45
0.0
 46
0.0
 47
0.0
 48
0.0
 49
0.0
140
0.0
141
0.0
142
1.0
143
1.0
 70
   688
 72
     0
 73
     0
 74
     5
  7

 75
    16
 76
     0
 77
     2
 78
   300
147
1.0
148
0.0
149
0.0
100
AcDbLayout
  1
Layout1
 70
     1
 71
     1
 10
0.0
 20
0.0
 11
12.0
 21
9.0
 12
0.0
 22
0.0
 32
0.0
 14
1.000000000000000E+20
 24
1.000000000000000E+20
 34
1.000000000000000E+20
 15
-1.000000000000000E+20
 25
-1.000000000000000E+20
 35
-1.000000000000000E+20
146
0.0
 13
0.0
 23
0.0
 33
0.0
 16
1.0
 26
0.0
 36
0.0
 17
0.0
 27
1.0
 37
0.0
 76
     0
330
1B
  0
LAYOUT
  5
26
102
{ACAD_REACTORS
330
1A
102
}
330
1A
100
AcDbPlotSettings
  1

  2
none_device
  4

  6

 40
0.0
 41
0.0
 42
0.0
 43
0.0
 44
0.0
 45
0.0
 46
0.0
 47
0.0
 48
0.0
 49
0.0
140
0.0
141
0.0
142
1.0
143
1.0
 70
   688
 72
     0
 73
     0
 74
     5
  7

 75
    16
 76
     0
 77
     2
 78
   300
147
1.0
148
0.0
149
0.0
100
AcDbLayout
  1
Layout2
 70
     1
 71
     2
 10
0.0
 20
0.0
 11
0.0
 21
0.0
 12
0.0
 22
0.0
 32
0.0
 14
0.0
 24
0.0
 34
0.0
 15
0.0
 25
0.0
 35
0.0
146
0.0
 13
0.0
 23
0.0
 33
0.0
 16
1.0
 26
0.0
 36
0.0
 17
0.0
 27
1.0
 37
0.0
 76
     0
330
23
  0
LAYOUT
  5
22
102
{ACAD_REACTORS
330
1A
102
}
330
1A
100
AcDbPlotSettings
  1

  2
none_device
  4

  6

 40
0.0
 41
0.0
 42
0.0
 43
0.0
 44
0.0
 45
0.0
 46
0.0
 47
0.0
 48
0.0
 49
0.0
140
0.0
141
0.0
142
1.0
143
1.0
 70
  1712
 72
     0
 73
     0
 74
     0
  7

 75
     0
 76
     0
 77
     2
 78
   300
147
1.0
148
0.0
149
0.0
100
AcDbLayout
  1
Model
 70
     1
 71
     0
 10
0.0
 20
0.0
 11
12.0
 21
9.0
 12
0.0
 22
0.0
 32
0.0
 14
1.000000000000000E+20
 24
1.000000000000000E+20
 34
1.000000000000000E+20
 15
-1.000000000000000E+20
 25
-1.000000000000000E+20
 35
-1.000000000000000E+20
146
0.0
 13
0.0
 23
0.0
 33
0.0
 16
1.0
 26
0.0
 36
0.0
 17
0.0
 27
1.0
 37
0.0
 76
     0
330
1F
331
29
  0
MATERIAL
  5
3D
102
{ACAD_REACTORS
330
3B
102
}
330
3B
100
AcDbMaterial
  1
ByBlock
 72
     1
 94
      127
  0
MATERIAL
  5
3C
102
{ACAD_REACTORS
330
3B
102
}
330
3B
100
AcDbMaterial
  1
ByLayer
 72
     1
 94
      127
  0
MATERIAL
  5
3E
102
{ACAD_REACTORS
330
3B
102
}
330
3B
100
AcDbMaterial
  1
Global
 72
     1
 94
      127
  0
MLINESTYLE
  5
18
102
{ACAD_REACTORS
330
17
102
}
330
17
100
AcDbMlineStyle
  2
Standard
 70
     0
  3

 62
   256
 51
90.0
 52
90.0
 71
     2
 49
0.5
 62
   256
  6
BYLAYER
 49
-0.5
 62
   256
  6
BYLAYER
  0
ACDBPLACEHOLDER
  5
F
102
{ACAD_REACTORS
330
E
102
}
330
E
  0
VISUALSTYLE
  5
2F
102
{ACAD_REACTORS
330
2A
102
}
330
2A
100
AcDbVisualStyle
  2
2dWireframe
 70
     4
177
     2
291
     0
 71
     0
176
     1
 72
     2
176
     1
 73
     0
176
     1
 90
        0
176
     1
 40
-0.6
176
     1
 41
-30.0
176
     1
 62
     5
 63
     7
421
 16777215
176
     1
 74
     1
176
     1
 91
        4
176
     1
 64
     7
176
     1
 65
   257
176
     1
 75
     1
176
     1
175
     1
176
     1
 42
1.0
176
     1
 92
        0
176
     1
 66
   257
176
     1
 43
1.0
176
     1
 76
     1
176
     1
 77
     6
176
     1
 78
     2
176
     1
 67
     7
176
     1
 79
     5
176
     1
170
     0
176
     1
171
     0
176
     1
290
     0
176
     1
 93
        1
176
     1
 44
0.0
176
     1
173
     0
176
     1
  0
VISUALSTYLE
  5
31
102
{ACAD_REACTORS
330
2A
102
}
330
2A
100
AcDbVisualStyle
  2
3D Hidden
 70
     6
177
     2
291
     0
 71
     1
176
     1
 72
     2
176
     1
 73
     2
176
     1
 90
        0
176
     1
 40
-0.6
176
     1
 41
-30.0
176
     1
 62
     5
 63
     7
421
 16777215
176
     1
 74
     2
176
     1
 91
        2
176
     1
 64
     7
176
     1
 65
   257
176
     1
 75
     2
176
     1
175
     1
176
     1
 42
40.0
176
     1
 92
        0
176
     1
 66
   257
176
     1
 43
1.0
176
     1
 76
     1
176
     1
 77
     6
176
     1
 78
     2
176
     1
 67
     7
176
     1
 79
     3
176
     1
170
     0
176
     1
171
     0
176
     1
290
     0
176
     1
 93
        1
176
     1
 44
0.0
176
     1
173
     0
176
     1
  0
VISUALSTYLE
  5
30
102
{ACAD_REACTORS
330
2A
102
}
330
2A
100
AcDbVisualStyle
  2
3dWireframe
 70
     5
177
     2
291
     0
 71
     0
176
     1
 72
     2
176
     1
 73
     0
176
     1
 90
        0
176
     1
 40
-0.6
176
     1
 41
-30.0
176
     1
 62
     5
 63
     7
421
 16777215
176
     1
 74
     1
176
     1
 91
        4
176
     1
 64
     7
176
     1
 65
   257
176
     1
 75
     1
176
     1
175
     1
176
     1
 42
1.0
176
     1
 92
        0
176
     1
 66
   257
176
     1
 43
1.0
176
     1
 76
     1
176
     1
 77
     6
176
     1
 78
     2
176
     1
 67
     7
176
     1
 79
     5
176
     1
170
     0
176
     1
171
     0
176
     1
290
     0
176
     1
 93
        1
176
     1
 44
0.0
176
     1
173
     0
176
     1
  0
VISUALSTYLE
  5
32
102
{ACAD_REACTORS
330
2A
102
}
330
2A
100
AcDbVisualStyle
  2
Basic
 70
     7
177
     2
291
     1
 71
     1
176
     1
 72
     0
176
     1
 73
     1
176
     1
 90
        0
176
     1
 40
-0.6
176
     1
 41
-30.0
176
     1
 62
     5
 63
     7
421
 16777215
176
     1
 74
     0
176
     1
 91
        4
176
     1
 64
     7
176
     1
 65
   257
176
     1
 75
     1
176
     1
175
     1
176
     1
 42
1.0
176
     1
 92
        8
176
     1
 66
     7
176
     1
 43
1.0
176
     1
 76
     1
176
     1
 77
     6
176
     1
 78
     2
176
     1
 67
     7
176
     1
 79
     5
176
     1
170
     0
176
     1
171
     0
176
     1
290
     0
176
     1
 93
        1
176
     1
 44
0.0
176
     1
173
     0
176
     1
  0
VISUALSTYLE
  5
36
102
{ACAD_REACTORS
330
2A
102
}
330
2A
100
AcDbVisualStyle
  2
Brighten
 70
    12
177
     2
291
     1
 71
     2
176
     1
 72
     2
176
     1
 73
     0
176
     1
 90
        0
176
     1
 40
-0.6
176
     1
 41
-30.0
176
     1
 62
     5
 63
     7
421
 16777215
176
     1
 74
     1
176
     1
 91
        4
176
     1
 64
     7
176
     1
 65
   257
176
     1
 75
     1
176
     1
175
     1
176
     1
 42
1.0
176
     1
 92
        8
176
     1
 66
     7
176
     1
 43
1.0
176
     1
 76
     1
176
     1
 77
     6
176
     1
 78
     2
176
     1
 67
     7
176
     1
 79
     5
176
     1
170
     0
176
     1
171
     0
176
     1
290
     0
176
     1
 93
        1
176
     1
 44
50.0
176
     1
173
     0
176
     1
  0
VISUALSTYLE
  5
3A
102
{ACAD_REACTORS
330
2A
102
}
330
2A
100
AcDbVisualStyle
  2
ColorChange
 70
    16
177
     2
291
     1
 71
     2
176
     1
 72
     2
176
     1
 73
     3
176
     1
 90
        0
176
     1
 40
-0.6
176
     1
 41
-30.0
176
     1
 62
     5
 63
     8
421
  8421504
176
     1
 74
     1
176
     1
 91
        4
176
     1
 64
     7
176
     1
 65
   257
176
     1
 75
     1
176
     1
175
     1
176
     1
 42
1.0
176
     1
 92
        8
176
     1
 66
     8
424
  8421504
176
     1
 43
1.0
176
     1
 76
     1
176
     1
 77
     6
176
     1
 78
     2
176
     1
 67
     7
176
     1
 79
     5
176
     1
170
     0
176
     1
171
     0
176
     1
290
     0
176
     1
 93
        1
176
     1
 44
0.0
176
     1
173
     0
176
     1
  0
VISUALSTYLE
  5
34
102
{ACAD_REACTORS
330
2A
102
}
330
2A
100
AcDbVisualStyle
  2
Conceptual
 70
     9
177
     2
291
     0
 71
     3
176
     1
 72
     2
176
     1
 73
     0
176
     1
 90
        0
176
     1
 40
-0.6
176
     1
 41
-30.0
176
     1
 62
     5
 63
     7
421
 16777215
176
     1
 74
     2
176
     1
 91
        2
176
     1
 64
     7
176
     1
 65
   257
176
     1
 75
     1
176
     1
175
     1
176
     1
 42
40.0
176
     1
 92
        8
176
     1
 66
     7
176
     1
 43
1.0
176
     1
 76
     1
176
     1
 77
     6
176
     1
 78
     2
176
     1
 67
     7
176
     1
 79
     3
176
     1
170
     0
176
     1
171
     0
176
     1
290
     0
176
     1
 93
        1
176
     1
 44
0.0
176
     1
173
     0
176
     1
  0
VISUALSTYLE
  5
35
102
{ACAD_REACTORS
330
2A
102
}
330
2A
100
AcDbVisualStyle
  2
Dim
 70
    11
177
     2
291
     1
 71
     2
176
     1
 72
     2
176
     1
 73
     0
176
     1
 90
        0
176
     1
 40
-0.6
176
     1
 41
-30.0
176
     1
 62
     5
 63
     7
421
 16777215
176
     1
 74
     1
176
     1
 91
        4
176
     1
 64
     7
176
     1
 65
   257
176
     1
 75
     1
176
     1
175
     1
176
     1
 42
1.0
176
     1
 92
        8
176
     1
 66
     7
176
     1
 43
1.0
176
     1
 76
     1
176
     1
 77
     6
176
     1
 78
     2
176
     1
 67
     7
176
     1
 79
     5
176
     1
170
     0
176
     1
171
     0
176
     1
290
     0
176
     1
 93
        1
176
     1
 44
-50.0
176
     1
173
     0
176
     1
  0
VISUALSTYLE
  5
39
102
{ACAD_REACTORS
330
2A
102
}
330
2A
100
AcDbVisualStyle
  2
Facepattern
 70
    15
177
     2
291
     1
 71
     2
176
     1
 72
     2
176
     1
 73
     0
176
     1
 90
        0
176
     1
 40
-0.6
176
     1
 41
-30.0
176
     1
 62
     5
 63
     7
421
 16777215
176
     1
 74
     1
176
     1
 91
        4
176
     1
 64
     7
176
     1
 65
   257
176
     1
 75
     1
176
     1
175
     1
176
     1
 42
1.0
176
     1
 92
        8
176
     1
 66
     7
176
     1
 43
1.0
176
     1
 76
     1
176
     1
 77
     6
176
     1
 78
     2
176
     1
 67
     7
176
     1
 79
     5
176
     1
170
     0
176
     1
171
     0
176
     1
290
     0
176
     1
 93
        1
176
     1
 44
0.0
176
     1
173
     0
176
     1
  0
VISUALSTYLE
  5
2B
102
{ACAD_REACTORS
330
2A
102
}
330
2A
100
AcDbVisualStyle
  2
Flat
 70
     0
177
     2
291
     1
 71
     2
176
     1
 72
     1
176
     1
 73
     1
176
     1
 90
        2
176
     1
 40
-0.6
176
     1
 41
30.0
176
     1
 62
     5
 63
     7
421
 16777215
176
     1
 74
     0
176
     1
 91
        4
176
     1
 64
     7
176
     1
 65
   257
176
     1
 75
     1
176
     1
175
     1
176
     1
 42
1.0
176
     1
 92
        8
176
     1
 66
     7
176
     1
 43
1.0
176
     1
 76
     1
176
     1
 77
     6
176
     1
 78
     2
176
     1
 67
     7
176
     1
 79
     5
176
     1
170
     0
176
     1
171
     0
176
     1
290
     0
176
     1
 93
       13
176
     1
 44
0.0
176
     1
173
     0
176
     1
  0
VISUALSTYLE
  5
2C
102
{ACAD_REACTORS
330
2A
102
}
330
2A
100
AcDbVisualStyle
  2
FlatWithEdges
 70
     1
177
     2
291
     1
 71
     2
176
     1
 72
     1
176
     1
 73
     1
176
     1
 90
        2
176
     1
 40
-0.6
176
     1
 41
30.0
176
     1
 62
     5
 63
     7
421
 16777215
176
     1
 74
     1
176
     1
 91
        4
176
     1
 64
     7
176
     1
 65
   257
176
     1
 75
     1
176
     1
175
     1
176
     1
 42
1.0
176
     1
 92
        0
176
     1
 66
   257
176
     1
 43
1.0
176
     1
 76
     1
176
     1
 77
     6
176
     1
 78
     2
176
     1
 67
     7
176
     1
 79
     5
176
     1
170
     0
176
     1
171
     0
176
     1
290
     0
176
     1
 93
       13
176
     1
 44
0.0
176
     1
173
     0
176
     1
  0
VISUALSTYLE
  5
2D
102
{ACAD_REACTORS
330
2A
102
}
330
2A
100
AcDbVisualStyle
  2
Gouraud
 70
     2
177
     2
291
     1
 71
     2
176
     1
 72
     2
176
     1
 73
     1
176
     1
 90
        2
176
     1
 40
-0.6
176
     1
 41
30.0
176
     1
 62
     5
 63
     7
421
 16777215
176
     1
 74
     0
176
     1
 91
        4
176
     1
 64
     7
176
     1
 65
   257
176
     1
 75
     1
176
     1
175
     1
176
     1
 42
1.0
176
     1
 92
        0
176
     1
 66
     7
176
     1
 43
1.0
176
     1
 76
     1
176
     1
 77
     6
176
     1
 78
     2
176
     1
 67
     7
176
     1
 79
     5
176
     1
170
     0
176
     1
171
     0
176
     1
290
     0
176
     1
 93
       13
176
     1
 44
0.0
176
     1
173
     0
176
     1
  0
VISUALSTYLE
  5
2E
102
{ACAD_REACTORS
330
2A
102
}
330
2A
100
AcDbVisualStyle
  2
GouraudWithEdges
 70
     3
177
     2
291
     1
 71
     2
176
     1
 72
     2
176
     1
 73
     1
176
     1
 90
        2
176
     1
 40
-0.6
176
     1
 41
30.0
176
     1
 62
     5
 63
     7
421
 16777215
176
     1
 74
     1
176
     1
 91
        4
176
     1
 64
     7
176
     1
 65
   257
176
     1
 75
     1
176
     1
175
     1
176
     1
 42
1.0
176
     1
 92
        0
176
     1
 66
   257
176
     1
 43
1.0
176
     1
 76
     1
176
     1
 77
     6
176
     1
 78
     2
176
     1
 67
     7
176
     1
 79
     5
176
     1
170
     0
176
     1
171
     0
176
     1
290
     0
176
     1
 93
       13
176
     1
 44
0.0
176
     1
173
     0
176
     1
  0
VISUALSTYLE
  5
38
102
{ACAD_REACTORS
330
2A
102
}
330
2A
100
AcDbVisualStyle
  2
Linepattern
 70
    14
177
     2
291
     1
 71
     2
176
     1
 72
     2
176
     1
 73
     0
176
     1
 90
        0
176
     1
 40
-0.6
176
     1
 41
-30.0
176
     1
 62
     5
 63
     7
421
 16777215
176
     1
 74
     1
176
     1
 91
        4
176
     1
 64
     7
176
     1
 65
   257
176
     1
 75
     7
176
     1
175
     7
176
     1
 42
1.0
176
     1
 92
        8
176
     1
 66
     7
176
     1
 43
1.0
176
     1
 76
     1
176
     1
 77
     6
176
     1
 78
     2
176
     1
 67
     7
176
     1
 79
     5
176
     1
170
     0
176
     1
171
     0
176
     1
290
     0
176
     1
 93
        1
176
     1
 44
0.0
176
     1
173
     0
176
     1
  0
VISUALSTYLE
  5
33
102
{ACAD_REACTORS
330
2A
102
}
330
2A
100
AcDbVisualStyle
  2
Realistic
 70
     8
177
     2
291
     0
 71
     2
176
     1
 72
     2
176
     1
 73
     0
176
     1
 90
        0
176
     1
 40
-0.6
176
     1
 41
-30.0
176
     1
 62
     5
 63
     7
421
 16777215
176
     1
 74
     1
176
     1
 91
        0
176
     1
 64
     7
176
     1
 65
   257
176
     1
 75
     1
176
     1
175
     1
176
     1
 42
1.0
176
     1
 92
        8
176
     1
 66
     8
424
  7895160
176
     1
 43
1.0
176
     1
 76
     1
176
     1
 77
     6
176
     1
 78
     2
176
     1
 67
     7
176
     1
 79
     5
176
     1
170
     0
176
     1
171
     0
176
     1
290
     0
176
     1
 93
       13
176
     1
 44
0.0
176
     1
173
     0
176
     1
  0
VISUALSTYLE
  5
37
102
{ACAD_REACTORS
330
2A
102
}
330
2A
100
AcDbVisualStyle
  2
Thicken
 70
    13
177
     2
291
     1
 71
     2
176
     1
 72
     2
176
     1
 73
     0
176
     1
 90
        0
176
     1
 40
-0.6
176
     1
 41
-30.0
176
     1
 62
     5
 63
     7
421
 16777215
176
     1
 74
     1
176
     1
 91
        4
176
     1
 64
     7
176
     1
 65
   257
176
     1
 75
     1
176
     1
175
     1
176
     1
 42
1.0
176
     1
 92
       12
176
     1
 66
     7
176
     1
 43
1.0
176
     1
 76
     1
176
     1
 77
     6
176
     1
 78
     2
176
     1
 67
     7
176
     1
 79
     5
176
     1
170
     0
176
     1
171
     0
176
     1
290
     0
176
     1
 93
        1
176
     1
 44
0.0
176
     1
173
     0
176
     1
  0
ENDSEC
  0
EOF
