  0
SECTION
  2
HEADER
  9
$ACADVER
  1
AC1024
  9
$ACADMAINTVER
 70
     6
  9
$DWGCODEPAGE
  3
UNDEFINED
  9
$INSBASE
 10
0.0
 20
0.0
 30
0.0
  9
$EXTMIN
 10
1.000000000000000E+20
 20
1.000000000000000E+20
 30
1.000000000000000E+20
  9
$EXTMAX
 10
-1.000000000000000E+20
 20
-1.000000000000000E+20
 30
-1.000000000000000E+20
  9
$LIMMIN
 10
0.0
 20
0.0
  9
$LIMMAX
 10
12.0
 20
9.0
  9
$ORTHOMODE
 70
     0
  9
$REGENMODE
 70
     1
  9
$FILLMODE
 70
     1
  9
$QTEXTMODE
 70
     0
  9
$MIRRTEXT
 70
     1
  9
$LTSCALE
 40
1.0
  9
$ATTMODE
 70
     1
  9
$TEXTSIZE
 40
0.2
  9
$TRACEWID
 40
0.05
  9
$TEXTSTYLE
  7
Standard
  9
$CLAYER
  8
0
  9
$CELTYPE
  6
ByLayer
  9
$CECOLOR
 62
   256
  9
$CELTSCALE
 40
1.0
  9
$DISPSILH
 70
     0
  9
$DIMSCALE
 40
1.0
  9
$DIMASZ
 40
0.18
  9
$DIMEXO
 40
0.0625
  9
$DIMDLI
 40
0.38
  9
$DIMRND
 40
0.0
  9
$DIMDLE
 40
0.0
  9
$DIMEXE
 40
0.18
  9
$DIMTP
 40
0.0
  9
$DIMTM
 40
0.0
  9
$DIMTXT
 40
0.18
  9
$DIMCEN
 40
0.09
  9
$DIMTSZ
 40
0.0
  9
$DIMTOL
 70
     0
  9
$DIMLIM
 70
     0
  9
$DIMTIH
 70
     1
  9
$DIMTOH
 70
     1
  9
$DIMSE1
 70
     0
  9
$DIMSE2
 70
     0
  9
$DIMTAD
 70
     0
  9
$DIMZIN
 70
     0
  9
$DIMBLK
  1

  9
$DIMASO
 70
     1
  9
$DIMSHO
 70
     1
  9
$DIMPOST
  1

  9
$DIMAPOST
  1

  9
$DIMALT
 70
     0
  9
$DIMALTD
 70
     2
  9
$DIMALTF
 40
25.4
  9
$DIMLFAC
 40
1.0
  9
$DIMTOFL
 70
     0
  9
$DIMTVP
 40
0.0
  9
$DIMTIX
 70
     0
  9
$DIMSOXD
 70
     0
  9
$DIMSAH
 70
     0
  9
$DIMBLK1
  1

  9
$DIMBLK2
  1

  9
$DIMSTYLE
  2
Standard
  9
$DIMCLRD
 70
     0
  9
$DIMCLRE
 70
     0
  9
$DIMCLRT
 70
     0
  9
$DIMTFAC
 40
1.0
  9
$DIMGAP
 40
0.09
  9
$DIMJUST
 70
     0
  9
$DIMSD1
 70
     0
  9
$DIMSD2
 70
     0
  9
$DIMTOLJ
 70
     1
  9
$DIMTZIN
 70
     0
  9
$DIMALTZ
 70
     0
  9
$DIMALTTZ
 70
     0
  9
$DIMUPT
 70
     0
  9
$DIMDEC
 70
     4
  9
$DIMTDEC
 70
     4
  9
$DIMALTU
 70
     2
  9
$DIMALTTD
 70
     2
  9
$DIMTXSTY
  7
Standard
  9
$DIMAUNIT
 70
     0
  9
$DIMADEC
 70
     0
  9
$DIMALTRND
 40
0.0
  9
$DIMAZIN
 70
     0
  9
$DIMDSEP
 70
    46
  9
$DIMATFIT
 70
     3
  9
$DIMFRAC
 70
     0
  9
$DIMLDRBLK
  1

  9
$DIMLUNIT
 70
     2
  9
$DIMLWD
 70
    -2
  9
$DIMLWE
 70
    -2
  9
$DIMTMOVE
 70
     0
  9
$DIMFXL
 40
1.0
  9
$DIMFXLON
 70
     0
  9
$DIMJOGANG
 40
0.7853981633974483
  9
$DIMTFILL
 70
     0
  9
$DIMTFILLCLR
 70
     0
  9
$DIMARCSYM
 70
     0
  9
$DIMLTYPE
  6

  9
$DIMLTEX1
  6

  9
$DIMLTEX2
  6

  9
$DIMTXTDIRECTION
 70
     0
  9
$LUNITS
 70
     2
  9
$LUPREC
 70
     4
  9
$SKETCHINC
 40
0.1
  9
$FILLETRAD
 40
0.5
  9
$AUNITS
 70
     0
  9
$AUPREC
 70
     0
  9
$MENU
  1
.
  9
$ELEVATION
 40
0.0
  9
$PELEVATION
 40
0.0
  9
$THICKNESS
 40
0.0
  9
$LIMCHECK
 70
     0
  9
$CHAMFERA
 40
0.5
  9
$CHAMFERB
 40
0.5
  9
$CHAMFERC
 40
1.0
  9
$CHAMFERD
 40
0.0
  9
$SKPOLY
 70
     0
  9
$TDCREATE
 40
2457917.599976852
  9
$TDUCREATE
 40
2457917.224976852
  9
$TDUPDATE
 40
2457917.599976852
  9
$TDUUPDATE
 40
2457917.224976852
  9
$TDINDWG
 40
0.0000000116
  9
$TDUSRTIMER
 40
0.0000000116
  9
$USRTIMER
 70
     1
  9
$ANGBASE
 50
0.0
  9
$ANGDIR
 70
     0
  9
$PDMODE
 70
     0
  9
$PDSIZE
 40
0.0
  9
$PLINEWID
 40
0.0
  9
$SPLFRAME
 70
     0
  9
$SPLINETYPE
 70
     6
  9
$SPLINESEGS
 70
     8
  9
$HANDSEED
  5
E2
  9
$SURFTAB1
 70
     6
  9
$SURFTAB2
 70
     6
  9
$SURFTYPE
 70
     6
  9
$SURFU
 70
     6
  9
$SURFV
 70
     6
  9
$UCSBASE
  2

  9
$UCSNAME
  2

  9
$UCSORG
 10
0.0
 20
0.0
 30
0.0
  9
$UCSXDIR
 10
1.0
 20
0.0
 30
0.0
  9
$UCSYDIR
 10
0.0
 20
1.0
 30
0.0
  9
$UCSORTHOREF
  2

  9
$UCSORTHOVIEW
 70
     0
  9
$UCSORGTOP
 10
0.0
 20
0.0
 30
0.0
  9
$UCSORGBOTTOM
 10
0.0
 20
0.0
 30
0.0
  9
$UCSORGLEFT
 10
0.0
 20
0.0
 30
0.0
  9
$UCSORGRIGHT
 10
0.0
 20
0.0
 30
0.0
  9
$UCSORGFRONT
 10
0.0
 20
0.0
 30
0.0
  9
$UCSORGBACK
 10
0.0
 20
0.0
 30
0.0
  9
$PUCSBASE
  2

  9
$PUCSNAME
  2

  9
$PUCSORG
 10
0.0
 20
0.0
 30
0.0
  9
$PUCSXDIR
 10
1.0
 20
0.0
 30
0.0
  9
$PUCSYDIR
 10
0.0
 20
1.0
 30
0.0
  9
$PUCSORTHOREF
  2

  9
$PUCSORTHOVIEW
 70
     0
  9
$PUCSORGTOP
 10
0.0
 20
0.0
 30
0.0
  9
$PUCSORGBOTTOM
 10
0.0
 20
0.0
 30
0.0
  9
$PUCSORGLEFT
 10
0.0
 20
0.0
 30
0.0
  9
$PUCSORGRIGHT
 10
0.0
 20
0.0
 30
0.0
  9
$PUCSORGFRONT
 10
0.0
 20
0.0
 30
0.0
  9
$PUCSORGBACK
 10
0.0
 20
0.0
 30
0.0
  9
$USERI1
 70
     0
  9
$USERI2
 70
     0
  9
$USERI3
 70
     0
  9
$USERI4
 70
     0
  9
$USERI5
 70
     0
  9
$USERR1
 40
0.0
  9
$USERR2
 40
0.0
  9
$USERR3
 40
0.0
  9
$USERR4
 40
0.0
  9
$USERR5
 40
0.0
  9
$WORLDVIEW
 70
     1
  9
$SHADEDGE
 70
     3
  9
$SHADEDIF
 70
    70
  9
$TILEMODE
 70
     1
  9
$MAXACTVP
 70
    64
  9
$PINSBASE
 10
0.0
 20
0.0
 30
0.0
  9
$PLIMCHECK
 70
     0
  9
$PEXTMIN
 10
1.000000000000000E+20
 20
1.000000000000000E+20
 30
1.000000000000000E+20
  9
$PEXTMAX
 10
-1.000000000000000E+20
 20
-1.000000000000000E+20
 30
-1.000000000000000E+20
  9
$PLIMMIN
 10
0.0
 20
0.0
  9
$PLIMMAX
 10
12.0
 20
9.0
  9
$UNITMODE
 70
     0
  9
$VISRETAIN
 70
     1
  9
$PLINEGEN
 70
     0
  9
$PSLTSCALE
 70
     1
  9
$TREEDEPTH
 70
  3020
  9
$CMLSTYLE
  2
Standard
  9
$CMLJUST
 70
     0
  9
$CMLSCALE
 40
1.0
  9
$PROXYGRAPHICS
 70
     1
  9
$MEASUREMENT
 70
     0
  9
$CELWEIGHT
370
    -1
  9
$ENDCAPS
280
     0
  9
$JOINSTYLE
280
     0
  9
$LWDISPLAY
290
     1
  9
$INSUNITS
 70
     1
  9
$HYPERLINKBASE
  1

  9
$STYLESHEET
  1

  9
$XEDIT
290
     1
  9
$CEPSNTYPE
380
     0
  9
$PSTYLEMODE
290
     1
  9
$FINGERPRINTGUID
  2
{DB3AE0D8-3F5C-5FC7-7846-5CB0AED9625C}
  9
$VERSIONGUID
  2
{FAEB1C32-E019-11D5-929B-00C0DF256EC4}
  9
$EXTNAMES
290
     1
  9
$PSVPSCALE
 40
0.0
  9
$OLESTARTUP
290
     0
  9
$SORTENTS
280
   127
  9
$INDEXCTL
280
     0
  9
$HIDETEXT
280
     1
  9
$XCLIPFRAME
280
     2
  9
$HALOGAP
280
     0
  9
$OBSCOLOR
 70
   257
  9
$OBSLTYPE
280
     0
  9
$INTERSECTIONDISPLAY
280
     0
  9
$INTERSECTIONCOLOR
 70
   257
  9
$DIMASSOC
280
     2
  9
$PROJECTNAME
  1

  9
$CAMERADISPLAY
290
     0
  9
$LENSLENGTH
 40
50.0
  9
$CAMERAHEIGHT
 40
0.0
  9
$STEPSPERSEC
 40
2.0
  9
$STEPSIZE
 40
6.0
  9
$3DDWFPREC
 40
2.0
  9
$PSOLWIDTH
 40
0.25
  9
$PSOLHEIGHT
 40
4.0
  9
$LOFTANG1
 40
1.570796326794897
  9
$LOFTANG2
 40
1.570796326794897
  9
$LOFTMAG1
 40
0.0
  9
$LOFTMAG2
 40
0.0
  9
$LOFTPARAM
 70
     7
  9
$LOFTNORMALS
280
     1
  9
$LATITUDE
 40
37.795
  9
$LONGITUDE
 40
-122.394
  9
$NORTHDIRECTION
 40
0.0
  9
$TIMEZONE
 70
 -8000
  9
$LIGHTGLYPHDISPLAY
280
     1
  9
$TILEMODELIGHTSYNCH
280
     1
  9
$CMATERIAL
347
3C
  9
$SOLIDHIST
280
     1
  9
$SHOWHIST
280
     1
  9
$DWFFRAME
280
     2
  9
$DGNFRAME
280
     2
  9
$REALWORLDSCALE
290
     1
  9
$INTERFERECOLOR
 62
   256
  9
$CSHADOW
280
     0
  9
$SHADOWPLANELOCATION
 40
0.0
  0
ENDSEC
  0
SECTION
  2
CLASSES
  0
CLASS
  1
ACDBDICTIONARYWDFLT
  2
AcDbDictionaryWithDefault
  3
ObjectDBX Classes
 90
        0
 91
        4
280
     0
281
     0
  0
CLASS
  1
VISUALSTYLE
  2
AcDbVisualStyle
  3
ObjectDBX Classes
 90
     4095
 91
        4
280
     0
281
     0
  0
CLASS
  1
MATERIAL
  2
AcDbMaterial
  3
ObjectDBX Classes
 90
     1153
 91
        4
280
     0
281
     0
  0
CLASS
  1
SUN
  2
AcDbSun
  3
SCENEOE
 90
     1024
 91
        4
280
     0
281
     0
  0
ENDSEC
  0
SECTION
  2
TABLES
  0
TABLE
  2
VPORT
  5
8
330
0
100
AcDbSymbolTable
 70
     1
  0
VPORT
  5
29
330
8
100
AcDbSymbolTableRecord
100
AcDbViewportTableRecord
  2
*Active
 70
     0
 10
0.0
 20
0.0
 11
1.0
 21
1.0
 12
0.0
 22
0.0
 13
0.0
 23
0.0
 14
0.5
 24
0.5
 15
0.5
 25
0.5
 16
0.0
 26
0.0
 36
1.0
 17
91.00082462281999
 27
-128.4993055234307
 37
0.0
 40
256.9986110468615
 41
0.7081814508812795
 42
50.0
 43
0.0
 44
0.0
 50
0.0
 51
0.0
 71
     0
 72
   100
 73
     1
 74
     3
 75
     0
 76
     0
 77
     0
 78
     0
281
     0
 65
     1
110
0.0
120
0.0
130
0.0
111
1.0
121
0.0
131
0.0
112
0.0
122
1.0
132
0.0
 79
     0
146
0.0
 60
     3
 61
     5
292
     1
282
     1
141
0.0
142
0.0
 63
   250
361
3F
  0
ENDTAB
  0
TABLE
  2
LTYPE
  5
5
330
0
100
AcDbSymbolTable
 70
     1
  0
LTYPE
  5
14
330
5
100
AcDbSymbolTableRecord
100
AcDbLinetypeTableRecord
  2
ByBlock
 70
     0
  3

 72
    65
 73
     0
 40
0.0
  0
LTYPE
  5
15
330
5
100
AcDbSymbolTableRecord
100
AcDbLinetypeTableRecord
  2
ByLayer
 70
     0
  3

 72
    65
 73
     0
 40
0.0
  0
LTYPE
  5
16
330
5
100
AcDbSymbolTableRecord
100
AcDbLinetypeTableRecord
  2
Continuous
 70
     0
  3
Solid line
 72
    65
 73
     0
 40
0.0
  0
ENDTAB
  0
TABLE
  2
LAYER
  5
2
330
0
100
AcDbSymbolTable
 70
     2
  0
LAYER
  5
10
330
2
100
AcDbSymbolTableRecord
100
AcDbLayerTableRecord
  2
0
 70
     0
 62
     7
  6
Continuous
370
    -3
390
F
347
3E
  0
LAYER
  5
40
330
2
100
AcDbSymbolTableRecord
100
AcDbLayerTableRecord
  2
_U+30EC_U+30A4_U+30E4_U+30FC 1
 70
     0
 62
     7
  6
Continuous
370
    -3
390
F
347
3E
  0
ENDTAB
  0
TABLE
  2
STYLE
  5
3
330
0
100
AcDbSymbolTable
 70
     1
  0
STYLE
  5
11
330
3
100
AcDbSymbolTableRecord
100
AcDbTextStyleTableRecord
  2
Standard
 70
     0
 40
0.0
 41
1.0
 50
0.0
 71
     0
 42
0.2
  3
txt
  4

  0
ENDTAB
  0
TABLE
  2
VIEW
  5
6
330
0
100
AcDbSymbolTable
 70
     0
  0
ENDTAB
  0
TABLE
  2
UCS
  5
7
330
0
100
AcDbSymbolTable
 70
     0
  0
ENDTAB
  0
TABLE
  2
APPID
  5
9
330
0
100
AcDbSymbolTable
 70
     1
  0
APPID
  5
12
330
9
100
AcDbSymbolTableRecord
100
AcDbRegAppTableRecord
  2
ACAD
 70
     0
  0
ENDTAB
  0
TABLE
  2
DIMSTYLE
  5
A
330
0
100
AcDbSymbolTable
 70
     1
100
AcDbDimStyleTable
  0
DIMSTYLE
105
27
330
A
100
AcDbSymbolTableRecord
100
AcDbDimStyleTableRecord
  2
Standard
 70
     0
178
     0
340
11
  0
ENDTAB
  0
TABLE
  2
BLOCK_RECORD
  5
1
330
0
100
AcDbSymbolTable
 70
     6
  0
BLOCK_RECORD
  5
1F
330
1
100
AcDbSymbolTableRecord
100
AcDbBlockTableRecord
  2
*Model_Space
340
22
 70
     0
280
     1
281
     0
  0
BLOCK_RECORD
  5
1B
330
1
100
AcDbSymbolTableRecord
100
AcDbBlockTableRecord
  2
*Paper_Space
340
1E
 70
     0
280
     1
281
     0
  0
BLOCK_RECORD
  5
23
330
1
100
AcDbSymbolTableRecord
100
AcDbBlockTableRecord
  2
*Paper_Space0
340
26
 70
     0
280
     1
281
     0
  0
BLOCK_RECORD
  5
85
330
1
100
AcDbSymbolTableRecord
100
AcDbBlockTableRecord
  2
block 2
340
0
102
{BLKREFS
331
86
102
}
 70
     0
280
     1
281
     0
  0
BLOCK_RECORD
  5
92
330
1
100
AcDbSymbolTableRecord
100
AcDbBlockTableRecord
  2
block 3
340
0
102
{BLKREFS
331
93
102
}
 70
     0
280
     1
281
     0
  0
BLOCK_RECORD
  5
B4
330
1
100
AcDbSymbolTableRecord
100
AcDbBlockTableRecord
  2
block 4
340
0
102
{BLKREFS
331
B5
102
}
 70
     0
280
     1
281
     0
  0
BLOCK_RECORD
  5
C6
330
1
100
AcDbSymbolTableRecord
100
AcDbBlockTableRecord
  2
block 5
340
0
102
{BLKREFS
331
C7
102
}
 70
     0
280
     1
281
     0
  0
BLOCK_RECORD
  5
DA
330
1
100
AcDbSymbolTableRecord
100
AcDbBlockTableRecord
  2
block 6
340
0
102
{BLKREFS
331
DB
102
}
 70
     0
280
     1
281
     0
  0
ENDTAB
  0
ENDSEC
  0
SECTION
  2
BLOCKS
  0
BLOCK
  5
20
330
1F
100
AcDbEntity
  8
0
100
AcDbBlockBegin
  2
*Model_Space
 70
     0
 10
0.0
 20
0.0
 30
0.0
  3
*Model_Space
  1

  0
ENDBLK
  5
21
330
1F
100
AcDbEntity
  8
0
100
AcDbBlockEnd
  0
BLOCK
  5
1C
330
1B
100
AcDbEntity
 67
     1
  8
0
100
AcDbBlockBegin
  2
*Paper_Space
 70
     0
 10
0.0
 20
0.0
 30
0.0
  3
*Paper_Space
  1

  0
ENDBLK
  5
1D
330
1B
100
AcDbEntity
 67
     1
  8
0
100
AcDbBlockEnd
  0
BLOCK
  5
24
330
23
100
AcDbEntity
  8
0
100
AcDbBlockBegin
  2
*Paper_Space0
 70
     0
 10
0.0
 20
0.0
 30
0.0
  3
*Paper_Space0
  1

  0
ENDBLK
  5
25
330
23
100
AcDbEntity
  8
0
100
AcDbBlockEnd
  0
BLOCK
  5
87
330
85
100
AcDbEntity
  8
0
100
AcDbBlockBegin
  2
block 2
 70
     0
 10
0.0
 20
0.0
 30
0.0
  3
block 2
  1

  0
SPLINE
  5
89
330
85
100
AcDbEntity
  8
_U+30EC_U+30A4_U+30E4_U+30FC 1
370
     0
100
AcDbSpline
210
0.0
220
0.0
230
1.0
 70
    11
 71
     3
 72
    26
 73
    22
 74
     0
 42
0.0000000001
 43
0.0000000001
 12
1.0
 22
0.0
 32
0.0
 13
1.0
 23
0.0
 33
0.0
 40
0.0
 40
0.0
 40
0.0
 40
0.0
 40
1.0
 40
1.0
 40
1.0
 40
2.0
 40
2.0
 40
2.0
 40
3.0
 40
3.0
 40
3.0
 40
4.0
 40
4.0
 40
4.0
 40
5.0
 40
5.0
 40
5.0
 40
6.0
 40
6.0
 40
6.0
 40
7.0
 40
7.0
 40
7.0
 40
7.0
 10
95.14733613072706
 20
-138.8914360546869
 30
0.0
 10
95.14733613072706
 20
-138.8914360546869
 30
0.0
 10
95.14733613072706
 20
-137.7872829516643
 30
0.0
 10
95.14733613072706
 20
-137.7872829516643
 30
0.0
 10
95.14733613072706
 20
-137.7872829516643
 30
0.0
 10
94.81729598324013
 20
-137.7872829516643
 30
0.0
 10
94.81729598324013
 20
-137.7872829516643
 30
0.0
 10
94.81729598324013
 20
-137.7872829516643
 30
0.0
 10
94.81729598324013
 20
-137.6391438457985
 30
0.0
 10
94.81729598324013
 20
-137.6391438457985
 30
0.0
 10
95.14940318801821
 20
-137.624329935212
 30
0.0
 10
95.19591197706909
 20
-137.4613769187597
 30
0.0
 10
95.22553979824222
 20
-137.3469997486494
 30
0.0
 10
95.22553979824222
 20
-137.3469997486494
 30
0.0
 10
95.37161184681682
 20
-137.3469997486494
 30
0.0
 10
95.37161184681682
 20
-137.3469997486494
 30
0.0
 10
95.37161184681682
 20
-137.3469997486494
 30
0.0
 10
95.37161184681682
 20
-138.8914360546869
 30
0.0
 10
95.37161184681682
 20
-138.8914360546869
 30
0.0
 10
95.37161184681682
 20
-138.8914360546869
 30
0.0
 10
95.14733613072706
 20
-138.8914360546869
 30
0.0
 10
95.14733613072706
 20
-138.8914360546869
 30
0.0
  0
HATCH
  5
8A
330
85
100
AcDbEntity
  8
_U+30EC_U+30A4_U+30E4_U+30FC 1
 62
   179
420
  2234388
100
AcDbHatch
 10
0.0
 20
0.0
 30
0.0
210
0.0
220
0.0
230
1.0
  2
SOLID
 70
     1
 71
     0
 91
        1
 92
        1
 93
        1
 72
     4
 94
        3
 73
     0
 74
     1
 95
       26
 96
       22
 40
0.0
 40
0.0
 40
0.0
 40
0.0
 40
1.0
 40
1.0
 40
1.0
 40
2.0
 40
2.0
 40
2.0
 40
3.0
 40
3.0
 40
3.0
 40
4.0
 40
4.0
 40
4.0
 40
5.0
 40
5.0
 40
5.0
 40
6.0
 40
6.0
 40
6.0
 40
7.0
 40
7.0
 40
7.0
 40
7.0
 10
95.14733613072706
 20
-138.8914360546869
 10
95.14733613072706
 20
-138.8914360546869
 10
95.14733613072706
 20
-137.7872829516643
 10
95.14733613072706
 20
-137.7872829516643
 10
95.14733613072706
 20
-137.7872829516643
 10
94.81729598324013
 20
-137.7872829516643
 10
94.81729598324013
 20
-137.7872829516643
 10
94.81729598324013
 20
-137.7872829516643
 10
94.81729598324013
 20
-137.6391438457985
 10
94.81729598324013
 20
-137.6391438457985
 10
95.14940318801821
 20
-137.624329935212
 10
95.19591197706909
 20
-137.4613769187597
 10
95.22553979824222
 20
-137.3469997486494
 10
95.22553979824222
 20
-137.3469997486494
 10
95.37161184681682
 20
-137.3469997486494
 10
95.37161184681682
 20
-137.3469997486494
 10
95.37161184681682
 20
-137.3469997486494
 10
95.37161184681682
 20
-138.8914360546869
 10
95.37161184681682
 20
-138.8914360546869
 10
95.37161184681682
 20
-138.8914360546869
 10
95.14733613072706
 20
-138.8914360546869
 10
95.14733613072706
 20
-138.8914360546869
 97
        0
 97
        0
 75
     2
 76
     1
 98
        0
  0
SPLINE
  5
8B
330
85
100
AcDbEntity
  8
_U+30EC_U+30A4_U+30E4_U+30FC 1
370
     0
100
AcDbSpline
210
0.0
220
0.0
230
1.0
 70
    11
 71
     3
 72
    29
 73
    25
 74
     0
 42
0.0000000001
 43
0.0000000001
 12
1.0
 22
0.0
 32
0.0
 13
1.0
 23
0.0
 33
0.0
 40
0.0
 40
0.0
 40
0.0
 40
0.0
 40
1.0
 40
1.0
 40
1.0
 40
2.0
 40
2.0
 40
2.0
 40
3.0
 40
3.0
 40
3.0
 40
4.0
 40
4.0
 40
4.0
 40
5.0
 40
5.0
 40
5.0
 40
6.0
 40
6.0
 40
6.0
 40
7.0
 40
7.0
 40
7.0
 40
8.0
 40
8.0
 40
8.0
 40
8.0
 10
96.77066512337679
 20
-138.713669127648
 30
0.0
 10
96.66248912513994
 20
-138.9231309331512
 30
0.0
 10
96.48920082223187
 20
-138.9420789583201
 30
0.0
 10
96.37275659483042
 20
-138.9420789583201
 30
0.0
 10
96.21187063566926
 20
-138.9420789583201
 30
0.0
 10
96.07027721122549
 20
-138.8955701692692
 30
0.0
 10
95.9751925758326
 20
-138.713669127648
 30
0.0
 10
95.87149520172657
 20
-138.5190212327314
 30
0.0
 10
95.8525471765577
 20
-138.2823431728947
 30
0.0
 10
95.8525471765577
 20
-138.1193901564424
 30
0.0
 10
95.8525471765577
 20
-137.9753851651589
 30
0.0
 10
95.86942814443543
 20
-137.7235486851872
 30
0.0
 10
95.9751925758326
 20
-137.5247666756883
 30
0.0
 10
96.08302406452091
 20
-137.321850551607
 30
0.0
 10
96.24391002368208
 20
-137.2984239023073
 30
0.0
 10
96.37275659483042
 20
-137.2984239023073
 30
0.0
 10
96.53157549670044
 20
-137.2984239023073
 30
0.0
 10
96.67523597843537
 20
-137.3428656340671
 30
0.0
 10
96.77066512337679
 20
-137.5247666756883
 30
0.0
 10
96.86988387335198
 20
-137.7173475133137
 30
0.0
 10
96.89331052265167
 20
-137.9457573439858
 30
0.0
 10
96.89331052265167
 20
-138.1193901564424
 30
0.0
 10
96.89331052265167
 20
-138.2906114020593
 30
0.0
 10
96.87195093064312
 20
-138.5210882900225
 30
0.0
 10
96.77066512337679
 20
-138.713669127648
 30
0.0
  0
SPLINE
  5
8C
330
85
100
AcDbEntity
  8
_U+30EC_U+30A4_U+30E4_U+30FC 1
370
     0
100
AcDbSpline
210
0.0
220
0.0
230
1.0
 70
    11
 71
     3
 72
    17
 73
    13
 74
     0
 42
0.0000000001
 43
0.0000000001
 12
1.0
 22
0.0
 32
0.0
 13
1.0
 23
0.0
 33
0.0
 40
0.0
 40
0.0
 40
0.0
 40
0.0
 40
1.0
 40
1.0
 40
1.0
 40
2.0
 40
2.0
 40
2.0
 40
3.0
 40
3.0
 40
3.0
 40
4.0
 40
4.0
 40
4.0
 40
4.0
 10
96.37275659483042
 20
-137.4910047399328
 30
0.0
 10
96.12333168169833
 20
-137.4910047399328
 30
0.0
 10
96.07647838309894
 20
-137.7745360983689
 30
0.0
 10
96.07647838309894
 20
-138.1193901564424
 30
0.0
 10
96.07647838309894
 20
-138.4387505079251
 30
0.0
 10
96.11265188569406
 20
-138.7474310634034
 30
0.0
 10
96.37275659483042
 20
-138.7474310634034
 30
0.0
 10
96.62045896021989
 20
-138.7474310634034
 30
0.0
 10
96.66903480656191
 20
-138.466311271807
 30
0.0
 10
96.66903480656191
 20
-138.1193901564424
 30
0.0
 10
96.66903480656191
 20
-137.7996852954112
 30
0.0
 10
96.63079424667563
 20
-137.4910047399328
 30
0.0
 10
96.37275659483042
 20
-137.4910047399328
 30
0.0
  0
HATCH
  5
8D
330
85
100
AcDbEntity
  8
_U+30EC_U+30A4_U+30E4_U+30FC 1
 62
   179
420
  2234388
100
AcDbHatch
 10
0.0
 20
0.0
 30
0.0
210
0.0
220
0.0
230
1.0
  2
SOLID
 70
     1
 71
     0
 91
        2
 92
        1
 93
        1
 72
     4
 94
        3
 73
     0
 74
     1
 95
       29
 96
       25
 40
0.0
 40
0.0
 40
0.0
 40
0.0
 40
1.0
 40
1.0
 40
1.0
 40
2.0
 40
2.0
 40
2.0
 40
3.0
 40
3.0
 40
3.0
 40
4.0
 40
4.0
 40
4.0
 40
5.0
 40
5.0
 40
5.0
 40
6.0
 40
6.0
 40
6.0
 40
7.0
 40
7.0
 40
7.0
 40
8.0
 40
8.0
 40
8.0
 40
8.0
 10
96.77066512337679
 20
-138.713669127648
 10
96.66248912513994
 20
-138.9231309331512
 10
96.48920082223187
 20
-138.9420789583201
 10
96.37275659483042
 20
-138.9420789583201
 10
96.21187063566926
 20
-138.9420789583201
 10
96.07027721122549
 20
-138.8955701692692
 10
95.9751925758326
 20
-138.713669127648
 10
95.87149520172657
 20
-138.5190212327314
 10
95.8525471765577
 20
-138.2823431728947
 10
95.8525471765577
 20
-138.1193901564424
 10
95.8525471765577
 20
-137.9753851651589
 10
95.86942814443543
 20
-137.7235486851872
 10
95.9751925758326
 20
-137.5247666756883
 10
96.08302406452091
 20
-137.321850551607
 10
96.24391002368208
 20
-137.2984239023073
 10
96.37275659483042
 20
-137.2984239023073
 10
96.53157549670044
 20
-137.2984239023073
 10
96.67523597843537
 20
-137.3428656340671
 10
96.77066512337679
 20
-137.5247666756883
 10
96.86988387335198
 20
-137.7173475133137
 10
96.89331052265167
 20
-137.9457573439858
 10
96.89331052265167
 20
-138.1193901564424
 10
96.89331052265167
 20
-138.2906114020593
 10
96.87195093064312
 20
-138.5210882900225
 10
96.77066512337679
 20
-138.713669127648
 97
        0
 97
        0
 92
        1
 93
        1
 72
     4
 94
        3
 73
     0
 74
     1
 95
       17
 96
       13
 40
0.0
 40
0.0
 40
0.0
 40
0.0
 40
1.0
 40
1.0
 40
1.0
 40
2.0
 40
2.0
 40
2.0
 40
3.0
 40
3.0
 40
3.0
 40
4.0
 40
4.0
 40
4.0
 40
4.0
 10
96.37275659483042
 20
-137.4910047399328
 10
96.12333168169833
 20
-137.4910047399328
 10
96.07647838309894
 20
-137.7745360983689
 10
96.07647838309894
 20
-138.1193901564424
 10
96.07647838309894
 20
-138.4387505079251
 10
96.11265188569406
 20
-138.7474310634034
 10
96.37275659483042
 20
-138.7474310634034
 10
96.62045896021989
 20
-138.7474310634034
 10
96.66903480656191
 20
-138.466311271807
 10
96.66903480656191
 20
-138.1193901564424
 10
96.66903480656191
 20
-137.7996852954112
 10
96.63079424667563
 20
-137.4910047399328
 10
96.37275659483042
 20
-137.4910047399328
 97
        0
 97
        0
 75
     2
 76
     1
 98
        0
  0
ENDBLK
  5
88
330
85
100
AcDbEntity
  8
0
100
AcDbBlockEnd
  0
BLOCK
  5
94
330
92
100
AcDbEntity
  8
0
100
AcDbBlockBegin
  2
block 3
 70
     0
 10
0.0
 20
0.0
 30
0.0
  3
block 3
  1

  0
SPLINE
  5
96
330
92
100
AcDbEntity
  8
_U+30EC_U+30A4_U+30E4_U+30FC 1
370
     0
100
AcDbSpline
210
0.0
220
0.0
230
1.0
 70
    11
 71
     3
 72
    26
 73
    22
 74
     0
 42
0.0000000001
 43
0.0000000001
 12
1.0
 22
0.0
 32
0.0
 13
1.0
 23
0.0
 33
0.0
 40
0.0
 40
0.0
 40
0.0
 40
0.0
 40
1.0
 40
1.0
 40
1.0
 40
2.0
 40
2.0
 40
2.0
 40
3.0
 40
3.0
 40
3.0
 40
4.0
 40
4.0
 40
4.0
 40
5.0
 40
5.0
 40
5.0
 40
6.0
 40
6.0
 40
6.0
 40
7.0
 40
7.0
 40
7.0
 40
7.0
 10
107.9079698080925
 20
-127.7872042866296
 30
0.0
 10
107.9079698080925
 20
-127.7872042866296
 30
0.0
 10
106.8038167050699
 20
-127.7872042866296
 30
0.0
 10
106.8038167050699
 20
-127.7872042866296
 30
0.0
 10
106.8038167050699
 20
-127.7872042866296
 30
0.0
 10
106.8038167050699
 20
-128.1172444341165
 30
0.0
 10
106.8038167050699
 20
-128.1172444341165
 30
0.0
 10
106.8038167050699
 20
-128.1172444341165
 30
0.0
 10
106.6556775992041
 20
-128.1172444341165
 30
0.0
 10
106.6556775992041
 20
-128.1172444341165
 30
0.0
 10
106.6408636886176
 20
-127.7851372293384
 30
0.0
 10
106.4779106721653
 20
-127.7386284402876
 30
0.0
 10
106.3635335020549
 20
-127.7090006191144
 30
0.0
 10
106.3635335020549
 20
-127.7090006191144
 30
0.0
 10
106.3635335020549
 20
-127.5629285705398
 30
0.0
 10
106.3635335020549
 20
-127.5629285705398
 30
0.0
 10
106.3635335020549
 20
-127.5629285705398
 30
0.0
 10
107.9079698080925
 20
-127.5629285705398
 30
0.0
 10
107.9079698080925
 20
-127.5629285705398
 30
0.0
 10
107.9079698080925
 20
-127.5629285705398
 30
0.0
 10
107.9079698080925
 20
-127.7872042866296
 30
0.0
 10
107.9079698080925
 20
-127.7872042866296
 30
0.0
  0
HATCH
  5
97
330
92
100
AcDbEntity
  8
_U+30EC_U+30A4_U+30E4_U+30FC 1
 62
   179
420
  2234388
100
AcDbHatch
 10
0.0
 20
0.0
 30
0.0
210
0.0
220
0.0
230
1.0
  2
SOLID
 70
     1
 71
     0
 91
        1
 92
        1
 93
        1
 72
     4
 94
        3
 73
     0
 74
     1
 95
       26
 96
       22
 40
0.0
 40
0.0
 40
0.0
 40
0.0
 40
1.0
 40
1.0
 40
1.0
 40
2.0
 40
2.0
 40
2.0
 40
3.0
 40
3.0
 40
3.0
 40
4.0
 40
4.0
 40
4.0
 40
5.0
 40
5.0
 40
5.0
 40
6.0
 40
6.0
 40
6.0
 40
7.0
 40
7.0
 40
7.0
 40
7.0
 10
107.9079698080925
 20
-127.7872042866296
 10
107.9079698080925
 20
-127.7872042866296
 10
106.8038167050699
 20
-127.7872042866296
 10
106.8038167050699
 20
-127.7872042866296
 10
106.8038167050699
 20
-127.7872042866296
 10
106.8038167050699
 20
-128.1172444341165
 10
106.8038167050699
 20
-128.1172444341165
 10
106.8038167050699
 20
-128.1172444341165
 10
106.6556775992041
 20
-128.1172444341165
 10
106.6556775992041
 20
-128.1172444341165
 10
106.6408636886176
 20
-127.7851372293384
 10
106.4779106721653
 20
-127.7386284402876
 10
106.3635335020549
 20
-127.7090006191144
 10
106.3635335020549
 20
-127.7090006191144
 10
106.3635335020549
 20
-127.5629285705398
 10
106.3635335020549
 20
-127.5629285705398
 10
106.3635335020549
 20
-127.5629285705398
 10
107.9079698080925
 20
-127.5629285705398
 10
107.9079698080925
 20
-127.5629285705398
 10
107.9079698080925
 20
-127.5629285705398
 10
107.9079698080925
 20
-127.7872042866296
 10
107.9079698080925
 20
-127.7872042866296
 97
        0
 97
        0
 75
     2
 76
     1
 98
        0
  0
SPLINE
  5
98
330
92
100
AcDbEntity
  8
_U+30EC_U+30A4_U+30E4_U+30FC 1
370
     0
100
AcDbSpline
210
0.0
220
0.0
230
1.0
 70
    11
 71
     3
 72
    44
 73
    40
 74
     0
 42
0.0000000001
 43
0.0000000001
 12
1.0
 22
0.0
 32
0.0
 13
1.0
 23
0.0
 33
0.0
 40
0.0
 40
0.0
 40
0.0
 40
0.0
 40
1.0
 40
1.0
 40
1.0
 40
2.0
 40
2.0
 40
2.0
 40
3.0
 40
3.0
 40
3.0
 40
4.0
 40
4.0
 40
4.0
 40
5.0
 40
5.0
 40
5.0
 40
6.0
 40
6.0
 40
6.0
 40
7.0
 40
7.0
 40
7.0
 40
8.0
 40
8.0
 40
8.0
 40
9.0
 40
9.0
 40
9.0
 40
10.0
 40
10.0
 40
10.0
 40
11.0
 40
11.0
 40
11.0
 40
12.0
 40
12.0
 40
12.0
 40
13.0
 40
13.0
 40
13.0
 40
13.0
 10
107.3260931806338
 20
-126.4687662444245
 30
0.0
 10
107.4849120825038
 20
-126.6864962790923
 30
0.0
 10
107.5589816354367
 20
-126.779513857194
 30
0.0
 10
107.7026421171716
 20
-126.8284342130846
 30
0.0
 10
107.7026421171716
 20
-126.8284342130846
 30
0.0
 10
107.7026421171716
 20
-126.0498426334181
 30
0.0
 10
107.7026421171716
 20
-126.0498426334181
 30
0.0
 10
107.7026421171716
 20
-126.0498426334181
 30
0.0
 10
107.9079698080925
 20
-126.0498426334181
 30
0.0
 10
107.9079698080925
 20
-126.0498426334181
 30
0.0
 10
107.9079698080925
 20
-126.0498426334181
 30
0.0
 10
107.9079698080925
 20
-127.0778591262167
 30
0.0
 10
107.9079698080925
 20
-127.0778591262167
 30
0.0
 10
107.5503688967235
 20
-127.0461642477524
 30
0.0
 10
107.4721652292084
 20
-126.9807074335326
 30
0.0
 10
107.1738199601857
 20
-126.5955457582817
 30
0.0
 10
106.9750379506868
 20
-126.3395751637276
 30
0.0
 10
106.9071695696274
 20
-126.2741183495079
 30
0.0
 10
106.7697102597659
 20
-126.2741183495079
 30
0.0
 10
106.6511989750733
 20
-126.2741183495079
 30
0.0
 10
106.5202853466338
 20
-126.3461208451496
 30
0.0
 10
106.5202853466338
 20
-126.5428357973574
 30
0.0
 10
106.5202853466338
 20
-126.8029405064937
 30
0.0
 10
106.750762234597
 20
-126.8112087356583
 30
0.0
 10
106.8672064619985
 20
-126.8156873597891
 30
0.0
 10
106.8672064619985
 20
-126.8156873597891
 30
0.0
 10
106.8672064619985
 20
-127.0399630758789
 30
0.0
 10
106.8672064619985
 20
-127.0399630758789
 30
0.0
 10
106.7400824385928
 20
-127.0313503371658
 30
0.0
 10
106.6281168353221
 20
-127.0206705411615
 30
0.0
 10
106.5096055506295
 20
-126.9403998163552
 30
0.0
 10
106.3487195914684
 20
-126.8305012703757
 30
0.0
 10
106.3149576557129
 20
-126.6441216046237
 30
0.0
 10
106.3149576557129
 20
-126.5280218867708
 30
0.0
 10
106.3149576557129
 20
-126.2506917002082
 30
0.0
 10
106.4989257546253
 20
-126.0432969519961
 30
0.0
 10
106.7717773170571
 20
-126.0432969519961
 30
0.0
 10
107.0005316572776
 20
-126.0432969519961
 30
0.0
 10
107.0997504072528
 20
-126.1597411793976
 30
0.0
 10
107.3260931806338
 20
-126.4687662444245
 30
0.0
  0
HATCH
  5
99
330
92
100
AcDbEntity
  8
_U+30EC_U+30A4_U+30E4_U+30FC 1
 62
   179
420
  2234388
100
AcDbHatch
 10
0.0
 20
0.0
 30
0.0
210
0.0
220
0.0
230
1.0
  2
SOLID
 70
     1
 71
     0
 91
        1
 92
        1
 93
        1
 72
     4
 94
        3
 73
     0
 74
     1
 95
       44
 96
       40
 40
0.0
 40
0.0
 40
0.0
 40
0.0
 40
1.0
 40
1.0
 40
1.0
 40
2.0
 40
2.0
 40
2.0
 40
3.0
 40
3.0
 40
3.0
 40
4.0
 40
4.0
 40
4.0
 40
5.0
 40
5.0
 40
5.0
 40
6.0
 40
6.0
 40
6.0
 40
7.0
 40
7.0
 40
7.0
 40
8.0
 40
8.0
 40
8.0
 40
9.0
 40
9.0
 40
9.0
 40
10.0
 40
10.0
 40
10.0
 40
11.0
 40
11.0
 40
11.0
 40
12.0
 40
12.0
 40
12.0
 40
13.0
 40
13.0
 40
13.0
 40
13.0
 10
107.3260931806338
 20
-126.4687662444245
 10
107.4849120825038
 20
-126.6864962790923
 10
107.5589816354367
 20
-126.779513857194
 10
107.7026421171716
 20
-126.8284342130846
 10
107.7026421171716
 20
-126.8284342130846
 10
107.7026421171716
 20
-126.0498426334181
 10
107.7026421171716
 20
-126.0498426334181
 10
107.7026421171716
 20
-126.0498426334181
 10
107.9079698080925
 20
-126.0498426334181
 10
107.9079698080925
 20
-126.0498426334181
 10
107.9079698080925
 20
-126.0498426334181
 10
107.9079698080925
 20
-127.0778591262167
 10
107.9079698080925
 20
-127.0778591262167
 10
107.5503688967235
 20
-127.0461642477524
 10
107.4721652292084
 20
-126.9807074335326
 10
107.1738199601857
 20
-126.5955457582817
 10
106.9750379506868
 20
-126.3395751637276
 10
106.9071695696274
 20
-126.2741183495079
 10
106.7697102597659
 20
-126.2741183495079
 10
106.6511989750733
 20
-126.2741183495079
 10
106.5202853466338
 20
-126.3461208451496
 10
106.5202853466338
 20
-126.5428357973574
 10
106.5202853466338
 20
-126.8029405064937
 10
106.750762234597
 20
-126.8112087356583
 10
106.8672064619985
 20
-126.8156873597891
 10
106.8672064619985
 20
-126.8156873597891
 10
106.8672064619985
 20
-127.0399630758789
 10
106.8672064619985
 20
-127.0399630758789
 10
106.7400824385928
 20
-127.0313503371658
 10
106.6281168353221
 20
-127.0206705411615
 10
106.5096055506295
 20
-126.9403998163552
 10
106.3487195914684
 20
-126.8305012703757
 10
106.3149576557129
 20
-126.6441216046237
 10
106.3149576557129
 20
-126.5280218867708
 10
106.3149576557129
 20
-126.2506917002082
 10
106.4989257546253
 20
-126.0432969519961
 10
106.7717773170571
 20
-126.0432969519961
 10
107.0005316572776
 20
-126.0432969519961
 10
107.0997504072528
 20
-126.1597411793976
 10
107.3260931806338
 20
-126.4687662444245
 97
        0
 97
        0
 75
     2
 76
     1
 98
        0
  0
POLYLINE
  5
9A
330
92
100
AcDbEntity
  8
_U+30EC_U+30A4_U+30E4_U+30FC 1
370
     0
100
AcDb2dPolyline
 66
     1
 10
0.0
 20
0.0
 30
0.0
  0
VERTEX
  5
9B
330
9A
100
AcDbEntity
  8
_U+30EC_U+30A4_U+30E4_U+30FC 1
370
     0
100
AcDbVertex
100
AcDb2dVertex
 10
107.9079698080925
 20
-125.8248778982313
 30
0.0
  0
VERTEX
  5
9C
330
9A
100
AcDbEntity
  8
_U+30EC_U+30A4_U+30E4_U+30FC 1
370
     0
100
AcDbVertex
100
AcDb2dVertex
 10
107.6561333281207
 20
-125.8248778982313
 30
0.0
  0
VERTEX
  5
9D
330
9A
100
AcDbEntity
  8
_U+30EC_U+30A4_U+30E4_U+30FC 1
370
     0
100
AcDbVertex
100
AcDb2dVertex
 10
107.6561333281207
 20
-125.5730414182595
 30
0.0
  0
VERTEX
  5
9E
330
9A
100
AcDbEntity
  8
_U+30EC_U+30A4_U+30E4_U+30FC 1
370
     0
100
AcDbVertex
100
AcDb2dVertex
 10
107.9079698080925
 20
-125.5730414182595
 30
0.0
  0
VERTEX
  5
9F
330
9A
100
AcDbEntity
  8
_U+30EC_U+30A4_U+30E4_U+30FC 1
370
     0
100
AcDbVertex
100
AcDb2dVertex
 10
107.9079698080925
 20
-125.8248778982313
 30
0.0
  0
SEQEND
  5
A0
330
9A
100
AcDbEntity
  8
_U+30EC_U+30A4_U+30E4_U+30FC 1
370
     0
  0
HATCH
  5
A1
330
92
100
AcDbEntity
  8
_U+30EC_U+30A4_U+30E4_U+30FC 1
 62
   179
420
  2234388
100
AcDbHatch
 10
0.0
 20
0.0
 30
0.0
210
0.0
220
0.0
230
1.0
  2
SOLID
 70
     1
 71
     0
 91
        1
 92
        1
 93
        4
 72
     1
 10
107.9079698080925
 20
-125.8248778982313
 11
107.6561333281207
 21
-125.8248778982313
 72
     1
 10
107.6561333281207
 20
-125.8248778982313
 11
107.6561333281207
 21
-125.5730414182595
 72
     1
 10
107.6561333281207
 20
-125.5730414182595
 11
107.9079698080925
 21
-125.5730414182595
 72
     1
 10
107.9079698080925
 20
-125.5730414182595
 11
107.9079698080925
 21
-125.8248778982313
 97
        0
 75
     2
 76
     1
 98
        0
  0
SPLINE
  5
A2
330
92
100
AcDbEntity
  8
_U+30EC_U+30A4_U+30E4_U+30FC 1
370
     0
100
AcDbSpline
210
0.0
220
0.0
230
1.0
 70
    11
 71
     3
 72
    53
 73
    49
 74
     0
 42
0.0000000001
 43
0.0000000001
 12
1.0
 22
0.0
 32
0.0
 13
1.0
 23
0.0
 33
0.0
 40
0.0
 40
0.0
 40
0.0
 40
0.0
 40
1.0
 40
1.0
 40
1.0
 40
2.0
 40
2.0
 40
2.0
 40
3.0
 40
3.0
 40
3.0
 40
4.0
 40
4.0
 40
4.0
 40
5.0
 40
5.0
 40
5.0
 40
6.0
 40
6.0
 40
6.0
 40
7.0
 40
7.0
 40
7.0
 40
8.0
 40
8.0
 40
8.0
 40
9.0
 40
9.0
 40
9.0
 40
10.0
 40
10.0
 40
10.0
 40
11.0
 40
11.0
 40
11.0
 40
12.0
 40
12.0
 40
12.0
 40
13.0
 40
13.0
 40
13.0
 40
14.0
 40
14.0
 40
14.0
 40
15.0
 40
15.0
 40
15.0
 40
16.0
 40
16.0
 40
16.0
 40
16.0
 10
107.9586127117256
 20
-124.8557725382305
 30
0.0
 10
107.9586127117256
 20
-124.9339762057457
 30
0.0
 10
107.9417317438479
 20
-125.0356065225605
 30
0.0
 10
107.8783419869193
 20
-125.1372368393754
 30
0.0
 10
107.7684434409398
 20
-125.3105251422835
 30
0.0
 10
107.6371853029518
 20
-125.331884734292
 30
0.0
 10
107.5293538142635
 20
-125.3508327594609
 30
0.0
 10
107.5293538142635
 20
-125.3508327594609
 30
0.0
 10
107.5293538142635
 20
-125.1286241006623
 30
0.0
 10
107.5293538142635
 20
-125.1286241006623
 30
0.0
 10
107.7281358237624
 20
-125.0738470824468
 30
0.0
 10
107.7577636449356
 20
-124.9467230590411
 30
0.0
 10
107.7577636449356
 20
-124.8537054809394
 30
0.0
 10
107.7577636449356
 20
-124.7141791137867
 30
0.0
 10
107.6582003854118
 20
-124.5619058933387
 30
0.0
 10
107.4256564401575
 20
-124.5619058933387
 30
0.0
 10
107.1696858456034
 20
-124.5619058933387
 30
0.0
 10
107.0997504072528
 20
-124.7417398776687
 30
0.0
 10
107.0997504072528
 20
-124.8623182196525
 30
0.0
 10
107.0997504072528
 20
-124.8940130981168
 30
0.0
 10
107.0997504072528
 20
-125.0356065225605
 30
0.0
 10
107.2289414879497
 20
-125.12448998608
 30
0.0
 10
107.2289414879497
 20
-125.12448998608
 30
0.0
 10
107.2099934627808
 20
-125.3001898558277
 30
0.0
 10
107.2099934627808
 20
-125.3001898558277
 30
0.0
 10
107.2099934627808
 20
-125.3001898558277
 30
0.0
 10
106.3635335020549
 20
-125.179611513844
 30
0.0
 10
106.3635335020549
 20
-125.179611513844
 30
0.0
 10
106.3635335020549
 20
-125.179611513844
 30
0.0
 10
106.3635335020549
 20
-124.4010199341775
 30
0.0
 10
106.3635335020549
 20
-124.4010199341775
 30
0.0
 10
106.3635335020549
 20
-124.4010199341775
 30
0.0
 10
106.5581813969716
 20
-124.4010199341775
 30
0.0
 10
106.5581813969716
 20
-124.4010199341775
 30
0.0
 10
106.5581813969716
 20
-124.4010199341775
 30
0.0
 10
106.5581813969716
 20
-125.0166584973917
 30
0.0
 10
106.5581813969716
 20
-125.0166584973917
 30
0.0
 10
106.5581813969716
 20
-125.0166584973917
 30
0.0
 10
106.9812391225603
 20
-125.0821153116114
 30
0.0
 10
106.9812391225603
 20
-125.0821153116114
 30
0.0
 10
106.9474771868048
 20
-125.020792611974
 30
0.0
 10
106.9071695696274
 20
-124.9384548298765
 30
0.0
 10
106.9071695696274
 20
-124.8199435451839
 30
0.0
 10
106.9071695696274
 20
-124.566040007921
 30
0.0
 10
107.0935492353794
 20
-124.3290174385358
 30
0.0
 10
107.4067084149886
 20
-124.3290174385358
 30
0.0
 10
107.7240017091801
 20
-124.3290174385358
 30
0.0
 10
107.9586127117256
 20
-124.5532931546256
 30
0.0
 10
107.9586127117256
 20
-124.8557725382305
 30
0.0
  0
HATCH
  5
A3
330
92
100
AcDbEntity
  8
_U+30EC_U+30A4_U+30E4_U+30FC 1
 62
   179
420
  2234388
100
AcDbHatch
 10
0.0
 20
0.0
 30
0.0
210
0.0
220
0.0
230
1.0
  2
SOLID
 70
     1
 71
     0
 91
        1
 92
        1
 93
        1
 72
     4
 94
        3
 73
     0
 74
     1
 95
       53
 96
       49
 40
0.0
 40
0.0
 40
0.0
 40
0.0
 40
1.0
 40
1.0
 40
1.0
 40
2.0
 40
2.0
 40
2.0
 40
3.0
 40
3.0
 40
3.0
 40
4.0
 40
4.0
 40
4.0
 40
5.0
 40
5.0
 40
5.0
 40
6.0
 40
6.0
 40
6.0
 40
7.0
 40
7.0
 40
7.0
 40
8.0
 40
8.0
 40
8.0
 40
9.0
 40
9.0
 40
9.0
 40
10.0
 40
10.0
 40
10.0
 40
11.0
 40
11.0
 40
11.0
 40
12.0
 40
12.0
 40
12.0
 40
13.0
 40
13.0
 40
13.0
 40
14.0
 40
14.0
 40
14.0
 40
15.0
 40
15.0
 40
15.0
 40
16.0
 40
16.0
 40
16.0
 40
16.0
 10
107.9586127117256
 20
-124.8557725382305
 10
107.9586127117256
 20
-124.9339762057457
 10
107.9417317438479
 20
-125.0356065225605
 10
107.8783419869193
 20
-125.1372368393754
 10
107.7684434409398
 20
-125.3105251422835
 10
107.6371853029518
 20
-125.331884734292
 10
107.5293538142635
 20
-125.3508327594609
 10
107.5293538142635
 20
-125.3508327594609
 10
107.5293538142635
 20
-125.1286241006623
 10
107.5293538142635
 20
-125.1286241006623
 10
107.7281358237624
 20
-125.0738470824468
 10
107.7577636449356
 20
-124.9467230590411
 10
107.7577636449356
 20
-124.8537054809394
 10
107.7577636449356
 20
-124.7141791137867
 10
107.6582003854118
 20
-124.5619058933387
 10
107.4256564401575
 20
-124.5619058933387
 10
107.1696858456034
 20
-124.5619058933387
 10
107.0997504072528
 20
-124.7417398776687
 10
107.0997504072528
 20
-124.8623182196525
 10
107.0997504072528
 20
-124.8940130981168
 10
107.0997504072528
 20
-125.0356065225605
 10
107.2289414879497
 20
-125.12448998608
 10
107.2289414879497
 20
-125.12448998608
 10
107.2099934627808
 20
-125.3001898558277
 10
107.2099934627808
 20
-125.3001898558277
 10
107.2099934627808
 20
-125.3001898558277
 10
106.3635335020549
 20
-125.179611513844
 10
106.3635335020549
 20
-125.179611513844
 10
106.3635335020549
 20
-125.179611513844
 10
106.3635335020549
 20
-124.4010199341775
 10
106.3635335020549
 20
-124.4010199341775
 10
106.3635335020549
 20
-124.4010199341775
 10
106.5581813969716
 20
-124.4010199341775
 10
106.5581813969716
 20
-124.4010199341775
 10
106.5581813969716
 20
-124.4010199341775
 10
106.5581813969716
 20
-125.0166584973917
 10
106.5581813969716
 20
-125.0166584973917
 10
106.5581813969716
 20
-125.0166584973917
 10
106.9812391225603
 20
-125.0821153116114
 10
106.9812391225603
 20
-125.0821153116114
 10
106.9474771868048
 20
-125.020792611974
 10
106.9071695696274
 20
-124.9384548298765
 10
106.9071695696274
 20
-124.8199435451839
 10
106.9071695696274
 20
-124.566040007921
 10
107.0935492353794
 20
-124.3290174385358
 10
107.4067084149886
 20
-124.3290174385358
 10
107.7240017091801
 20
-124.3290174385358
 10
107.9586127117256
 20
-124.5532931546256
 10
107.9586127117256
 20
-124.8557725382305
 97
        0
 97
        0
 75
     2
 76
     1
 98
        0
  0
ENDBLK
  5
95
330
92
100
AcDbEntity
  8
0
100
AcDbBlockEnd
  0
BLOCK
  5
B6
330
B4
100
AcDbEntity
  8
0
100
AcDbBlockBegin
  2
block 4
 70
     0
 10
0.0
 20
0.0
 30
0.0
  3
block 4
  1

  0
SPLINE
  5
B8
330
B4
100
AcDbEntity
  8
_U+30EC_U+30A4_U+30E4_U+30FC 1
370
     0
100
AcDbSpline
210
0.0
220
0.0
230
1.0
 70
    11
 71
     3
 72
    26
 73
    22
 74
     0
 42
0.0000000001
 43
0.0000000001
 12
1.0
 22
0.0
 32
0.0
 13
1.0
 23
0.0
 33
0.0
 40
0.0
 40
0.0
 40
0.0
 40
0.0
 40
1.0
 40
1.0
 40
1.0
 40
2.0
 40
2.0
 40
2.0
 40
3.0
 40
3.0
 40
3.0
 40
4.0
 40
4.0
 40
4.0
 40
5.0
 40
5.0
 40
5.0
 40
6.0
 40
6.0
 40
6.0
 40
7.0
 40
7.0
 40
7.0
 40
7.0
 10
75.88959687772899
 20
-119.1610297011125
 30
0.0
 10
75.88959687772899
 20
-119.1610297011125
 30
0.0
 10
74.78544377470642
 20
-119.1610297011125
 30
0.0
 10
74.78544377470642
 20
-119.1610297011125
 30
0.0
 10
74.78544377470642
 20
-119.1610297011125
 30
0.0
 10
74.78544377470642
 20
-119.4910698485995
 30
0.0
 10
74.78544377470642
 20
-119.4910698485995
 30
0.0
 10
74.78544377470642
 20
-119.4910698485995
 30
0.0
 10
74.63730466884067
 20
-119.4910698485995
 30
0.0
 10
74.63730466884067
 20
-119.4910698485995
 30
0.0
 10
74.6224907582541
 20
-119.1589626438214
 30
0.0
 10
74.45953774180178
 20
-119.1124538547705
 30
0.0
 10
74.3451605716915
 20
-119.0828260335974
 30
0.0
 10
74.3451605716915
 20
-119.0828260335974
 30
0.0
 10
74.3451605716915
 20
-118.9367539850228
 30
0.0
 10
74.3451605716915
 20
-118.9367539850228
 30
0.0
 10
74.3451605716915
 20
-118.9367539850228
 30
0.0
 10
75.88959687772899
 20
-118.9367539850228
 30
0.0
 10
75.88959687772899
 20
-118.9367539850228
 30
0.0
 10
75.88959687772899
 20
-118.9367539850228
 30
0.0
 10
75.88959687772899
 20
-119.1610297011125
 30
0.0
 10
75.88959687772899
 20
-119.1610297011125
 30
0.0
  0
HATCH
  5
B9
330
B4
100
AcDbEntity
  8
_U+30EC_U+30A4_U+30E4_U+30FC 1
 62
   179
420
  2234388
100
AcDbHatch
 10
0.0
 20
0.0
 30
0.0
210
0.0
220
0.0
230
1.0
  2
SOLID
 70
     1
 71
     0
 91
        1
 92
        1
 93
        1
 72
     4
 94
        3
 73
     0
 74
     1
 95
       26
 96
       22
 40
0.0
 40
0.0
 40
0.0
 40
0.0
 40
1.0
 40
1.0
 40
1.0
 40
2.0
 40
2.0
 40
2.0
 40
3.0
 40
3.0
 40
3.0
 40
4.0
 40
4.0
 40
4.0
 40
5.0
 40
5.0
 40
5.0
 40
6.0
 40
6.0
 40
6.0
 40
7.0
 40
7.0
 40
7.0
 40
7.0
 10
75.88959687772899
 20
-119.1610297011125
 10
75.88959687772899
 20
-119.1610297011125
 10
74.78544377470642
 20
-119.1610297011125
 10
74.78544377470642
 20
-119.1610297011125
 10
74.78544377470642
 20
-119.1610297011125
 10
74.78544377470642
 20
-119.4910698485995
 10
74.78544377470642
 20
-119.4910698485995
 10
74.78544377470642
 20
-119.4910698485995
 10
74.63730466884067
 20
-119.4910698485995
 10
74.63730466884067
 20
-119.4910698485995
 10
74.6224907582541
 20
-119.1589626438214
 10
74.45953774180178
 20
-119.1124538547705
 10
74.3451605716915
 20
-119.0828260335974
 10
74.3451605716915
 20
-119.0828260335974
 10
74.3451605716915
 20
-118.9367539850228
 10
74.3451605716915
 20
-118.9367539850228
 10
74.3451605716915
 20
-118.9367539850228
 10
75.88959687772899
 20
-118.9367539850228
 10
75.88959687772899
 20
-118.9367539850228
 10
75.88959687772899
 20
-118.9367539850228
 10
75.88959687772899
 20
-119.1610297011125
 10
75.88959687772899
 20
-119.1610297011125
 97
        0
 97
        0
 75
     2
 76
     1
 98
        0
  0
ENDBLK
  5
B7
330
B4
100
AcDbEntity
  8
0
100
AcDbBlockEnd
  0
BLOCK
  5
C8
330
C6
100
AcDbEntity
  8
0
100
AcDbBlockBegin
  2
block 5
 70
     0
 10
0.0
 20
0.0
 30
0.0
  3
block 5
  1

  0
SPLINE
  5
CA
330
C6
100
AcDbEntity
  8
_U+30EC_U+30A4_U+30E4_U+30FC 1
370
     0
100
AcDbSpline
210
0.0
220
0.0
230
1.0
 70
    11
 71
     3
 72
    26
 73
    22
 74
     0
 42
0.0000000001
 43
0.0000000001
 12
1.0
 22
0.0
 32
0.0
 13
1.0
 23
0.0
 33
0.0
 40
0.0
 40
0.0
 40
0.0
 40
0.0
 40
1.0
 40
1.0
 40
1.0
 40
2.0
 40
2.0
 40
2.0
 40
3.0
 40
3.0
 40
3.0
 40
4.0
 40
4.0
 40
4.0
 40
5.0
 40
5.0
 40
5.0
 40
6.0
 40
6.0
 40
6.0
 40
7.0
 40
7.0
 40
7.0
 40
7.0
 10
84.13457164780317
 20
-138.8914360546869
 30
0.0
 10
84.13457164780317
 20
-138.8914360546869
 30
0.0
 10
84.13457164780317
 20
-137.7872829516643
 30
0.0
 10
84.13457164780317
 20
-137.7872829516643
 30
0.0
 10
84.13457164780317
 20
-137.7872829516643
 30
0.0
 10
83.80453150031623
 20
-137.7872829516643
 30
0.0
 10
83.80453150031623
 20
-137.7872829516643
 30
0.0
 10
83.80453150031623
 20
-137.7872829516643
 30
0.0
 10
83.80453150031623
 20
-137.6391438457985
 30
0.0
 10
83.80453150031623
 20
-137.6391438457985
 30
0.0
 10
84.13663870509431
 20
-137.624329935212
 30
0.0
 10
84.18314749414519
 20
-137.4613769187597
 30
0.0
 10
84.21277531531834
 20
-137.3469997486494
 30
0.0
 10
84.21277531531834
 20
-137.3469997486494
 30
0.0
 10
84.35884736389293
 20
-137.3469997486494
 30
0.0
 10
84.35884736389293
 20
-137.3469997486494
 30
0.0
 10
84.35884736389293
 20
-137.3469997486494
 30
0.0
 10
84.35884736389293
 20
-138.8914360546869
 30
0.0
 10
84.35884736389293
 20
-138.8914360546869
 30
0.0
 10
84.35884736389293
 20
-138.8914360546869
 30
0.0
 10
84.13457164780317
 20
-138.8914360546869
 30
0.0
 10
84.13457164780317
 20
-138.8914360546869
 30
0.0
  0
HATCH
  5
CB
330
C6
100
AcDbEntity
  8
_U+30EC_U+30A4_U+30E4_U+30FC 1
 62
   179
420
  2234388
100
AcDbHatch
 10
0.0
 20
0.0
 30
0.0
210
0.0
220
0.0
230
1.0
  2
SOLID
 70
     1
 71
     0
 91
        1
 92
        1
 93
        1
 72
     4
 94
        3
 73
     0
 74
     1
 95
       26
 96
       22
 40
0.0
 40
0.0
 40
0.0
 40
0.0
 40
1.0
 40
1.0
 40
1.0
 40
2.0
 40
2.0
 40
2.0
 40
3.0
 40
3.0
 40
3.0
 40
4.0
 40
4.0
 40
4.0
 40
5.0
 40
5.0
 40
5.0
 40
6.0
 40
6.0
 40
6.0
 40
7.0
 40
7.0
 40
7.0
 40
7.0
 10
84.13457164780317
 20
-138.8914360546869
 10
84.13457164780317
 20
-138.8914360546869
 10
84.13457164780317
 20
-137.7872829516643
 10
84.13457164780317
 20
-137.7872829516643
 10
84.13457164780317
 20
-137.7872829516643
 10
83.80453150031623
 20
-137.7872829516643
 10
83.80453150031623
 20
-137.7872829516643
 10
83.80453150031623
 20
-137.7872829516643
 10
83.80453150031623
 20
-137.6391438457985
 10
83.80453150031623
 20
-137.6391438457985
 10
84.13663870509431
 20
-137.624329935212
 10
84.18314749414519
 20
-137.4613769187597
 10
84.21277531531834
 20
-137.3469997486494
 10
84.21277531531834
 20
-137.3469997486494
 10
84.35884736389293
 20
-137.3469997486494
 10
84.35884736389293
 20
-137.3469997486494
 10
84.35884736389293
 20
-137.3469997486494
 10
84.35884736389293
 20
-138.8914360546869
 10
84.35884736389293
 20
-138.8914360546869
 10
84.35884736389293
 20
-138.8914360546869
 10
84.13457164780317
 20
-138.8914360546869
 10
84.13457164780317
 20
-138.8914360546869
 97
        0
 97
        0
 75
     2
 76
     1
 98
        0
  0
SPLINE
  5
CC
330
C6
100
AcDbEntity
  8
_U+30EC_U+30A4_U+30E4_U+30FC 1
370
     0
100
AcDbSpline
210
0.0
220
0.0
230
1.0
 70
    11
 71
     3
 72
    44
 73
    40
 74
     0
 42
0.0000000001
 43
0.0000000001
 12
1.0
 22
0.0
 32
0.0
 13
1.0
 23
0.0
 33
0.0
 40
0.0
 40
0.0
 40
0.0
 40
0.0
 40
1.0
 40
1.0
 40
1.0
 40
2.0
 40
2.0
 40
2.0
 40
3.0
 40
3.0
 40
3.0
 40
4.0
 40
4.0
 40
4.0
 40
5.0
 40
5.0
 40
5.0
 40
6.0
 40
6.0
 40
6.0
 40
7.0
 40
7.0
 40
7.0
 40
8.0
 40
8.0
 40
8.0
 40
9.0
 40
9.0
 40
9.0
 40
10.0
 40
10.0
 40
10.0
 40
11.0
 40
11.0
 40
11.0
 40
12.0
 40
12.0
 40
12.0
 40
13.0
 40
13.0
 40
13.0
 40
13.0
 10
85.45318194478254
 20
-138.3095594272282
 30
0.0
 10
85.23527965534049
 20
-138.4683783290982
 30
0.0
 10
85.14208982246448
 20
-138.5424478820311
 30
0.0
 10
85.09351397612245
 20
-138.686108363766
 30
0.0
 10
85.09351397612245
 20
-138.686108363766
 30
0.0
 10
85.87193330101466
 20
-138.686108363766
 30
0.0
 10
85.87193330101466
 20
-138.686108363766
 30
0.0
 10
85.87193330101466
 20
-138.686108363766
 30
0.0
 10
85.87193330101466
 20
-138.8914360546869
 30
0.0
 10
85.87193330101466
 20
-138.8914360546869
 30
0.0
 10
85.87193330101466
 20
-138.8914360546869
 30
0.0
 10
84.84391680821611
 20
-138.8914360546869
 30
0.0
 10
84.84391680821611
 20
-138.8914360546869
 30
0.0
 10
84.8756116866804
 20
-138.5338351433179
 30
0.0
 10
84.94124075567441
 20
-138.4556314758028
 30
0.0
 10
85.32623017615109
 20
-138.1572862067801
 30
0.0
 10
85.58220077070514
 20
-137.9585041972812
 30
0.0
 10
85.6476575849249
 20
-137.8906358162218
 30
0.0
 10
85.6476575849249
 20
-137.7531765063603
 30
0.0
 10
85.6476575849249
 20
-137.6346652216677
 30
0.0
 10
85.57582734405743
 20
-137.5037515932282
 30
0.0
 10
85.37911239184967
 20
-137.5037515932282
 30
0.0
 10
85.11883542793905
 20
-137.5037515932282
 30
0.0
 10
85.11039494400018
 20
-137.7342284811915
 30
0.0
 10
85.10608857464362
 20
-137.8506727085929
 30
0.0
 10
85.10608857464362
 20
-137.8506727085929
 30
0.0
 10
84.88198511332811
 20
-137.8506727085929
 30
0.0
 10
84.88198511332811
 20
-137.8506727085929
 30
0.0
 10
84.89042559726698
 20
-137.7235486851872
 30
0.0
 10
84.900933138497
 20
-137.6115830819166
 30
0.0
 10
84.98137611807758
 20
-137.493071797224
 30
0.0
 10
85.09127466405705
 20
-137.3321858380628
 30
0.0
 10
85.2774820750348
 20
-137.2984239023073
 30
0.0
 10
85.39392630243624
 20
-137.2984239023073
 30
0.0
 10
85.6710842342246
 20
-137.2984239023073
 30
0.0
 10
85.87830672766238
 20
-137.4823920012197
 30
0.0
 10
85.87830672766238
 20
-137.7552435636515
 30
0.0
 10
85.87830672766238
 20
-137.9839979038721
 30
0.0
 10
85.76203475503519
 20
-138.0832166538472
 30
0.0
 10
85.45318194478254
 20
-138.3095594272282
 30
0.0
  0
HATCH
  5
CD
330
C6
100
AcDbEntity
  8
_U+30EC_U+30A4_U+30E4_U+30FC 1
 62
   179
420
  2234388
100
AcDbHatch
 10
0.0
 20
0.0
 30
0.0
210
0.0
220
0.0
230
1.0
  2
SOLID
 70
     1
 71
     0
 91
        1
 92
        1
 93
        1
 72
     4
 94
        3
 73
     0
 74
     1
 95
       44
 96
       40
 40
0.0
 40
0.0
 40
0.0
 40
0.0
 40
1.0
 40
1.0
 40
1.0
 40
2.0
 40
2.0
 40
2.0
 40
3.0
 40
3.0
 40
3.0
 40
4.0
 40
4.0
 40
4.0
 40
5.0
 40
5.0
 40
5.0
 40
6.0
 40
6.0
 40
6.0
 40
7.0
 40
7.0
 40
7.0
 40
8.0
 40
8.0
 40
8.0
 40
9.0
 40
9.0
 40
9.0
 40
10.0
 40
10.0
 40
10.0
 40
11.0
 40
11.0
 40
11.0
 40
12.0
 40
12.0
 40
12.0
 40
13.0
 40
13.0
 40
13.0
 40
13.0
 10
85.45318194478254
 20
-138.3095594272282
 10
85.23527965534049
 20
-138.4683783290982
 10
85.14208982246448
 20
-138.5424478820311
 10
85.09351397612245
 20
-138.686108363766
 10
85.09351397612245
 20
-138.686108363766
 10
85.87193330101466
 20
-138.686108363766
 10
85.87193330101466
 20
-138.686108363766
 10
85.87193330101466
 20
-138.686108363766
 10
85.87193330101466
 20
-138.8914360546869
 10
85.87193330101466
 20
-138.8914360546869
 10
85.87193330101466
 20
-138.8914360546869
 10
84.84391680821611
 20
-138.8914360546869
 10
84.84391680821611
 20
-138.8914360546869
 10
84.8756116866804
 20
-138.5338351433179
 10
84.94124075567441
 20
-138.4556314758028
 10
85.32623017615109
 20
-138.1572862067801
 10
85.58220077070514
 20
-137.9585041972812
 10
85.6476575849249
 20
-137.8906358162218
 10
85.6476575849249
 20
-137.7531765063603
 10
85.6476575849249
 20
-137.6346652216677
 10
85.57582734405743
 20
-137.5037515932282
 10
85.37911239184967
 20
-137.5037515932282
 10
85.11883542793905
 20
-137.5037515932282
 10
85.11039494400018
 20
-137.7342284811915
 10
85.10608857464362
 20
-137.8506727085929
 10
85.10608857464362
 20
-137.8506727085929
 10
84.88198511332811
 20
-137.8506727085929
 10
84.88198511332811
 20
-137.8506727085929
 10
84.89042559726698
 20
-137.7235486851872
 10
84.900933138497
 20
-137.6115830819166
 10
84.98137611807758
 20
-137.493071797224
 10
85.09127466405705
 20
-137.3321858380628
 10
85.2774820750348
 20
-137.2984239023073
 10
85.39392630243624
 20
-137.2984239023073
 10
85.6710842342246
 20
-137.2984239023073
 10
85.87830672766238
 20
-137.4823920012197
 10
85.87830672766238
 20
-137.7552435636515
 10
85.87830672766238
 20
-137.9839979038721
 10
85.76203475503519
 20
-138.0832166538472
 10
85.45318194478254
 20
-138.3095594272282
 97
        0
 97
        0
 75
     2
 76
     1
 98
        0
  0
ENDBLK
  5
C9
330
C6
100
AcDbEntity
  8
0
100
AcDbBlockEnd
  0
BLOCK
  5
DC
330
DA
100
AcDbEntity
  8
0
100
AcDbBlockBegin
  2
block 6
 70
     0
 10
0.0
 20
0.0
 30
0.0
  3
block 6
  1

  0
SPLINE
  5
DE
330
DA
100
AcDbEntity
  8
_U+30EC_U+30A4_U+30E4_U+30FC 1
370
     0
100
AcDbSpline
210
0.0
220
0.0
230
1.0
 70
    11
 71
     3
 72
    62
 73
    58
 74
     0
 42
0.0000000001
 43
0.0000000001
 12
1.0
 22
0.0
 32
0.0
 13
1.0
 23
0.0
 33
0.0
 40
0.0
 40
0.0
 40
0.0
 40
0.0
 40
1.0
 40
1.0
 40
1.0
 40
2.0
 40
2.0
 40
2.0
 40
3.0
 40
3.0
 40
3.0
 40
4.0
 40
4.0
 40
4.0
 40
5.0
 40
5.0
 40
5.0
 40
6.0
 40
6.0
 40
6.0
 40
7.0
 40
7.0
 40
7.0
 40
8.0
 40
8.0
 40
8.0
 40
9.0
 40
9.0
 40
9.0
 40
10.0
 40
10.0
 40
10.0
 40
11.0
 40
11.0
 40
11.0
 40
12.0
 40
12.0
 40
12.0
 40
13.0
 40
13.0
 40
13.0
 40
14.0
 40
14.0
 40
14.0
 40
15.0
 40
15.0
 40
15.0
 40
16.0
 40
16.0
 40
16.0
 40
17.0
 40
17.0
 40
17.0
 40
18.0
 40
18.0
 40
18.0
 40
19.0
 40
19.0
 40
19.0
 40
19.0
 10
107.9582682021771
 20
-133.9949218415013
 30
0.0
 10
107.9582682021771
 20
-134.0903509864427
 30
0.0
 10
107.9372531197171
 20
-134.3080810211105
 30
0.0
 10
107.7512179635136
 20
-134.4331379872251
 30
0.0
 10
107.6389078506945
 20
-134.5068630306094
 30
0.0
 10
107.5396891007192
 20
-134.5113416547402
 30
0.0
 10
107.4549397517821
 20
-134.5154757693225
 30
0.0
 10
107.4549397517821
 20
-134.5154757693225
 30
0.0
 10
107.4549397517821
 20
-134.2953341678151
 30
0.0
 10
107.4549397517821
 20
-134.2953341678151
 30
0.0
 10
107.529009304715
 20
-134.2932671105239
 30
0.0
 10
107.7636203072605
 20
-134.2829318240682
 30
0.0
 10
107.7636203072605
 20
-133.9994004656321
 30
0.0
 10
107.7636203072605
 20
-133.8619411557706
 30
0.0
 10
107.6940293784584
 20
-133.7093234257741
 30
0.0
 10
107.4656195477864
 20
-133.7093234257741
 30
0.0
 10
107.3491753203849
 20
-133.7093234257741
 30
0.0
 10
107.3005994740429
 20
-133.7475639856603
 30
0.0
 10
107.2689045955786
 20
-133.7792588641246
 30
0.0
 10
107.1948350426457
 20
-133.8533284170575
 30
0.0
 10
107.1820881893503
 20
-133.9697726444589
 30
0.0
 10
107.1820881893503
 20
-134.0245496626744
 30
0.0
 10
107.1820881893503
 20
-134.0438421973918
 30
0.0
 10
107.1841552466415
 20
-134.0796711904384
 30
0.0
 10
107.1882893612238
 20
-134.1072319543204
 30
0.0
 10
107.1882893612238
 20
-134.1072319543204
 30
0.0
 10
106.9936414663072
 20
-134.1072319543204
 30
0.0
 10
106.9936414663072
 20
-134.1072319543204
 30
0.0
 10
107.0001871477291
 20
-134.0689913944341
 30
0.0
 10
107.0022542050203
 20
-134.0269612295141
 30
0.0
 10
107.0022542050203
 20
-134.0204155480921
 30
0.0
 10
107.0022542050203
 20
-133.9549587338724
 30
0.0
 10
106.9808946130117
 20
-133.7561767243735
 30
0.0
 10
106.7442165531751
 20
-133.7561767243735
 30
0.0
 10
106.5664496261362
 20
-133.7561767243735
 30
0.0
 10
106.5113280983722
 20
-133.8870903528129
 30
0.0
 10
106.5113280983722
 20
-133.9973334083409
 30
0.0
 10
106.5113280983722
 20
-134.2615722320596
 30
0.0
 10
106.7442165531751
 20
-134.2701849707727
 30
0.0
 10
106.8158745392683
 20
-134.274319085355
 30
0.0
 10
106.8158745392683
 20
-134.274319085355
 30
0.0
 10
106.8158745392683
 20
-134.4775797189848
 30
0.0
 10
106.8158745392683
 20
-134.4775797189848
 30
0.0
 10
106.6911620827022
 20
-134.4689669802717
 30
0.0
 10
106.3146131461644
 20
-134.4414062163897
 30
0.0
 10
106.3146131461644
 20
-133.9845865550455
 30
0.0
 10
106.3146131461644
 20
-133.7603108389558
 30
0.0
 10
106.4417371695701
 20
-133.5191541549883
 30
0.0
 10
106.7376708717531
 20
-133.5191541549883
 30
0.0
 10
106.9240505375051
 20
-133.5191541549883
 30
0.0
 10
107.0063883196026
 20
-133.6142387903812
 30
0.0
 10
107.06771101924
 20
-133.7138020499049
 30
0.0
 10
107.095271783122
 20
-133.6524793502674
 30
0.0
 10
107.1755425079283
 20
-133.4705783086463
 30
0.0
 10
107.4528726944909
 20
-133.4705783086463
 30
0.0
 10
107.7911810711425
 20
-133.4705783086463
 30
0.0
 10
107.9582682021771
 20
-133.7179361644872
 30
0.0
 10
107.9582682021771
 20
-133.9949218415013
 30
0.0
  0
HATCH
  5
DF
330
DA
100
AcDbEntity
  8
_U+30EC_U+30A4_U+30E4_U+30FC 1
 62
   179
420
  2234388
100
AcDbHatch
 10
0.0
 20
0.0
 30
0.0
210
0.0
220
0.0
230
1.0
  2
SOLID
 70
     1
 71
     0
 91
        1
 92
        1
 93
        1
 72
     4
 94
        3
 73
     0
 74
     1
 95
       62
 96
       58
 40
0.0
 40
0.0
 40
0.0
 40
0.0
 40
1.0
 40
1.0
 40
1.0
 40
2.0
 40
2.0
 40
2.0
 40
3.0
 40
3.0
 40
3.0
 40
4.0
 40
4.0
 40
4.0
 40
5.0
 40
5.0
 40
5.0
 40
6.0
 40
6.0
 40
6.0
 40
7.0
 40
7.0
 40
7.0
 40
8.0
 40
8.0
 40
8.0
 40
9.0
 40
9.0
 40
9.0
 40
10.0
 40
10.0
 40
10.0
 40
11.0
 40
11.0
 40
11.0
 40
12.0
 40
12.0
 40
12.0
 40
13.0
 40
13.0
 40
13.0
 40
14.0
 40
14.0
 40
14.0
 40
15.0
 40
15.0
 40
15.0
 40
16.0
 40
16.0
 40
16.0
 40
17.0
 40
17.0
 40
17.0
 40
18.0
 40
18.0
 40
18.0
 40
19.0
 40
19.0
 40
19.0
 40
19.0
 10
107.9582682021771
 20
-133.9949218415013
 10
107.9582682021771
 20
-134.0903509864427
 10
107.9372531197171
 20
-134.3080810211105
 10
107.7512179635136
 20
-134.4331379872251
 10
107.6389078506945
 20
-134.5068630306094
 10
107.5396891007192
 20
-134.5113416547402
 10
107.4549397517821
 20
-134.5154757693225
 10
107.4549397517821
 20
-134.5154757693225
 10
107.4549397517821
 20
-134.2953341678151
 10
107.4549397517821
 20
-134.2953341678151
 10
107.529009304715
 20
-134.2932671105239
 10
107.7636203072605
 20
-134.2829318240682
 10
107.7636203072605
 20
-133.9994004656321
 10
107.7636203072605
 20
-133.8619411557706
 10
107.6940293784584
 20
-133.7093234257741
 10
107.4656195477864
 20
-133.7093234257741
 10
107.3491753203849
 20
-133.7093234257741
 10
107.3005994740429
 20
-133.7475639856603
 10
107.2689045955786
 20
-133.7792588641246
 10
107.1948350426457
 20
-133.8533284170575
 10
107.1820881893503
 20
-133.9697726444589
 10
107.1820881893503
 20
-134.0245496626744
 10
107.1820881893503
 20
-134.0438421973918
 10
107.1841552466415
 20
-134.0796711904384
 10
107.1882893612238
 20
-134.1072319543204
 10
107.1882893612238
 20
-134.1072319543204
 10
106.9936414663072
 20
-134.1072319543204
 10
106.9936414663072
 20
-134.1072319543204
 10
107.0001871477291
 20
-134.0689913944341
 10
107.0022542050203
 20
-134.0269612295141
 10
107.0022542050203
 20
-134.0204155480921
 10
107.0022542050203
 20
-133.9549587338724
 10
106.9808946130117
 20
-133.7561767243735
 10
106.7442165531751
 20
-133.7561767243735
 10
106.5664496261362
 20
-133.7561767243735
 10
106.5113280983722
 20
-133.8870903528129
 10
106.5113280983722
 20
-133.9973334083409
 10
106.5113280983722
 20
-134.2615722320596
 10
106.7442165531751
 20
-134.2701849707727
 10
106.8158745392683
 20
-134.274319085355
 10
106.8158745392683
 20
-134.274319085355
 10
106.8158745392683
 20
-134.4775797189848
 10
106.8158745392683
 20
-134.4775797189848
 10
106.6911620827022
 20
-134.4689669802717
 10
106.3146131461644
 20
-134.4414062163897
 10
106.3146131461644
 20
-133.9845865550455
 10
106.3146131461644
 20
-133.7603108389558
 10
106.4417371695701
 20
-133.5191541549883
 10
106.7376708717531
 20
-133.5191541549883
 10
106.9240505375051
 20
-133.5191541549883
 10
107.0063883196026
 20
-133.6142387903812
 10
107.06771101924
 20
-133.7138020499049
 10
107.095271783122
 20
-133.6524793502674
 10
107.1755425079283
 20
-133.4705783086463
 10
107.4528726944909
 20
-133.4705783086463
 10
107.7911810711425
 20
-133.4705783086463
 10
107.9582682021771
 20
-133.7179361644872
 10
107.9582682021771
 20
-133.9949218415013
 97
        0
 97
        0
 75
     2
 76
     1
 98
        0
  0
ENDBLK
  5
DD
330
DA
100
AcDbEntity
  8
0
100
AcDbBlockEnd
  0
ENDSEC
  0
SECTION
  2
ENTITIES
  0
POLYLINE
  5
41
330
1F
100
AcDbEntity
  8
_U+30EC_U+30A4_U+30E4_U+30FC 1
 62
   179
420
  2234388
370
     9
100
AcDb2dPolyline
 66
     1
 10
0.0
 20
0.0
 30
0.0
  0
VERTEX
  5
42
330
41
100
AcDbEntity
  8
_U+30EC_U+30A4_U+30E4_U+30FC 1
 62
   179
420
  2234388
370
     9
100
AcDbVertex
100
AcDb2dVertex
 10
104.7322759391681
 20
-132.5376585779766
 30
0.0
  0
VERTEX
  5
43
330
41
100
AcDbEntity
  8
_U+30EC_U+30A4_U+30E4_U+30FC 1
 62
   179
420
  2234388
370
     9
100
AcDbVertex
100
AcDb2dVertex
 10
104.7322759391681
 20
-120.0376483033238
 30
0.0
  0
SEQEND
  5
44
330
41
100
AcDbEntity
  8
_U+30EC_U+30A4_U+30E4_U+30FC 1
 62
   179
420
  2234388
370
     9
  0
POLYLINE
  5
45
330
1F
100
AcDbEntity
  8
_U+30EC_U+30A4_U+30E4_U+30FC 1
 62
   179
420
  2234388
370
    25
100
AcDb2dPolyline
 66
     1
 10
0.0
 20
0.0
 30
0.0
  0
VERTEX
  5
46
330
45
100
AcDbEntity
  8
_U+30EC_U+30A4_U+30E4_U+30FC 1
 62
   179
420
  2234388
370
    25
100
AcDbVertex
100
AcDb2dVertex
 10
78.77227715701845
 20
-120.0377894144352
 30
0.0
  0
VERTEX
  5
47
330
45
100
AcDbEntity
  8
_U+30EC_U+30A4_U+30E4_U+30FC 1
 62
   179
420
  2234388
370
    25
100
AcDbVertex
100
AcDb2dVertex
 10
91.77252599202114
 20
-120.0377894144352
 30
0.0
  0
SEQEND
  5
48
330
45
100
AcDbEntity
  8
_U+30EC_U+30A4_U+30E4_U+30FC 1
 62
   179
420
  2234388
370
    25
  0
POLYLINE
  5
49
330
1F
100
AcDbEntity
  8
_U+30EC_U+30A4_U+30E4_U+30FC 1
 62
   179
420
  2234388
370
    25
100
AcDb2dPolyline
 66
     1
 10
0.0
 20
0.0
 30
0.0
  0
VERTEX
  5
4A
330
49
100
AcDbEntity
  8
_U+30EC_U+30A4_U+30E4_U+30FC 1
 62
   179
420
  2234388
370
    25
100
AcDbVertex
100
AcDb2dVertex
 10
90.77222462865207
 20
-121.0375616364074
 30
0.0
  0
VERTEX
  5
4B
330
49
100
AcDbEntity
  8
_U+30EC_U+30A4_U+30E4_U+30FC 1
 62
   179
420
  2234388
370
    25
100
AcDbVertex
100
AcDb2dVertex
 10
90.77222462865207
 20
-135.537645521671
 30
0.0
  0
SEQEND
  5
4C
330
49
100
AcDbEntity
  8
_U+30EC_U+30A4_U+30E4_U+30FC 1
 62
   179
420
  2234388
370
    25
  0
POLYLINE
  5
4D
330
1F
100
AcDbEntity
  8
_U+30EC_U+30A4_U+30E4_U+30FC 1
 62
   179
420
  2234388
370
    25
100
AcDb2dPolyline
 66
     1
 10
0.0
 20
0.0
 30
0.0
  0
VERTEX
  5
4E
330
4D
100
AcDbEntity
  8
_U+30EC_U+30A4_U+30E4_U+30FC 1
 62
   179
420
  2234388
370
    25
100
AcDbVertex
100
AcDb2dVertex
 10
78.77227715701845
 20
-121.0377380252962
 30
0.0
  0
VERTEX
  5
4F
330
4D
100
AcDbEntity
  8
_U+30EC_U+30A4_U+30E4_U+30FC 1
 62
   179
420
  2234388
370
    25
100
AcDbVertex
100
AcDb2dVertex
 10
90.77222462865207
 20
-121.0377380252962
 30
0.0
  0
SEQEND
  5
50
330
4D
100
AcDbEntity
  8
_U+30EC_U+30A4_U+30E4_U+30FC 1
 62
   179
420
  2234388
370
    25
  0
POLYLINE
  5
51
330
1F
100
AcDbEntity
  8
_U+30EC_U+30A4_U+30E4_U+30FC 1
 62
   179
420
  2234388
370
    25
100
AcDb2dPolyline
 66
     1
 10
0.0
 20
0.0
 30
0.0
  0
VERTEX
  5
52
330
51
100
AcDbEntity
  8
_U+30EC_U+30A4_U+30E4_U+30FC 1
 62
   179
420
  2234388
370
    25
100
AcDbVertex
100
AcDb2dVertex
 10
78.77227715701845
 20
-120.0377894144352
 30
0.0
  0
VERTEX
  5
53
330
51
100
AcDbEntity
  8
_U+30EC_U+30A4_U+30E4_U+30FC 1
 62
   179
420
  2234388
370
    25
100
AcDbVertex
100
AcDb2dVertex
 10
78.77227715701845
 20
-121.0377380252962
 30
0.0
  0
SEQEND
  5
54
330
51
100
AcDbEntity
  8
_U+30EC_U+30A4_U+30E4_U+30FC 1
 62
   179
420
  2234388
370
    25
  0
POLYLINE
  5
55
330
1F
100
AcDbEntity
  8
_U+30EC_U+30A4_U+30E4_U+30FC 1
 62
   179
420
  2234388
370
    25
100
AcDb2dPolyline
 66
     1
 10
0.0
 20
0.0
 30
0.0
  0
VERTEX
  5
56
330
55
100
AcDbEntity
  8
_U+30EC_U+30A4_U+30E4_U+30FC 1
 62
   179
420
  2234388
370
    25
100
AcDbVertex
100
AcDb2dVertex
 10
97.77249972783794
 20
-132.5376585779766
 30
0.0
  0
VERTEX
  5
57
330
55
100
AcDbEntity
  8
_U+30EC_U+30A4_U+30E4_U+30FC 1
 62
   179
420
  2234388
370
    25
100
AcDbVertex
100
AcDb2dVertex
 10
97.77249972783794
 20
-133.5374307999492
 30
0.0
  0
SEQEND
  5
58
330
55
100
AcDbEntity
  8
_U+30EC_U+30A4_U+30E4_U+30FC 1
 62
   179
420
  2234388
370
    25
  0
POLYLINE
  5
59
330
1F
100
AcDbEntity
  8
_U+30EC_U+30A4_U+30E4_U+30FC 1
 62
   179
420
  2234388
370
    25
100
AcDb2dPolyline
 66
     1
 10
0.0
 20
0.0
 30
0.0
  0
VERTEX
  5
5A
330
59
100
AcDbEntity
  8
_U+30EC_U+30A4_U+30E4_U+30FC 1
 62
   179
420
  2234388
370
    25
100
AcDbVertex
100
AcDb2dVertex
 10
91.77252599202114
 20
-120.0377894144352
 30
0.0
  0
VERTEX
  5
5B
330
59
100
AcDbEntity
  8
_U+30EC_U+30A4_U+30E4_U+30FC 1
 62
   179
420
  2234388
370
    25
100
AcDbVertex
100
AcDb2dVertex
 10
91.77252599202114
 20
-134.4379666330574
 30
0.0
  0
SEQEND
  5
5C
330
59
100
AcDbEntity
  8
_U+30EC_U+30A4_U+30E4_U+30FC 1
 62
   179
420
  2234388
370
    25
  0
POLYLINE
  5
5D
330
1F
100
AcDbEntity
  8
_U+30EC_U+30A4_U+30E4_U+30FC 1
 62
   179
420
  2234388
370
    25
100
AcDb2dPolyline
 66
     1
 10
0.0
 20
0.0
 30
0.0
  0
VERTEX
  5
5E
330
5D
100
AcDbEntity
  8
_U+30EC_U+30A4_U+30E4_U+30FC 1
 62
   179
420
  2234388
370
    25
100
AcDbVertex
100
AcDb2dVertex
 10
100.7724865957463
 20
-132.5376585779766
 30
0.0
  0
VERTEX
  5
5F
330
5D
100
AcDbEntity
  8
_U+30EC_U+30A4_U+30E4_U+30FC 1
 62
   179
420
  2234388
370
    25
100
AcDbVertex
100
AcDb2dVertex
 10
100.7724865957463
 20
-135.537645521671
 30
0.0
  0
SEQEND
  5
60
330
5D
100
AcDbEntity
  8
_U+30EC_U+30A4_U+30E4_U+30FC 1
 62
   179
420
  2234388
370
    25
  0
POLYLINE
  5
61
330
1F
100
AcDbEntity
  8
_U+30EC_U+30A4_U+30E4_U+30FC 1
 62
   179
420
  2234388
370
    25
100
AcDb2dPolyline
 66
     1
 10
0.0
 20
0.0
 30
0.0
  0
VERTEX
  5
62
330
61
100
AcDbEntity
  8
_U+30EC_U+30A4_U+30E4_U+30FC 1
 62
   179
420
  2234388
370
    25
100
AcDbVertex
100
AcDb2dVertex
 10
99.77204412126976
 20
-133.5374307999492
 30
0.0
  0
VERTEX
  5
63
330
61
100
AcDbEntity
  8
_U+30EC_U+30A4_U+30E4_U+30FC 1
 62
   179
420
  2234388
370
    25
100
AcDbVertex
100
AcDb2dVertex
 10
99.77204412126976
 20
-134.5378732996991
 30
0.0
  0
SEQEND
  5
64
330
61
100
AcDbEntity
  8
_U+30EC_U+30A4_U+30E4_U+30FC 1
 62
   179
420
  2234388
370
    25
  0
POLYLINE
  5
65
330
1F
100
AcDbEntity
  8
_U+30EC_U+30A4_U+30E4_U+30FC 1
 62
   179
420
  2234388
370
    25
100
AcDb2dPolyline
 66
     1
 10
0.0
 20
0.0
 30
0.0
  0
VERTEX
  5
66
330
65
100
AcDbEntity
  8
_U+30EC_U+30A4_U+30E4_U+30FC 1
 62
   179
420
  2234388
370
    25
100
AcDbVertex
100
AcDb2dVertex
 10
91.77252599202114
 20
-134.5378732996991
 30
0.0
  0
VERTEX
  5
67
330
65
100
AcDbEntity
  8
_U+30EC_U+30A4_U+30E4_U+30FC 1
 62
   179
420
  2234388
370
    25
100
AcDbVertex
100
AcDb2dVertex
 10
99.77204412126976
 20
-134.5378732996991
 30
0.0
  0
SEQEND
  5
68
330
65
100
AcDbEntity
  8
_U+30EC_U+30A4_U+30E4_U+30FC 1
 62
   179
420
  2234388
370
    25
  0
POLYLINE
  5
69
330
1F
100
AcDbEntity
  8
_U+30EC_U+30A4_U+30E4_U+30FC 1
 62
   179
420
  2234388
370
    25
100
AcDb2dPolyline
 66
     1
 10
0.0
 20
0.0
 30
0.0
  0
VERTEX
  5
6A
330
69
100
AcDbEntity
  8
_U+30EC_U+30A4_U+30E4_U+30FC 1
 62
   179
420
  2234388
370
    25
100
AcDbVertex
100
AcDb2dVertex
 10
97.77249972783794
 20
-133.5374307999492
 30
0.0
  0
VERTEX
  5
6B
330
69
100
AcDbEntity
  8
_U+30EC_U+30A4_U+30E4_U+30FC 1
 62
   179
420
  2234388
370
    25
100
AcDbVertex
100
AcDb2dVertex
 10
99.77204412126976
 20
-133.5374307999492
 30
0.0
  0
SEQEND
  5
6C
330
69
100
AcDbEntity
  8
_U+30EC_U+30A4_U+30E4_U+30FC 1
 62
   179
420
  2234388
370
    25
  0
POLYLINE
  5
6D
330
1F
100
AcDbEntity
  8
_U+30EC_U+30A4_U+30E4_U+30FC 1
 62
   179
420
  2234388
370
    25
100
AcDb2dPolyline
 66
     1
 10
0.0
 20
0.0
 30
0.0
  0
VERTEX
  5
6E
330
6D
100
AcDbEntity
  8
_U+30EC_U+30A4_U+30E4_U+30FC 1
 62
   179
420
  2234388
370
    25
100
AcDbVertex
100
AcDb2dVertex
 10
97.77249972783794
 20
-132.5376585779766
 30
0.0
  0
VERTEX
  5
6F
330
6D
100
AcDbEntity
  8
_U+30EC_U+30A4_U+30E4_U+30FC 1
 62
   179
420
  2234388
370
    25
100
AcDbVertex
100
AcDb2dVertex
 10
100.7724865957463
 20
-132.5376585779766
 30
0.0
  0
SEQEND
  5
70
330
6D
100
AcDbEntity
  8
_U+30EC_U+30A4_U+30E4_U+30FC 1
 62
   179
420
  2234388
370
    25
  0
POLYLINE
  5
71
330
1F
100
AcDbEntity
  8
_U+30EC_U+30A4_U+30E4_U+30FC 1
 62
   179
420
  2234388
370
    25
100
AcDb2dPolyline
 66
     1
 10
0.0
 20
0.0
 30
0.0
  0
VERTEX
  5
72
330
71
100
AcDbEntity
  8
_U+30EC_U+30A4_U+30E4_U+30FC 1
 62
   179
420
  2234388
370
    25
100
AcDbVertex
100
AcDb2dVertex
 10
90.77222462865207
 20
-135.537645521671
 30
0.0
  0
VERTEX
  5
73
330
71
100
AcDbEntity
  8
_U+30EC_U+30A4_U+30E4_U+30FC 1
 62
   179
420
  2234388
370
    25
100
AcDbVertex
100
AcDb2dVertex
 10
100.7724865957463
 20
-135.537645521671
 30
0.0
  0
SEQEND
  5
74
330
71
100
AcDbEntity
  8
_U+30EC_U+30A4_U+30E4_U+30FC 1
 62
   179
420
  2234388
370
    25
  0
SPLINE
  5
75
330
1F
100
AcDbEntity
  8
_U+30EC_U+30A4_U+30E4_U+30FC 1
 62
   179
420
  2234388
370
     9
100
AcDbSpline
210
0.0
220
0.0
230
1.0
 70
    11
 71
     3
 72
    17
 73
    13
 74
     0
 42
0.0000000001
 43
0.0000000001
 12
1.0
 22
0.0
 32
0.0
 13
1.0
 23
0.0
 33
0.0
 40
0.0
 40
0.0
 40
0.0
 40
0.0
 40
1.0
 40
1.0
 40
1.0
 40
2.0
 40
2.0
 40
2.0
 40
3.0
 40
3.0
 40
3.0
 40
4.0
 40
4.0
 40
4.0
 40
4.0
 10
104.8328881588235
 20
-120.0376483033238
 30
0.0
 10
104.8328881588235
 20
-119.982509136671
 30
0.0
 10
104.7880853821888
 20
-119.9377416366821
 30
0.0
 10
104.7322759391681
 20
-119.9377416366821
 30
0.0
 10
104.6771720516851
 20
-119.9377416366821
 30
0.0
 10
104.6323692750503
 20
-119.982509136671
 30
0.0
 10
104.6323692750503
 20
-120.0376483033238
 30
0.0
 10
104.6323692750503
 20
-120.0931049699768
 30
0.0
 10
104.6771720516851
 20
-120.1378724699657
 30
0.0
 10
104.7322759391681
 20
-120.1378724699657
 30
0.0
 10
104.7880853821888
 20
-120.1378724699657
 30
0.0
 10
104.8328881588235
 20
-120.0931049699768
 30
0.0
 10
104.8328881588235
 20
-120.0376483033238
 30
0.0
  0
SPLINE
  5
76
330
1F
100
AcDbEntity
  8
_U+30EC_U+30A4_U+30E4_U+30FC 1
 62
   179
420
  2234388
370
     9
100
AcDbSpline
210
0.0
220
0.0
230
1.0
 70
    11
 71
     3
 72
    17
 73
    13
 74
     0
 42
0.0000000001
 43
0.0000000001
 12
1.0
 22
0.0
 32
0.0
 13
1.0
 23
0.0
 33
0.0
 40
0.0
 40
0.0
 40
0.0
 40
0.0
 40
1.0
 40
1.0
 40
1.0
 40
2.0
 40
2.0
 40
2.0
 40
3.0
 40
3.0
 40
3.0
 40
4.0
 40
4.0
 40
4.0
 40
4.0
 10
104.8328881588235
 20
-132.5376585779766
 30
0.0
 10
104.8328881588235
 20
-132.4825194113236
 30
0.0
 10
104.7880853821888
 20
-132.437751911335
 30
0.0
 10
104.7322759391681
 20
-132.437751911335
 30
0.0
 10
104.6771720516851
 20
-132.437751911335
 30
0.0
 10
104.6323692750503
 20
-132.4825194113236
 30
0.0
 10
104.6323692750503
 20
-132.5376585779766
 30
0.0
 10
104.6323692750503
 20
-132.5927624668516
 30
0.0
 10
104.6771720516851
 20
-132.6375652446183
 30
0.0
 10
104.7322759391681
 20
-132.6375652446183
 30
0.0
 10
104.7880853821888
 20
-132.6375652446183
 30
0.0
 10
104.8328881588235
 20
-132.5927624668516
 30
0.0
 10
104.8328881588235
 20
-132.5376585779766
 30
0.0
  0
SPLINE
  5
77
330
1F
100
AcDbEntity
  8
_U+30EC_U+30A4_U+30E4_U+30FC 1
 62
   179
420
  2234388
370
     9
100
AcDbSpline
210
0.0
220
0.0
230
1.0
 70
    11
 71
     3
 72
    17
 73
    13
 74
     0
 42
0.0000000001
 43
0.0000000001
 12
1.0
 22
0.0
 32
0.0
 13
1.0
 23
0.0
 33
0.0
 40
0.0
 40
0.0
 40
0.0
 40
0.0
 40
1.0
 40
1.0
 40
1.0
 40
2.0
 40
2.0
 40
2.0
 40
3.0
 40
3.0
 40
3.0
 40
4.0
 40
4.0
 40
4.0
 40
4.0
 10
104.8328881588235
 20
-135.537645521671
 30
0.0
 10
104.8328881588235
 20
-135.4825063550186
 30
0.0
 10
104.7880853821888
 20
-135.4377388550294
 30
0.0
 10
104.7322759391681
 20
-135.4377388550294
 30
0.0
 10
104.6771720516851
 20
-135.4377388550294
 30
0.0
 10
104.6323692750503
 20
-135.4825063550186
 30
0.0
 10
104.6323692750503
 20
-135.537645521671
 30
0.0
 10
104.6323692750503
 20
-135.5927494105465
 30
0.0
 10
104.6771720516851
 20
-135.6375521883126
 30
0.0
 10
104.7322759391681
 20
-135.6375521883126
 30
0.0
 10
104.7880853821888
 20
-135.6375521883126
 30
0.0
 10
104.8328881588235
 20
-135.5927494105465
 30
0.0
 10
104.8328881588235
 20
-135.537645521671
 30
0.0
  0
SPLINE
  5
78
330
1F
100
AcDbEntity
  8
_U+30EC_U+30A4_U+30E4_U+30FC 1
 62
   179
420
  2234388
370
     9
100
AcDbSpline
210
0.0
220
0.0
230
1.0
 70
    11
 71
     3
 72
    17
 73
    13
 74
     0
 42
0.0000000001
 43
0.0000000001
 12
1.0
 22
0.0
 32
0.0
 13
1.0
 23
0.0
 33
0.0
 40
0.0
 40
0.0
 40
0.0
 40
0.0
 40
1.0
 40
1.0
 40
1.0
 40
2.0
 40
2.0
 40
2.0
 40
3.0
 40
3.0
 40
3.0
 40
4.0
 40
4.0
 40
4.0
 40
4.0
 10
100.8723932598642
 20
-139.5374046873379
 30
0.0
 10
100.8723932598642
 20
-139.4822655206848
 30
0.0
 10
100.8275904832294
 20
-139.4374980206962
 30
0.0
 10
100.7724865957463
 20
-139.4374980206962
 30
0.0
 10
100.7166771527257
 20
-139.4374980206962
 30
0.0
 10
100.671874376091
 20
-139.4822655206848
 30
0.0
 10
100.671874376091
 20
-139.5374046873379
 30
0.0
 10
100.671874376091
 20
-139.5925085762128
 30
0.0
 10
100.7166771527257
 20
-139.6373113539795
 30
0.0
 10
100.7724865957463
 20
-139.6373113539795
 30
0.0
 10
100.8275904832294
 20
-139.6373113539795
 30
0.0
 10
100.8723932598642
 20
-139.5925085762128
 30
0.0
 10
100.8723932598642
 20
-139.5374046873379
 30
0.0
  0
SPLINE
  5
79
330
1F
100
AcDbEntity
  8
_U+30EC_U+30A4_U+30E4_U+30FC 1
 62
   179
420
  2234388
370
     9
100
AcDbSpline
210
0.0
220
0.0
230
1.0
 70
    11
 71
     3
 72
    17
 73
    13
 74
     0
 42
0.0000000001
 43
0.0000000001
 12
1.0
 22
0.0
 32
0.0
 13
1.0
 23
0.0
 33
0.0
 40
0.0
 40
0.0
 40
0.0
 40
0.0
 40
1.0
 40
1.0
 40
1.0
 40
2.0
 40
2.0
 40
2.0
 40
3.0
 40
3.0
 40
3.0
 40
4.0
 40
4.0
 40
4.0
 40
4.0
 10
78.87218382113629
 20
-139.5374046873379
 30
0.0
 10
78.87218382113629
 20
-139.4822655206848
 30
0.0
 10
78.8274163222784
 20
-139.4374980206962
 30
0.0
 10
78.77227715701845
 20
-139.4374980206962
 30
0.0
 10
78.7168204917666
 20
-139.4374980206962
 30
0.0
 10
78.67201771513184
 20
-139.4822655206848
 30
0.0
 10
78.67201771513184
 20
-139.5374046873379
 30
0.0
 10
78.67201771513184
 20
-139.5925085762128
 30
0.0
 10
78.7168204917666
 20
-139.6373113539795
 30
0.0
 10
78.77227715701845
 20
-139.6373113539795
 30
0.0
 10
78.8274163222784
 20
-139.6373113539795
 30
0.0
 10
78.87218382113629
 20
-139.5925085762128
 30
0.0
 10
78.87218382113629
 20
-139.5374046873379
 30
0.0
  0
SPLINE
  5
7A
330
1F
100
AcDbEntity
  8
_U+30EC_U+30A4_U+30E4_U+30FC 1
 62
   179
420
  2234388
370
     9
100
AcDbSpline
210
0.0
220
0.0
230
1.0
 70
    11
 71
     3
 72
    17
 73
    13
 74
     0
 42
0.0000000001
 43
0.0000000001
 12
1.0
 22
0.0
 32
0.0
 13
1.0
 23
0.0
 33
0.0
 40
0.0
 40
0.0
 40
0.0
 40
0.0
 40
1.0
 40
1.0
 40
1.0
 40
2.0
 40
2.0
 40
2.0
 40
3.0
 40
3.0
 40
3.0
 40
4.0
 40
4.0
 40
4.0
 40
4.0
 10
76.63596082263153
 20
-119.9654699700085
 30
0.0
 10
76.63596082263153
 20
-119.9103308033557
 30
0.0
 10
76.59119332377365
 20
-119.8655633033669
 30
0.0
 10
76.5357366585218
 20
-119.8655633033669
 30
0.0
 10
76.48059749326185
 20
-119.8655633033669
 30
0.0
 10
76.43582999440396
 20
-119.9103308033557
 30
0.0
 10
76.43582999440396
 20
-119.9654699700085
 30
0.0
 10
76.43582999440396
 20
-120.0209266366615
 30
0.0
 10
76.48059749326185
 20
-120.0657294144279
 30
0.0
 10
76.5357366585218
 20
-120.0657294144279
 30
0.0
 10
76.59119332377365
 20
-120.0657294144279
 30
0.0
 10
76.63596082263153
 20
-120.0209266366615
 30
0.0
 10
76.63596082263153
 20
-119.9654699700085
 30
0.0
  0
SPLINE
  5
7B
330
1F
100
AcDbEntity
  8
_U+30EC_U+30A4_U+30E4_U+30FC 1
 62
   179
420
  2234388
370
     9
100
AcDbSpline
210
0.0
220
0.0
230
1.0
 70
    11
 71
     3
 72
    17
 73
    13
 74
     0
 42
0.0000000001
 43
0.0000000001
 12
1.0
 22
0.0
 32
0.0
 13
1.0
 23
0.0
 33
0.0
 40
0.0
 40
0.0
 40
0.0
 40
0.0
 40
1.0
 40
1.0
 40
1.0
 40
2.0
 40
2.0
 40
2.0
 40
3.0
 40
3.0
 40
3.0
 40
4.0
 40
4.0
 40
4.0
 40
4.0
 10
76.63596082263153
 20
-121.0654663586226
 30
0.0
 10
76.63596082263153
 20
-121.0103624697473
 30
0.0
 10
76.59119332377365
 20
-120.965559691981
 30
0.0
 10
76.5357366585218
 20
-120.965559691981
 30
0.0
 10
76.48059749326185
 20
-120.965559691981
 30
0.0
 10
76.43582999440396
 20
-121.0103624697473
 30
0.0
 10
76.43582999440396
 20
-121.0654663586226
 30
0.0
 10
76.43582999440396
 20
-121.1209583030531
 30
0.0
 10
76.48059749326185
 20
-121.165725803042
 30
0.0
 10
76.5357366585218
 20
-121.165725803042
 30
0.0
 10
76.59119332377365
 20
-121.165725803042
 30
0.0
 10
76.63596082263153
 20
-121.1209583030531
 30
0.0
 10
76.63596082263153
 20
-121.0654663586226
 30
0.0
  0
SPLINE
  5
7C
330
1F
100
AcDbEntity
  8
_U+30EC_U+30A4_U+30E4_U+30FC 1
 62
   179
420
  2234388
370
     9
100
AcDbSpline
210
0.0
220
0.0
230
1.0
 70
    11
 71
     3
 72
    17
 73
    13
 74
     0
 42
0.0000000001
 43
0.0000000001
 12
1.0
 22
0.0
 32
0.0
 13
1.0
 23
0.0
 33
0.0
 40
0.0
 40
0.0
 40
0.0
 40
0.0
 40
1.0
 40
1.0
 40
1.0
 40
2.0
 40
2.0
 40
2.0
 40
3.0
 40
3.0
 40
3.0
 40
4.0
 40
4.0
 40
4.0
 40
4.0
 10
90.8721312927699
 20
-139.5374046873379
 30
0.0
 10
90.8721312927699
 20
-139.4822655206848
 30
0.0
 10
90.82736379391201
 20
-139.4374980206962
 30
0.0
 10
90.77222462865207
 20
-139.4374980206962
 30
0.0
 10
90.717120741169
 20
-139.4374980206962
 30
0.0
 10
90.67231796453423
 20
-139.4822655206848
 30
0.0
 10
90.67231796453423
 20
-139.5374046873379
 30
0.0
 10
90.67231796453423
 20
-139.5925085762128
 30
0.0
 10
90.717120741169
 20
-139.6373113539795
 30
0.0
 10
90.77222462865207
 20
-139.6373113539795
 30
0.0
 10
90.82736379391201
 20
-139.6373113539795
 30
0.0
 10
90.8721312927699
 20
-139.5925085762128
 30
0.0
 10
90.8721312927699
 20
-139.5374046873379
 30
0.0
  0
POLYLINE
  5
7D
330
1F
100
AcDbEntity
  8
_U+30EC_U+30A4_U+30E4_U+30FC 1
 62
   179
420
  2234388
370
     9
100
AcDb2dPolyline
 66
     1
 10
0.0
 20
0.0
 30
0.0
  0
VERTEX
  5
7E
330
7D
100
AcDbEntity
  8
_U+30EC_U+30A4_U+30E4_U+30FC 1
 62
   179
420
  2234388
370
     9
100
AcDbVertex
100
AcDb2dVertex
 10
90.77222462865207
 20
-139.5374046873379
 30
0.0
  0
VERTEX
  5
7F
330
7D
100
AcDbEntity
  8
_U+30EC_U+30A4_U+30E4_U+30FC 1
 62
   179
420
  2234388
370
     9
100
AcDbVertex
100
AcDb2dVertex
 10
100.7724865957463
 20
-139.5374046873379
 30
0.0
  0
SEQEND
  5
80
330
7D
100
AcDbEntity
  8
_U+30EC_U+30A4_U+30E4_U+30FC 1
 62
   179
420
  2234388
370
     9
  0
POLYLINE
  5
81
330
1F
100
AcDbEntity
  8
_U+30EC_U+30A4_U+30E4_U+30FC 1
 62
   179
420
  2234388
370
     9
100
AcDb2dPolyline
 66
     1
 10
0.0
 20
0.0
 30
0.0
  0
VERTEX
  5
82
330
81
100
AcDbEntity
  8
_U+30EC_U+30A4_U+30E4_U+30FC 1
 62
   179
420
  2234388
370
     9
100
AcDbVertex
100
AcDb2dVertex
 10
100.7724865957463
 20
-137.3773110767665
 30
0.0
  0
VERTEX
  5
83
330
81
100
AcDbEntity
  8
_U+30EC_U+30A4_U+30E4_U+30FC 1
 62
   179
420
  2234388
370
     9
100
AcDbVertex
100
AcDb2dVertex
 10
100.7724865957463
 20
-140.5378471870878
 30
0.0
  0
SEQEND
  5
84
330
81
100
AcDbEntity
  8
_U+30EC_U+30A4_U+30E4_U+30FC 1
 62
   179
420
  2234388
370
     9
  0
INSERT
  5
86
330
1F
100
AcDbEntity
  8
_U+30EC_U+30A4_U+30E4_U+30FC 1
100
AcDbBlockReference
  2
block 2
 10
0.0
 20
0.0
 30
0.0
  0
POLYLINE
  5
8E
330
1F
100
AcDbEntity
  8
_U+30EC_U+30A4_U+30E4_U+30FC 1
 62
   179
420
  2234388
370
     9
100
AcDb2dPolyline
 66
     1
 10
0.0
 20
0.0
 30
0.0
  0
VERTEX
  5
8F
330
8E
100
AcDbEntity
  8
_U+30EC_U+30A4_U+30E4_U+30FC 1
 62
   179
420
  2234388
370
     9
100
AcDbVertex
100
AcDb2dVertex
 10
94.2722739838028
 20
-120.0377894144352
 30
0.0
  0
VERTEX
  5
90
330
8E
100
AcDbEntity
  8
_U+30EC_U+30A4_U+30E4_U+30FC 1
 62
   179
420
  2234388
370
     9
100
AcDbVertex
100
AcDb2dVertex
 10
105.7320481358841
 20
-120.0377894144352
 30
0.0
  0
SEQEND
  5
91
330
8E
100
AcDbEntity
  8
_U+30EC_U+30A4_U+30E4_U+30FC 1
 62
   179
420
  2234388
370
     9
  0
INSERT
  5
93
330
1F
100
AcDbEntity
  8
_U+30EC_U+30A4_U+30E4_U+30FC 1
100
AcDbBlockReference
  2
block 3
 10
0.0
 20
0.0
 30
0.0
  0
POLYLINE
  5
A4
330
1F
100
AcDbEntity
  8
_U+30EC_U+30A4_U+30E4_U+30FC 1
 62
   179
420
  2234388
370
     9
100
AcDb2dPolyline
 66
     1
 10
0.0
 20
0.0
 30
0.0
  0
VERTEX
  5
A5
330
A4
100
AcDbEntity
  8
_U+30EC_U+30A4_U+30E4_U+30FC 1
 62
   179
420
  2234388
370
     9
100
AcDbVertex
100
AcDb2dVertex
 10
76.5357366585218
 20
-119.9654699700085
 30
0.0
  0
VERTEX
  5
A6
330
A4
100
AcDbEntity
  8
_U+30EC_U+30A4_U+30E4_U+30FC 1
 62
   179
420
  2234388
370
     9
100
AcDbVertex
100
AcDb2dVertex
 10
76.5357366585218
 20
-118.9656977480363
 30
0.0
  0
SEQEND
  5
A7
330
A4
100
AcDbEntity
  8
_U+30EC_U+30A4_U+30E4_U+30FC 1
 62
   179
420
  2234388
370
     9
  0
POLYLINE
  5
A8
330
1F
100
AcDbEntity
  8
_U+30EC_U+30A4_U+30E4_U+30FC 1
 62
   179
420
  2234388
370
     9
100
AcDb2dPolyline
 66
     1
 10
0.0
 20
0.0
 30
0.0
  0
VERTEX
  5
A9
330
A8
100
AcDbEntity
  8
_U+30EC_U+30A4_U+30E4_U+30FC 1
 62
   179
420
  2234388
370
     9
100
AcDbVertex
100
AcDb2dVertex
 10
76.5357366585218
 20
-119.9654699700085
 30
0.0
  0
VERTEX
  5
AA
330
A8
100
AcDbEntity
  8
_U+30EC_U+30A4_U+30E4_U+30FC 1
 62
   179
420
  2234388
370
     9
100
AcDbVertex
100
AcDb2dVertex
 10
76.5357366585218
 20
-122.0655913583726
 30
0.0
  0
SEQEND
  5
AB
330
A8
100
AcDbEntity
  8
_U+30EC_U+30A4_U+30E4_U+30FC 1
 62
   179
420
  2234388
370
     9
  0
POLYLINE
  5
AC
330
1F
100
AcDbEntity
  8
_U+30EC_U+30A4_U+30E4_U+30FC 1
 62
   179
420
  2234388
370
     9
100
AcDb2dPolyline
 66
     1
 10
0.0
 20
0.0
 30
0.0
  0
VERTEX
  5
AD
330
AC
100
AcDbEntity
  8
_U+30EC_U+30A4_U+30E4_U+30FC 1
 62
   179
420
  2234388
370
     9
100
AcDbVertex
100
AcDb2dVertex
 10
77.99574273238505
 20
-119.9654699700085
 30
0.0
  0
VERTEX
  5
AE
330
AC
100
AcDbEntity
  8
_U+30EC_U+30A4_U+30E4_U+30FC 1
 62
   179
420
  2234388
370
     9
100
AcDbVertex
100
AcDb2dVertex
 10
75.53596446180589
 20
-119.9654699700085
 30
0.0
  0
SEQEND
  5
AF
330
AC
100
AcDbEntity
  8
_U+30EC_U+30A4_U+30E4_U+30FC 1
 62
   179
420
  2234388
370
     9
  0
POLYLINE
  5
B0
330
1F
100
AcDbEntity
  8
_U+30EC_U+30A4_U+30E4_U+30FC 1
 62
   179
420
  2234388
370
     9
100
AcDb2dPolyline
 66
     1
 10
0.0
 20
0.0
 30
0.0
  0
VERTEX
  5
B1
330
B0
100
AcDbEntity
  8
_U+30EC_U+30A4_U+30E4_U+30FC 1
 62
   179
420
  2234388
370
     9
100
AcDbVertex
100
AcDb2dVertex
 10
77.99574273238505
 20
-121.0654663586226
 30
0.0
  0
VERTEX
  5
B2
330
B0
100
AcDbEntity
  8
_U+30EC_U+30A4_U+30E4_U+30FC 1
 62
   179
420
  2234388
370
     9
100
AcDbVertex
100
AcDb2dVertex
 10
75.53596446180589
 20
-121.0654663586226
 30
0.0
  0
SEQEND
  5
B3
330
B0
100
AcDbEntity
  8
_U+30EC_U+30A4_U+30E4_U+30FC 1
 62
   179
420
  2234388
370
     9
  0
INSERT
  5
B5
330
1F
100
AcDbEntity
  8
_U+30EC_U+30A4_U+30E4_U+30FC 1
100
AcDbBlockReference
  2
block 4
 10
0.0
 20
0.0
 30
0.0
  0
POLYLINE
  5
BA
330
1F
100
AcDbEntity
  8
_U+30EC_U+30A4_U+30E4_U+30FC 1
 62
   179
420
  2234388
370
     9
100
AcDb2dPolyline
 66
     1
 10
0.0
 20
0.0
 30
0.0
  0
VERTEX
  5
BB
330
BA
100
AcDbEntity
  8
_U+30EC_U+30A4_U+30E4_U+30FC 1
 62
   179
420
  2234388
370
     9
100
AcDbVertex
100
AcDb2dVertex
 10
78.77227715701845
 20
-139.5374046873379
 30
0.0
  0
VERTEX
  5
BC
330
BA
100
AcDbEntity
  8
_U+30EC_U+30A4_U+30E4_U+30FC 1
 62
   179
420
  2234388
370
     9
100
AcDbVertex
100
AcDb2dVertex
 10
90.77222462865207
 20
-139.5374046873379
 30
0.0
  0
SEQEND
  5
BD
330
BA
100
AcDbEntity
  8
_U+30EC_U+30A4_U+30E4_U+30FC 1
 62
   179
420
  2234388
370
     9
  0
POLYLINE
  5
BE
330
1F
100
AcDbEntity
  8
_U+30EC_U+30A4_U+30E4_U+30FC 1
 62
   179
420
  2234388
370
     9
100
AcDb2dPolyline
 66
     1
 10
0.0
 20
0.0
 30
0.0
  0
VERTEX
  5
BF
330
BE
100
AcDbEntity
  8
_U+30EC_U+30A4_U+30E4_U+30FC 1
 62
   179
420
  2234388
370
     9
100
AcDbVertex
100
AcDb2dVertex
 10
78.77227715701845
 20
-123.5378388580043
 30
0.0
  0
VERTEX
  5
C0
330
BE
100
AcDbEntity
  8
_U+30EC_U+30A4_U+30E4_U+30FC 1
 62
   179
420
  2234388
370
     9
100
AcDbVertex
100
AcDb2dVertex
 10
78.77227715701845
 20
-140.5378471870878
 30
0.0
  0
SEQEND
  5
C1
330
BE
100
AcDbEntity
  8
_U+30EC_U+30A4_U+30E4_U+30FC 1
 62
   179
420
  2234388
370
     9
  0
POLYLINE
  5
C2
330
1F
100
AcDbEntity
  8
_U+30EC_U+30A4_U+30E4_U+30FC 1
 62
   179
420
  2234388
370
     9
100
AcDb2dPolyline
 66
     1
 10
0.0
 20
0.0
 30
0.0
  0
VERTEX
  5
C3
330
C2
100
AcDbEntity
  8
_U+30EC_U+30A4_U+30E4_U+30FC 1
 62
   179
420
  2234388
370
     9
100
AcDbVertex
100
AcDb2dVertex
 10
90.77222462865207
 20
-137.378016632322
 30
0.0
  0
VERTEX
  5
C4
330
C2
100
AcDbEntity
  8
_U+30EC_U+30A4_U+30E4_U+30FC 1
 62
   179
420
  2234388
370
     9
100
AcDbVertex
100
AcDb2dVertex
 10
90.77222462865207
 20
-140.5378471870878
 30
0.0
  0
SEQEND
  5
C5
330
C2
100
AcDbEntity
  8
_U+30EC_U+30A4_U+30E4_U+30FC 1
 62
   179
420
  2234388
370
     9
  0
INSERT
  5
C7
330
1F
100
AcDbEntity
  8
_U+30EC_U+30A4_U+30E4_U+30FC 1
100
AcDbBlockReference
  2
block 5
 10
0.0
 20
0.0
 30
0.0
  0
POLYLINE
  5
CE
330
1F
100
AcDbEntity
  8
_U+30EC_U+30A4_U+30E4_U+30FC 1
 62
   179
420
  2234388
370
     9
100
AcDb2dPolyline
 66
     1
 10
0.0
 20
0.0
 30
0.0
  0
VERTEX
  5
CF
330
CE
100
AcDbEntity
  8
_U+30EC_U+30A4_U+30E4_U+30FC 1
 62
   179
420
  2234388
370
     9
100
AcDbVertex
100
AcDb2dVertex
 10
104.7322759391681
 20
-132.5376585779766
 30
0.0
  0
VERTEX
  5
D0
330
CE
100
AcDbEntity
  8
_U+30EC_U+30A4_U+30E4_U+30FC 1
 62
   179
420
  2234388
370
     9
100
AcDbVertex
100
AcDb2dVertex
 10
104.7322759391681
 20
-138.0373935766016
 30
0.0
  0
SEQEND
  5
D1
330
CE
100
AcDbEntity
  8
_U+30EC_U+30A4_U+30E4_U+30FC 1
 62
   179
420
  2234388
370
     9
  0
POLYLINE
  5
D2
330
1F
100
AcDbEntity
  8
_U+30EC_U+30A4_U+30E4_U+30FC 1
 62
   179
420
  2234388
370
     9
100
AcDb2dPolyline
 66
     1
 10
0.0
 20
0.0
 30
0.0
  0
VERTEX
  5
D3
330
D2
100
AcDbEntity
  8
_U+30EC_U+30A4_U+30E4_U+30FC 1
 62
   179
420
  2234388
370
     9
100
AcDbVertex
100
AcDb2dVertex
 10
103.272234587528
 20
-132.5376585779766
 30
0.0
  0
VERTEX
  5
D4
330
D2
100
AcDbEntity
  8
_U+30EC_U+30A4_U+30E4_U+30FC 1
 62
   179
420
  2234388
370
     9
100
AcDbVertex
100
AcDb2dVertex
 10
105.7327184136447
 20
-132.5376585779766
 30
0.0
  0
SEQEND
  5
D5
330
D2
100
AcDbEntity
  8
_U+30EC_U+30A4_U+30E4_U+30FC 1
 62
   179
420
  2234388
370
     9
  0
POLYLINE
  5
D6
330
1F
100
AcDbEntity
  8
_U+30EC_U+30A4_U+30E4_U+30FC 1
 62
   179
420
  2234388
370
     9
100
AcDb2dPolyline
 66
     1
 10
0.0
 20
0.0
 30
0.0
  0
VERTEX
  5
D7
330
D6
100
AcDbEntity
  8
_U+30EC_U+30A4_U+30E4_U+30FC 1
 62
   179
420
  2234388
370
     9
100
AcDbVertex
100
AcDb2dVertex
 10
103.272234587528
 20
-135.537645521671
 30
0.0
  0
VERTEX
  5
D8
330
D6
100
AcDbEntity
  8
_U+30EC_U+30A4_U+30E4_U+30FC 1
 62
   179
420
  2234388
370
     9
100
AcDbVertex
100
AcDb2dVertex
 10
105.7327184136447
 20
-135.537645521671
 30
0.0
  0
SEQEND
  5
D9
330
D6
100
AcDbEntity
  8
_U+30EC_U+30A4_U+30E4_U+30FC 1
 62
   179
420
  2234388
370
     9
  0
INSERT
  5
DB
330
1F
100
AcDbEntity
  8
_U+30EC_U+30A4_U+30E4_U+30FC 1
100
AcDbBlockReference
  2
block 6
 10
0.0
 20
0.0
 30
0.0
  0
ENDSEC
  0
SECTION
  2
OBJECTS
  0
DICTIONARY
  5
C
330
0
100
AcDbDictionary
281
     1
  3
ACAD_GROUP
350
D
  3
ACAD_LAYOUT
350
1A
  3
ACAD_MATERIAL
350
3B
  3
ACAD_MLEADERSTYLE
350
E1
  3
ACAD_MLINESTYLE
350
17
  3
ACAD_PLOTSETTINGS
350
19
  3
ACAD_PLOTSTYLENAME
350
E
  3
ACAD_TABLESTYLE
350
E0
  3
ACAD_VISUALSTYLE
350
2A
  0
SUN
  5
3F
330
29
100
AcDbSun
 90
        1
290
     0
 63
     7
421
 16777215
 40
1.0
291
     1
 91
  2455826
 92
 54000000
292
     0
 70
     2
 71
   256
280
     1
  0
DICTIONARY
  5
D
102
{ACAD_REACTORS
330
C
102
}
330
C
100
AcDbDictionary
281
     1
  0
DICTIONARY
  5
1A
102
{ACAD_REACTORS
330
C
102
}
330
C
100
AcDbDictionary
281
     1
  3
Layout1
350
1E
  3
Layout2
350
26
  3
Model
350
22
  0
DICTIONARY
  5
3B
102
{ACAD_REACTORS
330
C
102
}
330
C
100
AcDbDictionary
281
     1
  3
ByBlock
350
3D
  3
ByLayer
350
3C
  3
Global
350
3E
  0
DICTIONARY
  5
E1
102
{ACAD_REACTORS
330
C
102
}
330
C
100
AcDbDictionary
281
     1
  0
DICTIONARY
  5
17
102
{ACAD_REACTORS
330
C
102
}
330
C
100
AcDbDictionary
281
     1
  3
Standard
350
18
  0
DICTIONARY
  5
19
102
{ACAD_REACTORS
330
C
102
}
330
C
100
AcDbDictionary
281
     1
  0
ACDBDICTIONARYWDFLT
  5
E
102
{ACAD_REACTORS
330
C
102
}
330
C
100
AcDbDictionary
281
     1
  3
Normal
350
F
100
AcDbDictionaryWithDefault
340
F
  0
DICTIONARY
  5
E0
102
{ACAD_REACTORS
330
C
102
}
330
C
100
AcDbDictionary
281
     1
  0
DICTIONARY
  5
2A
102
{ACAD_REACTORS
330
C
102
}
330
C
100
AcDbDictionary
281
     1
  3
2dWireframe
350
2F
  3
3D Hidden
350
31
  3
3dWireframe
350
30
  3
Basic
350
32
  3
Brighten
350
36
  3
ColorChange
350
3A
  3
Conceptual
350
34
  3
Dim
350
35
  3
Facepattern
350
39
  3
Flat
350
2B
  3
FlatWithEdges
350
2C
  3
Gouraud
350
2D
  3
GouraudWithEdges
350
2E
  3
Linepattern
350
38
  3
Realistic
350
33
  3
Thicken
350
37
  0
LAYOUT
  5
1E
102
{ACAD_REACTORS
330
1A
102
}
330
1A
100
AcDbPlotSettings
  1

  2
none_device
  4

  6

 40
0.0
 41
0.0
 42
0.0
 43
0.0
 44
0.0
 45
0.0
 46
0.0
 47
0.0
 48
0.0
 49
0.0
140
0.0
141
0.0
142
1.0
143
1.0
 70
   688
 72
     0
 73
     0
 74
     5
  7

 75
    16
 76
     0
 77
     2
 78
   300
147
1.0
148
0.0
149
0.0
100
AcDbLayout
  1
Layout1
 70
     1
 71
     1
 10
0.0
 20
0.0
 11
12.0
 21
9.0
 12
0.0
 22
0.0
 32
0.0
 14
1.000000000000000E+20
 24
1.000000000000000E+20
 34
1.000000000000000E+20
 15
-1.000000000000000E+20
 25
-1.000000000000000E+20
 35
-1.000000000000000E+20
146
0.0
 13
0.0
 23
0.0
 33
0.0
 16
1.0
 26
0.0
 36
0.0
 17
0.0
 27
1.0
 37
0.0
 76
     0
330
1B
  0
LAYOUT
  5
26
102
{ACAD_REACTORS
330
1A
102
}
330
1A
100
AcDbPlotSettings
  1

  2
none_device
  4

  6

 40
0.0
 41
0.0
 42
0.0
 43
0.0
 44
0.0
 45
0.0
 46
0.0
 47
0.0
 48
0.0
 49
0.0
140
0.0
141
0.0
142
1.0
143
1.0
 70
   688
 72
     0
 73
     0
 74
     5
  7

 75
    16
 76
     0
 77
     2
 78
   300
147
1.0
148
0.0
149
0.0
100
AcDbLayout
  1
Layout2
 70
     1
 71
     2
 10
0.0
 20
0.0
 11
0.0
 21
0.0
 12
0.0
 22
0.0
 32
0.0
 14
0.0
 24
0.0
 34
0.0
 15
0.0
 25
0.0
 35
0.0
146
0.0
 13
0.0
 23
0.0
 33
0.0
 16
1.0
 26
0.0
 36
0.0
 17
0.0
 27
1.0
 37
0.0
 76
     0
330
23
  0
LAYOUT
  5
22
102
{ACAD_REACTORS
330
1A
102
}
330
1A
100
AcDbPlotSettings
  1

  2
none_device
  4

  6

 40
0.0
 41
0.0
 42
0.0
 43
0.0
 44
0.0
 45
0.0
 46
0.0
 47
0.0
 48
0.0
 49
0.0
140
0.0
141
0.0
142
1.0
143
1.0
 70
  1712
 72
     0
 73
     0
 74
     0
  7

 75
     0
 76
     0
 77
     2
 78
   300
147
1.0
148
0.0
149
0.0
100
AcDbLayout
  1
Model
 70
     1
 71
     0
 10
0.0
 20
0.0
 11
12.0
 21
9.0
 12
0.0
 22
0.0
 32
0.0
 14
1.000000000000000E+20
 24
1.000000000000000E+20
 34
1.000000000000000E+20
 15
-1.000000000000000E+20
 25
-1.000000000000000E+20
 35
-1.000000000000000E+20
146
0.0
 13
0.0
 23
0.0
 33
0.0
 16
1.0
 26
0.0
 36
0.0
 17
0.0
 27
1.0
 37
0.0
 76
     0
330
1F
331
29
  0
MATERIAL
  5
3D
102
{ACAD_REACTORS
330
3B
102
}
330
3B
100
AcDbMaterial
  1
ByBlock
 72
     1
 94
      127
  0
MATERIAL
  5
3C
102
{ACAD_REACTORS
330
3B
102
}
330
3B
100
AcDbMaterial
  1
ByLayer
 72
     1
 94
      127
  0
MATERIAL
  5
3E
102
{ACAD_REACTORS
330
3B
102
}
330
3B
100
AcDbMaterial
  1
Global
 72
     1
 94
      127
  0
MLINESTYLE
  5
18
102
{ACAD_REACTORS
330
17
102
}
330
17
100
AcDbMlineStyle
  2
Standard
 70
     0
  3

 62
   256
 51
90.0
 52
90.0
 71
     2
 49
0.5
 62
   256
  6
BYLAYER
 49
-0.5
 62
   256
  6
BYLAYER
  0
ACDBPLACEHOLDER
  5
F
102
{ACAD_REACTORS
330
E
102
}
330
E
  0
VISUALSTYLE
  5
2F
102
{ACAD_REACTORS
330
2A
102
}
330
2A
100
AcDbVisualStyle
  2
2dWireframe
 70
     4
177
     2
291
     0
 71
     0
176
     1
 72
     2
176
     1
 73
     0
176
     1
 90
        0
176
     1
 40
-0.6
176
     1
 41
-30.0
176
     1
 62
     5
 63
     7
421
 16777215
176
     1
 74
     1
176
     1
 91
        4
176
     1
 64
     7
176
     1
 65
   257
176
     1
 75
     1
176
     1
175
     1
176
     1
 42
1.0
176
     1
 92
        0
176
     1
 66
   257
176
     1
 43
1.0
176
     1
 76
     1
176
     1
 77
     6
176
     1
 78
     2
176
     1
 67
     7
176
     1
 79
     5
176
     1
170
     0
176
     1
171
     0
176
     1
290
     0
176
     1
 93
        1
176
     1
 44
0.0
176
     1
173
     0
176
     1
  0
VISUALSTYLE
  5
31
102
{ACAD_REACTORS
330
2A
102
}
330
2A
100
AcDbVisualStyle
  2
3D Hidden
 70
     6
177
     2
291
     0
 71
     1
176
     1
 72
     2
176
     1
 73
     2
176
     1
 90
        0
176
     1
 40
-0.6
176
     1
 41
-30.0
176
     1
 62
     5
 63
     7
421
 16777215
176
     1
 74
     2
176
     1
 91
        2
176
     1
 64
     7
176
     1
 65
   257
176
     1
 75
     2
176
     1
175
     1
176
     1
 42
40.0
176
     1
 92
        0
176
     1
 66
   257
176
     1
 43
1.0
176
     1
 76
     1
176
     1
 77
     6
176
     1
 78
     2
176
     1
 67
     7
176
     1
 79
     3
176
     1
170
     0
176
     1
171
     0
176
     1
290
     0
176
     1
 93
        1
176
     1
 44
0.0
176
     1
173
     0
176
     1
  0
VISUALSTYLE
  5
30
102
{ACAD_REACTORS
330
2A
102
}
330
2A
100
AcDbVisualStyle
  2
3dWireframe
 70
     5
177
     2
291
     0
 71
     0
176
     1
 72
     2
176
     1
 73
     0
176
     1
 90
        0
176
     1
 40
-0.6
176
     1
 41
-30.0
176
     1
 62
     5
 63
     7
421
 16777215
176
     1
 74
     1
176
     1
 91
        4
176
     1
 64
     7
176
     1
 65
   257
176
     1
 75
     1
176
     1
175
     1
176
     1
 42
1.0
176
     1
 92
        0
176
     1
 66
   257
176
     1
 43
1.0
176
     1
 76
     1
176
     1
 77
     6
176
     1
 78
     2
176
     1
 67
     7
176
     1
 79
     5
176
     1
170
     0
176
     1
171
     0
176
     1
290
     0
176
     1
 93
        1
176
     1
 44
0.0
176
     1
173
     0
176
     1
  0
VISUALSTYLE
  5
32
102
{ACAD_REACTORS
330
2A
102
}
330
2A
100
AcDbVisualStyle
  2
Basic
 70
     7
177
     2
291
     1
 71
     1
176
     1
 72
     0
176
     1
 73
     1
176
     1
 90
        0
176
     1
 40
-0.6
176
     1
 41
-30.0
176
     1
 62
     5
 63
     7
421
 16777215
176
     1
 74
     0
176
     1
 91
        4
176
     1
 64
     7
176
     1
 65
   257
176
     1
 75
     1
176
     1
175
     1
176
     1
 42
1.0
176
     1
 92
        8
176
     1
 66
     7
176
     1
 43
1.0
176
     1
 76
     1
176
     1
 77
     6
176
     1
 78
     2
176
     1
 67
     7
176
     1
 79
     5
176
     1
170
     0
176
     1
171
     0
176
     1
290
     0
176
     1
 93
        1
176
     1
 44
0.0
176
     1
173
     0
176
     1
  0
VISUALSTYLE
  5
36
102
{ACAD_REACTORS
330
2A
102
}
330
2A
100
AcDbVisualStyle
  2
Brighten
 70
    12
177
     2
291
     1
 71
     2
176
     1
 72
     2
176
     1
 73
     0
176
     1
 90
        0
176
     1
 40
-0.6
176
     1
 41
-30.0
176
     1
 62
     5
 63
     7
421
 16777215
176
     1
 74
     1
176
     1
 91
        4
176
     1
 64
     7
176
     1
 65
   257
176
     1
 75
     1
176
     1
175
     1
176
     1
 42
1.0
176
     1
 92
        8
176
     1
 66
     7
176
     1
 43
1.0
176
     1
 76
     1
176
     1
 77
     6
176
     1
 78
     2
176
     1
 67
     7
176
     1
 79
     5
176
     1
170
     0
176
     1
171
     0
176
     1
290
     0
176
     1
 93
        1
176
     1
 44
50.0
176
     1
173
     0
176
     1
  0
VISUALSTYLE
  5
3A
102
{ACAD_REACTORS
330
2A
102
}
330
2A
100
AcDbVisualStyle
  2
ColorChange
 70
    16
177
     2
291
     1
 71
     2
176
     1
 72
     2
176
     1
 73
     3
176
     1
 90
        0
176
     1
 40
-0.6
176
     1
 41
-30.0
176
     1
 62
     5
 63
     8
421
  8421504
176
     1
 74
     1
176
     1
 91
        4
176
     1
 64
     7
176
     1
 65
   257
176
     1
 75
     1
176
     1
175
     1
176
     1
 42
1.0
176
     1
 92
        8
176
     1
 66
     8
424
  8421504
176
     1
 43
1.0
176
     1
 76
     1
176
     1
 77
     6
176
     1
 78
     2
176
     1
 67
     7
176
     1
 79
     5
176
     1
170
     0
176
     1
171
     0
176
     1
290
     0
176
     1
 93
        1
176
     1
 44
0.0
176
     1
173
     0
176
     1
  0
VISUALSTYLE
  5
34
102
{ACAD_REACTORS
330
2A
102
}
330
2A
100
AcDbVisualStyle
  2
Conceptual
 70
     9
177
     2
291
     0
 71
     3
176
     1
 72
     2
176
     1
 73
     0
176
     1
 90
        0
176
     1
 40
-0.6
176
     1
 41
-30.0
176
     1
 62
     5
 63
     7
421
 16777215
176
     1
 74
     2
176
     1
 91
        2
176
     1
 64
     7
176
     1
 65
   257
176
     1
 75
     1
176
     1
175
     1
176
     1
 42
40.0
176
     1
 92
        8
176
     1
 66
     7
176
     1
 43
1.0
176
     1
 76
     1
176
     1
 77
     6
176
     1
 78
     2
176
     1
 67
     7
176
     1
 79
     3
176
     1
170
     0
176
     1
171
     0
176
     1
290
     0
176
     1
 93
        1
176
     1
 44
0.0
176
     1
173
     0
176
     1
  0
VISUALSTYLE
  5
35
102
{ACAD_REACTORS
330
2A
102
}
330
2A
100
AcDbVisualStyle
  2
Dim
 70
    11
177
     2
291
     1
 71
     2
176
     1
 72
     2
176
     1
 73
     0
176
     1
 90
        0
176
     1
 40
-0.6
176
     1
 41
-30.0
176
     1
 62
     5
 63
     7
421
 16777215
176
     1
 74
     1
176
     1
 91
        4
176
     1
 64
     7
176
     1
 65
   257
176
     1
 75
     1
176
     1
175
     1
176
     1
 42
1.0
176
     1
 92
        8
176
     1
 66
     7
176
     1
 43
1.0
176
     1
 76
     1
176
     1
 77
     6
176
     1
 78
     2
176
     1
 67
     7
176
     1
 79
     5
176
     1
170
     0
176
     1
171
     0
176
     1
290
     0
176
     1
 93
        1
176
     1
 44
-50.0
176
     1
173
     0
176
     1
  0
VISUALSTYLE
  5
39
102
{ACAD_REACTORS
330
2A
102
}
330
2A
100
AcDbVisualStyle
  2
Facepattern
 70
    15
177
     2
291
     1
 71
     2
176
     1
 72
     2
176
     1
 73
     0
176
     1
 90
        0
176
     1
 40
-0.6
176
     1
 41
-30.0
176
     1
 62
     5
 63
     7
421
 16777215
176
     1
 74
     1
176
     1
 91
        4
176
     1
 64
     7
176
     1
 65
   257
176
     1
 75
     1
176
     1
175
     1
176
     1
 42
1.0
176
     1
 92
        8
176
     1
 66
     7
176
     1
 43
1.0
176
     1
 76
     1
176
     1
 77
     6
176
     1
 78
     2
176
     1
 67
     7
176
     1
 79
     5
176
     1
170
     0
176
     1
171
     0
176
     1
290
     0
176
     1
 93
        1
176
     1
 44
0.0
176
     1
173
     0
176
     1
  0
VISUALSTYLE
  5
2B
102
{ACAD_REACTORS
330
2A
102
}
330
2A
100
AcDbVisualStyle
  2
Flat
 70
     0
177
     2
291
     1
 71
     2
176
     1
 72
     1
176
     1
 73
     1
176
     1
 90
        2
176
     1
 40
-0.6
176
     1
 41
30.0
176
     1
 62
     5
 63
     7
421
 16777215
176
     1
 74
     0
176
     1
 91
        4
176
     1
 64
     7
176
     1
 65
   257
176
     1
 75
     1
176
     1
175
     1
176
     1
 42
1.0
176
     1
 92
        8
176
     1
 66
     7
176
     1
 43
1.0
176
     1
 76
     1
176
     1
 77
     6
176
     1
 78
     2
176
     1
 67
     7
176
     1
 79
     5
176
     1
170
     0
176
     1
171
     0
176
     1
290
     0
176
     1
 93
       13
176
     1
 44
0.0
176
     1
173
     0
176
     1
  0
VISUALSTYLE
  5
2C
102
{ACAD_REACTORS
330
2A
102
}
330
2A
100
AcDbVisualStyle
  2
FlatWithEdges
 70
     1
177
     2
291
     1
 71
     2
176
     1
 72
     1
176
     1
 73
     1
176
     1
 90
        2
176
     1
 40
-0.6
176
     1
 41
30.0
176
     1
 62
     5
 63
     7
421
 16777215
176
     1
 74
     1
176
     1
 91
        4
176
     1
 64
     7
176
     1
 65
   257
176
     1
 75
     1
176
     1
175
     1
176
     1
 42
1.0
176
     1
 92
        0
176
     1
 66
   257
176
     1
 43
1.0
176
     1
 76
     1
176
     1
 77
     6
176
     1
 78
     2
176
     1
 67
     7
176
     1
 79
     5
176
     1
170
     0
176
     1
171
     0
176
     1
290
     0
176
     1
 93
       13
176
     1
 44
0.0
176
     1
173
     0
176
     1
  0
VISUALSTYLE
  5
2D
102
{ACAD_REACTORS
330
2A
102
}
330
2A
100
AcDbVisualStyle
  2
Gouraud
 70
     2
177
     2
291
     1
 71
     2
176
     1
 72
     2
176
     1
 73
     1
176
     1
 90
        2
176
     1
 40
-0.6
176
     1
 41
30.0
176
     1
 62
     5
 63
     7
421
 16777215
176
     1
 74
     0
176
     1
 91
        4
176
     1
 64
     7
176
     1
 65
   257
176
     1
 75
     1
176
     1
175
     1
176
     1
 42
1.0
176
     1
 92
        0
176
     1
 66
     7
176
     1
 43
1.0
176
     1
 76
     1
176
     1
 77
     6
176
     1
 78
     2
176
     1
 67
     7
176
     1
 79
     5
176
     1
170
     0
176
     1
171
     0
176
     1
290
     0
176
     1
 93
       13
176
     1
 44
0.0
176
     1
173
     0
176
     1
  0
VISUALSTYLE
  5
2E
102
{ACAD_REACTORS
330
2A
102
}
330
2A
100
AcDbVisualStyle
  2
GouraudWithEdges
 70
     3
177
     2
291
     1
 71
     2
176
     1
 72
     2
176
     1
 73
     1
176
     1
 90
        2
176
     1
 40
-0.6
176
     1
 41
30.0
176
     1
 62
     5
 63
     7
421
 16777215
176
     1
 74
     1
176
     1
 91
        4
176
     1
 64
     7
176
     1
 65
   257
176
     1
 75
     1
176
     1
175
     1
176
     1
 42
1.0
176
     1
 92
        0
176
     1
 66
   257
176
     1
 43
1.0
176
     1
 76
     1
176
     1
 77
     6
176
     1
 78
     2
176
     1
 67
     7
176
     1
 79
     5
176
     1
170
     0
176
     1
171
     0
176
     1
290
     0
176
     1
 93
       13
176
     1
 44
0.0
176
     1
173
     0
176
     1
  0
VISUALSTYLE
  5
38
102
{ACAD_REACTORS
330
2A
102
}
330
2A
100
AcDbVisualStyle
  2
Linepattern
 70
    14
177
     2
291
     1
 71
     2
176
     1
 72
     2
176
     1
 73
     0
176
     1
 90
        0
176
     1
 40
-0.6
176
     1
 41
-30.0
176
     1
 62
     5
 63
     7
421
 16777215
176
     1
 74
     1
176
     1
 91
        4
176
     1
 64
     7
176
     1
 65
   257
176
     1
 75
     7
176
     1
175
     7
176
     1
 42
1.0
176
     1
 92
        8
176
     1
 66
     7
176
     1
 43
1.0
176
     1
 76
     1
176
     1
 77
     6
176
     1
 78
     2
176
     1
 67
     7
176
     1
 79
     5
176
     1
170
     0
176
     1
171
     0
176
     1
290
     0
176
     1
 93
        1
176
     1
 44
0.0
176
     1
173
     0
176
     1
  0
VISUALSTYLE
  5
33
102
{ACAD_REACTORS
330
2A
102
}
330
2A
100
AcDbVisualStyle
  2
Realistic
 70
     8
177
     2
291
     0
 71
     2
176
     1
 72
     2
176
     1
 73
     0
176
     1
 90
        0
176
     1
 40
-0.6
176
     1
 41
-30.0
176
     1
 62
     5
 63
     7
421
 16777215
176
     1
 74
     1
176
     1
 91
        0
176
     1
 64
     7
176
     1
 65
   257
176
     1
 75
     1
176
     1
175
     1
176
     1
 42
1.0
176
     1
 92
        8
176
     1
 66
     8
424
  7895160
176
     1
 43
1.0
176
     1
 76
     1
176
     1
 77
     6
176
     1
 78
     2
176
     1
 67
     7
176
     1
 79
     5
176
     1
170
     0
176
     1
171
     0
176
     1
290
     0
176
     1
 93
       13
176
     1
 44
0.0
176
     1
173
     0
176
     1
  0
VISUALSTYLE
  5
37
102
{ACAD_REACTORS
330
2A
102
}
330
2A
100
AcDbVisualStyle
  2
Thicken
 70
    13
177
     2
291
     1
 71
     2
176
     1
 72
     2
176
     1
 73
     0
176
     1
 90
        0
176
     1
 40
-0.6
176
     1
 41
-30.0
176
     1
 62
     5
 63
     7
421
 16777215
176
     1
 74
     1
176
     1
 91
        4
176
     1
 64
     7
176
     1
 65
   257
176
     1
 75
     1
176
     1
175
     1
176
     1
 42
1.0
176
     1
 92
       12
176
     1
 66
     7
176
     1
 43
1.0
176
     1
 76
     1
176
     1
 77
     6
176
     1
 78
     2
176
     1
 67
     7
176
     1
 79
     5
176
     1
170
     0
176
     1
171
     0
176
     1
290
     0
176
     1
 93
        1
176
     1
 44
0.0
176
     1
173
     0
176
     1
  0
ENDSEC
  0
EOF
